  0
SECTION
  2
HEADER
  9
$ACADVER
  1
AC1024
  9
$ACADMAINTVER
 70
   226
  9
$DWGCODEPAGE
  3
ANSI_932
  9
$INSBASE
 10
0.0
 20
0.0
 30
0.0
  9
$EXTMIN
 10
1.000000000000000E+20
 20
1.000000000000000E+20
 30
1.000000000000000E+20
  9
$EXTMAX
 10
-1.000000000000000E+20
 20
-1.000000000000000E+20
 30
-1.000000000000000E+20
  9
$LIMMIN
 10
0.0
 20
0.0
  9
$LIMMAX
 10
12.0
 20
9.0
  9
$ORTHOMODE
 70
     0
  9
$REGENMODE
 70
     1
  9
$FILLMODE
 70
     1
  9
$QTEXTMODE
 70
     0
  9
$MIRRTEXT
 70
     0
  9
$LTSCALE
 40
1.0
  9
$ATTMODE
 70
     1
  9
$TEXTSIZE
 40
0.2
  9
$TRACEWID
 40
0.05
  9
$TEXTSTYLE
  7
Standard
  9
$CLAYER
  8
0
  9
$CELTYPE
  6
ByLayer
  9
$CECOLOR
 62
   256
  9
$CELTSCALE
 40
1.0
  9
$DISPSILH
 70
     0
  9
$DIMSCALE
 40
1.0
  9
$DIMASZ
 40
0.18
  9
$DIMEXO
 40
0.0625
  9
$DIMDLI
 40
0.38
  9
$DIMRND
 40
0.0
  9
$DIMDLE
 40
0.0
  9
$DIMEXE
 40
0.18
  9
$DIMTP
 40
0.0
  9
$DIMTM
 40
0.0
  9
$DIMTXT
 40
0.18
  9
$DIMCEN
 40
0.09
  9
$DIMTSZ
 40
0.0
  9
$DIMTOL
 70
     0
  9
$DIMLIM
 70
     0
  9
$DIMTIH
 70
     1
  9
$DIMTOH
 70
     1
  9
$DIMSE1
 70
     0
  9
$DIMSE2
 70
     0
  9
$DIMTAD
 70
     0
  9
$DIMZIN
 70
     0
  9
$DIMBLK
  1

  9
$DIMASO
 70
     1
  9
$DIMSHO
 70
     1
  9
$DIMPOST
  1

  9
$DIMAPOST
  1

  9
$DIMALT
 70
     0
  9
$DIMALTD
 70
     2
  9
$DIMALTF
 40
25.4
  9
$DIMLFAC
 40
1.0
  9
$DIMTOFL
 70
     0
  9
$DIMTVP
 40
0.0
  9
$DIMTIX
 70
     0
  9
$DIMSOXD
 70
     0
  9
$DIMSAH
 70
     0
  9
$DIMBLK1
  1

  9
$DIMBLK2
  1

  9
$DIMSTYLE
  2
Standard
  9
$DIMCLRD
 70
     0
  9
$DIMCLRE
 70
     0
  9
$DIMCLRT
 70
     0
  9
$DIMTFAC
 40
1.0
  9
$DIMGAP
 40
0.09
  9
$DIMJUST
 70
     0
  9
$DIMSD1
 70
     0
  9
$DIMSD2
 70
     0
  9
$DIMTOLJ
 70
     1
  9
$DIMTZIN
 70
     0
  9
$DIMALTZ
 70
     0
  9
$DIMALTTZ
 70
     0
  9
$DIMUPT
 70
     0
  9
$DIMDEC
 70
     4
  9
$DIMTDEC
 70
     4
  9
$DIMALTU
 70
     2
  9
$DIMALTTD
 70
     2
  9
$DIMTXSTY
  7
Standard
  9
$DIMAUNIT
 70
     0
  9
$DIMADEC
 70
     0
  9
$DIMALTRND
 40
0.0
  9
$DIMAZIN
 70
     0
  9
$DIMDSEP
 70
    46
  9
$DIMATFIT
 70
     3
  9
$DIMFRAC
 70
     0
  9
$DIMLDRBLK
  1

  9
$DIMLUNIT
 70
     2
  9
$DIMLWD
 70
    -2
  9
$DIMLWE
 70
    -2
  9
$DIMTMOVE
 70
     0
  9
$DIMFXL
 40
1.0
  9
$DIMFXLON
 70
     0
  9
$DIMJOGANG
 40
0.7853981633974483
  9
$DIMTFILL
 70
     0
  9
$DIMTFILLCLR
 70
     0
  9
$DIMARCSYM
 70
     0
  9
$DIMLTYPE
  6

  9
$DIMLTEX1
  6

  9
$DIMLTEX2
  6

  9
$DIMTXTDIRECTION
 70
     0
  9
$LUNITS
 70
     2
  9
$LUPREC
 70
     4
  9
$SKETCHINC
 40
0.1
  9
$FILLETRAD
 40
0.0
  9
$AUNITS
 70
     0
  9
$AUPREC
 70
     0
  9
$MENU
  1
.
  9
$ELEVATION
 40
0.0
  9
$PELEVATION
 40
0.0
  9
$THICKNESS
 40
0.0
  9
$LIMCHECK
 70
     0
  9
$CHAMFERA
 40
0.0
  9
$CHAMFERB
 40
0.0
  9
$CHAMFERC
 40
0.0
  9
$CHAMFERD
 40
0.0
  9
$SKPOLY
 70
     0
  9
$TDCREATE
 40
2459569.503125000
  9
$TDUCREATE
 40
2459569.128125000
  9
$TDUPDATE
 40
2459569.503125000
  9
$TDUUPDATE
 40
2459569.128125000
  9
$TDINDWG
 40
0.0000000000
  9
$TDUSRTIMER
 40
0.0000000000
  9
$USRTIMER
 70
     1
  9
$ANGBASE
 50
0.0
  9
$ANGDIR
 70
     0
  9
$PDMODE
 70
     0
  9
$PDSIZE
 40
0.0
  9
$PLINEWID
 40
0.0
  9
$SPLFRAME
 70
     0
  9
$SPLINETYPE
 70
     6
  9
$SPLINESEGS
 70
     8
  9
$HANDSEED
  5
1AF
  9
$SURFTAB1
 70
     6
  9
$SURFTAB2
 70
     6
  9
$SURFTYPE
 70
     6
  9
$SURFU
 70
     6
  9
$SURFV
 70
     6
  9
$UCSBASE
  2

  9
$UCSNAME
  2

  9
$UCSORG
 10
0.0
 20
0.0
 30
0.0
  9
$UCSXDIR
 10
1.0
 20
0.0
 30
0.0
  9
$UCSYDIR
 10
0.0
 20
1.0
 30
0.0
  9
$UCSORTHOREF
  2

  9
$UCSORTHOVIEW
 70
     0
  9
$UCSORGTOP
 10
0.0
 20
0.0
 30
0.0
  9
$UCSORGBOTTOM
 10
0.0
 20
0.0
 30
0.0
  9
$UCSORGLEFT
 10
0.0
 20
0.0
 30
0.0
  9
$UCSORGRIGHT
 10
0.0
 20
0.0
 30
0.0
  9
$UCSORGFRONT
 10
0.0
 20
0.0
 30
0.0
  9
$UCSORGBACK
 10
0.0
 20
0.0
 30
0.0
  9
$PUCSBASE
  2

  9
$PUCSNAME
  2

  9
$PUCSORG
 10
0.0
 20
0.0
 30
0.0
  9
$PUCSXDIR
 10
1.0
 20
0.0
 30
0.0
  9
$PUCSYDIR
 10
0.0
 20
1.0
 30
0.0
  9
$PUCSORTHOREF
  2

  9
$PUCSORTHOVIEW
 70
     0
  9
$PUCSORGTOP
 10
0.0
 20
0.0
 30
0.0
  9
$PUCSORGBOTTOM
 10
0.0
 20
0.0
 30
0.0
  9
$PUCSORGLEFT
 10
0.0
 20
0.0
 30
0.0
  9
$PUCSORGRIGHT
 10
0.0
 20
0.0
 30
0.0
  9
$PUCSORGFRONT
 10
0.0
 20
0.0
 30
0.0
  9
$PUCSORGBACK
 10
0.0
 20
0.0
 30
0.0
  9
$USERI1
 70
     0
  9
$USERI2
 70
     0
  9
$USERI3
 70
     0
  9
$USERI4
 70
     0
  9
$USERI5
 70
     0
  9
$USERR1
 40
0.0
  9
$USERR2
 40
0.0
  9
$USERR3
 40
0.0
  9
$USERR4
 40
0.0
  9
$USERR5
 40
0.0
  9
$WORLDVIEW
 70
     1
  9
$SHADEDGE
 70
     3
  9
$SHADEDIF
 70
    70
  9
$TILEMODE
 70
     1
  9
$MAXACTVP
 70
    64
  9
$PINSBASE
 10
0.0
 20
0.0
 30
0.0
  9
$PLIMCHECK
 70
     0
  9
$PEXTMIN
 10
1.000000000000000E+20
 20
1.000000000000000E+20
 30
1.000000000000000E+20
  9
$PEXTMAX
 10
-1.000000000000000E+20
 20
-1.000000000000000E+20
 30
-1.000000000000000E+20
  9
$PLIMMIN
 10
0.0
 20
0.0
  9
$PLIMMAX
 10
12.0
 20
9.0
  9
$UNITMODE
 70
     0
  9
$VISRETAIN
 70
     1
  9
$PLINEGEN
 70
     0
  9
$PSLTSCALE
 70
     1
  9
$TREEDEPTH
 70
  3020
  9
$CMLSTYLE
  2
Standard
  9
$CMLJUST
 70
     0
  9
$CMLSCALE
 40
1.0
  9
$PROXYGRAPHICS
 70
     1
  9
$MEASUREMENT
 70
     0
  9
$CELWEIGHT
370
    -1
  9
$ENDCAPS
280
     0
  9
$JOINSTYLE
280
     0
  9
$LWDISPLAY
290
     1
  9
$INSUNITS
 70
     4
  9
$HYPERLINKBASE
  1

  9
$STYLESHEET
  1

  9
$XEDIT
290
     1
  9
$CEPSNTYPE
380
     0
  9
$PSTYLEMODE
290
     1
  9
$FINGERPRINTGUID
  2
{1F3CBEDE-50EB-0443-9971-5C56DD251383}
  9
$VERSIONGUID
  2
{C7CAAB92-504B-8346-990C-F7C80DDF9E54}
  9
$EXTNAMES
290
     1
  9
$PSVPSCALE
 40
0.0
  9
$OLESTARTUP
290
     0
  9
$SORTENTS
280
   127
  9
$INDEXCTL
280
     0
  9
$HIDETEXT
280
     1
  9
$XCLIPFRAME
280
     2
  9
$HALOGAP
280
     0
  9
$OBSCOLOR
 70
   257
  9
$OBSLTYPE
280
     0
  9
$INTERSECTIONDISPLAY
280
     0
  9
$INTERSECTIONCOLOR
 70
   257
  9
$DIMASSOC
280
     2
  9
$PROJECTNAME
  1

  9
$CAMERADISPLAY
290
     0
  9
$LENSLENGTH
 40
50.0
  9
$CAMERAHEIGHT
 40
0.0
  9
$STEPSPERSEC
 40
2.0
  9
$STEPSIZE
 40
6.0
  9
$3DDWFPREC
 40
2.0
  9
$PSOLWIDTH
 40
0.25
  9
$PSOLHEIGHT
 40
4.0
  9
$LOFTANG1
 40
1.570796326794896
  9
$LOFTANG2
 40
1.570796326794896
  9
$LOFTMAG1
 40
0.0
  9
$LOFTMAG2
 40
0.0
  9
$LOFTPARAM
 70
     7
  9
$LOFTNORMALS
280
     1
  9
$LATITUDE
 40
37.795
  9
$LONGITUDE
 40
-122.394
  9
$NORTHDIRECTION
 40
0.0
  9
$TIMEZONE
 70
 -8000
  9
$LIGHTGLYPHDISPLAY
280
     1
  9
$TILEMODELIGHTSYNCH
280
     1
  9
$CMATERIAL
347
11
  9
$SOLIDHIST
280
     0
  9
$SHOWHIST
280
     1
  9
$DWFFRAME
280
     2
  9
$DGNFRAME
280
     0
  9
$REALWORLDSCALE
290
     1
  9
$INTERFERECOLOR
 62
     1
  9
$INTERFEREOBJVS
345
33
  9
$INTERFEREVPVS
346
30
  9
$CSHADOW
280
     0
  9
$SHADOWPLANELOCATION
 40
0.0
  0
ENDSEC
  0
SECTION
  2
CLASSES
  0
CLASS
  1
ACDBDICTIONARYWDFLT
  2
AcDbDictionaryWithDefault
  3
ObjectDBX Classes
 90
        0
 91
        1
280
     0
281
     0
  0
CLASS
  1
MATERIAL
  2
AcDbMaterial
  3
ObjectDBX Classes
 90
     1153
 91
        3
280
     0
281
     0
  0
CLASS
  1
VISUALSTYLE
  2
AcDbVisualStyle
  3
ObjectDBX Classes
 90
     4095
 91
       24
280
     0
281
     0
  0
CLASS
  1
SCALE
  2
AcDbScale
  3
ObjectDBX Classes
 90
     1153
 91
       17
280
     0
281
     0
  0
CLASS
  1
TABLESTYLE
  2
AcDbTableStyle
  3
ObjectDBX Classes
 90
     4095
 91
        1
280
     0
281
     0
  0
CLASS
  1
MLEADERSTYLE
  2
AcDbMLeaderStyle
  3
ACDB_MLEADERSTYLE_CLASS
 90
     4095
 91
        1
280
     0
281
     0
  0
CLASS
  1
ACDBSECTIONVIEWSTYLE
  2
AcDbSectionViewStyle
  3
ObjectDBX Classes
 90
     1025
 91
        1
280
     0
281
     0
  0
CLASS
  1
ACDBDETAILVIEWSTYLE
  2
AcDbDetailViewStyle
  3
ObjectDBX Classes
 90
     1025
 91
        1
280
     0
281
     0
  0
CLASS
  1
DICTIONARYVAR
  2
AcDbDictionaryVar
  3
ObjectDBX Classes
 90
        0
 91
        5
280
     0
281
     0
  0
CLASS
  1
CELLSTYLEMAP
  2
AcDbCellStyleMap
  3
ObjectDBX Classes
 90
     1152
 91
        1
280
     0
281
     0
  0
ENDSEC
  0
SECTION
  2
TABLES
  0
TABLE
  2
VPORT
  5
8
330
0
100
AcDbSymbolTable
 70
     1
  0
VPORT
  5
57
330
8
100
AcDbSymbolTableRecord
100
AcDbViewportTableRecord
  2
*Active
 70
     0
 10
0.0
 20
0.0
 11
1.0
 21
1.0
 12
0.0
 22
0.0
 13
0.0
 23
0.0
 14
1.0
 24
1.0
 15
0.0
 25
0.0
 16
0.0
 26
0.0
 36
1.0
 17
104.9999999737534
 27
-148.4999999628701
 37
0.0
 40
302.939999924255
 41
0.7070707070707534
 42
50.0
 43
0.0
 44
0.0
 50
0.0
 51
0.0
 71
     0
 72
   100
 73
     1
 74
     0
 75
     1
 76
     0
 77
     0
 78
     0
281
     0
 65
     1
110
0.0
120
0.0
130
0.0
111
1.0
121
0.0
131
0.0
112
0.0
122
1.0
132
0.0
 79
     0
146
0.0
 60
     3
 61
     5
292
     1
282
     1
141
0.0
142
0.0
 63
   250
421
  3355443
  0
ENDTAB
  0
TABLE
  2
LTYPE
  5
5
330
0
100
AcDbSymbolTable
 70
     2
  0
LTYPE
  5
5B
330
5
100
AcDbSymbolTableRecord
100
AcDbLinetypeTableRecord
  2
ByBlock
 70
     0
  3

 72
    65
 73
     0
 40
0.0
  0
LTYPE
  5
5C
330
5
100
AcDbSymbolTableRecord
100
AcDbLinetypeTableRecord
  2
ByLayer
 70
     0
  3

 72
    65
 73
     0
 40
0.0
  0
LTYPE
  5
5D
330
5
100
AcDbSymbolTableRecord
100
AcDbLinetypeTableRecord
  2
Continuous
 70
     0
  3
Solid line
 72
    65
 73
     0
 40
0.0
  0
LTYPE
  5
AD
330
5
100
AcDbSymbolTableRecord
100
AcDbLinetypeTableRecord
  2
AI-Linetype-0
 70
     0
  3
Adobe Illustrator Linetype No. 0
 72
    65
 73
     2
 40
1.411111110758333
 49
0.7055555553791667
 74
     0
 49
-0.7055555553791667
 74
     0
  0
ENDTAB
  0
TABLE
  2
LAYER
  5
2
330
0
100
AcDbSymbolTable
 70
     2
  0
LAYER
  5
54
330
2
100
AcDbSymbolTableRecord
100
AcDbLayerTableRecord
  2
0
 70
     0
 62
     7
  6
Continuous
370
    -3
390
F
347
21
  0
LAYER
  5
78
330
2
100
AcDbSymbolTableRecord
100
AcDbLayerTableRecord
  2
レイヤー 1
 70
     0
 62
     7
  6
Continuous
370
     0
390
F
347
21
  0
ENDTAB
  0
TABLE
  2
STYLE
  5
3
330
0
100
AcDbSymbolTable
 70
     2
  0
STYLE
  5
55
330
3
100
AcDbSymbolTableRecord
100
AcDbTextStyleTableRecord
  2
Standard
 70
     0
 40
0.0
 41
1.0
 50
0.0
 71
     0
 42
0.2
  3
txt
  4

  0
STYLE
  5
5A
330
3
100
AcDbSymbolTableRecord
100
AcDbTextStyleTableRecord
  2
Annotative
 70
     0
 40
0.0
 41
1.0
 50
0.0
 71
     0
 42
0.2
  3
txt
  4

1001
AcadAnnotative
1000
AnnotativeData
1002
{
1070
     1
1070
     1
1002
}
  0
ENDTAB
  0
TABLE
  2
VIEW
  5
6
330
0
100
AcDbSymbolTable
 70
     0
  0
ENDTAB
  0
TABLE
  2
UCS
  5
7
330
0
100
AcDbSymbolTable
 70
     0
  0
ENDTAB
  0
TABLE
  2
APPID
  5
9
330
0
100
AcDbSymbolTable
 70
     2
  0
APPID
  5
56
330
9
100
AcDbSymbolTableRecord
100
AcDbRegAppTableRecord
  2
ACAD
 70
     0
  0
APPID
  5
5E
330
9
100
AcDbSymbolTableRecord
100
AcDbRegAppTableRecord
  2
AcadAnnotative
 70
     0
  0
ENDTAB
  0
TABLE
  2
DIMSTYLE
  5
A
330
0
100
AcDbSymbolTable
 70
     2
100
AcDbDimStyleTable
 71
     0
  0
DIMSTYLE
105
58
330
A
100
AcDbSymbolTableRecord
100
AcDbDimStyleTableRecord
  2
Standard
 70
     0
340
55
  0
DIMSTYLE
105
59
330
A
100
AcDbSymbolTableRecord
100
AcDbDimStyleTableRecord
  2
Annotative
 70
     0
340
55
1001
AcadAnnotative
1000
AnnotativeData
1002
{
1070
     1
1070
     1
1002
}
  0
ENDTAB
  0
TABLE
  2
BLOCK_RECORD
  5
1
330
0
100
AcDbSymbolTable
 70
    16
  0
BLOCK_RECORD
  5
70
330
1
100
AcDbSymbolTableRecord
100
AcDbBlockTableRecord
  2
*Model_Space
340
73
 70
     0
280
     1
281
     0
  0
BLOCK_RECORD
  5
6C
330
1
100
AcDbSymbolTableRecord
100
AcDbBlockTableRecord
  2
*Paper_Space
340
6F
 70
     0
280
     1
281
     0
  0
BLOCK_RECORD
  5
74
330
1
100
AcDbSymbolTableRecord
100
AcDbBlockTableRecord
  2
*Paper_Space0
340
77
 70
     0
280
     1
281
     0
  0
BLOCK_RECORD
  5
79
330
1
100
AcDbSymbolTableRecord
100
AcDbBlockTableRecord
  2
Block_0
340
0
102
{BLKREFS
331
7A
102
}
 70
     0
280
     1
281
     0
  0
BLOCK_RECORD
  5
7D
330
1
100
AcDbSymbolTableRecord
100
AcDbBlockTableRecord
  2
Block_1
340
0
102
{BLKREFS
331
7E
102
}
 70
     0
280
     1
281
     0
  0
BLOCK_RECORD
  5
81
330
1
100
AcDbSymbolTableRecord
100
AcDbBlockTableRecord
  2
Block_2
340
0
102
{BLKREFS
331
82
102
}
 70
     0
280
     1
281
     0
  0
BLOCK_RECORD
  5
AE
330
1
100
AcDbSymbolTableRecord
100
AcDbBlockTableRecord
  2
Block_3
340
0
102
{BLKREFS
331
AF
102
}
 70
     0
280
     1
281
     0
  0
BLOCK_RECORD
  5
119
330
1
100
AcDbSymbolTableRecord
100
AcDbBlockTableRecord
  2
Block_4
340
0
102
{BLKREFS
331
11A
102
}
 70
     0
280
     1
281
     0
  0
BLOCK_RECORD
  5
11D
330
1
100
AcDbSymbolTableRecord
100
AcDbBlockTableRecord
  2
Block_5
340
0
102
{BLKREFS
331
11E
102
}
 70
     0
280
     1
281
     0
  0
BLOCK_RECORD
  5
12A
330
1
100
AcDbSymbolTableRecord
100
AcDbBlockTableRecord
  2
Block_6
340
0
102
{BLKREFS
331
12B
102
}
 70
     0
280
     1
281
     0
  0
BLOCK_RECORD
  5
12E
330
1
100
AcDbSymbolTableRecord
100
AcDbBlockTableRecord
  2
Block_7
340
0
102
{BLKREFS
331
12F
102
}
 70
     0
280
     1
281
     0
  0
BLOCK_RECORD
  5
138
330
1
100
AcDbSymbolTableRecord
100
AcDbBlockTableRecord
  2
Block_8
340
0
102
{BLKREFS
331
139
102
}
 70
     0
280
     1
281
     0
  0
BLOCK_RECORD
  5
140
330
1
100
AcDbSymbolTableRecord
100
AcDbBlockTableRecord
  2
Block_9
340
0
102
{BLKREFS
331
141
102
}
 70
     0
280
     1
281
     0
  0
BLOCK_RECORD
  5
144
330
1
100
AcDbSymbolTableRecord
100
AcDbBlockTableRecord
  2
Block_10
340
0
102
{BLKREFS
331
145
102
}
 70
     0
280
     1
281
     0
  0
BLOCK_RECORD
  5
14F
330
1
100
AcDbSymbolTableRecord
100
AcDbBlockTableRecord
  2
Block_11
340
0
102
{BLKREFS
331
150
102
}
 70
     0
280
     1
281
     0
  0
BLOCK_RECORD
  5
158
330
1
100
AcDbSymbolTableRecord
100
AcDbBlockTableRecord
  2
Block_12
340
0
102
{BLKREFS
331
159
102
}
 70
     0
280
     1
281
     0
  0
BLOCK_RECORD
  5
163
330
1
100
AcDbSymbolTableRecord
100
AcDbBlockTableRecord
  2
Block_13
340
0
102
{BLKREFS
331
164
102
}
 70
     0
280
     1
281
     0
  0
BLOCK_RECORD
  5
167
330
1
100
AcDbSymbolTableRecord
100
AcDbBlockTableRecord
  2
Block_14
340
0
102
{BLKREFS
331
168
102
}
 70
     0
280
     1
281
     0
  0
ENDTAB
  0
ENDSEC
  0
SECTION
  2
BLOCKS
  0
BLOCK
  5
71
330
70
100
AcDbEntity
  8
0
100
AcDbBlockBegin
  2
*Model_Space
 70
     0
 10
0.0
 20
0.0
 30
0.0
  3
*Model_Space
  1

  0
ENDBLK
  5
72
330
70
100
AcDbEntity
  8
0
100
AcDbBlockEnd
  0
BLOCK
  5
6D
330
6C
100
AcDbEntity
 67
     1
  8
0
100
AcDbBlockBegin
  2
*Paper_Space
 70
     0
 10
0.0
 20
0.0
 30
0.0
  3
*Paper_Space
  1

  0
ENDBLK
  5
6E
330
6C
100
AcDbEntity
 67
     1
  8
0
100
AcDbBlockEnd
  0
BLOCK
  5
75
330
74
100
AcDbEntity
 67
     1
  8
0
100
AcDbBlockBegin
  2
*Paper_Space0
 70
     0
 10
0.0
 20
0.0
 30
0.0
  3
*Paper_Space0
  1

  0
ENDBLK
  5
76
330
74
100
AcDbEntity
 67
     1
  8
0
100
AcDbBlockEnd
  0
BLOCK
  5
7B
330
79
100
AcDbEntity
  8
0
100
AcDbBlockBegin
  2
Block_0
 70
     0
 10
0.0
 20
0.0
 30
0.0
  3
Block_0
  1

  0
INSERT
  5
7E
330
79
100
AcDbEntity
  8
レイヤー 1
100
AcDbBlockReference
  2
Block_1
 10
0.0
 20
0.0
 30
0.0
  0
LWPOLYLINE
  5
AB
330
79
100
AcDbEntity
  8
レイヤー 1
 62
   250
420
  2299925
370
     9
100
AcDbPolyline
 90
        3
 70
     0
 43
0.0
 10
118.5616340526056
 20
-146.0121708848423
 10
124.7352450062141
 20
-154.126059771703
 10
135.37749195693
 20
-154.126059771703
  0
LWPOLYLINE
  5
AC
330
79
100
AcDbEntity
  8
レイヤー 1
  6
AI-Linetype-0
 62
   154
420
    23468
370
    25
100
AcDbPolyline
 90
        6
 70
     0
 43
0.0
 10
79.22726616303285
 20
-146.4827411625023
 10
100.7467095071018
 20
-145.5418828294043
 10
100.7467095071018
 20
-150.8924633836217
 10
107.9786537670437
 20
-150.8924633836217
 10
107.9786537670437
 20
-145.4244078294335
 10
129.4395012750874
 20
-146.4238272736283
  0
INSERT
  5
AF
330
79
100
AcDbEntity
  8
レイヤー 1
100
AcDbBlockReference
  2
Block_3
 10
0.0
 20
0.0
 30
0.0
  0
ENDBLK
  5
7C
330
79
100
AcDbEntity
  8
0
100
AcDbBlockEnd
  0
BLOCK
  5
7F
330
7D
100
AcDbEntity
  8
0
100
AcDbBlockBegin
  2
Block_1
 70
     0
 10
0.0
 20
0.0
 30
0.0
  3
Block_1
  1

  0
INSERT
  5
82
330
7D
100
AcDbEntity
  8
レイヤー 1
100
AcDbBlockReference
  2
Block_2
 10
0.0
 20
0.0
 30
0.0
  0
ENDBLK
  5
80
330
7D
100
AcDbEntity
  8
0
100
AcDbBlockEnd
  0
BLOCK
  5
83
330
81
100
AcDbEntity
  8
0
100
AcDbBlockBegin
  2
Block_2
 70
     0
 10
0.0
 20
0.0
 30
0.0
  3
Block_2
  1

  0
SPLINE
  5
85
330
81
100
AcDbEntity
  8
レイヤー 1
100
AcDbSpline
210
0.0
220
0.0
230
1.0
 70
     9
 71
     3
 72
    17
 73
    13
 74
     0
 42
0.0000000001
 43
0.0000000001
 40
0.0
 40
0.0
 40
0.0
 40
0.0
 40
1.0
 40
1.0
 40
1.0
 40
2.0
 40
2.0
 40
2.0
 40
3.0
 40
3.0
 40
3.0
 40
4.0
 40
4.0
 40
4.0
 40
4.0
 10
126.3340630109512
 20
-150.4535210127338
 30
0.0
 10
126.2155517262586
 20
-150.3415554094632
 30
0.0
 10
126.1232231672539
 20
-150.2778211429861
 30
0.0
 10
126.0195257931479
 20
-150.2144313860575
 30
0.0
 10
126.0195257931479
 20
-150.2144313860575
 30
0.0
 10
126.1304578677729
 20
-150.1024657827868
 30
0.0
 10
126.1304578677729
 20
-150.1024657827868
 30
0.0
 10
126.2451795474317
 20
-150.1489745718377
 30
0.0
 10
126.3416422210187
 20
-150.2061631568929
 30
0.0
 10
126.4508517479012
 20
-150.3074489641592
 30
0.0
 10
126.4508517479012
 20
-150.3074489641592
 30
0.0
 10
126.3340630109512
 20
-150.4535210127338
 30
0.0
 10
126.3340630109512
 20
-150.4535210127338
 30
0.0
  0
SPLINE
  5
86
330
81
100
AcDbEntity
  8
レイヤー 1
100
AcDbSpline
210
0.0
220
0.0
230
1.0
 70
     9
 71
     3
 72
    20
 73
    16
 74
     0
 42
0.0000000001
 43
0.0000000001
 40
0.0
 40
0.0
 40
0.0
 40
0.0
 40
1.0
 40
1.0
 40
1.0
 40
2.0
 40
2.0
 40
2.0
 40
3.0
 40
3.0
 40
3.0
 40
4.0
 40
4.0
 40
4.0
 40
5.0
 40
5.0
 40
5.0
 40
5.0
 10
125.8434814138516
 20
-149.3979437560533
 30
0.0
 10
125.8100639876447
 20
-149.4465196023953
 30
0.0
 10
125.7566650076233
 20
-149.5247232699105
 30
0.0
 10
125.6343641178969
 20
-149.6349663254385
 30
0.0
 10
125.704644065796
 20
-149.6391004400208
 30
0.0
 10
125.7304822819354
 20
-149.6391004400208
 30
0.0
 10
125.7508083452984
 20
-149.6391004400208
 30
0.0
 10
125.7508083452984
 20
-149.6391004400208
 30
0.0
 10
125.9509683929914
 20
-149.6391004400208
 30
0.0
 10
125.9509683929914
 20
-149.6391004400208
 30
0.0
 10
125.9785291568734
 20
-149.6391004400208
 30
0.0
 10
126.0212483408905
 20
-149.6370333827296
 30
0.0
 10
126.0860161360132
 20
-149.6349663254385
 30
0.0
 10
125.9878309146836
 20
-149.5608967725056
 30
0.0
 10
125.945456240215
 20
-149.5143879834547
 30
0.0
 10
125.8434814138516
 20
-149.3979437560533
 30
0.0
  0
SPLINE
  5
87
330
81
100
AcDbEntity
  8
レイヤー 1
100
AcDbSpline
210
0.0
220
0.0
230
1.0
 70
     9
 71
     3
 72
    23
 73
    19
 74
     0
 42
0.0000000001
 43
0.0000000001
 40
0.0
 40
0.0
 40
0.0
 40
0.0
 40
1.0
 40
1.0
 40
1.0
 40
2.0
 40
2.0
 40
2.0
 40
3.0
 40
3.0
 40
3.0
 40
4.0
 40
4.0
 40
4.0
 40
5.0
 40
5.0
 40
5.0
 40
6.0
 40
6.0
 40
6.0
 40
6.0
 10
125.5823431760697
 20
-150.2399250926483
 30
0.0
 10
125.5637396604493
 20
-150.2630072323995
 30
0.0
 10
125.4786458019637
 20
-150.3753173452187
 30
0.0
 10
125.3563449122373
 20
-150.455588070025
 30
0.0
 10
125.3563449122373
 20
-150.455588070025
 30
0.0
 10
125.2102728636627
 20
-150.3350097280412
 30
0.0
 10
125.2102728636627
 20
-150.3350097280412
 30
0.0
 10
125.3418755111992
 20
-150.2588731178172
 30
0.0
 10
125.4286919174275
 20
-150.1637884824243
 30
0.0
 10
125.4714111014446
 20
-150.1107340119514
 30
0.0
 10
125.4714111014446
 20
-150.1107340119514
 30
0.0
 10
125.6229953027956
 20
-150.1934163035975
 30
0.0
 10
125.6229953027956
 20
-150.1934163035975
 30
0.0
 10
125.6305745128632
 20
-150.1975504181798
 30
0.0
 10
125.6381537229307
 20
-150.2037515900532
 30
0.0
 10
125.6381537229307
 20
-150.2144313860575
 30
0.0
 10
125.6381537229307
 20
-150.2399250926483
 30
0.0
 10
125.6064588444664
 20
-150.2399250926483
 30
0.0
 10
125.5823431760697
 20
-150.2399250926483
 30
0.0
  0
SPLINE
  5
88
330
81
100
AcDbEntity
  8
レイヤー 1
100
AcDbSpline
210
0.0
220
0.0
230
1.0
 70
     9
 71
     3
 72
    17
 73
    13
 74
     0
 42
0.0000000001
 43
0.0000000001
 40
0.0
 40
0.0
 40
0.0
 40
0.0
 40
1.0
 40
1.0
 40
1.0
 40
2.0
 40
2.0
 40
2.0
 40
3.0
 40
3.0
 40
3.0
 40
4.0
 40
4.0
 40
4.0
 40
4.0
 10
125.1861571952659
 20
-149.5354030659147
 30
0.0
 10
125.132413705696
 20
-149.4592664556907
 30
0.0
 10
125.0194145737798
 20
-149.3831298454667
 30
0.0
 10
124.9288085625178
 20
-149.3535020242935
 30
0.0
 10
124.9288085625178
 20
-149.3535020242935
 30
0.0
 10
125.0121798732608
 20
-149.1884819505501
 30
0.0
 10
125.0121798732608
 20
-149.1884819505501
 30
0.0
 10
125.1010633367803
 20
-149.2243109435967
 30
0.0
 10
125.1937364053335
 20
-149.2814995286518
 30
0.0
 10
125.2712510537516
 20
-149.3617702534582
 30
0.0
 10
125.2712510537516
 20
-149.3617702534582
 30
0.0
 10
125.1861571952659
 20
-149.5354030659147
 30
0.0
 10
125.1861571952659
 20
-149.5354030659147
 30
0.0
  0
SPLINE
  5
89
330
81
100
AcDbEntity
  8
レイヤー 1
100
AcDbSpline
210
0.0
220
0.0
230
1.0
 70
     9
 71
     3
 72
    23
 73
    19
 74
     0
 42
0.0000000001
 43
0.0000000001
 40
0.0
 40
0.0
 40
0.0
 40
0.0
 40
1.0
 40
1.0
 40
1.0
 40
2.0
 40
2.0
 40
2.0
 40
3.0
 40
3.0
 40
3.0
 40
4.0
 40
4.0
 40
4.0
 40
5.0
 40
5.0
 40
5.0
 40
6.0
 40
6.0
 40
6.0
 40
6.0
 10
124.9639485364673
 20
-150.4300943634341
 30
0.0
 10
124.9639485364673
 20
-150.4514539554427
 30
0.0
 10
124.9656710842099
 20
-150.4893500057804
 30
0.0
 10
124.9436224731043
 20
-150.4893500057804
 30
0.0
 10
124.9343207152942
 20
-150.4893500057804
 30
0.0
 10
124.9270860147752
 20
-150.483148833907
 30
0.0
 10
124.917784256965
 20
-150.4662678660293
 30
0.0
 10
124.917784256965
 20
-150.4662678660293
 30
0.0
 10
124.8268337361544
 20
-150.2843668244081
 30
0.0
 10
124.8268337361544
 20
-150.2843668244081
 30
0.0
 10
125.0159694782946
 20
-150.1551757437112
 30
0.0
 10
125.1878797430086
 20
-149.8781900666971
 30
0.0
 10
125.228876379283
 20
-149.8061875710554
 30
0.0
 10
125.228876379283
 20
-149.8061875710554
 30
0.0
 10
125.2915771171146
 20
-149.9860215553854
 30
0.0
 10
125.2915771171146
 20
-149.9860215553854
 30
0.0
 10
125.1751328897132
 20
-150.1827365075932
 30
0.0
 10
125.021481631071
 20
-150.3667046065055
 30
0.0
 10
124.9639485364673
 20
-150.4300943634341
 30
0.0
  0
SPLINE
  5
8A
330
81
100
AcDbEntity
  8
レイヤー 1
100
AcDbSpline
210
0.0
220
0.0
230
1.0
 70
     9
 71
     3
 72
   182
 73
   178
 74
     0
 42
0.0000000001
 43
0.0000000001
 40
0.0
 40
0.0
 40
0.0
 40
0.0
 40
1.0
 40
1.0
 40
1.0
 40
2.0
 40
2.0
 40
2.0
 40
3.0
 40
3.0
 40
3.0
 40
4.0
 40
4.0
 40
4.0
 40
5.0
 40
5.0
 40
5.0
 40
6.0
 40
6.0
 40
6.0
 40
7.0
 40
7.0
 40
7.0
 40
8.0
 40
8.0
 40
8.0
 40
9.0
 40
9.0
 40
9.0
 40
10.0
 40
10.0
 40
10.0
 40
11.0
 40
11.0
 40
11.0
 40
12.0
 40
12.0
 40
12.0
 40
13.0
 40
13.0
 40
13.0
 40
14.0
 40
14.0
 40
14.0
 40
15.0
 40
15.0
 40
15.0
 40
16.0
 40
16.0
 40
16.0
 40
17.0
 40
17.0
 40
17.0
 40
18.0
 40
18.0
 40
18.0
 40
19.0
 40
19.0
 40
19.0
 40
20.0
 40
20.0
 40
20.0
 40
21.0
 40
21.0
 40
21.0
 40
22.0
 40
22.0
 40
22.0
 40
23.0
 40
23.0
 40
23.0
 40
24.0
 40
24.0
 40
24.0
 40
25.0
 40
25.0
 40
25.0
 40
26.0
 40
26.0
 40
26.0
 40
27.0
 40
27.0
 40
27.0
 40
28.0
 40
28.0
 40
28.0
 40
29.0
 40
29.0
 40
29.0
 40
30.0
 40
30.0
 40
30.0
 40
31.0
 40
31.0
 40
31.0
 40
32.0
 40
32.0
 40
32.0
 40
33.0
 40
33.0
 40
33.0
 40
34.0
 40
34.0
 40
34.0
 40
35.0
 40
35.0
 40
35.0
 40
36.0
 40
36.0
 40
36.0
 40
37.0
 40
37.0
 40
37.0
 40
38.0
 40
38.0
 40
38.0
 40
39.0
 40
39.0
 40
39.0
 40
40.0
 40
40.0
 40
40.0
 40
41.0
 40
41.0
 40
41.0
 40
42.0
 40
42.0
 40
42.0
 40
43.0
 40
43.0
 40
43.0
 40
44.0
 40
44.0
 40
44.0
 40
45.0
 40
45.0
 40
45.0
 40
46.0
 40
46.0
 40
46.0
 40
47.0
 40
47.0
 40
47.0
 40
48.0
 40
48.0
 40
48.0
 40
49.0
 40
49.0
 40
49.0
 40
50.0
 40
50.0
 40
50.0
 40
51.0
 40
51.0
 40
51.0
 40
52.0
 40
52.0
 40
52.0
 40
53.0
 40
53.0
 40
53.0
 40
54.0
 40
54.0
 40
54.0
 40
55.0
 40
55.0
 40
55.0
 40
56.0
 40
56.0
 40
56.0
 40
57.0
 40
57.0
 40
57.0
 40
58.0
 40
58.0
 40
58.0
 40
59.0
 40
59.0
 40
59.0
 40
59.0
 10
125.9433891829239
 20
-151.0584797799437
 30
0.0
 10
125.9433891829239
 20
-151.0584797799437
 30
0.0
 10
125.3859727334104
 20
-151.0584797799437
 30
0.0
 10
125.3859727334104
 20
-151.0584797799437
 30
0.0
 10
125.1992485581099
 20
-151.0584797799437
 30
0.0
 10
125.0101128159697
 20
-151.0629584040745
 30
0.0
 10
124.8230441311206
 20
-151.0753607478214
 30
0.0
 10
124.8230441311206
 20
-151.0753607478214
 30
0.0
 10
124.8230441311206
 20
-150.8683105091579
 30
0.0
 10
124.8230441311206
 20
-150.8683105091579
 30
0.0
 10
125.0176920260372
 20
-150.8807128529048
 30
0.0
 10
125.3008788749248
 20
-150.8851914770356
 30
0.0
 10
125.3859727334104
 20
-150.8851914770356
 30
0.0
 10
125.3859727334104
 20
-150.8851914770356
 30
0.0
 10
125.5788980805844
 20
-150.8851914770356
 30
0.0
 10
125.5788980805844
 20
-150.8851914770356
 30
0.0
 10
125.5788980805844
 20
-150.8851914770356
 30
0.0
 10
125.5788980805844
 20
-150.7432535430433
 30
0.0
 10
125.5788980805844
 20
-150.7432535430433
 30
0.0
 10
125.5788980805844
 20
-150.7432535430433
 30
0.0
 10
125.4379936752377
 20
-150.7432535430433
 30
0.0
 10
125.4379936752377
 20
-150.7432535430433
 30
0.0
 10
125.2936441744057
 20
-150.7432535430433
 30
0.0
 10
125.1489501640252
 20
-150.7477321671742
 30
0.0
 10
125.0046006631933
 20
-150.7625460777607
 30
0.0
 10
125.0046006631933
 20
-150.7625460777607
 30
0.0
 10
125.0046006631933
 20
-150.5530842722575
 30
0.0
 10
125.0046006631933
 20
-150.5530842722575
 30
0.0
 10
125.1548068263502
 20
-150.5678981828441
 30
0.0
 10
125.3715033323724
 20
-150.5720322974264
 30
0.0
 10
125.4379936752377
 20
-150.5720322974264
 30
0.0
 10
125.4379936752377
 20
-150.5720322974264
 30
0.0
 10
125.5788980805844
 20
-150.5720322974264
 30
0.0
 10
125.5788980805844
 20
-150.5720322974264
 30
0.0
 10
125.5751084755507
 20
-150.5000298017847
 30
0.0
 10
125.5751084755507
 20
-150.4938286299112
 30
0.0
 10
125.5695963227742
 20
-150.4407741594384
 30
0.0
 10
125.5695963227742
 20
-150.4407741594384
 30
0.0
 10
125.6915527029521
 20
-150.455588070025
 30
0.0
 10
125.6915527029521
 20
-150.455588070025
 30
0.0
 10
125.6915527029521
 20
-150.455588070025
 30
0.0
 10
125.6047362967238
 20
-150.2843668244081
 30
0.0
 10
125.6047362967238
 20
-150.2843668244081
 30
0.0
 10
125.6453884234497
 20
-150.2905679962815
 30
0.0
 10
125.7101562185724
 20
-150.2991807349946
 30
0.0
 10
125.724970129159
 20
-150.2991807349946
 30
0.0
 10
125.7694118609187
 20
-150.2991807349946
 30
0.0
 10
125.7842257715053
 20
-150.2778211429861
 30
0.0
 10
125.7842257715053
 20
-150.2209770674794
 30
0.0
 10
125.7842257715053
 20
-150.2209770674794
 30
0.0
 10
125.7842257715053
 20
-150.0831732480695
 30
0.0
 10
125.7842257715053
 20
-150.0831732480695
 30
0.0
 10
125.7842257715053
 20
-150.0831732480695
 30
0.0
 10
125.6915527029521
 20
-150.0831732480695
 30
0.0
 10
125.6915527029521
 20
-150.0831732480695
 30
0.0
 10
125.5751084755507
 20
-150.0831732480695
 30
0.0
 10
125.4379936752377
 20
-150.0831732480695
 30
0.0
 10
125.3305066960979
 20
-150.0959201013649
 30
0.0
 10
125.3305066960979
 20
-150.0959201013649
 30
0.0
 10
125.3305066960979
 20
-149.9057508305791
 30
0.0
 10
125.3305066960979
 20
-149.9057508305791
 30
0.0
 10
125.476923254221
 20
-149.9226317984568
 30
0.0
 10
125.6788058496567
 20
-149.924698855748
 30
0.0
 10
125.6915527029521
 20
-149.924698855748
 30
0.0
 10
125.6915527029521
 20
-149.924698855748
 30
0.0
 10
125.7842257715053
 20
-149.924698855748
 30
0.0
 10
125.7842257715053
 20
-149.924698855748
 30
0.0
 10
125.7842257715053
 20
-149.924698855748
 30
0.0
 10
125.7842257715053
 20
-149.7934407177599
 30
0.0
 10
125.7842257715053
 20
-149.7934407177599
 30
0.0
 10
125.7842257715053
 20
-149.7934407177599
 30
0.0
 10
125.7508083452984
 20
-149.7934407177599
 30
0.0
 10
125.7508083452984
 20
-149.7934407177599
 30
0.0
 10
125.7118787663151
 20
-149.7934407177599
 30
0.0
 10
125.6026692394327
 20
-149.7975748323423
 30
0.0
 10
125.5251545910145
 20
-149.8061875710554
 30
0.0
 10
125.5251545910145
 20
-149.8061875710554
 30
0.0
 10
125.5251545910145
 20
-149.725916846249
 30
0.0
 10
125.5251545910145
 20
-149.725916846249
 30
0.0
 10
125.4786458019637
 20
-149.7638128965868
 30
0.0
 10
125.4565971908581
 20
-149.7786268071734
 30
0.0
 10
125.4193901596174
 20
-149.8020534564731
 30
0.0
 10
125.4193901596174
 20
-149.8020534564731
 30
0.0
 10
125.2547145954224
 20
-149.6728623757762
 30
0.0
 10
125.2547145954224
 20
-149.6728623757762
 30
0.0
 10
125.3232719955789
 20
-149.6391004400208
 30
0.0
 10
125.4603867958918
 20
-149.5757106830922
 30
0.0
 10
125.5971570866562
 20
-149.4317056918087
 30
0.0
 10
125.6695040918465
 20
-149.3535020242935
 30
0.0
 10
125.738061492003
 20
-149.2687526753564
 30
0.0
 10
125.7842257715053
 20
-149.1674668680901
 30
0.0
 10
125.7842257715053
 20
-149.1674668680901
 30
0.0
 10
125.9695719086117
 20
-149.2287895677275
 30
0.0
 10
125.9695719086117
 20
-149.2287895677275
 30
0.0
 10
125.9861083669409
 20
-149.2349907396009
 30
0.0
 10
125.9954101247511
 20
-149.2436034783141
 30
0.0
 10
125.9954101247511
 20
-149.256005822061
 30
0.0
 10
125.9954101247511
 20
-149.2732312994872
 30
0.0
 10
125.9843858191983
 20
-149.2794324713607
 30
0.0
 10
125.9619926985442
 20
-149.2921793246561
 30
0.0
 10
126.0322726464433
 20
-149.3893310173401
 30
0.0
 10
126.1748995995326
 20
-149.4868272195727
 30
0.0
 10
126.2045274207058
 20
-149.5057752447416
 30
0.0
 10
126.3361300682424
 20
-149.594658708261
 30
0.0
 10
126.4360378373146
 20
-149.622219472143
 30
0.0
 10
126.5045952374711
 20
-149.6411674973119
 30
0.0
 10
126.5045952374711
 20
-149.6411674973119
 30
0.0
 10
126.400897863365
 20
-149.8103216856377
 30
0.0
 10
126.400897863365
 20
-149.8103216856377
 30
0.0
 10
126.3268283104322
 20
-149.7806938644645
 30
0.0
 10
126.2823865786724
 20
-149.7617458392957
 30
0.0
 10
126.1786892045664
 20
-149.6962890250759
 30
0.0
 10
126.1786892045664
 20
-149.6962890250759
 30
0.0
 10
126.1786892045664
 20
-149.8061875710554
 30
0.0
 10
126.1786892045664
 20
-149.8061875710554
 30
0.0
 10
126.1063421993762
 20
-149.7975748323423
 30
0.0
 10
125.9954101247511
 20
-149.7934407177599
 30
0.0
 10
125.9489013357003
 20
-149.7934407177599
 30
0.0
 10
125.9489013357003
 20
-149.7934407177599
 30
0.0
 10
125.9489013357003
 20
-149.924698855748
 30
0.0
 10
125.9489013357003
 20
-149.924698855748
 30
0.0
 10
125.9489013357003
 20
-149.924698855748
 30
0.0
 10
126.0546657670974
 20
-149.924698855748
 30
0.0
 10
126.0546657670974
 20
-149.924698855748
 30
0.0
 10
126.05638831484
 20
-149.924698855748
 30
0.0
 10
126.2603379675669
 20
-149.9226317984568
 30
0.0
 10
126.4157117739516
 20
-149.9057508305791
 30
0.0
 10
126.4157117739516
 20
-149.9057508305791
 30
0.0
 10
126.4157117739516
 20
-150.0959201013649
 30
0.0
 10
126.4157117739516
 20
-150.0959201013649
 30
0.0
 10
126.3027126420354
 20
-150.0831732480695
 30
0.0
 10
126.1655978417225
 20
-150.0831732480695
 30
0.0
 10
126.0546657670974
 20
-150.0831732480695
 30
0.0
 10
126.0546657670974
 20
-150.0831732480695
 30
0.0
 10
125.9489013357003
 20
-150.0831732480695
 30
0.0
 10
125.9489013357003
 20
-150.0831732480695
 30
0.0
 10
125.9489013357003
 20
-150.0831732480695
 30
0.0
 10
125.9489013357003
 20
-150.3095160214504
 30
0.0
 10
125.9489013357003
 20
-150.3095160214504
 30
0.0
 10
125.9489013357003
 20
-150.428027306143
 30
0.0
 10
125.9268527245946
 20
-150.4642008087381
 30
0.0
 10
125.7862928287965
 20
-150.4790147193247
 30
0.0
 10
125.7897379242817
 20
-150.4979627444936
 30
0.0
 10
125.7842257715053
 20
-150.5086425404978
 30
0.0
 10
125.7508083452984
 20
-150.531724680249
 30
0.0
 10
125.7490857975558
 20
-150.5506727054179
 30
0.0
 10
125.7490857975558
 20
-150.5572183868399
 30
0.0
 10
125.7473632498131
 20
-150.5720322974264
 30
0.0
 10
125.7473632498131
 20
-150.5720322974264
 30
0.0
 10
125.8675970822483
 20
-150.5720322974264
 30
0.0
 10
125.8675970822483
 20
-150.5720322974264
 30
0.0
 10
126.0119465830803
 20
-150.5720322974264
 30
0.0
 10
126.1583631412035
 20
-150.5678981828441
 30
0.0
 10
126.304435189778
 20
-150.5530842722575
 30
0.0
 10
126.304435189778
 20
-150.5530842722575
 30
0.0
 10
126.304435189778
 20
-150.7601345109211
 30
0.0
 10
126.304435189778
 20
-150.7601345109211
 30
0.0
 10
126.1156439571863
 20
-150.7432535430433
 30
0.0
 10
125.8841335405776
 20
-150.7432535430433
 30
0.0
 10
125.8675970822483
 20
-150.7432535430433
 30
0.0
 10
125.8675970822483
 20
-150.7432535430433
 30
0.0
 10
125.745296192522
 20
-150.7432535430433
 30
0.0
 10
125.745296192522
 20
-150.7432535430433
 30
0.0
 10
125.745296192522
 20
-150.7432535430433
 30
0.0
 10
125.745296192522
 20
-150.8851914770356
 30
0.0
 10
125.745296192522
 20
-150.8851914770356
 30
0.0
 10
125.745296192522
 20
-150.8851914770356
 30
0.0
 10
125.9433891829239
 20
-150.8851914770356
 30
0.0
 10
125.9433891829239
 20
-150.8851914770356
 30
0.0
 10
126.1325249250641
 20
-150.8851914770356
 30
0.0
 10
126.3230387053984
 20
-150.8807128529048
 30
0.0
 10
126.5118299379901
 20
-150.8683105091579
 30
0.0
 10
126.5118299379901
 20
-150.8683105091579
 30
0.0
 10
126.5118299379901
 20
-151.0753607478214
 30
0.0
 10
126.5118299379901
 20
-151.0753607478214
 30
0.0
 10
126.2658501203432
 20
-151.0584797799437
 30
0.0
 10
125.9640597558354
 20
-151.0584797799437
 30
0.0
 10
125.9433891829239
 20
-151.0584797799437
 30
0.0
  0
SPLINE
  5
8B
330
81
100
AcDbEntity
  8
レイヤー 1
100
AcDbSpline
210
0.0
220
0.0
230
1.0
 70
     9
 71
     3
 72
    17
 73
    13
 74
     0
 42
0.0000000001
 43
0.0000000001
 40
0.0
 40
0.0
 40
0.0
 40
0.0
 40
1.0
 40
1.0
 40
1.0
 40
2.0
 40
2.0
 40
2.0
 40
3.0
 40
3.0
 40
3.0
 40
4.0
 40
4.0
 40
4.0
 40
4.0
 10
125.02871633159
 20
-149.8802571239883
 30
0.0
 10
124.9360432630368
 20
-149.7744926925911
 30
0.0
 10
124.8657633151377
 20
-149.7362521327048
 30
0.0
 10
124.7844590616858
 20
-149.7045572542405
 30
0.0
 10
124.7844590616858
 20
-149.7045572542405
 30
0.0
 10
124.8805772257243
 20
-149.539537180497
 30
0.0
 10
124.8805772257243
 20
-149.539537180497
 30
0.0
 10
124.9656710842099
 20
-149.5819118549656
 30
0.0
 10
125.0714355156071
 20
-149.6601155224808
 30
0.0
 10
125.1175997951095
 20
-149.7152370502448
 30
0.0
 10
125.1175997951095
 20
-149.7152370502448
 30
0.0
 10
125.02871633159
 20
-149.8802571239883
 30
0.0
 10
125.02871633159
 20
-149.8802571239883
 30
0.0
  0
HATCH
  5
8C
330
81
100
AcDbEntity
  8
レイヤー 1
 62
   250
420
  2299925
440
 33554687
100
AcDbHatch
 10
0.0
 20
0.0
 30
0.0
210
0.0
220
0.0
230
1.0
  2
SOLID
 70
     1
 71
     1
 91
        7
 92
        1
 93
        1
 72
     4
 94
        3
 73
     0
 74
     0
 95
       17
 96
       13
 40
0.0
 40
0.0
 40
0.0
 40
0.0
 40
1.0
 40
1.0
 40
1.0
 40
2.0
 40
2.0
 40
2.0
 40
3.0
 40
3.0
 40
3.0
 40
4.0
 40
4.0
 40
4.0
 40
4.0
 10
126.3340630109512
 20
-150.4535210127338
 10
126.2155517262586
 20
-150.3415554094632
 10
126.1232231672539
 20
-150.2778211429861
 10
126.0195257931479
 20
-150.2144313860575
 10
126.0195257931479
 20
-150.2144313860575
 10
126.1304578677729
 20
-150.1024657827868
 10
126.1304578677729
 20
-150.1024657827868
 10
126.2451795474317
 20
-150.1489745718377
 10
126.3416422210187
 20
-150.2061631568929
 10
126.4508517479012
 20
-150.3074489641592
 10
126.4508517479012
 20
-150.3074489641592
 10
126.3340630109512
 20
-150.4535210127338
 10
126.3340630109512
 20
-150.4535210127338
 97
        0
 97
        1
330
85
 92
        1
 93
        1
 72
     4
 94
        3
 73
     0
 74
     0
 95
       20
 96
       16
 40
0.0
 40
0.0
 40
0.0
 40
0.0
 40
1.0
 40
1.0
 40
1.0
 40
2.0
 40
2.0
 40
2.0
 40
3.0
 40
3.0
 40
3.0
 40
4.0
 40
4.0
 40
4.0
 40
5.0
 40
5.0
 40
5.0
 40
5.0
 10
125.8434814138516
 20
-149.3979437560533
 10
125.8100639876447
 20
-149.4465196023953
 10
125.7566650076233
 20
-149.5247232699105
 10
125.6343641178969
 20
-149.6349663254385
 10
125.704644065796
 20
-149.6391004400208
 10
125.7304822819354
 20
-149.6391004400208
 10
125.7508083452984
 20
-149.6391004400208
 10
125.7508083452984
 20
-149.6391004400208
 10
125.9509683929914
 20
-149.6391004400208
 10
125.9509683929914
 20
-149.6391004400208
 10
125.9785291568734
 20
-149.6391004400208
 10
126.0212483408905
 20
-149.6370333827296
 10
126.0860161360132
 20
-149.6349663254385
 10
125.9878309146836
 20
-149.5608967725056
 10
125.945456240215
 20
-149.5143879834547
 10
125.8434814138516
 20
-149.3979437560533
 97
        0
 97
        1
330
86
 92
        1
 93
        1
 72
     4
 94
        3
 73
     0
 74
     0
 95
       23
 96
       19
 40
0.0
 40
0.0
 40
0.0
 40
0.0
 40
1.0
 40
1.0
 40
1.0
 40
2.0
 40
2.0
 40
2.0
 40
3.0
 40
3.0
 40
3.0
 40
4.0
 40
4.0
 40
4.0
 40
5.0
 40
5.0
 40
5.0
 40
6.0
 40
6.0
 40
6.0
 40
6.0
 10
125.5823431760697
 20
-150.2399250926483
 10
125.5637396604493
 20
-150.2630072323995
 10
125.4786458019637
 20
-150.3753173452187
 10
125.3563449122373
 20
-150.455588070025
 10
125.3563449122373
 20
-150.455588070025
 10
125.2102728636627
 20
-150.3350097280412
 10
125.2102728636627
 20
-150.3350097280412
 10
125.3418755111992
 20
-150.2588731178172
 10
125.4286919174275
 20
-150.1637884824243
 10
125.4714111014446
 20
-150.1107340119514
 10
125.4714111014446
 20
-150.1107340119514
 10
125.6229953027956
 20
-150.1934163035975
 10
125.6229953027956
 20
-150.1934163035975
 10
125.6305745128632
 20
-150.1975504181798
 10
125.6381537229307
 20
-150.2037515900532
 10
125.6381537229307
 20
-150.2144313860575
 10
125.6381537229307
 20
-150.2399250926483
 10
125.6064588444664
 20
-150.2399250926483
 10
125.5823431760697
 20
-150.2399250926483
 97
        0
 97
        1
330
87
 92
        1
 93
        1
 72
     4
 94
        3
 73
     0
 74
     0
 95
       17
 96
       13
 40
0.0
 40
0.0
 40
0.0
 40
0.0
 40
1.0
 40
1.0
 40
1.0
 40
2.0
 40
2.0
 40
2.0
 40
3.0
 40
3.0
 40
3.0
 40
4.0
 40
4.0
 40
4.0
 40
4.0
 10
125.1861571952659
 20
-149.5354030659147
 10
125.132413705696
 20
-149.4592664556907
 10
125.0194145737798
 20
-149.3831298454667
 10
124.9288085625178
 20
-149.3535020242935
 10
124.9288085625178
 20
-149.3535020242935
 10
125.0121798732608
 20
-149.1884819505501
 10
125.0121798732608
 20
-149.1884819505501
 10
125.1010633367803
 20
-149.2243109435967
 10
125.1937364053335
 20
-149.2814995286518
 10
125.2712510537516
 20
-149.3617702534582
 10
125.2712510537516
 20
-149.3617702534582
 10
125.1861571952659
 20
-149.5354030659147
 10
125.1861571952659
 20
-149.5354030659147
 97
        0
 97
        1
330
88
 92
        1
 93
        1
 72
     4
 94
        3
 73
     0
 74
     0
 95
       23
 96
       19
 40
0.0
 40
0.0
 40
0.0
 40
0.0
 40
1.0
 40
1.0
 40
1.0
 40
2.0
 40
2.0
 40
2.0
 40
3.0
 40
3.0
 40
3.0
 40
4.0
 40
4.0
 40
4.0
 40
5.0
 40
5.0
 40
5.0
 40
6.0
 40
6.0
 40
6.0
 40
6.0
 10
124.9639485364673
 20
-150.4300943634341
 10
124.9639485364673
 20
-150.4514539554427
 10
124.9656710842099
 20
-150.4893500057804
 10
124.9436224731043
 20
-150.4893500057804
 10
124.9343207152942
 20
-150.4893500057804
 10
124.9270860147752
 20
-150.483148833907
 10
124.917784256965
 20
-150.4662678660293
 10
124.917784256965
 20
-150.4662678660293
 10
124.8268337361544
 20
-150.2843668244081
 10
124.8268337361544
 20
-150.2843668244081
 10
125.0159694782946
 20
-150.1551757437112
 10
125.1878797430086
 20
-149.8781900666971
 10
125.228876379283
 20
-149.8061875710554
 10
125.228876379283
 20
-149.8061875710554
 10
125.2915771171146
 20
-149.9860215553854
 10
125.2915771171146
 20
-149.9860215553854
 10
125.1751328897132
 20
-150.1827365075932
 10
125.021481631071
 20
-150.3667046065055
 10
124.9639485364673
 20
-150.4300943634341
 97
        0
 97
        1
330
89
 92
        1
 93
        1
 72
     4
 94
        3
 73
     0
 74
     0
 95
      182
 96
      178
 40
0.0
 40
0.0
 40
0.0
 40
0.0
 40
1.0
 40
1.0
 40
1.0
 40
2.0
 40
2.0
 40
2.0
 40
3.0
 40
3.0
 40
3.0
 40
4.0
 40
4.0
 40
4.0
 40
5.0
 40
5.0
 40
5.0
 40
6.0
 40
6.0
 40
6.0
 40
7.0
 40
7.0
 40
7.0
 40
8.0
 40
8.0
 40
8.0
 40
9.0
 40
9.0
 40
9.0
 40
10.0
 40
10.0
 40
10.0
 40
11.0
 40
11.0
 40
11.0
 40
12.0
 40
12.0
 40
12.0
 40
13.0
 40
13.0
 40
13.0
 40
14.0
 40
14.0
 40
14.0
 40
15.0
 40
15.0
 40
15.0
 40
16.0
 40
16.0
 40
16.0
 40
17.0
 40
17.0
 40
17.0
 40
18.0
 40
18.0
 40
18.0
 40
19.0
 40
19.0
 40
19.0
 40
20.0
 40
20.0
 40
20.0
 40
21.0
 40
21.0
 40
21.0
 40
22.0
 40
22.0
 40
22.0
 40
23.0
 40
23.0
 40
23.0
 40
24.0
 40
24.0
 40
24.0
 40
25.0
 40
25.0
 40
25.0
 40
26.0
 40
26.0
 40
26.0
 40
27.0
 40
27.0
 40
27.0
 40
28.0
 40
28.0
 40
28.0
 40
29.0
 40
29.0
 40
29.0
 40
30.0
 40
30.0
 40
30.0
 40
31.0
 40
31.0
 40
31.0
 40
32.0
 40
32.0
 40
32.0
 40
33.0
 40
33.0
 40
33.0
 40
34.0
 40
34.0
 40
34.0
 40
35.0
 40
35.0
 40
35.0
 40
36.0
 40
36.0
 40
36.0
 40
37.0
 40
37.0
 40
37.0
 40
38.0
 40
38.0
 40
38.0
 40
39.0
 40
39.0
 40
39.0
 40
40.0
 40
40.0
 40
40.0
 40
41.0
 40
41.0
 40
41.0
 40
42.0
 40
42.0
 40
42.0
 40
43.0
 40
43.0
 40
43.0
 40
44.0
 40
44.0
 40
44.0
 40
45.0
 40
45.0
 40
45.0
 40
46.0
 40
46.0
 40
46.0
 40
47.0
 40
47.0
 40
47.0
 40
48.0
 40
48.0
 40
48.0
 40
49.0
 40
49.0
 40
49.0
 40
50.0
 40
50.0
 40
50.0
 40
51.0
 40
51.0
 40
51.0
 40
52.0
 40
52.0
 40
52.0
 40
53.0
 40
53.0
 40
53.0
 40
54.0
 40
54.0
 40
54.0
 40
55.0
 40
55.0
 40
55.0
 40
56.0
 40
56.0
 40
56.0
 40
57.0
 40
57.0
 40
57.0
 40
58.0
 40
58.0
 40
58.0
 40
59.0
 40
59.0
 40
59.0
 40
59.0
 10
125.9433891829239
 20
-151.0584797799437
 10
125.9433891829239
 20
-151.0584797799437
 10
125.3859727334104
 20
-151.0584797799437
 10
125.3859727334104
 20
-151.0584797799437
 10
125.1992485581099
 20
-151.0584797799437
 10
125.0101128159697
 20
-151.0629584040745
 10
124.8230441311206
 20
-151.0753607478214
 10
124.8230441311206
 20
-151.0753607478214
 10
124.8230441311206
 20
-150.8683105091579
 10
124.8230441311206
 20
-150.8683105091579
 10
125.0176920260372
 20
-150.8807128529048
 10
125.3008788749248
 20
-150.8851914770356
 10
125.3859727334104
 20
-150.8851914770356
 10
125.3859727334104
 20
-150.8851914770356
 10
125.5788980805844
 20
-150.8851914770356
 10
125.5788980805844
 20
-150.8851914770356
 10
125.5788980805844
 20
-150.8851914770356
 10
125.5788980805844
 20
-150.7432535430433
 10
125.5788980805844
 20
-150.7432535430433
 10
125.5788980805844
 20
-150.7432535430433
 10
125.4379936752377
 20
-150.7432535430433
 10
125.4379936752377
 20
-150.7432535430433
 10
125.2936441744057
 20
-150.7432535430433
 10
125.1489501640252
 20
-150.7477321671742
 10
125.0046006631933
 20
-150.7625460777607
 10
125.0046006631933
 20
-150.7625460777607
 10
125.0046006631933
 20
-150.5530842722575
 10
125.0046006631933
 20
-150.5530842722575
 10
125.1548068263502
 20
-150.5678981828441
 10
125.3715033323724
 20
-150.5720322974264
 10
125.4379936752377
 20
-150.5720322974264
 10
125.4379936752377
 20
-150.5720322974264
 10
125.5788980805844
 20
-150.5720322974264
 10
125.5788980805844
 20
-150.5720322974264
 10
125.5751084755507
 20
-150.5000298017847
 10
125.5751084755507
 20
-150.4938286299112
 10
125.5695963227742
 20
-150.4407741594384
 10
125.5695963227742
 20
-150.4407741594384
 10
125.6915527029521
 20
-150.455588070025
 10
125.6915527029521
 20
-150.455588070025
 10
125.6915527029521
 20
-150.455588070025
 10
125.6047362967238
 20
-150.2843668244081
 10
125.6047362967238
 20
-150.2843668244081
 10
125.6453884234497
 20
-150.2905679962815
 10
125.7101562185724
 20
-150.2991807349946
 10
125.724970129159
 20
-150.2991807349946
 10
125.7694118609187
 20
-150.2991807349946
 10
125.7842257715053
 20
-150.2778211429861
 10
125.7842257715053
 20
-150.2209770674794
 10
125.7842257715053
 20
-150.2209770674794
 10
125.7842257715053
 20
-150.0831732480695
 10
125.7842257715053
 20
-150.0831732480695
 10
125.7842257715053
 20
-150.0831732480695
 10
125.6915527029521
 20
-150.0831732480695
 10
125.6915527029521
 20
-150.0831732480695
 10
125.5751084755507
 20
-150.0831732480695
 10
125.4379936752377
 20
-150.0831732480695
 10
125.3305066960979
 20
-150.0959201013649
 10
125.3305066960979
 20
-150.0959201013649
 10
125.3305066960979
 20
-149.9057508305791
 10
125.3305066960979
 20
-149.9057508305791
 10
125.476923254221
 20
-149.9226317984568
 10
125.6788058496567
 20
-149.924698855748
 10
125.6915527029521
 20
-149.924698855748
 10
125.6915527029521
 20
-149.924698855748
 10
125.7842257715053
 20
-149.924698855748
 10
125.7842257715053
 20
-149.924698855748
 10
125.7842257715053
 20
-149.924698855748
 10
125.7842257715053
 20
-149.7934407177599
 10
125.7842257715053
 20
-149.7934407177599
 10
125.7842257715053
 20
-149.7934407177599
 10
125.7508083452984
 20
-149.7934407177599
 10
125.7508083452984
 20
-149.7934407177599
 10
125.7118787663151
 20
-149.7934407177599
 10
125.6026692394327
 20
-149.7975748323423
 10
125.5251545910145
 20
-149.8061875710554
 10
125.5251545910145
 20
-149.8061875710554
 10
125.5251545910145
 20
-149.725916846249
 10
125.5251545910145
 20
-149.725916846249
 10
125.4786458019637
 20
-149.7638128965868
 10
125.4565971908581
 20
-149.7786268071734
 10
125.4193901596174
 20
-149.8020534564731
 10
125.4193901596174
 20
-149.8020534564731
 10
125.2547145954224
 20
-149.6728623757762
 10
125.2547145954224
 20
-149.6728623757762
 10
125.3232719955789
 20
-149.6391004400208
 10
125.4603867958918
 20
-149.5757106830922
 10
125.5971570866562
 20
-149.4317056918087
 10
125.6695040918465
 20
-149.3535020242935
 10
125.738061492003
 20
-149.2687526753564
 10
125.7842257715053
 20
-149.1674668680901
 10
125.7842257715053
 20
-149.1674668680901
 10
125.9695719086117
 20
-149.2287895677275
 10
125.9695719086117
 20
-149.2287895677275
 10
125.9861083669409
 20
-149.2349907396009
 10
125.9954101247511
 20
-149.2436034783141
 10
125.9954101247511
 20
-149.256005822061
 10
125.9954101247511
 20
-149.2732312994872
 10
125.9843858191983
 20
-149.2794324713607
 10
125.9619926985442
 20
-149.2921793246561
 10
126.0322726464433
 20
-149.3893310173401
 10
126.1748995995326
 20
-149.4868272195727
 10
126.2045274207058
 20
-149.5057752447416
 10
126.3361300682424
 20
-149.594658708261
 10
126.4360378373146
 20
-149.622219472143
 10
126.5045952374711
 20
-149.6411674973119
 10
126.5045952374711
 20
-149.6411674973119
 10
126.400897863365
 20
-149.8103216856377
 10
126.400897863365
 20
-149.8103216856377
 10
126.3268283104322
 20
-149.7806938644645
 10
126.2823865786724
 20
-149.7617458392957
 10
126.1786892045664
 20
-149.6962890250759
 10
126.1786892045664
 20
-149.6962890250759
 10
126.1786892045664
 20
-149.8061875710554
 10
126.1786892045664
 20
-149.8061875710554
 10
126.1063421993762
 20
-149.7975748323423
 10
125.9954101247511
 20
-149.7934407177599
 10
125.9489013357003
 20
-149.7934407177599
 10
125.9489013357003
 20
-149.7934407177599
 10
125.9489013357003
 20
-149.924698855748
 10
125.9489013357003
 20
-149.924698855748
 10
125.9489013357003
 20
-149.924698855748
 10
126.0546657670974
 20
-149.924698855748
 10
126.0546657670974
 20
-149.924698855748
 10
126.05638831484
 20
-149.924698855748
 10
126.2603379675669
 20
-149.9226317984568
 10
126.4157117739516
 20
-149.9057508305791
 10
126.4157117739516
 20
-149.9057508305791
 10
126.4157117739516
 20
-150.0959201013649
 10
126.4157117739516
 20
-150.0959201013649
 10
126.3027126420354
 20
-150.0831732480695
 10
126.1655978417225
 20
-150.0831732480695
 10
126.0546657670974
 20
-150.0831732480695
 10
126.0546657670974
 20
-150.0831732480695
 10
125.9489013357003
 20
-150.0831732480695
 10
125.9489013357003
 20
-150.0831732480695
 10
125.9489013357003
 20
-150.0831732480695
 10
125.9489013357003
 20
-150.3095160214504
 10
125.9489013357003
 20
-150.3095160214504
 10
125.9489013357003
 20
-150.428027306143
 10
125.9268527245946
 20
-150.4642008087381
 10
125.7862928287965
 20
-150.4790147193247
 10
125.7897379242817
 20
-150.4979627444936
 10
125.7842257715053
 20
-150.5086425404978
 10
125.7508083452984
 20
-150.531724680249
 10
125.7490857975558
 20
-150.5506727054179
 10
125.7490857975558
 20
-150.5572183868399
 10
125.7473632498131
 20
-150.5720322974264
 10
125.7473632498131
 20
-150.5720322974264
 10
125.8675970822483
 20
-150.5720322974264
 10
125.8675970822483
 20
-150.5720322974264
 10
126.0119465830803
 20
-150.5720322974264
 10
126.1583631412035
 20
-150.5678981828441
 10
126.304435189778
 20
-150.5530842722575
 10
126.304435189778
 20
-150.5530842722575
 10
126.304435189778
 20
-150.7601345109211
 10
126.304435189778
 20
-150.7601345109211
 10
126.1156439571863
 20
-150.7432535430433
 10
125.8841335405776
 20
-150.7432535430433
 10
125.8675970822483
 20
-150.7432535430433
 10
125.8675970822483
 20
-150.7432535430433
 10
125.745296192522
 20
-150.7432535430433
 10
125.745296192522
 20
-150.7432535430433
 10
125.745296192522
 20
-150.7432535430433
 10
125.745296192522
 20
-150.8851914770356
 10
125.745296192522
 20
-150.8851914770356
 10
125.745296192522
 20
-150.8851914770356
 10
125.9433891829239
 20
-150.8851914770356
 10
125.9433891829239
 20
-150.8851914770356
 10
126.1325249250641
 20
-150.8851914770356
 10
126.3230387053984
 20
-150.8807128529048
 10
126.5118299379901
 20
-150.8683105091579
 10
126.5118299379901
 20
-150.8683105091579
 10
126.5118299379901
 20
-151.0753607478214
 10
126.5118299379901
 20
-151.0753607478214
 10
126.2658501203432
 20
-151.0584797799437
 10
125.9640597558354
 20
-151.0584797799437
 10
125.9433891829239
 20
-151.0584797799437
 97
        0
 97
        1
330
8A
 92
        1
 93
        1
 72
     4
 94
        3
 73
     0
 74
     0
 95
       17
 96
       13
 40
0.0
 40
0.0
 40
0.0
 40
0.0
 40
1.0
 40
1.0
 40
1.0
 40
2.0
 40
2.0
 40
2.0
 40
3.0
 40
3.0
 40
3.0
 40
4.0
 40
4.0
 40
4.0
 40
4.0
 10
125.02871633159
 20
-149.8802571239883
 10
124.9360432630368
 20
-149.7744926925911
 10
124.8657633151377
 20
-149.7362521327048
 10
124.7844590616858
 20
-149.7045572542405
 10
124.7844590616858
 20
-149.7045572542405
 10
124.8805772257243
 20
-149.539537180497
 10
124.8805772257243
 20
-149.539537180497
 10
124.9656710842099
 20
-149.5819118549656
 10
125.0714355156071
 20
-149.6601155224808
 10
125.1175997951095
 20
-149.7152370502448
 10
125.1175997951095
 20
-149.7152370502448
 10
125.02871633159
 20
-149.8802571239883
 10
125.02871633159
 20
-149.8802571239883
 97
        0
 97
        1
330
8B
 75
     2
 76
     1
 98
        1
 10
0.0
 20
0.0
450
        0
451
        0
460
0.0
461
0.0
452
        0
462
0.0
453
        0
470

  0
SPLINE
  5
8D
330
81
100
AcDbEntity
  8
レイヤー 1
100
AcDbSpline
210
0.0
220
0.0
230
1.0
 70
    11
 71
     3
 72
    17
 73
    13
 74
     0
 42
0.0000000001
 43
0.0000000001
 40
0.0
 40
0.0
 40
0.0
 40
0.0
 40
1.0
 40
1.0
 40
1.0
 40
2.0
 40
2.0
 40
2.0
 40
3.0
 40
3.0
 40
3.0
 40
4.0
 40
4.0
 40
4.0
 40
4.0
 10
127.7996066303765
 20
-150.428027306143
 30
0.0
 10
127.7996066303765
 20
-150.428027306143
 30
0.0
 10
127.6218397033376
 20
-150.428027306143
 30
0.0
 10
127.6218397033376
 20
-150.428027306143
 30
0.0
 10
127.6459553717343
 20
-150.4872829484893
 30
0.0
 10
127.6938421989793
 20
-150.559285444131
 30
0.0
 10
127.717957867376
 20
-150.5889132653041
 30
0.0
 10
127.7420735357728
 20
-150.5740993547176
 30
0.0
 10
127.841981304845
 20
-150.510709597789
 30
0.0
 10
127.9215630105543
 20
-150.428027306143
 30
0.0
 10
127.9215630105543
 20
-150.428027306143
 30
0.0
 10
127.7996066303765
 20
-150.428027306143
 30
0.0
 10
127.7996066303765
 20
-150.428027306143
 30
0.0
  0
SPLINE
  5
8E
330
81
100
AcDbEntity
  8
レイヤー 1
100
AcDbSpline
210
0.0
220
0.0
230
1.0
 70
     9
 71
     3
 72
    83
 73
    79
 74
     0
 42
0.0000000001
 43
0.0000000001
 40
0.0
 40
0.0
 40
0.0
 40
0.0
 40
1.0
 40
1.0
 40
1.0
 40
2.0
 40
2.0
 40
2.0
 40
3.0
 40
3.0
 40
3.0
 40
4.0
 40
4.0
 40
4.0
 40
5.0
 40
5.0
 40
5.0
 40
6.0
 40
6.0
 40
6.0
 40
7.0
 40
7.0
 40
7.0
 40
8.0
 40
8.0
 40
8.0
 40
9.0
 40
9.0
 40
9.0
 40
10.0
 40
10.0
 40
10.0
 40
11.0
 40
11.0
 40
11.0
 40
12.0
 40
12.0
 40
12.0
 40
13.0
 40
13.0
 40
13.0
 40
14.0
 40
14.0
 40
14.0
 40
15.0
 40
15.0
 40
15.0
 40
16.0
 40
16.0
 40
16.0
 40
17.0
 40
17.0
 40
17.0
 40
18.0
 40
18.0
 40
18.0
 40
19.0
 40
19.0
 40
19.0
 40
20.0
 40
20.0
 40
20.0
 40
21.0
 40
21.0
 40
21.0
 40
22.0
 40
22.0
 40
22.0
 40
23.0
 40
23.0
 40
23.0
 40
24.0
 40
24.0
 40
24.0
 40
25.0
 40
25.0
 40
25.0
 40
26.0
 40
26.0
 40
26.0
 40
26.0
 10
128.0142360791075
 20
-149.6304877013076
 30
0.0
 10
128.0142360791075
 20
-149.6304877013076
 30
0.0
 10
127.9291422206219
 20
-149.6304877013076
 30
0.0
 10
127.9291422206219
 20
-149.6304877013076
 30
0.0
 10
127.9291422206219
 20
-149.6304877013076
 30
0.0
 10
127.9291422206219
 20
-149.8781900666971
 30
0.0
 10
127.9291422206219
 20
-149.8781900666971
 30
0.0
 10
127.9291422206219
 20
-149.8781900666971
 30
0.0
 10
128.0014892258121
 20
-149.8781900666971
 30
0.0
 10
128.0014892258121
 20
-149.8781900666971
 30
0.0
 10
128.0586778108673
 20
-149.8781900666971
 30
0.0
 10
128.1809787005936
 20
-149.8737114425663
 30
0.0
 10
128.2681396163704
 20
-149.8654432134017
 30
0.0
 10
128.2681396163704
 20
-149.8654432134017
 30
0.0
 10
128.2681396163704
 20
-150.0452771977317
 30
0.0
 10
128.2681396163704
 20
-150.0452771977317
 30
0.0
 10
128.18649085337
 20
-150.0366644590186
 30
0.0
 10
128.055232715382
 20
-150.0325303444363
 30
0.0
 10
128.0014892258121
 20
-150.0325303444363
 30
0.0
 10
128.0014892258121
 20
-150.0325303444363
 30
0.0
 10
127.7348388352538
 20
-150.0325303444363
 30
0.0
 10
127.7348388352538
 20
-150.0325303444363
 30
0.0
 10
127.6883300462029
 20
-150.0325303444363
 30
0.0
 10
127.5605170037001
 20
-150.0366644590186
 30
0.0
 10
127.4681884446954
 20
-150.0452771977317
 30
0.0
 10
127.4681884446954
 20
-150.0452771977317
 30
0.0
 10
127.4681884446954
 20
-149.8654432134017
 30
0.0
 10
127.4681884446954
 20
-149.8654432134017
 30
0.0
 10
127.5550048509237
 20
-149.8737114425663
 30
0.0
 10
127.6773057406501
 20
-149.8781900666971
 30
0.0
 10
127.7348388352538
 20
-149.8781900666971
 30
0.0
 10
127.7348388352538
 20
-149.8781900666971
 30
0.0
 10
127.7734239046886
 20
-149.8781900666971
 30
0.0
 10
127.7734239046886
 20
-149.8781900666971
 30
0.0
 10
127.7734239046886
 20
-149.8781900666971
 30
0.0
 10
127.7734239046886
 20
-149.6304877013076
 30
0.0
 10
127.7734239046886
 20
-149.6304877013076
 30
0.0
 10
127.7734239046886
 20
-149.6304877013076
 30
0.0
 10
127.7086561095659
 20
-149.6304877013076
 30
0.0
 10
127.7086561095659
 20
-149.6304877013076
 30
0.0
 10
127.654912619996
 20
-149.6304877013076
 30
0.0
 10
127.5088405714214
 20
-149.6349663254385
 30
0.0
 10
127.4034206495727
 20
-149.6432345546031
 30
0.0
 10
127.4034206495727
 20
-149.6432345546031
 30
0.0
 10
127.4034206495727
 20
-149.4654676275642
 30
0.0
 10
127.4034206495727
 20
-149.4654676275642
 30
0.0
 10
127.503328418645
 20
-149.4720133089861
 30
0.0
 10
127.6421657667005
 20
-149.4761474235684
 30
0.0
 10
127.7086561095659
 20
-149.4761474235684
 30
0.0
 10
127.7086561095659
 20
-149.4761474235684
 30
0.0
 10
127.7717013569459
 20
-149.4761474235684
 30
0.0
 10
127.7717013569459
 20
-149.4761474235684
 30
0.0
 10
127.7679117519122
 20
-149.3238742031204
 30
0.0
 10
127.7661892041695
 20
-149.2901122673649
 30
0.0
 10
127.7606770513932
 20
-149.1967501797147
 30
0.0
 10
127.7606770513932
 20
-149.1967501797147
 30
0.0
 10
127.9456786789511
 20
-149.2201768290144
 30
0.0
 10
127.9456786789511
 20
-149.2201768290144
 30
0.0
 10
127.9680717996052
 20
-149.2222438863055
 30
0.0
 10
127.9883978629682
 20
-149.2263780008878
 30
0.0
 10
127.9883978629682
 20
-149.2498046501875
 30
0.0
 10
127.9883978629682
 20
-149.2814995286518
 30
0.0
 10
127.9494682839848
 20
-149.2983804965295
 30
0.0
 10
127.9291422206219
 20
-149.3069932352427
 30
0.0
 10
127.9291422206219
 20
-149.3069932352427
 30
0.0
 10
127.9291422206219
 20
-149.4761474235684
 30
0.0
 10
127.9291422206219
 20
-149.4761474235684
 30
0.0
 10
127.9291422206219
 20
-149.4761474235684
 30
0.0
 10
128.0142360791075
 20
-149.4761474235684
 30
0.0
 10
128.0142360791075
 20
-149.4761474235684
 30
0.0
 10
128.0810709315214
 20
-149.4761474235684
 30
0.0
 10
128.2199082795769
 20
-149.4720133089861
 30
0.0
 10
128.3218831059403
 20
-149.4654676275642
 30
0.0
 10
128.3218831059403
 20
-149.4654676275642
 30
0.0
 10
128.3218831059403
 20
-149.6432345546031
 30
0.0
 10
128.3218831059403
 20
-149.6432345546031
 30
0.0
 10
128.227142980096
 20
-149.6370333827296
 30
0.0
 10
128.075558778745
 20
-149.6304877013076
 30
0.0
 10
128.0142360791075
 20
-149.6304877013076
 30
0.0
  0
SPLINE
  5
8F
330
81
100
AcDbEntity
  8
レイヤー 1
100
AcDbSpline
210
0.0
220
0.0
230
1.0
 70
     9
 71
     3
 72
    38
 73
    34
 74
     0
 42
0.0000000001
 43
0.0000000001
 40
0.0
 40
0.0
 40
0.0
 40
0.0
 40
1.0
 40
1.0
 40
1.0
 40
2.0
 40
2.0
 40
2.0
 40
3.0
 40
3.0
 40
3.0
 40
4.0
 40
4.0
 40
4.0
 40
5.0
 40
5.0
 40
5.0
 40
6.0
 40
6.0
 40
6.0
 40
7.0
 40
7.0
 40
7.0
 40
8.0
 40
8.0
 40
8.0
 40
9.0
 40
9.0
 40
9.0
 40
10.0
 40
10.0
 40
10.0
 40
11.0
 40
11.0
 40
11.0
 40
11.0
 10
127.3124701287621
 20
-149.3090602925338
 30
0.0
 10
127.3107475810195
 20
-149.3555690815847
 30
0.0
 10
127.3086805237284
 20
-149.4720133089861
 30
0.0
 10
127.3086805237284
 20
-149.5164550407459
 30
0.0
 10
127.3086805237284
 20
-149.5164550407459
 30
0.0
 10
127.3086805237284
 20
-149.8633761561105
 30
0.0
 10
127.3086805237284
 20
-149.8633761561105
 30
0.0
 10
127.3086805237284
 20
-149.9501925623388
 30
0.0
 10
127.3107475810195
 20
-150.0917859867826
 30
0.0
 10
127.3200493388297
 20
-150.2123643287663
 30
0.0
 10
127.3200493388297
 20
-150.2123643287663
 30
0.0
 10
127.1533067173436
 20
-150.2123643287663
 30
0.0
 10
127.1533067173436
 20
-150.2123643287663
 30
0.0
 10
127.1570963223774
 20
-150.1489745718377
 30
0.0
 10
127.1605414178626
 20
-150.0959201013649
 30
0.0
 10
127.1626084751538
 20
-150.0411430831494
 30
0.0
 10
127.1643310228964
 20
-149.918153174326
 30
0.0
 10
127.1663980801875
 20
-149.9033392637394
 30
0.0
 10
127.1663980801875
 20
-149.8588975319797
 30
0.0
 10
127.1663980801875
 20
-149.8588975319797
 30
0.0
 10
127.1663980801875
 20
-149.5374701232059
 30
0.0
 10
127.1663980801875
 20
-149.5374701232059
 30
0.0
 10
127.1663980801875
 20
-149.4823485954419
 30
0.0
 10
127.1550292650862
 20
-149.2436034783141
 30
0.0
 10
127.1533067173436
 20
-149.1926160651324
 30
0.0
 10
127.1533067173436
 20
-149.1926160651324
 30
0.0
 10
127.3290065870913
 20
-149.2201768290144
 30
0.0
 10
127.3290065870913
 20
-149.2201768290144
 30
0.0
 10
127.3476101027117
 20
-149.2222438863055
 30
0.0
 10
127.3755153761422
 20
-149.2263780008878
 30
0.0
 10
127.3755153761422
 20
-149.2518717074787
 30
0.0
 10
127.3755153761422
 20
-149.2794324713607
 30
0.0
 10
127.3310736443825
 20
-149.3004475538207
 30
0.0
 10
127.3124701287621
 20
-149.3090602925338
 30
0.0
  0
SPLINE
  5
90
330
81
100
AcDbEntity
  8
レイヤー 1
100
AcDbSpline
210
0.0
220
0.0
230
1.0
 70
     9
 71
     3
 72
    17
 73
    13
 74
     0
 42
0.0000000001
 43
0.0000000001
 40
0.0
 40
0.0
 40
0.0
 40
0.0
 40
1.0
 40
1.0
 40
1.0
 40
2.0
 40
2.0
 40
2.0
 40
3.0
 40
3.0
 40
3.0
 40
4.0
 40
4.0
 40
4.0
 40
4.0
 10
126.9903537008913
 20
-149.6136067334299
 30
0.0
 10
126.9645154847519
 20
-149.573643625801
 30
0.0
 10
126.9052598424056
 20
-149.4761474235684
 30
0.0
 10
126.7457519214385
 20
-149.366248877589
 30
0.0
 10
126.7457519214385
 20
-149.366248877589
 30
0.0
 10
126.8570285056121
 20
-149.2329236823098
 30
0.0
 10
126.8570285056121
 20
-149.2329236823098
 30
0.0
 10
127.0199815220644
 20
-149.3345539991247
 30
0.0
 10
127.0699354066006
 20
-149.4234374626441
 30
0.0
 10
127.0940510749973
 20
-149.4654676275642
 30
0.0
 10
127.0940510749973
 20
-149.4654676275642
 30
0.0
 10
126.9903537008913
 20
-149.6136067334299
 30
0.0
 10
126.9903537008913
 20
-149.6136067334299
 30
0.0
  0
SPLINE
  5
91
330
81
100
AcDbEntity
  8
レイヤー 1
100
AcDbSpline
210
0.0
220
0.0
230
1.0
 70
     9
 71
     3
 72
    23
 73
    19
 74
     0
 42
0.0000000001
 43
0.0000000001
 40
0.0
 40
0.0
 40
0.0
 40
0.0
 40
1.0
 40
1.0
 40
1.0
 40
2.0
 40
2.0
 40
2.0
 40
3.0
 40
3.0
 40
3.0
 40
4.0
 40
4.0
 40
4.0
 40
5.0
 40
5.0
 40
5.0
 40
6.0
 40
6.0
 40
6.0
 40
6.0
 10
126.8570285056121
 20
-150.0790391334872
 30
0.0
 10
126.8422145950255
 20
-150.1193467506646
 30
0.0
 10
126.8367024422491
 20
-150.1362277185423
 30
0.0
 10
126.8180989266288
 20
-150.1362277185423
 30
0.0
 10
126.8050075637848
 20
-150.1362277185423
 30
0.0
 10
126.7957058059747
 20
-150.1193467506646
 30
0.0
 10
126.7901936531983
 20
-150.1065998973692
 30
0.0
 10
126.7901936531983
 20
-150.1065998973692
 30
0.0
 10
126.70337724697
 20
-149.9415798236257
 30
0.0
 10
126.70337724697
 20
-149.9415798236257
 30
0.0
 10
126.7922607104894
 20
-149.9098849451614
 30
0.0
 10
126.9235188484774
 20
-149.8547634173974
 30
0.0
 10
127.0978406800311
 20
-149.6918104009451
 30
0.0
 10
127.0978406800311
 20
-149.6918104009451
 30
0.0
 10
127.1477945645672
 20
-149.8654432134017
 30
0.0
 10
127.1477945645672
 20
-149.8654432134017
 30
0.0
 10
127.0661458015668
 20
-149.9477809954991
 30
0.0
 10
126.9886311531487
 20
-150.0049695805543
 30
0.0
 10
126.8570285056121
 20
-150.0790391334872
 30
0.0
  0
SPLINE
  5
92
330
81
100
AcDbEntity
  8
レイヤー 1
100
AcDbSpline
210
0.0
220
0.0
230
1.0
 70
     9
 71
     3
 72
   113
 73
   109
 74
     0
 42
0.0000000001
 43
0.0000000001
 40
0.0
 40
0.0
 40
0.0
 40
0.0
 40
1.0
 40
1.0
 40
1.0
 40
2.0
 40
2.0
 40
2.0
 40
3.0
 40
3.0
 40
3.0
 40
4.0
 40
4.0
 40
4.0
 40
5.0
 40
5.0
 40
5.0
 40
6.0
 40
6.0
 40
6.0
 40
7.0
 40
7.0
 40
7.0
 40
8.0
 40
8.0
 40
8.0
 40
9.0
 40
9.0
 40
9.0
 40
10.0
 40
10.0
 40
10.0
 40
11.0
 40
11.0
 40
11.0
 40
12.0
 40
12.0
 40
12.0
 40
13.0
 40
13.0
 40
13.0
 40
14.0
 40
14.0
 40
14.0
 40
15.0
 40
15.0
 40
15.0
 40
16.0
 40
16.0
 40
16.0
 40
17.0
 40
17.0
 40
17.0
 40
18.0
 40
18.0
 40
18.0
 40
19.0
 40
19.0
 40
19.0
 40
20.0
 40
20.0
 40
20.0
 40
21.0
 40
21.0
 40
21.0
 40
22.0
 40
22.0
 40
22.0
 40
23.0
 40
23.0
 40
23.0
 40
24.0
 40
24.0
 40
24.0
 40
25.0
 40
25.0
 40
25.0
 40
26.0
 40
26.0
 40
26.0
 40
27.0
 40
27.0
 40
27.0
 40
28.0
 40
28.0
 40
28.0
 40
29.0
 40
29.0
 40
29.0
 40
30.0
 40
30.0
 40
30.0
 40
31.0
 40
31.0
 40
31.0
 40
32.0
 40
32.0
 40
32.0
 40
33.0
 40
33.0
 40
33.0
 40
34.0
 40
34.0
 40
34.0
 40
35.0
 40
35.0
 40
35.0
 40
36.0
 40
36.0
 40
36.0
 40
36.0
 10
127.9808186529006
 20
-150.4300943634341
 30
0.0
 10
127.9808186529006
 20
-150.4300943634341
 30
0.0
 10
128.0679795686774
 20
-150.5296576229578
 30
0.0
 10
128.0679795686774
 20
-150.5296576229578
 30
0.0
 10
128.0772813264876
 20
-150.5403374189621
 30
0.0
 10
128.0865830842978
 20
-150.5530842722575
 30
0.0
 10
128.0865830842978
 20
-150.5678981828441
 30
0.0
 10
128.0865830842978
 20
-150.5699652401353
 30
0.0
 10
128.0865830842978
 20
-150.5995930613084
 30
0.0
 10
128.0531656580909
 20
-150.5995930613084
 30
0.0
 10
128.0459309575718
 20
-150.5995930613084
 30
0.0
 10
128.0104464740738
 20
-150.5951144371776
 30
0.0
 10
128.0049343212974
 20
-150.5951144371776
 30
0.0
 10
127.9697943473478
 20
-150.6271538251904
 30
0.0
 10
127.9291422206219
 20
-150.6609157609459
 30
0.0
 10
127.841981304845
 20
-150.718104346001
 30
0.0
 10
127.9697943473478
 20
-150.8259358346893
 30
0.0
 10
128.1086316954034
 20
-150.8831244197445
 30
0.0
 10
128.3477213220797
 20
-150.9210204700822
 30
0.0
 10
128.3477213220797
 20
-150.9210204700822
 30
0.0
 10
128.2161186745432
 20
-151.09672033983
 30
0.0
 10
128.2161186745432
 20
-151.09672033983
 30
0.0
 10
127.9866753152255
 20
-151.0247178441882
 30
0.0
 10
127.8495605149126
 20
-150.9358343806688
 30
0.0
 10
127.7827256624987
 20
-150.8831244197445
 30
0.0
 10
127.6514675245107
 20
-150.7814941029296
 30
0.0
 10
127.5253770297506
 20
-150.6185410864773
 30
0.0
 10
127.4588866868852
 20
-150.4535210127338
 30
0.0
 10
127.399631044539
 20
-150.5189778269536
 30
0.0
 10
127.3348632494163
 20
-150.5720322974264
 30
0.0
 10
127.2663058492598
 20
-150.6206081437684
 30
0.0
 10
127.2663058492598
 20
-150.6206081437684
 30
0.0
 10
127.2663058492598
 20
-150.8724446237402
 30
0.0
 10
127.2663058492598
 20
-150.8724446237402
 30
0.0
 10
127.4089328023491
 20
-150.8469509171493
 30
0.0
 10
127.5718858188015
 20
-150.8025091853896
 30
0.0
 10
127.627351856114
 20
-150.787695274803
 30
0.0
 10
127.627351856114
 20
-150.787695274803
 30
0.0
 10
127.6015136399746
 20
-150.9568494631288
 30
0.0
 10
127.6015136399746
 20
-150.9568494631288
 30
0.0
 10
127.5994465826835
 20
-150.9568494631288
 30
0.0
 10
127.5829101243543
 20
-150.9633951445508
 30
0.0
 10
127.5811875766116
 20
-150.9633951445508
 30
0.0
 10
127.406865745058
 20
-151.0012911948886
 30
0.0
 10
127.1291910489469
 20
-151.0670925186568
 30
0.0
 10
126.9569362746844
 20
-151.1029215117034
 30
0.0
 10
126.9476345168742
 20
-151.1198024795811
 30
0.0
 10
126.9273084535112
 20
-151.1514973580454
 30
0.0
 10
126.9069823901482
 20
-151.1514973580454
 30
0.0
 10
126.8828667217515
 20
-151.1514973580454
 30
0.0
 10
126.8790771167177
 20
-151.1325493328766
 30
0.0
 10
126.8773545689751
 20
-151.1136013077077
 30
0.0
 10
126.8773545689751
 20
-151.1136013077077
 30
0.0
 10
126.854961448321
 20
-150.9399684952511
 30
0.0
 10
126.854961448321
 20
-150.9399684952511
 30
0.0
 10
126.9200737529922
 20
-150.9317002660865
 30
0.0
 10
127.014469369288
 20
-150.9189534127911
 30
0.0
 10
127.1088649855839
 20
-150.897938330331
 30
0.0
 10
127.1088649855839
 20
-150.897938330331
 30
0.0
 10
127.1088649855839
 20
-150.7201714032922
 30
0.0
 10
127.1088649855839
 20
-150.7201714032922
 30
0.0
 10
126.9827744908237
 20
-150.7921738989339
 30
0.0
 10
126.8997476896292
 20
-150.8214572105585
 30
0.0
 10
126.7550536792487
 20
-150.8510850317317
 30
0.0
 10
126.7550536792487
 20
-150.8510850317317
 30
0.0
 10
126.6496337574001
 20
-150.6819308434059
 30
0.0
 10
126.6496337574001
 20
-150.6819308434059
 30
0.0
 10
126.9273084535112
 20
-150.6543700795239
 30
0.0
 10
127.0957736227399
 20
-150.5613525014221
 30
0.0
 10
127.2514919386732
 20
-150.428027306143
 30
0.0
 10
127.1236788961704
 20
-150.428027306143
 30
0.0
 10
126.8608181106459
 20
-150.4325059302738
 30
0.0
 10
126.6885633363834
 20
-150.4387071021473
 30
0.0
 10
126.6885633363834
 20
-150.4387071021473
 30
0.0
 10
126.6885633363834
 20
-150.2609401751084
 30
0.0
 10
126.6885633363834
 20
-150.2609401751084
 30
0.0
 10
126.8236110794052
 20
-150.2674858565303
 30
0.0
 10
127.0830267694445
 20
-150.2736870284038
 30
0.0
 10
127.2439127286057
 20
-150.2736870284038
 30
0.0
 10
127.2439127286057
 20
-150.2736870284038
 30
0.0
 10
127.4292588657121
 20
-150.2736870284038
 30
0.0
 10
127.4292588657121
 20
-150.2736870284038
 30
0.0
 10
127.4292588657121
 20
-150.1786023930109
 30
0.0
 10
127.427191808421
 20
-150.1276149798292
 30
0.0
 10
127.4216796556446
 20
-150.0811061907783
 30
0.0
 10
127.4216796556446
 20
-150.0811061907783
 30
0.0
 10
127.6108153977848
 20
-150.097987158656
 30
0.0
 10
127.6108153977848
 20
-150.097987158656
 30
0.0
 10
127.6531900722533
 20
-150.1024657827868
 30
0.0
 10
127.6607692823209
 20
-150.1172796933734
 30
0.0
 10
127.6607692823209
 20
-150.13209360396
 30
0.0
 10
127.6607692823209
 20
-150.1572428010023
 30
0.0
 10
127.6459553717343
 20
-150.1658555397155
 30
0.0
 10
127.6015136399746
 20
-150.1913492463063
 30
0.0
 10
127.5994465826835
 20
-150.2164984433486
 30
0.0
 10
127.5994465826835
 20
-150.2230441247706
 30
0.0
 10
127.5977240349408
 20
-150.2736870284038
 30
0.0
 10
127.5977240349408
 20
-150.2736870284038
 30
0.0
 10
127.7996066303765
 20
-150.2736870284038
 30
0.0
 10
127.7996066303765
 20
-150.2736870284038
 30
0.0
 10
127.9439561312084
 20
-150.2736870284038
 30
0.0
 10
128.199582216214
 20
-150.2674858565303
 30
0.0
 10
128.3570230798899
 20
-150.2609401751084
 30
0.0
 10
128.3570230798899
 20
-150.2609401751084
 30
0.0
 10
128.3570230798899
 20
-150.4387071021473
 30
0.0
 10
128.3570230798899
 20
-150.4387071021473
 30
0.0
 10
128.2440239479737
 20
-150.4345729875649
 30
0.0
 10
128.2236978846107
 20
-150.4345729875649
 30
0.0
 10
127.9808186529006
 20
-150.4300943634341
 30
0.0
  0
HATCH
  5
93
330
81
100
AcDbEntity
  8
レイヤー 1
 62
   250
420
  2299925
440
 33554687
100
AcDbHatch
 10
0.0
 20
0.0
 30
0.0
210
0.0
220
0.0
230
1.0
  2
SOLID
 70
     1
 71
     1
 91
        6
 92
        1
 93
        1
 72
     4
 94
        3
 73
     0
 74
     0
 95
       17
 96
       13
 40
0.0
 40
0.0
 40
0.0
 40
0.0
 40
1.0
 40
1.0
 40
1.0
 40
2.0
 40
2.0
 40
2.0
 40
3.0
 40
3.0
 40
3.0
 40
4.0
 40
4.0
 40
4.0
 40
4.0
 10
127.7996066303765
 20
-150.428027306143
 10
127.7996066303765
 20
-150.428027306143
 10
127.6218397033376
 20
-150.428027306143
 10
127.6218397033376
 20
-150.428027306143
 10
127.6459553717343
 20
-150.4872829484893
 10
127.6938421989793
 20
-150.559285444131
 10
127.717957867376
 20
-150.5889132653041
 10
127.7420735357728
 20
-150.5740993547176
 10
127.841981304845
 20
-150.510709597789
 10
127.9215630105543
 20
-150.428027306143
 10
127.9215630105543
 20
-150.428027306143
 10
127.7996066303765
 20
-150.428027306143
 10
127.7996066303765
 20
-150.428027306143
 97
        0
 97
        1
330
8D
 92
        1
 93
        1
 72
     4
 94
        3
 73
     0
 74
     0
 95
       83
 96
       79
 40
0.0
 40
0.0
 40
0.0
 40
0.0
 40
1.0
 40
1.0
 40
1.0
 40
2.0
 40
2.0
 40
2.0
 40
3.0
 40
3.0
 40
3.0
 40
4.0
 40
4.0
 40
4.0
 40
5.0
 40
5.0
 40
5.0
 40
6.0
 40
6.0
 40
6.0
 40
7.0
 40
7.0
 40
7.0
 40
8.0
 40
8.0
 40
8.0
 40
9.0
 40
9.0
 40
9.0
 40
10.0
 40
10.0
 40
10.0
 40
11.0
 40
11.0
 40
11.0
 40
12.0
 40
12.0
 40
12.0
 40
13.0
 40
13.0
 40
13.0
 40
14.0
 40
14.0
 40
14.0
 40
15.0
 40
15.0
 40
15.0
 40
16.0
 40
16.0
 40
16.0
 40
17.0
 40
17.0
 40
17.0
 40
18.0
 40
18.0
 40
18.0
 40
19.0
 40
19.0
 40
19.0
 40
20.0
 40
20.0
 40
20.0
 40
21.0
 40
21.0
 40
21.0
 40
22.0
 40
22.0
 40
22.0
 40
23.0
 40
23.0
 40
23.0
 40
24.0
 40
24.0
 40
24.0
 40
25.0
 40
25.0
 40
25.0
 40
26.0
 40
26.0
 40
26.0
 40
26.0
 10
128.0142360791075
 20
-149.6304877013076
 10
128.0142360791075
 20
-149.6304877013076
 10
127.9291422206219
 20
-149.6304877013076
 10
127.9291422206219
 20
-149.6304877013076
 10
127.9291422206219
 20
-149.6304877013076
 10
127.9291422206219
 20
-149.8781900666971
 10
127.9291422206219
 20
-149.8781900666971
 10
127.9291422206219
 20
-149.8781900666971
 10
128.0014892258121
 20
-149.8781900666971
 10
128.0014892258121
 20
-149.8781900666971
 10
128.0586778108673
 20
-149.8781900666971
 10
128.1809787005936
 20
-149.8737114425663
 10
128.2681396163704
 20
-149.8654432134017
 10
128.2681396163704
 20
-149.8654432134017
 10
128.2681396163704
 20
-150.0452771977317
 10
128.2681396163704
 20
-150.0452771977317
 10
128.18649085337
 20
-150.0366644590186
 10
128.055232715382
 20
-150.0325303444363
 10
128.0014892258121
 20
-150.0325303444363
 10
128.0014892258121
 20
-150.0325303444363
 10
127.7348388352538
 20
-150.0325303444363
 10
127.7348388352538
 20
-150.0325303444363
 10
127.6883300462029
 20
-150.0325303444363
 10
127.5605170037001
 20
-150.0366644590186
 10
127.4681884446954
 20
-150.0452771977317
 10
127.4681884446954
 20
-150.0452771977317
 10
127.4681884446954
 20
-149.8654432134017
 10
127.4681884446954
 20
-149.8654432134017
 10
127.5550048509237
 20
-149.8737114425663
 10
127.6773057406501
 20
-149.8781900666971
 10
127.7348388352538
 20
-149.8781900666971
 10
127.7348388352538
 20
-149.8781900666971
 10
127.7734239046886
 20
-149.8781900666971
 10
127.7734239046886
 20
-149.8781900666971
 10
127.7734239046886
 20
-149.8781900666971
 10
127.7734239046886
 20
-149.6304877013076
 10
127.7734239046886
 20
-149.6304877013076
 10
127.7734239046886
 20
-149.6304877013076
 10
127.7086561095659
 20
-149.6304877013076
 10
127.7086561095659
 20
-149.6304877013076
 10
127.654912619996
 20
-149.6304877013076
 10
127.5088405714214
 20
-149.6349663254385
 10
127.4034206495727
 20
-149.6432345546031
 10
127.4034206495727
 20
-149.6432345546031
 10
127.4034206495727
 20
-149.4654676275642
 10
127.4034206495727
 20
-149.4654676275642
 10
127.503328418645
 20
-149.4720133089861
 10
127.6421657667005
 20
-149.4761474235684
 10
127.7086561095659
 20
-149.4761474235684
 10
127.7086561095659
 20
-149.4761474235684
 10
127.7717013569459
 20
-149.4761474235684
 10
127.7717013569459
 20
-149.4761474235684
 10
127.7679117519122
 20
-149.3238742031204
 10
127.7661892041695
 20
-149.2901122673649
 10
127.7606770513932
 20
-149.1967501797147
 10
127.7606770513932
 20
-149.1967501797147
 10
127.9456786789511
 20
-149.2201768290144
 10
127.9456786789511
 20
-149.2201768290144
 10
127.9680717996052
 20
-149.2222438863055
 10
127.9883978629682
 20
-149.2263780008878
 10
127.9883978629682
 20
-149.2498046501875
 10
127.9883978629682
 20
-149.2814995286518
 10
127.9494682839848
 20
-149.2983804965295
 10
127.9291422206219
 20
-149.3069932352427
 10
127.9291422206219
 20
-149.3069932352427
 10
127.9291422206219
 20
-149.4761474235684
 10
127.9291422206219
 20
-149.4761474235684
 10
127.9291422206219
 20
-149.4761474235684
 10
128.0142360791075
 20
-149.4761474235684
 10
128.0142360791075
 20
-149.4761474235684
 10
128.0810709315214
 20
-149.4761474235684
 10
128.2199082795769
 20
-149.4720133089861
 10
128.3218831059403
 20
-149.4654676275642
 10
128.3218831059403
 20
-149.4654676275642
 10
128.3218831059403
 20
-149.6432345546031
 10
128.3218831059403
 20
-149.6432345546031
 10
128.227142980096
 20
-149.6370333827296
 10
128.075558778745
 20
-149.6304877013076
 10
128.0142360791075
 20
-149.6304877013076
 97
        0
 97
        1
330
8E
 92
        1
 93
        1
 72
     4
 94
        3
 73
     0
 74
     0
 95
       38
 96
       34
 40
0.0
 40
0.0
 40
0.0
 40
0.0
 40
1.0
 40
1.0
 40
1.0
 40
2.0
 40
2.0
 40
2.0
 40
3.0
 40
3.0
 40
3.0
 40
4.0
 40
4.0
 40
4.0
 40
5.0
 40
5.0
 40
5.0
 40
6.0
 40
6.0
 40
6.0
 40
7.0
 40
7.0
 40
7.0
 40
8.0
 40
8.0
 40
8.0
 40
9.0
 40
9.0
 40
9.0
 40
10.0
 40
10.0
 40
10.0
 40
11.0
 40
11.0
 40
11.0
 40
11.0
 10
127.3124701287621
 20
-149.3090602925338
 10
127.3107475810195
 20
-149.3555690815847
 10
127.3086805237284
 20
-149.4720133089861
 10
127.3086805237284
 20
-149.5164550407459
 10
127.3086805237284
 20
-149.5164550407459
 10
127.3086805237284
 20
-149.8633761561105
 10
127.3086805237284
 20
-149.8633761561105
 10
127.3086805237284
 20
-149.9501925623388
 10
127.3107475810195
 20
-150.0917859867826
 10
127.3200493388297
 20
-150.2123643287663
 10
127.3200493388297
 20
-150.2123643287663
 10
127.1533067173436
 20
-150.2123643287663
 10
127.1533067173436
 20
-150.2123643287663
 10
127.1570963223774
 20
-150.1489745718377
 10
127.1605414178626
 20
-150.0959201013649
 10
127.1626084751538
 20
-150.0411430831494
 10
127.1643310228964
 20
-149.918153174326
 10
127.1663980801875
 20
-149.9033392637394
 10
127.1663980801875
 20
-149.8588975319797
 10
127.1663980801875
 20
-149.8588975319797
 10
127.1663980801875
 20
-149.5374701232059
 10
127.1663980801875
 20
-149.5374701232059
 10
127.1663980801875
 20
-149.4823485954419
 10
127.1550292650862
 20
-149.2436034783141
 10
127.1533067173436
 20
-149.1926160651324
 10
127.1533067173436
 20
-149.1926160651324
 10
127.3290065870913
 20
-149.2201768290144
 10
127.3290065870913
 20
-149.2201768290144
 10
127.3476101027117
 20
-149.2222438863055
 10
127.3755153761422
 20
-149.2263780008878
 10
127.3755153761422
 20
-149.2518717074787
 10
127.3755153761422
 20
-149.2794324713607
 10
127.3310736443825
 20
-149.3004475538207
 10
127.3124701287621
 20
-149.3090602925338
 97
        0
 97
        1
330
8F
 92
        1
 93
        1
 72
     4
 94
        3
 73
     0
 74
     0
 95
       17
 96
       13
 40
0.0
 40
0.0
 40
0.0
 40
0.0
 40
1.0
 40
1.0
 40
1.0
 40
2.0
 40
2.0
 40
2.0
 40
3.0
 40
3.0
 40
3.0
 40
4.0
 40
4.0
 40
4.0
 40
4.0
 10
126.9903537008913
 20
-149.6136067334299
 10
126.9645154847519
 20
-149.573643625801
 10
126.9052598424056
 20
-149.4761474235684
 10
126.7457519214385
 20
-149.366248877589
 10
126.7457519214385
 20
-149.366248877589
 10
126.8570285056121
 20
-149.2329236823098
 10
126.8570285056121
 20
-149.2329236823098
 10
127.0199815220644
 20
-149.3345539991247
 10
127.0699354066006
 20
-149.4234374626441
 10
127.0940510749973
 20
-149.4654676275642
 10
127.0940510749973
 20
-149.4654676275642
 10
126.9903537008913
 20
-149.6136067334299
 10
126.9903537008913
 20
-149.6136067334299
 97
        0
 97
        1
330
90
 92
        1
 93
        1
 72
     4
 94
        3
 73
     0
 74
     0
 95
       23
 96
       19
 40
0.0
 40
0.0
 40
0.0
 40
0.0
 40
1.0
 40
1.0
 40
1.0
 40
2.0
 40
2.0
 40
2.0
 40
3.0
 40
3.0
 40
3.0
 40
4.0
 40
4.0
 40
4.0
 40
5.0
 40
5.0
 40
5.0
 40
6.0
 40
6.0
 40
6.0
 40
6.0
 10
126.8570285056121
 20
-150.0790391334872
 10
126.8422145950255
 20
-150.1193467506646
 10
126.8367024422491
 20
-150.1362277185423
 10
126.8180989266288
 20
-150.1362277185423
 10
126.8050075637848
 20
-150.1362277185423
 10
126.7957058059747
 20
-150.1193467506646
 10
126.7901936531983
 20
-150.1065998973692
 10
126.7901936531983
 20
-150.1065998973692
 10
126.70337724697
 20
-149.9415798236257
 10
126.70337724697
 20
-149.9415798236257
 10
126.7922607104894
 20
-149.9098849451614
 10
126.9235188484774
 20
-149.8547634173974
 10
127.0978406800311
 20
-149.6918104009451
 10
127.0978406800311
 20
-149.6918104009451
 10
127.1477945645672
 20
-149.8654432134017
 10
127.1477945645672
 20
-149.8654432134017
 10
127.0661458015668
 20
-149.9477809954991
 10
126.9886311531487
 20
-150.0049695805543
 10
126.8570285056121
 20
-150.0790391334872
 97
        0
 97
        1
330
91
 92
        1
 93
        1
 72
     4
 94
        3
 73
     0
 74
     0
 95
      113
 96
      109
 40
0.0
 40
0.0
 40
0.0
 40
0.0
 40
1.0
 40
1.0
 40
1.0
 40
2.0
 40
2.0
 40
2.0
 40
3.0
 40
3.0
 40
3.0
 40
4.0
 40
4.0
 40
4.0
 40
5.0
 40
5.0
 40
5.0
 40
6.0
 40
6.0
 40
6.0
 40
7.0
 40
7.0
 40
7.0
 40
8.0
 40
8.0
 40
8.0
 40
9.0
 40
9.0
 40
9.0
 40
10.0
 40
10.0
 40
10.0
 40
11.0
 40
11.0
 40
11.0
 40
12.0
 40
12.0
 40
12.0
 40
13.0
 40
13.0
 40
13.0
 40
14.0
 40
14.0
 40
14.0
 40
15.0
 40
15.0
 40
15.0
 40
16.0
 40
16.0
 40
16.0
 40
17.0
 40
17.0
 40
17.0
 40
18.0
 40
18.0
 40
18.0
 40
19.0
 40
19.0
 40
19.0
 40
20.0
 40
20.0
 40
20.0
 40
21.0
 40
21.0
 40
21.0
 40
22.0
 40
22.0
 40
22.0
 40
23.0
 40
23.0
 40
23.0
 40
24.0
 40
24.0
 40
24.0
 40
25.0
 40
25.0
 40
25.0
 40
26.0
 40
26.0
 40
26.0
 40
27.0
 40
27.0
 40
27.0
 40
28.0
 40
28.0
 40
28.0
 40
29.0
 40
29.0
 40
29.0
 40
30.0
 40
30.0
 40
30.0
 40
31.0
 40
31.0
 40
31.0
 40
32.0
 40
32.0
 40
32.0
 40
33.0
 40
33.0
 40
33.0
 40
34.0
 40
34.0
 40
34.0
 40
35.0
 40
35.0
 40
35.0
 40
36.0
 40
36.0
 40
36.0
 40
36.0
 10
127.9808186529006
 20
-150.4300943634341
 10
127.9808186529006
 20
-150.4300943634341
 10
128.0679795686774
 20
-150.5296576229578
 10
128.0679795686774
 20
-150.5296576229578
 10
128.0772813264876
 20
-150.5403374189621
 10
128.0865830842978
 20
-150.5530842722575
 10
128.0865830842978
 20
-150.5678981828441
 10
128.0865830842978
 20
-150.5699652401353
 10
128.0865830842978
 20
-150.5995930613084
 10
128.0531656580909
 20
-150.5995930613084
 10
128.0459309575718
 20
-150.5995930613084
 10
128.0104464740738
 20
-150.5951144371776
 10
128.0049343212974
 20
-150.5951144371776
 10
127.9697943473478
 20
-150.6271538251904
 10
127.9291422206219
 20
-150.6609157609459
 10
127.841981304845
 20
-150.718104346001
 10
127.9697943473478
 20
-150.8259358346893
 10
128.1086316954034
 20
-150.8831244197445
 10
128.3477213220797
 20
-150.9210204700822
 10
128.3477213220797
 20
-150.9210204700822
 10
128.2161186745432
 20
-151.09672033983
 10
128.2161186745432
 20
-151.09672033983
 10
127.9866753152255
 20
-151.0247178441882
 10
127.8495605149126
 20
-150.9358343806688
 10
127.7827256624987
 20
-150.8831244197445
 10
127.6514675245107
 20
-150.7814941029296
 10
127.5253770297506
 20
-150.6185410864773
 10
127.4588866868852
 20
-150.4535210127338
 10
127.399631044539
 20
-150.5189778269536
 10
127.3348632494163
 20
-150.5720322974264
 10
127.2663058492598
 20
-150.6206081437684
 10
127.2663058492598
 20
-150.6206081437684
 10
127.2663058492598
 20
-150.8724446237402
 10
127.2663058492598
 20
-150.8724446237402
 10
127.4089328023491
 20
-150.8469509171493
 10
127.5718858188015
 20
-150.8025091853896
 10
127.627351856114
 20
-150.787695274803
 10
127.627351856114
 20
-150.787695274803
 10
127.6015136399746
 20
-150.9568494631288
 10
127.6015136399746
 20
-150.9568494631288
 10
127.5994465826835
 20
-150.9568494631288
 10
127.5829101243543
 20
-150.9633951445508
 10
127.5811875766116
 20
-150.9633951445508
 10
127.406865745058
 20
-151.0012911948886
 10
127.1291910489469
 20
-151.0670925186568
 10
126.9569362746844
 20
-151.1029215117034
 10
126.9476345168742
 20
-151.1198024795811
 10
126.9273084535112
 20
-151.1514973580454
 10
126.9069823901482
 20
-151.1514973580454
 10
126.8828667217515
 20
-151.1514973580454
 10
126.8790771167177
 20
-151.1325493328766
 10
126.8773545689751
 20
-151.1136013077077
 10
126.8773545689751
 20
-151.1136013077077
 10
126.854961448321
 20
-150.9399684952511
 10
126.854961448321
 20
-150.9399684952511
 10
126.9200737529922
 20
-150.9317002660865
 10
127.014469369288
 20
-150.9189534127911
 10
127.1088649855839
 20
-150.897938330331
 10
127.1088649855839
 20
-150.897938330331
 10
127.1088649855839
 20
-150.7201714032922
 10
127.1088649855839
 20
-150.7201714032922
 10
126.9827744908237
 20
-150.7921738989339
 10
126.8997476896292
 20
-150.8214572105585
 10
126.7550536792487
 20
-150.8510850317317
 10
126.7550536792487
 20
-150.8510850317317
 10
126.6496337574001
 20
-150.6819308434059
 10
126.6496337574001
 20
-150.6819308434059
 10
126.9273084535112
 20
-150.6543700795239
 10
127.0957736227399
 20
-150.5613525014221
 10
127.2514919386732
 20
-150.428027306143
 10
127.1236788961704
 20
-150.428027306143
 10
126.8608181106459
 20
-150.4325059302738
 10
126.6885633363834
 20
-150.4387071021473
 10
126.6885633363834
 20
-150.4387071021473
 10
126.6885633363834
 20
-150.2609401751084
 10
126.6885633363834
 20
-150.2609401751084
 10
126.8236110794052
 20
-150.2674858565303
 10
127.0830267694445
 20
-150.2736870284038
 10
127.2439127286057
 20
-150.2736870284038
 10
127.2439127286057
 20
-150.2736870284038
 10
127.4292588657121
 20
-150.2736870284038
 10
127.4292588657121
 20
-150.2736870284038
 10
127.4292588657121
 20
-150.1786023930109
 10
127.427191808421
 20
-150.1276149798292
 10
127.4216796556446
 20
-150.0811061907783
 10
127.4216796556446
 20
-150.0811061907783
 10
127.6108153977848
 20
-150.097987158656
 10
127.6108153977848
 20
-150.097987158656
 10
127.6531900722533
 20
-150.1024657827868
 10
127.6607692823209
 20
-150.1172796933734
 10
127.6607692823209
 20
-150.13209360396
 10
127.6607692823209
 20
-150.1572428010023
 10
127.6459553717343
 20
-150.1658555397155
 10
127.6015136399746
 20
-150.1913492463063
 10
127.5994465826835
 20
-150.2164984433486
 10
127.5994465826835
 20
-150.2230441247706
 10
127.5977240349408
 20
-150.2736870284038
 10
127.5977240349408
 20
-150.2736870284038
 10
127.7996066303765
 20
-150.2736870284038
 10
127.7996066303765
 20
-150.2736870284038
 10
127.9439561312084
 20
-150.2736870284038
 10
128.199582216214
 20
-150.2674858565303
 10
128.3570230798899
 20
-150.2609401751084
 10
128.3570230798899
 20
-150.2609401751084
 10
128.3570230798899
 20
-150.4387071021473
 10
128.3570230798899
 20
-150.4387071021473
 10
128.2440239479737
 20
-150.4345729875649
 10
128.2236978846107
 20
-150.4345729875649
 10
127.9808186529006
 20
-150.4300943634341
 97
        0
 97
        1
330
92
 75
     2
 76
     1
 98
        1
 10
0.0
 20
0.0
450
        0
451
        0
460
0.0
461
0.0
452
        0
462
0.0
453
        0
470

  0
SPLINE
  5
94
330
81
100
AcDbEntity
  8
レイヤー 1
100
AcDbSpline
210
0.0
220
0.0
230
1.0
 70
    11
 71
     3
 72
    17
 73
    13
 74
     0
 42
0.0000000001
 43
0.0000000001
 40
0.0
 40
0.0
 40
0.0
 40
0.0
 40
1.0
 40
1.0
 40
1.0
 40
2.0
 40
2.0
 40
2.0
 40
3.0
 40
3.0
 40
3.0
 40
4.0
 40
4.0
 40
4.0
 40
4.0
 10
129.8625298069441
 20
-149.9436468809169
 30
0.0
 10
129.8625298069441
 20
-149.9436468809169
 30
0.0
 10
129.4608316733639
 20
-149.9436468809169
 30
0.0
 10
129.4608316733639
 20
-149.9436468809169
 30
0.0
 10
129.4608316733639
 20
-149.9436468809169
 30
0.0
 10
129.4608316733639
 20
-150.2526719459438
 30
0.0
 10
129.4608316733639
 20
-150.2526719459438
 30
0.0
 10
129.4608316733639
 20
-150.2526719459438
 30
0.0
 10
129.8625298069441
 20
-150.2526719459438
 30
0.0
 10
129.8625298069441
 20
-150.2526719459438
 30
0.0
 10
129.8625298069441
 20
-150.2526719459438
 30
0.0
 10
129.8625298069441
 20
-149.9436468809169
 30
0.0
 10
129.8625298069441
 20
-149.9436468809169
 30
0.0
  0
SPLINE
  5
95
330
81
100
AcDbEntity
  8
レイヤー 1
100
AcDbSpline
210
0.0
220
0.0
230
1.0
 70
    11
 71
     3
 72
    17
 73
    13
 74
     0
 42
0.0000000001
 43
0.0000000001
 40
0.0
 40
0.0
 40
0.0
 40
0.0
 40
1.0
 40
1.0
 40
1.0
 40
2.0
 40
2.0
 40
2.0
 40
3.0
 40
3.0
 40
3.0
 40
4.0
 40
4.0
 40
4.0
 40
4.0
 10
129.8625298069441
 20
-149.4720133089861
 30
0.0
 10
129.8625298069441
 20
-149.4720133089861
 30
0.0
 10
129.4608316733639
 20
-149.4720133089861
 30
0.0
 10
129.4608316733639
 20
-149.4720133089861
 30
0.0
 10
129.4608316733639
 20
-149.4720133089861
 30
0.0
 10
129.4608316733639
 20
-149.7765597498822
 30
0.0
 10
129.4608316733639
 20
-149.7765597498822
 30
0.0
 10
129.4608316733639
 20
-149.7765597498822
 30
0.0
 10
129.8625298069441
 20
-149.7765597498822
 30
0.0
 10
129.8625298069441
 20
-149.7765597498822
 30
0.0
 10
129.8625298069441
 20
-149.7765597498822
 30
0.0
 10
129.8625298069441
 20
-149.4720133089861
 30
0.0
 10
129.8625298069441
 20
-149.4720133089861
 30
0.0
  0
SPLINE
  5
96
330
81
100
AcDbEntity
  8
レイヤー 1
100
AcDbSpline
210
0.0
220
0.0
230
1.0
 70
    11
 71
     3
 72
    17
 73
    13
 74
     0
 42
0.0000000001
 43
0.0000000001
 40
0.0
 40
0.0
 40
0.0
 40
0.0
 40
1.0
 40
1.0
 40
1.0
 40
2.0
 40
2.0
 40
2.0
 40
3.0
 40
3.0
 40
3.0
 40
4.0
 40
4.0
 40
4.0
 40
4.0
 10
129.2940890518778
 20
-149.9436468809169
 30
0.0
 10
129.2940890518778
 20
-149.9436468809169
 30
0.0
 10
128.9106499243696
 20
-149.9436468809169
 30
0.0
 10
128.9106499243696
 20
-149.9436468809169
 30
0.0
 10
128.9106499243696
 20
-149.9436468809169
 30
0.0
 10
128.9106499243696
 20
-150.2526719459438
 30
0.0
 10
128.9106499243696
 20
-150.2526719459438
 30
0.0
 10
128.9106499243696
 20
-150.2526719459438
 30
0.0
 10
129.2940890518778
 20
-150.2526719459438
 30
0.0
 10
129.2940890518778
 20
-150.2526719459438
 30
0.0
 10
129.2940890518778
 20
-150.2526719459438
 30
0.0
 10
129.2940890518778
 20
-149.9436468809169
 30
0.0
 10
129.2940890518778
 20
-149.9436468809169
 30
0.0
  0
SPLINE
  5
97
330
81
100
AcDbEntity
  8
レイヤー 1
100
AcDbSpline
210
0.0
220
0.0
230
1.0
 70
    11
 71
     3
 72
    17
 73
    13
 74
     0
 42
0.0000000001
 43
0.0000000001
 40
0.0
 40
0.0
 40
0.0
 40
0.0
 40
1.0
 40
1.0
 40
1.0
 40
2.0
 40
2.0
 40
2.0
 40
3.0
 40
3.0
 40
3.0
 40
4.0
 40
4.0
 40
4.0
 40
4.0
 10
129.2940890518778
 20
-149.4720133089861
 30
0.0
 10
129.2940890518778
 20
-149.4720133089861
 30
0.0
 10
128.9106499243696
 20
-149.4720133089861
 30
0.0
 10
128.9106499243696
 20
-149.4720133089861
 30
0.0
 10
128.9106499243696
 20
-149.4720133089861
 30
0.0
 10
128.9106499243696
 20
-149.7765597498822
 30
0.0
 10
128.9106499243696
 20
-149.7765597498822
 30
0.0
 10
128.9106499243696
 20
-149.7765597498822
 30
0.0
 10
129.2940890518778
 20
-149.7765597498822
 30
0.0
 10
129.2940890518778
 20
-149.7765597498822
 30
0.0
 10
129.2940890518778
 20
-149.7765597498822
 30
0.0
 10
129.2940890518778
 20
-149.4720133089861
 30
0.0
 10
129.2940890518778
 20
-149.4720133089861
 30
0.0
  0
SPLINE
  5
98
330
81
100
AcDbEntity
  8
レイヤー 1
100
AcDbSpline
210
0.0
220
0.0
230
1.0
 70
     9
 71
     3
 72
    77
 73
    73
 74
     0
 42
0.0000000001
 43
0.0000000001
 40
0.0
 40
0.0
 40
0.0
 40
0.0
 40
1.0
 40
1.0
 40
1.0
 40
2.0
 40
2.0
 40
2.0
 40
3.0
 40
3.0
 40
3.0
 40
4.0
 40
4.0
 40
4.0
 40
5.0
 40
5.0
 40
5.0
 40
6.0
 40
6.0
 40
6.0
 40
7.0
 40
7.0
 40
7.0
 40
8.0
 40
8.0
 40
8.0
 40
9.0
 40
9.0
 40
9.0
 40
10.0
 40
10.0
 40
10.0
 40
11.0
 40
11.0
 40
11.0
 40
12.0
 40
12.0
 40
12.0
 40
13.0
 40
13.0
 40
13.0
 40
14.0
 40
14.0
 40
14.0
 40
15.0
 40
15.0
 40
15.0
 40
16.0
 40
16.0
 40
16.0
 40
17.0
 40
17.0
 40
17.0
 40
18.0
 40
18.0
 40
18.0
 40
19.0
 40
19.0
 40
19.0
 40
20.0
 40
20.0
 40
20.0
 40
21.0
 40
21.0
 40
21.0
 40
22.0
 40
22.0
 40
22.0
 40
23.0
 40
23.0
 40
23.0
 40
24.0
 40
24.0
 40
24.0
 40
24.0
 10
129.9810410916367
 20
-151.0584797799437
 30
0.0
 10
129.9403889649107
 20
-151.0839734865345
 30
0.0
 10
129.8311794380283
 20
-151.09672033983
 30
0.0
 10
129.7626220378718
 20
-151.09672033983
 30
0.0
 10
129.751597732319
 20
-151.09672033983
 30
0.0
 10
129.7292046116649
 20
-151.09672033983
 30
0.0
 10
129.6995767904918
 20
-151.0922417156991
 30
0.0
 10
129.6995767904918
 20
-151.0922417156991
 30
0.0
 10
129.6144829320061
 20
-150.8658989423182
 30
0.0
 10
129.6144829320061
 20
-150.8658989423182
 30
0.0
 10
129.6403211481455
 20
-150.8724446237402
 30
0.0
 10
129.6902750326816
 20
-150.8807128529048
 30
0.0
 10
129.792249859045
 20
-150.8807128529048
 30
0.0
 10
129.8608072592014
 20
-150.8807128529048
 30
0.0
 10
129.8625298069441
 20
-150.8386826879847
 30
0.0
 10
129.8625298069441
 20
-150.7814941029296
 30
0.0
 10
129.8625298069441
 20
-150.7814941029296
 30
0.0
 10
129.8625298069441
 20
-150.4325059302738
 30
0.0
 10
129.8625298069441
 20
-150.4325059302738
 30
0.0
 10
129.8625298069441
 20
-150.4325059302738
 30
0.0
 10
129.4608316733639
 20
-150.4325059302738
 30
0.0
 10
129.4608316733639
 20
-150.4325059302738
 30
0.0
 10
129.4625542211066
 20
-150.5699652401353
 30
0.0
 10
129.4642767688492
 20
-150.7687472496342
 30
0.0
 10
129.4697889216256
 20
-150.9020724449134
 30
0.0
 10
129.4718559789167
 20
-150.9296332087953
 30
0.0
 10
129.4718559789167
 20
-150.9740749405551
 30
0.0
 10
129.4828802844695
 20
-151.0353976401925
 30
0.0
 10
129.4828802844695
 20
-151.0353976401925
 30
0.0
 10
129.2716959312237
 20
-151.0353976401925
 30
0.0
 10
129.2716959312237
 20
-151.0353976401925
 30
0.0
 10
129.2940890518778
 20
-150.910340674078
 30
0.0
 10
129.2940890518778
 20
-150.5699652401353
 30
0.0
 10
129.2940890518778
 20
-150.4325059302738
 30
0.0
 10
129.2940890518778
 20
-150.4325059302738
 30
0.0
 10
128.9068603193358
 20
-150.4325059302738
 30
0.0
 10
128.9068603193358
 20
-150.4325059302738
 30
0.0
 10
128.8865342559728
 20
-150.6395561689373
 30
0.0
 10
128.8293456709176
 20
-150.9082736167868
 30
0.0
 10
128.6570908966552
 20
-151.0922417156991
 30
0.0
 10
128.6570908966552
 20
-151.0922417156991
 30
0.0
 10
128.4920708229117
 20
-150.9695963164243
 30
0.0
 10
128.4920708229117
 20
-150.9695963164243
 30
0.0
 10
128.7146239912588
 20
-150.7497992244653
 30
0.0
 10
128.7421847551408
 20
-150.4176920196872
 30
0.0
 10
128.7421847551408
 20
-150.0855848149091
 30
0.0
 10
128.7421847551408
 20
-150.0855848149091
 30
0.0
 10
128.7421847551408
 20
-149.649780236025
 30
0.0
 10
128.7421847551408
 20
-149.649780236025
 30
0.0
 10
128.7421847551408
 20
-149.6136067334299
 30
0.0
 10
128.7404622073982
 20
-149.3810627881756
 30
0.0
 10
128.7328829973306
 20
-149.2794324713607
 30
0.0
 10
128.855183887057
 20
-149.2901122673649
 30
0.0
 10
129.0663682403028
 20
-149.2901122673649
 30
0.0
 10
129.1921142255144
 20
-149.2901122673649
 30
0.0
 10
129.1921142255144
 20
-149.2901122673649
 30
0.0
 10
129.5941568686431
 20
-149.2901122673649
 30
0.0
 10
129.5941568686431
 20
-149.2901122673649
 30
0.0
 10
129.6069037219385
 20
-149.2901122673649
 30
0.0
 10
129.9124836914802
 20
-149.2901122673649
 30
0.0
 10
130.0513210395358
 20
-149.2794324713607
 30
0.0
 10
130.0495984917931
 20
-149.332142432285
 30
0.0
 10
130.0440863390167
 20
-149.4930283914461
 30
0.0
 10
130.0440863390167
 20
-149.5440158046279
 30
0.0
 10
130.0440863390167
 20
-149.5440158046279
 30
0.0
 10
130.0440863390167
 20
-150.1510416291289
 30
0.0
 10
130.0440863390167
 20
-150.1510416291289
 30
0.0
 10
130.0440863390167
 20
-150.1699896542977
 30
0.0
 10
130.0533880968269
 20
-150.7411864857522
 30
0.0
 10
130.0533880968269
 20
-150.8534965985713
 30
0.0
 10
130.0533880968269
 20
-150.910340674078
 30
0.0
 10
130.0533880968269
 20
-151.0119709908928
 30
0.0
 10
129.9810410916367
 20
-151.0584797799437
 30
0.0
  0
HATCH
  5
99
330
81
100
AcDbEntity
  8
レイヤー 1
 62
   250
420
  2299925
440
 33554687
100
AcDbHatch
 10
0.0
 20
0.0
 30
0.0
210
0.0
220
0.0
230
1.0
  2
SOLID
 70
     1
 71
     1
 91
        5
 92
        1
 93
        1
 72
     4
 94
        3
 73
     0
 74
     0
 95
       17
 96
       13
 40
0.0
 40
0.0
 40
0.0
 40
0.0
 40
1.0
 40
1.0
 40
1.0
 40
2.0
 40
2.0
 40
2.0
 40
3.0
 40
3.0
 40
3.0
 40
4.0
 40
4.0
 40
4.0
 40
4.0
 10
129.8625298069441
 20
-149.9436468809169
 10
129.8625298069441
 20
-149.9436468809169
 10
129.4608316733639
 20
-149.9436468809169
 10
129.4608316733639
 20
-149.9436468809169
 10
129.4608316733639
 20
-149.9436468809169
 10
129.4608316733639
 20
-150.2526719459438
 10
129.4608316733639
 20
-150.2526719459438
 10
129.4608316733639
 20
-150.2526719459438
 10
129.8625298069441
 20
-150.2526719459438
 10
129.8625298069441
 20
-150.2526719459438
 10
129.8625298069441
 20
-150.2526719459438
 10
129.8625298069441
 20
-149.9436468809169
 10
129.8625298069441
 20
-149.9436468809169
 97
        0
 97
        1
330
94
 92
        1
 93
        1
 72
     4
 94
        3
 73
     0
 74
     0
 95
       17
 96
       13
 40
0.0
 40
0.0
 40
0.0
 40
0.0
 40
1.0
 40
1.0
 40
1.0
 40
2.0
 40
2.0
 40
2.0
 40
3.0
 40
3.0
 40
3.0
 40
4.0
 40
4.0
 40
4.0
 40
4.0
 10
129.8625298069441
 20
-149.4720133089861
 10
129.8625298069441
 20
-149.4720133089861
 10
129.4608316733639
 20
-149.4720133089861
 10
129.4608316733639
 20
-149.4720133089861
 10
129.4608316733639
 20
-149.4720133089861
 10
129.4608316733639
 20
-149.7765597498822
 10
129.4608316733639
 20
-149.7765597498822
 10
129.4608316733639
 20
-149.7765597498822
 10
129.8625298069441
 20
-149.7765597498822
 10
129.8625298069441
 20
-149.7765597498822
 10
129.8625298069441
 20
-149.7765597498822
 10
129.8625298069441
 20
-149.4720133089861
 10
129.8625298069441
 20
-149.4720133089861
 97
        0
 97
        1
330
95
 92
        1
 93
        1
 72
     4
 94
        3
 73
     0
 74
     0
 95
       17
 96
       13
 40
0.0
 40
0.0
 40
0.0
 40
0.0
 40
1.0
 40
1.0
 40
1.0
 40
2.0
 40
2.0
 40
2.0
 40
3.0
 40
3.0
 40
3.0
 40
4.0
 40
4.0
 40
4.0
 40
4.0
 10
129.2940890518778
 20
-149.9436468809169
 10
129.2940890518778
 20
-149.9436468809169
 10
128.9106499243696
 20
-149.9436468809169
 10
128.9106499243696
 20
-149.9436468809169
 10
128.9106499243696
 20
-149.9436468809169
 10
128.9106499243696
 20
-150.2526719459438
 10
128.9106499243696
 20
-150.2526719459438
 10
128.9106499243696
 20
-150.2526719459438
 10
129.2940890518778
 20
-150.2526719459438
 10
129.2940890518778
 20
-150.2526719459438
 10
129.2940890518778
 20
-150.2526719459438
 10
129.2940890518778
 20
-149.9436468809169
 10
129.2940890518778
 20
-149.9436468809169
 97
        0
 97
        1
330
96
 92
        1
 93
        1
 72
     4
 94
        3
 73
     0
 74
     0
 95
       17
 96
       13
 40
0.0
 40
0.0
 40
0.0
 40
0.0
 40
1.0
 40
1.0
 40
1.0
 40
2.0
 40
2.0
 40
2.0
 40
3.0
 40
3.0
 40
3.0
 40
4.0
 40
4.0
 40
4.0
 40
4.0
 10
129.2940890518778
 20
-149.4720133089861
 10
129.2940890518778
 20
-149.4720133089861
 10
128.9106499243696
 20
-149.4720133089861
 10
128.9106499243696
 20
-149.4720133089861
 10
128.9106499243696
 20
-149.4720133089861
 10
128.9106499243696
 20
-149.7765597498822
 10
128.9106499243696
 20
-149.7765597498822
 10
128.9106499243696
 20
-149.7765597498822
 10
129.2940890518778
 20
-149.7765597498822
 10
129.2940890518778
 20
-149.7765597498822
 10
129.2940890518778
 20
-149.7765597498822
 10
129.2940890518778
 20
-149.4720133089861
 10
129.2940890518778
 20
-149.4720133089861
 97
        0
 97
        1
330
97
 92
        1
 93
        1
 72
     4
 94
        3
 73
     0
 74
     0
 95
       77
 96
       73
 40
0.0
 40
0.0
 40
0.0
 40
0.0
 40
1.0
 40
1.0
 40
1.0
 40
2.0
 40
2.0
 40
2.0
 40
3.0
 40
3.0
 40
3.0
 40
4.0
 40
4.0
 40
4.0
 40
5.0
 40
5.0
 40
5.0
 40
6.0
 40
6.0
 40
6.0
 40
7.0
 40
7.0
 40
7.0
 40
8.0
 40
8.0
 40
8.0
 40
9.0
 40
9.0
 40
9.0
 40
10.0
 40
10.0
 40
10.0
 40
11.0
 40
11.0
 40
11.0
 40
12.0
 40
12.0
 40
12.0
 40
13.0
 40
13.0
 40
13.0
 40
14.0
 40
14.0
 40
14.0
 40
15.0
 40
15.0
 40
15.0
 40
16.0
 40
16.0
 40
16.0
 40
17.0
 40
17.0
 40
17.0
 40
18.0
 40
18.0
 40
18.0
 40
19.0
 40
19.0
 40
19.0
 40
20.0
 40
20.0
 40
20.0
 40
21.0
 40
21.0
 40
21.0
 40
22.0
 40
22.0
 40
22.0
 40
23.0
 40
23.0
 40
23.0
 40
24.0
 40
24.0
 40
24.0
 40
24.0
 10
129.9810410916367
 20
-151.0584797799437
 10
129.9403889649107
 20
-151.0839734865345
 10
129.8311794380283
 20
-151.09672033983
 10
129.7626220378718
 20
-151.09672033983
 10
129.751597732319
 20
-151.09672033983
 10
129.7292046116649
 20
-151.09672033983
 10
129.6995767904918
 20
-151.0922417156991
 10
129.6995767904918
 20
-151.0922417156991
 10
129.6144829320061
 20
-150.8658989423182
 10
129.6144829320061
 20
-150.8658989423182
 10
129.6403211481455
 20
-150.8724446237402
 10
129.6902750326816
 20
-150.8807128529048
 10
129.792249859045
 20
-150.8807128529048
 10
129.8608072592014
 20
-150.8807128529048
 10
129.8625298069441
 20
-150.8386826879847
 10
129.8625298069441
 20
-150.7814941029296
 10
129.8625298069441
 20
-150.7814941029296
 10
129.8625298069441
 20
-150.4325059302738
 10
129.8625298069441
 20
-150.4325059302738
 10
129.8625298069441
 20
-150.4325059302738
 10
129.4608316733639
 20
-150.4325059302738
 10
129.4608316733639
 20
-150.4325059302738
 10
129.4625542211066
 20
-150.5699652401353
 10
129.4642767688492
 20
-150.7687472496342
 10
129.4697889216256
 20
-150.9020724449134
 10
129.4718559789167
 20
-150.9296332087953
 10
129.4718559789167
 20
-150.9740749405551
 10
129.4828802844695
 20
-151.0353976401925
 10
129.4828802844695
 20
-151.0353976401925
 10
129.2716959312237
 20
-151.0353976401925
 10
129.2716959312237
 20
-151.0353976401925
 10
129.2940890518778
 20
-150.910340674078
 10
129.2940890518778
 20
-150.5699652401353
 10
129.2940890518778
 20
-150.4325059302738
 10
129.2940890518778
 20
-150.4325059302738
 10
128.9068603193358
 20
-150.4325059302738
 10
128.9068603193358
 20
-150.4325059302738
 10
128.8865342559728
 20
-150.6395561689373
 10
128.8293456709176
 20
-150.9082736167868
 10
128.6570908966552
 20
-151.0922417156991
 10
128.6570908966552
 20
-151.0922417156991
 10
128.4920708229117
 20
-150.9695963164243
 10
128.4920708229117
 20
-150.9695963164243
 10
128.7146239912588
 20
-150.7497992244653
 10
128.7421847551408
 20
-150.4176920196872
 10
128.7421847551408
 20
-150.0855848149091
 10
128.7421847551408
 20
-150.0855848149091
 10
128.7421847551408
 20
-149.649780236025
 10
128.7421847551408
 20
-149.649780236025
 10
128.7421847551408
 20
-149.6136067334299
 10
128.7404622073982
 20
-149.3810627881756
 10
128.7328829973306
 20
-149.2794324713607
 10
128.855183887057
 20
-149.2901122673649
 10
129.0663682403028
 20
-149.2901122673649
 10
129.1921142255144
 20
-149.2901122673649
 10
129.1921142255144
 20
-149.2901122673649
 10
129.5941568686431
 20
-149.2901122673649
 10
129.5941568686431
 20
-149.2901122673649
 10
129.6069037219385
 20
-149.2901122673649
 10
129.9124836914802
 20
-149.2901122673649
 10
130.0513210395358
 20
-149.2794324713607
 10
130.0495984917931
 20
-149.332142432285
 10
130.0440863390167
 20
-149.4930283914461
 10
130.0440863390167
 20
-149.5440158046279
 10
130.0440863390167
 20
-149.5440158046279
 10
130.0440863390167
 20
-150.1510416291289
 10
130.0440863390167
 20
-150.1510416291289
 10
130.0440863390167
 20
-150.1699896542977
 10
130.0533880968269
 20
-150.7411864857522
 10
130.0533880968269
 20
-150.8534965985713
 10
130.0533880968269
 20
-150.910340674078
 10
130.0533880968269
 20
-151.0119709908928
 10
129.9810410916367
 20
-151.0584797799437
 97
        0
 97
        1
330
98
 75
     2
 76
     1
 98
        1
 10
0.0
 20
0.0
450
        0
451
        0
460
0.0
461
0.0
452
        0
462
0.0
453
        0
470

  0
SPLINE
  5
9A
330
81
100
AcDbEntity
  8
レイヤー 1
100
AcDbSpline
210
0.0
220
0.0
230
1.0
 70
     9
 71
     3
 72
    17
 73
    13
 74
     0
 42
0.0000000001
 43
0.0000000001
 40
0.0
 40
0.0
 40
0.0
 40
0.0
 40
1.0
 40
1.0
 40
1.0
 40
2.0
 40
2.0
 40
2.0
 40
3.0
 40
3.0
 40
3.0
 40
4.0
 40
4.0
 40
4.0
 40
4.0
 10
126.2637830630521
 20
-151.8195013726354
 30
0.0
 10
126.2155517262586
 20
-151.8195013726354
 30
0.0
 10
126.1766221472753
 20
-151.8639431043951
 30
0.0
 10
126.1766221472753
 20
-151.9190646321591
 30
0.0
 10
126.1766221472753
 20
-151.9759087076657
 30
0.0
 10
126.2155517262586
 20
-152.0248290635563
 30
0.0
 10
126.2675726680859
 20
-152.0248290635563
 30
0.0
 10
126.3192491003646
 20
-152.0248290635563
 30
0.0
 10
126.3543890743141
 20
-151.9738416503746
 30
0.0
 10
126.3543890743141
 20
-151.9211316894502
 30
0.0
 10
126.3543890743141
 20
-151.8639431043951
 30
0.0
 10
126.3137369475882
 20
-151.8195013726354
 30
0.0
 10
126.2637830630521
 20
-151.8195013726354
 30
0.0
  0
SPLINE
  5
9B
330
81
100
AcDbEntity
  8
レイヤー 1
100
AcDbSpline
210
0.0
220
0.0
230
1.0
 70
     9
 71
     3
 72
    17
 73
    13
 74
     0
 42
0.0000000001
 43
0.0000000001
 40
0.0
 40
0.0
 40
0.0
 40
0.0
 40
1.0
 40
1.0
 40
1.0
 40
2.0
 40
2.0
 40
2.0
 40
3.0
 40
3.0
 40
3.0
 40
4.0
 40
4.0
 40
4.0
 40
4.0
 10
126.2655056107947
 20
-152.1495415201223
 30
0.0
 10
126.1545735361697
 20
-152.1495415201223
 30
0.0
 10
126.0656900726502
 20
-152.0479112033074
 30
0.0
 10
126.0656900726502
 20
-151.9211316894502
 30
0.0
 10
126.0656900726502
 20
-151.7940076660445
 30
0.0
 10
126.1545735361697
 20
-151.6903102919385
 30
0.0
 10
126.2655056107947
 20
-151.6903102919385
 30
0.0
 10
126.3767821949683
 20
-151.6903102919385
 30
0.0
 10
126.4673882062304
 20
-151.7940076660445
 30
0.0
 10
126.4673882062304
 20
-151.9211316894502
 30
0.0
 10
126.4673882062304
 20
-152.0479112033074
 30
0.0
 10
126.3767821949683
 20
-152.1495415201223
 30
0.0
 10
126.2655056107947
 20
-152.1495415201223
 30
0.0
  0
SPLINE
  5
9C
330
81
100
AcDbEntity
  8
レイヤー 1
100
AcDbSpline
210
0.0
220
0.0
230
1.0
 70
     9
 71
     3
 72
    44
 73
    40
 74
     0
 42
0.0000000001
 43
0.0000000001
 40
0.0
 40
0.0
 40
0.0
 40
0.0
 40
1.0
 40
1.0
 40
1.0
 40
2.0
 40
2.0
 40
2.0
 40
3.0
 40
3.0
 40
3.0
 40
4.0
 40
4.0
 40
4.0
 40
5.0
 40
5.0
 40
5.0
 40
6.0
 40
6.0
 40
6.0
 40
7.0
 40
7.0
 40
7.0
 40
8.0
 40
8.0
 40
8.0
 40
9.0
 40
9.0
 40
9.0
 40
10.0
 40
10.0
 40
10.0
 40
11.0
 40
11.0
 40
11.0
 40
12.0
 40
12.0
 40
12.0
 40
13.0
 40
13.0
 40
13.0
 40
13.0
 10
126.0822265309794
 20
-152.3483235296212
 30
0.0
 10
125.9840413096498
 20
-152.7166042369944
 30
0.0
 10
125.9395995778901
 20
-152.8750786293159
 30
0.0
 10
125.7673448036276
 20
-153.1248480519965
 30
0.0
 10
125.6064588444664
 20
-153.3553249399598
 30
0.0
 10
125.3990640962544
 20
-153.5413600961633
 30
0.0
 10
125.1544623168016
 20
-153.6347221838135
 30
0.0
 10
125.1544623168016
 20
-153.6347221838135
 30
0.0
 10
124.9859971475729
 20
-153.4548881994835
 30
0.0
 10
124.9859971475729
 20
-153.4548881994835
 30
0.0
 10
125.5472032021201
 20
-153.3026149790354
 30
0.0
 10
125.8359022037841
 20
-152.7462320581676
 30
0.0
 10
125.8917127506451
 20
-152.3059488551526
 30
0.0
 10
125.8917127506451
 20
-152.3059488551526
 30
0.0
 10
125.2212971692155
 20
-152.3059488551526
 30
0.0
 10
125.2212971692155
 20
-152.3059488551526
 30
0.0
 10
125.1396484062151
 20
-152.3059488551526
 30
0.0
 10
124.9787624470539
 20
-152.3104274792835
 30
0.0
 10
124.841647646741
 20
-152.3293755044524
 30
0.0
 10
124.841647646741
 20
-152.3293755044524
 30
0.0
 10
124.841647646741
 20
-152.1092339029449
 30
0.0
 10
124.841647646741
 20
-152.1092339029449
 30
0.0
 10
124.9174397474165
 20
-152.1305934949535
 30
0.0
 10
125.1379258584724
 20
-152.1305934949535
 30
0.0
 10
125.2247422647007
 20
-152.1305934949535
 30
0.0
 10
125.2247422647007
 20
-152.1305934949535
 30
0.0
 10
125.6026692394327
 20
-152.1305934949535
 30
0.0
 10
125.6026692394327
 20
-152.1305934949535
 30
0.0
 10
125.6395317611248
 20
-152.1305934949535
 30
0.0
 10
125.8452039615942
 20
-152.1281819281138
 30
0.0
 10
125.8786213878012
 20
-152.1219807562403
 30
0.0
 10
125.9154839094933
 20
-152.1157795843669
 30
0.0
 10
125.9175509667845
 20
-152.1137125270757
 30
0.0
 10
125.9712944563544
 20
-152.0734049098983
 30
0.0
 10
125.9712944563544
 20
-152.0734049098983
 30
0.0
 10
126.1359700205493
 20
-152.2277451876375
 30
0.0
 10
126.1359700205493
 20
-152.2277451876375
 30
0.0
 10
126.1101318044099
 20
-152.2573730088106
 30
0.0
 10
126.097040441566
 20
-152.2890678872749
 30
0.0
 10
126.0822265309794
 20
-152.3483235296212
 30
0.0
  0
HATCH
  5
9D
330
81
100
AcDbEntity
  8
レイヤー 1
 62
   250
420
  2299925
440
 33554687
100
AcDbHatch
 10
0.0
 20
0.0
 30
0.0
210
0.0
220
0.0
230
1.0
  2
SOLID
 70
     1
 71
     1
 91
        3
 92
        1
 93
        1
 72
     4
 94
        3
 73
     0
 74
     0
 95
       17
 96
       13
 40
0.0
 40
0.0
 40
0.0
 40
0.0
 40
1.0
 40
1.0
 40
1.0
 40
2.0
 40
2.0
 40
2.0
 40
3.0
 40
3.0
 40
3.0
 40
4.0
 40
4.0
 40
4.0
 40
4.0
 10
126.2637830630521
 20
-151.8195013726354
 10
126.2155517262586
 20
-151.8195013726354
 10
126.1766221472753
 20
-151.8639431043951
 10
126.1766221472753
 20
-151.9190646321591
 10
126.1766221472753
 20
-151.9759087076657
 10
126.2155517262586
 20
-152.0248290635563
 10
126.2675726680859
 20
-152.0248290635563
 10
126.3192491003646
 20
-152.0248290635563
 10
126.3543890743141
 20
-151.9738416503746
 10
126.3543890743141
 20
-151.9211316894502
 10
126.3543890743141
 20
-151.8639431043951
 10
126.3137369475882
 20
-151.8195013726354
 10
126.2637830630521
 20
-151.8195013726354
 97
        0
 97
        1
330
9A
 92
        1
 93
        1
 72
     4
 94
        3
 73
     0
 74
     0
 95
       17
 96
       13
 40
0.0
 40
0.0
 40
0.0
 40
0.0
 40
1.0
 40
1.0
 40
1.0
 40
2.0
 40
2.0
 40
2.0
 40
3.0
 40
3.0
 40
3.0
 40
4.0
 40
4.0
 40
4.0
 40
4.0
 10
126.2655056107947
 20
-152.1495415201223
 10
126.1545735361697
 20
-152.1495415201223
 10
126.0656900726502
 20
-152.0479112033074
 10
126.0656900726502
 20
-151.9211316894502
 10
126.0656900726502
 20
-151.7940076660445
 10
126.1545735361697
 20
-151.6903102919385
 10
126.2655056107947
 20
-151.6903102919385
 10
126.3767821949683
 20
-151.6903102919385
 10
126.4673882062304
 20
-151.7940076660445
 10
126.4673882062304
 20
-151.9211316894502
 10
126.4673882062304
 20
-152.0479112033074
 10
126.3767821949683
 20
-152.1495415201223
 10
126.2655056107947
 20
-152.1495415201223
 97
        0
 97
        1
330
9B
 92
        1
 93
        1
 72
     4
 94
        3
 73
     0
 74
     0
 95
       44
 96
       40
 40
0.0
 40
0.0
 40
0.0
 40
0.0
 40
1.0
 40
1.0
 40
1.0
 40
2.0
 40
2.0
 40
2.0
 40
3.0
 40
3.0
 40
3.0
 40
4.0
 40
4.0
 40
4.0
 40
5.0
 40
5.0
 40
5.0
 40
6.0
 40
6.0
 40
6.0
 40
7.0
 40
7.0
 40
7.0
 40
8.0
 40
8.0
 40
8.0
 40
9.0
 40
9.0
 40
9.0
 40
10.0
 40
10.0
 40
10.0
 40
11.0
 40
11.0
 40
11.0
 40
12.0
 40
12.0
 40
12.0
 40
13.0
 40
13.0
 40
13.0
 40
13.0
 10
126.0822265309794
 20
-152.3483235296212
 10
125.9840413096498
 20
-152.7166042369944
 10
125.9395995778901
 20
-152.8750786293159
 10
125.7673448036276
 20
-153.1248480519965
 10
125.6064588444664
 20
-153.3553249399598
 10
125.3990640962544
 20
-153.5413600961633
 10
125.1544623168016
 20
-153.6347221838135
 10
125.1544623168016
 20
-153.6347221838135
 10
124.9859971475729
 20
-153.4548881994835
 10
124.9859971475729
 20
-153.4548881994835
 10
125.5472032021201
 20
-153.3026149790354
 10
125.8359022037841
 20
-152.7462320581676
 10
125.8917127506451
 20
-152.3059488551526
 10
125.8917127506451
 20
-152.3059488551526
 10
125.2212971692155
 20
-152.3059488551526
 10
125.2212971692155
 20
-152.3059488551526
 10
125.1396484062151
 20
-152.3059488551526
 10
124.9787624470539
 20
-152.3104274792835
 10
124.841647646741
 20
-152.3293755044524
 10
124.841647646741
 20
-152.3293755044524
 10
124.841647646741
 20
-152.1092339029449
 10
124.841647646741
 20
-152.1092339029449
 10
124.9174397474165
 20
-152.1305934949535
 10
125.1379258584724
 20
-152.1305934949535
 10
125.2247422647007
 20
-152.1305934949535
 10
125.2247422647007
 20
-152.1305934949535
 10
125.6026692394327
 20
-152.1305934949535
 10
125.6026692394327
 20
-152.1305934949535
 10
125.6395317611248
 20
-152.1305934949535
 10
125.8452039615942
 20
-152.1281819281138
 10
125.8786213878012
 20
-152.1219807562403
 10
125.9154839094933
 20
-152.1157795843669
 10
125.9175509667845
 20
-152.1137125270757
 10
125.9712944563544
 20
-152.0734049098983
 10
125.9712944563544
 20
-152.0734049098983
 10
126.1359700205493
 20
-152.2277451876375
 10
126.1359700205493
 20
-152.2277451876375
 10
126.1101318044099
 20
-152.2573730088106
 10
126.097040441566
 20
-152.2890678872749
 10
126.0822265309794
 20
-152.3483235296212
 97
        0
 97
        1
330
9C
 75
     2
 76
     1
 98
        1
 10
0.0
 20
0.0
450
        0
451
        0
460
0.0
461
0.0
452
        0
462
0.0
453
        0
470

  0
SPLINE
  5
9E
330
81
100
AcDbEntity
  8
レイヤー 1
100
AcDbSpline
210
0.0
220
0.0
230
1.0
 70
     9
 71
     3
 72
    29
 73
    25
 74
     0
 42
0.0000000001
 43
0.0000000001
 40
0.0
 40
0.0
 40
0.0
 40
0.0
 40
1.0
 40
1.0
 40
1.0
 40
2.0
 40
2.0
 40
2.0
 40
3.0
 40
3.0
 40
3.0
 40
4.0
 40
4.0
 40
4.0
 40
5.0
 40
5.0
 40
5.0
 40
6.0
 40
6.0
 40
6.0
 40
7.0
 40
7.0
 40
7.0
 40
8.0
 40
8.0
 40
8.0
 40
8.0
 10
127.4065212355095
 20
-152.0310302354297
 30
0.0
 10
127.4065212355095
 20
-152.0310302354297
 30
0.0
 10
127.1085204760354
 20
-152.0310302354297
 30
0.0
 10
127.1085204760354
 20
-152.0310302354297
 30
0.0
 10
127.0086127069631
 20
-152.0310302354297
 30
0.0
 10
126.9066378805997
 20
-152.035164350012
 30
0.0
 10
126.8067301115275
 20
-152.0499782605986
 30
0.0
 10
126.8067301115275
 20
-152.0499782605986
 30
0.0
 10
126.8067301115275
 20
-151.8405164550954
 30
0.0
 10
126.8067301115275
 20
-151.8405164550954
 30
0.0
 10
126.9104274856335
 20
-151.855330365682
 30
0.0
 10
127.062356196533
 20
-151.8598089898128
 30
0.0
 10
127.1085204760354
 20
-151.8598089898128
 30
0.0
 10
127.1085204760354
 20
-151.8598089898128
 30
0.0
 10
127.4065212355095
 20
-151.8598089898128
 30
0.0
 10
127.4065212355095
 20
-151.8598089898128
 30
0.0
 10
127.5084960618729
 20
-151.8598089898128
 30
0.0
 10
127.6101263786877
 20
-151.855330365682
 30
0.0
 10
127.7121012050511
 20
-151.8405164550954
 30
0.0
 10
127.7121012050511
 20
-151.8405164550954
 30
0.0
 10
127.7121012050511
 20
-152.0499782605986
 30
0.0
 10
127.7121012050511
 20
-152.0499782605986
 30
0.0
 10
127.5804985575146
 20
-152.0310302354297
 30
0.0
 10
127.4196125983534
 20
-152.0310302354297
 30
0.0
 10
127.4065212355095
 20
-152.0310302354297
 30
0.0
  0
SPLINE
  5
9F
330
81
100
AcDbEntity
  8
レイヤー 1
100
AcDbSpline
210
0.0
220
0.0
230
1.0
 70
     9
 71
     3
 72
    50
 73
    46
 74
     0
 42
0.0000000001
 43
0.0000000001
 40
0.0
 40
0.0
 40
0.0
 40
0.0
 40
1.0
 40
1.0
 40
1.0
 40
2.0
 40
2.0
 40
2.0
 40
3.0
 40
3.0
 40
3.0
 40
4.0
 40
4.0
 40
4.0
 40
5.0
 40
5.0
 40
5.0
 40
6.0
 40
6.0
 40
6.0
 40
7.0
 40
7.0
 40
7.0
 40
8.0
 40
8.0
 40
8.0
 40
9.0
 40
9.0
 40
9.0
 40
10.0
 40
10.0
 40
10.0
 40
11.0
 40
11.0
 40
11.0
 40
12.0
 40
12.0
 40
12.0
 40
13.0
 40
13.0
 40
13.0
 40
14.0
 40
14.0
 40
14.0
 40
15.0
 40
15.0
 40
15.0
 40
15.0
 10
127.8381916998113
 20
-152.6573485946481
 30
0.0
 10
127.7696342996548
 20
-152.8347710121385
 30
0.0
 10
127.6511230149622
 20
-153.0421657603505
 30
0.0
 10
127.5305446729785
 20
-153.1820366370517
 30
0.0
 10
127.3824055671127
 20
-153.3532578826686
 30
0.0
 10
127.2401231235719
 20
-153.4421413461881
 30
0.0
 10
126.9603813701696
 20
-153.5837347706318
 30
0.0
 10
126.9603813701696
 20
-153.5837347706318
 30
0.0
 10
126.8122422643039
 20
-153.3956325571372
 30
0.0
 10
126.8122422643039
 20
-153.3956325571372
 30
0.0
 10
126.9751952807562
 20
-153.3722059078375
 30
0.0
 10
127.1250569343645
 20
-153.2853895016092
 30
0.0
 10
127.2583821296437
 20
-153.179625070212
 30
0.0
 10
127.4881699985099
 20
-152.9977240285908
 30
0.0
 10
127.654912619996
 20
-152.6845648489816
 30
0.0
 10
127.6972872944645
 20
-152.5026638073604
 30
0.0
 10
127.6972872944645
 20
-152.5026638073604
 30
0.0
 10
127.110243023778
 20
-152.5026638073604
 30
0.0
 10
127.110243023778
 20
-152.5026638073604
 30
0.0
 10
126.9714056757224
 20
-152.5026638073604
 30
0.0
 10
126.7157795907169
 20
-152.5112765460736
 30
0.0
 10
126.5824543954377
 20
-152.5281575139513
 30
0.0
 10
126.5824543954377
 20
-152.5281575139513
 30
0.0
 10
126.5824543954377
 20
-152.2997476832792
 30
0.0
 10
126.5824543954377
 20
-152.2997476832792
 30
0.0
 10
126.6120822166108
 20
-152.3059488551526
 30
0.0
 10
126.634475337265
 20
-152.3124945365746
 30
0.0
 10
126.6806396167673
 20
-152.3166286511569
 30
0.0
 10
126.7695230802868
 20
-152.3228298230304
 30
0.0
 10
126.9417778545493
 20
-152.3252413898701
 30
0.0
 10
127.0158474074821
 20
-152.3252413898701
 30
0.0
 10
127.0158474074821
 20
-152.3252413898701
 30
0.0
 10
127.4585421773367
 20
-152.3252413898701
 30
0.0
 10
127.4585421773367
 20
-152.3252413898701
 30
0.0
 10
127.517797819683
 20
-152.3252413898701
 30
0.0
 10
127.6456108621858
 20
-152.3207627657392
 30
0.0
 10
127.6990098422072
 20
-152.3145615938658
 30
0.0
 10
127.7620550895872
 20
-152.3059488551526
 30
0.0
 10
127.786170757984
 20
-152.2911349445661
 30
0.0
 10
127.8157985791571
 20
-152.2680528048149
 30
0.0
 10
127.8157985791571
 20
-152.2680528048149
 30
0.0
 10
127.9601480799891
 20
-152.4351399358495
 30
0.0
 10
127.9601480799891
 20
-152.4351399358495
 30
0.0
 10
127.8991698899002
 20
-152.5026638073604
 30
0.0
 10
127.8585177631742
 20
-152.6063611814664
 30
0.0
 10
127.8381916998113
 20
-152.6573485946481
 30
0.0
  0
HATCH
  5
A0
330
81
100
AcDbEntity
  8
レイヤー 1
 62
   250
420
  2299925
440
 33554687
100
AcDbHatch
 10
0.0
 20
0.0
 30
0.0
210
0.0
220
0.0
230
1.0
  2
SOLID
 70
     1
 71
     1
 91
        2
 92
        1
 93
        1
 72
     4
 94
        3
 73
     0
 74
     0
 95
       29
 96
       25
 40
0.0
 40
0.0
 40
0.0
 40
0.0
 40
1.0
 40
1.0
 40
1.0
 40
2.0
 40
2.0
 40
2.0
 40
3.0
 40
3.0
 40
3.0
 40
4.0
 40
4.0
 40
4.0
 40
5.0
 40
5.0
 40
5.0
 40
6.0
 40
6.0
 40
6.0
 40
7.0
 40
7.0
 40
7.0
 40
8.0
 40
8.0
 40
8.0
 40
8.0
 10
127.4065212355095
 20
-152.0310302354297
 10
127.4065212355095
 20
-152.0310302354297
 10
127.1085204760354
 20
-152.0310302354297
 10
127.1085204760354
 20
-152.0310302354297
 10
127.0086127069631
 20
-152.0310302354297
 10
126.9066378805997
 20
-152.035164350012
 10
126.8067301115275
 20
-152.0499782605986
 10
126.8067301115275
 20
-152.0499782605986
 10
126.8067301115275
 20
-151.8405164550954
 10
126.8067301115275
 20
-151.8405164550954
 10
126.9104274856335
 20
-151.855330365682
 10
127.062356196533
 20
-151.8598089898128
 10
127.1085204760354
 20
-151.8598089898128
 10
127.1085204760354
 20
-151.8598089898128
 10
127.4065212355095
 20
-151.8598089898128
 10
127.4065212355095
 20
-151.8598089898128
 10
127.5084960618729
 20
-151.8598089898128
 10
127.6101263786877
 20
-151.855330365682
 10
127.7121012050511
 20
-151.8405164550954
 10
127.7121012050511
 20
-151.8405164550954
 10
127.7121012050511
 20
-152.0499782605986
 10
127.7121012050511
 20
-152.0499782605986
 10
127.5804985575146
 20
-152.0310302354297
 10
127.4196125983534
 20
-152.0310302354297
 10
127.4065212355095
 20
-152.0310302354297
 97
        0
 97
        1
330
9E
 92
        1
 93
        1
 72
     4
 94
        3
 73
     0
 74
     0
 95
       50
 96
       46
 40
0.0
 40
0.0
 40
0.0
 40
0.0
 40
1.0
 40
1.0
 40
1.0
 40
2.0
 40
2.0
 40
2.0
 40
3.0
 40
3.0
 40
3.0
 40
4.0
 40
4.0
 40
4.0
 40
5.0
 40
5.0
 40
5.0
 40
6.0
 40
6.0
 40
6.0
 40
7.0
 40
7.0
 40
7.0
 40
8.0
 40
8.0
 40
8.0
 40
9.0
 40
9.0
 40
9.0
 40
10.0
 40
10.0
 40
10.0
 40
11.0
 40
11.0
 40
11.0
 40
12.0
 40
12.0
 40
12.0
 40
13.0
 40
13.0
 40
13.0
 40
14.0
 40
14.0
 40
14.0
 40
15.0
 40
15.0
 40
15.0
 40
15.0
 10
127.8381916998113
 20
-152.6573485946481
 10
127.7696342996548
 20
-152.8347710121385
 10
127.6511230149622
 20
-153.0421657603505
 10
127.5305446729785
 20
-153.1820366370517
 10
127.3824055671127
 20
-153.3532578826686
 10
127.2401231235719
 20
-153.4421413461881
 10
126.9603813701696
 20
-153.5837347706318
 10
126.9603813701696
 20
-153.5837347706318
 10
126.8122422643039
 20
-153.3956325571372
 10
126.8122422643039
 20
-153.3956325571372
 10
126.9751952807562
 20
-153.3722059078375
 10
127.1250569343645
 20
-153.2853895016092
 10
127.2583821296437
 20
-153.179625070212
 10
127.4881699985099
 20
-152.9977240285908
 10
127.654912619996
 20
-152.6845648489816
 10
127.6972872944645
 20
-152.5026638073604
 10
127.6972872944645
 20
-152.5026638073604
 10
127.110243023778
 20
-152.5026638073604
 10
127.110243023778
 20
-152.5026638073604
 10
126.9714056757224
 20
-152.5026638073604
 10
126.7157795907169
 20
-152.5112765460736
 10
126.5824543954377
 20
-152.5281575139513
 10
126.5824543954377
 20
-152.5281575139513
 10
126.5824543954377
 20
-152.2997476832792
 10
126.5824543954377
 20
-152.2997476832792
 10
126.6120822166108
 20
-152.3059488551526
 10
126.634475337265
 20
-152.3124945365746
 10
126.6806396167673
 20
-152.3166286511569
 10
126.7695230802868
 20
-152.3228298230304
 10
126.9417778545493
 20
-152.3252413898701
 10
127.0158474074821
 20
-152.3252413898701
 10
127.0158474074821
 20
-152.3252413898701
 10
127.4585421773367
 20
-152.3252413898701
 10
127.4585421773367
 20
-152.3252413898701
 10
127.517797819683
 20
-152.3252413898701
 10
127.6456108621858
 20
-152.3207627657392
 10
127.6990098422072
 20
-152.3145615938658
 10
127.7620550895872
 20
-152.3059488551526
 10
127.786170757984
 20
-152.2911349445661
 10
127.8157985791571
 20
-152.2680528048149
 10
127.8157985791571
 20
-152.2680528048149
 10
127.9601480799891
 20
-152.4351399358495
 10
127.9601480799891
 20
-152.4351399358495
 10
127.8991698899002
 20
-152.5026638073604
 10
127.8585177631742
 20
-152.6063611814664
 10
127.8381916998113
 20
-152.6573485946481
 97
        0
 97
        1
330
9F
 75
     2
 76
     1
 98
        1
 10
0.0
 20
0.0
450
        0
451
        0
460
0.0
461
0.0
452
        0
462
0.0
453
        0
470

  0
SPLINE
  5
A1
330
81
100
AcDbEntity
  8
レイヤー 1
100
AcDbSpline
210
0.0
220
0.0
230
1.0
 70
     9
 71
     3
 72
    50
 73
    46
 74
     0
 42
0.0000000001
 43
0.0000000001
 40
0.0
 40
0.0
 40
0.0
 40
0.0
 40
1.0
 40
1.0
 40
1.0
 40
2.0
 40
2.0
 40
2.0
 40
3.0
 40
3.0
 40
3.0
 40
4.0
 40
4.0
 40
4.0
 40
5.0
 40
5.0
 40
5.0
 40
6.0
 40
6.0
 40
6.0
 40
7.0
 40
7.0
 40
7.0
 40
8.0
 40
8.0
 40
8.0
 40
9.0
 40
9.0
 40
9.0
 40
10.0
 40
10.0
 40
10.0
 40
11.0
 40
11.0
 40
11.0
 40
12.0
 40
12.0
 40
12.0
 40
13.0
 40
13.0
 40
13.0
 40
14.0
 40
14.0
 40
14.0
 40
15.0
 40
15.0
 40
15.0
 40
15.0
 10
129.3361192167979
 20
-152.0162163248432
 30
0.0
 10
129.1528401369826
 20
-152.2298122449286
 30
0.0
 10
129.0901393991511
 20
-152.3018147405704
 30
0.0
 10
128.9657714521335
 20
-152.420326025263
 30
0.0
 10
128.9657714521335
 20
-152.420326025263
 30
0.0
 10
128.9657714521335
 20
-152.9873887421351
 30
0.0
 10
128.9657714521335
 20
-152.9873887421351
 30
0.0
 10
128.9657714521335
 20
-153.137594905292
 30
0.0
 10
128.9716281144585
 20
-153.1565429304608
 30
0.0
 10
128.9750732099437
 20
-153.3343098574997
 30
0.0
 10
128.9771402672349
 20
-153.4652234859392
 30
0.0
 10
128.9826524200113
 20
-153.5141438418298
 30
0.0
 10
128.9881645727877
 20
-153.5733994841761
 30
0.0
 10
128.9881645727877
 20
-153.5733994841761
 30
0.0
 10
128.7900715823858
 20
-153.5733994841761
 30
0.0
 10
128.7900715823858
 20
-153.5733994841761
 30
0.0
 10
128.7938611874196
 20
-153.5289577524163
 30
0.0
 10
128.7973062829048
 20
-153.482104453817
 30
0.0
 10
128.7973062829048
 20
-153.4738362246524
 30
0.0
 10
128.7973062829048
 20
-153.393565499846
 30
0.0
 10
128.8010958879386
 20
-153.0421657603505
 30
0.0
 10
128.8010958879386
 20
-152.9701632647088
 30
0.0
 10
128.8010958879386
 20
-152.9701632647088
 30
0.0
 10
128.8010958879386
 20
-152.5639865069979
 30
0.0
 10
128.8010958879386
 20
-152.5639865069979
 30
0.0
 10
128.6419324765201
 20
-152.6890434731124
 30
0.0
 10
128.4714002500002
 20
-152.7989420190919
 30
0.0
 10
128.2936333229613
 20
-152.8857584253202
 30
0.0
 10
128.2936333229613
 20
-152.8857584253202
 30
0.0
 10
128.1158663959224
 20
-152.7228054088679
 30
0.0
 10
128.1158663959224
 20
-152.7228054088679
 30
0.0
 10
128.2233533750622
 20
-152.6869764158213
 30
0.0
 10
128.4472845816035
 20
-152.6129068628884
 30
0.0
 10
128.7490749461113
 20
-152.3569362683343
 30
0.0
 10
128.9382106882515
 20
-152.1981173664643
 30
0.0
 10
129.1066758574803
 20
-152.0100151529697
 30
0.0
 10
129.2400010527594
 20
-151.7898735514622
 30
0.0
 10
129.2400010527594
 20
-151.7898735514622
 30
0.0
 10
129.4084662219881
 20
-151.9338785427457
 30
0.0
 10
129.4084662219881
 20
-151.9338785427457
 30
0.0
 10
129.419490527541
 20
-151.9442138292014
 30
0.0
 10
129.4270697376085
 20
-151.959027739788
 30
0.0
 10
129.4270697376085
 20
-151.9717745930834
 30
0.0
 10
129.4270697376085
 20
-152.0120822102609
 30
0.0
 10
129.3936523114016
 20
-152.0120822102609
 30
0.0
 10
129.3361192167979
 20
-152.0162163248432
 30
0.0
  0
HATCH
  5
A2
330
81
100
AcDbEntity
  8
レイヤー 1
 62
   250
420
  2299925
440
 33554687
100
AcDbHatch
 10
0.0
 20
0.0
 30
0.0
210
0.0
220
0.0
230
1.0
  2
SOLID
 70
     1
 71
     1
 91
        1
 92
        1
 93
        1
 72
     4
 94
        3
 73
     0
 74
     0
 95
       50
 96
       46
 40
0.0
 40
0.0
 40
0.0
 40
0.0
 40
1.0
 40
1.0
 40
1.0
 40
2.0
 40
2.0
 40
2.0
 40
3.0
 40
3.0
 40
3.0
 40
4.0
 40
4.0
 40
4.0
 40
5.0
 40
5.0
 40
5.0
 40
6.0
 40
6.0
 40
6.0
 40
7.0
 40
7.0
 40
7.0
 40
8.0
 40
8.0
 40
8.0
 40
9.0
 40
9.0
 40
9.0
 40
10.0
 40
10.0
 40
10.0
 40
11.0
 40
11.0
 40
11.0
 40
12.0
 40
12.0
 40
12.0
 40
13.0
 40
13.0
 40
13.0
 40
14.0
 40
14.0
 40
14.0
 40
15.0
 40
15.0
 40
15.0
 40
15.0
 10
129.3361192167979
 20
-152.0162163248432
 10
129.1528401369826
 20
-152.2298122449286
 10
129.0901393991511
 20
-152.3018147405704
 10
128.9657714521335
 20
-152.420326025263
 10
128.9657714521335
 20
-152.420326025263
 10
128.9657714521335
 20
-152.9873887421351
 10
128.9657714521335
 20
-152.9873887421351
 10
128.9657714521335
 20
-153.137594905292
 10
128.9716281144585
 20
-153.1565429304608
 10
128.9750732099437
 20
-153.3343098574997
 10
128.9771402672349
 20
-153.4652234859392
 10
128.9826524200113
 20
-153.5141438418298
 10
128.9881645727877
 20
-153.5733994841761
 10
128.9881645727877
 20
-153.5733994841761
 10
128.7900715823858
 20
-153.5733994841761
 10
128.7900715823858
 20
-153.5733994841761
 10
128.7938611874196
 20
-153.5289577524163
 10
128.7973062829048
 20
-153.482104453817
 10
128.7973062829048
 20
-153.4738362246524
 10
128.7973062829048
 20
-153.393565499846
 10
128.8010958879386
 20
-153.0421657603505
 10
128.8010958879386
 20
-152.9701632647088
 10
128.8010958879386
 20
-152.9701632647088
 10
128.8010958879386
 20
-152.5639865069979
 10
128.8010958879386
 20
-152.5639865069979
 10
128.6419324765201
 20
-152.6890434731124
 10
128.4714002500002
 20
-152.7989420190919
 10
128.2936333229613
 20
-152.8857584253202
 10
128.2936333229613
 20
-152.8857584253202
 10
128.1158663959224
 20
-152.7228054088679
 10
128.1158663959224
 20
-152.7228054088679
 10
128.2233533750622
 20
-152.6869764158213
 10
128.4472845816035
 20
-152.6129068628884
 10
128.7490749461113
 20
-152.3569362683343
 10
128.9382106882515
 20
-152.1981173664643
 10
129.1066758574803
 20
-152.0100151529697
 10
129.2400010527594
 20
-151.7898735514622
 10
129.2400010527594
 20
-151.7898735514622
 10
129.4084662219881
 20
-151.9338785427457
 10
129.4084662219881
 20
-151.9338785427457
 10
129.419490527541
 20
-151.9442138292014
 10
129.4270697376085
 20
-151.959027739788
 10
129.4270697376085
 20
-151.9717745930834
 10
129.4270697376085
 20
-152.0120822102609
 10
129.3936523114016
 20
-152.0120822102609
 10
129.3361192167979
 20
-152.0162163248432
 97
        0
 97
        1
330
A1
 75
     2
 76
     1
 98
        1
 10
0.0
 20
0.0
450
        0
451
        0
460
0.0
461
0.0
452
        0
462
0.0
453
        0
470

  0
SPLINE
  5
A3
330
81
100
AcDbEntity
  8
レイヤー 1
100
AcDbSpline
210
0.0
220
0.0
230
1.0
 70
     9
 71
     3
 72
    50
 73
    46
 74
     0
 42
0.0000000001
 43
0.0000000001
 40
0.0
 40
0.0
 40
0.0
 40
0.0
 40
1.0
 40
1.0
 40
1.0
 40
2.0
 40
2.0
 40
2.0
 40
3.0
 40
3.0
 40
3.0
 40
4.0
 40
4.0
 40
4.0
 40
5.0
 40
5.0
 40
5.0
 40
6.0
 40
6.0
 40
6.0
 40
7.0
 40
7.0
 40
7.0
 40
8.0
 40
8.0
 40
8.0
 40
9.0
 40
9.0
 40
9.0
 40
10.0
 40
10.0
 40
10.0
 40
11.0
 40
11.0
 40
11.0
 40
12.0
 40
12.0
 40
12.0
 40
13.0
 40
13.0
 40
13.0
 40
14.0
 40
14.0
 40
14.0
 40
15.0
 40
15.0
 40
15.0
 40
15.0
 10
130.8323241860419
 20
-152.5429714245379
 30
0.0
 10
130.7789252060205
 20
-152.6149739201796
 30
0.0
 10
130.550859884897
 20
-152.9322672143711
 30
0.0
 10
130.5009060003609
 20
-152.9956569712997
 30
0.0
 10
130.5749755532938
 20
-153.0931531735322
 30
0.0
 10
130.6194172850535
 20
-153.1565429304608
 30
0.0
 10
130.6769503796571
 20
-153.2474934512715
 30
0.0
 10
130.6769503796571
 20
-153.2474934512715
 30
0.0
 10
130.5157199109475
 20
-153.3849527611329
 30
0.0
 10
130.5157199109475
 20
-153.3849527611329
 30
0.0
 10
130.3972086262549
 20
-153.1734238983386
 30
0.0
 10
130.2473469726465
 20
-152.9491481822488
 30
0.0
 10
129.9899983398983
 20
-152.7503661727499
 30
0.0
 10
129.9899983398983
 20
-152.7503661727499
 30
0.0
 10
130.1195339301437
 20
-152.5960258950107
 30
0.0
 10
130.1195339301437
 20
-152.5960258950107
 30
0.0
 10
130.2159966037307
 20
-152.676296619817
 30
0.0
 10
130.3066026149928
 20
-152.7651800833365
 30
0.0
 10
130.3916964734785
 20
-152.8602647187294
 30
0.0
 10
130.4509521158248
 20
-152.7841281085053
 30
0.0
 10
130.6287190428636
 20
-152.5409043672467
 30
0.0
 10
130.7455077798136
 20
-152.3124945365746
 30
0.0
 10
130.7455077798136
 20
-152.3124945365746
 30
0.0
 10
130.1567409613844
 20
-152.3124945365746
 30
0.0
 10
130.1567409613844
 20
-152.3124945365746
 30
0.0
 10
130.0471869249534
 20
-152.3124945365746
 30
0.0
 10
129.827045323446
 20
-152.3207627657392
 30
0.0
 10
129.6437662436307
 20
-152.3314425617435
 30
0.0
 10
129.6437662436307
 20
-152.3314425617435
 30
0.0
 10
129.6437662436307
 20
-152.111300960236
 30
0.0
 10
129.6437662436307
 20
-152.111300960236
 30
0.0
 10
129.8046522027919
 20
-152.1305934949535
 30
0.0
 10
129.9844861871219
 20
-152.1347276095357
 30
0.0
 10
130.1491617513168
 20
-152.1347276095357
 30
0.0
 10
130.1491617513168
 20
-152.1347276095357
 30
0.0
 10
130.5897894638803
 20
-152.1347276095357
 30
0.0
 10
130.5897894638803
 20
-152.1347276095357
 30
0.0
 10
130.8860676756118
 20
-152.1347276095357
 30
0.0
 10
130.9249972545951
 20
-152.1199136989492
 30
0.0
 10
130.9973442597854
 20
-152.0796060817717
 30
0.0
 10
130.9973442597854
 20
-152.0796060817717
 30
0.0
 10
131.1434163083599
 20
-152.2384249836417
 30
0.0
 10
131.1434163083599
 20
-152.2384249836417
 30
0.0
 10
131.0100911130808
 20
-152.3104274792835
 30
0.0
 10
130.8843451278692
 20
-152.4730359861873
 30
0.0
 10
130.8323241860419
 20
-152.5429714245379
 30
0.0
  0
HATCH
  5
A4
330
81
100
AcDbEntity
  8
レイヤー 1
 62
   250
420
  2299925
440
 33554687
100
AcDbHatch
 10
0.0
 20
0.0
 30
0.0
210
0.0
220
0.0
230
1.0
  2
SOLID
 70
     1
 71
     1
 91
        1
 92
        1
 93
        1
 72
     4
 94
        3
 73
     0
 74
     0
 95
       50
 96
       46
 40
0.0
 40
0.0
 40
0.0
 40
0.0
 40
1.0
 40
1.0
 40
1.0
 40
2.0
 40
2.0
 40
2.0
 40
3.0
 40
3.0
 40
3.0
 40
4.0
 40
4.0
 40
4.0
 40
5.0
 40
5.0
 40
5.0
 40
6.0
 40
6.0
 40
6.0
 40
7.0
 40
7.0
 40
7.0
 40
8.0
 40
8.0
 40
8.0
 40
9.0
 40
9.0
 40
9.0
 40
10.0
 40
10.0
 40
10.0
 40
11.0
 40
11.0
 40
11.0
 40
12.0
 40
12.0
 40
12.0
 40
13.0
 40
13.0
 40
13.0
 40
14.0
 40
14.0
 40
14.0
 40
15.0
 40
15.0
 40
15.0
 40
15.0
 10
130.8323241860419
 20
-152.5429714245379
 10
130.7789252060205
 20
-152.6149739201796
 10
130.550859884897
 20
-152.9322672143711
 10
130.5009060003609
 20
-152.9956569712997
 10
130.5749755532938
 20
-153.0931531735322
 10
130.6194172850535
 20
-153.1565429304608
 10
130.6769503796571
 20
-153.2474934512715
 10
130.6769503796571
 20
-153.2474934512715
 10
130.5157199109475
 20
-153.3849527611329
 10
130.5157199109475
 20
-153.3849527611329
 10
130.3972086262549
 20
-153.1734238983386
 10
130.2473469726465
 20
-152.9491481822488
 10
129.9899983398983
 20
-152.7503661727499
 10
129.9899983398983
 20
-152.7503661727499
 10
130.1195339301437
 20
-152.5960258950107
 10
130.1195339301437
 20
-152.5960258950107
 10
130.2159966037307
 20
-152.676296619817
 10
130.3066026149928
 20
-152.7651800833365
 10
130.3916964734785
 20
-152.8602647187294
 10
130.4509521158248
 20
-152.7841281085053
 10
130.6287190428636
 20
-152.5409043672467
 10
130.7455077798136
 20
-152.3124945365746
 10
130.7455077798136
 20
-152.3124945365746
 10
130.1567409613844
 20
-152.3124945365746
 10
130.1567409613844
 20
-152.3124945365746
 10
130.0471869249534
 20
-152.3124945365746
 10
129.827045323446
 20
-152.3207627657392
 10
129.6437662436307
 20
-152.3314425617435
 10
129.6437662436307
 20
-152.3314425617435
 10
129.6437662436307
 20
-152.111300960236
 10
129.6437662436307
 20
-152.111300960236
 10
129.8046522027919
 20
-152.1305934949535
 10
129.9844861871219
 20
-152.1347276095357
 10
130.1491617513168
 20
-152.1347276095357
 10
130.1491617513168
 20
-152.1347276095357
 10
130.5897894638803
 20
-152.1347276095357
 10
130.5897894638803
 20
-152.1347276095357
 10
130.8860676756118
 20
-152.1347276095357
 10
130.9249972545951
 20
-152.1199136989492
 10
130.9973442597854
 20
-152.0796060817717
 10
130.9973442597854
 20
-152.0796060817717
 10
131.1434163083599
 20
-152.2384249836417
 10
131.1434163083599
 20
-152.2384249836417
 10
131.0100911130808
 20
-152.3104274792835
 10
130.8843451278692
 20
-152.4730359861873
 10
130.8323241860419
 20
-152.5429714245379
 97
        0
 97
        1
330
A3
 75
     2
 76
     1
 98
        1
 10
0.0
 20
0.0
450
        0
451
        0
460
0.0
461
0.0
452
        0
462
0.0
453
        0
470

  0
SPLINE
  5
A5
330
81
100
AcDbEntity
  8
レイヤー 1
100
AcDbSpline
210
0.0
220
0.0
230
1.0
 70
     9
 71
     3
 72
    29
 73
    25
 74
     0
 42
0.0000000001
 43
0.0000000001
 40
0.0
 40
0.0
 40
0.0
 40
0.0
 40
1.0
 40
1.0
 40
1.0
 40
2.0
 40
2.0
 40
2.0
 40
3.0
 40
3.0
 40
3.0
 40
4.0
 40
4.0
 40
4.0
 40
5.0
 40
5.0
 40
5.0
 40
6.0
 40
6.0
 40
6.0
 40
7.0
 40
7.0
 40
7.0
 40
8.0
 40
8.0
 40
8.0
 40
8.0
 10
132.2548041119016
 20
-152.7861951657965
 30
0.0
 10
132.2548041119016
 20
-152.7861951657965
 30
0.0
 10
131.8307128576673
 20
-152.7861951657965
 30
0.0
 10
131.8307128576673
 20
-152.7861951657965
 30
0.0
 10
131.8065971892705
 20
-152.7861951657965
 30
0.0
 10
131.5285779836109
 20
-152.7861951657965
 30
0.0
 10
131.343576356053
 20
-152.8116888723873
 30
0.0
 10
131.343576356053
 20
-152.8116888723873
 30
0.0
 10
131.343576356053
 20
-152.5812119844241
 30
0.0
 10
131.343576356053
 20
-152.5812119844241
 30
0.0
 10
131.4824137041086
 20
-152.6042941241753
 30
0.0
 10
131.6491563255947
 20
-152.6063611814664
 30
0.0
 10
131.8307128576673
 20
-152.6063611814664
 30
0.0
 10
131.8307128576673
 20
-152.6063611814664
 30
0.0
 10
132.2548041119016
 20
-152.6063611814664
 30
0.0
 10
132.2548041119016
 20
-152.6063611814664
 30
0.0
 10
132.4174126188053
 20
-152.6063611814664
 30
0.0
 10
132.5807101448062
 20
-152.6042941241753
 30
0.0
 10
132.7415961039674
 20
-152.5812119844241
 30
0.0
 10
132.7415961039674
 20
-152.5812119844241
 30
0.0
 10
132.7415961039674
 20
-152.8116888723873
 30
0.0
 10
132.7415961039674
 20
-152.8116888723873
 30
0.0
 10
132.5807101448062
 20
-152.7882622230876
 30
0.0
 10
132.364013638784
 20
-152.7861951657965
 30
0.0
 10
132.2548041119016
 20
-152.7861951657965
 30
0.0
  0
HATCH
  5
A6
330
81
100
AcDbEntity
  8
レイヤー 1
 62
   250
420
  2299925
440
 33554687
100
AcDbHatch
 10
0.0
 20
0.0
 30
0.0
210
0.0
220
0.0
230
1.0
  2
SOLID
 70
     1
 71
     1
 91
        1
 92
        1
 93
        1
 72
     4
 94
        3
 73
     0
 74
     0
 95
       29
 96
       25
 40
0.0
 40
0.0
 40
0.0
 40
0.0
 40
1.0
 40
1.0
 40
1.0
 40
2.0
 40
2.0
 40
2.0
 40
3.0
 40
3.0
 40
3.0
 40
4.0
 40
4.0
 40
4.0
 40
5.0
 40
5.0
 40
5.0
 40
6.0
 40
6.0
 40
6.0
 40
7.0
 40
7.0
 40
7.0
 40
8.0
 40
8.0
 40
8.0
 40
8.0
 10
132.2548041119016
 20
-152.7861951657965
 10
132.2548041119016
 20
-152.7861951657965
 10
131.8307128576673
 20
-152.7861951657965
 10
131.8307128576673
 20
-152.7861951657965
 10
131.8065971892705
 20
-152.7861951657965
 10
131.5285779836109
 20
-152.7861951657965
 10
131.343576356053
 20
-152.8116888723873
 10
131.343576356053
 20
-152.8116888723873
 10
131.343576356053
 20
-152.5812119844241
 10
131.343576356053
 20
-152.5812119844241
 10
131.4824137041086
 20
-152.6042941241753
 10
131.6491563255947
 20
-152.6063611814664
 10
131.8307128576673
 20
-152.6063611814664
 10
131.8307128576673
 20
-152.6063611814664
 10
132.2548041119016
 20
-152.6063611814664
 10
132.2548041119016
 20
-152.6063611814664
 10
132.4174126188053
 20
-152.6063611814664
 10
132.5807101448062
 20
-152.6042941241753
 10
132.7415961039674
 20
-152.5812119844241
 10
132.7415961039674
 20
-152.5812119844241
 10
132.7415961039674
 20
-152.8116888723873
 10
132.7415961039674
 20
-152.8116888723873
 10
132.5807101448062
 20
-152.7882622230876
 10
132.364013638784
 20
-152.7861951657965
 10
132.2548041119016
 20
-152.7861951657965
 97
        0
 97
        1
330
A5
 75
     2
 76
     1
 98
        1
 10
0.0
 20
0.0
450
        0
451
        0
460
0.0
461
0.0
452
        0
462
0.0
453
        0
470

  0
SPLINE
  5
A7
330
81
100
AcDbEntity
  8
レイヤー 1
100
AcDbSpline
210
0.0
220
0.0
230
1.0
 70
     9
 71
     3
 72
    20
 73
    16
 74
     0
 42
0.0000000001
 43
0.0000000001
 40
0.0
 40
0.0
 40
0.0
 40
0.0
 40
1.0
 40
1.0
 40
1.0
 40
2.0
 40
2.0
 40
2.0
 40
3.0
 40
3.0
 40
3.0
 40
4.0
 40
4.0
 40
4.0
 40
5.0
 40
5.0
 40
5.0
 40
5.0
 10
133.8305907868548
 20
-153.137594905292
 30
0.0
 10
133.7899386601289
 20
-152.9598279782531
 30
0.0
 10
133.7048448016432
 20
-152.8178900442608
 30
0.0
 10
133.5825439119169
 20
-152.7079914982813
 30
0.0
 10
133.5825439119169
 20
-152.7079914982813
 30
0.0
 10
133.7234483172635
 20
-152.593614328171
 30
0.0
 10
133.7234483172635
 20
-152.593614328171
 30
0.0
 10
133.776847297285
 20
-152.6359890026396
 30
0.0
 10
133.812331780783
 20
-152.669750938395
 30
0.0
 10
133.8788221236483
 20
-152.7779269366319
 30
0.0
 10
133.9491020715474
 20
-152.8940266544848
 30
0.0
 10
133.9677055871678
 20
-152.9470811249577
 30
0.0
 10
133.9900987078219
 20
-153.0125379391774
 30
0.0
 10
133.9900987078219
 20
-153.0125379391774
 30
0.0
 10
133.8305907868548
 20
-153.137594905292
 30
0.0
 10
133.8305907868548
 20
-153.137594905292
 30
0.0
  0
SPLINE
  5
A8
330
81
100
AcDbEntity
  8
レイヤー 1
100
AcDbSpline
210
0.0
220
0.0
230
1.0
 70
     9
 71
     3
 72
    77
 73
    73
 74
     0
 42
0.0000000001
 43
0.0000000001
 40
0.0
 40
0.0
 40
0.0
 40
0.0
 40
1.0
 40
1.0
 40
1.0
 40
2.0
 40
2.0
 40
2.0
 40
3.0
 40
3.0
 40
3.0
 40
4.0
 40
4.0
 40
4.0
 40
5.0
 40
5.0
 40
5.0
 40
6.0
 40
6.0
 40
6.0
 40
7.0
 40
7.0
 40
7.0
 40
8.0
 40
8.0
 40
8.0
 40
9.0
 40
9.0
 40
9.0
 40
10.0
 40
10.0
 40
10.0
 40
11.0
 40
11.0
 40
11.0
 40
12.0
 40
12.0
 40
12.0
 40
13.0
 40
13.0
 40
13.0
 40
14.0
 40
14.0
 40
14.0
 40
15.0
 40
15.0
 40
15.0
 40
16.0
 40
16.0
 40
16.0
 40
17.0
 40
17.0
 40
17.0
 40
18.0
 40
18.0
 40
18.0
 40
19.0
 40
19.0
 40
19.0
 40
20.0
 40
20.0
 40
20.0
 40
21.0
 40
21.0
 40
21.0
 40
22.0
 40
22.0
 40
22.0
 40
23.0
 40
23.0
 40
23.0
 40
24.0
 40
24.0
 40
24.0
 40
24.0
 10
134.5047959733182
 20
-152.4117132865498
 30
0.0
 10
134.4438177832293
 20
-152.4075791719675
 30
0.0
 10
134.384562140883
 20
-152.4075791719675
 30
0.0
 10
134.3253064985367
 20
-152.4075791719675
 30
0.0
 10
134.3253064985367
 20
-152.4075791719675
 30
0.0
 10
134.3253064985367
 20
-153.1820366370517
 30
0.0
 10
134.3253064985367
 20
-153.1820366370517
 30
0.0
 10
134.3253064985367
 20
-153.4462754607704
 30
0.0
 10
134.3232394412456
 20
-153.4759032819435
 30
0.0
 10
134.3177272884692
 20
-153.5055311031167
 30
0.0
 10
134.288099467296
 20
-153.6388562983958
 30
0.0
 10
134.1992160037766
 20
-153.6471245275604
 30
0.0
 10
134.0455647451344
 20
-153.6471245275604
 30
0.0
 10
134.0104247711849
 20
-153.6471245275604
 30
0.0
 10
133.9956108605983
 20
-153.6471245275604
 30
0.0
 10
133.9604708866487
 20
-153.6429904129781
 30
0.0
 10
133.9604708866487
 20
-153.6429904129781
 30
0.0
 10
133.8512613597663
 20
-153.4018337290106
 30
0.0
 10
133.8512613597663
 20
-153.4018337290106
 30
0.0
 10
133.9528916765812
 20
-153.4335286074749
 30
0.0
 10
134.0252386817714
 20
-153.4335286074749
 30
0.0
 10
134.0455647451344
 20
-153.4335286074749
 30
0.0
 10
134.1065429352233
 20
-153.4335286074749
 30
0.0
 10
134.1361707563965
 20
-153.4166476395972
 30
0.0
 10
134.1399603614303
 20
-153.3594590545421
 30
0.0
 10
134.1399603614303
 20
-153.3467122012466
 30
0.0
 10
134.1416829091729
 20
-153.2495605085626
 30
0.0
 10
134.1416829091729
 20
-153.1923719235074
 30
0.0
 10
134.1416829091729
 20
-153.1923719235074
 30
0.0
 10
134.1416829091729
 20
-152.4055121146764
 30
0.0
 10
134.1416829091729
 20
-152.4055121146764
 30
0.0
 10
134.1416829091729
 20
-152.4055121146764
 30
0.0
 10
133.8843342764247
 20
-152.4055121146764
 30
0.0
 10
133.8843342764247
 20
-152.4055121146764
 30
0.0
 10
133.756521233922
 20
-152.4055121146764
 30
0.0
 10
133.6287081914192
 20
-152.4117132865498
 30
0.0
 10
133.5029622062076
 20
-152.4244601398453
 30
0.0
 10
133.5029622062076
 20
-152.4244601398453
 30
0.0
 10
133.5029622062076
 20
-152.2170653916332
 30
0.0
 10
133.5029622062076
 20
-152.2170653916332
 30
0.0
 10
133.6345648537441
 20
-152.2298122449286
 30
0.0
 10
133.8250786340784
 20
-152.2342908690595
 30
0.0
 10
133.8843342764247
 20
-152.2342908690595
 30
0.0
 10
133.8843342764247
 20
-152.2342908690595
 30
0.0
 10
134.1416829091729
 20
-152.2342908690595
 30
0.0
 10
134.1416829091729
 20
-152.2342908690595
 30
0.0
 10
134.1399603614303
 20
-151.96557342121
 30
0.0
 10
134.1399603614303
 20
-151.889436810986
 30
0.0
 10
134.1323811513627
 20
-151.7412977051202
 30
0.0
 10
134.1323811513627
 20
-151.7412977051202
 30
0.0
 10
134.3583794151951
 20
-151.779193755458
 30
0.0
 10
134.3583794151951
 20
-151.779193755458
 30
0.0
 10
134.3714707780391
 20
-151.7812608127491
 30
0.0
 10
134.384562140883
 20
-151.7878064941711
 30
0.0
 10
134.384562140883
 20
-151.8088215766311
 30
0.0
 10
134.384562140883
 20
-151.8281141113485
 30
0.0
 10
134.3787054785581
 20
-151.8301811686397
 30
0.0
 10
134.328751594022
 20
-151.8639431043951
 30
0.0
 10
134.3253064985367
 20
-151.9421467719103
 30
0.0
 10
134.3253064985367
 20
-151.9569606824969
 30
0.0
 10
134.3253064985367
 20
-152.2342908690595
 30
0.0
 10
134.4806803049215
 20
-152.2298122449286
 30
0.0
 10
134.4972167632507
 20
-152.2298122449286
 30
0.0
 10
134.5268445844238
 20
-152.2256781303463
 30
0.0
 10
134.5712863161836
 20
-152.221544015764
 30
0.0
 10
134.5750759212173
 20
-152.2194769584729
 30
0.0
 10
134.6140055002007
 20
-152.2170653916332
 30
0.0
 10
134.6140055002007
 20
-152.2170653916332
 30
0.0
 10
134.6140055002007
 20
-152.4244601398453
 30
0.0
 10
134.6140055002007
 20
-152.4244601398453
 30
0.0
 10
134.5881672840613
 20
-152.4223930825541
 30
0.0
 10
134.5399359472678
 20
-152.413780343841
 30
0.0
 10
134.5047959733182
 20
-152.4117132865498
 30
0.0
  0
SPLINE
  5
A9
330
81
100
AcDbEntity
  8
レイヤー 1
100
AcDbSpline
210
0.0
220
0.0
230
1.0
 70
     9
 71
     3
 72
    53
 73
    49
 74
     0
 42
0.0000000001
 43
0.0000000001
 40
0.0
 40
0.0
 40
0.0
 40
0.0
 40
1.0
 40
1.0
 40
1.0
 40
2.0
 40
2.0
 40
2.0
 40
3.0
 40
3.0
 40
3.0
 40
4.0
 40
4.0
 40
4.0
 40
5.0
 40
5.0
 40
5.0
 40
6.0
 40
6.0
 40
6.0
 40
7.0
 40
7.0
 40
7.0
 40
8.0
 40
8.0
 40
8.0
 40
9.0
 40
9.0
 40
9.0
 40
10.0
 40
10.0
 40
10.0
 40
11.0
 40
11.0
 40
11.0
 40
12.0
 40
12.0
 40
12.0
 40
13.0
 40
13.0
 40
13.0
 40
14.0
 40
14.0
 40
14.0
 40
15.0
 40
15.0
 40
15.0
 40
16.0
 40
16.0
 40
16.0
 40
16.0
 10
133.4974500534312
 20
-151.9125189507371
 30
0.0
 10
133.4381944110849
 20
-152.0647921711852
 30
0.0
 10
133.4009873798442
 20
-152.1429958387003
 30
0.0
 10
133.3679144631858
 20
-152.2108642197598
 30
0.0
 10
133.404776984878
 20
-152.2318793022198
 30
0.0
 10
133.4085665899117
 20
-152.2342908690595
 30
0.0
 10
133.4085665899117
 20
-152.2491047796461
 30
0.0
 10
133.4085665899117
 20
-152.2615071233929
 30
0.0
 10
133.3789387687386
 20
-152.2956135686969
 30
0.0
 10
133.3696370109284
 20
-152.3038817978615
 30
0.0
 10
133.3679144631858
 20
-152.5005967500693
 30
0.0
 10
133.3679144631858
 20
-152.5219563420778
 30
0.0
 10
133.3679144631858
 20
-152.655281537357
 30
0.0
 10
133.3658474058946
 20
-152.6676838811039
 30
0.0
 10
133.3658474058946
 20
-152.6824977916905
 30
0.0
 10
133.3658474058946
 20
-152.697311702277
 30
0.0
 10
133.3658474058946
 20
-152.697311702277
 30
0.0
 10
133.3658474058946
 20
-153.2326795406849
 30
0.0
 10
133.3658474058946
 20
-153.2326795406849
 30
0.0
 10
133.3658474058946
 20
-153.3046820363266
 30
0.0
 10
133.3696370109284
 20
-153.5392930388721
 30
0.0
 10
133.377216220996
 20
-153.6495360944001
 30
0.0
 10
133.377216220996
 20
-153.6495360944001
 30
0.0
 10
133.163964810459
 20
-153.6495360944001
 30
0.0
 10
133.163964810459
 20
-153.6495360944001
 30
0.0
 10
133.184290873822
 20
-153.4907171925301
 30
0.0
 10
133.1901475361469
 20
-153.2495605085626
 30
0.0
 10
133.1901475361469
 20
-153.2285454261026
 30
0.0
 10
133.1901475361469
 20
-153.2285454261026
 30
0.0
 10
133.1901475361469
 20
-152.5112765460736
 30
0.0
 10
133.1901475361469
 20
-152.5112765460736
 30
0.0
 10
133.1105658304376
 20
-152.6256537161839
 30
0.0
 10
133.0568223408677
 20
-152.6845648489816
 30
0.0
 10
133.019615309627
 20
-152.7269395234502
 30
0.0
 10
133.019615309627
 20
-152.7269395234502
 30
0.0
 10
132.8528726881409
 20
-152.5894802135887
 30
0.0
 10
132.8528726881409
 20
-152.5894802135887
 30
0.0
 10
133.0991970153363
 20
-152.3738172362121
 30
0.0
 10
133.267662184565
 20
-152.0647921711852
 30
0.0
 10
133.3658474058946
 20
-151.7285508518248
 30
0.0
 10
133.3658474058946
 20
-151.7285508518248
 30
0.0
 10
133.5584282435201
 20
-151.8429280219351
 30
0.0
 10
133.5584282435201
 20
-151.8429280219351
 30
0.0
 10
133.5694525490729
 20
-151.8491291938085
 30
0.0
 10
133.5770317591405
 20
-151.8532633083908
 30
0.0
 10
133.5770317591405
 20
-151.8680772189774
 30
0.0
 10
133.5770317591405
 20
-151.8935709255682
 30
0.0
 10
133.5622178485539
 20
-151.8977050401506
 30
0.0
 10
133.4974500534312
 20
-151.9125189507371
 30
0.0
  0
HATCH
  5
AA
330
81
100
AcDbEntity
  8
レイヤー 1
 62
   250
420
  2299925
440
 33554687
100
AcDbHatch
 10
0.0
 20
0.0
 30
0.0
210
0.0
220
0.0
230
1.0
  2
SOLID
 70
     1
 71
     1
 91
        3
 92
        1
 93
        1
 72
     4
 94
        3
 73
     0
 74
     0
 95
       20
 96
       16
 40
0.0
 40
0.0
 40
0.0
 40
0.0
 40
1.0
 40
1.0
 40
1.0
 40
2.0
 40
2.0
 40
2.0
 40
3.0
 40
3.0
 40
3.0
 40
4.0
 40
4.0
 40
4.0
 40
5.0
 40
5.0
 40
5.0
 40
5.0
 10
133.8305907868548
 20
-153.137594905292
 10
133.7899386601289
 20
-152.9598279782531
 10
133.7048448016432
 20
-152.8178900442608
 10
133.5825439119169
 20
-152.7079914982813
 10
133.5825439119169
 20
-152.7079914982813
 10
133.7234483172635
 20
-152.593614328171
 10
133.7234483172635
 20
-152.593614328171
 10
133.776847297285
 20
-152.6359890026396
 10
133.812331780783
 20
-152.669750938395
 10
133.8788221236483
 20
-152.7779269366319
 10
133.9491020715474
 20
-152.8940266544848
 10
133.9677055871678
 20
-152.9470811249577
 10
133.9900987078219
 20
-153.0125379391774
 10
133.9900987078219
 20
-153.0125379391774
 10
133.8305907868548
 20
-153.137594905292
 10
133.8305907868548
 20
-153.137594905292
 97
        0
 97
        1
330
A7
 92
        1
 93
        1
 72
     4
 94
        3
 73
     0
 74
     0
 95
       77
 96
       73
 40
0.0
 40
0.0
 40
0.0
 40
0.0
 40
1.0
 40
1.0
 40
1.0
 40
2.0
 40
2.0
 40
2.0
 40
3.0
 40
3.0
 40
3.0
 40
4.0
 40
4.0
 40
4.0
 40
5.0
 40
5.0
 40
5.0
 40
6.0
 40
6.0
 40
6.0
 40
7.0
 40
7.0
 40
7.0
 40
8.0
 40
8.0
 40
8.0
 40
9.0
 40
9.0
 40
9.0
 40
10.0
 40
10.0
 40
10.0
 40
11.0
 40
11.0
 40
11.0
 40
12.0
 40
12.0
 40
12.0
 40
13.0
 40
13.0
 40
13.0
 40
14.0
 40
14.0
 40
14.0
 40
15.0
 40
15.0
 40
15.0
 40
16.0
 40
16.0
 40
16.0
 40
17.0
 40
17.0
 40
17.0
 40
18.0
 40
18.0
 40
18.0
 40
19.0
 40
19.0
 40
19.0
 40
20.0
 40
20.0
 40
20.0
 40
21.0
 40
21.0
 40
21.0
 40
22.0
 40
22.0
 40
22.0
 40
23.0
 40
23.0
 40
23.0
 40
24.0
 40
24.0
 40
24.0
 40
24.0
 10
134.5047959733182
 20
-152.4117132865498
 10
134.4438177832293
 20
-152.4075791719675
 10
134.384562140883
 20
-152.4075791719675
 10
134.3253064985367
 20
-152.4075791719675
 10
134.3253064985367
 20
-152.4075791719675
 10
134.3253064985367
 20
-153.1820366370517
 10
134.3253064985367
 20
-153.1820366370517
 10
134.3253064985367
 20
-153.4462754607704
 10
134.3232394412456
 20
-153.4759032819435
 10
134.3177272884692
 20
-153.5055311031167
 10
134.288099467296
 20
-153.6388562983958
 10
134.1992160037766
 20
-153.6471245275604
 10
134.0455647451344
 20
-153.6471245275604
 10
134.0104247711849
 20
-153.6471245275604
 10
133.9956108605983
 20
-153.6471245275604
 10
133.9604708866487
 20
-153.6429904129781
 10
133.9604708866487
 20
-153.6429904129781
 10
133.8512613597663
 20
-153.4018337290106
 10
133.8512613597663
 20
-153.4018337290106
 10
133.9528916765812
 20
-153.4335286074749
 10
134.0252386817714
 20
-153.4335286074749
 10
134.0455647451344
 20
-153.4335286074749
 10
134.1065429352233
 20
-153.4335286074749
 10
134.1361707563965
 20
-153.4166476395972
 10
134.1399603614303
 20
-153.3594590545421
 10
134.1399603614303
 20
-153.3467122012466
 10
134.1416829091729
 20
-153.2495605085626
 10
134.1416829091729
 20
-153.1923719235074
 10
134.1416829091729
 20
-153.1923719235074
 10
134.1416829091729
 20
-152.4055121146764
 10
134.1416829091729
 20
-152.4055121146764
 10
134.1416829091729
 20
-152.4055121146764
 10
133.8843342764247
 20
-152.4055121146764
 10
133.8843342764247
 20
-152.4055121146764
 10
133.756521233922
 20
-152.4055121146764
 10
133.6287081914192
 20
-152.4117132865498
 10
133.5029622062076
 20
-152.4244601398453
 10
133.5029622062076
 20
-152.4244601398453
 10
133.5029622062076
 20
-152.2170653916332
 10
133.5029622062076
 20
-152.2170653916332
 10
133.6345648537441
 20
-152.2298122449286
 10
133.8250786340784
 20
-152.2342908690595
 10
133.8843342764247
 20
-152.2342908690595
 10
133.8843342764247
 20
-152.2342908690595
 10
134.1416829091729
 20
-152.2342908690595
 10
134.1416829091729
 20
-152.2342908690595
 10
134.1399603614303
 20
-151.96557342121
 10
134.1399603614303
 20
-151.889436810986
 10
134.1323811513627
 20
-151.7412977051202
 10
134.1323811513627
 20
-151.7412977051202
 10
134.3583794151951
 20
-151.779193755458
 10
134.3583794151951
 20
-151.779193755458
 10
134.3714707780391
 20
-151.7812608127491
 10
134.384562140883
 20
-151.7878064941711
 10
134.384562140883
 20
-151.8088215766311
 10
134.384562140883
 20
-151.8281141113485
 10
134.3787054785581
 20
-151.8301811686397
 10
134.328751594022
 20
-151.8639431043951
 10
134.3253064985367
 20
-151.9421467719103
 10
134.3253064985367
 20
-151.9569606824969
 10
134.3253064985367
 20
-152.2342908690595
 10
134.4806803049215
 20
-152.2298122449286
 10
134.4972167632507
 20
-152.2298122449286
 10
134.5268445844238
 20
-152.2256781303463
 10
134.5712863161836
 20
-152.221544015764
 10
134.5750759212173
 20
-152.2194769584729
 10
134.6140055002007
 20
-152.2170653916332
 10
134.6140055002007
 20
-152.2170653916332
 10
134.6140055002007
 20
-152.4244601398453
 10
134.6140055002007
 20
-152.4244601398453
 10
134.5881672840613
 20
-152.4223930825541
 10
134.5399359472678
 20
-152.413780343841
 10
134.5047959733182
 20
-152.4117132865498
 97
        0
 97
        1
330
A8
 92
        1
 93
        1
 72
     4
 94
        3
 73
     0
 74
     0
 95
       53
 96
       49
 40
0.0
 40
0.0
 40
0.0
 40
0.0
 40
1.0
 40
1.0
 40
1.0
 40
2.0
 40
2.0
 40
2.0
 40
3.0
 40
3.0
 40
3.0
 40
4.0
 40
4.0
 40
4.0
 40
5.0
 40
5.0
 40
5.0
 40
6.0
 40
6.0
 40
6.0
 40
7.0
 40
7.0
 40
7.0
 40
8.0
 40
8.0
 40
8.0
 40
9.0
 40
9.0
 40
9.0
 40
10.0
 40
10.0
 40
10.0
 40
11.0
 40
11.0
 40
11.0
 40
12.0
 40
12.0
 40
12.0
 40
13.0
 40
13.0
 40
13.0
 40
14.0
 40
14.0
 40
14.0
 40
15.0
 40
15.0
 40
15.0
 40
16.0
 40
16.0
 40
16.0
 40
16.0
 10
133.4974500534312
 20
-151.9125189507371
 10
133.4381944110849
 20
-152.0647921711852
 10
133.4009873798442
 20
-152.1429958387003
 10
133.3679144631858
 20
-152.2108642197598
 10
133.404776984878
 20
-152.2318793022198
 10
133.4085665899117
 20
-152.2342908690595
 10
133.4085665899117
 20
-152.2491047796461
 10
133.4085665899117
 20
-152.2615071233929
 10
133.3789387687386
 20
-152.2956135686969
 10
133.3696370109284
 20
-152.3038817978615
 10
133.3679144631858
 20
-152.5005967500693
 10
133.3679144631858
 20
-152.5219563420778
 10
133.3679144631858
 20
-152.655281537357
 10
133.3658474058946
 20
-152.6676838811039
 10
133.3658474058946
 20
-152.6824977916905
 10
133.3658474058946
 20
-152.697311702277
 10
133.3658474058946
 20
-152.697311702277
 10
133.3658474058946
 20
-153.2326795406849
 10
133.3658474058946
 20
-153.2326795406849
 10
133.3658474058946
 20
-153.3046820363266
 10
133.3696370109284
 20
-153.5392930388721
 10
133.377216220996
 20
-153.6495360944001
 10
133.377216220996
 20
-153.6495360944001
 10
133.163964810459
 20
-153.6495360944001
 10
133.163964810459
 20
-153.6495360944001
 10
133.184290873822
 20
-153.4907171925301
 10
133.1901475361469
 20
-153.2495605085626
 10
133.1901475361469
 20
-153.2285454261026
 10
133.1901475361469
 20
-153.2285454261026
 10
133.1901475361469
 20
-152.5112765460736
 10
133.1901475361469
 20
-152.5112765460736
 10
133.1105658304376
 20
-152.6256537161839
 10
133.0568223408677
 20
-152.6845648489816
 10
133.019615309627
 20
-152.7269395234502
 10
133.019615309627
 20
-152.7269395234502
 10
132.8528726881409
 20
-152.5894802135887
 10
132.8528726881409
 20
-152.5894802135887
 10
133.0991970153363
 20
-152.3738172362121
 10
133.267662184565
 20
-152.0647921711852
 10
133.3658474058946
 20
-151.7285508518248
 10
133.3658474058946
 20
-151.7285508518248
 10
133.5584282435201
 20
-151.8429280219351
 10
133.5584282435201
 20
-151.8429280219351
 10
133.5694525490729
 20
-151.8491291938085
 10
133.5770317591405
 20
-151.8532633083908
 10
133.5770317591405
 20
-151.8680772189774
 10
133.5770317591405
 20
-151.8935709255682
 10
133.5622178485539
 20
-151.8977050401506
 10
133.4974500534312
 20
-151.9125189507371
 97
        0
 97
        1
330
A9
 75
     2
 76
     1
 98
        1
 10
0.0
 20
0.0
450
        0
451
        0
460
0.0
461
0.0
452
        0
462
0.0
453
        0
470

  0
ENDBLK
  5
84
330
81
100
AcDbEntity
  8
0
100
AcDbBlockEnd
  0
BLOCK
  5
B0
330
AE
100
AcDbEntity
  8
0
100
AcDbBlockBegin
  2
Block_3
 70
     0
 10
0.0
 20
0.0
 30
0.0
  3
Block_3
  1

  0
LINE
  5
B2
330
AE
100
AcDbEntity
  8
レイヤー 1
 62
    18
420
        0
370
    25
100
AcDbLine
 10
109.3453148432884
 20
-152.4806689387804
 30
0.0
 11
99.34523032466993
 21
-152.4806689387804
 31
0.0
  0
LINE
  5
B3
330
AE
100
AcDbEntity
  8
レイヤー 1
 62
    18
420
        0
370
    25
100
AcDbLine
 10
79.34438838522591
 20
-146.980581162378
 30
0.0
 11
79.34438838522591
 21
-147.4807847733638
 31
0.0
  0
LINE
  5
B4
330
AE
100
AcDbEntity
  8
レイヤー 1
 62
    18
420
        0
370
    25
100
AcDbLine
 10
99.34523032466993
 20
-147.4807847733638
 30
0.0
 11
79.34438838522591
 21
-147.4807847733638
 31
0.0
  0
LINE
  5
B5
330
AE
100
AcDbEntity
  8
レイヤー 1
 62
    18
420
        0
370
    25
100
AcDbLine
 10
79.34438838522591
 20
-146.980581162378
 30
0.0
 11
79.85803282954167
 21
-147.3626394956157
 31
0.0
  0
LINE
  5
B6
330
AE
100
AcDbEntity
  8
レイヤー 1
 62
    18
420
        0
370
    25
100
AcDbLine
 10
79.85803282954167
 20
-147.3626394956157
 30
0.0
 11
80.3434550516426
 21
-146.9450917179422
 31
0.0
  0
LINE
  5
B7
330
AE
100
AcDbEntity
  8
レイヤー 1
 62
    18
420
        0
370
    25
100
AcDbLine
 10
80.85745227373644
 20
-147.3271500511802
 30
0.0
 11
81.34287449583737
 21
-146.9092494957289
 31
0.0
  0
LINE
  5
B8
330
AE
100
AcDbEntity
  8
レイヤー 1
 62
    18
420
        0
370
    25
100
AcDbLine
 10
80.3434550516426
 20
-146.9450917179422
 30
0.0
 11
80.85745227373644
 21
-147.3271500511802
 31
0.0
  0
LINE
  5
B9
330
AE
100
AcDbEntity
  8
レイヤー 1
 62
    18
420
        0
370
    25
100
AcDbLine
 10
81.34287449583737
 20
-146.9092494957289
 30
0.0
 11
81.85690699570907
 21
-147.2913078289669
 31
0.0
  0
LINE
  5
BA
330
AE
100
AcDbEntity
  8
レイヤー 1
 62
    18
420
        0
370
    25
100
AcDbLine
 10
81.85690699570907
 20
-147.2913078289669
 30
0.0
 11
82.34229394003216
 21
-146.8737600512934
 31
0.0
  0
LINE
  5
BB
330
AE
100
AcDbEntity
  8
レイヤー 1
 62
    18
420
        0
370
    25
100
AcDbLine
 10
82.34229394003216
 20
-146.8737600512934
 30
0.0
 11
82.85632643990352
 21
-147.2555008845318
 31
0.0
  0
LINE
  5
BC
330
AE
100
AcDbEntity
  8
レイヤー 1
 62
    18
420
        0
370
    25
100
AcDbLine
 10
82.85632643990352
 20
-147.2555008845318
 30
0.0
 11
83.3413958842267
 21
-146.837953106858
 31
0.0
  0
LINE
  5
BD
330
AE
100
AcDbEntity
  8
レイヤー 1
 62
    18
420
        0
370
    25
100
AcDbLine
 10
83.3413958842267
 20
-146.837953106858
 30
0.0
 11
83.85539310632022
 21
-147.219658662318
 31
0.0
  0
LINE
  5
BE
330
AE
100
AcDbEntity
  8
レイヤー 1
 62
    18
420
        0
370
    25
100
AcDbLine
 10
83.85539310632022
 20
-147.219658662318
 30
0.0
 11
84.34113282842108
 21
-146.8021108846448
 31
0.0
  0
LINE
  5
BF
330
AE
100
AcDbEntity
  8
レイヤー 1
 62
    18
420
        0
370
    25
100
AcDbLine
 10
84.34113282842108
 20
-146.8021108846448
 30
0.0
 11
84.85516532829244
 21
-147.1841692178825
 31
0.0
  0
LINE
  5
C0
330
AE
100
AcDbEntity
  8
レイヤー 1
 62
    18
420
        0
370
    25
100
AcDbLine
 10
84.85516532829244
 20
-147.1841692178825
 30
0.0
 11
85.34023477261561
 21
-146.7666214402096
 31
0.0
  0
LINE
  5
C1
330
AE
100
AcDbEntity
  8
レイヤー 1
 62
    18
420
        0
370
    25
100
AcDbLine
 10
85.34023477261561
 20
-146.7666214402096
 30
0.0
 11
85.85423199470946
 21
-147.148679773447
 31
0.0
  0
LINE
  5
C2
330
AE
100
AcDbEntity
  8
レイヤー 1
 62
    18
420
        0
370
    25
100
AcDbLine
 10
85.85423199470946
 20
-147.148679773447
 30
0.0
 11
86.3396542168104
 21
-146.7308144957736
 31
0.0
  0
LINE
  5
C3
330
AE
100
AcDbEntity
  8
レイヤー 1
 62
    18
420
        0
370
    25
100
AcDbLine
 10
86.85365143890392
 20
-147.1128728290116
 30
0.0
 11
87.33907366100487
 21
-146.6953250513381
 31
0.0
  0
LINE
  5
C4
330
AE
100
AcDbEntity
  8
レイヤー 1
 62
    18
420
        0
370
    25
100
AcDbLine
 10
86.3396542168104
 20
-146.7308144957736
 30
0.0
 11
86.85365143890392
 21
-147.1128728290116
 31
0.0
  0
LINE
  5
C5
330
AE
100
AcDbEntity
  8
レイヤー 1
 62
    18
420
        0
370
    25
100
AcDbLine
 10
87.33907366100487
 20
-146.6953250513381
 30
0.0
 11
87.85307088309869
 21
-147.0770306067983
 31
0.0
  0
LINE
  5
C6
330
AE
100
AcDbEntity
  8
レイヤー 1
 62
    18
420
        0
370
    25
100
AcDbLine
 10
87.85307088309869
 20
-147.0770306067983
 30
0.0
 11
88.33849310519964
 21
-146.6594828291248
 31
0.0
  0
LINE
  5
C7
330
AE
100
AcDbEntity
  8
レイヤー 1
 62
    18
420
        0
370
    25
100
AcDbLine
 10
88.85217282729323
 20
-147.0411883845851
 30
0.0
 11
89.33791254939409
 21
-146.6236758846894
 31
0.0
  0
LINE
  5
C8
330
AE
100
AcDbEntity
  8
レイヤー 1
 62
    18
420
        0
370
    25
100
AcDbLine
 10
88.33849310519964
 20
-146.6594828291248
 30
0.0
 11
88.85217282729323
 21
-147.0411883845851
 31
0.0
  0
LINE
  5
C9
330
AE
100
AcDbEntity
  8
レイヤー 1
 62
    18
420
        0
370
    25
100
AcDbLine
 10
89.85190977148794
 20
-147.0057342179271
 30
0.0
 11
90.33697921581111
 21
-146.5881864402536
 31
0.0
  0
LINE
  5
CA
330
AE
100
AcDbEntity
  8
レイヤー 1
 62
    18
420
        0
370
    25
100
AcDbLine
 10
89.33791254939409
 20
-146.6236758846894
 30
0.0
 11
89.85190977148794
 21
-147.0057342179271
 31
0.0
  0
LINE
  5
CB
330
AE
100
AcDbEntity
  8
レイヤー 1
 62
    18
420
        0
370
    25
100
AcDbLine
 10
90.33697921581111
 20
-146.5881864402536
 30
0.0
 11
90.85101171568247
 21
-146.9702447734916
 31
0.0
  0
LINE
  5
CC
330
AE
100
AcDbEntity
  8
レイヤー 1
 62
    18
420
        0
370
    25
100
AcDbLine
 10
90.85101171568247
 20
-146.9702447734916
 30
0.0
 11
91.33675143778333
 21
-146.5523442180404
 31
0.0
  0
LINE
  5
CD
330
AE
100
AcDbEntity
  8
レイヤー 1
 62
    18
420
        0
370
    25
100
AcDbLine
 10
91.33675143778333
 20
-146.5523442180404
 30
0.0
 11
91.85043115987694
 21
-146.9344025512784
 31
0.0
  0
LINE
  5
CE
330
AE
100
AcDbEntity
  8
レイヤー 1
 62
    18
420
        0
370
    25
100
AcDbLine
 10
91.85043115987694
 20
-146.9344025512784
 30
0.0
 11
92.33585338197787
 21
-146.5168547736049
 31
0.0
  0
LINE
  5
CF
330
AE
100
AcDbEntity
  8
レイヤー 1
 62
    18
420
        0
370
    25
100
AcDbLine
 10
92.33585338197787
 20
-146.5168547736049
 30
0.0
 11
92.84984970856754
 21
-146.8985956068429
 31
0.0
  0
LINE
  5
D0
330
AE
100
AcDbEntity
  8
レイヤー 1
 62
    18
420
        0
370
    25
100
AcDbLine
 10
92.84984970856754
 20
-146.8985956068429
 30
0.0
 11
93.33527191840529
 21
-146.4810478291695
 31
0.0
  0
LINE
  5
D1
330
AE
100
AcDbEntity
  8
レイヤー 1
 62
    18
420
        0
370
    25
100
AcDbLine
 10
93.33527191840529
 20
-146.4810478291695
 30
0.0
 11
93.84926912751467
 21
-146.8627533846294
 31
0.0
  0
LINE
  5
D2
330
AE
100
AcDbEntity
  8
レイヤー 1
 62
    18
420
        0
370
    25
100
AcDbLine
 10
93.84926912751467
 20
-146.8627533846294
 30
0.0
 11
94.33469133735242
 21
-146.4452056069562
 31
0.0
  0
LINE
  5
D3
330
AE
100
AcDbEntity
  8
レイヤー 1
 62
    18
420
        0
370
    25
100
AcDbLine
 10
94.33469133735242
 20
-146.4452056069562
 30
0.0
 11
94.84868854646213
 21
-146.8272639401939
 31
0.0
  0
LINE
  5
D4
330
AE
100
AcDbEntity
  8
レイヤー 1
 62
    18
420
        0
370
    25
100
AcDbLine
 10
94.84868854646213
 20
-146.8272639401939
 30
0.0
 11
95.33375797853109
 21
-146.4097161625207
 31
0.0
  0
LINE
  5
D5
330
AE
100
AcDbEntity
  8
レイヤー 1
 62
    18
420
        0
370
    25
100
AcDbLine
 10
95.33375797853109
 20
-146.4097161625207
 30
0.0
 11
95.84775518764017
 21
-146.7917744957584
 31
0.0
  0
LINE
  5
D6
330
AE
100
AcDbEntity
  8
レイヤー 1
 62
    18
420
        0
370
    25
100
AcDbLine
 10
95.84775518764017
 20
-146.7917744957584
 30
0.0
 11
96.33353017524701
 21
-146.3738739403072
 31
0.0
  0
LINE
  5
D7
330
AE
100
AcDbEntity
  8
レイヤー 1
 62
    18
420
        0
370
    25
100
AcDbLine
 10
96.33353017524701
 20
-146.3738739403072
 30
0.0
 11
96.84752738435607
 21
-146.755967551323
 31
0.0
  0
LINE
  5
D8
330
AE
100
AcDbEntity
  8
レイヤー 1
 62
    18
420
        0
370
    25
100
AcDbLine
 10
96.84752738435607
 20
-146.755967551323
 30
0.0
 11
97.33259681642536
 21
-146.3384197736495
 31
0.0
  0
LINE
  5
D9
330
AE
100
AcDbEntity
  8
レイヤー 1
 62
    18
420
        0
370
    25
100
AcDbLine
 10
97.33259681642536
 20
-146.3384197736495
 30
0.0
 11
97.84659402553444
 21
-146.7201253291098
 31
0.0
  0
LINE
  5
DA
330
AE
100
AcDbEntity
  8
レイヤー 1
 62
    18
420
        0
370
    25
100
AcDbLine
 10
97.84659402553444
 20
-146.7201253291098
 30
0.0
 11
98.33166345760371
 21
-146.3025775514363
 31
0.0
  0
LINE
  5
DB
330
AE
100
AcDbEntity
  8
レイヤー 1
 62
    18
420
        0
370
    25
100
AcDbLine
 10
98.33166345760371
 20
-146.3025775514363
 30
0.0
 11
98.84569699146142
 21
-146.6842831068965
 31
0.0
  0
LINE
  5
DC
330
AE
100
AcDbEntity
  8
レイヤー 1
 62
    18
420
        0
370
    25
100
AcDbLine
 10
98.84569699146142
 20
-146.6842831068965
 30
0.0
 11
99.33143565431961
 21
-146.266735329223
 31
0.0
  0
LINE
  5
DD
330
AE
100
AcDbEntity
  8
レイヤー 1
 62
    18
420
        0
370
    25
100
AcDbLine
 10
99.39721634065151
 20
-146.2185106070128
 30
0.0
 11
100.3456717395554
 21
-146.2185106070128
 31
0.0
  0
LINE
  5
DE
330
AE
100
AcDbEntity
  8
レイヤー 1
 62
    18
420
        0
370
    25
100
AcDbLine
 10
100.3456717395554
 20
-146.2185106070128
 30
0.0
 11
100.3456717395554
 21
-151.4805439390307
 31
0.0
  0
LINE
  5
DF
330
AE
100
AcDbEntity
  8
レイヤー 1
 62
    18
420
        0
370
    25
100
AcDbLine
 10
99.34523032466993
 20
-147.4807847733638
 30
0.0
 11
99.34523032466993
 21
-152.4806689387804
 31
0.0
  0
LINE
  5
E0
330
AE
100
AcDbEntity
  8
レイヤー 1
 62
    18
420
        0
370
    25
100
AcDbLine
 10
108.3455426465725
 20
-151.4805439390307
 30
0.0
 11
100.3456717395554
 21
-151.4805439390307
 31
0.0
  0
LINE
  5
E1
330
AE
100
AcDbEntity
  8
レイヤー 1
 62
    18
420
        0
370
    25
100
AcDbLine
 10
119.4063604199431
 20
-146.6236758846894
 30
0.0
 11
118.892363210834
 21
-147.0057342179271
 31
0.0
  0
LINE
  5
E2
330
AE
100
AcDbEntity
  8
レイヤー 1
 62
    18
420
        0
370
    25
100
AcDbLine
 10
124.4031400146868
 20
-146.8021108846448
 30
0.0
 11
123.8891075278009
 21
-147.1841692178825
 31
0.0
  0
LINE
  5
E3
330
AE
100
AcDbEntity
  8
レイヤー 1
 62
    18
420
        0
370
    25
100
AcDbLine
 10
119.8914298520123
 20
-147.0411883845851
 30
0.0
 11
119.4063604199431
 21
-146.6236758846894
 31
0.0
  0
LINE
  5
E4
330
AE
100
AcDbEntity
  8
レイヤー 1
 62
    18
420
        0
370
    25
100
AcDbLine
 10
120.8912020487283
 20
-147.0770306067983
 30
0.0
 11
120.4054270611214
 21
-146.6594828291248
 31
0.0
  0
LINE
  5
E5
330
AE
100
AcDbEntity
  8
レイヤー 1
 62
    18
420
        0
370
    25
100
AcDbLine
 10
118.892363210834
 20
-147.0057342179271
 30
0.0
 11
118.4065882232272
 21
-146.5881864402536
 31
0.0
  0
LINE
  5
E6
330
AE
100
AcDbEntity
  8
レイヤー 1
 62
    18
420
        0
370
    25
100
AcDbLine
 10
120.4054270611214
 20
-146.6594828291248
 30
0.0
 11
119.8914298520123
 21
-147.0411883845851
 31
0.0
  0
LINE
  5
E7
330
AE
100
AcDbEntity
  8
レイヤー 1
 62
    18
420
        0
370
    25
100
AcDbLine
 10
128.4008176904753
 20
-146.9450917179422
 30
0.0
 11
127.8868204813663
 21
-147.3271500511802
 31
0.0
  0
LINE
  5
E8
330
AE
100
AcDbEntity
  8
レイヤー 1
 62
    18
420
        0
370
    25
100
AcDbLine
 10
121.4051992578373
 20
-146.6953250513381
 30
0.0
 11
120.8912020487283
 21
-147.0770306067983
 31
0.0
  0
LINE
  5
E9
330
AE
100
AcDbEntity
  8
レイヤー 1
 62
    18
420
        0
370
    25
100
AcDbLine
 10
122.4043011767925
 20
-146.7308144957736
 30
0.0
 11
121.8902686899066
 21
-147.1128728290116
 31
0.0
  0
LINE
  5
EA
330
AE
100
AcDbEntity
  8
レイヤー 1
 62
    18
420
        0
370
    25
100
AcDbLine
 10
108.3986004229966
 20
-146.2185106070128
 30
0.0
 11
108.3986004229966
 21
-151.4805439390307
 31
0.0
  0
LINE
  5
EB
330
AE
100
AcDbEntity
  8
レイヤー 1
 62
    18
420
        0
370
    25
100
AcDbLine
 10
121.8902686899066
 20
-147.1128728290116
 30
0.0
 11
121.4051992578373
 21
-146.6953250513381
 31
0.0
  0
LINE
  5
EC
330
AE
100
AcDbEntity
  8
レイヤー 1
 62
    18
420
        0
370
    25
100
AcDbLine
 10
122.8900408866225
 20
-147.148679773447
 30
0.0
 11
122.4043011767925
 21
-146.7308144957736
 31
0.0
  0
LINE
  5
ED
330
AE
100
AcDbEntity
  8
レイヤー 1
 62
    18
420
        0
370
    25
100
AcDbLine
 10
127.8868204813663
 20
-147.3271500511802
 30
0.0
 11
127.4010454937594
 21
-146.9092494957289
 31
0.0
  0
LINE
  5
EE
330
AE
100
AcDbEntity
  8
レイヤー 1
 62
    18
420
        0
370
    25
100
AcDbLine
 10
123.4033678179709
 20
-146.7666214402096
 30
0.0
 11
122.8900408866225
 21
-147.148679773447
 31
0.0
  0
LINE
  5
EF
330
AE
100
AcDbEntity
  8
レイヤー 1
 62
    18
420
        0
370
    25
100
AcDbLine
 10
123.8891075278009
 20
-147.1841692178825
 30
0.0
 11
123.4033678179709
 21
-146.7666214402096
 31
0.0
  0
LINE
  5
F0
330
AE
100
AcDbEntity
  8
レイヤー 1
 62
    18
420
        0
370
    25
100
AcDbLine
 10
128.8858871225446
 20
-147.3626394956157
 30
0.0
 11
128.4008176904753
 21
-146.9450917179422
 31
0.0
  0
LINE
  5
F1
330
AE
100
AcDbEntity
  8
レイヤー 1
 62
    18
420
        0
370
    25
100
AcDbLine
 10
125.4022066558652
 20
-146.837953106858
 30
0.0
 11
124.8882094467561
 21
-147.219658662318
 31
0.0
  0
LINE
  5
F2
330
AE
100
AcDbEntity
  8
レイヤー 1
 62
    18
420
        0
370
    25
100
AcDbLine
 10
126.4019788525811
 20
-146.8737600512934
 30
0.0
 11
125.887981643472
 21
-147.2555008845318
 31
0.0
  0
LINE
  5
F3
330
AE
100
AcDbEntity
  8
レイヤー 1
 62
    18
420
        0
370
    25
100
AcDbLine
 10
125.887981643472
 20
-147.2555008845318
 30
0.0
 11
125.4022066558652
 21
-146.837953106858
 31
0.0
  0
LINE
  5
F4
330
AE
100
AcDbEntity
  8
レイヤー 1
 62
    18
420
        0
370
    25
100
AcDbLine
 10
129.3998843316537
 20
-146.980581162378
 30
0.0
 11
128.8858871225446
 21
-147.3626394956157
 31
0.0
  0
LINE
  5
F5
330
AE
100
AcDbEntity
  8
レイヤー 1
 62
    18
420
        0
370
    25
100
AcDbLine
 10
124.8882094467561
 20
-147.219658662318
 30
0.0
 11
124.4031400146868
 21
-146.8021108846448
 31
0.0
  0
LINE
  5
F6
330
AE
100
AcDbEntity
  8
レイヤー 1
 62
    18
420
        0
370
    25
100
AcDbLine
 10
127.4010454937594
 20
-146.9092494957289
 30
0.0
 11
126.8870482846504
 21
-147.2913078289669
 31
0.0
  0
LINE
  5
F7
330
AE
100
AcDbEntity
  8
レイヤー 1
 62
    18
420
        0
370
    25
100
AcDbLine
 10
126.8870482846504
 20
-147.2913078289669
 30
0.0
 11
126.4019788525811
 21
-146.8737600512934
 31
0.0
  0
LINE
  5
F8
330
AE
100
AcDbEntity
  8
レイヤー 1
 62
    18
420
        0
370
    25
100
AcDbLine
 10
129.3998843316537
 20
-146.980581162378
 30
0.0
 11
129.3998843316537
 21
-147.4807847733638
 31
0.0
  0
LINE
  5
F9
330
AE
100
AcDbEntity
  8
レイヤー 1
 62
    18
420
        0
370
    25
100
AcDbLine
 10
109.3983726197125
 20
-147.4807847733638
 30
0.0
 11
129.3998843316537
 21
-147.4807847733638
 31
0.0
  0
LINE
  5
FA
330
AE
100
AcDbEntity
  8
レイヤー 1
 62
    18
420
        0
370
    25
100
AcDbLine
 10
118.4065882232272
 20
-146.5881864402536
 30
0.0
 11
117.8925910141181
 21
-146.9702447734916
 31
0.0
  0
LINE
  5
FB
330
AE
100
AcDbEntity
  8
レイヤー 1
 62
    18
420
        0
370
    25
100
AcDbLine
 10
117.8925910141181
 20
-146.9702447734916
 30
0.0
 11
117.4075215820488
 21
-146.5523442180404
 31
0.0
  0
LINE
  5
FC
330
AE
100
AcDbEntity
  8
レイヤー 1
 62
    18
420
        0
370
    25
100
AcDbLine
 10
117.4075215820488
 20
-146.5523442180404
 30
0.0
 11
116.8935243729397
 21
-146.9344025512784
 31
0.0
  0
LINE
  5
FD
330
AE
100
AcDbEntity
  8
レイヤー 1
 62
    18
420
        0
370
    25
100
AcDbLine
 10
116.8935243729397
 20
-146.9344025512784
 30
0.0
 11
116.4084549408704
 21
-146.5168547736049
 31
0.0
  0
LINE
  5
FE
330
AE
100
AcDbEntity
  8
レイヤー 1
 62
    18
420
        0
370
    25
100
AcDbLine
 10
116.4084549408704
 20
-146.5168547736049
 30
0.0
 11
115.8944224539845
 21
-146.8985956068429
 31
0.0
  0
LINE
  5
FF
330
AE
100
AcDbEntity
  8
レイヤー 1
 62
    18
420
        0
370
    25
100
AcDbLine
 10
115.8944224539845
 20
-146.8985956068429
 30
0.0
 11
115.4086827441545
 21
-146.4810478291695
 31
0.0
  0
LINE
  5
100
330
AE
100
AcDbEntity
  8
レイヤー 1
 62
    18
420
        0
370
    25
100
AcDbLine
 10
115.4086827441545
 20
-146.4810478291695
 30
0.0
 11
114.8946502572686
 21
-146.8627533846294
 31
0.0
  0
LINE
  5
101
330
AE
100
AcDbEntity
  8
レイヤー 1
 62
    18
420
        0
370
    25
100
AcDbLine
 10
114.8946502572686
 20
-146.8627533846294
 30
0.0
 11
114.4095808251993
 21
-146.4452056069562
 31
0.0
  0
LINE
  5
102
330
AE
100
AcDbEntity
  8
レイヤー 1
 62
    18
420
        0
370
    25
100
AcDbLine
 10
114.4095808251993
 20
-146.4452056069562
 30
0.0
 11
113.8955836160902
 21
-146.8272639401939
 31
0.0
  0
LINE
  5
103
330
AE
100
AcDbEntity
  8
レイヤー 1
 62
    18
420
        0
370
    25
100
AcDbLine
 10
113.8955836160902
 20
-146.8272639401939
 30
0.0
 11
113.4098439062603
 21
-146.4097161625207
 31
0.0
  0
LINE
  5
104
330
AE
100
AcDbEntity
  8
レイヤー 1
 62
    18
420
        0
370
    25
100
AcDbLine
 10
113.4098439062603
 20
-146.4097161625207
 30
0.0
 11
112.8958114193743
 21
-146.7917744957584
 31
0.0
  0
LINE
  5
105
330
AE
100
AcDbEntity
  8
レイヤー 1
 62
    18
420
        0
370
    25
100
AcDbLine
 10
112.8958114193743
 20
-146.7917744957584
 30
0.0
 11
112.410741987305
 21
-146.3738739403072
 31
0.0
  0
LINE
  5
106
330
AE
100
AcDbEntity
  8
レイヤー 1
 62
    18
420
        0
370
    25
100
AcDbLine
 10
112.410741987305
 20
-146.3738739403072
 30
0.0
 11
111.896744778196
 21
-146.755967551323
 31
0.0
  0
LINE
  5
107
330
AE
100
AcDbEntity
  8
レイヤー 1
 62
    18
420
        0
370
    25
100
AcDbLine
 10
111.896744778196
 20
-146.755967551323
 30
0.0
 11
111.4116753461267
 21
-146.3384197736495
 31
0.0
  0
LINE
  5
108
330
AE
100
AcDbEntity
  8
レイヤー 1
 62
    18
420
        0
370
    25
100
AcDbLine
 10
111.4116753461267
 20
-146.3384197736495
 30
0.0
 11
110.8976781370176
 21
-146.7201253291098
 31
0.0
  0
LINE
  5
109
330
AE
100
AcDbEntity
  8
レイヤー 1
 62
    18
420
        0
370
    25
100
AcDbLine
 10
110.8976781370176
 20
-146.7201253291098
 30
0.0
 11
110.4119031494108
 21
-146.3025775514363
 31
0.0
  0
LINE
  5
10A
330
AE
100
AcDbEntity
  8
レイヤー 1
 62
    18
420
        0
370
    25
100
AcDbLine
 10
110.4119031494108
 20
-146.3025775514363
 30
0.0
 11
109.8979059403017
 21
-146.6842831068965
 31
0.0
  0
LINE
  5
10B
330
AE
100
AcDbEntity
  8
レイヤー 1
 62
    18
420
        0
370
    25
100
AcDbLine
 10
109.8979059403017
 20
-146.6842831068965
 30
0.0
 11
109.4128365082324
 21
-146.266735329223
 31
0.0
  0
LINE
  5
10C
330
AE
100
AcDbEntity
  8
レイヤー 1
 62
    18
420
        0
370
    25
100
AcDbLine
 10
109.350121835681
 20
-146.2185106070128
 30
0.0
 11
108.3986004229966
 21
-146.2185106070128
 31
0.0
  0
LINE
  5
10D
330
AE
100
AcDbEntity
  8
レイヤー 1
 62
    18
420
        0
370
    25
100
AcDbLine
 10
109.3983726197125
 20
-147.4807847733638
 30
0.0
 11
109.3983726197125
 21
-152.4806689387804
 31
0.0
  0
SPLINE
  5
10E
330
AE
100
AcDbEntity
  8
レイヤー 1
 62
    18
420
        0
370
     9
100
AcDbSpline
210
0.0
220
0.0
230
1.0
 70
     9
 71
     3
 72
    17
 73
    13
 74
     0
 42
0.0000000001
 43
0.0000000001
 40
0.0
 40
0.0
 40
0.0
 40
0.0
 40
1.0
 40
1.0
 40
1.0
 40
2.0
 40
2.0
 40
2.0
 40
3.0
 40
3.0
 40
3.0
 40
4.0
 40
4.0
 40
4.0
 40
4.0
 10
79.44429505186754
 20
-142.218751441346
 30
0.0
 10
79.44429505186754
 20
-142.1632947746933
 30
0.0
 10
79.39949227410082
 20
-142.1184919969266
 30
0.0
 10
79.34438838522591
 20
-142.1184919969266
 30
0.0
 10
79.28893171857291
 20
-142.1184919969266
 30
0.0
 10
79.2441289408065
 20
-142.1632947746933
 30
0.0
 10
79.2441289408065
 20
-142.218751441346
 30
0.0
 10
79.2441289408065
 20
-142.2738906079991
 30
0.0
 10
79.28893171857291
 20
-142.3186581079879
 30
0.0
 10
79.34438838522591
 20
-142.3186581079879
 30
0.0
 10
79.39949227410082
 20
-142.3186581079879
 30
0.0
 10
79.44429505186754
 20
-142.2738906079991
 30
0.0
 10
79.44429505186754
 20
-142.218751441346
 30
0.0
  0
SPLINE
  5
10F
330
AE
100
AcDbEntity
  8
レイヤー 1
 62
    18
420
        0
370
     9
100
AcDbSpline
210
0.0
220
0.0
230
1.0
 70
     9
 71
     3
 72
    17
 73
    13
 74
     0
 42
0.0000000001
 43
0.0000000001
 40
0.0
 40
0.0
 40
0.0
 40
0.0
 40
1.0
 40
1.0
 40
1.0
 40
2.0
 40
2.0
 40
2.0
 40
3.0
 40
3.0
 40
3.0
 40
4.0
 40
4.0
 40
4.0
 40
4.0
 10
77.30797866351277
 20
-146.980581162378
 30
0.0
 10
77.30797866351277
 20
-146.9254419957249
 30
0.0
 10
77.26321116352389
 20
-146.8806744957367
 30
0.0
 10
77.20771921909338
 20
-146.8806744957367
 30
0.0
 10
77.15261533021814
 20
-146.8806744957367
 30
0.0
 10
77.10781255245173
 20
-146.9254419957249
 30
0.0
 10
77.10781255245173
 20
-146.980581162378
 30
0.0
 10
77.10781255245173
 20
-147.0356850512529
 30
0.0
 10
77.15261533021814
 20
-147.0804878290196
 30
0.0
 10
77.20771921909338
 20
-147.0804878290196
 30
0.0
 10
77.26321116352389
 20
-147.0804878290196
 30
0.0
 10
77.30797866351277
 20
-147.0356850512529
 30
0.0
 10
77.30797866351277
 20
-146.980581162378
 30
0.0
  0
SPLINE
  5
110
330
AE
100
AcDbEntity
  8
レイヤー 1
 62
    18
420
        0
370
     9
100
AcDbSpline
210
0.0
220
0.0
230
1.0
 70
     9
 71
     3
 72
    17
 73
    13
 74
     0
 42
0.0000000001
 43
0.0000000001
 40
0.0
 40
0.0
 40
0.0
 40
0.0
 40
1.0
 40
1.0
 40
1.0
 40
2.0
 40
2.0
 40
2.0
 40
3.0
 40
3.0
 40
3.0
 40
4.0
 40
4.0
 40
4.0
 40
4.0
 10
77.30797866351277
 20
-147.4807847733638
 30
0.0
 10
77.30797866351277
 20
-147.425680884489
 30
0.0
 10
77.26321116352389
 20
-147.3808781067222
 30
0.0
 10
77.20771921909338
 20
-147.3808781067222
 30
0.0
 10
77.15261533021814
 20
-147.3808781067222
 30
0.0
 10
77.10781255245173
 20
-147.425680884489
 30
0.0
 10
77.10781255245173
 20
-147.4807847733638
 30
0.0
 10
77.10781255245173
 20
-147.5359239400169
 30
0.0
 10
77.15261533021814
 20
-147.5806914400055
 30
0.0
 10
77.20771921909338
 20
-147.5806914400055
 30
0.0
 10
77.26321116352389
 20
-147.5806914400055
 30
0.0
 10
77.30797866351277
 20
-147.5359239400169
 30
0.0
 10
77.30797866351277
 20
-147.4807847733638
 30
0.0
  0
SPLINE
  5
111
330
AE
100
AcDbEntity
  8
レイヤー 1
 62
    18
420
        0
370
     9
100
AcDbSpline
210
0.0
220
0.0
230
1.0
 70
     9
 71
     3
 72
    17
 73
    13
 74
     0
 42
0.0000000001
 43
0.0000000001
 40
0.0
 40
0.0
 40
0.0
 40
0.0
 40
1.0
 40
1.0
 40
1.0
 40
2.0
 40
2.0
 40
2.0
 40
3.0
 40
3.0
 40
3.0
 40
4.0
 40
4.0
 40
4.0
 40
4.0
 10
77.30797866351277
 20
-152.4806689387804
 30
0.0
 10
77.30797866351277
 20
-152.425529772128
 30
0.0
 10
77.26321116352389
 20
-152.3807622721394
 30
0.0
 10
77.20771921909338
 20
-152.3807622721394
 30
0.0
 10
77.15261533021814
 20
-152.3807622721394
 30
0.0
 10
77.10781255245173
 20
-152.425529772128
 30
0.0
 10
77.10781255245173
 20
-152.4806689387804
 30
0.0
 10
77.10781255245173
 20
-152.5357728276559
 30
0.0
 10
77.15261533021814
 20
-152.5805756054227
 30
0.0
 10
77.20771921909338
 20
-152.5805756054227
 30
0.0
 10
77.26321116352389
 20
-152.5805756054227
 30
0.0
 10
77.30797866351277
 20
-152.5357728276559
 30
0.0
 10
77.30797866351277
 20
-152.4806689387804
 30
0.0
  0
SPLINE
  5
112
330
AE
100
AcDbEntity
  8
レイヤー 1
 62
    18
420
        0
370
     9
100
AcDbSpline
210
0.0
220
0.0
230
1.0
 70
     9
 71
     3
 72
    17
 73
    13
 74
     0
 42
0.0000000001
 43
0.0000000001
 40
0.0
 40
0.0
 40
0.0
 40
0.0
 40
1.0
 40
1.0
 40
1.0
 40
2.0
 40
2.0
 40
2.0
 40
3.0
 40
3.0
 40
3.0
 40
4.0
 40
4.0
 40
4.0
 40
4.0
 10
100.4455784036732
 20
-142.218751441346
 30
0.0
 10
100.4455784036732
 20
-142.1632947746933
 30
0.0
 10
100.4008109048154
 20
-142.1184919969266
 30
0.0
 10
100.3456717395554
 20
-142.1184919969266
 30
0.0
 10
100.2898622965348
 20
-142.1184919969266
 30
0.0
 10
100.2450947976769
 20
-142.1632947746933
 30
0.0
 10
100.2450947976769
 20
-142.218751441346
 30
0.0
 10
100.2450947976769
 20
-142.2738906079991
 30
0.0
 10
100.2898622965348
 20
-142.3186581079879
 30
0.0
 10
100.3456717395554
 20
-142.3186581079879
 30
0.0
 10
100.4008109048154
 20
-142.3186581079879
 30
0.0
 10
100.4455784036732
 20
-142.2738906079991
 30
0.0
 10
100.4455784036732
 20
-142.218751441346
 30
0.0
  0
SPLINE
  5
113
330
AE
100
AcDbEntity
  8
レイヤー 1
 62
    18
420
        0
370
     9
100
AcDbSpline
210
0.0
220
0.0
230
1.0
 70
     9
 71
     3
 72
    17
 73
    13
 74
     0
 42
0.0000000001
 43
0.0000000001
 40
0.0
 40
0.0
 40
0.0
 40
0.0
 40
1.0
 40
1.0
 40
1.0
 40
2.0
 40
2.0
 40
2.0
 40
3.0
 40
3.0
 40
3.0
 40
4.0
 40
4.0
 40
4.0
 40
4.0
 10
129.4570696079726
 20
-142.218751441346
 30
0.0
 10
129.4570696079726
 20
-142.1632947746933
 30
0.0
 10
129.4123021091146
 20
-142.1184919969266
 30
0.0
 10
129.3571629438547
 20
-142.1184919969266
 30
0.0
 10
129.3020608727367
 20
-142.1184919969266
 30
0.0
 10
129.25725809497
 20
-142.1632947746933
 30
0.0
 10
129.25725809497
 20
-142.218751441346
 30
0.0
 10
129.25725809497
 20
-142.2738906079991
 30
0.0
 10
129.3020608727367
 20
-142.3186581079879
 30
0.0
 10
129.3571629438547
 20
-142.3186581079879
 30
0.0
 10
129.4123021091146
 20
-142.3186581079879
 30
0.0
 10
129.4570696079726
 20
-142.2738906079991
 30
0.0
 10
129.4570696079726
 20
-142.218751441346
 30
0.0
  0
SPLINE
  5
114
330
AE
100
AcDbEntity
  8
レイヤー 1
 62
    18
420
        0
370
     9
100
AcDbSpline
210
0.0
220
0.0
230
1.0
 70
     9
 71
     3
 72
    17
 73
    13
 74
     0
 42
0.0000000001
 43
0.0000000001
 40
0.0
 40
0.0
 40
0.0
 40
0.0
 40
1.0
 40
1.0
 40
1.0
 40
2.0
 40
2.0
 40
2.0
 40
3.0
 40
3.0
 40
3.0
 40
4.0
 40
4.0
 40
4.0
 40
4.0
 10
108.3455426465725
 20
-142.218751441346
 30
0.0
 10
108.3455426465725
 20
-142.1632947746933
 30
0.0
 10
108.3007398699377
 20
-142.1184919969266
 30
0.0
 10
108.2456359824546
 20
-142.1184919969266
 30
0.0
 10
108.1904968171947
 20
-142.1184919969266
 30
0.0
 10
108.1457293183368
 20
-142.1632947746933
 30
0.0
 10
108.1457293183368
 20
-142.218751441346
 30
0.0
 10
108.1457293183368
 20
-142.2738906079991
 30
0.0
 10
108.1904968171947
 20
-142.3186581079879
 30
0.0
 10
108.2456359824546
 20
-142.3186581079879
 30
0.0
 10
108.3007398699377
 20
-142.3186581079879
 30
0.0
 10
108.3455426465725
 20
-142.2738906079991
 30
0.0
 10
108.3455426465725
 20
-142.218751441346
 30
0.0
  0
LINE
  5
115
330
AE
100
AcDbEntity
  8
レイヤー 1
 62
    18
420
        0
370
     9
100
AcDbLine
 10
77.20771921909338
 20
-146.980581162378
 30
0.0
 11
77.20771921909338
 21
-141.7230281081368
 31
0.0
  0
LINE
  5
116
330
AE
100
AcDbEntity
  8
レイヤー 1
 62
    18
420
        0
370
     9
100
AcDbLine
 10
77.20771921909338
 20
-146.980581162378
 30
0.0
 11
77.20771921909338
 21
-147.4807847733638
 31
0.0
  0
LINE
  5
117
330
AE
100
AcDbEntity
  8
レイヤー 1
 62
    18
420
        0
370
     9
100
AcDbLine
 10
78.66776060761708
 20
-146.980581162378
 30
0.0
 11
76.20798227489867
 21
-146.980581162378
 31
0.0
  0
LINE
  5
118
330
AE
100
AcDbEntity
  8
レイヤー 1
 62
    18
420
        0
370
     9
100
AcDbLine
 10
78.66776060761708
 20
-147.4807847733638
 30
0.0
 11
76.20798227489867
 21
-147.4807847733638
 31
0.0
  0
INSERT
  5
11A
330
AE
100
AcDbEntity
  8
レイヤー 1
100
AcDbBlockReference
  2
Block_4
 10
0.0
 20
0.0
 30
0.0
  0
LINE
  5
128
330
AE
100
AcDbEntity
  8
レイヤー 1
 62
    18
420
        0
370
     9
100
AcDbLine
 10
79.34438838522591
 20
-142.218751441346
 30
0.0
 11
100.3456717395554
 21
-142.218751441346
 31
0.0
  0
LINE
  5
129
330
AE
100
AcDbEntity
  8
レイヤー 1
 62
    18
420
        0
370
     9
100
AcDbLine
 10
79.34438838522591
 20
-144.4408633852351
 30
0.0
 11
79.34438838522591
 21
-141.2186617193738
 31
0.0
  0
INSERT
  5
12B
330
AE
100
AcDbEntity
  8
レイヤー 1
100
AcDbBlockReference
  2
Block_6
 10
0.0
 20
0.0
 30
0.0
  0
LINE
  5
136
330
AE
100
AcDbEntity
  8
レイヤー 1
 62
    18
420
        0
370
     9
100
AcDbLine
 10
77.20771921909338
 20
-147.4807847733638
 30
0.0
 11
77.20771921909338
 21
-152.4806689387804
 31
0.0
  0
LINE
  5
137
330
AE
100
AcDbEntity
  8
レイヤー 1
 62
    18
420
        0
370
     9
100
AcDbLine
 10
98.66930810261663
 20
-152.4806689387804
 30
0.0
 11
76.20798227489867
 21
-152.4806689387804
 31
0.0
  0
INSERT
  5
139
330
AE
100
AcDbEntity
  8
レイヤー 1
100
AcDbBlockReference
  2
Block_8
 10
0.0
 20
0.0
 30
0.0
  0
LINE
  5
13E
330
AE
100
AcDbEntity
  8
レイヤー 1
 62
    18
420
        0
370
     9
100
AcDbLine
 10
129.3571629438547
 20
-142.218751441346
 30
0.0
 11
108.3558803224177
 21
-142.218751441346
 31
0.0
  0
LINE
  5
13F
330
AE
100
AcDbEntity
  8
レイヤー 1
 62
    18
420
        0
370
     9
100
AcDbLine
 10
129.3571629438547
 20
-144.4408633852351
 30
0.0
 11
129.3571629438547
 21
-141.2186617193738
 31
0.0
  0
INSERT
  5
141
330
AE
100
AcDbEntity
  8
レイヤー 1
100
AcDbBlockReference
  2
Block_9
 10
0.0
 20
0.0
 30
0.0
  0
LINE
  5
14C
330
AE
100
AcDbEntity
  8
レイヤー 1
 62
    18
420
        0
370
     9
100
AcDbLine
 10
100.3456717395554
 20
-142.218751441346
 30
0.0
 11
108.3455426465725
 21
-142.218751441346
 31
0.0
  0
LINE
  5
14D
330
AE
100
AcDbEntity
  8
レイヤー 1
 62
    18
420
        0
370
     9
100
AcDbLine
 10
100.3456717395554
 20
-143.67879282987
 30
0.0
 11
100.3456717395554
 21
-141.2186617193738
 31
0.0
  0
LINE
  5
14E
330
AE
100
AcDbEntity
  8
レイヤー 1
 62
    18
420
        0
370
     9
100
AcDbLine
 10
108.2456359824546
 20
-143.67879282987
 30
0.0
 11
108.2456359824546
 21
-141.2186617193738
 31
0.0
  0
INSERT
  5
150
330
AE
100
AcDbEntity
  8
レイヤー 1
100
AcDbBlockReference
  2
Block_11
 10
0.0
 20
0.0
 30
0.0
  0
LINE
  5
157
330
AE
100
AcDbEntity
  8
レイヤー 1
 62
    18
420
        0
370
     9
100
AcDbLine
 10
106.9692154594633
 20
-150.4352986615141
 30
0.0
 11
114.9690863664807
 21
-150.4352986615141
 31
0.0
  0
INSERT
  5
159
330
AE
100
AcDbEntity
  8
レイヤー 1
100
AcDbBlockReference
  2
Block_12
 10
0.0
 20
0.0
 30
0.0
  0
SPLINE
  5
15E
330
AE
100
AcDbEntity
  8
レイヤー 1
 62
    18
420
        0
370
     9
100
AcDbSpline
210
0.0
220
0.0
230
1.0
 70
     9
 71
     3
 72
    17
 73
    13
 74
     0
 42
0.0000000001
 43
0.0000000001
 40
0.0
 40
0.0
 40
0.0
 40
0.0
 40
1.0
 40
1.0
 40
1.0
 40
2.0
 40
2.0
 40
2.0
 40
3.0
 40
3.0
 40
3.0
 40
4.0
 40
4.0
 40
4.0
 40
4.0
 10
99.65874286819186
 20
-156.9482819932197
 30
0.0
 10
99.65874286819186
 20
-156.893142826566
 30
0.0
 10
99.57534620365283
 20
-156.8483753265774
 30
0.0
 10
99.47268787293822
 20
-156.8483753265774
 30
0.0
 10
99.37105259775336
 20
-156.8483753265774
 30
0.0
 10
99.28804398875996
 20
-156.893142826566
 30
0.0
 10
99.28804398875996
 20
-156.9482819932197
 30
0.0
 10
99.28804398875996
 20
-157.0033858820939
 30
0.0
 10
99.37105259775336
 20
-157.0481886598607
 30
0.0
 10
99.47268787293822
 20
-157.0481886598607
 30
0.0
 10
99.57534620365283
 20
-157.0481886598607
 30
0.0
 10
99.65874286819186
 20
-157.0033858820939
 30
0.0
 10
99.65874286819186
 20
-156.9482819932197
 30
0.0
  0
SPLINE
  5
15F
330
AE
100
AcDbEntity
  8
レイヤー 1
 62
    18
420
        0
370
     9
100
AcDbSpline
210
0.0
220
0.0
230
1.0
 70
     9
 71
     3
 72
    17
 73
    13
 74
     0
 42
0.0000000001
 43
0.0000000001
 40
0.0
 40
0.0
 40
0.0
 40
0.0
 40
1.0
 40
1.0
 40
1.0
 40
2.0
 40
2.0
 40
2.0
 40
3.0
 40
3.0
 40
3.0
 40
4.0
 40
4.0
 40
4.0
 40
4.0
 10
109.6174828919004
 20
-156.9482819932197
 30
0.0
 10
109.6174828919004
 20
-156.893142826566
 30
0.0
 10
109.5344390051307
 20
-156.8483753265774
 30
0.0
 10
109.4328037299459
 20
-156.8483753265774
 30
0.0
 10
109.3291223437015
 20
-156.8483753265774
 30
0.0
 10
109.2467840124688
 20
-156.893142826566
 30
0.0
 10
109.2467840124688
 20
-156.9482819932197
 30
0.0
 10
109.2467840124688
 20
-157.0033858820939
 30
0.0
 10
109.3291223437015
 20
-157.0481886598607
 30
0.0
 10
109.4328037299459
 20
-157.0481886598607
 30
0.0
 10
109.5344390051307
 20
-157.0481886598607
 30
0.0
 10
109.6174828919004
 20
-157.0033858820939
 30
0.0
 10
109.6174828919004
 20
-156.9482819932197
 30
0.0
  0
LINE
  5
160
330
AE
100
AcDbEntity
  8
レイヤー 1
 62
    18
420
        0
370
     9
100
AcDbLine
 10
109.4727747665827
 20
-156.9482819932197
 30
0.0
 11
99.47268787293822
 21
-156.9482819932197
 31
0.0
  0
LINE
  5
161
330
AE
100
AcDbEntity
  8
レイヤー 1
 62
    18
420
        0
370
     9
100
AcDbLine
 10
109.4328037299459
 20
-155.4882406046953
 30
0.0
 11
109.4328037299459
 21
-157.9483717151912
 31
0.0
  0
LINE
  5
162
330
AE
100
AcDbEntity
  8
レイヤー 1
 62
    18
420
        0
370
     9
100
AcDbLine
 10
99.47268787293822
 20
-155.4882406046953
 30
0.0
 11
99.47268787293822
 21
-157.9483717151912
 31
0.0
  0
INSERT
  5
164
330
AE
100
AcDbEntity
  8
レイヤー 1
100
AcDbBlockReference
  2
Block_13
 10
0.0
 20
0.0
 30
0.0
  0
ENDBLK
  5
B1
330
AE
100
AcDbEntity
  8
0
100
AcDbBlockEnd
  0
BLOCK
  5
11B
330
119
100
AcDbEntity
  8
0
100
AcDbBlockBegin
  2
Block_4
 70
     0
 10
0.0
 20
0.0
 30
0.0
  3
Block_4
  1

  0
INSERT
  5
11E
330
119
100
AcDbEntity
  8
レイヤー 1
100
AcDbBlockReference
  2
Block_5
 10
0.0
 20
0.0
 30
0.0
  0
ENDBLK
  5
11C
330
119
100
AcDbEntity
  8
0
100
AcDbBlockEnd
  0
BLOCK
  5
11F
330
11D
100
AcDbEntity
  8
0
100
AcDbBlockBegin
  2
Block_5
 70
     0
 10
0.0
 20
0.0
 30
0.0
  3
Block_5
  1

  0
SPLINE
  5
121
330
11D
100
AcDbEntity
  8
レイヤー 1
100
AcDbSpline
210
0.0
220
0.0
230
1.0
 70
     9
 71
     3
 72
    17
 73
    13
 74
     0
 42
0.0000000001
 43
0.0000000001
 40
0.0
 40
0.0
 40
0.0
 40
0.0
 40
1.0
 40
1.0
 40
1.0
 40
2.0
 40
2.0
 40
2.0
 40
3.0
 40
3.0
 40
3.0
 40
4.0
 40
4.0
 40
4.0
 40
4.0
 10
74.36359183253758
 20
-148.1347994963864
 30
0.0
 10
74.36359183253758
 20
-148.384568919067
 30
0.0
 10
74.64695093619937
 20
-148.4310777081179
 30
0.0
 10
74.99180499427288
 20
-148.4310777081179
 30
0.0
 10
75.31133760052981
 20
-148.4310777081179
 30
0.0
 10
75.62019041078245
 20
-148.3949042055228
 30
0.0
 10
75.62019041078245
 20
-148.1347994963864
 30
0.0
 10
75.62019041078245
 20
-147.8870971309969
 30
0.0
 10
75.33872610963754
 20
-147.838521284655
 30
0.0
 10
74.99180499427288
 20
-147.838521284655
 30
0.0
 10
74.67244464279023
 20
-147.838521284655
 30
0.0
 10
74.36359183253758
 20
-147.8767618445412
 30
0.0
 10
74.36359183253758
 20
-148.1347994963864
 30
0.0
  0
SPLINE
  5
122
330
11D
100
AcDbEntity
  8
レイヤー 1
100
AcDbSpline
210
0.0
220
0.0
230
1.0
 70
     9
 71
     3
 72
    29
 73
    25
 74
     0
 42
0.0000000001
 43
0.0000000001
 40
0.0
 40
0.0
 40
0.0
 40
0.0
 40
1.0
 40
1.0
 40
1.0
 40
2.0
 40
2.0
 40
2.0
 40
3.0
 40
3.0
 40
3.0
 40
4.0
 40
4.0
 40
4.0
 40
5.0
 40
5.0
 40
5.0
 40
6.0
 40
6.0
 40
6.0
 40
7.0
 40
7.0
 40
7.0
 40
8.0
 40
8.0
 40
8.0
 40
8.0
 10
75.58625622025274
 20
-147.7368909678401
 30
0.0
 10
75.79571802575593
 20
-147.8450669660769
 30
0.0
 10
75.81483830569907
 20
-148.018355268985
 30
0.0
 10
75.81483830569907
 20
-148.1347994963864
 30
0.0
 10
75.81483830569907
 20
-148.2956854555476
 30
0.0
 10
75.76832951664819
 20
-148.4372788799913
 30
0.0
 10
75.58625622025274
 20
-148.5323635153843
 30
0.0
 10
75.39178058011039
 20
-148.6360608894903
 30
0.0
 10
75.1547580107252
 20
-148.6553534242077
 30
0.0
 10
74.99180499427288
 20
-148.6553534242077
 30
0.0
 10
74.8479722577637
 20
-148.6553534242077
 30
0.0
 10
74.5963080325662
 20
-148.6381279467814
 30
0.0
 10
74.39735376829303
 20
-148.5323635153843
 30
0.0
 10
74.19426538943755
 20
-148.4245320266959
 30
0.0
 10
74.17101099491211
 20
-148.2636460675347
 30
0.0
 10
74.17101099491211
 20
-148.1347994963864
 30
0.0
 10
74.17101099491211
 20
-147.9759805945164
 30
0.0
 10
74.21545272667183
 20
-147.8323201127815
 30
0.0
 10
74.39735376829303
 20
-147.7368909678401
 30
0.0
 10
74.58993460591848
 20
-147.6376722178649
 30
0.0
 10
74.81834443659055
 20
-147.6142455685652
 30
0.0
 10
74.99180499427288
 20
-147.6142455685652
 30
0.0
 10
75.16319849466405
 20
-147.6142455685652
 30
0.0
 10
75.39384763740153
 20
-147.6356051605737
 30
0.0
 10
75.58625622025274
 20
-147.7368909678401
 30
0.0
  0
HATCH
  5
123
330
11D
100
AcDbEntity
  8
レイヤー 1
 62
   250
420
  2299925
440
 33554687
100
AcDbHatch
 10
0.0
 20
0.0
 30
0.0
210
0.0
220
0.0
230
1.0
  2
SOLID
 70
     1
 71
     1
 91
        2
 92
        1
 93
        1
 72
     4
 94
        3
 73
     0
 74
     0
 95
       17
 96
       13
 40
0.0
 40
0.0
 40
0.0
 40
0.0
 40
1.0
 40
1.0
 40
1.0
 40
2.0
 40
2.0
 40
2.0
 40
3.0
 40
3.0
 40
3.0
 40
4.0
 40
4.0
 40
4.0
 40
4.0
 10
74.36359183253758
 20
-148.1347994963864
 10
74.36359183253758
 20
-148.384568919067
 10
74.64695093619937
 20
-148.4310777081179
 10
74.99180499427288
 20
-148.4310777081179
 10
75.31133760052981
 20
-148.4310777081179
 10
75.62019041078245
 20
-148.3949042055228
 10
75.62019041078245
 20
-148.1347994963864
 10
75.62019041078245
 20
-147.8870971309969
 10
75.33872610963754
 20
-147.838521284655
 10
74.99180499427288
 20
-147.838521284655
 10
74.67244464279023
 20
-147.838521284655
 10
74.36359183253758
 20
-147.8767618445412
 10
74.36359183253758
 20
-148.1347994963864
 97
        0
 97
        1
330
121
 92
        1
 93
        1
 72
     4
 94
        3
 73
     0
 74
     0
 95
       29
 96
       25
 40
0.0
 40
0.0
 40
0.0
 40
0.0
 40
1.0
 40
1.0
 40
1.0
 40
2.0
 40
2.0
 40
2.0
 40
3.0
 40
3.0
 40
3.0
 40
4.0
 40
4.0
 40
4.0
 40
5.0
 40
5.0
 40
5.0
 40
6.0
 40
6.0
 40
6.0
 40
7.0
 40
7.0
 40
7.0
 40
8.0
 40
8.0
 40
8.0
 40
8.0
 10
75.58625622025274
 20
-147.7368909678401
 10
75.79571802575593
 20
-147.8450669660769
 10
75.81483830569907
 20
-148.018355268985
 10
75.81483830569907
 20
-148.1347994963864
 10
75.81483830569907
 20
-148.2956854555476
 10
75.76832951664819
 20
-148.4372788799913
 10
75.58625622025274
 20
-148.5323635153843
 10
75.39178058011039
 20
-148.6360608894903
 10
75.1547580107252
 20
-148.6553534242077
 10
74.99180499427288
 20
-148.6553534242077
 10
74.8479722577637
 20
-148.6553534242077
 10
74.5963080325662
 20
-148.6381279467814
 10
74.39735376829303
 20
-148.5323635153843
 10
74.19426538943755
 20
-148.4245320266959
 10
74.17101099491211
 20
-148.2636460675347
 10
74.17101099491211
 20
-148.1347994963864
 10
74.17101099491211
 20
-147.9759805945164
 10
74.21545272667183
 20
-147.8323201127815
 10
74.39735376829303
 20
-147.7368909678401
 10
74.58993460591848
 20
-147.6376722178649
 10
74.81834443659055
 20
-147.6142455685652
 10
74.99180499427288
 20
-147.6142455685652
 10
75.16319849466405
 20
-147.6142455685652
 10
75.39384763740153
 20
-147.6356051605737
 10
75.58625622025274
 20
-147.7368909678401
 97
        0
 97
        1
330
122
 75
     2
 76
     1
 98
        1
 10
0.0
 20
0.0
450
        0
451
        0
460
0.0
461
0.0
452
        0
462
0.0
453
        0
470

  0
SPLINE
  5
124
330
11D
100
AcDbEntity
  8
レイヤー 1
100
AcDbSpline
210
0.0
220
0.0
230
1.0
 70
    11
 71
     3
 72
    17
 73
    13
 74
     0
 42
0.0000000001
 43
0.0000000001
 40
0.0
 40
0.0
 40
0.0
 40
0.0
 40
1.0
 40
1.0
 40
1.0
 40
2.0
 40
2.0
 40
2.0
 40
3.0
 40
3.0
 40
3.0
 40
4.0
 40
4.0
 40
4.0
 40
4.0
 10
75.76402314729164
 20
-147.3978935720915
 30
0.0
 10
75.76402314729164
 20
-147.3978935720915
 30
0.0
 10
75.51235892209414
 20
-147.3978935720915
 30
0.0
 10
75.51235892209414
 20
-147.3978935720915
 30
0.0
 10
75.51235892209414
 20
-147.3978935720915
 30
0.0
 10
75.51235892209414
 20
-147.1460570921197
 30
0.0
 10
75.51235892209414
 20
-147.1460570921197
 30
0.0
 10
75.51235892209414
 20
-147.1460570921197
 30
0.0
 10
75.76402314729164
 20
-147.1460570921197
 30
0.0
 10
75.76402314729164
 20
-147.1460570921197
 30
0.0
 10
75.76402314729164
 20
-147.1460570921197
 30
0.0
 10
75.76402314729164
 20
-147.3978935720915
 30
0.0
 10
75.76402314729164
 20
-147.3978935720915
 30
0.0
  0
HATCH
  5
125
330
11D
100
AcDbEntity
  8
レイヤー 1
 62
   250
420
  2299925
440
 33554687
100
AcDbHatch
 10
0.0
 20
0.0
 30
0.0
210
0.0
220
0.0
230
1.0
  2
SOLID
 70
     1
 71
     1
 91
        1
 92
        1
 93
        1
 72
     4
 94
        3
 73
     0
 74
     0
 95
       17
 96
       13
 40
0.0
 40
0.0
 40
0.0
 40
0.0
 40
1.0
 40
1.0
 40
1.0
 40
2.0
 40
2.0
 40
2.0
 40
3.0
 40
3.0
 40
3.0
 40
4.0
 40
4.0
 40
4.0
 40
4.0
 10
75.76402314729164
 20
-147.3978935720915
 10
75.76402314729164
 20
-147.3978935720915
 10
75.51235892209414
 20
-147.3978935720915
 10
75.51235892209414
 20
-147.3978935720915
 10
75.51235892209414
 20
-147.3978935720915
 10
75.51235892209414
 20
-147.1460570921197
 10
75.51235892209414
 20
-147.1460570921197
 10
75.51235892209414
 20
-147.1460570921197
 10
75.76402314729164
 20
-147.1460570921197
 10
75.76402314729164
 20
-147.1460570921197
 10
75.76402314729164
 20
-147.1460570921197
 10
75.76402314729164
 20
-147.3978935720915
 10
75.76402314729164
 20
-147.3978935720915
 97
        0
 97
        1
330
124
 75
     2
 76
     1
 98
        1
 10
0.0
 20
0.0
450
        0
451
        0
460
0.0
461
0.0
452
        0
462
0.0
453
        0
470

  0
SPLINE
  5
126
330
11D
100
AcDbEntity
  8
レイヤー 1
100
AcDbSpline
210
0.0
220
0.0
230
1.0
 70
     9
 71
     3
 72
    53
 73
    49
 74
     0
 42
0.0000000001
 43
0.0000000001
 40
0.0
 40
0.0
 40
0.0
 40
0.0
 40
1.0
 40
1.0
 40
1.0
 40
2.0
 40
2.0
 40
2.0
 40
3.0
 40
3.0
 40
3.0
 40
4.0
 40
4.0
 40
4.0
 40
5.0
 40
5.0
 40
5.0
 40
6.0
 40
6.0
 40
6.0
 40
7.0
 40
7.0
 40
7.0
 40
8.0
 40
8.0
 40
8.0
 40
9.0
 40
9.0
 40
9.0
 40
10.0
 40
10.0
 40
10.0
 40
11.0
 40
11.0
 40
11.0
 40
12.0
 40
12.0
 40
12.0
 40
13.0
 40
13.0
 40
13.0
 40
14.0
 40
14.0
 40
14.0
 40
15.0
 40
15.0
 40
15.0
 40
16.0
 40
16.0
 40
16.0
 40
16.0
 10
75.81483830569907
 20
-146.4287882120907
 30
0.0
 10
75.81483830569907
 20
-146.5069918796059
 30
0.0
 10
75.79795733782134
 20
-146.6086221964207
 30
0.0
 10
75.73439532611849
 20
-146.7102525132356
 30
0.0
 10
75.62432452536476
 20
-146.8835408161437
 30
0.0
 10
75.493238642151
 20
-146.9049004081522
 30
0.0
 10
75.38540715346268
 20
-146.9238484333211
 30
0.0
 10
75.38540715346268
 20
-146.9238484333211
 30
0.0
 10
75.38540715346268
 20
-146.7016397745225
 30
0.0
 10
75.38540715346268
 20
-146.7016397745225
 30
0.0
 10
75.58418916296159
 20
-146.646862756307
 30
0.0
 10
75.61381698413474
 20
-146.5197387329013
 30
0.0
 10
75.61381698413474
 20
-146.4267211547995
 30
0.0
 10
75.61381698413474
 20
-146.287194787647
 30
0.0
 10
75.51442597938528
 20
-146.1349215671989
 30
0.0
 10
75.28170977935666
 20
-146.1349215671989
 30
0.0
 10
75.0257391848026
 20
-146.1349215671989
 30
0.0
 10
74.95597600122628
 20
-146.3147555515289
 30
0.0
 10
74.95597600122628
 20
-146.4353338935127
 30
0.0
 10
74.95597600122628
 20
-146.467028771977
 30
0.0
 10
74.95597600122628
 20
-146.6086221964207
 30
0.0
 10
75.08499482714888
 20
-146.6975056599402
 30
0.0
 10
75.08499482714888
 20
-146.6975056599402
 30
0.0
 10
75.06587454720575
 20
-146.8732055296879
 30
0.0
 10
75.06587454720575
 20
-146.8732055296879
 30
0.0
 10
75.06587454720575
 20
-146.8732055296879
 30
0.0
 10
74.21975909602839
 20
-146.7526271877042
 30
0.0
 10
74.21975909602839
 20
-146.7526271877042
 30
0.0
 10
74.21975909602839
 20
-146.7526271877042
 30
0.0
 10
74.21975909602839
 20
-145.9740356080377
 30
0.0
 10
74.21975909602839
 20
-145.9740356080377
 30
0.0
 10
74.21975909602839
 20
-145.9740356080377
 30
0.0
 10
74.41440699094501
 20
-145.9740356080377
 30
0.0
 10
74.41440699094501
 20
-145.9740356080377
 30
0.0
 10
74.41440699094501
 20
-145.9740356080377
 30
0.0
 10
74.41440699094501
 20
-146.5896741712519
 30
0.0
 10
74.41440699094501
 20
-146.5896741712519
 30
0.0
 10
74.41440699094501
 20
-146.5896741712519
 30
0.0
 10
74.83746471653368
 20
-146.6551309854716
 30
0.0
 10
74.83746471653368
 20
-146.6551309854716
 30
0.0
 10
74.80353052600398
 20
-146.5938082858342
 30
0.0
 10
74.76339516360082
 20
-146.5114705037367
 30
0.0
 10
74.76339516360082
 20
-146.3929592190441
 30
0.0
 10
74.76339516360082
 20
-146.1390556817812
 30
0.0
 10
74.94960257457858
 20
-145.902033112396
 30
0.0
 10
75.26258949941352
 20
-145.902033112396
 30
0.0
 10
75.58005504837929
 20
-145.902033112396
 30
0.0
 10
75.81483830569907
 20
-146.1263088284858
 30
0.0
 10
75.81483830569907
 20
-146.4287882120907
 30
0.0
  0
HATCH
  5
127
330
11D
100
AcDbEntity
  8
レイヤー 1
 62
   250
420
  2299925
440
 33554687
100
AcDbHatch
 10
0.0
 20
0.0
 30
0.0
210
0.0
220
0.0
230
1.0
  2
SOLID
 70
     1
 71
     1
 91
        1
 92
        1
 93
        1
 72
     4
 94
        3
 73
     0
 74
     0
 95
       53
 96
       49
 40
0.0
 40
0.0
 40
0.0
 40
0.0
 40
1.0
 40
1.0
 40
1.0
 40
2.0
 40
2.0
 40
2.0
 40
3.0
 40
3.0
 40
3.0
 40
4.0
 40
4.0
 40
4.0
 40
5.0
 40
5.0
 40
5.0
 40
6.0
 40
6.0
 40
6.0
 40
7.0
 40
7.0
 40
7.0
 40
8.0
 40
8.0
 40
8.0
 40
9.0
 40
9.0
 40
9.0
 40
10.0
 40
10.0
 40
10.0
 40
11.0
 40
11.0
 40
11.0
 40
12.0
 40
12.0
 40
12.0
 40
13.0
 40
13.0
 40
13.0
 40
14.0
 40
14.0
 40
14.0
 40
15.0
 40
15.0
 40
15.0
 40
16.0
 40
16.0
 40
16.0
 40
16.0
 10
75.81483830569907
 20
-146.4287882120907
 10
75.81483830569907
 20
-146.5069918796059
 10
75.79795733782134
 20
-146.6086221964207
 10
75.73439532611849
 20
-146.7102525132356
 10
75.62432452536476
 20
-146.8835408161437
 10
75.493238642151
 20
-146.9049004081522
 10
75.38540715346268
 20
-146.9238484333211
 10
75.38540715346268
 20
-146.9238484333211
 10
75.38540715346268
 20
-146.7016397745225
 10
75.38540715346268
 20
-146.7016397745225
 10
75.58418916296159
 20
-146.646862756307
 10
75.61381698413474
 20
-146.5197387329013
 10
75.61381698413474
 20
-146.4267211547995
 10
75.61381698413474
 20
-146.287194787647
 10
75.51442597938528
 20
-146.1349215671989
 10
75.28170977935666
 20
-146.1349215671989
 10
75.0257391848026
 20
-146.1349215671989
 10
74.95597600122628
 20
-146.3147555515289
 10
74.95597600122628
 20
-146.4353338935127
 10
74.95597600122628
 20
-146.467028771977
 10
74.95597600122628
 20
-146.6086221964207
 10
75.08499482714888
 20
-146.6975056599402
 10
75.08499482714888
 20
-146.6975056599402
 10
75.06587454720575
 20
-146.8732055296879
 10
75.06587454720575
 20
-146.8732055296879
 10
75.06587454720575
 20
-146.8732055296879
 10
74.21975909602839
 20
-146.7526271877042
 10
74.21975909602839
 20
-146.7526271877042
 10
74.21975909602839
 20
-146.7526271877042
 10
74.21975909602839
 20
-145.9740356080377
 10
74.21975909602839
 20
-145.9740356080377
 10
74.21975909602839
 20
-145.9740356080377
 10
74.41440699094501
 20
-145.9740356080377
 10
74.41440699094501
 20
-145.9740356080377
 10
74.41440699094501
 20
-145.9740356080377
 10
74.41440699094501
 20
-146.5896741712519
 10
74.41440699094501
 20
-146.5896741712519
 10
74.41440699094501
 20
-146.5896741712519
 10
74.83746471653368
 20
-146.6551309854716
 10
74.83746471653368
 20
-146.6551309854716
 10
74.80353052600398
 20
-146.5938082858342
 10
74.76339516360082
 20
-146.5114705037367
 10
74.76339516360082
 20
-146.3929592190441
 10
74.76339516360082
 20
-146.1390556817812
 10
74.94960257457858
 20
-145.902033112396
 10
75.26258949941352
 20
-145.902033112396
 10
75.58005504837929
 20
-145.902033112396
 10
75.81483830569907
 20
-146.1263088284858
 10
75.81483830569907
 20
-146.4287882120907
 97
        0
 97
        1
330
126
 75
     2
 76
     1
 98
        1
 10
0.0
 20
0.0
450
        0
451
        0
460
0.0
461
0.0
452
        0
462
0.0
453
        0
470

  0
ENDBLK
  5
120
330
11D
100
AcDbEntity
  8
0
100
AcDbBlockEnd
  0
BLOCK
  5
12C
330
12A
100
AcDbEntity
  8
0
100
AcDbBlockBegin
  2
Block_6
 70
     0
 10
0.0
 20
0.0
 30
0.0
  3
Block_6
  1

  0
INSERT
  5
12F
330
12A
100
AcDbEntity
  8
レイヤー 1
100
AcDbBlockReference
  2
Block_7
 10
0.0
 20
0.0
 30
0.0
  0
ENDBLK
  5
12D
330
12A
100
AcDbEntity
  8
0
100
AcDbBlockEnd
  0
BLOCK
  5
130
330
12E
100
AcDbEntity
  8
0
100
AcDbBlockBegin
  2
Block_7
 70
     0
 10
0.0
 20
0.0
 30
0.0
  3
Block_7
  1

  0
SPLINE
  5
132
330
12E
100
AcDbEntity
  8
レイヤー 1
100
AcDbSpline
210
0.0
220
0.0
230
1.0
 70
     9
 71
     3
 72
    44
 73
    40
 74
     0
 42
0.0000000001
 43
0.0000000001
 40
0.0
 40
0.0
 40
0.0
 40
0.0
 40
1.0
 40
1.0
 40
1.0
 40
2.0
 40
2.0
 40
2.0
 40
3.0
 40
3.0
 40
3.0
 40
4.0
 40
4.0
 40
4.0
 40
5.0
 40
5.0
 40
5.0
 40
6.0
 40
6.0
 40
6.0
 40
7.0
 40
7.0
 40
7.0
 40
8.0
 40
8.0
 40
8.0
 40
9.0
 40
9.0
 40
9.0
 40
10.0
 40
10.0
 40
10.0
 40
11.0
 40
11.0
 40
11.0
 40
12.0
 40
12.0
 40
12.0
 40
13.0
 40
13.0
 40
13.0
 40
13.0
 10
89.2734483283761
 20
-140.9228366075644
 30
0.0
 10
89.05554603893405
 20
-141.0814832546602
 30
0.0
 10
88.96235620605803
 20
-141.155552807593
 30
0.0
 10
88.913780359716
 20
-141.2993855441022
 30
0.0
 10
88.913780359716
 20
-141.2993855441022
 30
0.0
 10
89.69219968460819
 20
-141.2993855441022
 30
0.0
 10
89.69219968460819
 20
-141.2993855441022
 30
0.0
 10
89.69219968460819
 20
-141.2993855441022
 30
0.0
 10
89.69219968460819
 20
-141.5045409802488
 30
0.0
 10
89.69219968460819
 20
-141.5045409802488
 30
0.0
 10
89.69219968460819
 20
-141.5045409802488
 30
0.0
 10
88.66418319180965
 20
-141.5045409802488
 30
0.0
 10
88.66418319180965
 20
-141.5045409802488
 30
0.0
 10
88.69587807027395
 20
-141.1469400688799
 30
0.0
 10
88.76150713926795
 20
-141.0687364013647
 30
0.0
 10
89.14649655974463
 20
-140.7703911323421
 30
0.0
 10
89.4024671542987
 20
-140.5716091228432
 30
0.0
 10
89.46792396851844
 20
-140.503912996558
 30
0.0
 10
89.46792396851844
 20
-140.3664536866966
 30
0.0
 10
89.46792396851844
 20
-140.2479424020039
 30
0.0
 10
89.39609372765097
 20
-140.116684264016
 30
0.0
 10
89.19937877544322
 20
-140.116684264016
 30
0.0
 10
88.93910181153259
 20
-140.116684264016
 30
0.0
 10
88.93066132759372
 20
-140.3473334067534
 30
0.0
 10
88.92635495823716
 20
-140.4637776341549
 30
0.0
 10
88.92635495823716
 20
-140.4637776341549
 30
0.0
 10
88.70225149692165
 20
-140.4637776341549
 30
0.0
 10
88.70225149692165
 20
-140.4637776341549
 30
0.0
 10
88.71069198086052
 20
-140.3368258655234
 30
0.0
 10
88.72119952209054
 20
-140.2246880074785
 30
0.0
 10
88.80164250167112
 20
-140.1061767227859
 30
0.0
 10
88.91154104765059
 20
-139.945463018399
 30
0.0
 10
89.09774845862834
 20
-139.9115288278693
 30
0.0
 10
89.2141926860298
 20
-139.9115288278693
 30
0.0
 10
89.49135061781815
 20
-139.9115288278693
 30
0.0
 10
89.69857311125592
 20
-140.0956691815559
 30
0.0
 10
89.69857311125592
 20
-140.3685207439877
 30
0.0
 10
89.69857311125592
 20
-140.5969305746598
 30
0.0
 10
89.58230113862873
 20
-140.6964938341835
 30
0.0
 10
89.2734483283761
 20
-140.9228366075644
 30
0.0
  0
HATCH
  5
133
330
12E
100
AcDbEntity
  8
レイヤー 1
 62
   250
420
  2299925
440
 33554687
100
AcDbHatch
 10
0.0
 20
0.0
 30
0.0
210
0.0
220
0.0
230
1.0
  2
SOLID
 70
     1
 71
     1
 91
        1
 92
        1
 93
        1
 72
     4
 94
        3
 73
     0
 74
     0
 95
       44
 96
       40
 40
0.0
 40
0.0
 40
0.0
 40
0.0
 40
1.0
 40
1.0
 40
1.0
 40
2.0
 40
2.0
 40
2.0
 40
3.0
 40
3.0
 40
3.0
 40
4.0
 40
4.0
 40
4.0
 40
5.0
 40
5.0
 40
5.0
 40
6.0
 40
6.0
 40
6.0
 40
7.0
 40
7.0
 40
7.0
 40
8.0
 40
8.0
 40
8.0
 40
9.0
 40
9.0
 40
9.0
 40
10.0
 40
10.0
 40
10.0
 40
11.0
 40
11.0
 40
11.0
 40
12.0
 40
12.0
 40
12.0
 40
13.0
 40
13.0
 40
13.0
 40
13.0
 10
89.2734483283761
 20
-140.9228366075644
 10
89.05554603893405
 20
-141.0814832546602
 10
88.96235620605803
 20
-141.155552807593
 10
88.913780359716
 20
-141.2993855441022
 10
88.913780359716
 20
-141.2993855441022
 10
89.69219968460819
 20
-141.2993855441022
 10
89.69219968460819
 20
-141.2993855441022
 10
89.69219968460819
 20
-141.2993855441022
 10
89.69219968460819
 20
-141.5045409802488
 10
89.69219968460819
 20
-141.5045409802488
 10
89.69219968460819
 20
-141.5045409802488
 10
88.66418319180965
 20
-141.5045409802488
 10
88.66418319180965
 20
-141.5045409802488
 10
88.69587807027395
 20
-141.1469400688799
 10
88.76150713926795
 20
-141.0687364013647
 10
89.14649655974463
 20
-140.7703911323421
 10
89.4024671542987
 20
-140.5716091228432
 10
89.46792396851844
 20
-140.503912996558
 10
89.46792396851844
 20
-140.3664536866966
 10
89.46792396851844
 20
-140.2479424020039
 10
89.39609372765097
 20
-140.116684264016
 10
89.19937877544322
 20
-140.116684264016
 10
88.93910181153259
 20
-140.116684264016
 10
88.93066132759372
 20
-140.3473334067534
 10
88.92635495823716
 20
-140.4637776341549
 10
88.92635495823716
 20
-140.4637776341549
 10
88.70225149692165
 20
-140.4637776341549
 10
88.70225149692165
 20
-140.4637776341549
 10
88.71069198086052
 20
-140.3368258655234
 10
88.72119952209054
 20
-140.2246880074785
 10
88.80164250167112
 20
-140.1061767227859
 10
88.91154104765059
 20
-139.945463018399
 10
89.09774845862834
 20
-139.9115288278693
 10
89.2141926860298
 20
-139.9115288278693
 10
89.49135061781815
 20
-139.9115288278693
 10
89.69857311125592
 20
-140.0956691815559
 10
89.69857311125592
 20
-140.3685207439877
 10
89.69857311125592
 20
-140.5969305746598
 10
89.58230113862873
 20
-140.6964938341835
 10
89.2734483283761
 20
-140.9228366075644
 97
        0
 97
        1
330
132
 75
     2
 76
     1
 98
        1
 10
0.0
 20
0.0
450
        0
451
        0
460
0.0
461
0.0
452
        0
462
0.0
453
        0
470

  0
SPLINE
  5
134
330
12E
100
AcDbEntity
  8
レイヤー 1
100
AcDbSpline
210
0.0
220
0.0
230
1.0
 70
    11
 71
     3
 72
    26
 73
    22
 74
     0
 42
0.0000000001
 43
0.0000000001
 40
0.0
 40
0.0
 40
0.0
 40
0.0
 40
1.0
 40
1.0
 40
1.0
 40
2.0
 40
2.0
 40
2.0
 40
3.0
 40
3.0
 40
3.0
 40
4.0
 40
4.0
 40
4.0
 40
5.0
 40
5.0
 40
5.0
 40
6.0
 40
6.0
 40
6.0
 40
7.0
 40
7.0
 40
7.0
 40
7.0
 10
90.30852726691939
 20
-141.5045409802488
 30
0.0
 10
90.30852726691939
 20
-141.5045409802488
 30
0.0
 10
90.30852726691939
 20
-140.400215622452
 30
0.0
 10
90.30852726691939
 20
-140.400215622452
 30
0.0
 10
90.30852726691939
 20
-140.400215622452
 30
0.0
 10
89.97848711943246
 20
-140.400215622452
 30
0.0
 10
89.97848711943246
 20
-140.400215622452
 30
0.0
 10
89.97848711943246
 20
-140.400215622452
 30
0.0
 10
89.97848711943246
 20
-140.2520765165863
 30
0.0
 10
89.97848711943246
 20
-140.2520765165863
 30
0.0
 10
90.31059432421056
 20
-140.237434860774
 30
0.0
 10
90.35710311326141
 20
-140.0744818443216
 30
0.0
 10
90.38673093443456
 20
-139.9602769289856
 30
0.0
 10
90.38673093443456
 20
-139.9602769289856
 30
0.0
 10
90.53280298300917
 20
-139.9602769289856
 30
0.0
 10
90.53280298300917
 20
-139.9602769289856
 30
0.0
 10
90.53280298300917
 20
-139.9602769289856
 30
0.0
 10
90.53280298300917
 20
-141.5045409802488
 30
0.0
 10
90.53280298300917
 20
-141.5045409802488
 30
0.0
 10
90.53280298300917
 20
-141.5045409802488
 30
0.0
 10
90.30852726691939
 20
-141.5045409802488
 30
0.0
 10
90.30852726691939
 20
-141.5045409802488
 30
0.0
  0
HATCH
  5
135
330
12E
100
AcDbEntity
  8
レイヤー 1
 62
   250
420
  2299925
440
 33554687
100
AcDbHatch
 10
0.0
 20
0.0
 30
0.0
210
0.0
220
0.0
230
1.0
  2
SOLID
 70
     1
 71
     1
 91
        1
 92
        1
 93
        1
 72
     4
 94
        3
 73
     0
 74
     0
 95
       26
 96
       22
 40
0.0
 40
0.0
 40
0.0
 40
0.0
 40
1.0
 40
1.0
 40
1.0
 40
2.0
 40
2.0
 40
2.0
 40
3.0
 40
3.0
 40
3.0
 40
4.0
 40
4.0
 40
4.0
 40
5.0
 40
5.0
 40
5.0
 40
6.0
 40
6.0
 40
6.0
 40
7.0
 40
7.0
 40
7.0
 40
7.0
 10
90.30852726691939
 20
-141.5045409802488
 10
90.30852726691939
 20
-141.5045409802488
 10
90.30852726691939
 20
-140.400215622452
 10
90.30852726691939
 20
-140.400215622452
 10
90.30852726691939
 20
-140.400215622452
 10
89.97848711943246
 20
-140.400215622452
 10
89.97848711943246
 20
-140.400215622452
 10
89.97848711943246
 20
-140.400215622452
 10
89.97848711943246
 20
-140.2520765165863
 10
89.97848711943246
 20
-140.2520765165863
 10
90.31059432421056
 20
-140.237434860774
 10
90.35710311326141
 20
-140.0744818443216
 10
90.38673093443456
 20
-139.9602769289856
 10
90.38673093443456
 20
-139.9602769289856
 10
90.53280298300917
 20
-139.9602769289856
 10
90.53280298300917
 20
-139.9602769289856
 10
90.53280298300917
 20
-139.9602769289856
 10
90.53280298300917
 20
-141.5045409802488
 10
90.53280298300917
 20
-141.5045409802488
 10
90.53280298300917
 20
-141.5045409802488
 10
90.30852726691939
 20
-141.5045409802488
 10
90.30852726691939
 20
-141.5045409802488
 97
        0
 97
        1
330
134
 75
     2
 76
     1
 98
        1
 10
0.0
 20
0.0
450
        0
451
        0
460
0.0
461
0.0
452
        0
462
0.0
453
        0
470

  0
ENDBLK
  5
131
330
12E
100
AcDbEntity
  8
0
100
AcDbBlockEnd
  0
BLOCK
  5
13A
330
138
100
AcDbEntity
  8
0
100
AcDbBlockBegin
  2
Block_8
 70
     0
 10
0.0
 20
0.0
 30
0.0
  3
Block_8
  1

  0
SPLINE
  5
13C
330
138
100
AcDbEntity
  8
レイヤー 1
100
AcDbSpline
210
0.0
220
0.0
230
1.0
 70
     9
 71
     3
 72
    53
 73
    49
 74
     0
 42
0.0000000001
 43
0.0000000001
 40
0.0
 40
0.0
 40
0.0
 40
0.0
 40
1.0
 40
1.0
 40
1.0
 40
2.0
 40
2.0
 40
2.0
 40
3.0
 40
3.0
 40
3.0
 40
4.0
 40
4.0
 40
4.0
 40
5.0
 40
5.0
 40
5.0
 40
6.0
 40
6.0
 40
6.0
 40
7.0
 40
7.0
 40
7.0
 40
8.0
 40
8.0
 40
8.0
 40
9.0
 40
9.0
 40
9.0
 40
10.0
 40
10.0
 40
10.0
 40
11.0
 40
11.0
 40
11.0
 40
12.0
 40
12.0
 40
12.0
 40
13.0
 40
13.0
 40
13.0
 40
14.0
 40
14.0
 40
14.0
 40
15.0
 40
15.0
 40
15.0
 40
16.0
 40
16.0
 40
16.0
 40
16.0
 10
76.5453708033463
 20
-150.7914848798368
 30
0.0
 10
76.5453708033463
 20
-150.869688547352
 30
0.0
 10
76.52831758069431
 20
-150.9713188641669
 30
0.0
 10
76.46492782376572
 20
-151.0729491809818
 30
0.0
 10
76.35485702301199
 20
-151.2462374838898
 30
0.0
 10
76.22377113979823
 20
-151.2675970758984
 30
0.0
 10
76.11593965110991
 20
-151.2865451010672
 30
0.0
 10
76.11593965110991
 20
-151.2865451010672
 30
0.0
 10
76.11593965110991
 20
-151.0643364422686
 30
0.0
 10
76.11593965110991
 20
-151.0643364422686
 30
0.0
 10
76.31472166060882
 20
-151.0095594240532
 30
0.0
 10
76.34434948178197
 20
-150.8824354006474
 30
0.0
 10
76.34434948178197
 20
-150.7894178225457
 30
0.0
 10
76.34434948178197
 20
-150.6498914553931
 30
0.0
 10
76.24495847703251
 20
-150.497618234945
 30
0.0
 10
76.01224227700389
 20
-150.497618234945
 30
0.0
 10
75.75627168244982
 20
-150.497618234945
 30
0.0
 10
75.68650849887352
 20
-150.6774522192751
 30
0.0
 10
75.68650849887352
 20
-150.7980305612588
 30
0.0
 10
75.68650849887352
 20
-150.8297254397231
 30
0.0
 10
75.68650849887352
 20
-150.9713188641669
 30
0.0
 10
75.81552732479612
 20
-151.0602023276863
 30
0.0
 10
75.81552732479612
 20
-151.0602023276863
 30
0.0
 10
75.79640704485298
 20
-151.2359021974341
 30
0.0
 10
75.79640704485298
 20
-151.2359021974341
 30
0.0
 10
75.79640704485298
 20
-151.2359021974341
 30
0.0
 10
74.95029159367563
 20
-151.1153238554503
 30
0.0
 10
74.95029159367563
 20
-151.1153238554503
 30
0.0
 10
74.95029159367563
 20
-151.1153238554503
 30
0.0
 10
74.95029159367563
 20
-150.3367322757839
 30
0.0
 10
74.95029159367563
 20
-150.3367322757839
 30
0.0
 10
74.95029159367563
 20
-150.3367322757839
 30
0.0
 10
75.14493948859224
 20
-150.3367322757839
 30
0.0
 10
75.14493948859224
 20
-150.3367322757839
 30
0.0
 10
75.14493948859224
 20
-150.3367322757839
 30
0.0
 10
75.14493948859224
 20
-150.952370838998
 30
0.0
 10
75.14493948859224
 20
-150.952370838998
 30
0.0
 10
75.14493948859224
 20
-150.952370838998
 30
0.0
 10
75.56799721418092
 20
-151.0178276532178
 30
0.0
 10
75.56799721418092
 20
-151.0178276532178
 30
0.0
 10
75.53406302365122
 20
-150.9565049535803
 30
0.0
 10
75.49392766124805
 20
-150.8741671714829
 30
0.0
 10
75.49392766124805
 20
-150.7556558867903
 30
0.0
 10
75.49392766124805
 20
-150.5017523495273
 30
0.0
 10
75.6801350722258
 20
-150.2647297801421
 30
0.0
 10
75.99312199706075
 20
-150.2647297801421
 30
0.0
 10
76.31058754602652
 20
-150.2647297801421
 30
0.0
 10
76.5453708033463
 20
-150.4890054962319
 30
0.0
 10
76.5453708033463
 20
-150.7914848798368
 30
0.0
  0
HATCH
  5
13D
330
138
100
AcDbEntity
  8
レイヤー 1
 62
   250
420
  2299925
440
 33554687
100
AcDbHatch
 10
0.0
 20
0.0
 30
0.0
210
0.0
220
0.0
230
1.0
  2
SOLID
 70
     1
 71
     1
 91
        1
 92
        1
 93
        1
 72
     4
 94
        3
 73
     0
 74
     0
 95
       53
 96
       49
 40
0.0
 40
0.0
 40
0.0
 40
0.0
 40
1.0
 40
1.0
 40
1.0
 40
2.0
 40
2.0
 40
2.0
 40
3.0
 40
3.0
 40
3.0
 40
4.0
 40
4.0
 40
4.0
 40
5.0
 40
5.0
 40
5.0
 40
6.0
 40
6.0
 40
6.0
 40
7.0
 40
7.0
 40
7.0
 40
8.0
 40
8.0
 40
8.0
 40
9.0
 40
9.0
 40
9.0
 40
10.0
 40
10.0
 40
10.0
 40
11.0
 40
11.0
 40
11.0
 40
12.0
 40
12.0
 40
12.0
 40
13.0
 40
13.0
 40
13.0
 40
14.0
 40
14.0
 40
14.0
 40
15.0
 40
15.0
 40
15.0
 40
16.0
 40
16.0
 40
16.0
 40
16.0
 10
76.5453708033463
 20
-150.7914848798368
 10
76.5453708033463
 20
-150.869688547352
 10
76.52831758069431
 20
-150.9713188641669
 10
76.46492782376572
 20
-151.0729491809818
 10
76.35485702301199
 20
-151.2462374838898
 10
76.22377113979823
 20
-151.2675970758984
 10
76.11593965110991
 20
-151.2865451010672
 10
76.11593965110991
 20
-151.2865451010672
 10
76.11593965110991
 20
-151.0643364422686
 10
76.11593965110991
 20
-151.0643364422686
 10
76.31472166060882
 20
-151.0095594240532
 10
76.34434948178197
 20
-150.8824354006474
 10
76.34434948178197
 20
-150.7894178225457
 10
76.34434948178197
 20
-150.6498914553931
 10
76.24495847703251
 20
-150.497618234945
 10
76.01224227700389
 20
-150.497618234945
 10
75.75627168244982
 20
-150.497618234945
 10
75.68650849887352
 20
-150.6774522192751
 10
75.68650849887352
 20
-150.7980305612588
 10
75.68650849887352
 20
-150.8297254397231
 10
75.68650849887352
 20
-150.9713188641669
 10
75.81552732479612
 20
-151.0602023276863
 10
75.81552732479612
 20
-151.0602023276863
 10
75.79640704485298
 20
-151.2359021974341
 10
75.79640704485298
 20
-151.2359021974341
 10
75.79640704485298
 20
-151.2359021974341
 10
74.95029159367563
 20
-151.1153238554503
 10
74.95029159367563
 20
-151.1153238554503
 10
74.95029159367563
 20
-151.1153238554503
 10
74.95029159367563
 20
-150.3367322757839
 10
74.95029159367563
 20
-150.3367322757839
 10
74.95029159367563
 20
-150.3367322757839
 10
75.14493948859224
 20
-150.3367322757839
 10
75.14493948859224
 20
-150.3367322757839
 10
75.14493948859224
 20
-150.3367322757839
 10
75.14493948859224
 20
-150.952370838998
 10
75.14493948859224
 20
-150.952370838998
 10
75.14493948859224
 20
-150.952370838998
 10
75.56799721418092
 20
-151.0178276532178
 10
75.56799721418092
 20
-151.0178276532178
 10
75.53406302365122
 20
-150.9565049535803
 10
75.49392766124805
 20
-150.8741671714829
 10
75.49392766124805
 20
-150.7556558867903
 10
75.49392766124805
 20
-150.5017523495273
 10
75.6801350722258
 20
-150.2647297801421
 10
75.99312199706075
 20
-150.2647297801421
 10
76.31058754602652
 20
-150.2647297801421
 10
76.5453708033463
 20
-150.4890054962319
 10
76.5453708033463
 20
-150.7914848798368
 97
        0
 97
        1
330
13C
 75
     2
 76
     1
 98
        1
 10
0.0
 20
0.0
450
        0
451
        0
460
0.0
461
0.0
452
        0
462
0.0
453
        0
470

  0
ENDBLK
  5
13B
330
138
100
AcDbEntity
  8
0
100
AcDbBlockEnd
  0
BLOCK
  5
142
330
140
100
AcDbEntity
  8
0
100
AcDbBlockBegin
  2
Block_9
 70
     0
 10
0.0
 20
0.0
 30
0.0
  3
Block_9
  1

  0
INSERT
  5
145
330
140
100
AcDbEntity
  8
レイヤー 1
100
AcDbBlockReference
  2
Block_10
 10
0.0
 20
0.0
 30
0.0
  0
ENDBLK
  5
143
330
140
100
AcDbEntity
  8
0
100
AcDbBlockEnd
  0
BLOCK
  5
146
330
144
100
AcDbEntity
  8
0
100
AcDbBlockBegin
  2
Block_10
 70
     0
 10
0.0
 20
0.0
 30
0.0
  3
Block_10
  1

  0
SPLINE
  5
148
330
144
100
AcDbEntity
  8
レイヤー 1
100
AcDbSpline
210
0.0
220
0.0
230
1.0
 70
     9
 71
     3
 72
    44
 73
    40
 74
     0
 42
0.0000000001
 43
0.0000000001
 40
0.0
 40
0.0
 40
0.0
 40
0.0
 40
1.0
 40
1.0
 40
1.0
 40
2.0
 40
2.0
 40
2.0
 40
3.0
 40
3.0
 40
3.0
 40
4.0
 40
4.0
 40
4.0
 40
5.0
 40
5.0
 40
5.0
 40
6.0
 40
6.0
 40
6.0
 40
7.0
 40
7.0
 40
7.0
 40
8.0
 40
8.0
 40
8.0
 40
9.0
 40
9.0
 40
9.0
 40
10.0
 40
10.0
 40
10.0
 40
11.0
 40
11.0
 40
11.0
 40
12.0
 40
12.0
 40
12.0
 40
13.0
 40
13.0
 40
13.0
 40
13.0
 10
120.2744845619452
 20
-140.9228366075644
 30
0.0
 10
120.0567545272775
 20
-141.0814832546602
 30
0.0
 10
119.9637369491757
 20
-141.155552807593
 30
0.0
 10
119.9148165932852
 20
-141.2993855441022
 30
0.0
 10
119.9148165932852
 20
-141.2993855441022
 30
0.0
 10
120.6934081729516
 20
-141.2993855441022
 30
0.0
 10
120.6934081729516
 20
-141.2993855441022
 30
0.0
 10
120.6934081729516
 20
-141.2993855441022
 30
0.0
 10
120.6934081729516
 20
-141.5045409802488
 30
0.0
 10
120.6934081729516
 20
-141.5045409802488
 30
0.0
 10
120.6934081729516
 20
-141.5045409802488
 30
0.0
 10
119.6653916801531
 20
-141.5045409802488
 30
0.0
 10
119.6653916801531
 20
-141.5045409802488
 30
0.0
 10
119.6970865586174
 20
-141.1469400688799
 30
0.0
 10
119.7625433728371
 20
-141.0687364013647
 30
0.0
 10
120.1477050480881
 20
-140.7703911323421
 30
0.0
 10
120.4036756426421
 20
-140.5716091228432
 30
0.0
 10
120.4691324568619
 20
-140.503912996558
 30
0.0
 10
120.4691324568619
 20
-140.3664536866966
 30
0.0
 10
120.4691324568619
 20
-140.2479424020039
 30
0.0
 10
120.3971299612202
 20
-140.116684264016
 30
0.0
 10
120.2004150090124
 20
-140.116684264016
 30
0.0
 10
119.940310299876
 20
-140.116684264016
 30
0.0
 10
119.9320420707114
 20
-140.3473334067534
 30
0.0
 10
119.9275634465806
 20
-140.4637776341549
 30
0.0
 10
119.9275634465806
 20
-140.4637776341549
 30
0.0
 10
119.7032877304908
 20
-140.4637776341549
 30
0.0
 10
119.7032877304908
 20
-140.4637776341549
 30
0.0
 10
119.7119004692039
 20
-140.3368258655234
 30
0.0
 10
119.7225802652082
 20
-140.2246880074785
 30
0.0
 10
119.8028509900145
 20
-140.1061767227859
 30
0.0
 10
119.912749535994
 20
-139.945463018399
 30
0.0
 10
120.099129201746
 20
-139.9115288278693
 30
0.0
 10
120.2152289195989
 20
-139.9115288278693
 30
0.0
 10
120.4925591061616
 20
-139.9115288278693
 30
0.0
 10
120.6999538543736
 20
-140.0956691815559
 30
0.0
 10
120.6999538543736
 20
-140.3685207439877
 30
0.0
 10
120.6999538543736
 20
-140.5969305746598
 30
0.0
 10
120.5835096269722
 20
-140.6964938341835
 30
0.0
 10
120.2744845619452
 20
-140.9228366075644
 30
0.0
  0
HATCH
  5
149
330
144
100
AcDbEntity
  8
レイヤー 1
 62
   250
420
  2299925
440
 33554687
100
AcDbHatch
 10
0.0
 20
0.0
 30
0.0
210
0.0
220
0.0
230
1.0
  2
SOLID
 70
     1
 71
     1
 91
        1
 92
        1
 93
        1
 72
     4
 94
        3
 73
     0
 74
     0
 95
       44
 96
       40
 40
0.0
 40
0.0
 40
0.0
 40
0.0
 40
1.0
 40
1.0
 40
1.0
 40
2.0
 40
2.0
 40
2.0
 40
3.0
 40
3.0
 40
3.0
 40
4.0
 40
4.0
 40
4.0
 40
5.0
 40
5.0
 40
5.0
 40
6.0
 40
6.0
 40
6.0
 40
7.0
 40
7.0
 40
7.0
 40
8.0
 40
8.0
 40
8.0
 40
9.0
 40
9.0
 40
9.0
 40
10.0
 40
10.0
 40
10.0
 40
11.0
 40
11.0
 40
11.0
 40
12.0
 40
12.0
 40
12.0
 40
13.0
 40
13.0
 40
13.0
 40
13.0
 10
120.2744845619452
 20
-140.9228366075644
 10
120.0567545272775
 20
-141.0814832546602
 10
119.9637369491757
 20
-141.155552807593
 10
119.9148165932852
 20
-141.2993855441022
 10
119.9148165932852
 20
-141.2993855441022
 10
120.6934081729516
 20
-141.2993855441022
 10
120.6934081729516
 20
-141.2993855441022
 10
120.6934081729516
 20
-141.2993855441022
 10
120.6934081729516
 20
-141.5045409802488
 10
120.6934081729516
 20
-141.5045409802488
 10
120.6934081729516
 20
-141.5045409802488
 10
119.6653916801531
 20
-141.5045409802488
 10
119.6653916801531
 20
-141.5045409802488
 10
119.6970865586174
 20
-141.1469400688799
 10
119.7625433728371
 20
-141.0687364013647
 10
120.1477050480881
 20
-140.7703911323421
 10
120.4036756426421
 20
-140.5716091228432
 10
120.4691324568619
 20
-140.503912996558
 10
120.4691324568619
 20
-140.3664536866966
 10
120.4691324568619
 20
-140.2479424020039
 10
120.3971299612202
 20
-140.116684264016
 10
120.2004150090124
 20
-140.116684264016
 10
119.940310299876
 20
-140.116684264016
 10
119.9320420707114
 20
-140.3473334067534
 10
119.9275634465806
 20
-140.4637776341549
 10
119.9275634465806
 20
-140.4637776341549
 10
119.7032877304908
 20
-140.4637776341549
 10
119.7032877304908
 20
-140.4637776341549
 10
119.7119004692039
 20
-140.3368258655234
 10
119.7225802652082
 20
-140.2246880074785
 10
119.8028509900145
 20
-140.1061767227859
 10
119.912749535994
 20
-139.945463018399
 10
120.099129201746
 20
-139.9115288278693
 10
120.2152289195989
 20
-139.9115288278693
 10
120.4925591061616
 20
-139.9115288278693
 10
120.6999538543736
 20
-140.0956691815559
 10
120.6999538543736
 20
-140.3685207439877
 10
120.6999538543736
 20
-140.5969305746598
 10
120.5835096269722
 20
-140.6964938341835
 10
120.2744845619452
 20
-140.9228366075644
 97
        0
 97
        1
330
148
 75
     2
 76
     1
 98
        1
 10
0.0
 20
0.0
450
        0
451
        0
460
0.0
461
0.0
452
        0
462
0.0
453
        0
470

  0
SPLINE
  5
14A
330
144
100
AcDbEntity
  8
レイヤー 1
100
AcDbSpline
210
0.0
220
0.0
230
1.0
 70
    11
 71
     3
 72
    26
 73
    22
 74
     0
 42
0.0000000001
 43
0.0000000001
 40
0.0
 40
0.0
 40
0.0
 40
0.0
 40
1.0
 40
1.0
 40
1.0
 40
2.0
 40
2.0
 40
2.0
 40
3.0
 40
3.0
 40
3.0
 40
4.0
 40
4.0
 40
4.0
 40
5.0
 40
5.0
 40
5.0
 40
6.0
 40
6.0
 40
6.0
 40
7.0
 40
7.0
 40
7.0
 40
7.0
 10
121.3097357552628
 20
-141.5045409802488
 30
0.0
 10
121.3097357552628
 20
-141.5045409802488
 30
0.0
 10
121.3097357552628
 20
-140.400215622452
 30
0.0
 10
121.3097357552628
 20
-140.400215622452
 30
0.0
 10
121.3097357552628
 20
-140.400215622452
 30
0.0
 10
120.9796956077759
 20
-140.400215622452
 30
0.0
 10
120.9796956077759
 20
-140.400215622452
 30
0.0
 10
120.9796956077759
 20
-140.400215622452
 30
0.0
 10
120.9796956077759
 20
-140.2520765165863
 30
0.0
 10
120.9796956077759
 20
-140.2520765165863
 30
0.0
 10
121.311802812554
 20
-140.237434860774
 30
0.0
 10
121.3583116016048
 20
-140.0744818443216
 30
0.0
 10
121.387939422778
 20
-139.9602769289856
 30
0.0
 10
121.387939422778
 20
-139.9602769289856
 30
0.0
 10
121.5340114713526
 20
-139.9602769289856
 30
0.0
 10
121.5340114713526
 20
-139.9602769289856
 30
0.0
 10
121.5340114713526
 20
-139.9602769289856
 30
0.0
 10
121.5340114713526
 20
-141.5045409802488
 30
0.0
 10
121.5340114713526
 20
-141.5045409802488
 30
0.0
 10
121.5340114713526
 20
-141.5045409802488
 30
0.0
 10
121.3097357552628
 20
-141.5045409802488
 30
0.0
 10
121.3097357552628
 20
-141.5045409802488
 30
0.0
  0
HATCH
  5
14B
330
144
100
AcDbEntity
  8
レイヤー 1
 62
   250
420
  2299925
440
 33554687
100
AcDbHatch
 10
0.0
 20
0.0
 30
0.0
210
0.0
220
0.0
230
1.0
  2
SOLID
 70
     1
 71
     1
 91
        1
 92
        1
 93
        1
 72
     4
 94
        3
 73
     0
 74
     0
 95
       26
 96
       22
 40
0.0
 40
0.0
 40
0.0
 40
0.0
 40
1.0
 40
1.0
 40
1.0
 40
2.0
 40
2.0
 40
2.0
 40
3.0
 40
3.0
 40
3.0
 40
4.0
 40
4.0
 40
4.0
 40
5.0
 40
5.0
 40
5.0
 40
6.0
 40
6.0
 40
6.0
 40
7.0
 40
7.0
 40
7.0
 40
7.0
 10
121.3097357552628
 20
-141.5045409802488
 10
121.3097357552628
 20
-141.5045409802488
 10
121.3097357552628
 20
-140.400215622452
 10
121.3097357552628
 20
-140.400215622452
 10
121.3097357552628
 20
-140.400215622452
 10
120.9796956077759
 20
-140.400215622452
 10
120.9796956077759
 20
-140.400215622452
 10
120.9796956077759
 20
-140.400215622452
 10
120.9796956077759
 20
-140.2520765165863
 10
120.9796956077759
 20
-140.2520765165863
 10
121.311802812554
 20
-140.237434860774
 10
121.3583116016048
 20
-140.0744818443216
 10
121.387939422778
 20
-139.9602769289856
 10
121.387939422778
 20
-139.9602769289856
 10
121.5340114713526
 20
-139.9602769289856
 10
121.5340114713526
 20
-139.9602769289856
 10
121.5340114713526
 20
-139.9602769289856
 10
121.5340114713526
 20
-141.5045409802488
 10
121.5340114713526
 20
-141.5045409802488
 10
121.5340114713526
 20
-141.5045409802488
 10
121.3097357552628
 20
-141.5045409802488
 10
121.3097357552628
 20
-141.5045409802488
 97
        0
 97
        1
330
14A
 75
     2
 76
     1
 98
        1
 10
0.0
 20
0.0
450
        0
451
        0
460
0.0
461
0.0
452
        0
462
0.0
453
        0
470

  0
ENDBLK
  5
147
330
144
100
AcDbEntity
  8
0
100
AcDbBlockEnd
  0
BLOCK
  5
151
330
14F
100
AcDbEntity
  8
0
100
AcDbBlockBegin
  2
Block_11
 70
     0
 10
0.0
 20
0.0
 30
0.0
  3
Block_11
  1

  0
SPLINE
  5
153
330
14F
100
AcDbEntity
  8
レイヤー 1
100
AcDbSpline
210
0.0
220
0.0
230
1.0
 70
     9
 71
     3
 72
    17
 73
    13
 74
     0
 42
0.0000000001
 43
0.0000000001
 40
0.0
 40
0.0
 40
0.0
 40
0.0
 40
1.0
 40
1.0
 40
1.0
 40
2.0
 40
2.0
 40
2.0
 40
3.0
 40
3.0
 40
3.0
 40
4.0
 40
4.0
 40
4.0
 40
4.0
 10
104.2186170529384
 20
-140.1041096654948
 30
0.0
 10
104.0535969791949
 20
-140.1041096654948
 30
0.0
 10
103.9688476302578
 20
-140.1991943008877
 30
0.0
 10
103.9688476302578
 20
-140.334586553458
 30
0.0
 10
103.9688476302578
 20
-140.4574042075072
 30
0.0
 10
104.0408501258995
 20
-140.5759154921998
 30
0.0
 10
104.2186170529384
 20
-140.5759154921998
 30
0.0
 10
104.3963839799773
 20
-140.5759154921998
 30
0.0
 10
104.468386475619
 20
-140.4574042075072
 30
0.0
 10
104.468386475619
 20
-140.334586553458
 30
0.0
 10
104.468386475619
 20
-140.1991943008877
 30
0.0
 10
104.3815700693907
 20
-140.1041096654948
 30
0.0
 10
104.2186170529384
 20
-140.1041096654948
 30
0.0
  0
SPLINE
  5
154
330
14F
100
AcDbEntity
  8
レイヤー 1
100
AcDbSpline
210
0.0
220
0.0
230
1.0
 70
     9
 71
     3
 72
    17
 73
    13
 74
     0
 42
0.0000000001
 43
0.0000000001
 40
0.0
 40
0.0
 40
0.0
 40
0.0
 40
1.0
 40
1.0
 40
1.0
 40
2.0
 40
2.0
 40
2.0
 40
3.0
 40
3.0
 40
3.0
 40
4.0
 40
4.0
 40
4.0
 40
4.0
 10
104.2186170529384
 20
-140.7641899604687
 30
0.0
 10
104.0749565712035
 20
-140.7641899604687
 30
0.0
 10
103.9223388412069
 20
-140.8508341119227
 30
0.0
 10
103.9223388412069
 20
-141.0539224907782
 30
0.0
 10
103.9223388412069
 20
-141.2590779269248
 30
0.0
 10
104.0494628646126
 20
-141.3607082437397
 30
0.0
 10
104.2186170529384
 20
-141.3607082437397
 30
0.0
 10
104.4046522091419
 20
-141.3607082437397
 30
0.0
 10
104.5148952646699
 20
-141.2380628444648
 30
0.0
 10
104.5148952646699
 20
-141.0602959174259
 30
0.0
 10
104.5148952646699
 20
-140.8380872586273
 30
0.0
 10
104.3519422482175
 20
-140.7641899604687
 30
0.0
 10
104.2186170529384
 20
-140.7641899604687
 30
0.0
  0
SPLINE
  5
155
330
14F
100
AcDbEntity
  8
レイヤー 1
100
AcDbSpline
210
0.0
220
0.0
230
1.0
 70
     9
 71
     3
 72
    29
 73
    25
 74
     0
 42
0.0000000001
 43
0.0000000001
 40
0.0
 40
0.0
 40
0.0
 40
0.0
 40
1.0
 40
1.0
 40
1.0
 40
2.0
 40
2.0
 40
2.0
 40
3.0
 40
3.0
 40
3.0
 40
4.0
 40
4.0
 40
4.0
 40
5.0
 40
5.0
 40
5.0
 40
6.0
 40
6.0
 40
6.0
 40
7.0
 40
7.0
 40
7.0
 40
8.0
 40
8.0
 40
8.0
 40
8.0
 10
104.2186170529384
 20
-141.5553561386563
 30
0.0
 10
103.95196666238
 20
-141.5553561386563
 30
0.0
 10
103.6980631251171
 20
-141.4177245740205
 30
0.0
 10
103.6980631251171
 20
-141.0687364013647
 30
0.0
 10
103.6980631251171
 20
-140.8127658068107
 30
0.0
 10
103.8400010591094
 20
-140.7175089166435
 30
0.0
 10
103.9457654905066
 20
-140.6561862170061
 30
0.0
 10
103.8210530339406
 20
-140.5969305746598
 30
0.0
 10
103.7449164237165
 20
-140.4827256593237
 30
0.0
 10
103.7449164237165
 20
-140.3220119549368
 30
0.0
 10
103.7449164237165
 20
-140.0469210804396
 30
0.0
 10
103.9436984332154
 20
-139.9115288278693
 30
0.0
 10
104.2186170529384
 20
-139.9115288278693
 30
0.0
 10
104.5021484113744
 20
-139.9115288278693
 30
0.0
 10
104.6926621917088
 20
-140.0553615643785
 30
0.0
 10
104.6926621917088
 20
-140.3220119549368
 30
0.0
 10
104.6926621917088
 20
-140.4827256593237
 30
0.0
 10
104.6141140146451
 20
-140.5969305746598
 30
0.0
 10
104.489401558079
 20
-140.6561862170061
 30
0.0
 10
104.5782850215985
 20
-140.7070013754135
 30
0.0
 10
104.7371039234685
 20
-140.8022582655807
 30
0.0
 10
104.7371039234685
 20
-141.0644300320082
 30
0.0
 10
104.7371039234685
 20
-141.4389119112548
 30
0.0
 10
104.4577066796147
 20
-141.5553561386563
 30
0.0
 10
104.2186170529384
 20
-141.5553561386563
 30
0.0
  0
HATCH
  5
156
330
14F
100
AcDbEntity
  8
レイヤー 1
 62
   250
420
  2299925
440
 33554687
100
AcDbHatch
 10
0.0
 20
0.0
 30
0.0
210
0.0
220
0.0
230
1.0
  2
SOLID
 70
     1
 71
     1
 91
        3
 92
        1
 93
        1
 72
     4
 94
        3
 73
     0
 74
     0
 95
       17
 96
       13
 40
0.0
 40
0.0
 40
0.0
 40
0.0
 40
1.0
 40
1.0
 40
1.0
 40
2.0
 40
2.0
 40
2.0
 40
3.0
 40
3.0
 40
3.0
 40
4.0
 40
4.0
 40
4.0
 40
4.0
 10
104.2186170529384
 20
-140.1041096654948
 10
104.0535969791949
 20
-140.1041096654948
 10
103.9688476302578
 20
-140.1991943008877
 10
103.9688476302578
 20
-140.334586553458
 10
103.9688476302578
 20
-140.4574042075072
 10
104.0408501258995
 20
-140.5759154921998
 10
104.2186170529384
 20
-140.5759154921998
 10
104.3963839799773
 20
-140.5759154921998
 10
104.468386475619
 20
-140.4574042075072
 10
104.468386475619
 20
-140.334586553458
 10
104.468386475619
 20
-140.1991943008877
 10
104.3815700693907
 20
-140.1041096654948
 10
104.2186170529384
 20
-140.1041096654948
 97
        0
 97
        1
330
153
 92
        1
 93
        1
 72
     4
 94
        3
 73
     0
 74
     0
 95
       17
 96
       13
 40
0.0
 40
0.0
 40
0.0
 40
0.0
 40
1.0
 40
1.0
 40
1.0
 40
2.0
 40
2.0
 40
2.0
 40
3.0
 40
3.0
 40
3.0
 40
4.0
 40
4.0
 40
4.0
 40
4.0
 10
104.2186170529384
 20
-140.7641899604687
 10
104.0749565712035
 20
-140.7641899604687
 10
103.9223388412069
 20
-140.8508341119227
 10
103.9223388412069
 20
-141.0539224907782
 10
103.9223388412069
 20
-141.2590779269248
 10
104.0494628646126
 20
-141.3607082437397
 10
104.2186170529384
 20
-141.3607082437397
 10
104.4046522091419
 20
-141.3607082437397
 10
104.5148952646699
 20
-141.2380628444648
 10
104.5148952646699
 20
-141.0602959174259
 10
104.5148952646699
 20
-140.8380872586273
 10
104.3519422482175
 20
-140.7641899604687
 10
104.2186170529384
 20
-140.7641899604687
 97
        0
 97
        1
330
154
 92
        1
 93
        1
 72
     4
 94
        3
 73
     0
 74
     0
 95
       29
 96
       25
 40
0.0
 40
0.0
 40
0.0
 40
0.0
 40
1.0
 40
1.0
 40
1.0
 40
2.0
 40
2.0
 40
2.0
 40
3.0
 40
3.0
 40
3.0
 40
4.0
 40
4.0
 40
4.0
 40
5.0
 40
5.0
 40
5.0
 40
6.0
 40
6.0
 40
6.0
 40
7.0
 40
7.0
 40
7.0
 40
8.0
 40
8.0
 40
8.0
 40
8.0
 10
104.2186170529384
 20
-141.5553561386563
 10
103.95196666238
 20
-141.5553561386563
 10
103.6980631251171
 20
-141.4177245740205
 10
103.6980631251171
 20
-141.0687364013647
 10
103.6980631251171
 20
-140.8127658068107
 10
103.8400010591094
 20
-140.7175089166435
 10
103.9457654905066
 20
-140.6561862170061
 10
103.8210530339406
 20
-140.5969305746598
 10
103.7449164237165
 20
-140.4827256593237
 10
103.7449164237165
 20
-140.3220119549368
 10
103.7449164237165
 20
-140.0469210804396
 10
103.9436984332154
 20
-139.9115288278693
 10
104.2186170529384
 20
-139.9115288278693
 10
104.5021484113744
 20
-139.9115288278693
 10
104.6926621917088
 20
-140.0553615643785
 10
104.6926621917088
 20
-140.3220119549368
 10
104.6926621917088
 20
-140.4827256593237
 10
104.6141140146451
 20
-140.5969305746598
 10
104.489401558079
 20
-140.6561862170061
 10
104.5782850215985
 20
-140.7070013754135
 10
104.7371039234685
 20
-140.8022582655807
 10
104.7371039234685
 20
-141.0644300320082
 10
104.7371039234685
 20
-141.4389119112548
 10
104.4577066796147
 20
-141.5553561386563
 10
104.2186170529384
 20
-141.5553561386563
 97
        0
 97
        1
330
155
 75
     2
 76
     1
 98
        1
 10
0.0
 20
0.0
450
        0
451
        0
460
0.0
461
0.0
452
        0
462
0.0
453
        0
470

  0
ENDBLK
  5
152
330
14F
100
AcDbEntity
  8
0
100
AcDbBlockEnd
  0
BLOCK
  5
15A
330
158
100
AcDbEntity
  8
0
100
AcDbBlockBegin
  2
Block_12
 70
     0
 10
0.0
 20
0.0
 30
0.0
  3
Block_12
  1

  0
SPLINE
  5
15C
330
158
100
AcDbEntity
  8
レイヤー 1
100
AcDbSpline
210
0.0
220
0.0
230
1.0
 70
    11
 71
     3
 72
    26
 73
    22
 74
     0
 42
0.0000000001
 43
0.0000000001
 40
0.0
 40
0.0
 40
0.0
 40
0.0
 40
1.0
 40
1.0
 40
1.0
 40
2.0
 40
2.0
 40
2.0
 40
3.0
 40
3.0
 40
3.0
 40
4.0
 40
4.0
 40
4.0
 40
5.0
 40
5.0
 40
5.0
 40
6.0
 40
6.0
 40
6.0
 40
7.0
 40
7.0
 40
7.0
 40
7.0
 10
111.929085258476
 20
-149.6666612039027
 30
0.0
 10
111.929085258476
 20
-149.6666612039027
 30
0.0
 10
111.929085258476
 20
-148.5623358461059
 30
0.0
 10
111.929085258476
 20
-148.5623358461059
 30
0.0
 10
111.929085258476
 20
-148.5623358461059
 30
0.0
 10
111.5990451109891
 20
-148.5623358461059
 30
0.0
 10
111.5990451109891
 20
-148.5623358461059
 30
0.0
 10
111.5990451109891
 20
-148.5623358461059
 30
0.0
 10
111.5990451109891
 20
-148.4141967402402
 30
0.0
 10
111.5990451109891
 20
-148.4141967402402
 30
0.0
 10
111.9311523157672
 20
-148.3995550844279
 30
0.0
 10
111.9776611048181
 20
-148.2366020679755
 30
0.0
 10
112.0072889259912
 20
-148.1223971526395
 30
0.0
 10
112.0072889259912
 20
-148.1223971526395
 30
0.0
 10
112.1533609745658
 20
-148.1223971526395
 30
0.0
 10
112.1533609745658
 20
-148.1223971526395
 30
0.0
 10
112.1533609745658
 20
-148.1223971526395
 30
0.0
 10
112.1533609745658
 20
-149.6666612039027
 30
0.0
 10
112.1533609745658
 20
-149.6666612039027
 30
0.0
 10
112.1533609745658
 20
-149.6666612039027
 30
0.0
 10
111.929085258476
 20
-149.6666612039027
 30
0.0
 10
111.929085258476
 20
-149.6666612039027
 30
0.0
  0
HATCH
  5
15D
330
158
100
AcDbEntity
  8
レイヤー 1
 62
   250
420
  2299925
440
 33554687
100
AcDbHatch
 10
0.0
 20
0.0
 30
0.0
210
0.0
220
0.0
230
1.0
  2
SOLID
 70
     1
 71
     1
 91
        1
 92
        1
 93
        1
 72
     4
 94
        3
 73
     0
 74
     0
 95
       26
 96
       22
 40
0.0
 40
0.0
 40
0.0
 40
0.0
 40
1.0
 40
1.0
 40
1.0
 40
2.0
 40
2.0
 40
2.0
 40
3.0
 40
3.0
 40
3.0
 40
4.0
 40
4.0
 40
4.0
 40
5.0
 40
5.0
 40
5.0
 40
6.0
 40
6.0
 40
6.0
 40
7.0
 40
7.0
 40
7.0
 40
7.0
 10
111.929085258476
 20
-149.6666612039027
 10
111.929085258476
 20
-149.6666612039027
 10
111.929085258476
 20
-148.5623358461059
 10
111.929085258476
 20
-148.5623358461059
 10
111.929085258476
 20
-148.5623358461059
 10
111.5990451109891
 20
-148.5623358461059
 10
111.5990451109891
 20
-148.5623358461059
 10
111.5990451109891
 20
-148.5623358461059
 10
111.5990451109891
 20
-148.4141967402402
 10
111.5990451109891
 20
-148.4141967402402
 10
111.9311523157672
 20
-148.3995550844279
 10
111.9776611048181
 20
-148.2366020679755
 10
112.0072889259912
 20
-148.1223971526395
 10
112.0072889259912
 20
-148.1223971526395
 10
112.1533609745658
 20
-148.1223971526395
 10
112.1533609745658
 20
-148.1223971526395
 10
112.1533609745658
 20
-148.1223971526395
 10
112.1533609745658
 20
-149.6666612039027
 10
112.1533609745658
 20
-149.6666612039027
 10
112.1533609745658
 20
-149.6666612039027
 10
111.929085258476
 20
-149.6666612039027
 10
111.929085258476
 20
-149.6666612039027
 97
        0
 97
        1
330
15C
 75
     2
 76
     1
 98
        1
 10
0.0
 20
0.0
450
        0
451
        0
460
0.0
461
0.0
452
        0
462
0.0
453
        0
470

  0
ENDBLK
  5
15B
330
158
100
AcDbEntity
  8
0
100
AcDbBlockEnd
  0
BLOCK
  5
165
330
163
100
AcDbEntity
  8
0
100
AcDbBlockBegin
  2
Block_13
 70
     0
 10
0.0
 20
0.0
 30
0.0
  3
Block_13
  1

  0
INSERT
  5
168
330
163
100
AcDbEntity
  8
レイヤー 1
100
AcDbBlockReference
  2
Block_14
 10
0.0
 20
0.0
 30
0.0
  0
ENDBLK
  5
166
330
163
100
AcDbEntity
  8
0
100
AcDbBlockEnd
  0
BLOCK
  5
169
330
167
100
AcDbEntity
  8
0
100
AcDbBlockBegin
  2
Block_14
 70
     0
 10
0.0
 20
0.0
 30
0.0
  3
Block_14
  1

  0
SPLINE
  5
16B
330
167
100
AcDbEntity
  8
レイヤー 1
100
AcDbSpline
210
0.0
220
0.0
230
1.0
 70
    11
 71
     3
 72
    26
 73
    22
 74
     0
 42
0.0000000001
 43
0.0000000001
 40
0.0
 40
0.0
 40
0.0
 40
0.0
 40
1.0
 40
1.0
 40
1.0
 40
2.0
 40
2.0
 40
2.0
 40
3.0
 40
3.0
 40
3.0
 40
4.0
 40
4.0
 40
4.0
 40
5.0
 40
5.0
 40
5.0
 40
6.0
 40
6.0
 40
6.0
 40
7.0
 40
7.0
 40
7.0
 40
7.0
 10
103.7597303343031
 20
-156.2340467274345
 30
0.0
 10
103.7597303343031
 20
-156.2340467274345
 30
0.0
 10
103.7597303343031
 20
-155.129893624412
 30
0.0
 10
103.7597303343031
 20
-155.129893624412
 30
0.0
 10
103.7597303343031
 20
-155.129893624412
 30
0.0
 10
103.4296901868162
 20
-155.129893624412
 30
0.0
 10
103.4296901868162
 20
-155.129893624412
 30
0.0
 10
103.4296901868162
 20
-155.129893624412
 30
0.0
 10
103.4296901868162
 20
-154.9817545185462
 30
0.0
 10
103.4296901868162
 20
-154.9817545185462
 30
0.0
 10
103.7617973915943
 20
-154.9669406079596
 30
0.0
 10
103.8083061806451
 20
-154.8039875915073
 30
0.0
 10
103.8379340018183
 20
-154.689610421397
 30
0.0
 10
103.8379340018183
 20
-154.689610421397
 30
0.0
 10
103.9840060503929
 20
-154.689610421397
 30
0.0
 10
103.9840060503929
 20
-154.689610421397
 30
0.0
 10
103.9840060503929
 20
-154.689610421397
 30
0.0
 10
103.9840060503929
 20
-156.2340467274345
 30
0.0
 10
103.9840060503929
 20
-156.2340467274345
 30
0.0
 10
103.9840060503929
 20
-156.2340467274345
 30
0.0
 10
103.7597303343031
 20
-156.2340467274345
 30
0.0
 10
103.7597303343031
 20
-156.2340467274345
 30
0.0
  0
HATCH
  5
16C
330
167
100
AcDbEntity
  8
レイヤー 1
 62
   250
420
  2299925
440
 33554687
100
AcDbHatch
 10
0.0
 20
0.0
 30
0.0
210
0.0
220
0.0
230
1.0
  2
SOLID
 70
     1
 71
     1
 91
        1
 92
        1
 93
        1
 72
     4
 94
        3
 73
     0
 74
     0
 95
       26
 96
       22
 40
0.0
 40
0.0
 40
0.0
 40
0.0
 40
1.0
 40
1.0
 40
1.0
 40
2.0
 40
2.0
 40
2.0
 40
3.0
 40
3.0
 40
3.0
 40
4.0
 40
4.0
 40
4.0
 40
5.0
 40
5.0
 40
5.0
 40
6.0
 40
6.0
 40
6.0
 40
7.0
 40
7.0
 40
7.0
 40
7.0
 10
103.7597303343031
 20
-156.2340467274345
 10
103.7597303343031
 20
-156.2340467274345
 10
103.7597303343031
 20
-155.129893624412
 10
103.7597303343031
 20
-155.129893624412
 10
103.7597303343031
 20
-155.129893624412
 10
103.4296901868162
 20
-155.129893624412
 10
103.4296901868162
 20
-155.129893624412
 10
103.4296901868162
 20
-155.129893624412
 10
103.4296901868162
 20
-154.9817545185462
 10
103.4296901868162
 20
-154.9817545185462
 10
103.7617973915943
 20
-154.9669406079596
 10
103.8083061806451
 20
-154.8039875915073
 10
103.8379340018183
 20
-154.689610421397
 10
103.8379340018183
 20
-154.689610421397
 10
103.9840060503929
 20
-154.689610421397
 10
103.9840060503929
 20
-154.689610421397
 10
103.9840060503929
 20
-154.689610421397
 10
103.9840060503929
 20
-156.2340467274345
 10
103.9840060503929
 20
-156.2340467274345
 10
103.9840060503929
 20
-156.2340467274345
 10
103.7597303343031
 20
-156.2340467274345
 10
103.7597303343031
 20
-156.2340467274345
 97
        0
 97
        1
330
16B
 75
     2
 76
     1
 98
        1
 10
0.0
 20
0.0
450
        0
451
        0
460
0.0
461
0.0
452
        0
462
0.0
453
        0
470

  0
SPLINE
  5
16D
330
167
100
AcDbEntity
  8
レイヤー 1
100
AcDbSpline
210
0.0
220
0.0
230
1.0
 70
     9
 71
     3
 72
    17
 73
    13
 74
     0
 42
0.0000000001
 43
0.0000000001
 40
0.0
 40
0.0
 40
0.0
 40
0.0
 40
1.0
 40
1.0
 40
1.0
 40
2.0
 40
2.0
 40
2.0
 40
3.0
 40
3.0
 40
3.0
 40
4.0
 40
4.0
 40
4.0
 40
4.0
 10
104.9851507984065
 20
-154.8336154126805
 30
0.0
 10
104.7353813757259
 20
-154.8336154126805
 30
0.0
 10
104.688872586675
 20
-155.1171467711165
 30
0.0
 10
104.688872586675
 20
-155.46200082919
 30
0.0
 10
104.688872586675
 20
-155.7813611806727
 30
0.0
 10
104.7250460892701
 20
-156.0900417361511
 30
0.0
 10
104.9851507984065
 20
-156.0900417361511
 30
0.0
 10
105.2328531637959
 20
-156.0900417361511
 30
0.0
 10
105.281429010138
 20
-155.8089219445547
 30
0.0
 10
105.281429010138
 20
-155.46200082919
 30
0.0
 10
105.281429010138
 20
-155.1422959681589
 30
0.0
 10
105.2431884502517
 20
-154.8336154126805
 30
0.0
 10
104.9851507984065
 20
-154.8336154126805
 30
0.0
  0
SPLINE
  5
16E
330
167
100
AcDbEntity
  8
レイヤー 1
100
AcDbSpline
210
0.0
220
0.0
230
1.0
 70
     9
 71
     3
 72
    29
 73
    25
 74
     0
 42
0.0000000001
 43
0.0000000001
 40
0.0
 40
0.0
 40
0.0
 40
0.0
 40
1.0
 40
1.0
 40
1.0
 40
2.0
 40
2.0
 40
2.0
 40
3.0
 40
3.0
 40
3.0
 40
4.0
 40
4.0
 40
4.0
 40
5.0
 40
5.0
 40
5.0
 40
6.0
 40
6.0
 40
6.0
 40
7.0
 40
7.0
 40
7.0
 40
8.0
 40
8.0
 40
8.0
 40
8.0
 10
105.3830593269528
 20
-156.0562798003956
 30
0.0
 10
105.274883328716
 20
-156.2657416058988
 30
0.0
 10
105.1015950258079
 20
-156.2846896310677
 30
0.0
 10
104.9851507984065
 20
-156.2846896310677
 30
0.0
 10
104.8242648392453
 20
-156.2846896310677
 30
0.0
 10
104.6826714148015
 20
-156.2381808420168
 30
0.0
 10
104.5875867794086
 20
-156.0562798003956
 30
0.0
 10
104.4838894053026
 20
-155.861631905479
 30
0.0
 10
104.4645968705852
 20
-155.6246093360939
 30
0.0
 10
104.4645968705852
 20
-155.46200082919
 30
0.0
 10
104.4645968705852
 20
-155.3179958379066
 30
0.0
 10
104.4818223480115
 20
-155.0661593579348
 30
0.0
 10
104.5875867794086
 20
-154.8673773484359
 30
0.0
 10
104.695418268097
 20
-154.6644612243547
 30
0.0
 10
104.8563042272581
 20
-154.641034575055
 30
0.0
 10
104.9851507984065
 20
-154.641034575055
 30
0.0
 10
105.1439697002765
 20
-154.641034575055
 30
0.0
 10
105.2876301820114
 20
-154.6854763068147
 30
0.0
 10
105.3830593269528
 20
-154.8673773484359
 30
0.0
 10
105.482278076928
 20
-155.0599581860614
 30
0.0
 10
105.5057047262277
 20
-155.2883680167334
 30
0.0
 10
105.5057047262277
 20
-155.46200082919
 30
0.0
 10
105.5057047262277
 20
-155.633222074807
 30
0.0
 10
105.4843451342192
 20
-155.8636989627702
 30
0.0
 10
105.3830593269528
 20
-156.0562798003956
 30
0.0
  0
HATCH
  5
16F
330
167
100
AcDbEntity
  8
レイヤー 1
 62
   250
420
  2299925
440
 33554687
100
AcDbHatch
 10
0.0
 20
0.0
 30
0.0
210
0.0
220
0.0
230
1.0
  2
SOLID
 70
     1
 71
     1
 91
        2
 92
        1
 93
        1
 72
     4
 94
        3
 73
     0
 74
     0
 95
       17
 96
       13
 40
0.0
 40
0.0
 40
0.0
 40
0.0
 40
1.0
 40
1.0
 40
1.0
 40
2.0
 40
2.0
 40
2.0
 40
3.0
 40
3.0
 40
3.0
 40
4.0
 40
4.0
 40
4.0
 40
4.0
 10
104.9851507984065
 20
-154.8336154126805
 10
104.7353813757259
 20
-154.8336154126805
 10
104.688872586675
 20
-155.1171467711165
 10
104.688872586675
 20
-155.46200082919
 10
104.688872586675
 20
-155.7813611806727
 10
104.7250460892701
 20
-156.0900417361511
 10
104.9851507984065
 20
-156.0900417361511
 10
105.2328531637959
 20
-156.0900417361511
 10
105.281429010138
 20
-155.8089219445547
 10
105.281429010138
 20
-155.46200082919
 10
105.281429010138
 20
-155.1422959681589
 10
105.2431884502517
 20
-154.8336154126805
 10
104.9851507984065
 20
-154.8336154126805
 97
        0
 97
        1
330
16D
 92
        1
 93
        1
 72
     4
 94
        3
 73
     0
 74
     0
 95
       29
 96
       25
 40
0.0
 40
0.0
 40
0.0
 40
0.0
 40
1.0
 40
1.0
 40
1.0
 40
2.0
 40
2.0
 40
2.0
 40
3.0
 40
3.0
 40
3.0
 40
4.0
 40
4.0
 40
4.0
 40
5.0
 40
5.0
 40
5.0
 40
6.0
 40
6.0
 40
6.0
 40
7.0
 40
7.0
 40
7.0
 40
8.0
 40
8.0
 40
8.0
 40
8.0
 10
105.3830593269528
 20
-156.0562798003956
 10
105.274883328716
 20
-156.2657416058988
 10
105.1015950258079
 20
-156.2846896310677
 10
104.9851507984065
 20
-156.2846896310677
 10
104.8242648392453
 20
-156.2846896310677
 10
104.6826714148015
 20
-156.2381808420168
 10
104.5875867794086
 20
-156.0562798003956
 10
104.4838894053026
 20
-155.861631905479
 10
104.4645968705852
 20
-155.6246093360939
 10
104.4645968705852
 20
-155.46200082919
 10
104.4645968705852
 20
-155.3179958379066
 10
104.4818223480115
 20
-155.0661593579348
 10
104.5875867794086
 20
-154.8673773484359
 10
104.695418268097
 20
-154.6644612243547
 10
104.8563042272581
 20
-154.641034575055
 10
104.9851507984065
 20
-154.641034575055
 10
105.1439697002765
 20
-154.641034575055
 10
105.2876301820114
 20
-154.6854763068147
 10
105.3830593269528
 20
-154.8673773484359
 10
105.482278076928
 20
-155.0599581860614
 10
105.5057047262277
 20
-155.2883680167334
 10
105.5057047262277
 20
-155.46200082919
 10
105.5057047262277
 20
-155.633222074807
 10
105.4843451342192
 20
-155.8636989627702
 10
105.3830593269528
 20
-156.0562798003956
 97
        0
 97
        1
330
16E
 75
     2
 76
     1
 98
        1
 10
0.0
 20
0.0
450
        0
451
        0
460
0.0
461
0.0
452
        0
462
0.0
453
        0
470

  0
ENDBLK
  5
16A
330
167
100
AcDbEntity
  8
0
100
AcDbBlockEnd
  0
ENDSEC
  0
SECTION
  2
ENTITIES
  0
INSERT
  5
7A
330
70
100
AcDbEntity
  8
レイヤー 1
100
AcDbBlockReference
  2
Block_0
 10
0.0
 20
0.0
 30
0.0
  0
ENDSEC
  0
SECTION
  2
OBJECTS
  0
DICTIONARY
  5
C
330
0
100
AcDbDictionary
281
     1
  3
ACAD_COLOR
350
63
  3
ACAD_DETAILVIEWSTYLE
350
6A
  3
ACAD_GROUP
350
D
  3
ACAD_LAYOUT
350
62
  3
ACAD_MATERIAL
350
10
  3
ACAD_MLEADERSTYLE
350
66
  3
ACAD_MLINESTYLE
350
5F
  3
ACAD_PLOTSETTINGS
350
61
  3
ACAD_PLOTSTYLENAME
350
E
  3
ACAD_SCALELIST
350
42
  3
ACAD_SECTIONVIEWSTYLE
350
68
  3
ACAD_TABLESTYLE
350
64
  3
ACAD_VISUALSTYLE
350
29
  3
ACDB_RECOMPOSE_DATA
350
178
  3
AcDbVariableDictionary
350
170
  0
DICTIONARY
  5
63
102
{ACAD_REACTORS
330
C
102
}
330
C
100
AcDbDictionary
281
     1
  0
DICTIONARY
  5
6A
102
{ACAD_REACTORS
330
C
102
}
330
C
100
AcDbDictionary
281
     1
  3
Imperial24
350
6B
  0
DICTIONARY
  5
D
102
{ACAD_REACTORS
330
C
102
}
330
C
100
AcDbDictionary
281
     1
  0
DICTIONARY
  5
62
102
{ACAD_REACTORS
330
C
102
}
330
C
100
AcDbDictionary
281
     1
  3
Layout1
350
6F
  3
Layout2
350
77
  3
Model
350
73
  0
DICTIONARY
  5
10
102
{ACAD_REACTORS
330
C
102
}
330
C
100
AcDbDictionary
281
     1
  3
ByBlock
350
19
  3
ByLayer
350
11
  3
Global
350
21
  0
DICTIONARY
  5
66
102
{ACAD_REACTORS
330
C
102
}
330
C
100
AcDbDictionary
281
     1
  3
Standard
350
67
  0
DICTIONARY
  5
5F
102
{ACAD_REACTORS
330
C
102
}
330
C
100
AcDbDictionary
281
     1
  3
Standard
350
60
  0
DICTIONARY
  5
61
102
{ACAD_REACTORS
330
C
102
}
330
C
100
AcDbDictionary
281
     1
  0
ACDBDICTIONARYWDFLT
  5
E
102
{ACAD_REACTORS
330
C
102
}
330
C
100
AcDbDictionary
281
     1
  3
Normal
350
F
100
AcDbDictionaryWithDefault
340
F
  0
DICTIONARY
  5
42
102
{ACAD_REACTORS
330
C
102
}
330
C
100
AcDbDictionary
281
     1
  3
A0
350
43
  3
A1
350
44
  3
A2
350
45
  3
A3
350
46
  3
A4
350
47
  3
A5
350
48
  3
A6
350
49
  3
A7
350
4A
  3
A8
350
4B
  3
A9
350
4C
  3
B0
350
4D
  3
B1
350
4E
  3
B2
350
4F
  3
B3
350
50
  3
B4
350
51
  3
B5
350
52
  3
B6
350
53
  0
DICTIONARY
  5
68
102
{ACAD_REACTORS
330
C
102
}
330
C
100
AcDbDictionary
281
     1
  3
Imperial24
350
69
  0
DICTIONARY
  5
64
102
{ACAD_REACTORS
330
C
102
}
330
C
100
AcDbDictionary
281
     1
  3
Standard
350
65
  0
DICTIONARY
  5
29
102
{ACAD_REACTORS
330
C
102
}
330
C
100
AcDbDictionary
281
     1
  3
2dWireframe
350
2F
  3
Basic
350
2E
  3
Brighten
350
35
  3
ColorChange
350
39
  3
Conceptual
350
32
  3
Dim
350
34
  3
EdgeColorOff
350
41
  3
Facepattern
350
38
  3
Flat
350
2A
  3
FlatWithEdges
350
2B
  3
Gouraud
350
2C
  3
GouraudWithEdges
350
2D
  3
Hidden
350
31
  3
JitterOff
350
3F
  3
Linepattern
350
37
  3
OverhangOff
350
40
  3
Realistic
350
33
  3
Shaded
350
3E
  3
Shaded with edges
350
3D
  3
Shades of Gray
350
3A
  3
Sketchy
350
3B
  3
Thicken
350
36
  3
Wireframe
350
30
  3
X-Ray
350
3C
  0
XRECORD
  5
178
102
{ACAD_REACTORS
330
C
102
}
330
C
100
AcDbXrecord
280
     1
 90
        1
330
65
  0
DICTIONARY
  5
170
102
{ACAD_REACTORS
330
C
102
}
330
C
100
AcDbDictionary
281
     1
  3
CANNOSCALE
350
175
  3
CMLEADERSTYLE
350
172
  3
CTABLESTYLE
350
171
  3
CVIEWDETAILSTYLE
350
173
  3
CVIEWSECTIONSTYLE
350
174
  0
ACDBDETAILVIEWSTYLE
  5
6B
102
{ACAD_XDICTIONARY
360
1AD
102
}
102
{ACAD_REACTORS
330
6A
102
}
330
6A
100
AcDbModelDocViewStyle
 70
     0
  3
Imperial24
290
     0
100
AcDbDetailViewStyle
 70
     0
 71
     0
 90
        3
 71
     1
340
55
 62
   256
 40
0.24
340
0
 62
   256
 40
0.24
300

 40
0.36
280
     3
 71
     2
340
5D
 90
       25
 62
   256
 71
     3
340
55
 62
   256
 40
0.24
 90
        1
 40
0.75
 90
        1
300
%<\AcVar ViewType \f "%tc1">% %<\AcVar ViewDetailId>%\PSCALE %<\AcVar ViewScale \f "%sn">%
 71
     4
340
5D
 90
       25
 62
   256
340
5D
 90
       25
 62
   256
280
     0
  0
LAYOUT
  5
6F
102
{ACAD_REACTORS
330
62
102
}
330
62
100
AcDbPlotSettings
  1

  2

  4

  6

 40
0.0
 41
0.0
 42
0.0
 43
0.0
 44
0.0
 45
0.0
 46
0.0
 47
0.0
 48
0.0
 49
0.0
140
0.0
141
0.0
142
1.0
143
1.0
 70
   688
 72
     0
 73
     0
 74
     5
  7

 75
    16
147
1.0
 76
     0
 77
     2
 78
   300
148
0.0
149
0.0
100
AcDbLayout
  1
Layout1
 70
     1
 71
     1
 10
0.0
 20
0.0
 11
12.0
 21
9.0
 12
0.0
 22
0.0
 32
0.0
 14
0.0
 24
0.0
 34
0.0
 15
0.0
 25
0.0
 35
0.0
146
0.0
 13
0.0
 23
0.0
 33
0.0
 16
1.0
 26
0.0
 36
0.0
 17
0.0
 27
1.0
 37
0.0
 76
     0
330
6C
  0
LAYOUT
  5
77
102
{ACAD_REACTORS
330
62
102
}
330
62
100
AcDbPlotSettings
  1

  2

  4

  6

 40
0.0
 41
0.0
 42
0.0
 43
0.0
 44
0.0
 45
0.0
 46
0.0
 47
0.0
 48
0.0
 49
0.0
140
0.0
141
0.0
142
1.0
143
1.0
 70
   688
 72
     0
 73
     0
 74
     5
  7

 75
    16
147
1.0
 76
     0
 77
     2
 78
   300
148
0.0
149
0.0
100
AcDbLayout
  1
Layout2
 70
     1
 71
     2
 10
0.0
 20
0.0
 11
12.0
 21
9.0
 12
0.0
 22
0.0
 32
0.0
 14
0.0
 24
0.0
 34
0.0
 15
0.0
 25
0.0
 35
0.0
146
0.0
 13
0.0
 23
0.0
 33
0.0
 16
1.0
 26
0.0
 36
0.0
 17
0.0
 27
1.0
 37
0.0
 76
     0
330
74
  0
LAYOUT
  5
73
102
{ACAD_REACTORS
330
62
102
}
330
62
100
AcDbPlotSettings
  1

  2

  4

  6

 40
0.0
 41
0.0
 42
0.0
 43
0.0
 44
0.0
 45
0.0
 46
0.0
 47
0.0
 48
0.0
 49
0.0
140
0.0
141
0.0
142
1.0
143
1.0
 70
  1712
 72
     0
 73
     0
 74
     0
  7

 75
     0
147
1.0
 76
     0
 77
     2
 78
   300
148
0.0
149
0.0
100
AcDbLayout
  1
Model
 70
     1
 71
     0
 10
0.0
 20
0.0
 11
12.0
 21
9.0
 12
0.0
 22
0.0
 32
0.0
 14
0.0
 24
0.0
 34
0.0
 15
0.0
 25
0.0
 35
0.0
146
0.0
 13
0.0
 23
0.0
 33
0.0
 16
1.0
 26
0.0
 36
0.0
 17
0.0
 27
1.0
 37
0.0
 76
     0
330
70
  0
MATERIAL
  5
19
102
{ACAD_XDICTIONARY
360
1A
102
}
102
{ACAD_REACTORS
330
10
102
}
330
10
100
AcDbMaterial
  1
ByBlock
 72
     0
 43
0.0208333333333333
 43
0.0
 43
0.0
 43
0.0
 43
0.0
 43
0.0208333333333333
 43
0.0
 43
0.0
 43
0.0
 43
0.0
 43
1.0
 43
0.0
 43
0.0
 43
0.0
 43
0.0
 43
1.0
 77
     0
 47
0.0208333333333333
 47
0.0
 47
0.0
 47
0.0
 47
0.0
 47
0.0208333333333333
 47
0.0
 47
0.0
 47
0.0
 47
0.0
 47
1.0
 47
0.0
 47
0.0
 47
0.0
 47
0.0
 47
1.0
171
     0
 49
0.0208333333333333
 49
0.0
 49
0.0
 49
0.0
 49
0.0
 49
0.0208333333333333
 49
0.0
 49
0.0
 49
0.0
 49
0.0
 49
1.0
 49
0.0
 49
0.0
 49
0.0
 49
0.0
 49
1.0
175
     0
142
0.0208333333333333
142
0.0
142
0.0
142
0.0
142
0.0
142
0.0208333333333333
142
0.0
142
0.0
142
0.0
142
0.0
142
1.0
142
0.0
142
0.0
142
0.0
142
0.0
142
1.0
179
     0
144
0.0208333333333333
144
0.0
144
0.0
144
0.0
144
0.0
144
0.0208333333333333
144
0.0
144
0.0
144
0.0
144
0.0
144
1.0
144
0.0
144
0.0
144
0.0
144
0.0
144
1.0
147
0.0208333333333333
147
0.0
147
0.0
147
0.0
147
0.0
147
0.0208333333333333
147
0.0
147
0.0
147
0.0
147
0.0
147
1.0
147
0.0
147
0.0
147
0.0
147
0.0
147
1.0
  0
MATERIAL
  5
11
102
{ACAD_XDICTIONARY
360
12
102
}
102
{ACAD_REACTORS
330
10
102
}
330
10
100
AcDbMaterial
  1
ByLayer
 72
     0
 43
0.0208333333333333
 43
0.0
 43
0.0
 43
0.0
 43
0.0
 43
0.0208333333333333
 43
0.0
 43
0.0
 43
0.0
 43
0.0
 43
1.0
 43
0.0
 43
0.0
 43
0.0
 43
0.0
 43
1.0
 77
     0
 47
0.0208333333333333
 47
0.0
 47
0.0
 47
0.0
 47
0.0
 47
0.0208333333333333
 47
0.0
 47
0.0
 47
0.0
 47
0.0
 47
1.0
 47
0.0
 47
0.0
 47
0.0
 47
0.0
 47
1.0
171
     0
 49
0.0208333333333333
 49
0.0
 49
0.0
 49
0.0
 49
0.0
 49
0.0208333333333333
 49
0.0
 49
0.0
 49
0.0
 49
0.0
 49
1.0
 49
0.0
 49
0.0
 49
0.0
 49
0.0
 49
1.0
175
     0
142
0.0208333333333333
142
0.0
142
0.0
142
0.0
142
0.0
142
0.0208333333333333
142
0.0
142
0.0
142
0.0
142
0.0
142
1.0
142
0.0
142
0.0
142
0.0
142
0.0
142
1.0
179
     0
144
0.0208333333333333
144
0.0
144
0.0
144
0.0
144
0.0
144
0.0208333333333333
144
0.0
144
0.0
144
0.0
144
0.0
144
1.0
144
0.0
144
0.0
144
0.0
144
0.0
144
1.0
147
0.0208333333333333
147
0.0
147
0.0
147
0.0
147
0.0
147
0.0208333333333333
147
0.0
147
0.0
147
0.0
147
0.0
147
1.0
147
0.0
147
0.0
147
0.0
147
0.0
147
1.0
  0
MATERIAL
  5
21
102
{ACAD_XDICTIONARY
360
22
102
}
102
{ACAD_REACTORS
330
10
102
}
330
10
100
AcDbMaterial
  1
Global
 72
     0
 43
0.0208333333333333
 43
0.0
 43
0.0
 43
0.0
 43
0.0
 43
0.0208333333333333
 43
0.0
 43
0.0
 43
0.0
 43
0.0
 43
1.0
 43
0.0
 43
0.0
 43
0.0
 43
0.0
 43
1.0
 77
     0
 47
0.0208333333333333
 47
0.0
 47
0.0
 47
0.0
 47
0.0
 47
0.0208333333333333
 47
0.0
 47
0.0
 47
0.0
 47
0.0
 47
1.0
 47
0.0
 47
0.0
 47
0.0
 47
0.0
 47
1.0
171
     0
 49
0.0208333333333333
 49
0.0
 49
0.0
 49
0.0
 49
0.0
 49
0.0208333333333333
 49
0.0
 49
0.0
 49
0.0
 49
0.0
 49
1.0
 49
0.0
 49
0.0
 49
0.0
 49
0.0
 49
1.0
175
     0
142
0.0208333333333333
142
0.0
142
0.0
142
0.0
142
0.0
142
0.0208333333333333
142
0.0
142
0.0
142
0.0
142
0.0
142
1.0
142
0.0
142
0.0
142
0.0
142
0.0
142
1.0
179
     0
144
0.0208333333333333
144
0.0
144
0.0
144
0.0
144
0.0
144
0.0208333333333333
144
0.0
144
0.0
144
0.0
144
0.0
144
1.0
144
0.0
144
0.0
144
0.0
144
0.0
144
1.0
147
0.0208333333333333
147
0.0
147
0.0
147
0.0
147
0.0
147
0.0208333333333333
147
0.0
147
0.0
147
0.0
147
0.0
147
1.0
147
0.0
147
0.0
147
0.0
147
0.0
147
1.0
  0
MLEADERSTYLE
  5
67
102
{ACAD_XDICTIONARY
360
1A9
102
}
102
{ACAD_REACTORS
330
66
102
}
330
66
100
AcDbMLeaderStyle
179
     2
170
     2
171
     1
172
     0
 90
        2
 40
0.0
 41
0.0
173
     1
 91
-1056964608
340
5B
 92
       -2
290
     1
 42
0.09
291
     1
 43
0.36
  3
Standard
 44
0.18
300

342
55
174
     1
178
     6
175
     1
176
     0
 93
-1056964608
 45
0.18
292
     0
297
     0
 46
0.18
 94
-1056964608
 47
1.0
 49
1.0
140
1.0
293
     1
141
0.0
294
     1
177
     0
142
1.0
295
     0
296
     0
143
0.125
271
     0
272
     9
273
     9
  0
MLINESTYLE
  5
60
102
{ACAD_REACTORS
330
5F
102
}
330
5F
100
AcDbMlineStyle
  2
STANDARD
 70
     0
  3

 62
   256
 51
90.0
 52
90.0
 71
     2
 49
0.5
 62
   256
  6
BYLAYER
 49
-0.5
 62
   256
  6
BYLAYER
  0
ACDBPLACEHOLDER
  5
F
102
{ACAD_REACTORS
330
E
102
}
330
E
  0
SCALE
  5
43
102
{ACAD_REACTORS
330
42
102
}
330
42
100
AcDbScale
 70
     0
300
1:1
140
1.0
141
1.0
290
     1
  0
SCALE
  5
44
102
{ACAD_REACTORS
330
42
102
}
330
42
100
AcDbScale
 70
     0
300
1/128" = 1'-0"
140
0.0078125
141
12.0
290
     0
  0
SCALE
  5
45
102
{ACAD_REACTORS
330
42
102
}
330
42
100
AcDbScale
 70
     0
300
1/64" = 1'-0"
140
0.015625
141
12.0
290
     0
  0
SCALE
  5
46
102
{ACAD_REACTORS
330
42
102
}
330
42
100
AcDbScale
 70
     0
300
1/32" = 1'-0"
140
0.03125
141
12.0
290
     0
  0
SCALE
  5
47
102
{ACAD_REACTORS
330
42
102
}
330
42
100
AcDbScale
 70
     0
300
1/16" = 1'-0"
140
0.0625
141
12.0
290
     0
  0
SCALE
  5
48
102
{ACAD_REACTORS
330
42
102
}
330
42
100
AcDbScale
 70
     0
300
3/32" = 1'-0"
140
0.09375
141
12.0
290
     0
  0
SCALE
  5
49
102
{ACAD_REACTORS
330
42
102
}
330
42
100
AcDbScale
 70
     0
300
1/8" = 1'-0"
140
0.125
141
12.0
290
     0
  0
SCALE
  5
4A
102
{ACAD_REACTORS
330
42
102
}
330
42
100
AcDbScale
 70
     0
300
3/16" = 1'-0"
140
0.1875
141
12.0
290
     0
  0
SCALE
  5
4B
102
{ACAD_REACTORS
330
42
102
}
330
42
100
AcDbScale
 70
     0
300
1/4" = 1'-0"
140
0.25
141
12.0
290
     0
  0
SCALE
  5
4C
102
{ACAD_REACTORS
330
42
102
}
330
42
100
AcDbScale
 70
     0
300
3/8" = 1'-0"
140
0.375
141
12.0
290
     0
  0
SCALE
  5
4D
102
{ACAD_REACTORS
330
42
102
}
330
42
100
AcDbScale
 70
     0
300
1/2" = 1'-0"
140
0.5
141
12.0
290
     0
  0
SCALE
  5
4E
102
{ACAD_REACTORS
330
42
102
}
330
42
100
AcDbScale
 70
     0
300
3/4" = 1'-0"
140
0.75
141
12.0
290
     0
  0
SCALE
  5
4F
102
{ACAD_REACTORS
330
42
102
}
330
42
100
AcDbScale
 70
     0
300
1" = 1'-0"
140
1.0
141
12.0
290
     0
  0
SCALE
  5
50
102
{ACAD_REACTORS
330
42
102
}
330
42
100
AcDbScale
 70
     0
300
1-1/2" = 1'-0"
140
1.5
141
12.0
290
     0
  0
SCALE
  5
51
102
{ACAD_REACTORS
330
42
102
}
330
42
100
AcDbScale
 70
     0
300
3" = 1'-0"
140
3.0
141
12.0
290
     0
  0
SCALE
  5
52
102
{ACAD_REACTORS
330
42
102
}
330
42
100
AcDbScale
 70
     0
300
6" = 1'-0"
140
6.0
141
12.0
290
     0
  0
SCALE
  5
53
102
{ACAD_REACTORS
330
42
102
}
330
42
100
AcDbScale
 70
     0
300
1'-0" = 1'-0"
140
12.0
141
12.0
290
     0
  0
ACDBSECTIONVIEWSTYLE
  5
69
102
{ACAD_XDICTIONARY
360
1AB
102
}
102
{ACAD_REACTORS
330
68
102
}
330
68
100
AcDbModelDocViewStyle
 70
     0
  3
Imperial24
290
     0
100
AcDbSectionViewStyle
 70
     0
 71
     0
 90
       78
 71
     1
340
55
 62
   256
 40
0.24
340
0
340
0
 62
   256
 40
0.24
300
I, O, Q, S, X, Z
 40
0.48
 90
        3
 40
0.18
 90
        1
 71
     2
340
5D
 90
       25
 62
   256
340
5D
 90
       50
 62
   256
 40
0.24
 40
0.0
 40
0.24
 71
     3
340
55
 62
   256
 40
0.24
 90
        1
 40
0.75
 90
        1
300
%<\AcVar ViewType \f "%tc1">% %<\AcVar ViewSectionStartId>%-%<\AcVar ViewSectionEndId>%\PSCALE %<\AcVar ViewScale \f "%sn">%
 71
     4
 62
   256
 62
   257
300
ANSI31
 40
1.0
 90
        0
290
     0
290
     0
 90
        6
 40
0.0
 40
1.570796326794896
 40
0.2617993877991494
 40
1.308996938995747
 40
-0.2617993877991494
 40
1.832595714594046
  0
TABLESTYLE
  5
65
102
{ACAD_XDICTIONARY
360
176
102
}
102
{ACAD_REACTORS
330
64
102
}
330
64
100
AcDbTableStyle
280
     0
  3
Standard
 70
     0
 71
     0
 40
0.06
 41
0.06
280
     0
281
     0
  7
Standard
140
0.18
170
     2
 62
     0
 63
     7
283
     0
 90
      512
 91
        0
  1

274
    -2
284
     1
 64
     0
275
    -2
285
     1
 65
     0
276
    -2
286
     1
 66
     0
277
    -2
287
     1
 67
     0
278
    -2
288
     1
 68
     0
279
    -2
289
     1
 69
     0
  7
Standard
140
0.25
170
     5
 62
     0
 63
     7
283
     0
 90
      512
 91
        0
  1

274
    -2
284
     1
 64
     0
275
    -2
285
     1
 65
     0
276
    -2
286
     1
 66
     0
277
    -2
287
     1
 67
     0
278
    -2
288
     1
 68
     0
279
    -2
289
     1
 69
     0
  7
Standard
140
0.18
170
     5
 62
     0
 63
     7
283
     0
 90
      512
 91
        0
  1

274
    -2
284
     1
 64
     0
275
    -2
285
     1
 65
     0
276
    -2
286
     1
 66
     0
277
    -2
287
     1
 67
     0
278
    -2
288
     1
 68
     0
279
    -2
289
     1
 69
     0
  0
VISUALSTYLE
  5
2F
102
{ACAD_XDICTIONARY
360
183
102
}
102
{ACAD_REACTORS
330
29
102
}
330
29
100
AcDbVisualStyle
  2
2dWireframe
 70
     4
177
     2
291
     0
 71
     0
176
     1
 72
     2
176
     1
 73
     0
176
     1
 90
        0
176
     1
 40
0.6
176
     1
 41
30.0
176
     1
 63
     7
421
 16777215
176
     1
 74
     1
176
     1
 91
        4
176
     1
 64
     7
176
     1
 65
   257
176
     1
 75
     1
176
     1
175
     1
176
     1
 42
1.0
176
     1
 92
        0
176
     1
 66
   257
176
     1
 43
1.0
176
     1
 76
     1
176
     1
 77
     6
176
     1
 78
     2
176
     1
 67
     7
176
     1
 79
     5
176
     1
170
     0
176
     1
171
     0
176
     1
290
     0
176
     1
 93
        1
176
     1
 44
0.0
176
     1
173
     0
176
     1
1001
ACAD
1000
AcDbSavedByObjectVersion
1070
     0
  0
VISUALSTYLE
  5
2E
102
{ACAD_XDICTIONARY
360
181
102
}
102
{ACAD_REACTORS
330
29
102
}
330
29
100
AcDbVisualStyle
  2
Basic
 70
     7
177
     2
291
     1
 71
     1
176
     1
 72
     0
176
     1
 73
     1
176
     1
 90
        0
176
     1
 40
0.6
176
     1
 41
30.0
176
     1
 63
     7
421
 16777215
176
     1
 74
     0
176
     1
 91
        4
176
     1
 64
     7
176
     1
 65
   257
176
     1
 75
     1
176
     1
175
     1
176
     1
 42
1.0
176
     1
 92
        8
176
     1
 66
     7
176
     1
 43
1.0
176
     1
 76
     1
176
     1
 77
     6
176
     1
 78
     2
176
     1
 67
     7
176
     1
 79
     5
176
     1
170
     0
176
     1
171
     0
176
     1
290
     0
176
     1
 93
        1
176
     1
 44
0.0
176
     1
173
     0
176
     1
1001
ACAD
1000
AcDbSavedByObjectVersion
1070
     0
  0
VISUALSTYLE
  5
35
102
{ACAD_XDICTIONARY
360
18F
102
}
102
{ACAD_REACTORS
330
29
102
}
330
29
100
AcDbVisualStyle
  2
Brighten
 70
    12
177
     2
291
     1
 71
     2
176
     1
 72
     2
176
     1
 73
     0
176
     1
 90
        0
176
     1
 40
0.6
176
     1
 41
30.0
176
     1
 63
     7
421
 16777215
176
     1
 74
     1
176
     1
 91
        4
176
     1
 64
     7
176
     1
 65
   257
176
     1
 75
     1
176
     1
175
     1
176
     1
 42
1.0
176
     1
 92
        8
176
     1
 66
     7
176
     1
 43
1.0
176
     1
 76
     1
176
     1
 77
     6
176
     1
 78
     2
176
     1
 67
     7
176
     1
 79
     5
176
     1
170
     0
176
     1
171
     0
176
     1
290
     0
176
     1
 93
        1
176
     1
 44
50.0
176
     1
173
     0
176
     1
1001
ACAD
1000
AcDbSavedByObjectVersion
1070
     0
  0
VISUALSTYLE
  5
39
102
{ACAD_XDICTIONARY
360
197
102
}
102
{ACAD_REACTORS
330
29
102
}
330
29
100
AcDbVisualStyle
  2
ColorChange
 70
    16
177
     2
291
     1
 71
     2
176
     1
 72
     2
176
     1
 73
     3
176
     1
 90
        0
176
     1
 40
0.6
176
     1
 41
30.0
176
     1
 63
     8
421
  8421504
176
     1
 74
     1
176
     1
 91
        4
176
     1
 64
     7
176
     1
 65
   257
176
     1
 75
     1
176
     1
175
     1
176
     1
 42
1.0
176
     1
 92
        8
176
     1
 66
     8
424
  8421504
176
     1
 43
1.0
176
     1
 76
     1
176
     1
 77
     6
176
     1
 78
     2
176
     1
 67
     7
176
     1
 79
     5
176
     1
170
     0
176
     1
171
     0
176
     1
290
     0
176
     1
 93
        1
176
     1
 44
0.0
176
     1
173
     0
176
     1
1001
ACAD
1000
AcDbSavedByObjectVersion
1070
     0
  0
VISUALSTYLE
  5
32
102
{ACAD_XDICTIONARY
360
189
102
}
102
{ACAD_REACTORS
330
29
102
}
330
29
100
AcDbVisualStyle
  2
Conceptual
 70
     9
177
     2
291
     0
 71
     3
176
     1
 72
     2
176
     1
 73
     0
176
     1
 90
        0
176
     1
 40
0.6
176
     1
 41
30.0
176
     1
 63
     7
421
 16777215
176
     1
 74
     2
176
     1
 91
        2
176
     1
 64
     7
176
     1
 65
   257
176
     1
 75
     1
176
     1
175
     1
176
     1
 42
179.0
176
     1
 92
        8
176
     1
 66
     7
176
     1
 43
1.0
176
     1
 76
     1
176
     1
 77
     6
176
     1
 78
     2
176
     1
 67
     7
176
     1
 79
     3
176
     1
170
     0
176
     1
171
     0
176
     1
290
     0
176
     1
 93
        1
176
     1
 44
0.0
176
     1
173
     0
176
     1
1001
ACAD
1000
AcDbSavedByObjectVersion
1070
     0
  0
VISUALSTYLE
  5
34
102
{ACAD_XDICTIONARY
360
18D
102
}
102
{ACAD_REACTORS
330
29
102
}
330
29
100
AcDbVisualStyle
  2
Dim
 70
    11
177
     2
291
     1
 71
     2
176
     1
 72
     2
176
     1
 73
     0
176
     1
 90
        0
176
     1
 40
0.6
176
     1
 41
30.0
176
     1
 63
     7
421
 16777215
176
     1
 74
     1
176
     1
 91
        4
176
     1
 64
     7
176
     1
 65
   257
176
     1
 75
     1
176
     1
175
     1
176
     1
 42
1.0
176
     1
 92
        8
176
     1
 66
     7
176
     1
 43
1.0
176
     1
 76
     1
176
     1
 77
     6
176
     1
 78
     2
176
     1
 67
     7
176
     1
 79
     5
176
     1
170
     0
176
     1
171
     0
176
     1
290
     0
176
     1
 93
        1
176
     1
 44
-50.0
176
     1
173
     0
176
     1
1001
ACAD
1000
AcDbSavedByObjectVersion
1070
     0
  0
VISUALSTYLE
  5
41
102
{ACAD_XDICTIONARY
360
1A7
102
}
102
{ACAD_REACTORS
330
29
102
}
330
29
100
AcDbVisualStyle
  2
EdgeColorOff
 70
    22
177
     2
291
     1
 71
     2
176
     0
 72
     2
176
     0
 73
     0
176
     0
 90
        0
176
     0
 40
0.6
176
     0
 41
30.0
176
     0
 63
     7
421
 16777215
176
     0
 74
     1
176
     0
 91
        4
176
     0
 64
     7
176
     0
 65
   257
176
     0
 75
     1
176
     0
175
     1
176
     0
 42
1.0
176
     0
 92
        8
176
     2
 66
     7
176
     0
 43
1.0
176
     0
 76
     1
176
     0
 77
     6
176
     0
 78
     2
176
     0
 67
     7
176
     0
 79
     5
176
     0
170
     0
176
     0
171
     0
176
     0
290
     0
176
     0
 93
        1
176
     0
 44
0.0
176
     0
173
     0
176
     0
1001
ACAD
1000
AcDbSavedByObjectVersion
1070
     0
  0
VISUALSTYLE
  5
38
102
{ACAD_XDICTIONARY
360
195
102
}
102
{ACAD_REACTORS
330
29
102
}
330
29
100
AcDbVisualStyle
  2
Facepattern
 70
    15
177
     2
291
     1
 71
     2
176
     1
 72
     2
176
     1
 73
     0
176
     1
 90
        0
176
     1
 40
0.6
176
     1
 41
30.0
176
     1
 63
     7
421
 16777215
176
     1
 74
     1
176
     1
 91
        4
176
     1
 64
     7
176
     1
 65
   257
176
     1
 75
     1
176
     1
175
     1
176
     1
 42
1.0
176
     1
 92
        8
176
     1
 66
     7
176
     1
 43
1.0
176
     1
 76
     1
176
     1
 77
     6
176
     1
 78
     2
176
     1
 67
     7
176
     1
 79
     5
176
     1
170
     0
176
     1
171
     0
176
     1
290
     0
176
     1
 93
        1
176
     1
 44
0.0
176
     1
173
     0
176
     1
1001
ACAD
1000
AcDbSavedByObjectVersion
1070
     0
  0
VISUALSTYLE
  5
2A
102
{ACAD_XDICTIONARY
360
179
102
}
102
{ACAD_REACTORS
330
29
102
}
330
29
100
AcDbVisualStyle
  2
Flat
 70
     0
177
     2
291
     1
 71
     2
176
     1
 72
     1
176
     1
 73
     1
176
     1
 90
        2
176
     1
 40
0.6
176
     1
 41
30.0
176
     1
 63
     7
421
 16777215
176
     1
 74
     0
176
     1
 91
        0
176
     1
 64
     7
176
     1
 65
   257
176
     1
 75
     1
176
     1
175
     1
176
     1
 42
1.0
176
     1
 92
        8
176
     1
 66
     7
176
     1
 43
1.0
176
     1
 76
     1
176
     1
 77
     6
176
     1
 78
     2
176
     1
 67
     7
176
     1
 79
     5
176
     1
170
     0
176
     1
171
     0
176
     1
290
     0
176
     1
 93
       13
176
     1
 44
0.0
176
     1
173
     0
176
     1
1001
ACAD
1000
AcDbSavedByObjectVersion
1070
     0
  0
VISUALSTYLE
  5
2B
102
{ACAD_XDICTIONARY
360
17B
102
}
102
{ACAD_REACTORS
330
29
102
}
330
29
100
AcDbVisualStyle
  2
FlatWithEdges
 70
     1
177
     2
291
     1
 71
     2
176
     1
 72
     1
176
     1
 73
     1
176
     1
 90
        2
176
     1
 40
0.6
176
     1
 41
30.0
176
     1
 63
     7
421
 16777215
176
     1
 74
     1
176
     1
 91
        0
176
     1
 64
     7
176
     1
 65
   257
176
     1
 75
     1
176
     1
175
     1
176
     1
 42
1.0
176
     1
 92
        0
176
     1
 66
   257
176
     1
 43
1.0
176
     1
 76
     1
176
     1
 77
     6
176
     1
 78
     2
176
     1
 67
     7
176
     1
 79
     5
176
     1
170
     0
176
     1
171
     0
176
     1
290
     0
176
     1
 93
       13
176
     1
 44
0.0
176
     1
173
     0
176
     1
1001
ACAD
1000
AcDbSavedByObjectVersion
1070
     0
  0
VISUALSTYLE
  5
2C
102
{ACAD_XDICTIONARY
360
17D
102
}
102
{ACAD_REACTORS
330
29
102
}
330
29
100
AcDbVisualStyle
  2
Gouraud
 70
     2
177
     2
291
     1
 71
     2
176
     1
 72
     2
176
     1
 73
     1
176
     1
 90
        2
176
     1
 40
0.6
176
     1
 41
30.0
176
     1
 63
     7
421
 16777215
176
     1
 74
     0
176
     1
 91
        0
176
     1
 64
     7
176
     1
 65
   257
176
     1
 75
     1
176
     1
175
     1
176
     1
 42
1.0
176
     1
 92
        0
176
     1
 66
     7
176
     1
 43
1.0
176
     1
 76
     1
176
     1
 77
     6
176
     1
 78
     2
176
     1
 67
     7
176
     1
 79
     5
176
     1
170
     0
176
     1
171
     0
176
     1
290
     0
176
     1
 93
       13
176
     1
 44
0.0
176
     1
173
     0
176
     1
1001
ACAD
1000
AcDbSavedByObjectVersion
1070
     0
  0
VISUALSTYLE
  5
2D
102
{ACAD_XDICTIONARY
360
17F
102
}
102
{ACAD_REACTORS
330
29
102
}
330
29
100
AcDbVisualStyle
  2
GouraudWithEdges
 70
     3
177
     2
291
     1
 71
     2
176
     1
 72
     2
176
     1
 73
     1
176
     1
 90
        2
176
     1
 40
0.6
176
     1
 41
30.0
176
     1
 63
     7
421
 16777215
176
     1
 74
     1
176
     1
 91
        0
176
     1
 64
     7
176
     1
 65
   257
176
     1
 75
     1
176
     1
175
     1
176
     1
 42
1.0
176
     1
 92
        0
176
     1
 66
   257
176
     1
 43
1.0
176
     1
 76
     1
176
     1
 77
     6
176
     1
 78
     2
176
     1
 67
     7
176
     1
 79
     5
176
     1
170
     0
176
     1
171
     0
176
     1
290
     0
176
     1
 93
       13
176
     1
 44
0.0
176
     1
173
     0
176
     1
1001
ACAD
1000
AcDbSavedByObjectVersion
1070
     0
  0
VISUALSTYLE
  5
31
102
{ACAD_XDICTIONARY
360
187
102
}
102
{ACAD_REACTORS
330
29
102
}
330
29
100
AcDbVisualStyle
  2
Hidden
 70
     6
177
     2
291
     0
 71
     1
176
     1
 72
     2
176
     1
 73
     2
176
     1
 90
        0
176
     1
 40
0.6
176
     1
 41
30.0
176
     1
 63
     7
421
 16777215
176
     1
 74
     2
176
     1
 91
        2
176
     1
 64
     7
176
     1
 65
   257
176
     1
 75
     2
176
     1
175
     1
176
     1
 42
40.0
176
     1
 92
        0
176
     1
 66
   257
176
     1
 43
1.0
176
     1
 76
     1
176
     1
 77
     6
176
     1
 78
     2
176
     1
 67
     7
176
     1
 79
     3
176
     1
170
     0
176
     1
171
     0
176
     1
290
     0
176
     1
 93
        1
176
     1
 44
0.0
176
     1
173
     0
176
     1
1001
ACAD
1000
AcDbSavedByObjectVersion
1070
     0
  0
VISUALSTYLE
  5
3F
102
{ACAD_XDICTIONARY
360
1A3
102
}
102
{ACAD_REACTORS
330
29
102
}
330
29
100
AcDbVisualStyle
  2
JitterOff
 70
    20
177
     2
291
     1
 71
     2
176
     0
 72
     2
176
     0
 73
     0
176
     0
 90
        0
176
     0
 40
0.6
176
     0
 41
30.0
176
     0
 63
     7
421
 16777215
176
     0
 74
     1
176
     0
 91
        4
176
     0
 64
     7
176
     0
 65
   257
176
     0
 75
     1
176
     0
175
     1
176
     0
 42
1.0
176
     0
 92
       10
176
     2
 66
     7
176
     0
 43
1.0
176
     0
 76
     1
176
     0
 77
     6
176
     0
 78
     2
176
     0
 67
     7
176
     0
 79
     5
176
     0
170
     0
176
     0
171
     0
176
     0
290
     0
176
     0
 93
        1
176
     0
 44
0.0
176
     0
173
     0
176
     0
1001
ACAD
1000
AcDbSavedByObjectVersion
1070
     0
  0
VISUALSTYLE
  5
37
102
{ACAD_XDICTIONARY
360
193
102
}
102
{ACAD_REACTORS
330
29
102
}
330
29
100
AcDbVisualStyle
  2
Linepattern
 70
    14
177
     2
291
     1
 71
     2
176
     1
 72
     2
176
     1
 73
     0
176
     1
 90
        0
176
     1
 40
0.6
176
     1
 41
30.0
176
     1
 63
     7
421
 16777215
176
     1
 74
     1
176
     1
 91
        4
176
     1
 64
     7
176
     1
 65
   257
176
     1
 75
     7
176
     1
175
     7
176
     1
 42
1.0
176
     1
 92
        8
176
     1
 66
     7
176
     1
 43
1.0
176
     1
 76
     1
176
     1
 77
     6
176
     1
 78
     2
176
     1
 67
     7
176
     1
 79
     5
176
     1
170
     0
176
     1
171
     0
176
     1
290
     0
176
     1
 93
        1
176
     1
 44
0.0
176
     1
173
     0
176
     1
1001
ACAD
1000
AcDbSavedByObjectVersion
1070
     0
  0
VISUALSTYLE
  5
40
102
{ACAD_XDICTIONARY
360
1A5
102
}
102
{ACAD_REACTORS
330
29
102
}
330
29
100
AcDbVisualStyle
  2
OverhangOff
 70
    21
177
     2
291
     1
 71
     2
176
     0
 72
     2
176
     0
 73
     0
176
     0
 90
        0
176
     0
 40
0.6
176
     0
 41
30.0
176
     0
 63
     7
421
 16777215
176
     0
 74
     1
176
     0
 91
        4
176
     0
 64
     7
176
     0
 65
   257
176
     0
 75
     1
176
     0
175
     1
176
     0
 42
1.0
176
     0
 92
        9
176
     2
 66
     7
176
     0
 43
1.0
176
     0
 76
     1
176
     0
 77
     6
176
     0
 78
     2
176
     0
 67
     7
176
     0
 79
     5
176
     0
170
     0
176
     0
171
     0
176
     0
290
     0
176
     0
 93
        1
176
     0
 44
0.0
176
     0
173
     0
176
     0
1001
ACAD
1000
AcDbSavedByObjectVersion
1070
     0
  0
VISUALSTYLE
  5
33
102
{ACAD_XDICTIONARY
360
18B
102
}
102
{ACAD_REACTORS
330
29
102
}
330
29
100
AcDbVisualStyle
  2
Realistic
 70
     8
177
     2
291
     0
 71
     2
176
     1
 72
     3
176
     1
 73
     0
176
     1
 90
        2
176
     1
 40
0.6
176
     1
 41
30.0
176
     1
 63
     7
421
 16777215
176
     1
 74
     0
176
     1
 91
        0
176
     1
 64
     7
176
     1
 65
   257
176
     1
 75
     1
176
     1
175
     1
176
     1
 42
1.0
176
     1
 92
        8
176
     1
 66
   257
176
     1
 43
1.0
176
     1
 76
     1
176
     1
 77
     6
176
     1
 78
     2
176
     1
 67
     7
176
     1
 79
     3
176
     1
170
     0
176
     1
171
     0
176
     1
290
     0
176
     1
 93
       13
176
     1
 44
0.0
176
     1
173
     0
176
     1
1001
ACAD
1000
AcDbSavedByObjectVersion
1070
     0
  0
VISUALSTYLE
  5
3E
102
{ACAD_XDICTIONARY
360
1A1
102
}
102
{ACAD_REACTORS
330
29
102
}
330
29
100
AcDbVisualStyle
  2
Shaded
 70
    27
177
     2
291
     0
 71
     2
176
     1
 72
     2
176
     1
 73
     1
176
     1
 90
        2
176
     1
 40
0.6
176
     1
 41
30.0
176
     1
 63
     7
421
 16777215
176
     1
 74
     0
176
     1
 91
        4
176
     1
 64
     7
176
     1
 65
   257
176
     1
 75
     1
176
     1
175
     1
176
     1
 42
1.0
176
     1
 92
        8
176
     1
 66
   257
176
     1
 43
1.0
176
     1
 76
     1
176
     1
 77
     6
176
     1
 78
     2
176
     1
 67
     8
425
  7895160
176
     1
 79
     3
176
     1
170
     0
176
     1
171
     0
176
     1
290
     0
176
     1
 93
        5
176
     1
 44
0.0
176
     1
173
     0
176
     1
1001
ACAD
1000
AcDbSavedByObjectVersion
1070
     0
  0
VISUALSTYLE
  5
3D
102
{ACAD_XDICTIONARY
360
19F
102
}
102
{ACAD_REACTORS
330
29
102
}
330
29
100
AcDbVisualStyle
  2
Shaded with edges
 70
    26
177
     2
291
     0
 71
     2
176
     1
 72
     2
176
     1
 73
     1
176
     1
 90
        2
176
     1
 40
0.6
176
     1
 41
30.0
176
     1
 63
     7
421
 16777215
176
     1
 74
     1
176
     1
 91
        2
176
     1
 64
     7
176
     1
 65
   257
176
     1
 75
     2
176
     1
175
     1
176
     1
 42
1.0
176
     1
 92
        8
176
     1
 66
   257
176
     1
 43
1.0
176
     1
 76
     1
176
     1
 77
     6
176
     1
 78
     2
176
     1
 67
     7
176
     1
 79
     3
176
     1
170
     0
176
     1
171
     0
176
     1
290
     0
176
     1
 93
        5
176
     1
 44
0.0
176
     1
173
     0
176
     1
1001
ACAD
1000
AcDbSavedByObjectVersion
1070
     0
  0
VISUALSTYLE
  5
3A
102
{ACAD_XDICTIONARY
360
199
102
}
102
{ACAD_REACTORS
330
29
102
}
330
29
100
AcDbVisualStyle
  2
Shades of Gray
 70
    23
177
     2
291
     0
 71
     2
176
     1
 72
     2
176
     1
 73
     3
176
     1
 90
        0
176
     1
 40
0.6
176
     1
 41
30.0
176
     1
 63
     7
421
 16777215
176
     1
 74
     2
176
     1
 91
        2
176
     1
 64
     7
176
     1
 65
     7
176
     1
 75
     1
176
     1
175
     1
176
     1
 42
40.0
176
     1
 92
        8
176
     1
 66
     7
176
     1
 43
1.0
176
     1
 76
     1
176
     1
 77
     6
176
     1
 78
     2
176
     1
 67
     7
176
     1
 79
     3
176
     1
170
     0
176
     1
171
     0
176
     1
290
     0
176
     1
 93
        1
176
     1
 44
0.0
176
     1
173
     0
176
     1
1001
ACAD
1000
AcDbSavedByObjectVersion
1070
     0
  0
VISUALSTYLE
  5
3B
102
{ACAD_XDICTIONARY
360
19B
102
}
102
{ACAD_REACTORS
330
29
102
}
330
29
100
AcDbVisualStyle
  2
Sketchy
 70
    24
177
     2
291
     0
 71
     1
176
     1
 72
     2
176
     1
 73
     2
176
     1
 90
        0
176
     1
 40
0.6
176
     1
 41
30.0
176
     1
 63
     7
421
 16777215
176
     1
 74
     2
176
     1
 91
        2
176
     1
 64
     7
176
     1
 65
     7
176
     1
 75
     1
176
     1
175
     1
176
     1
 42
40.0
176
     1
 92
       11
176
     1
 66
     7
176
     1
 43
1.0
176
     1
 76
     1
176
     1
 77
     6
176
     1
 78
     2
176
     1
 67
     7
176
     1
 79
     6
176
     1
170
     0
176
     1
171
     0
176
     1
290
     0
176
     1
 93
        1
176
     1
 44
0.0
176
     1
173
     0
176
     1
1001
ACAD
1000
AcDbSavedByObjectVersion
1070
     0
  0
VISUALSTYLE
  5
36
102
{ACAD_XDICTIONARY
360
191
102
}
102
{ACAD_REACTORS
330
29
102
}
330
29
100
AcDbVisualStyle
  2
Thicken
 70
    13
177
     2
291
     1
 71
     2
176
     1
 72
     2
176
     1
 73
     0
176
     1
 90
        0
176
     1
 40
0.6
176
     1
 41
30.0
176
     1
 63
     7
421
 16777215
176
     1
 74
     1
176
     1
 91
        4
176
     1
 64
     7
176
     1
 65
   257
176
     1
 75
     1
176
     1
175
     1
176
     1
 42
1.0
176
     1
 92
       12
176
     1
 66
     7
176
     1
 43
1.0
176
     1
 76
     1
176
     1
 77
     6
176
     1
 78
     2
176
     1
 67
     7
176
     1
 79
     5
176
     1
170
     0
176
     1
171
     0
176
     1
290
     0
176
     1
 93
        1
176
     1
 44
0.0
176
     1
173
     0
176
     1
1001
ACAD
1000
AcDbSavedByObjectVersion
1070
     0
  0
VISUALSTYLE
  5
30
102
{ACAD_XDICTIONARY
360
185
102
}
102
{ACAD_REACTORS
330
29
102
}
330
29
100
AcDbVisualStyle
  2
Wireframe
 70
     5
177
     2
291
     0
 71
     0
176
     1
 72
     2
176
     1
 73
     0
176
     1
 90
        0
176
     1
 40
0.6
176
     1
 41
30.0
176
     1
 63
     7
421
 16777215
176
     1
 74
     1
176
     1
 91
        4
176
     1
 64
     7
176
     1
 65
   257
176
     1
 75
     1
176
     1
175
     1
176
     1
 42
1.0
176
     1
 92
        0
176
     1
 66
   257
176
     1
 43
1.0
176
     1
 76
     1
176
     1
 77
     6
176
     1
 78
     2
176
     1
 67
     7
176
     1
 79
     3
176
     1
170
     0
176
     1
171
     0
176
     1
290
     0
176
     1
 93
        1
176
     1
 44
0.0
176
     1
173
     0
176
     1
1001
ACAD
1000
AcDbSavedByObjectVersion
1070
     0
  0
VISUALSTYLE
  5
3C
102
{ACAD_XDICTIONARY
360
19D
102
}
102
{ACAD_REACTORS
330
29
102
}
330
29
100
AcDbVisualStyle
  2
X-Ray
 70
    25
177
     2
291
     0
 71
     2
176
     1
 72
     2
176
     1
 73
     1
176
     1
 90
        1
176
     1
 40
0.5
176
     1
 41
30.0
176
     1
 63
     7
421
 16777215
176
     1
 74
     1
176
     1
 91
        0
176
     1
 64
     7
176
     1
 65
   257
176
     1
 75
     1
176
     1
175
     1
176
     1
 42
1.0
176
     1
 92
        8
176
     1
 66
     7
176
     1
 43
1.0
176
     1
 76
     1
176
     1
 77
     6
176
     1
 78
     2
176
     1
 67
     7
176
     1
 79
     3
176
     1
170
     0
176
     1
171
     0
176
     1
290
     0
176
     1
 93
       13
176
     1
 44
0.0
176
     1
173
     0
176
     1
1001
ACAD
1000
AcDbSavedByObjectVersion
1070
     0
  0
DICTIONARYVAR
  5
175
102
{ACAD_REACTORS
330
170
102
}
330
170
100
DictionaryVariables
280
     0
  1
1:1
  0
DICTIONARYVAR
  5
172
102
{ACAD_REACTORS
330
170
102
}
330
170
100
DictionaryVariables
280
     0
  1
STANDARD
  0
DICTIONARYVAR
  5
171
102
{ACAD_REACTORS
330
170
102
}
330
170
100
DictionaryVariables
280
     0
  1
STANDARD
  0
DICTIONARYVAR
  5
173
102
{ACAD_REACTORS
330
170
102
}
330
170
100
DictionaryVariables
280
     0
  1
Imperial24
  0
DICTIONARYVAR
  5
174
102
{ACAD_REACTORS
330
170
102
}
330
170
100
DictionaryVariables
280
     0
  1
Imperial24
  0
DICTIONARY
  5
1AD
330
6B
100
AcDbDictionary
280
     1
281
     1
  3
ACAD_XREC_ROUNDTRIP
360
1AE
  0
DICTIONARY
  5
1A
330
19
100
AcDbDictionary
280
     1
281
     1
  3
BUMPTILE
360
1C
  3
DIFFUSETILE
360
1B
  3
OPACITYTILE
360
1F
  3
REFLECTIONTILE
360
1E
  3
REFRACTIONTILE
360
20
  3
SPECULARTILE
360
1D
  0
DICTIONARY
  5
12
330
11
100
AcDbDictionary
280
     1
281
     1
  3
BUMPTILE
360
14
  3
DIFFUSETILE
360
13
  3
OPACITYTILE
360
17
  3
REFLECTIONTILE
360
16
  3
REFRACTIONTILE
360
18
  3
SPECULARTILE
360
15
  0
DICTIONARY
  5
22
330
21
100
AcDbDictionary
280
     1
281
     1
  3
BUMPTILE
360
24
  3
DIFFUSETILE
360
23
  3
OPACITYTILE
360
27
  3
REFLECTIONTILE
360
26
  3
REFRACTIONTILE
360
28
  3
SPECULARTILE
360
25
  0
DICTIONARY
  5
1A9
330
67
100
AcDbDictionary
280
     1
281
     1
  3
ACAD_XREC_ROUNDTRIP
360
1AA
  0
DICTIONARY
  5
1AB
330
69
100
AcDbDictionary
280
     1
281
     1
  3
ACAD_XREC_ROUNDTRIP
360
1AC
  0
DICTIONARY
  5
176
330
65
100
AcDbDictionary
280
     1
281
     1
  3
ACAD_ROUNDTRIP_2008_TABLESTYLE_CELLSTYLEMAP
360
177
  0
DICTIONARY
  5
183
330
2F
100
AcDbDictionary
280
     1
281
     1
  3
ACAD_XREC_ROUNDTRIP
360
184
  0
DICTIONARY
  5
181
330
2E
100
AcDbDictionary
280
     1
281
     1
  3
ACAD_XREC_ROUNDTRIP
360
182
  0
DICTIONARY
  5
18F
330
35
100
AcDbDictionary
280
     1
281
     1
  3
ACAD_XREC_ROUNDTRIP
360
190
  0
DICTIONARY
  5
197
330
39
100
AcDbDictionary
280
     1
281
     1
  3
ACAD_XREC_ROUNDTRIP
360
198
  0
DICTIONARY
  5
189
330
32
100
AcDbDictionary
280
     1
281
     1
  3
ACAD_XREC_ROUNDTRIP
360
18A
  0
DICTIONARY
  5
18D
330
34
100
AcDbDictionary
280
     1
281
     1
  3
ACAD_XREC_ROUNDTRIP
360
18E
  0
DICTIONARY
  5
1A7
330
41
100
AcDbDictionary
280
     1
281
     1
  3
ACAD_XREC_ROUNDTRIP
360
1A8
  0
DICTIONARY
  5
195
330
38
100
AcDbDictionary
280
     1
281
     1
  3
ACAD_XREC_ROUNDTRIP
360
196
  0
DICTIONARY
  5
179
330
2A
100
AcDbDictionary
280
     1
281
     1
  3
ACAD_XREC_ROUNDTRIP
360
17A
  0
DICTIONARY
  5
17B
330
2B
100
AcDbDictionary
280
     1
281
     1
  3
ACAD_XREC_ROUNDTRIP
360
17C
  0
DICTIONARY
  5
17D
330
2C
100
AcDbDictionary
280
     1
281
     1
  3
ACAD_XREC_ROUNDTRIP
360
17E
  0
DICTIONARY
  5
17F
330
2D
100
AcDbDictionary
280
     1
281
     1
  3
ACAD_XREC_ROUNDTRIP
360
180
  0
DICTIONARY
  5
187
330
31
100
AcDbDictionary
280
     1
281
     1
  3
ACAD_XREC_ROUNDTRIP
360
188
  0
DICTIONARY
  5
1A3
330
3F
100
AcDbDictionary
280
     1
281
     1
  3
ACAD_XREC_ROUNDTRIP
360
1A4
  0
DICTIONARY
  5
193
330
37
100
AcDbDictionary
280
     1
281
     1
  3
ACAD_XREC_ROUNDTRIP
360
194
  0
DICTIONARY
  5
1A5
330
40
100
AcDbDictionary
280
     1
281
     1
  3
ACAD_XREC_ROUNDTRIP
360
1A6
  0
DICTIONARY
  5
18B
330
33
100
AcDbDictionary
280
     1
281
     1
  3
ACAD_XREC_ROUNDTRIP
360
18C
  0
DICTIONARY
  5
1A1
330
3E
100
AcDbDictionary
280
     1
281
     1
  3
ACAD_XREC_ROUNDTRIP
360
1A2
  0
DICTIONARY
  5
19F
330
3D
100
AcDbDictionary
280
     1
281
     1
  3
ACAD_XREC_ROUNDTRIP
360
1A0
  0
DICTIONARY
  5
199
330
3A
100
AcDbDictionary
280
     1
281
     1
  3
ACAD_XREC_ROUNDTRIP
360
19A
  0
DICTIONARY
  5
19B
330
3B
100
AcDbDictionary
280
     1
281
     1
  3
ACAD_XREC_ROUNDTRIP
360
19C
  0
DICTIONARY
  5
191
330
36
100
AcDbDictionary
280
     1
281
     1
  3
ACAD_XREC_ROUNDTRIP
360
192
  0
DICTIONARY
  5
185
330
30
100
AcDbDictionary
280
     1
281
     1
  3
ACAD_XREC_ROUNDTRIP
360
186
  0
DICTIONARY
  5
19D
330
3C
100
AcDbDictionary
280
     1
281
     1
  3
ACAD_XREC_ROUNDTRIP
360
19E
  0
XRECORD
  5
1AE
102
{ACAD_REACTORS
330
1AD
102
}
330
1AD
100
AcDbXrecord
280
     1
102
DISPLAYNAME
  1
Imperial24
102
FLAGS
 90
        0
  0
XRECORD
  5
1C
102
{ACAD_REACTORS
330
1A
102
}
330
1A
100
AcDbXrecord
280
     1
270
     1
271
     1
  0
XRECORD
  5
1B
102
{ACAD_REACTORS
330
1A
102
}
330
1A
100
AcDbXrecord
280
     1
270
     1
271
     1
  0
XRECORD
  5
1F
102
{ACAD_REACTORS
330
1A
102
}
330
1A
100
AcDbXrecord
280
     1
270
     1
271
     1
  0
XRECORD
  5
1E
102
{ACAD_REACTORS
330
1A
102
}
330
1A
100
AcDbXrecord
280
     1
270
     1
271
     1
  0
XRECORD
  5
20
102
{ACAD_REACTORS
330
1A
102
}
330
1A
100
AcDbXrecord
280
     1
270
     1
271
     1
  0
XRECORD
  5
1D
102
{ACAD_REACTORS
330
1A
102
}
330
1A
100
AcDbXrecord
280
     1
270
     1
271
     1
  0
XRECORD
  5
14
102
{ACAD_REACTORS
330
12
102
}
330
12
100
AcDbXrecord
280
     1
270
     1
271
     1
  0
XRECORD
  5
13
102
{ACAD_REACTORS
330
12
102
}
330
12
100
AcDbXrecord
280
     1
270
     1
271
     1
  0
XRECORD
  5
17
102
{ACAD_REACTORS
330
12
102
}
330
12
100
AcDbXrecord
280
     1
270
     1
271
     1
  0
XRECORD
  5
16
102
{ACAD_REACTORS
330
12
102
}
330
12
100
AcDbXrecord
280
     1
270
     1
271
     1
  0
XRECORD
  5
18
102
{ACAD_REACTORS
330
12
102
}
330
12
100
AcDbXrecord
280
     1
270
     1
271
     1
  0
XRECORD
  5
15
102
{ACAD_REACTORS
330
12
102
}
330
12
100
AcDbXrecord
280
     1
270
     1
271
     1
  0
XRECORD
  5
24
102
{ACAD_REACTORS
330
22
102
}
330
22
100
AcDbXrecord
280
     1
270
     1
271
     1
  0
XRECORD
  5
23
102
{ACAD_REACTORS
330
22
102
}
330
22
100
AcDbXrecord
280
     1
270
     1
271
     1
  0
XRECORD
  5
27
102
{ACAD_REACTORS
330
22
102
}
330
22
100
AcDbXrecord
280
     1
270
     1
271
     1
  0
XRECORD
  5
26
102
{ACAD_REACTORS
330
22
102
}
330
22
100
AcDbXrecord
280
     1
270
     1
271
     1
  0
XRECORD
  5
28
102
{ACAD_REACTORS
330
22
102
}
330
22
100
AcDbXrecord
280
     1
270
     1
271
     1
  0
XRECORD
  5
25
102
{ACAD_REACTORS
330
22
102
}
330
22
100
AcDbXrecord
280
     1
270
     1
271
     1
  0
XRECORD
  5
1AA
102
{ACAD_REACTORS
330
1A9
102
}
330
1A9
100
AcDbXrecord
280
     1
102
ACAD_ROUNDTRIP_2012_MLEADER_STYLE
298
     1
  0
XRECORD
  5
1AC
102
{ACAD_REACTORS
330
1AB
102
}
330
1AB
100
AcDbXrecord
280
     1
102
DISPLAYNAME
  1
Imperial24
102
FLAGS
 90
        0
  0
CELLSTYLEMAP
  5
177
102
{ACAD_REACTORS
330
176
102
}
330
176
100
AcDbCellStyleMap
 90
        3
300
CELLSTYLE
  1
TABLEFORMAT_BEGIN
 90
        5
170
     1
 91
        0
 92
    32768
 62
   257
 93
        1
300
CONTENTFORMAT
  1
CONTENTFORMAT_BEGIN
 90
        0
 91
        0
 92
      512
 93
        0
300

 40
0.0
140
1.0
 94
        5
 62
     0
340
55
144
0.25
309
CONTENTFORMAT_END
171
     0
 94
        0
309
TABLEFORMAT_END
  1
CELLSTYLE_BEGIN
 90
        1
 91
        1
300
_TITLE
309
CELLSTYLE_END
300
CELLSTYLE
  1
TABLEFORMAT_BEGIN
 90
        5
170
     1
 91
        0
 92
        0
 62
   257
 93
        1
300
CONTENTFORMAT
  1
CONTENTFORMAT_BEGIN
 90
        0
 91
        0
 92
      512
 93
        0
300

 40
0.0
140
1.0
 94
        5
 62
     0
340
55
144
0.18
309
CONTENTFORMAT_END
171
     0
 94
        0
309
TABLEFORMAT_END
  1
CELLSTYLE_BEGIN
 90
        2
 91
        1
300
_HEADER
309
CELLSTYLE_END
300
CELLSTYLE
  1
TABLEFORMAT_BEGIN
 90
        5
170
     1
 91
        0
 92
        0
 62
   257
 93
        1
300
CONTENTFORMAT
  1
CONTENTFORMAT_BEGIN
 90
        0
 91
        0
 92
      512
 93
        0
300

 40
0.0
140
1.0
 94
        2
 62
     0
340
55
144
0.18
309
CONTENTFORMAT_END
171
     0
 94
        0
309
TABLEFORMAT_END
  1
CELLSTYLE_BEGIN
 90
        3
 91
        2
300
_DATA
309
CELLSTYLE_END
  0
XRECORD
  5
184
102
{ACAD_REACTORS
330
183
102
}
330
183
100
AcDbXrecord
280
     1
102
RTVSPost2010Prop28
280
     1
102
RTVSPost2010PropOp28
 70
     1
102
RTVSPost2010Prop29
280
     1
102
RTVSPost2010PropOp29
 70
     1
102
RTVSPost2010Prop30
280
     0
102
RTVSPost2010PropOp30
 70
     1
102
RTVSPost2010Prop31
280
     0
102
RTVSPost2010PropOp31
 70
     1
102
RTVSPost2010Prop32
280
     0
102
RTVSPost2010PropOp32
 70
     1
102
RTVSPost2010Prop33
280
     0
102
RTVSPost2010PropOp33
 70
     1
102
RTVSPost2010Prop34
280
     0
102
RTVSPost2010PropOp34
 70
     1
102
RTVSPost2010Prop35
280
     0
102
RTVSPost2010PropOp35
 70
     1
102
RTVSPost2010Prop36
280
     0
102
RTVSPost2010PropOp36
 70
     1
102
RTVSPost2010Prop37
 90
       50
102
RTVSPost2010PropOp37
 70
     1
102
RTVSPost2010Prop38
140
0.0
102
RTVSPost2010PropOp38
 70
     1
102
RTVSPost2010Prop39
140
1.0
102
RTVSPost2010PropOp39
 70
     1
102
RTVSPost2010Prop40
 90
        0
102
RTVSPost2010PropOp40
 70
     1
102
RTVSPost2010Prop41ColorIndex
 90
       18
102
RTVSPost2010Prop41ColorRGB
 90
        0
102
RTVSPost2010PropOp41
 70
     1
102
RTVSPost2010Prop42
 90
       50
102
RTVSPost2010PropOp42
 70
     1
102
RTVSPost2010Prop43
 90
        3
102
RTVSPost2010PropOp43
 70
     1
102
RTVSPost2010Prop44ColorIndex
 90
        5
102
RTVSPost2010Prop44ColorRGB
 90
      255
102
RTVSPost2010PropOp44
 70
     1
102
RTVSPost2010Prop45
280
     0
102
RTVSPost2010PropOp45
 70
     1
102
RTVSPost2010Prop46
 90
       50
102
RTVSPost2010PropOp46
 70
     1
102
RTVSPost2010Prop47
 90
       50
102
RTVSPost2010PropOp47
 70
     1
102
RTVSPost2010Prop48
 90
       50
102
RTVSPost2010PropOp48
 70
     1
102
RTVSPost2010Prop49
280
     0
102
RTVSPost2010PropOp49
 70
     1
102
RTVSPost2010Prop50
 90
       50
102
RTVSPost2010PropOp50
 70
     1
102
RTVSPost2010Prop51ColorIndex
 90
      256
102
RTVSPost2010Prop51ColorRGB
 90
-16777216
102
RTVSPost2010PropOp51
 70
     0
102
RTVSPost2010Prop52
140
1.0
102
RTVSPost2010PropOp52
 70
     0
102
RTVSPost2010Prop53
 90
        2
102
RTVSPost2010PropOp53
 70
     1
102
RTVSPost2010Prop54
  1
strokes_ogs.tif
102
RTVSPost2010PropOp54
 70
     1
102
RTVSPost2010Prop55
280
     0
102
RTVSPost2010PropOp55
 70
     1
102
RTVSPost2010Prop56
140
1.0
102
RTVSPost2010PropOp56
 70
     1
102
RTVSPost2010Prop57
140
1.0
102
RTVSPost2010PropOp57
 70
     1
  0
XRECORD
  5
182
102
{ACAD_REACTORS
330
181
102
}
330
181
100
AcDbXrecord
280
     1
102
RTVSPost2010Prop28
280
     0
102
RTVSPost2010PropOp28
 70
     1
102
RTVSPost2010Prop29
280
     1
102
RTVSPost2010PropOp29
 70
     1
102
RTVSPost2010Prop30
280
     1
102
RTVSPost2010PropOp30
 70
     1
102
RTVSPost2010Prop31
280
     0
102
RTVSPost2010PropOp31
 70
     1
102
RTVSPost2010Prop32
280
     0
102
RTVSPost2010PropOp32
 70
     1
102
RTVSPost2010Prop33
280
     0
102
RTVSPost2010PropOp33
 70
     1
102
RTVSPost2010Prop34
280
     0
102
RTVSPost2010PropOp34
 70
     1
102
RTVSPost2010Prop35
280
     0
102
RTVSPost2010PropOp35
 70
     1
102
RTVSPost2010Prop36
280
     0
102
RTVSPost2010PropOp36
 70
     1
102
RTVSPost2010Prop37
 90
       50
102
RTVSPost2010PropOp37
 70
     1
102
RTVSPost2010Prop38
140
0.0
102
RTVSPost2010PropOp38
 70
     1
102
RTVSPost2010Prop39
140
1.0
102
RTVSPost2010PropOp39
 70
     1
102
RTVSPost2010Prop40
 90
        0
102
RTVSPost2010PropOp40
 70
     1
102
RTVSPost2010Prop41ColorIndex
 90
       18
102
RTVSPost2010Prop41ColorRGB
 90
        0
102
RTVSPost2010PropOp41
 70
     1
102
RTVSPost2010Prop42
 90
       50
102
RTVSPost2010PropOp42
 70
     1
102
RTVSPost2010Prop43
 90
        3
102
RTVSPost2010PropOp43
 70
     1
102
RTVSPost2010Prop44ColorIndex
 90
        5
102
RTVSPost2010Prop44ColorRGB
 90
      255
102
RTVSPost2010PropOp44
 70
     1
102
RTVSPost2010Prop45
280
     0
102
RTVSPost2010PropOp45
 70
     1
102
RTVSPost2010Prop46
 90
       50
102
RTVSPost2010PropOp46
 70
     1
102
RTVSPost2010Prop47
 90
       50
102
RTVSPost2010PropOp47
 70
     1
102
RTVSPost2010Prop48
 90
       50
102
RTVSPost2010PropOp48
 70
     1
102
RTVSPost2010Prop49
280
     0
102
RTVSPost2010PropOp49
 70
     1
102
RTVSPost2010Prop50
 90
       50
102
RTVSPost2010PropOp50
 70
     1
102
RTVSPost2010Prop51ColorIndex
 90
      256
102
RTVSPost2010Prop51ColorRGB
 90
-16777216
102
RTVSPost2010PropOp51
 70
     0
102
RTVSPost2010Prop52
140
1.0
102
RTVSPost2010PropOp52
 70
     0
102
RTVSPost2010Prop53
 90
        2
102
RTVSPost2010PropOp53
 70
     1
102
RTVSPost2010Prop54
  1
strokes_ogs.tif
102
RTVSPost2010PropOp54
 70
     1
102
RTVSPost2010Prop55
280
     0
102
RTVSPost2010PropOp55
 70
     1
102
RTVSPost2010Prop56
140
1.0
102
RTVSPost2010PropOp56
 70
     1
102
RTVSPost2010Prop57
140
1.0
102
RTVSPost2010PropOp57
 70
     1
  0
XRECORD
  5
190
102
{ACAD_REACTORS
330
18F
102
}
330
18F
100
AcDbXrecord
280
     1
102
RTVSPost2010Prop28
280
     0
102
RTVSPost2010PropOp28
 70
     1
102
RTVSPost2010Prop29
280
     1
102
RTVSPost2010PropOp29
 70
     1
102
RTVSPost2010Prop30
280
     1
102
RTVSPost2010PropOp30
 70
     1
102
RTVSPost2010Prop31
280
     0
102
RTVSPost2010PropOp31
 70
     1
102
RTVSPost2010Prop32
280
     0
102
RTVSPost2010PropOp32
 70
     1
102
RTVSPost2010Prop33
280
     0
102
RTVSPost2010PropOp33
 70
     1
102
RTVSPost2010Prop34
280
     0
102
RTVSPost2010PropOp34
 70
     1
102
RTVSPost2010Prop35
280
     0
102
RTVSPost2010PropOp35
 70
     1
102
RTVSPost2010Prop36
280
     0
102
RTVSPost2010PropOp36
 70
     1
102
RTVSPost2010Prop37
 90
       50
102
RTVSPost2010PropOp37
 70
     1
102
RTVSPost2010Prop38
140
0.0
102
RTVSPost2010PropOp38
 70
     1
102
RTVSPost2010Prop39
140
1.0
102
RTVSPost2010PropOp39
 70
     1
102
RTVSPost2010Prop40
 90
        0
102
RTVSPost2010PropOp40
 70
     1
102
RTVSPost2010Prop41ColorIndex
 90
       18
102
RTVSPost2010Prop41ColorRGB
 90
        0
102
RTVSPost2010PropOp41
 70
     1
102
RTVSPost2010Prop42
 90
       50
102
RTVSPost2010PropOp42
 70
     1
102
RTVSPost2010Prop43
 90
        3
102
RTVSPost2010PropOp43
 70
     1
102
RTVSPost2010Prop44ColorIndex
 90
        5
102
RTVSPost2010Prop44ColorRGB
 90
      255
102
RTVSPost2010PropOp44
 70
     1
102
RTVSPost2010Prop45
280
     0
102
RTVSPost2010PropOp45
 70
     1
102
RTVSPost2010Prop46
 90
       50
102
RTVSPost2010PropOp46
 70
     1
102
RTVSPost2010Prop47
 90
       50
102
RTVSPost2010PropOp47
 70
     1
102
RTVSPost2010Prop48
 90
       50
102
RTVSPost2010PropOp48
 70
     1
102
RTVSPost2010Prop49
280
     0
102
RTVSPost2010PropOp49
 70
     1
102
RTVSPost2010Prop50
 90
       50
102
RTVSPost2010PropOp50
 70
     1
102
RTVSPost2010Prop51ColorIndex
 90
      256
102
RTVSPost2010Prop51ColorRGB
 90
-16777216
102
RTVSPost2010PropOp51
 70
     0
102
RTVSPost2010Prop52
140
1.0
102
RTVSPost2010PropOp52
 70
     0
102
RTVSPost2010Prop53
 90
        2
102
RTVSPost2010PropOp53
 70
     1
102
RTVSPost2010Prop54
  1
strokes_ogs.tif
102
RTVSPost2010PropOp54
 70
     1
102
RTVSPost2010Prop55
280
     0
102
RTVSPost2010PropOp55
 70
     1
102
RTVSPost2010Prop56
140
1.0
102
RTVSPost2010PropOp56
 70
     1
102
RTVSPost2010Prop57
140
1.0
102
RTVSPost2010PropOp57
 70
     1
  0
XRECORD
  5
198
102
{ACAD_REACTORS
330
197
102
}
330
197
100
AcDbXrecord
280
     1
102
RTVSPost2010Prop28
280
     0
102
RTVSPost2010PropOp28
 70
     1
102
RTVSPost2010Prop29
280
     1
102
RTVSPost2010PropOp29
 70
     1
102
RTVSPost2010Prop30
280
     1
102
RTVSPost2010PropOp30
 70
     1
102
RTVSPost2010Prop31
280
     0
102
RTVSPost2010PropOp31
 70
     1
102
RTVSPost2010Prop32
280
     0
102
RTVSPost2010PropOp32
 70
     1
102
RTVSPost2010Prop33
280
     0
102
RTVSPost2010PropOp33
 70
     1
102
RTVSPost2010Prop34
280
     0
102
RTVSPost2010PropOp34
 70
     1
102
RTVSPost2010Prop35
280
     0
102
RTVSPost2010PropOp35
 70
     1
102
RTVSPost2010Prop36
280
     0
102
RTVSPost2010PropOp36
 70
     1
102
RTVSPost2010Prop37
 90
       50
102
RTVSPost2010PropOp37
 70
     1
102
RTVSPost2010Prop38
140
0.0
102
RTVSPost2010PropOp38
 70
     1
102
RTVSPost2010Prop39
140
1.0
102
RTVSPost2010PropOp39
 70
     1
102
RTVSPost2010Prop40
 90
        0
102
RTVSPost2010PropOp40
 70
     1
102
RTVSPost2010Prop41ColorIndex
 90
       18
102
RTVSPost2010Prop41ColorRGB
 90
        0
102
RTVSPost2010PropOp41
 70
     1
102
RTVSPost2010Prop42
 90
       50
102
RTVSPost2010PropOp42
 70
     1
102
RTVSPost2010Prop43
 90
        3
102
RTVSPost2010PropOp43
 70
     1
102
RTVSPost2010Prop44ColorIndex
 90
        5
102
RTVSPost2010Prop44ColorRGB
 90
      255
102
RTVSPost2010PropOp44
 70
     1
102
RTVSPost2010Prop45
280
     0
102
RTVSPost2010PropOp45
 70
     1
102
RTVSPost2010Prop46
 90
       50
102
RTVSPost2010PropOp46
 70
     1
102
RTVSPost2010Prop47
 90
       50
102
RTVSPost2010PropOp47
 70
     1
102
RTVSPost2010Prop48
 90
       50
102
RTVSPost2010PropOp48
 70
     1
102
RTVSPost2010Prop49
280
     0
102
RTVSPost2010PropOp49
 70
     1
102
RTVSPost2010Prop50
 90
       50
102
RTVSPost2010PropOp50
 70
     1
102
RTVSPost2010Prop51ColorIndex
 90
      256
102
RTVSPost2010Prop51ColorRGB
 90
-16777216
102
RTVSPost2010PropOp51
 70
     0
102
RTVSPost2010Prop52
140
1.0
102
RTVSPost2010PropOp52
 70
     0
102
RTVSPost2010Prop53
 90
        2
102
RTVSPost2010PropOp53
 70
     1
102
RTVSPost2010Prop54
  1
strokes_ogs.tif
102
RTVSPost2010PropOp54
 70
     1
102
RTVSPost2010Prop55
280
     0
102
RTVSPost2010PropOp55
 70
     1
102
RTVSPost2010Prop56
140
1.0
102
RTVSPost2010PropOp56
 70
     1
102
RTVSPost2010Prop57
140
1.0
102
RTVSPost2010PropOp57
 70
     1
  0
XRECORD
  5
18A
102
{ACAD_REACTORS
330
189
102
}
330
189
100
AcDbXrecord
280
     1
102
RTVSPost2010Prop28
280
     0
102
RTVSPost2010PropOp28
 70
     1
102
RTVSPost2010Prop29
280
     1
102
RTVSPost2010PropOp29
 70
     1
102
RTVSPost2010Prop30
280
     1
102
RTVSPost2010PropOp30
 70
     1
102
RTVSPost2010Prop31
280
     0
102
RTVSPost2010PropOp31
 70
     1
102
RTVSPost2010Prop32
280
     0
102
RTVSPost2010PropOp32
 70
     1
102
RTVSPost2010Prop33
280
     0
102
RTVSPost2010PropOp33
 70
     1
102
RTVSPost2010Prop34
280
     0
102
RTVSPost2010PropOp34
 70
     1
102
RTVSPost2010Prop35
280
     0
102
RTVSPost2010PropOp35
 70
     1
102
RTVSPost2010Prop36
280
     0
102
RTVSPost2010PropOp36
 70
     1
102
RTVSPost2010Prop37
 90
       50
102
RTVSPost2010PropOp37
 70
     1
102
RTVSPost2010Prop38
140
0.0
102
RTVSPost2010PropOp38
 70
     1
102
RTVSPost2010Prop39
140
1.0
102
RTVSPost2010PropOp39
 70
     1
102
RTVSPost2010Prop40
 90
        0
102
RTVSPost2010PropOp40
 70
     1
102
RTVSPost2010Prop41ColorIndex
 90
       18
102
RTVSPost2010Prop41ColorRGB
 90
        0
102
RTVSPost2010PropOp41
 70
     1
102
RTVSPost2010Prop42
 90
       50
102
RTVSPost2010PropOp42
 70
     1
102
RTVSPost2010Prop43
 90
        3
102
RTVSPost2010PropOp43
 70
     1
102
RTVSPost2010Prop44ColorIndex
 90
        5
102
RTVSPost2010Prop44ColorRGB
 90
      255
102
RTVSPost2010PropOp44
 70
     1
102
RTVSPost2010Prop45
280
     0
102
RTVSPost2010PropOp45
 70
     1
102
RTVSPost2010Prop46
 90
       50
102
RTVSPost2010PropOp46
 70
     1
102
RTVSPost2010Prop47
 90
       50
102
RTVSPost2010PropOp47
 70
     1
102
RTVSPost2010Prop48
 90
       50
102
RTVSPost2010PropOp48
 70
     1
102
RTVSPost2010Prop49
280
     0
102
RTVSPost2010PropOp49
 70
     1
102
RTVSPost2010Prop50
 90
       50
102
RTVSPost2010PropOp50
 70
     1
102
RTVSPost2010Prop51ColorIndex
 90
      256
102
RTVSPost2010Prop51ColorRGB
 90
-16777216
102
RTVSPost2010PropOp51
 70
     0
102
RTVSPost2010Prop52
140
1.0
102
RTVSPost2010PropOp52
 70
     0
102
RTVSPost2010Prop53
 90
        2
102
RTVSPost2010PropOp53
 70
     1
102
RTVSPost2010Prop54
  1
strokes_ogs.tif
102
RTVSPost2010PropOp54
 70
     1
102
RTVSPost2010Prop55
280
     0
102
RTVSPost2010PropOp55
 70
     1
102
RTVSPost2010Prop56
140
1.0
102
RTVSPost2010PropOp56
 70
     1
102
RTVSPost2010Prop57
140
1.0
102
RTVSPost2010PropOp57
 70
     1
  0
XRECORD
  5
18E
102
{ACAD_REACTORS
330
18D
102
}
330
18D
100
AcDbXrecord
280
     1
102
RTVSPost2010Prop28
280
     0
102
RTVSPost2010PropOp28
 70
     1
102
RTVSPost2010Prop29
280
     1
102
RTVSPost2010PropOp29
 70
     1
102
RTVSPost2010Prop30
280
     1
102
RTVSPost2010PropOp30
 70
     1
102
RTVSPost2010Prop31
280
     0
102
RTVSPost2010PropOp31
 70
     1
102
RTVSPost2010Prop32
280
     0
102
RTVSPost2010PropOp32
 70
     1
102
RTVSPost2010Prop33
280
     0
102
RTVSPost2010PropOp33
 70
     1
102
RTVSPost2010Prop34
280
     0
102
RTVSPost2010PropOp34
 70
     1
102
RTVSPost2010Prop35
280
     0
102
RTVSPost2010PropOp35
 70
     1
102
RTVSPost2010Prop36
280
     0
102
RTVSPost2010PropOp36
 70
     1
102
RTVSPost2010Prop37
 90
       50
102
RTVSPost2010PropOp37
 70
     1
102
RTVSPost2010Prop38
140
0.0
102
RTVSPost2010PropOp38
 70
     1
102
RTVSPost2010Prop39
140
1.0
102
RTVSPost2010PropOp39
 70
     1
102
RTVSPost2010Prop40
 90
        0
102
RTVSPost2010PropOp40
 70
     1
102
RTVSPost2010Prop41ColorIndex
 90
       18
102
RTVSPost2010Prop41ColorRGB
 90
        0
102
RTVSPost2010PropOp41
 70
     1
102
RTVSPost2010Prop42
 90
       50
102
RTVSPost2010PropOp42
 70
     1
102
RTVSPost2010Prop43
 90
        3
102
RTVSPost2010PropOp43
 70
     1
102
RTVSPost2010Prop44ColorIndex
 90
        5
102
RTVSPost2010Prop44ColorRGB
 90
      255
102
RTVSPost2010PropOp44
 70
     1
102
RTVSPost2010Prop45
280
     0
102
RTVSPost2010PropOp45
 70
     1
102
RTVSPost2010Prop46
 90
       50
102
RTVSPost2010PropOp46
 70
     1
102
RTVSPost2010Prop47
 90
       50
102
RTVSPost2010PropOp47
 70
     1
102
RTVSPost2010Prop48
 90
       50
102
RTVSPost2010PropOp48
 70
     1
102
RTVSPost2010Prop49
280
     0
102
RTVSPost2010PropOp49
 70
     1
102
RTVSPost2010Prop50
 90
       50
102
RTVSPost2010PropOp50
 70
     1
102
RTVSPost2010Prop51ColorIndex
 90
      256
102
RTVSPost2010Prop51ColorRGB
 90
-16777216
102
RTVSPost2010PropOp51
 70
     0
102
RTVSPost2010Prop52
140
1.0
102
RTVSPost2010PropOp52
 70
     0
102
RTVSPost2010Prop53
 90
        2
102
RTVSPost2010PropOp53
 70
     1
102
RTVSPost2010Prop54
  1
strokes_ogs.tif
102
RTVSPost2010PropOp54
 70
     1
102
RTVSPost2010Prop55
280
     0
102
RTVSPost2010PropOp55
 70
     1
102
RTVSPost2010Prop56
140
1.0
102
RTVSPost2010PropOp56
 70
     1
102
RTVSPost2010Prop57
140
1.0
102
RTVSPost2010PropOp57
 70
     1
  0
XRECORD
  5
1A8
102
{ACAD_REACTORS
330
1A7
102
}
330
1A7
100
AcDbXrecord
280
     1
102
RTVSPost2010Prop28
280
     0
102
RTVSPost2010PropOp28
 70
     0
102
RTVSPost2010Prop29
280
     1
102
RTVSPost2010PropOp29
 70
     0
102
RTVSPost2010Prop30
280
     1
102
RTVSPost2010PropOp30
 70
     0
102
RTVSPost2010Prop31
280
     0
102
RTVSPost2010PropOp31
 70
     0
102
RTVSPost2010Prop32
280
     0
102
RTVSPost2010PropOp32
 70
     0
102
RTVSPost2010Prop33
280
     0
102
RTVSPost2010PropOp33
 70
     0
102
RTVSPost2010Prop34
280
     0
102
RTVSPost2010PropOp34
 70
     0
102
RTVSPost2010Prop35
280
     0
102
RTVSPost2010PropOp35
 70
     0
102
RTVSPost2010Prop36
280
     0
102
RTVSPost2010PropOp36
 70
     0
102
RTVSPost2010Prop37
 90
       50
102
RTVSPost2010PropOp37
 70
     0
102
RTVSPost2010Prop38
140
0.0
102
RTVSPost2010PropOp38
 70
     0
102
RTVSPost2010Prop39
140
1.0
102
RTVSPost2010PropOp39
 70
     0
102
RTVSPost2010Prop40
 90
        0
102
RTVSPost2010PropOp40
 70
     0
102
RTVSPost2010Prop41ColorIndex
 90
       18
102
RTVSPost2010Prop41ColorRGB
 90
        0
102
RTVSPost2010PropOp41
 70
     0
102
RTVSPost2010Prop42
 90
       50
102
RTVSPost2010PropOp42
 70
     0
102
RTVSPost2010Prop43
 90
        3
102
RTVSPost2010PropOp43
 70
     0
102
RTVSPost2010Prop44ColorIndex
 90
        5
102
RTVSPost2010Prop44ColorRGB
 90
      255
102
RTVSPost2010PropOp44
 70
     0
102
RTVSPost2010Prop45
280
     0
102
RTVSPost2010PropOp45
 70
     0
102
RTVSPost2010Prop46
 90
       50
102
RTVSPost2010PropOp46
 70
     0
102
RTVSPost2010Prop47
 90
       50
102
RTVSPost2010PropOp47
 70
     0
102
RTVSPost2010Prop48
 90
       50
102
RTVSPost2010PropOp48
 70
     0
102
RTVSPost2010Prop49
280
     0
102
RTVSPost2010PropOp49
 70
     0
102
RTVSPost2010Prop50
 90
       50
102
RTVSPost2010PropOp50
 70
     0
102
RTVSPost2010Prop51ColorIndex
 90
      256
102
RTVSPost2010Prop51ColorRGB
 90
-16777216
102
RTVSPost2010PropOp51
 70
     0
102
RTVSPost2010Prop52
140
1.0
102
RTVSPost2010PropOp52
 70
     0
102
RTVSPost2010Prop53
 90
        2
102
RTVSPost2010PropOp53
 70
     0
102
RTVSPost2010Prop54
  1
strokes_ogs.tif
102
RTVSPost2010PropOp54
 70
     0
102
RTVSPost2010Prop55
280
     0
102
RTVSPost2010PropOp55
 70
     0
102
RTVSPost2010Prop56
140
1.0
102
RTVSPost2010PropOp56
 70
     0
102
RTVSPost2010Prop57
140
1.0
102
RTVSPost2010PropOp57
 70
     0
  0
XRECORD
  5
196
102
{ACAD_REACTORS
330
195
102
}
330
195
100
AcDbXrecord
280
     1
102
RTVSPost2010Prop28
280
     0
102
RTVSPost2010PropOp28
 70
     1
102
RTVSPost2010Prop29
280
     1
102
RTVSPost2010PropOp29
 70
     1
102
RTVSPost2010Prop30
280
     1
102
RTVSPost2010PropOp30
 70
     1
102
RTVSPost2010Prop31
280
     0
102
RTVSPost2010PropOp31
 70
     1
102
RTVSPost2010Prop32
280
     0
102
RTVSPost2010PropOp32
 70
     1
102
RTVSPost2010Prop33
280
     0
102
RTVSPost2010PropOp33
 70
     1
102
RTVSPost2010Prop34
280
     0
102
RTVSPost2010PropOp34
 70
     1
102
RTVSPost2010Prop35
280
     0
102
RTVSPost2010PropOp35
 70
     1
102
RTVSPost2010Prop36
280
     0
102
RTVSPost2010PropOp36
 70
     1
102
RTVSPost2010Prop37
 90
       50
102
RTVSPost2010PropOp37
 70
     1
102
RTVSPost2010Prop38
140
0.0
102
RTVSPost2010PropOp38
 70
     1
102
RTVSPost2010Prop39
140
1.0
102
RTVSPost2010PropOp39
 70
     1
102
RTVSPost2010Prop40
 90
        0
102
RTVSPost2010PropOp40
 70
     1
102
RTVSPost2010Prop41ColorIndex
 90
       18
102
RTVSPost2010Prop41ColorRGB
 90
        0
102
RTVSPost2010PropOp41
 70
     1
102
RTVSPost2010Prop42
 90
       50
102
RTVSPost2010PropOp42
 70
     1
102
RTVSPost2010Prop43
 90
        3
102
RTVSPost2010PropOp43
 70
     1
102
RTVSPost2010Prop44ColorIndex
 90
        5
102
RTVSPost2010Prop44ColorRGB
 90
      255
102
RTVSPost2010PropOp44
 70
     1
102
RTVSPost2010Prop45
280
     0
102
RTVSPost2010PropOp45
 70
     1
102
RTVSPost2010Prop46
 90
       50
102
RTVSPost2010PropOp46
 70
     1
102
RTVSPost2010Prop47
 90
       50
102
RTVSPost2010PropOp47
 70
     1
102
RTVSPost2010Prop48
 90
       50
102
RTVSPost2010PropOp48
 70
     1
102
RTVSPost2010Prop49
280
     0
102
RTVSPost2010PropOp49
 70
     1
102
RTVSPost2010Prop50
 90
       50
102
RTVSPost2010PropOp50
 70
     1
102
RTVSPost2010Prop51ColorIndex
 90
      256
102
RTVSPost2010Prop51ColorRGB
 90
-16777216
102
RTVSPost2010PropOp51
 70
     0
102
RTVSPost2010Prop52
140
1.0
102
RTVSPost2010PropOp52
 70
     0
102
RTVSPost2010Prop53
 90
        2
102
RTVSPost2010PropOp53
 70
     1
102
RTVSPost2010Prop54
  1
strokes_ogs.tif
102
RTVSPost2010PropOp54
 70
     1
102
RTVSPost2010Prop55
280
     0
102
RTVSPost2010PropOp55
 70
     1
102
RTVSPost2010Prop56
140
1.0
102
RTVSPost2010PropOp56
 70
     1
102
RTVSPost2010Prop57
140
1.0
102
RTVSPost2010PropOp57
 70
     1
  0
XRECORD
  5
17A
102
{ACAD_REACTORS
330
179
102
}
330
179
100
AcDbXrecord
280
     1
102
RTVSPost2010Prop28
280
     0
102
RTVSPost2010PropOp28
 70
     1
102
RTVSPost2010Prop29
280
     1
102
RTVSPost2010PropOp29
 70
     1
102
RTVSPost2010Prop30
280
     1
102
RTVSPost2010PropOp30
 70
     1
102
RTVSPost2010Prop31
280
     0
102
RTVSPost2010PropOp31
 70
     1
102
RTVSPost2010Prop32
280
     0
102
RTVSPost2010PropOp32
 70
     1
102
RTVSPost2010Prop33
280
     0
102
RTVSPost2010PropOp33
 70
     1
102
RTVSPost2010Prop34
280
     0
102
RTVSPost2010PropOp34
 70
     1
102
RTVSPost2010Prop35
280
     0
102
RTVSPost2010PropOp35
 70
     1
102
RTVSPost2010Prop36
280
     0
102
RTVSPost2010PropOp36
 70
     1
102
RTVSPost2010Prop37
 90
       50
102
RTVSPost2010PropOp37
 70
     1
102
RTVSPost2010Prop38
140
0.0
102
RTVSPost2010PropOp38
 70
     1
102
RTVSPost2010Prop39
140
1.0
102
RTVSPost2010PropOp39
 70
     1
102
RTVSPost2010Prop40
 90
        0
102
RTVSPost2010PropOp40
 70
     1
102
RTVSPost2010Prop41ColorIndex
 90
       18
102
RTVSPost2010Prop41ColorRGB
 90
        0
102
RTVSPost2010PropOp41
 70
     1
102
RTVSPost2010Prop42
 90
       50
102
RTVSPost2010PropOp42
 70
     1
102
RTVSPost2010Prop43
 90
        3
102
RTVSPost2010PropOp43
 70
     1
102
RTVSPost2010Prop44ColorIndex
 90
        5
102
RTVSPost2010Prop44ColorRGB
 90
      255
102
RTVSPost2010PropOp44
 70
     1
102
RTVSPost2010Prop45
280
     0
102
RTVSPost2010PropOp45
 70
     1
102
RTVSPost2010Prop46
 90
       50
102
RTVSPost2010PropOp46
 70
     1
102
RTVSPost2010Prop47
 90
       50
102
RTVSPost2010PropOp47
 70
     1
102
RTVSPost2010Prop48
 90
       50
102
RTVSPost2010PropOp48
 70
     1
102
RTVSPost2010Prop49
280
     0
102
RTVSPost2010PropOp49
 70
     1
102
RTVSPost2010Prop50
 90
       50
102
RTVSPost2010PropOp50
 70
     1
102
RTVSPost2010Prop51ColorIndex
 90
      256
102
RTVSPost2010Prop51ColorRGB
 90
-16777216
102
RTVSPost2010PropOp51
 70
     0
102
RTVSPost2010Prop52
140
1.0
102
RTVSPost2010PropOp52
 70
     0
102
RTVSPost2010Prop53
 90
        2
102
RTVSPost2010PropOp53
 70
     1
102
RTVSPost2010Prop54
  1
strokes_ogs.tif
102
RTVSPost2010PropOp54
 70
     1
102
RTVSPost2010Prop55
280
     0
102
RTVSPost2010PropOp55
 70
     1
102
RTVSPost2010Prop56
140
1.0
102
RTVSPost2010PropOp56
 70
     1
102
RTVSPost2010Prop57
140
1.0
102
RTVSPost2010PropOp57
 70
     1
  0
XRECORD
  5
17C
102
{ACAD_REACTORS
330
17B
102
}
330
17B
100
AcDbXrecord
280
     1
102
RTVSPost2010Prop28
280
     0
102
RTVSPost2010PropOp28
 70
     1
102
RTVSPost2010Prop29
280
     1
102
RTVSPost2010PropOp29
 70
     1
102
RTVSPost2010Prop30
280
     1
102
RTVSPost2010PropOp30
 70
     1
102
RTVSPost2010Prop31
280
     0
102
RTVSPost2010PropOp31
 70
     1
102
RTVSPost2010Prop32
280
     0
102
RTVSPost2010PropOp32
 70
     1
102
RTVSPost2010Prop33
280
     0
102
RTVSPost2010PropOp33
 70
     1
102
RTVSPost2010Prop34
280
     0
102
RTVSPost2010PropOp34
 70
     1
102
RTVSPost2010Prop35
280
     0
102
RTVSPost2010PropOp35
 70
     1
102
RTVSPost2010Prop36
280
     0
102
RTVSPost2010PropOp36
 70
     1
102
RTVSPost2010Prop37
 90
       50
102
RTVSPost2010PropOp37
 70
     1
102
RTVSPost2010Prop38
140
0.0
102
RTVSPost2010PropOp38
 70
     1
102
RTVSPost2010Prop39
140
1.0
102
RTVSPost2010PropOp39
 70
     1
102
RTVSPost2010Prop40
 90
        0
102
RTVSPost2010PropOp40
 70
     1
102
RTVSPost2010Prop41ColorIndex
 90
       18
102
RTVSPost2010Prop41ColorRGB
 90
        0
102
RTVSPost2010PropOp41
 70
     1
102
RTVSPost2010Prop42
 90
       50
102
RTVSPost2010PropOp42
 70
     1
102
RTVSPost2010Prop43
 90
        3
102
RTVSPost2010PropOp43
 70
     1
102
RTVSPost2010Prop44ColorIndex
 90
        5
102
RTVSPost2010Prop44ColorRGB
 90
      255
102
RTVSPost2010PropOp44
 70
     1
102
RTVSPost2010Prop45
280
     0
102
RTVSPost2010PropOp45
 70
     1
102
RTVSPost2010Prop46
 90
       50
102
RTVSPost2010PropOp46
 70
     1
102
RTVSPost2010Prop47
 90
       50
102
RTVSPost2010PropOp47
 70
     1
102
RTVSPost2010Prop48
 90
       50
102
RTVSPost2010PropOp48
 70
     1
102
RTVSPost2010Prop49
280
     0
102
RTVSPost2010PropOp49
 70
     1
102
RTVSPost2010Prop50
 90
       50
102
RTVSPost2010PropOp50
 70
     1
102
RTVSPost2010Prop51ColorIndex
 90
      256
102
RTVSPost2010Prop51ColorRGB
 90
-16777216
102
RTVSPost2010PropOp51
 70
     0
102
RTVSPost2010Prop52
140
1.0
102
RTVSPost2010PropOp52
 70
     0
102
RTVSPost2010Prop53
 90
        2
102
RTVSPost2010PropOp53
 70
     1
102
RTVSPost2010Prop54
  1
strokes_ogs.tif
102
RTVSPost2010PropOp54
 70
     1
102
RTVSPost2010Prop55
280
     0
102
RTVSPost2010PropOp55
 70
     1
102
RTVSPost2010Prop56
140
1.0
102
RTVSPost2010PropOp56
 70
     1
102
RTVSPost2010Prop57
140
1.0
102
RTVSPost2010PropOp57
 70
     1
  0
XRECORD
  5
17E
102
{ACAD_REACTORS
330
17D
102
}
330
17D
100
AcDbXrecord
280
     1
102
RTVSPost2010Prop28
280
     0
102
RTVSPost2010PropOp28
 70
     1
102
RTVSPost2010Prop29
280
     1
102
RTVSPost2010PropOp29
 70
     1
102
RTVSPost2010Prop30
280
     1
102
RTVSPost2010PropOp30
 70
     1
102
RTVSPost2010Prop31
280
     0
102
RTVSPost2010PropOp31
 70
     1
102
RTVSPost2010Prop32
280
     0
102
RTVSPost2010PropOp32
 70
     1
102
RTVSPost2010Prop33
280
     0
102
RTVSPost2010PropOp33
 70
     1
102
RTVSPost2010Prop34
280
     0
102
RTVSPost2010PropOp34
 70
     1
102
RTVSPost2010Prop35
280
     0
102
RTVSPost2010PropOp35
 70
     1
102
RTVSPost2010Prop36
280
     0
102
RTVSPost2010PropOp36
 70
     1
102
RTVSPost2010Prop37
 90
       50
102
RTVSPost2010PropOp37
 70
     1
102
RTVSPost2010Prop38
140
0.0
102
RTVSPost2010PropOp38
 70
     1
102
RTVSPost2010Prop39
140
1.0
102
RTVSPost2010PropOp39
 70
     1
102
RTVSPost2010Prop40
 90
        0
102
RTVSPost2010PropOp40
 70
     1
102
RTVSPost2010Prop41ColorIndex
 90
       18
102
RTVSPost2010Prop41ColorRGB
 90
        0
102
RTVSPost2010PropOp41
 70
     1
102
RTVSPost2010Prop42
 90
       50
102
RTVSPost2010PropOp42
 70
     1
102
RTVSPost2010Prop43
 90
        3
102
RTVSPost2010PropOp43
 70
     1
102
RTVSPost2010Prop44ColorIndex
 90
        5
102
RTVSPost2010Prop44ColorRGB
 90
      255
102
RTVSPost2010PropOp44
 70
     1
102
RTVSPost2010Prop45
280
     0
102
RTVSPost2010PropOp45
 70
     1
102
RTVSPost2010Prop46
 90
       50
102
RTVSPost2010PropOp46
 70
     1
102
RTVSPost2010Prop47
 90
       50
102
RTVSPost2010PropOp47
 70
     1
102
RTVSPost2010Prop48
 90
       50
102
RTVSPost2010PropOp48
 70
     1
102
RTVSPost2010Prop49
280
     0
102
RTVSPost2010PropOp49
 70
     1
102
RTVSPost2010Prop50
 90
       50
102
RTVSPost2010PropOp50
 70
     1
102
RTVSPost2010Prop51ColorIndex
 90
      256
102
RTVSPost2010Prop51ColorRGB
 90
-16777216
102
RTVSPost2010PropOp51
 70
     0
102
RTVSPost2010Prop52
140
1.0
102
RTVSPost2010PropOp52
 70
     0
102
RTVSPost2010Prop53
 90
        2
102
RTVSPost2010PropOp53
 70
     1
102
RTVSPost2010Prop54
  1
strokes_ogs.tif
102
RTVSPost2010PropOp54
 70
     1
102
RTVSPost2010Prop55
280
     0
102
RTVSPost2010PropOp55
 70
     1
102
RTVSPost2010Prop56
140
1.0
102
RTVSPost2010PropOp56
 70
     1
102
RTVSPost2010Prop57
140
1.0
102
RTVSPost2010PropOp57
 70
     1
  0
XRECORD
  5
180
102
{ACAD_REACTORS
330
17F
102
}
330
17F
100
AcDbXrecord
280
     1
102
RTVSPost2010Prop28
280
     0
102
RTVSPost2010PropOp28
 70
     1
102
RTVSPost2010Prop29
280
     1
102
RTVSPost2010PropOp29
 70
     1
102
RTVSPost2010Prop30
280
     1
102
RTVSPost2010PropOp30
 70
     1
102
RTVSPost2010Prop31
280
     0
102
RTVSPost2010PropOp31
 70
     1
102
RTVSPost2010Prop32
280
     0
102
RTVSPost2010PropOp32
 70
     1
102
RTVSPost2010Prop33
280
     0
102
RTVSPost2010PropOp33
 70
     1
102
RTVSPost2010Prop34
280
     0
102
RTVSPost2010PropOp34
 70
     1
102
RTVSPost2010Prop35
280
     0
102
RTVSPost2010PropOp35
 70
     1
102
RTVSPost2010Prop36
280
     0
102
RTVSPost2010PropOp36
 70
     1
102
RTVSPost2010Prop37
 90
       50
102
RTVSPost2010PropOp37
 70
     1
102
RTVSPost2010Prop38
140
0.0
102
RTVSPost2010PropOp38
 70
     1
102
RTVSPost2010Prop39
140
1.0
102
RTVSPost2010PropOp39
 70
     1
102
RTVSPost2010Prop40
 90
        0
102
RTVSPost2010PropOp40
 70
     1
102
RTVSPost2010Prop41ColorIndex
 90
       18
102
RTVSPost2010Prop41ColorRGB
 90
        0
102
RTVSPost2010PropOp41
 70
     1
102
RTVSPost2010Prop42
 90
       50
102
RTVSPost2010PropOp42
 70
     1
102
RTVSPost2010Prop43
 90
        3
102
RTVSPost2010PropOp43
 70
     1
102
RTVSPost2010Prop44ColorIndex
 90
        5
102
RTVSPost2010Prop44ColorRGB
 90
      255
102
RTVSPost2010PropOp44
 70
     1
102
RTVSPost2010Prop45
280
     0
102
RTVSPost2010PropOp45
 70
     1
102
RTVSPost2010Prop46
 90
       50
102
RTVSPost2010PropOp46
 70
     1
102
RTVSPost2010Prop47
 90
       50
102
RTVSPost2010PropOp47
 70
     1
102
RTVSPost2010Prop48
 90
       50
102
RTVSPost2010PropOp48
 70
     1
102
RTVSPost2010Prop49
280
     0
102
RTVSPost2010PropOp49
 70
     1
102
RTVSPost2010Prop50
 90
       50
102
RTVSPost2010PropOp50
 70
     1
102
RTVSPost2010Prop51ColorIndex
 90
      256
102
RTVSPost2010Prop51ColorRGB
 90
-16777216
102
RTVSPost2010PropOp51
 70
     0
102
RTVSPost2010Prop52
140
1.0
102
RTVSPost2010PropOp52
 70
     0
102
RTVSPost2010Prop53
 90
        2
102
RTVSPost2010PropOp53
 70
     1
102
RTVSPost2010Prop54
  1
strokes_ogs.tif
102
RTVSPost2010PropOp54
 70
     1
102
RTVSPost2010Prop55
280
     0
102
RTVSPost2010PropOp55
 70
     1
102
RTVSPost2010Prop56
140
1.0
102
RTVSPost2010PropOp56
 70
     1
102
RTVSPost2010Prop57
140
1.0
102
RTVSPost2010PropOp57
 70
     1
  0
XRECORD
  5
188
102
{ACAD_REACTORS
330
187
102
}
330
187
100
AcDbXrecord
280
     1
102
RTVSPost2010Prop28
280
     0
102
RTVSPost2010PropOp28
 70
     1
102
RTVSPost2010Prop29
280
     1
102
RTVSPost2010PropOp29
 70
     1
102
RTVSPost2010Prop30
280
     1
102
RTVSPost2010PropOp30
 70
     1
102
RTVSPost2010Prop31
280
     0
102
RTVSPost2010PropOp31
 70
     1
102
RTVSPost2010Prop32
280
     0
102
RTVSPost2010PropOp32
 70
     1
102
RTVSPost2010Prop33
280
     0
102
RTVSPost2010PropOp33
 70
     1
102
RTVSPost2010Prop34
280
     0
102
RTVSPost2010PropOp34
 70
     1
102
RTVSPost2010Prop35
280
     0
102
RTVSPost2010PropOp35
 70
     1
102
RTVSPost2010Prop36
280
     0
102
RTVSPost2010PropOp36
 70
     1
102
RTVSPost2010Prop37
 90
       50
102
RTVSPost2010PropOp37
 70
     1
102
RTVSPost2010Prop38
140
0.0
102
RTVSPost2010PropOp38
 70
     1
102
RTVSPost2010Prop39
140
1.0
102
RTVSPost2010PropOp39
 70
     1
102
RTVSPost2010Prop40
 90
        0
102
RTVSPost2010PropOp40
 70
     1
102
RTVSPost2010Prop41ColorIndex
 90
       18
102
RTVSPost2010Prop41ColorRGB
 90
        0
102
RTVSPost2010PropOp41
 70
     1
102
RTVSPost2010Prop42
 90
       50
102
RTVSPost2010PropOp42
 70
     1
102
RTVSPost2010Prop43
 90
        3
102
RTVSPost2010PropOp43
 70
     1
102
RTVSPost2010Prop44ColorIndex
 90
        5
102
RTVSPost2010Prop44ColorRGB
 90
      255
102
RTVSPost2010PropOp44
 70
     1
102
RTVSPost2010Prop45
280
     0
102
RTVSPost2010PropOp45
 70
     1
102
RTVSPost2010Prop46
 90
       50
102
RTVSPost2010PropOp46
 70
     1
102
RTVSPost2010Prop47
 90
       50
102
RTVSPost2010PropOp47
 70
     1
102
RTVSPost2010Prop48
 90
       50
102
RTVSPost2010PropOp48
 70
     1
102
RTVSPost2010Prop49
280
     0
102
RTVSPost2010PropOp49
 70
     1
102
RTVSPost2010Prop50
 90
       50
102
RTVSPost2010PropOp50
 70
     1
102
RTVSPost2010Prop51ColorIndex
 90
      256
102
RTVSPost2010Prop51ColorRGB
 90
-16777216
102
RTVSPost2010PropOp51
 70
     0
102
RTVSPost2010Prop52
140
1.0
102
RTVSPost2010PropOp52
 70
     0
102
RTVSPost2010Prop53
 90
        2
102
RTVSPost2010PropOp53
 70
     1
102
RTVSPost2010Prop54
  1
strokes_ogs.tif
102
RTVSPost2010PropOp54
 70
     1
102
RTVSPost2010Prop55
280
     0
102
RTVSPost2010PropOp55
 70
     1
102
RTVSPost2010Prop56
140
1.0
102
RTVSPost2010PropOp56
 70
     1
102
RTVSPost2010Prop57
140
1.0
102
RTVSPost2010PropOp57
 70
     1
  0
XRECORD
  5
1A4
102
{ACAD_REACTORS
330
1A3
102
}
330
1A3
100
AcDbXrecord
280
     1
102
RTVSPost2010Prop28
280
     0
102
RTVSPost2010PropOp28
 70
     0
102
RTVSPost2010Prop29
280
     1
102
RTVSPost2010PropOp29
 70
     0
102
RTVSPost2010Prop30
280
     1
102
RTVSPost2010PropOp30
 70
     0
102
RTVSPost2010Prop31
280
     0
102
RTVSPost2010PropOp31
 70
     0
102
RTVSPost2010Prop32
280
     0
102
RTVSPost2010PropOp32
 70
     0
102
RTVSPost2010Prop33
280
     0
102
RTVSPost2010PropOp33
 70
     0
102
RTVSPost2010Prop34
280
     0
102
RTVSPost2010PropOp34
 70
     0
102
RTVSPost2010Prop35
280
     0
102
RTVSPost2010PropOp35
 70
     0
102
RTVSPost2010Prop36
280
     0
102
RTVSPost2010PropOp36
 70
     0
102
RTVSPost2010Prop37
 90
       50
102
RTVSPost2010PropOp37
 70
     0
102
RTVSPost2010Prop38
140
0.0
102
RTVSPost2010PropOp38
 70
     0
102
RTVSPost2010Prop39
140
1.0
102
RTVSPost2010PropOp39
 70
     0
102
RTVSPost2010Prop40
 90
        0
102
RTVSPost2010PropOp40
 70
     0
102
RTVSPost2010Prop41ColorIndex
 90
       18
102
RTVSPost2010Prop41ColorRGB
 90
        0
102
RTVSPost2010PropOp41
 70
     0
102
RTVSPost2010Prop42
 90
       50
102
RTVSPost2010PropOp42
 70
     0
102
RTVSPost2010Prop43
 90
        3
102
RTVSPost2010PropOp43
 70
     0
102
RTVSPost2010Prop44ColorIndex
 90
        5
102
RTVSPost2010Prop44ColorRGB
 90
      255
102
RTVSPost2010PropOp44
 70
     0
102
RTVSPost2010Prop45
280
     0
102
RTVSPost2010PropOp45
 70
     0
102
RTVSPost2010Prop46
 90
       50
102
RTVSPost2010PropOp46
 70
     0
102
RTVSPost2010Prop47
 90
       50
102
RTVSPost2010PropOp47
 70
     0
102
RTVSPost2010Prop48
 90
       50
102
RTVSPost2010PropOp48
 70
     0
102
RTVSPost2010Prop49
280
     0
102
RTVSPost2010PropOp49
 70
     0
102
RTVSPost2010Prop50
 90
       50
102
RTVSPost2010PropOp50
 70
     0
102
RTVSPost2010Prop51ColorIndex
 90
      256
102
RTVSPost2010Prop51ColorRGB
 90
-16777216
102
RTVSPost2010PropOp51
 70
     0
102
RTVSPost2010Prop52
140
1.0
102
RTVSPost2010PropOp52
 70
     0
102
RTVSPost2010Prop53
 90
        2
102
RTVSPost2010PropOp53
 70
     0
102
RTVSPost2010Prop54
  1
strokes_ogs.tif
102
RTVSPost2010PropOp54
 70
     0
102
RTVSPost2010Prop55
280
     0
102
RTVSPost2010PropOp55
 70
     0
102
RTVSPost2010Prop56
140
1.0
102
RTVSPost2010PropOp56
 70
     0
102
RTVSPost2010Prop57
140
1.0
102
RTVSPost2010PropOp57
 70
     0
  0
XRECORD
  5
194
102
{ACAD_REACTORS
330
193
102
}
330
193
100
AcDbXrecord
280
     1
102
RTVSPost2010Prop28
280
     0
102
RTVSPost2010PropOp28
 70
     1
102
RTVSPost2010Prop29
280
     1
102
RTVSPost2010PropOp29
 70
     1
102
RTVSPost2010Prop30
280
     1
102
RTVSPost2010PropOp30
 70
     1
102
RTVSPost2010Prop31
280
     0
102
RTVSPost2010PropOp31
 70
     1
102
RTVSPost2010Prop32
280
     0
102
RTVSPost2010PropOp32
 70
     1
102
RTVSPost2010Prop33
280
     0
102
RTVSPost2010PropOp33
 70
     1
102
RTVSPost2010Prop34
280
     0
102
RTVSPost2010PropOp34
 70
     1
102
RTVSPost2010Prop35
280
     0
102
RTVSPost2010PropOp35
 70
     1
102
RTVSPost2010Prop36
280
     0
102
RTVSPost2010PropOp36
 70
     1
102
RTVSPost2010Prop37
 90
       50
102
RTVSPost2010PropOp37
 70
     1
102
RTVSPost2010Prop38
140
0.0
102
RTVSPost2010PropOp38
 70
     1
102
RTVSPost2010Prop39
140
1.0
102
RTVSPost2010PropOp39
 70
     1
102
RTVSPost2010Prop40
 90
        0
102
RTVSPost2010PropOp40
 70
     1
102
RTVSPost2010Prop41ColorIndex
 90
       18
102
RTVSPost2010Prop41ColorRGB
 90
        0
102
RTVSPost2010PropOp41
 70
     1
102
RTVSPost2010Prop42
 90
       50
102
RTVSPost2010PropOp42
 70
     1
102
RTVSPost2010Prop43
 90
        3
102
RTVSPost2010PropOp43
 70
     1
102
RTVSPost2010Prop44ColorIndex
 90
        5
102
RTVSPost2010Prop44ColorRGB
 90
      255
102
RTVSPost2010PropOp44
 70
     1
102
RTVSPost2010Prop45
280
     0
102
RTVSPost2010PropOp45
 70
     1
102
RTVSPost2010Prop46
 90
       50
102
RTVSPost2010PropOp46
 70
     1
102
RTVSPost2010Prop47
 90
       50
102
RTVSPost2010PropOp47
 70
     1
102
RTVSPost2010Prop48
 90
       50
102
RTVSPost2010PropOp48
 70
     1
102
RTVSPost2010Prop49
280
     0
102
RTVSPost2010PropOp49
 70
     1
102
RTVSPost2010Prop50
 90
       50
102
RTVSPost2010PropOp50
 70
     1
102
RTVSPost2010Prop51ColorIndex
 90
      256
102
RTVSPost2010Prop51ColorRGB
 90
-16777216
102
RTVSPost2010PropOp51
 70
     0
102
RTVSPost2010Prop52
140
1.0
102
RTVSPost2010PropOp52
 70
     0
102
RTVSPost2010Prop53
 90
        2
102
RTVSPost2010PropOp53
 70
     1
102
RTVSPost2010Prop54
  1
strokes_ogs.tif
102
RTVSPost2010PropOp54
 70
     1
102
RTVSPost2010Prop55
280
     0
102
RTVSPost2010PropOp55
 70
     1
102
RTVSPost2010Prop56
140
1.0
102
RTVSPost2010PropOp56
 70
     1
102
RTVSPost2010Prop57
140
1.0
102
RTVSPost2010PropOp57
 70
     1
  0
XRECORD
  5
1A6
102
{ACAD_REACTORS
330
1A5
102
}
330
1A5
100
AcDbXrecord
280
     1
102
RTVSPost2010Prop28
280
     0
102
RTVSPost2010PropOp28
 70
     0
102
RTVSPost2010Prop29
280
     1
102
RTVSPost2010PropOp29
 70
     0
102
RTVSPost2010Prop30
280
     1
102
RTVSPost2010PropOp30
 70
     0
102
RTVSPost2010Prop31
280
     0
102
RTVSPost2010PropOp31
 70
     0
102
RTVSPost2010Prop32
280
     0
102
RTVSPost2010PropOp32
 70
     0
102
RTVSPost2010Prop33
280
     0
102
RTVSPost2010PropOp33
 70
     0
102
RTVSPost2010Prop34
280
     0
102
RTVSPost2010PropOp34
 70
     0
102
RTVSPost2010Prop35
280
     0
102
RTVSPost2010PropOp35
 70
     0
102
RTVSPost2010Prop36
280
     0
102
RTVSPost2010PropOp36
 70
     0
102
RTVSPost2010Prop37
 90
       50
102
RTVSPost2010PropOp37
 70
     0
102
RTVSPost2010Prop38
140
0.0
102
RTVSPost2010PropOp38
 70
     0
102
RTVSPost2010Prop39
140
1.0
102
RTVSPost2010PropOp39
 70
     0
102
RTVSPost2010Prop40
 90
        0
102
RTVSPost2010PropOp40
 70
     0
102
RTVSPost2010Prop41ColorIndex
 90
       18
102
RTVSPost2010Prop41ColorRGB
 90
        0
102
RTVSPost2010PropOp41
 70
     0
102
RTVSPost2010Prop42
 90
       50
102
RTVSPost2010PropOp42
 70
     0
102
RTVSPost2010Prop43
 90
        3
102
RTVSPost2010PropOp43
 70
     0
102
RTVSPost2010Prop44ColorIndex
 90
        5
102
RTVSPost2010Prop44ColorRGB
 90
      255
102
RTVSPost2010PropOp44
 70
     0
102
RTVSPost2010Prop45
280
     0
102
RTVSPost2010PropOp45
 70
     0
102
RTVSPost2010Prop46
 90
       50
102
RTVSPost2010PropOp46
 70
     0
102
RTVSPost2010Prop47
 90
       50
102
RTVSPost2010PropOp47
 70
     0
102
RTVSPost2010Prop48
 90
       50
102
RTVSPost2010PropOp48
 70
     0
102
RTVSPost2010Prop49
280
     0
102
RTVSPost2010PropOp49
 70
     0
102
RTVSPost2010Prop50
 90
       50
102
RTVSPost2010PropOp50
 70
     0
102
RTVSPost2010Prop51ColorIndex
 90
      256
102
RTVSPost2010Prop51ColorRGB
 90
-16777216
102
RTVSPost2010PropOp51
 70
     0
102
RTVSPost2010Prop52
140
1.0
102
RTVSPost2010PropOp52
 70
     0
102
RTVSPost2010Prop53
 90
        2
102
RTVSPost2010PropOp53
 70
     0
102
RTVSPost2010Prop54
  1
strokes_ogs.tif
102
RTVSPost2010PropOp54
 70
     0
102
RTVSPost2010Prop55
280
     0
102
RTVSPost2010PropOp55
 70
     0
102
RTVSPost2010Prop56
140
1.0
102
RTVSPost2010PropOp56
 70
     0
102
RTVSPost2010Prop57
140
1.0
102
RTVSPost2010PropOp57
 70
     0
  0
XRECORD
  5
18C
102
{ACAD_REACTORS
330
18B
102
}
330
18B
100
AcDbXrecord
280
     1
102
RTVSPost2010Prop28
280
     0
102
RTVSPost2010PropOp28
 70
     1
102
RTVSPost2010Prop29
280
     1
102
RTVSPost2010PropOp29
 70
     1
102
RTVSPost2010Prop30
280
     1
102
RTVSPost2010PropOp30
 70
     1
102
RTVSPost2010Prop31
280
     0
102
RTVSPost2010PropOp31
 70
     1
102
RTVSPost2010Prop32
280
     0
102
RTVSPost2010PropOp32
 70
     1
102
RTVSPost2010Prop33
280
     0
102
RTVSPost2010PropOp33
 70
     1
102
RTVSPost2010Prop34
280
     0
102
RTVSPost2010PropOp34
 70
     1
102
RTVSPost2010Prop35
280
     0
102
RTVSPost2010PropOp35
 70
     1
102
RTVSPost2010Prop36
280
     0
102
RTVSPost2010PropOp36
 70
     1
102
RTVSPost2010Prop37
 90
       50
102
RTVSPost2010PropOp37
 70
     1
102
RTVSPost2010Prop38
140
0.0
102
RTVSPost2010PropOp38
 70
     1
102
RTVSPost2010Prop39
140
1.0
102
RTVSPost2010PropOp39
 70
     1
102
RTVSPost2010Prop40
 90
        0
102
RTVSPost2010PropOp40
 70
     1
102
RTVSPost2010Prop41ColorIndex
 90
       18
102
RTVSPost2010Prop41ColorRGB
 90
        0
102
RTVSPost2010PropOp41
 70
     1
102
RTVSPost2010Prop42
 90
       50
102
RTVSPost2010PropOp42
 70
     1
102
RTVSPost2010Prop43
 90
        3
102
RTVSPost2010PropOp43
 70
     1
102
RTVSPost2010Prop44ColorIndex
 90
        5
102
RTVSPost2010Prop44ColorRGB
 90
      255
102
RTVSPost2010PropOp44
 70
     1
102
RTVSPost2010Prop45
280
     0
102
RTVSPost2010PropOp45
 70
     1
102
RTVSPost2010Prop46
 90
       50
102
RTVSPost2010PropOp46
 70
     1
102
RTVSPost2010Prop47
 90
       50
102
RTVSPost2010PropOp47
 70
     1
102
RTVSPost2010Prop48
 90
       50
102
RTVSPost2010PropOp48
 70
     1
102
RTVSPost2010Prop49
280
     0
102
RTVSPost2010PropOp49
 70
     1
102
RTVSPost2010Prop50
 90
       50
102
RTVSPost2010PropOp50
 70
     1
102
RTVSPost2010Prop51ColorIndex
 90
      256
102
RTVSPost2010Prop51ColorRGB
 90
-16777216
102
RTVSPost2010PropOp51
 70
     0
102
RTVSPost2010Prop52
140
1.0
102
RTVSPost2010PropOp52
 70
     0
102
RTVSPost2010Prop53
 90
        2
102
RTVSPost2010PropOp53
 70
     1
102
RTVSPost2010Prop54
  1
strokes_ogs.tif
102
RTVSPost2010PropOp54
 70
     1
102
RTVSPost2010Prop55
280
     0
102
RTVSPost2010PropOp55
 70
     1
102
RTVSPost2010Prop56
140
1.0
102
RTVSPost2010PropOp56
 70
     1
102
RTVSPost2010Prop57
140
1.0
102
RTVSPost2010PropOp57
 70
     1
  0
XRECORD
  5
1A2
102
{ACAD_REACTORS
330
1A1
102
}
330
1A1
100
AcDbXrecord
280
     1
102
RTVSPost2010Prop28
280
     0
102
RTVSPost2010PropOp28
 70
     1
102
RTVSPost2010Prop29
280
     1
102
RTVSPost2010PropOp29
 70
     1
102
RTVSPost2010Prop30
280
     1
102
RTVSPost2010PropOp30
 70
     1
102
RTVSPost2010Prop31
280
     0
102
RTVSPost2010PropOp31
 70
     1
102
RTVSPost2010Prop32
280
     0
102
RTVSPost2010PropOp32
 70
     1
102
RTVSPost2010Prop33
280
     0
102
RTVSPost2010PropOp33
 70
     1
102
RTVSPost2010Prop34
280
     0
102
RTVSPost2010PropOp34
 70
     1
102
RTVSPost2010Prop35
280
     0
102
RTVSPost2010PropOp35
 70
     1
102
RTVSPost2010Prop36
280
     0
102
RTVSPost2010PropOp36
 70
     1
102
RTVSPost2010Prop37
 90
       50
102
RTVSPost2010PropOp37
 70
     1
102
RTVSPost2010Prop38
140
0.0
102
RTVSPost2010PropOp38
 70
     1
102
RTVSPost2010Prop39
140
1.0
102
RTVSPost2010PropOp39
 70
     1
102
RTVSPost2010Prop40
 90
        0
102
RTVSPost2010PropOp40
 70
     1
102
RTVSPost2010Prop41ColorIndex
 90
       18
102
RTVSPost2010Prop41ColorRGB
 90
        0
102
RTVSPost2010PropOp41
 70
     1
102
RTVSPost2010Prop42
 90
       50
102
RTVSPost2010PropOp42
 70
     1
102
RTVSPost2010Prop43
 90
        3
102
RTVSPost2010PropOp43
 70
     1
102
RTVSPost2010Prop44ColorIndex
 90
        5
102
RTVSPost2010Prop44ColorRGB
 90
      255
102
RTVSPost2010PropOp44
 70
     1
102
RTVSPost2010Prop45
280
     0
102
RTVSPost2010PropOp45
 70
     1
102
RTVSPost2010Prop46
 90
       50
102
RTVSPost2010PropOp46
 70
     1
102
RTVSPost2010Prop47
 90
       50
102
RTVSPost2010PropOp47
 70
     1
102
RTVSPost2010Prop48
 90
       50
102
RTVSPost2010PropOp48
 70
     1
102
RTVSPost2010Prop49
280
     0
102
RTVSPost2010PropOp49
 70
     1
102
RTVSPost2010Prop50
 90
       50
102
RTVSPost2010PropOp50
 70
     1
102
RTVSPost2010Prop51ColorIndex
 90
      256
102
RTVSPost2010Prop51ColorRGB
 90
-16777216
102
RTVSPost2010PropOp51
 70
     0
102
RTVSPost2010Prop52
140
1.0
102
RTVSPost2010PropOp52
 70
     0
102
RTVSPost2010Prop53
 90
        2
102
RTVSPost2010PropOp53
 70
     1
102
RTVSPost2010Prop54
  1
strokes_ogs.tif
102
RTVSPost2010PropOp54
 70
     1
102
RTVSPost2010Prop55
280
     0
102
RTVSPost2010PropOp55
 70
     1
102
RTVSPost2010Prop56
140
1.0
102
RTVSPost2010PropOp56
 70
     1
102
RTVSPost2010Prop57
140
1.0
102
RTVSPost2010PropOp57
 70
     1
  0
XRECORD
  5
1A0
102
{ACAD_REACTORS
330
19F
102
}
330
19F
100
AcDbXrecord
280
     1
102
RTVSPost2010Prop28
280
     0
102
RTVSPost2010PropOp28
 70
     1
102
RTVSPost2010Prop29
280
     1
102
RTVSPost2010PropOp29
 70
     1
102
RTVSPost2010Prop30
280
     1
102
RTVSPost2010PropOp30
 70
     1
102
RTVSPost2010Prop31
280
     0
102
RTVSPost2010PropOp31
 70
     1
102
RTVSPost2010Prop32
280
     0
102
RTVSPost2010PropOp32
 70
     1
102
RTVSPost2010Prop33
280
     0
102
RTVSPost2010PropOp33
 70
     1
102
RTVSPost2010Prop34
280
     0
102
RTVSPost2010PropOp34
 70
     1
102
RTVSPost2010Prop35
280
     0
102
RTVSPost2010PropOp35
 70
     1
102
RTVSPost2010Prop36
280
     0
102
RTVSPost2010PropOp36
 70
     1
102
RTVSPost2010Prop37
 90
       50
102
RTVSPost2010PropOp37
 70
     1
102
RTVSPost2010Prop38
140
0.0
102
RTVSPost2010PropOp38
 70
     1
102
RTVSPost2010Prop39
140
1.0
102
RTVSPost2010PropOp39
 70
     1
102
RTVSPost2010Prop40
 90
        0
102
RTVSPost2010PropOp40
 70
     1
102
RTVSPost2010Prop41ColorIndex
 90
       18
102
RTVSPost2010Prop41ColorRGB
 90
        0
102
RTVSPost2010PropOp41
 70
     1
102
RTVSPost2010Prop42
 90
       50
102
RTVSPost2010PropOp42
 70
     1
102
RTVSPost2010Prop43
 90
        3
102
RTVSPost2010PropOp43
 70
     1
102
RTVSPost2010Prop44ColorIndex
 90
        5
102
RTVSPost2010Prop44ColorRGB
 90
      255
102
RTVSPost2010PropOp44
 70
     1
102
RTVSPost2010Prop45
280
     0
102
RTVSPost2010PropOp45
 70
     1
102
RTVSPost2010Prop46
 90
       50
102
RTVSPost2010PropOp46
 70
     1
102
RTVSPost2010Prop47
 90
       50
102
RTVSPost2010PropOp47
 70
     1
102
RTVSPost2010Prop48
 90
       50
102
RTVSPost2010PropOp48
 70
     1
102
RTVSPost2010Prop49
280
     0
102
RTVSPost2010PropOp49
 70
     1
102
RTVSPost2010Prop50
 90
       50
102
RTVSPost2010PropOp50
 70
     1
102
RTVSPost2010Prop51ColorIndex
 90
      256
102
RTVSPost2010Prop51ColorRGB
 90
-16777216
102
RTVSPost2010PropOp51
 70
     0
102
RTVSPost2010Prop52
140
1.0
102
RTVSPost2010PropOp52
 70
     0
102
RTVSPost2010Prop53
 90
        2
102
RTVSPost2010PropOp53
 70
     1
102
RTVSPost2010Prop54
  1
strokes_ogs.tif
102
RTVSPost2010PropOp54
 70
     1
102
RTVSPost2010Prop55
280
     0
102
RTVSPost2010PropOp55
 70
     1
102
RTVSPost2010Prop56
140
1.0
102
RTVSPost2010PropOp56
 70
     1
102
RTVSPost2010Prop57
140
1.0
102
RTVSPost2010PropOp57
 70
     1
  0
XRECORD
  5
19A
102
{ACAD_REACTORS
330
199
102
}
330
199
100
AcDbXrecord
280
     1
102
RTVSPost2010Prop28
280
     0
102
RTVSPost2010PropOp28
 70
     1
102
RTVSPost2010Prop29
280
     1
102
RTVSPost2010PropOp29
 70
     1
102
RTVSPost2010Prop30
280
     1
102
RTVSPost2010PropOp30
 70
     1
102
RTVSPost2010Prop31
280
     0
102
RTVSPost2010PropOp31
 70
     1
102
RTVSPost2010Prop32
280
     0
102
RTVSPost2010PropOp32
 70
     1
102
RTVSPost2010Prop33
280
     0
102
RTVSPost2010PropOp33
 70
     1
102
RTVSPost2010Prop34
280
     0
102
RTVSPost2010PropOp34
 70
     1
102
RTVSPost2010Prop35
280
     0
102
RTVSPost2010PropOp35
 70
     1
102
RTVSPost2010Prop36
280
     0
102
RTVSPost2010PropOp36
 70
     1
102
RTVSPost2010Prop37
 90
       50
102
RTVSPost2010PropOp37
 70
     1
102
RTVSPost2010Prop38
140
0.0
102
RTVSPost2010PropOp38
 70
     1
102
RTVSPost2010Prop39
140
1.0
102
RTVSPost2010PropOp39
 70
     1
102
RTVSPost2010Prop40
 90
        0
102
RTVSPost2010PropOp40
 70
     1
102
RTVSPost2010Prop41ColorIndex
 90
       18
102
RTVSPost2010Prop41ColorRGB
 90
        0
102
RTVSPost2010PropOp41
 70
     1
102
RTVSPost2010Prop42
 90
       50
102
RTVSPost2010PropOp42
 70
     1
102
RTVSPost2010Prop43
 90
        3
102
RTVSPost2010PropOp43
 70
     1
102
RTVSPost2010Prop44ColorIndex
 90
        5
102
RTVSPost2010Prop44ColorRGB
 90
      255
102
RTVSPost2010PropOp44
 70
     1
102
RTVSPost2010Prop45
280
     0
102
RTVSPost2010PropOp45
 70
     1
102
RTVSPost2010Prop46
 90
       50
102
RTVSPost2010PropOp46
 70
     1
102
RTVSPost2010Prop47
 90
       50
102
RTVSPost2010PropOp47
 70
     1
102
RTVSPost2010Prop48
 90
       50
102
RTVSPost2010PropOp48
 70
     1
102
RTVSPost2010Prop49
280
     0
102
RTVSPost2010PropOp49
 70
     1
102
RTVSPost2010Prop50
 90
       50
102
RTVSPost2010PropOp50
 70
     1
102
RTVSPost2010Prop51ColorIndex
 90
      256
102
RTVSPost2010Prop51ColorRGB
 90
-16777216
102
RTVSPost2010PropOp51
 70
     0
102
RTVSPost2010Prop52
140
1.0
102
RTVSPost2010PropOp52
 70
     0
102
RTVSPost2010Prop53
 90
        2
102
RTVSPost2010PropOp53
 70
     1
102
RTVSPost2010Prop54
  1
strokes_ogs.tif
102
RTVSPost2010PropOp54
 70
     1
102
RTVSPost2010Prop55
280
     0
102
RTVSPost2010PropOp55
 70
     1
102
RTVSPost2010Prop56
140
1.0
102
RTVSPost2010PropOp56
 70
     1
102
RTVSPost2010Prop57
140
1.0
102
RTVSPost2010PropOp57
 70
     1
  0
XRECORD
  5
19C
102
{ACAD_REACTORS
330
19B
102
}
330
19B
100
AcDbXrecord
280
     1
102
RTVSPost2010Prop28
280
     0
102
RTVSPost2010PropOp28
 70
     1
102
RTVSPost2010Prop29
280
     1
102
RTVSPost2010PropOp29
 70
     1
102
RTVSPost2010Prop30
280
     1
102
RTVSPost2010PropOp30
 70
     1
102
RTVSPost2010Prop31
280
     0
102
RTVSPost2010PropOp31
 70
     1
102
RTVSPost2010Prop32
280
     0
102
RTVSPost2010PropOp32
 70
     1
102
RTVSPost2010Prop33
280
     0
102
RTVSPost2010PropOp33
 70
     1
102
RTVSPost2010Prop34
280
     0
102
RTVSPost2010PropOp34
 70
     1
102
RTVSPost2010Prop35
280
     0
102
RTVSPost2010PropOp35
 70
     1
102
RTVSPost2010Prop36
280
     0
102
RTVSPost2010PropOp36
 70
     1
102
RTVSPost2010Prop37
 90
       50
102
RTVSPost2010PropOp37
 70
     1
102
RTVSPost2010Prop38
140
0.0
102
RTVSPost2010PropOp38
 70
     1
102
RTVSPost2010Prop39
140
1.0
102
RTVSPost2010PropOp39
 70
     1
102
RTVSPost2010Prop40
 90
        0
102
RTVSPost2010PropOp40
 70
     1
102
RTVSPost2010Prop41ColorIndex
 90
       18
102
RTVSPost2010Prop41ColorRGB
 90
        0
102
RTVSPost2010PropOp41
 70
     1
102
RTVSPost2010Prop42
 90
       50
102
RTVSPost2010PropOp42
 70
     1
102
RTVSPost2010Prop43
 90
        3
102
RTVSPost2010PropOp43
 70
     1
102
RTVSPost2010Prop44ColorIndex
 90
        5
102
RTVSPost2010Prop44ColorRGB
 90
      255
102
RTVSPost2010PropOp44
 70
     1
102
RTVSPost2010Prop45
280
     0
102
RTVSPost2010PropOp45
 70
     1
102
RTVSPost2010Prop46
 90
       50
102
RTVSPost2010PropOp46
 70
     1
102
RTVSPost2010Prop47
 90
       50
102
RTVSPost2010PropOp47
 70
     1
102
RTVSPost2010Prop48
 90
       50
102
RTVSPost2010PropOp48
 70
     1
102
RTVSPost2010Prop49
280
     0
102
RTVSPost2010PropOp49
 70
     1
102
RTVSPost2010Prop50
 90
       50
102
RTVSPost2010PropOp50
 70
     1
102
RTVSPost2010Prop51ColorIndex
 90
      256
102
RTVSPost2010Prop51ColorRGB
 90
-16777216
102
RTVSPost2010PropOp51
 70
     0
102
RTVSPost2010Prop52
140
1.0
102
RTVSPost2010PropOp52
 70
     0
102
RTVSPost2010Prop53
 90
        2
102
RTVSPost2010PropOp53
 70
     1
102
RTVSPost2010Prop54
  1
strokes_ogs.tif
102
RTVSPost2010PropOp54
 70
     1
102
RTVSPost2010Prop55
280
     0
102
RTVSPost2010PropOp55
 70
     1
102
RTVSPost2010Prop56
140
1.0
102
RTVSPost2010PropOp56
 70
     1
102
RTVSPost2010Prop57
140
1.0
102
RTVSPost2010PropOp57
 70
     1
  0
XRECORD
  5
192
102
{ACAD_REACTORS
330
191
102
}
330
191
100
AcDbXrecord
280
     1
102
RTVSPost2010Prop28
280
     0
102
RTVSPost2010PropOp28
 70
     1
102
RTVSPost2010Prop29
280
     1
102
RTVSPost2010PropOp29
 70
     1
102
RTVSPost2010Prop30
280
     1
102
RTVSPost2010PropOp30
 70
     1
102
RTVSPost2010Prop31
280
     0
102
RTVSPost2010PropOp31
 70
     1
102
RTVSPost2010Prop32
280
     0
102
RTVSPost2010PropOp32
 70
     1
102
RTVSPost2010Prop33
280
     0
102
RTVSPost2010PropOp33
 70
     1
102
RTVSPost2010Prop34
280
     0
102
RTVSPost2010PropOp34
 70
     1
102
RTVSPost2010Prop35
280
     0
102
RTVSPost2010PropOp35
 70
     1
102
RTVSPost2010Prop36
280
     0
102
RTVSPost2010PropOp36
 70
     1
102
RTVSPost2010Prop37
 90
       50
102
RTVSPost2010PropOp37
 70
     1
102
RTVSPost2010Prop38
140
0.0
102
RTVSPost2010PropOp38
 70
     1
102
RTVSPost2010Prop39
140
1.0
102
RTVSPost2010PropOp39
 70
     1
102
RTVSPost2010Prop40
 90
        0
102
RTVSPost2010PropOp40
 70
     1
102
RTVSPost2010Prop41ColorIndex
 90
       18
102
RTVSPost2010Prop41ColorRGB
 90
        0
102
RTVSPost2010PropOp41
 70
     1
102
RTVSPost2010Prop42
 90
       50
102
RTVSPost2010PropOp42
 70
     1
102
RTVSPost2010Prop43
 90
        3
102
RTVSPost2010PropOp43
 70
     1
102
RTVSPost2010Prop44ColorIndex
 90
        5
102
RTVSPost2010Prop44ColorRGB
 90
      255
102
RTVSPost2010PropOp44
 70
     1
102
RTVSPost2010Prop45
280
     0
102
RTVSPost2010PropOp45
 70
     1
102
RTVSPost2010Prop46
 90
       50
102
RTVSPost2010PropOp46
 70
     1
102
RTVSPost2010Prop47
 90
       50
102
RTVSPost2010PropOp47
 70
     1
102
RTVSPost2010Prop48
 90
       50
102
RTVSPost2010PropOp48
 70
     1
102
RTVSPost2010Prop49
280
     0
102
RTVSPost2010PropOp49
 70
     1
102
RTVSPost2010Prop50
 90
       50
102
RTVSPost2010PropOp50
 70
     1
102
RTVSPost2010Prop51ColorIndex
 90
      256
102
RTVSPost2010Prop51ColorRGB
 90
-16777216
102
RTVSPost2010PropOp51
 70
     0
102
RTVSPost2010Prop52
140
1.0
102
RTVSPost2010PropOp52
 70
     0
102
RTVSPost2010Prop53
 90
        2
102
RTVSPost2010PropOp53
 70
     1
102
RTVSPost2010Prop54
  1
strokes_ogs.tif
102
RTVSPost2010PropOp54
 70
     1
102
RTVSPost2010Prop55
280
     0
102
RTVSPost2010PropOp55
 70
     1
102
RTVSPost2010Prop56
140
1.0
102
RTVSPost2010PropOp56
 70
     1
102
RTVSPost2010Prop57
140
1.0
102
RTVSPost2010PropOp57
 70
     1
  0
XRECORD
  5
186
102
{ACAD_REACTORS
330
185
102
}
330
185
100
AcDbXrecord
280
     1
102
RTVSPost2010Prop28
280
     0
102
RTVSPost2010PropOp28
 70
     1
102
RTVSPost2010Prop29
280
     1
102
RTVSPost2010PropOp29
 70
     1
102
RTVSPost2010Prop30
280
     1
102
RTVSPost2010PropOp30
 70
     1
102
RTVSPost2010Prop31
280
     0
102
RTVSPost2010PropOp31
 70
     1
102
RTVSPost2010Prop32
280
     0
102
RTVSPost2010PropOp32
 70
     1
102
RTVSPost2010Prop33
280
     0
102
RTVSPost2010PropOp33
 70
     1
102
RTVSPost2010Prop34
280
     0
102
RTVSPost2010PropOp34
 70
     1
102
RTVSPost2010Prop35
280
     0
102
RTVSPost2010PropOp35
 70
     1
102
RTVSPost2010Prop36
280
     0
102
RTVSPost2010PropOp36
 70
     1
102
RTVSPost2010Prop37
 90
       50
102
RTVSPost2010PropOp37
 70
     1
102
RTVSPost2010Prop38
140
0.0
102
RTVSPost2010PropOp38
 70
     1
102
RTVSPost2010Prop39
140
1.0
102
RTVSPost2010PropOp39
 70
     1
102
RTVSPost2010Prop40
 90
        0
102
RTVSPost2010PropOp40
 70
     1
102
RTVSPost2010Prop41ColorIndex
 90
       18
102
RTVSPost2010Prop41ColorRGB
 90
        0
102
RTVSPost2010PropOp41
 70
     1
102
RTVSPost2010Prop42
 90
       50
102
RTVSPost2010PropOp42
 70
     1
102
RTVSPost2010Prop43
 90
        3
102
RTVSPost2010PropOp43
 70
     1
102
RTVSPost2010Prop44ColorIndex
 90
        5
102
RTVSPost2010Prop44ColorRGB
 90
      255
102
RTVSPost2010PropOp44
 70
     1
102
RTVSPost2010Prop45
280
     0
102
RTVSPost2010PropOp45
 70
     1
102
RTVSPost2010Prop46
 90
       50
102
RTVSPost2010PropOp46
 70
     1
102
RTVSPost2010Prop47
 90
       50
102
RTVSPost2010PropOp47
 70
     1
102
RTVSPost2010Prop48
 90
       50
102
RTVSPost2010PropOp48
 70
     1
102
RTVSPost2010Prop49
280
     0
102
RTVSPost2010PropOp49
 70
     1
102
RTVSPost2010Prop50
 90
       50
102
RTVSPost2010PropOp50
 70
     1
102
RTVSPost2010Prop51ColorIndex
 90
      256
102
RTVSPost2010Prop51ColorRGB
 90
-16777216
102
RTVSPost2010PropOp51
 70
     0
102
RTVSPost2010Prop52
140
1.0
102
RTVSPost2010PropOp52
 70
     0
102
RTVSPost2010Prop53
 90
        2
102
RTVSPost2010PropOp53
 70
     1
102
RTVSPost2010Prop54
  1
strokes_ogs.tif
102
RTVSPost2010PropOp54
 70
     1
102
RTVSPost2010Prop55
280
     0
102
RTVSPost2010PropOp55
 70
     1
102
RTVSPost2010Prop56
140
1.0
102
RTVSPost2010PropOp56
 70
     1
102
RTVSPost2010Prop57
140
1.0
102
RTVSPost2010PropOp57
 70
     1
  0
XRECORD
  5
19E
102
{ACAD_REACTORS
330
19D
102
}
330
19D
100
AcDbXrecord
280
     1
102
RTVSPost2010Prop28
280
     0
102
RTVSPost2010PropOp28
 70
     1
102
RTVSPost2010Prop29
280
     1
102
RTVSPost2010PropOp29
 70
     1
102
RTVSPost2010Prop30
280
     1
102
RTVSPost2010PropOp30
 70
     1
102
RTVSPost2010Prop31
280
     0
102
RTVSPost2010PropOp31
 70
     1
102
RTVSPost2010Prop32
280
     0
102
RTVSPost2010PropOp32
 70
     1
102
RTVSPost2010Prop33
280
     0
102
RTVSPost2010PropOp33
 70
     1
102
RTVSPost2010Prop34
280
     0
102
RTVSPost2010PropOp34
 70
     1
102
RTVSPost2010Prop35
280
     0
102
RTVSPost2010PropOp35
 70
     1
102
RTVSPost2010Prop36
280
     0
102
RTVSPost2010PropOp36
 70
     1
102
RTVSPost2010Prop37
 90
       50
102
RTVSPost2010PropOp37
 70
     1
102
RTVSPost2010Prop38
140
0.0
102
RTVSPost2010PropOp38
 70
     1
102
RTVSPost2010Prop39
140
1.0
102
RTVSPost2010PropOp39
 70
     1
102
RTVSPost2010Prop40
 90
        0
102
RTVSPost2010PropOp40
 70
     1
102
RTVSPost2010Prop41ColorIndex
 90
       18
102
RTVSPost2010Prop41ColorRGB
 90
        0
102
RTVSPost2010PropOp41
 70
     1
102
RTVSPost2010Prop42
 90
       50
102
RTVSPost2010PropOp42
 70
     1
102
RTVSPost2010Prop43
 90
        3
102
RTVSPost2010PropOp43
 70
     1
102
RTVSPost2010Prop44ColorIndex
 90
        5
102
RTVSPost2010Prop44ColorRGB
 90
      255
102
RTVSPost2010PropOp44
 70
     1
102
RTVSPost2010Prop45
280
     0
102
RTVSPost2010PropOp45
 70
     1
102
RTVSPost2010Prop46
 90
       50
102
RTVSPost2010PropOp46
 70
     1
102
RTVSPost2010Prop47
 90
       50
102
RTVSPost2010PropOp47
 70
     1
102
RTVSPost2010Prop48
 90
       50
102
RTVSPost2010PropOp48
 70
     1
102
RTVSPost2010Prop49
280
     0
102
RTVSPost2010PropOp49
 70
     1
102
RTVSPost2010Prop50
 90
       50
102
RTVSPost2010PropOp50
 70
     1
102
RTVSPost2010Prop51ColorIndex
 90
      256
102
RTVSPost2010Prop51ColorRGB
 90
-16777216
102
RTVSPost2010PropOp51
 70
     0
102
RTVSPost2010Prop52
140
1.0
102
RTVSPost2010PropOp52
 70
     0
102
RTVSPost2010Prop53
 90
        2
102
RTVSPost2010PropOp53
 70
     1
102
RTVSPost2010Prop54
  1
strokes_ogs.tif
102
RTVSPost2010PropOp54
 70
     1
102
RTVSPost2010Prop55
280
     0
102
RTVSPost2010PropOp55
 70
     1
102
RTVSPost2010Prop56
140
1.0
102
RTVSPost2010PropOp56
 70
     1
102
RTVSPost2010Prop57
140
1.0
102
RTVSPost2010PropOp57
 70
     1
  0
ENDSEC
  0
EOF
