  0
SECTION
  2
HEADER
  9
$ACADVER
  1
AC1024
  9
$ACADMAINTVER
 70
   226
  9
$DWGCODEPAGE
  3
ANSI_932
  9
$INSBASE
 10
0.0
 20
0.0
 30
0.0
  9
$EXTMIN
 10
1.000000000000000E+20
 20
1.000000000000000E+20
 30
1.000000000000000E+20
  9
$EXTMAX
 10
-1.000000000000000E+20
 20
-1.000000000000000E+20
 30
-1.000000000000000E+20
  9
$LIMMIN
 10
0.0
 20
0.0
  9
$LIMMAX
 10
12.0
 20
9.0
  9
$ORTHOMODE
 70
     0
  9
$REGENMODE
 70
     1
  9
$FILLMODE
 70
     1
  9
$QTEXTMODE
 70
     0
  9
$MIRRTEXT
 70
     0
  9
$LTSCALE
 40
1.0
  9
$ATTMODE
 70
     1
  9
$TEXTSIZE
 40
0.2
  9
$TRACEWID
 40
0.05
  9
$TEXTSTYLE
  7
Standard
  9
$CLAYER
  8
0
  9
$CELTYPE
  6
ByLayer
  9
$CECOLOR
 62
   256
  9
$CELTSCALE
 40
1.0
  9
$DISPSILH
 70
     0
  9
$DIMSCALE
 40
1.0
  9
$DIMASZ
 40
0.18
  9
$DIMEXO
 40
0.0625
  9
$DIMDLI
 40
0.38
  9
$DIMRND
 40
0.0
  9
$DIMDLE
 40
0.0
  9
$DIMEXE
 40
0.18
  9
$DIMTP
 40
0.0
  9
$DIMTM
 40
0.0
  9
$DIMTXT
 40
0.18
  9
$DIMCEN
 40
0.09
  9
$DIMTSZ
 40
0.0
  9
$DIMTOL
 70
     0
  9
$DIMLIM
 70
     0
  9
$DIMTIH
 70
     1
  9
$DIMTOH
 70
     1
  9
$DIMSE1
 70
     0
  9
$DIMSE2
 70
     0
  9
$DIMTAD
 70
     0
  9
$DIMZIN
 70
     0
  9
$DIMBLK
  1

  9
$DIMASO
 70
     1
  9
$DIMSHO
 70
     1
  9
$DIMPOST
  1

  9
$DIMAPOST
  1

  9
$DIMALT
 70
     0
  9
$DIMALTD
 70
     2
  9
$DIMALTF
 40
25.4
  9
$DIMLFAC
 40
1.0
  9
$DIMTOFL
 70
     0
  9
$DIMTVP
 40
0.0
  9
$DIMTIX
 70
     0
  9
$DIMSOXD
 70
     0
  9
$DIMSAH
 70
     0
  9
$DIMBLK1
  1

  9
$DIMBLK2
  1

  9
$DIMSTYLE
  2
Standard
  9
$DIMCLRD
 70
     0
  9
$DIMCLRE
 70
     0
  9
$DIMCLRT
 70
     0
  9
$DIMTFAC
 40
1.0
  9
$DIMGAP
 40
0.09
  9
$DIMJUST
 70
     0
  9
$DIMSD1
 70
     0
  9
$DIMSD2
 70
     0
  9
$DIMTOLJ
 70
     1
  9
$DIMTZIN
 70
     0
  9
$DIMALTZ
 70
     0
  9
$DIMALTTZ
 70
     0
  9
$DIMUPT
 70
     0
  9
$DIMDEC
 70
     4
  9
$DIMTDEC
 70
     4
  9
$DIMALTU
 70
     2
  9
$DIMALTTD
 70
     2
  9
$DIMTXSTY
  7
Standard
  9
$DIMAUNIT
 70
     0
  9
$DIMADEC
 70
     0
  9
$DIMALTRND
 40
0.0
  9
$DIMAZIN
 70
     0
  9
$DIMDSEP
 70
    46
  9
$DIMATFIT
 70
     3
  9
$DIMFRAC
 70
     0
  9
$DIMLDRBLK
  1

  9
$DIMLUNIT
 70
     2
  9
$DIMLWD
 70
    -2
  9
$DIMLWE
 70
    -2
  9
$DIMTMOVE
 70
     0
  9
$DIMFXL
 40
1.0
  9
$DIMFXLON
 70
     0
  9
$DIMJOGANG
 40
0.7853981633974483
  9
$DIMTFILL
 70
     0
  9
$DIMTFILLCLR
 70
     0
  9
$DIMARCSYM
 70
     0
  9
$DIMLTYPE
  6

  9
$DIMLTEX1
  6

  9
$DIMLTEX2
  6

  9
$DIMTXTDIRECTION
 70
     0
  9
$LUNITS
 70
     2
  9
$LUPREC
 70
     4
  9
$SKETCHINC
 40
0.1
  9
$FILLETRAD
 40
0.0
  9
$AUNITS
 70
     0
  9
$AUPREC
 70
     0
  9
$MENU
  1
.
  9
$ELEVATION
 40
0.0
  9
$PELEVATION
 40
0.0
  9
$THICKNESS
 40
0.0
  9
$LIMCHECK
 70
     0
  9
$CHAMFERA
 40
0.0
  9
$CHAMFERB
 40
0.0
  9
$CHAMFERC
 40
0.0
  9
$CHAMFERD
 40
0.0
  9
$SKPOLY
 70
     0
  9
$TDCREATE
 40
2459569.503113426
  9
$TDUCREATE
 40
2459569.128113426
  9
$TDUPDATE
 40
2459569.503113426
  9
$TDUUPDATE
 40
2459569.128113426
  9
$TDINDWG
 40
0.0000000000
  9
$TDUSRTIMER
 40
0.0000000000
  9
$USRTIMER
 70
     1
  9
$ANGBASE
 50
0.0
  9
$ANGDIR
 70
     0
  9
$PDMODE
 70
     0
  9
$PDSIZE
 40
0.0
  9
$PLINEWID
 40
0.0
  9
$SPLFRAME
 70
     0
  9
$SPLINETYPE
 70
     6
  9
$SPLINESEGS
 70
     8
  9
$HANDSEED
  5
1A0
  9
$SURFTAB1
 70
     6
  9
$SURFTAB2
 70
     6
  9
$SURFTYPE
 70
     6
  9
$SURFU
 70
     6
  9
$SURFV
 70
     6
  9
$UCSBASE
  2

  9
$UCSNAME
  2

  9
$UCSORG
 10
0.0
 20
0.0
 30
0.0
  9
$UCSXDIR
 10
1.0
 20
0.0
 30
0.0
  9
$UCSYDIR
 10
0.0
 20
1.0
 30
0.0
  9
$UCSORTHOREF
  2

  9
$UCSORTHOVIEW
 70
     0
  9
$UCSORGTOP
 10
0.0
 20
0.0
 30
0.0
  9
$UCSORGBOTTOM
 10
0.0
 20
0.0
 30
0.0
  9
$UCSORGLEFT
 10
0.0
 20
0.0
 30
0.0
  9
$UCSORGRIGHT
 10
0.0
 20
0.0
 30
0.0
  9
$UCSORGFRONT
 10
0.0
 20
0.0
 30
0.0
  9
$UCSORGBACK
 10
0.0
 20
0.0
 30
0.0
  9
$PUCSBASE
  2

  9
$PUCSNAME
  2

  9
$PUCSORG
 10
0.0
 20
0.0
 30
0.0
  9
$PUCSXDIR
 10
1.0
 20
0.0
 30
0.0
  9
$PUCSYDIR
 10
0.0
 20
1.0
 30
0.0
  9
$PUCSORTHOREF
  2

  9
$PUCSORTHOVIEW
 70
     0
  9
$PUCSORGTOP
 10
0.0
 20
0.0
 30
0.0
  9
$PUCSORGBOTTOM
 10
0.0
 20
0.0
 30
0.0
  9
$PUCSORGLEFT
 10
0.0
 20
0.0
 30
0.0
  9
$PUCSORGRIGHT
 10
0.0
 20
0.0
 30
0.0
  9
$PUCSORGFRONT
 10
0.0
 20
0.0
 30
0.0
  9
$PUCSORGBACK
 10
0.0
 20
0.0
 30
0.0
  9
$USERI1
 70
     0
  9
$USERI2
 70
     0
  9
$USERI3
 70
     0
  9
$USERI4
 70
     0
  9
$USERI5
 70
     0
  9
$USERR1
 40
0.0
  9
$USERR2
 40
0.0
  9
$USERR3
 40
0.0
  9
$USERR4
 40
0.0
  9
$USERR5
 40
0.0
  9
$WORLDVIEW
 70
     1
  9
$SHADEDGE
 70
     3
  9
$SHADEDIF
 70
    70
  9
$TILEMODE
 70
     1
  9
$MAXACTVP
 70
    64
  9
$PINSBASE
 10
0.0
 20
0.0
 30
0.0
  9
$PLIMCHECK
 70
     0
  9
$PEXTMIN
 10
1.000000000000000E+20
 20
1.000000000000000E+20
 30
1.000000000000000E+20
  9
$PEXTMAX
 10
-1.000000000000000E+20
 20
-1.000000000000000E+20
 30
-1.000000000000000E+20
  9
$PLIMMIN
 10
0.0
 20
0.0
  9
$PLIMMAX
 10
12.0
 20
9.0
  9
$UNITMODE
 70
     0
  9
$VISRETAIN
 70
     1
  9
$PLINEGEN
 70
     0
  9
$PSLTSCALE
 70
     1
  9
$TREEDEPTH
 70
  3020
  9
$CMLSTYLE
  2
Standard
  9
$CMLJUST
 70
     0
  9
$CMLSCALE
 40
1.0
  9
$PROXYGRAPHICS
 70
     1
  9
$MEASUREMENT
 70
     0
  9
$CELWEIGHT
370
    -1
  9
$ENDCAPS
280
     0
  9
$JOINSTYLE
280
     0
  9
$LWDISPLAY
290
     1
  9
$INSUNITS
 70
     4
  9
$HYPERLINKBASE
  1

  9
$STYLESHEET
  1

  9
$XEDIT
290
     1
  9
$CEPSNTYPE
380
     0
  9
$PSTYLEMODE
290
     1
  9
$FINGERPRINTGUID
  2
{62CDE260-2C4B-EC4E-A2C4-496CF1767D86}
  9
$VERSIONGUID
  2
{722DD9CD-80FF-284C-9EB7-8809D60AD5BE}
  9
$EXTNAMES
290
     1
  9
$PSVPSCALE
 40
0.0
  9
$OLESTARTUP
290
     0
  9
$SORTENTS
280
   127
  9
$INDEXCTL
280
     0
  9
$HIDETEXT
280
     1
  9
$XCLIPFRAME
280
     2
  9
$HALOGAP
280
     0
  9
$OBSCOLOR
 70
   257
  9
$OBSLTYPE
280
     0
  9
$INTERSECTIONDISPLAY
280
     0
  9
$INTERSECTIONCOLOR
 70
   257
  9
$DIMASSOC
280
     2
  9
$PROJECTNAME
  1

  9
$CAMERADISPLAY
290
     0
  9
$LENSLENGTH
 40
50.0
  9
$CAMERAHEIGHT
 40
0.0
  9
$STEPSPERSEC
 40
2.0
  9
$STEPSIZE
 40
6.0
  9
$3DDWFPREC
 40
2.0
  9
$PSOLWIDTH
 40
0.25
  9
$PSOLHEIGHT
 40
4.0
  9
$LOFTANG1
 40
1.570796326794896
  9
$LOFTANG2
 40
1.570796326794896
  9
$LOFTMAG1
 40
0.0
  9
$LOFTMAG2
 40
0.0
  9
$LOFTPARAM
 70
     7
  9
$LOFTNORMALS
280
     1
  9
$LATITUDE
 40
37.795
  9
$LONGITUDE
 40
-122.394
  9
$NORTHDIRECTION
 40
0.0
  9
$TIMEZONE
 70
 -8000
  9
$LIGHTGLYPHDISPLAY
280
     1
  9
$TILEMODELIGHTSYNCH
280
     1
  9
$CMATERIAL
347
11
  9
$SOLIDHIST
280
     0
  9
$SHOWHIST
280
     1
  9
$DWFFRAME
280
     2
  9
$DGNFRAME
280
     0
  9
$REALWORLDSCALE
290
     1
  9
$INTERFERECOLOR
 62
     1
  9
$INTERFEREOBJVS
345
33
  9
$INTERFEREVPVS
346
30
  9
$CSHADOW
280
     0
  9
$SHADOWPLANELOCATION
 40
0.0
  0
ENDSEC
  0
SECTION
  2
CLASSES
  0
CLASS
  1
ACDBDICTIONARYWDFLT
  2
AcDbDictionaryWithDefault
  3
ObjectDBX Classes
 90
        0
 91
        1
280
     0
281
     0
  0
CLASS
  1
MATERIAL
  2
AcDbMaterial
  3
ObjectDBX Classes
 90
     1153
 91
        3
280
     0
281
     0
  0
CLASS
  1
VISUALSTYLE
  2
AcDbVisualStyle
  3
ObjectDBX Classes
 90
     4095
 91
       24
280
     0
281
     0
  0
CLASS
  1
SCALE
  2
AcDbScale
  3
ObjectDBX Classes
 90
     1153
 91
       17
280
     0
281
     0
  0
CLASS
  1
TABLESTYLE
  2
AcDbTableStyle
  3
ObjectDBX Classes
 90
     4095
 91
        1
280
     0
281
     0
  0
CLASS
  1
MLEADERSTYLE
  2
AcDbMLeaderStyle
  3
ACDB_MLEADERSTYLE_CLASS
 90
     4095
 91
        1
280
     0
281
     0
  0
CLASS
  1
ACDBSECTIONVIEWSTYLE
  2
AcDbSectionViewStyle
  3
ObjectDBX Classes
 90
     1025
 91
        1
280
     0
281
     0
  0
CLASS
  1
ACDBDETAILVIEWSTYLE
  2
AcDbDetailViewStyle
  3
ObjectDBX Classes
 90
     1025
 91
        1
280
     0
281
     0
  0
CLASS
  1
DICTIONARYVAR
  2
AcDbDictionaryVar
  3
ObjectDBX Classes
 90
        0
 91
        5
280
     0
281
     0
  0
CLASS
  1
CELLSTYLEMAP
  2
AcDbCellStyleMap
  3
ObjectDBX Classes
 90
     1152
 91
        1
280
     0
281
     0
  0
ENDSEC
  0
SECTION
  2
TABLES
  0
TABLE
  2
VPORT
  5
8
330
0
100
AcDbSymbolTable
 70
     1
  0
VPORT
  5
57
330
8
100
AcDbSymbolTableRecord
100
AcDbViewportTableRecord
  2
*Active
 70
     0
 10
0.0
 20
0.0
 11
1.0
 21
1.0
 12
0.0
 22
0.0
 13
0.0
 23
0.0
 14
1.0
 24
1.0
 15
0.0
 25
0.0
 16
0.0
 26
0.0
 36
1.0
 17
104.9999999737534
 27
-148.4999999628701
 37
0.0
 40
302.939999924255
 41
0.7070707070707534
 42
50.0
 43
0.0
 44
0.0
 50
0.0
 51
0.0
 71
     0
 72
   100
 73
     1
 74
     0
 75
     1
 76
     0
 77
     0
 78
     0
281
     0
 65
     1
110
0.0
120
0.0
130
0.0
111
1.0
121
0.0
131
0.0
112
0.0
122
1.0
132
0.0
 79
     0
146
0.0
 60
     3
 61
     5
292
     1
282
     1
141
0.0
142
0.0
 63
   250
421
  3355443
  0
ENDTAB
  0
TABLE
  2
LTYPE
  5
5
330
0
100
AcDbSymbolTable
 70
     3
  0
LTYPE
  5
5B
330
5
100
AcDbSymbolTableRecord
100
AcDbLinetypeTableRecord
  2
ByBlock
 70
     0
  3

 72
    65
 73
     0
 40
0.0
  0
LTYPE
  5
5C
330
5
100
AcDbSymbolTableRecord
100
AcDbLinetypeTableRecord
  2
ByLayer
 70
     0
  3

 72
    65
 73
     0
 40
0.0
  0
LTYPE
  5
5D
330
5
100
AcDbSymbolTableRecord
100
AcDbLinetypeTableRecord
  2
Continuous
 70
     0
  3
Solid line
 72
    65
 73
     0
 40
0.0
  0
LTYPE
  5
7A
330
5
100
AcDbSymbolTableRecord
100
AcDbLinetypeTableRecord
  2
AI-Linetype-0
 70
     0
  3
Adobe Illustrator Linetype No. 0
 72
    65
 73
     2
 40
1.411111110758333
 49
0.7055555553791667
 74
     0
 49
-0.7055555553791667
 74
     0
  0
LTYPE
  5
7C
330
5
100
AcDbSymbolTableRecord
100
AcDbLinetypeTableRecord
  2
AI-Linetype-1
 70
     0
  3
Adobe Illustrator Linetype No. 1
 72
    65
 73
     2
 40
1.411111110758333
 49
0.7055555553791667
 74
     0
 49
-0.7055555553791667
 74
     0
  0
ENDTAB
  0
TABLE
  2
LAYER
  5
2
330
0
100
AcDbSymbolTable
 70
     2
  0
LAYER
  5
54
330
2
100
AcDbSymbolTableRecord
100
AcDbLayerTableRecord
  2
0
 70
     0
 62
     7
  6
Continuous
370
    -3
390
F
347
21
  0
LAYER
  5
78
330
2
100
AcDbSymbolTableRecord
100
AcDbLayerTableRecord
  2
レイヤー 1
 70
     0
 62
     7
  6
Continuous
370
     0
390
F
347
21
  0
ENDTAB
  0
TABLE
  2
STYLE
  5
3
330
0
100
AcDbSymbolTable
 70
     2
  0
STYLE
  5
55
330
3
100
AcDbSymbolTableRecord
100
AcDbTextStyleTableRecord
  2
Standard
 70
     0
 40
0.0
 41
1.0
 50
0.0
 71
     0
 42
0.2
  3
txt
  4

  0
STYLE
  5
5A
330
3
100
AcDbSymbolTableRecord
100
AcDbTextStyleTableRecord
  2
Annotative
 70
     0
 40
0.0
 41
1.0
 50
0.0
 71
     0
 42
0.2
  3
txt
  4

1001
AcadAnnotative
1000
AnnotativeData
1002
{
1070
     1
1070
     1
1002
}
  0
ENDTAB
  0
TABLE
  2
VIEW
  5
6
330
0
100
AcDbSymbolTable
 70
     0
  0
ENDTAB
  0
TABLE
  2
UCS
  5
7
330
0
100
AcDbSymbolTable
 70
     0
  0
ENDTAB
  0
TABLE
  2
APPID
  5
9
330
0
100
AcDbSymbolTable
 70
     2
  0
APPID
  5
56
330
9
100
AcDbSymbolTableRecord
100
AcDbRegAppTableRecord
  2
ACAD
 70
     0
  0
APPID
  5
5E
330
9
100
AcDbSymbolTableRecord
100
AcDbRegAppTableRecord
  2
AcadAnnotative
 70
     0
  0
ENDTAB
  0
TABLE
  2
DIMSTYLE
  5
A
330
0
100
AcDbSymbolTable
 70
     2
100
AcDbDimStyleTable
 71
     0
  0
DIMSTYLE
105
58
330
A
100
AcDbSymbolTableRecord
100
AcDbDimStyleTableRecord
  2
Standard
 70
     0
340
55
  0
DIMSTYLE
105
59
330
A
100
AcDbSymbolTableRecord
100
AcDbDimStyleTableRecord
  2
Annotative
 70
     0
340
55
1001
AcadAnnotative
1000
AnnotativeData
1002
{
1070
     1
1070
     1
1002
}
  0
ENDTAB
  0
TABLE
  2
BLOCK_RECORD
  5
1
330
0
100
AcDbSymbolTable
 70
    16
  0
BLOCK_RECORD
  5
70
330
1
100
AcDbSymbolTableRecord
100
AcDbBlockTableRecord
  2
*Model_Space
340
73
 70
     0
280
     1
281
     0
  0
BLOCK_RECORD
  5
6C
330
1
100
AcDbSymbolTableRecord
100
AcDbBlockTableRecord
  2
*Paper_Space
340
6F
 70
     0
280
     1
281
     0
  0
BLOCK_RECORD
  5
74
330
1
100
AcDbSymbolTableRecord
100
AcDbBlockTableRecord
  2
*Paper_Space0
340
77
 70
     0
280
     1
281
     0
  0
BLOCK_RECORD
  5
E4
330
1
100
AcDbSymbolTableRecord
100
AcDbBlockTableRecord
  2
Block_0
340
0
102
{BLKREFS
331
E5
102
}
 70
     0
280
     1
281
     0
  0
BLOCK_RECORD
  5
E8
330
1
100
AcDbSymbolTableRecord
100
AcDbBlockTableRecord
  2
Block_1
340
0
102
{BLKREFS
331
E9
102
}
 70
     0
280
     1
281
     0
  0
BLOCK_RECORD
  5
F5
330
1
100
AcDbSymbolTableRecord
100
AcDbBlockTableRecord
  2
Block_2
340
0
102
{BLKREFS
331
F6
102
}
 70
     0
280
     1
281
     0
  0
BLOCK_RECORD
  5
F9
330
1
100
AcDbSymbolTableRecord
100
AcDbBlockTableRecord
  2
Block_3
340
0
102
{BLKREFS
331
FA
102
}
 70
     0
280
     1
281
     0
  0
BLOCK_RECORD
  5
103
330
1
100
AcDbSymbolTableRecord
100
AcDbBlockTableRecord
  2
Block_4
340
0
102
{BLKREFS
331
104
102
}
 70
     0
280
     1
281
     0
  0
BLOCK_RECORD
  5
10B
330
1
100
AcDbSymbolTableRecord
100
AcDbBlockTableRecord
  2
Block_5
340
0
102
{BLKREFS
331
10C
102
}
 70
     0
280
     1
281
     0
  0
BLOCK_RECORD
  5
10F
330
1
100
AcDbSymbolTableRecord
100
AcDbBlockTableRecord
  2
Block_6
340
0
102
{BLKREFS
331
110
102
}
 70
     0
280
     1
281
     0
  0
BLOCK_RECORD
  5
11A
330
1
100
AcDbSymbolTableRecord
100
AcDbBlockTableRecord
  2
Block_7
340
0
102
{BLKREFS
331
11B
102
}
 70
     0
280
     1
281
     0
  0
BLOCK_RECORD
  5
123
330
1
100
AcDbSymbolTableRecord
100
AcDbBlockTableRecord
  2
Block_8
340
0
102
{BLKREFS
331
124
102
}
 70
     0
280
     1
281
     0
  0
BLOCK_RECORD
  5
12E
330
1
100
AcDbSymbolTableRecord
100
AcDbBlockTableRecord
  2
Block_9
340
0
102
{BLKREFS
331
12F
102
}
 70
     0
280
     1
281
     0
  0
BLOCK_RECORD
  5
132
330
1
100
AcDbSymbolTableRecord
100
AcDbBlockTableRecord
  2
Block_10
340
0
102
{BLKREFS
331
133
102
}
 70
     0
280
     1
281
     0
  0
BLOCK_RECORD
  5
13B
330
1
100
AcDbSymbolTableRecord
100
AcDbBlockTableRecord
  2
Block_11
340
0
102
{BLKREFS
331
13C
102
}
 70
     0
280
     1
281
     0
  0
BLOCK_RECORD
  5
13F
330
1
100
AcDbSymbolTableRecord
100
AcDbBlockTableRecord
  2
Block_12
340
0
102
{BLKREFS
331
140
102
}
 70
     0
280
     1
281
     0
  0
BLOCK_RECORD
  5
146
330
1
100
AcDbSymbolTableRecord
100
AcDbBlockTableRecord
  2
Block_13
340
0
102
{BLKREFS
331
147
102
}
 70
     0
280
     1
281
     0
  0
BLOCK_RECORD
  5
14A
330
1
100
AcDbSymbolTableRecord
100
AcDbBlockTableRecord
  2
Block_14
340
0
102
{BLKREFS
331
14B
102
}
 70
     0
280
     1
281
     0
  0
ENDTAB
  0
ENDSEC
  0
SECTION
  2
BLOCKS
  0
BLOCK
  5
71
330
70
100
AcDbEntity
  8
0
100
AcDbBlockBegin
  2
*Model_Space
 70
     0
 10
0.0
 20
0.0
 30
0.0
  3
*Model_Space
  1

  0
ENDBLK
  5
72
330
70
100
AcDbEntity
  8
0
100
AcDbBlockEnd
  0
BLOCK
  5
6D
330
6C
100
AcDbEntity
 67
     1
  8
0
100
AcDbBlockBegin
  2
*Paper_Space
 70
     0
 10
0.0
 20
0.0
 30
0.0
  3
*Paper_Space
  1

  0
ENDBLK
  5
6E
330
6C
100
AcDbEntity
 67
     1
  8
0
100
AcDbBlockEnd
  0
BLOCK
  5
75
330
74
100
AcDbEntity
 67
     1
  8
0
100
AcDbBlockBegin
  2
*Paper_Space0
 70
     0
 10
0.0
 20
0.0
 30
0.0
  3
*Paper_Space0
  1

  0
ENDBLK
  5
76
330
74
100
AcDbEntity
 67
     1
  8
0
100
AcDbBlockEnd
  0
BLOCK
  5
E6
330
E4
100
AcDbEntity
  8
0
100
AcDbBlockBegin
  2
Block_0
 70
     0
 10
0.0
 20
0.0
 30
0.0
  3
Block_0
  1

  0
INSERT
  5
E9
330
E4
100
AcDbEntity
  8
レイヤー 1
100
AcDbBlockReference
  2
Block_1
 10
0.0
 20
0.0
 30
0.0
  0
ENDBLK
  5
E7
330
E4
100
AcDbEntity
  8
0
100
AcDbBlockEnd
  0
BLOCK
  5
EA
330
E8
100
AcDbEntity
  8
0
100
AcDbBlockBegin
  2
Block_1
 70
     0
 10
0.0
 20
0.0
 30
0.0
  3
Block_1
  1

  0
SPLINE
  5
EC
330
E8
100
AcDbEntity
  8
レイヤー 1
100
AcDbSpline
210
0.0
220
0.0
230
1.0
 70
     9
 71
     3
 72
    17
 73
    13
 74
     0
 42
0.0000000001
 43
0.0000000001
 40
0.0
 40
0.0
 40
0.0
 40
0.0
 40
1.0
 40
1.0
 40
1.0
 40
2.0
 40
2.0
 40
2.0
 40
3.0
 40
3.0
 40
3.0
 40
4.0
 40
4.0
 40
4.0
 40
4.0
 10
72.39454750794303
 20
-148.1353162607092
 30
0.0
 10
72.39454750794303
 20
-148.3850856833898
 30
0.0
 10
72.67790661160482
 20
-148.4315944724407
 30
0.0
 10
73.02276066967833
 20
-148.4315944724407
 30
0.0
 10
73.34229327593526
 20
-148.4315944724407
 30
0.0
 10
73.65114608618791
 20
-148.3954209698456
 30
0.0
 10
73.65114608618791
 20
-148.1353162607092
 30
0.0
 10
73.65114608618791
 20
-147.8876138953197
 30
0.0
 10
73.36968178504299
 20
-147.8390380489777
 30
0.0
 10
73.02276066967833
 20
-147.8390380489777
 30
0.0
 10
72.70340031819568
 20
-147.8390380489777
 30
0.0
 10
72.39454750794303
 20
-147.877278608864
 30
0.0
 10
72.39454750794303
 20
-148.1353162607092
 30
0.0
  0
SPLINE
  5
ED
330
E8
100
AcDbEntity
  8
レイヤー 1
100
AcDbSpline
210
0.0
220
0.0
230
1.0
 70
     9
 71
     3
 72
    29
 73
    25
 74
     0
 42
0.0000000001
 43
0.0000000001
 40
0.0
 40
0.0
 40
0.0
 40
0.0
 40
1.0
 40
1.0
 40
1.0
 40
2.0
 40
2.0
 40
2.0
 40
3.0
 40
3.0
 40
3.0
 40
4.0
 40
4.0
 40
4.0
 40
5.0
 40
5.0
 40
5.0
 40
6.0
 40
6.0
 40
6.0
 40
7.0
 40
7.0
 40
7.0
 40
8.0
 40
8.0
 40
8.0
 40
8.0
 10
73.6172118956582
 20
-147.7374077321628
 30
0.0
 10
73.8266737011614
 20
-147.8455837303997
 30
0.0
 10
73.84579398110452
 20
-148.0188720333078
 30
0.0
 10
73.84579398110452
 20
-148.1353162607092
 30
0.0
 10
73.84579398110452
 20
-148.2962022198704
 30
0.0
 10
73.79928519205366
 20
-148.4377956443142
 30
0.0
 10
73.6172118956582
 20
-148.532880279707
 30
0.0
 10
73.42273625551584
 20
-148.6365776538131
 30
0.0
 10
73.18571368613065
 20
-148.6558701885305
 30
0.0
 10
73.02276066967833
 20
-148.6558701885305
 30
0.0
 10
72.87892793316917
 20
-148.6558701885305
 30
0.0
 10
72.62726370797166
 20
-148.6386447111042
 30
0.0
 10
72.42830944369848
 20
-148.532880279707
 30
0.0
 10
72.225221064843
 20
-148.4250487910187
 30
0.0
 10
72.20196667031756
 20
-148.2641628318576
 30
0.0
 10
72.20196667031756
 20
-148.1353162607092
 30
0.0
 10
72.20196667031756
 20
-147.9764973588392
 30
0.0
 10
72.2464084020773
 20
-147.8328368771043
 30
0.0
 10
72.42830944369848
 20
-147.7374077321628
 30
0.0
 10
72.62089028132395
 20
-147.6381889821877
 30
0.0
 10
72.84930011199602
 20
-147.6147623328879
 30
0.0
 10
73.02276066967833
 20
-147.6147623328879
 30
0.0
 10
73.19415417006952
 20
-147.6147623328879
 30
0.0
 10
73.424803312807
 20
-147.6361219248965
 30
0.0
 10
73.6172118956582
 20
-147.7374077321628
 30
0.0
  0
HATCH
  5
EE
330
E8
100
AcDbEntity
  8
レイヤー 1
 62
   250
420
  2299925
440
 33554687
100
AcDbHatch
 10
0.0
 20
0.0
 30
0.0
210
0.0
220
0.0
230
1.0
  2
SOLID
 70
     1
 71
     1
 91
        2
 92
        1
 93
        1
 72
     4
 94
        3
 73
     0
 74
     0
 95
       17
 96
       13
 40
0.0
 40
0.0
 40
0.0
 40
0.0
 40
1.0
 40
1.0
 40
1.0
 40
2.0
 40
2.0
 40
2.0
 40
3.0
 40
3.0
 40
3.0
 40
4.0
 40
4.0
 40
4.0
 40
4.0
 10
72.39454750794303
 20
-148.1353162607092
 10
72.39454750794303
 20
-148.3850856833898
 10
72.67790661160482
 20
-148.4315944724407
 10
73.02276066967833
 20
-148.4315944724407
 10
73.34229327593526
 20
-148.4315944724407
 10
73.65114608618791
 20
-148.3954209698456
 10
73.65114608618791
 20
-148.1353162607092
 10
73.65114608618791
 20
-147.8876138953197
 10
73.36968178504299
 20
-147.8390380489777
 10
73.02276066967833
 20
-147.8390380489777
 10
72.70340031819568
 20
-147.8390380489777
 10
72.39454750794303
 20
-147.877278608864
 10
72.39454750794303
 20
-148.1353162607092
 97
        0
 97
        1
330
EC
 92
        1
 93
        1
 72
     4
 94
        3
 73
     0
 74
     0
 95
       29
 96
       25
 40
0.0
 40
0.0
 40
0.0
 40
0.0
 40
1.0
 40
1.0
 40
1.0
 40
2.0
 40
2.0
 40
2.0
 40
3.0
 40
3.0
 40
3.0
 40
4.0
 40
4.0
 40
4.0
 40
5.0
 40
5.0
 40
5.0
 40
6.0
 40
6.0
 40
6.0
 40
7.0
 40
7.0
 40
7.0
 40
8.0
 40
8.0
 40
8.0
 40
8.0
 10
73.6172118956582
 20
-147.7374077321628
 10
73.8266737011614
 20
-147.8455837303997
 10
73.84579398110452
 20
-148.0188720333078
 10
73.84579398110452
 20
-148.1353162607092
 10
73.84579398110452
 20
-148.2962022198704
 10
73.79928519205366
 20
-148.4377956443142
 10
73.6172118956582
 20
-148.532880279707
 10
73.42273625551584
 20
-148.6365776538131
 10
73.18571368613065
 20
-148.6558701885305
 10
73.02276066967833
 20
-148.6558701885305
 10
72.87892793316917
 20
-148.6558701885305
 10
72.62726370797166
 20
-148.6386447111042
 10
72.42830944369848
 20
-148.532880279707
 10
72.225221064843
 20
-148.4250487910187
 10
72.20196667031756
 20
-148.2641628318576
 10
72.20196667031756
 20
-148.1353162607092
 10
72.20196667031756
 20
-147.9764973588392
 10
72.2464084020773
 20
-147.8328368771043
 10
72.42830944369848
 20
-147.7374077321628
 10
72.62089028132395
 20
-147.6381889821877
 10
72.84930011199602
 20
-147.6147623328879
 10
73.02276066967833
 20
-147.6147623328879
 10
73.19415417006952
 20
-147.6147623328879
 10
73.424803312807
 20
-147.6361219248965
 10
73.6172118956582
 20
-147.7374077321628
 97
        0
 97
        1
330
ED
 75
     2
 76
     1
 98
        1
 10
0.0
 20
0.0
450
        0
451
        0
460
0.0
461
0.0
452
        0
462
0.0
453
        0
470

  0
SPLINE
  5
EF
330
E8
100
AcDbEntity
  8
レイヤー 1
100
AcDbSpline
210
0.0
220
0.0
230
1.0
 70
    11
 71
     3
 72
    17
 73
    13
 74
     0
 42
0.0000000001
 43
0.0000000001
 40
0.0
 40
0.0
 40
0.0
 40
0.0
 40
1.0
 40
1.0
 40
1.0
 40
2.0
 40
2.0
 40
2.0
 40
3.0
 40
3.0
 40
3.0
 40
4.0
 40
4.0
 40
4.0
 40
4.0
 10
73.79497882269709
 20
-147.3984103364143
 30
0.0
 10
73.79497882269709
 20
-147.3984103364143
 30
0.0
 10
73.54331459749959
 20
-147.3984103364143
 30
0.0
 10
73.54331459749959
 20
-147.3984103364143
 30
0.0
 10
73.54331459749959
 20
-147.3984103364143
 30
0.0
 10
73.54331459749959
 20
-147.1465738564425
 30
0.0
 10
73.54331459749959
 20
-147.1465738564425
 30
0.0
 10
73.54331459749959
 20
-147.1465738564425
 30
0.0
 10
73.79497882269709
 20
-147.1465738564425
 30
0.0
 10
73.79497882269709
 20
-147.1465738564425
 30
0.0
 10
73.79497882269709
 20
-147.1465738564425
 30
0.0
 10
73.79497882269709
 20
-147.3984103364143
 30
0.0
 10
73.79497882269709
 20
-147.3984103364143
 30
0.0
  0
HATCH
  5
F0
330
E8
100
AcDbEntity
  8
レイヤー 1
 62
   250
420
  2299925
440
 33554687
100
AcDbHatch
 10
0.0
 20
0.0
 30
0.0
210
0.0
220
0.0
230
1.0
  2
SOLID
 70
     1
 71
     1
 91
        1
 92
        1
 93
        1
 72
     4
 94
        3
 73
     0
 74
     0
 95
       17
 96
       13
 40
0.0
 40
0.0
 40
0.0
 40
0.0
 40
1.0
 40
1.0
 40
1.0
 40
2.0
 40
2.0
 40
2.0
 40
3.0
 40
3.0
 40
3.0
 40
4.0
 40
4.0
 40
4.0
 40
4.0
 10
73.79497882269709
 20
-147.3984103364143
 10
73.79497882269709
 20
-147.3984103364143
 10
73.54331459749959
 20
-147.3984103364143
 10
73.54331459749959
 20
-147.3984103364143
 10
73.54331459749959
 20
-147.3984103364143
 10
73.54331459749959
 20
-147.1465738564425
 10
73.54331459749959
 20
-147.1465738564425
 10
73.54331459749959
 20
-147.1465738564425
 10
73.79497882269709
 20
-147.1465738564425
 10
73.79497882269709
 20
-147.1465738564425
 10
73.79497882269709
 20
-147.1465738564425
 10
73.79497882269709
 20
-147.3984103364143
 10
73.79497882269709
 20
-147.3984103364143
 97
        0
 97
        1
330
EF
 75
     2
 76
     1
 98
        1
 10
0.0
 20
0.0
450
        0
451
        0
460
0.0
461
0.0
452
        0
462
0.0
453
        0
470

  0
SPLINE
  5
F1
330
E8
100
AcDbEntity
  8
レイヤー 1
100
AcDbSpline
210
0.0
220
0.0
230
1.0
 70
     9
 71
     3
 72
    53
 73
    49
 74
     0
 42
0.0000000001
 43
0.0000000001
 40
0.0
 40
0.0
 40
0.0
 40
0.0
 40
1.0
 40
1.0
 40
1.0
 40
2.0
 40
2.0
 40
2.0
 40
3.0
 40
3.0
 40
3.0
 40
4.0
 40
4.0
 40
4.0
 40
5.0
 40
5.0
 40
5.0
 40
6.0
 40
6.0
 40
6.0
 40
7.0
 40
7.0
 40
7.0
 40
8.0
 40
8.0
 40
8.0
 40
9.0
 40
9.0
 40
9.0
 40
10.0
 40
10.0
 40
10.0
 40
11.0
 40
11.0
 40
11.0
 40
12.0
 40
12.0
 40
12.0
 40
13.0
 40
13.0
 40
13.0
 40
14.0
 40
14.0
 40
14.0
 40
15.0
 40
15.0
 40
15.0
 40
16.0
 40
16.0
 40
16.0
 40
16.0
 10
73.84579398110452
 20
-146.4293049764135
 30
0.0
 10
73.84579398110452
 20
-146.5075086439286
 30
0.0
 10
73.82891301322681
 20
-146.6091389607435
 30
0.0
 10
73.76535100152394
 20
-146.7107692775584
 30
0.0
 10
73.65528020077021
 20
-146.8840575804665
 30
0.0
 10
73.52419431755645
 20
-146.905417172475
 30
0.0
 10
73.41636282886813
 20
-146.9243651976439
 30
0.0
 10
73.41636282886813
 20
-146.9243651976439
 30
0.0
 10
73.41636282886813
 20
-146.7021565388453
 30
0.0
 10
73.41636282886813
 20
-146.7021565388453
 30
0.0
 10
73.61514483836704
 20
-146.6473795206298
 30
0.0
 10
73.64477265954019
 20
-146.5202554972241
 30
0.0
 10
73.64477265954019
 20
-146.4272379191223
 30
0.0
 10
73.64477265954019
 20
-146.2877115519697
 30
0.0
 10
73.54538165479074
 20
-146.1354383315217
 30
0.0
 10
73.31266545476211
 20
-146.1354383315217
 30
0.0
 10
73.05669486020805
 20
-146.1354383315217
 30
0.0
 10
72.98693167663174
 20
-146.3152723158517
 30
0.0
 10
72.98693167663174
 20
-146.4358506578355
 30
0.0
 10
72.98693167663174
 20
-146.4675455362998
 30
0.0
 10
72.98693167663174
 20
-146.6091389607435
 30
0.0
 10
73.11595050255435
 20
-146.698022424263
 30
0.0
 10
73.11595050255435
 20
-146.698022424263
 30
0.0
 10
73.09683022261122
 20
-146.8737222940107
 30
0.0
 10
73.09683022261122
 20
-146.8737222940107
 30
0.0
 10
73.09683022261122
 20
-146.8737222940107
 30
0.0
 10
72.25071477143385
 20
-146.753143952027
 30
0.0
 10
72.25071477143385
 20
-146.753143952027
 30
0.0
 10
72.25071477143385
 20
-146.753143952027
 30
0.0
 10
72.25071477143385
 20
-145.9745523723605
 30
0.0
 10
72.25071477143385
 20
-145.9745523723605
 30
0.0
 10
72.25071477143385
 20
-145.9745523723605
 30
0.0
 10
72.44536266635046
 20
-145.9745523723605
 30
0.0
 10
72.44536266635046
 20
-145.9745523723605
 30
0.0
 10
72.44536266635046
 20
-145.9745523723605
 30
0.0
 10
72.44536266635046
 20
-146.5901909355746
 30
0.0
 10
72.44536266635046
 20
-146.5901909355746
 30
0.0
 10
72.44536266635046
 20
-146.5901909355746
 30
0.0
 10
72.86842039193915
 20
-146.6556477497944
 30
0.0
 10
72.86842039193915
 20
-146.6556477497944
 30
0.0
 10
72.83448620140943
 20
-146.594325050157
 30
0.0
 10
72.79435083900627
 20
-146.5119872680595
 30
0.0
 10
72.79435083900627
 20
-146.3934759833669
 30
0.0
 10
72.79435083900627
 20
-146.139572446104
 30
0.0
 10
72.98055824998403
 20
-145.9025498767188
 30
0.0
 10
73.29354517481897
 20
-145.9025498767188
 30
0.0
 10
73.61101072378474
 20
-145.9025498767188
 30
0.0
 10
73.84579398110452
 20
-146.1268255928086
 30
0.0
 10
73.84579398110452
 20
-146.4293049764135
 30
0.0
  0
HATCH
  5
F2
330
E8
100
AcDbEntity
  8
レイヤー 1
 62
   250
420
  2299925
440
 33554687
100
AcDbHatch
 10
0.0
 20
0.0
 30
0.0
210
0.0
220
0.0
230
1.0
  2
SOLID
 70
     1
 71
     1
 91
        1
 92
        1
 93
        1
 72
     4
 94
        3
 73
     0
 74
     0
 95
       53
 96
       49
 40
0.0
 40
0.0
 40
0.0
 40
0.0
 40
1.0
 40
1.0
 40
1.0
 40
2.0
 40
2.0
 40
2.0
 40
3.0
 40
3.0
 40
3.0
 40
4.0
 40
4.0
 40
4.0
 40
5.0
 40
5.0
 40
5.0
 40
6.0
 40
6.0
 40
6.0
 40
7.0
 40
7.0
 40
7.0
 40
8.0
 40
8.0
 40
8.0
 40
9.0
 40
9.0
 40
9.0
 40
10.0
 40
10.0
 40
10.0
 40
11.0
 40
11.0
 40
11.0
 40
12.0
 40
12.0
 40
12.0
 40
13.0
 40
13.0
 40
13.0
 40
14.0
 40
14.0
 40
14.0
 40
15.0
 40
15.0
 40
15.0
 40
16.0
 40
16.0
 40
16.0
 40
16.0
 10
73.84579398110452
 20
-146.4293049764135
 10
73.84579398110452
 20
-146.5075086439286
 10
73.82891301322681
 20
-146.6091389607435
 10
73.76535100152394
 20
-146.7107692775584
 10
73.65528020077021
 20
-146.8840575804665
 10
73.52419431755645
 20
-146.905417172475
 10
73.41636282886813
 20
-146.9243651976439
 10
73.41636282886813
 20
-146.9243651976439
 10
73.41636282886813
 20
-146.7021565388453
 10
73.41636282886813
 20
-146.7021565388453
 10
73.61514483836704
 20
-146.6473795206298
 10
73.64477265954019
 20
-146.5202554972241
 10
73.64477265954019
 20
-146.4272379191223
 10
73.64477265954019
 20
-146.2877115519697
 10
73.54538165479074
 20
-146.1354383315217
 10
73.31266545476211
 20
-146.1354383315217
 10
73.05669486020805
 20
-146.1354383315217
 10
72.98693167663174
 20
-146.3152723158517
 10
72.98693167663174
 20
-146.4358506578355
 10
72.98693167663174
 20
-146.4675455362998
 10
72.98693167663174
 20
-146.6091389607435
 10
73.11595050255435
 20
-146.698022424263
 10
73.11595050255435
 20
-146.698022424263
 10
73.09683022261122
 20
-146.8737222940107
 10
73.09683022261122
 20
-146.8737222940107
 10
73.09683022261122
 20
-146.8737222940107
 10
72.25071477143385
 20
-146.753143952027
 10
72.25071477143385
 20
-146.753143952027
 10
72.25071477143385
 20
-146.753143952027
 10
72.25071477143385
 20
-145.9745523723605
 10
72.25071477143385
 20
-145.9745523723605
 10
72.25071477143385
 20
-145.9745523723605
 10
72.44536266635046
 20
-145.9745523723605
 10
72.44536266635046
 20
-145.9745523723605
 10
72.44536266635046
 20
-145.9745523723605
 10
72.44536266635046
 20
-146.5901909355746
 10
72.44536266635046
 20
-146.5901909355746
 10
72.44536266635046
 20
-146.5901909355746
 10
72.86842039193915
 20
-146.6556477497944
 10
72.86842039193915
 20
-146.6556477497944
 10
72.83448620140943
 20
-146.594325050157
 10
72.79435083900627
 20
-146.5119872680595
 10
72.79435083900627
 20
-146.3934759833669
 10
72.79435083900627
 20
-146.139572446104
 10
72.98055824998403
 20
-145.9025498767188
 10
73.29354517481897
 20
-145.9025498767188
 10
73.61101072378474
 20
-145.9025498767188
 10
73.84579398110452
 20
-146.1268255928086
 10
73.84579398110452
 20
-146.4293049764135
 97
        0
 97
        1
330
F1
 75
     2
 76
     1
 98
        1
 10
0.0
 20
0.0
450
        0
451
        0
460
0.0
461
0.0
452
        0
462
0.0
453
        0
470

  0
ENDBLK
  5
EB
330
E8
100
AcDbEntity
  8
0
100
AcDbBlockEnd
  0
BLOCK
  5
F7
330
F5
100
AcDbEntity
  8
0
100
AcDbBlockBegin
  2
Block_2
 70
     0
 10
0.0
 20
0.0
 30
0.0
  3
Block_2
  1

  0
INSERT
  5
FA
330
F5
100
AcDbEntity
  8
レイヤー 1
100
AcDbBlockReference
  2
Block_3
 10
0.0
 20
0.0
 30
0.0
  0
ENDBLK
  5
F8
330
F5
100
AcDbEntity
  8
0
100
AcDbBlockEnd
  0
BLOCK
  5
FB
330
F9
100
AcDbEntity
  8
0
100
AcDbBlockBegin
  2
Block_3
 70
     0
 10
0.0
 20
0.0
 30
0.0
  3
Block_3
  1

  0
SPLINE
  5
FD
330
F9
100
AcDbEntity
  8
レイヤー 1
100
AcDbSpline
210
0.0
220
0.0
230
1.0
 70
     9
 71
     3
 72
    44
 73
    40
 74
     0
 42
0.0000000001
 43
0.0000000001
 40
0.0
 40
0.0
 40
0.0
 40
0.0
 40
1.0
 40
1.0
 40
1.0
 40
2.0
 40
2.0
 40
2.0
 40
3.0
 40
3.0
 40
3.0
 40
4.0
 40
4.0
 40
4.0
 40
5.0
 40
5.0
 40
5.0
 40
6.0
 40
6.0
 40
6.0
 40
7.0
 40
7.0
 40
7.0
 40
8.0
 40
8.0
 40
8.0
 40
9.0
 40
9.0
 40
9.0
 40
10.0
 40
10.0
 40
10.0
 40
11.0
 40
11.0
 40
11.0
 40
12.0
 40
12.0
 40
12.0
 40
13.0
 40
13.0
 40
13.0
 40
13.0
 10
87.30440400378155
 20
-140.9230088623387
 30
0.0
 10
87.0865017143395
 20
-141.0816555094344
 30
0.0
 10
86.99331188146349
 20
-141.1557250623673
 30
0.0
 10
86.94473603512147
 20
-141.2995577988765
 30
0.0
 10
86.94473603512147
 20
-141.2995577988765
 30
0.0
 10
87.72315536001366
 20
-141.2995577988765
 30
0.0
 10
87.72315536001366
 20
-141.2995577988765
 30
0.0
 10
87.72315536001366
 20
-141.2995577988765
 30
0.0
 10
87.72315536001366
 20
-141.5047132350231
 30
0.0
 10
87.72315536001366
 20
-141.5047132350231
 30
0.0
 10
87.72315536001366
 20
-141.5047132350231
 30
0.0
 10
86.6951388672151
 20
-141.5047132350231
 30
0.0
 10
86.6951388672151
 20
-141.5047132350231
 30
0.0
 10
86.7268337456794
 20
-141.1471123236542
 30
0.0
 10
86.79246281467341
 20
-141.068908656139
 30
0.0
 10
87.17745223515008
 20
-140.7705633871164
 30
0.0
 10
87.43342282970415
 20
-140.5717813776174
 30
0.0
 10
87.49887964392391
 20
-140.5040852513323
 30
0.0
 10
87.49887964392391
 20
-140.3666259414708
 30
0.0
 10
87.49887964392391
 20
-140.2481146567782
 30
0.0
 10
87.42704940305642
 20
-140.1168565187902
 30
0.0
 10
87.23033445084867
 20
-140.1168565187902
 30
0.0
 10
86.97005748693804
 20
-140.1168565187902
 30
0.0
 10
86.96161700299917
 20
-140.3475056615277
 30
0.0
 10
86.95731063364261
 20
-140.4639498889291
 30
0.0
 10
86.95731063364261
 20
-140.4639498889291
 30
0.0
 10
86.7332071723271
 20
-140.4639498889291
 30
0.0
 10
86.7332071723271
 20
-140.4639498889291
 30
0.0
 10
86.74164765626597
 20
-140.3369981202977
 30
0.0
 10
86.75215519749599
 20
-140.2248602622528
 30
0.0
 10
86.83259817707657
 20
-140.1063489775602
 30
0.0
 10
86.94249672305605
 20
-139.9456352731733
 30
0.0
 10
87.12870413403379
 20
-139.9117010826436
 30
0.0
 10
87.24514836143525
 20
-139.9117010826436
 30
0.0
 10
87.5223062932236
 20
-139.9117010826436
 30
0.0
 10
87.72952878666137
 20
-140.0958414363302
 30
0.0
 10
87.72952878666137
 20
-140.3686929987619
 30
0.0
 10
87.72952878666137
 20
-140.597102829434
 30
0.0
 10
87.61325681403418
 20
-140.6966660889578
 30
0.0
 10
87.30440400378155
 20
-140.9230088623387
 30
0.0
  0
HATCH
  5
FE
330
F9
100
AcDbEntity
  8
レイヤー 1
 62
   250
420
  2299925
440
 33554687
100
AcDbHatch
 10
0.0
 20
0.0
 30
0.0
210
0.0
220
0.0
230
1.0
  2
SOLID
 70
     1
 71
     1
 91
        1
 92
        1
 93
        1
 72
     4
 94
        3
 73
     0
 74
     0
 95
       44
 96
       40
 40
0.0
 40
0.0
 40
0.0
 40
0.0
 40
1.0
 40
1.0
 40
1.0
 40
2.0
 40
2.0
 40
2.0
 40
3.0
 40
3.0
 40
3.0
 40
4.0
 40
4.0
 40
4.0
 40
5.0
 40
5.0
 40
5.0
 40
6.0
 40
6.0
 40
6.0
 40
7.0
 40
7.0
 40
7.0
 40
8.0
 40
8.0
 40
8.0
 40
9.0
 40
9.0
 40
9.0
 40
10.0
 40
10.0
 40
10.0
 40
11.0
 40
11.0
 40
11.0
 40
12.0
 40
12.0
 40
12.0
 40
13.0
 40
13.0
 40
13.0
 40
13.0
 10
87.30440400378155
 20
-140.9230088623387
 10
87.0865017143395
 20
-141.0816555094344
 10
86.99331188146349
 20
-141.1557250623673
 10
86.94473603512147
 20
-141.2995577988765
 10
86.94473603512147
 20
-141.2995577988765
 10
87.72315536001366
 20
-141.2995577988765
 10
87.72315536001366
 20
-141.2995577988765
 10
87.72315536001366
 20
-141.2995577988765
 10
87.72315536001366
 20
-141.5047132350231
 10
87.72315536001366
 20
-141.5047132350231
 10
87.72315536001366
 20
-141.5047132350231
 10
86.6951388672151
 20
-141.5047132350231
 10
86.6951388672151
 20
-141.5047132350231
 10
86.7268337456794
 20
-141.1471123236542
 10
86.79246281467341
 20
-141.068908656139
 10
87.17745223515008
 20
-140.7705633871164
 10
87.43342282970415
 20
-140.5717813776174
 10
87.49887964392391
 20
-140.5040852513323
 10
87.49887964392391
 20
-140.3666259414708
 10
87.49887964392391
 20
-140.2481146567782
 10
87.42704940305642
 20
-140.1168565187902
 10
87.23033445084867
 20
-140.1168565187902
 10
86.97005748693804
 20
-140.1168565187902
 10
86.96161700299917
 20
-140.3475056615277
 10
86.95731063364261
 20
-140.4639498889291
 10
86.95731063364261
 20
-140.4639498889291
 10
86.7332071723271
 20
-140.4639498889291
 10
86.7332071723271
 20
-140.4639498889291
 10
86.74164765626597
 20
-140.3369981202977
 10
86.75215519749599
 20
-140.2248602622528
 10
86.83259817707657
 20
-140.1063489775602
 10
86.94249672305605
 20
-139.9456352731733
 10
87.12870413403379
 20
-139.9117010826436
 10
87.24514836143525
 20
-139.9117010826436
 10
87.5223062932236
 20
-139.9117010826436
 10
87.72952878666137
 20
-140.0958414363302
 10
87.72952878666137
 20
-140.3686929987619
 10
87.72952878666137
 20
-140.597102829434
 10
87.61325681403418
 20
-140.6966660889578
 10
87.30440400378155
 20
-140.9230088623387
 97
        0
 97
        1
330
FD
 75
     2
 76
     1
 98
        1
 10
0.0
 20
0.0
450
        0
451
        0
460
0.0
461
0.0
452
        0
462
0.0
453
        0
470

  0
SPLINE
  5
FF
330
F9
100
AcDbEntity
  8
レイヤー 1
100
AcDbSpline
210
0.0
220
0.0
230
1.0
 70
    11
 71
     3
 72
    26
 73
    22
 74
     0
 42
0.0000000001
 43
0.0000000001
 40
0.0
 40
0.0
 40
0.0
 40
0.0
 40
1.0
 40
1.0
 40
1.0
 40
2.0
 40
2.0
 40
2.0
 40
3.0
 40
3.0
 40
3.0
 40
4.0
 40
4.0
 40
4.0
 40
5.0
 40
5.0
 40
5.0
 40
6.0
 40
6.0
 40
6.0
 40
7.0
 40
7.0
 40
7.0
 40
7.0
 10
88.33948294232484
 20
-141.5047132350231
 30
0.0
 10
88.33948294232484
 20
-141.5047132350231
 30
0.0
 10
88.33948294232484
 20
-140.4003878772263
 30
0.0
 10
88.33948294232484
 20
-140.4003878772263
 30
0.0
 10
88.33948294232484
 20
-140.4003878772263
 30
0.0
 10
88.00944279483791
 20
-140.4003878772263
 30
0.0
 10
88.00944279483791
 20
-140.4003878772263
 30
0.0
 10
88.00944279483791
 20
-140.4003878772263
 30
0.0
 10
88.00944279483791
 20
-140.2522487713605
 30
0.0
 10
88.00944279483791
 20
-140.2522487713605
 30
0.0
 10
88.34154999961601
 20
-140.2376071155482
 30
0.0
 10
88.38805878866688
 20
-140.0746540990959
 30
0.0
 10
88.41768660984003
 20
-139.9604491837599
 30
0.0
 10
88.41768660984003
 20
-139.9604491837599
 30
0.0
 10
88.56375865841462
 20
-139.9604491837599
 30
0.0
 10
88.56375865841462
 20
-139.9604491837599
 30
0.0
 10
88.56375865841462
 20
-139.9604491837599
 30
0.0
 10
88.56375865841462
 20
-141.5047132350231
 30
0.0
 10
88.56375865841462
 20
-141.5047132350231
 30
0.0
 10
88.56375865841462
 20
-141.5047132350231
 30
0.0
 10
88.33948294232484
 20
-141.5047132350231
 30
0.0
 10
88.33948294232484
 20
-141.5047132350231
 30
0.0
  0
HATCH
  5
100
330
F9
100
AcDbEntity
  8
レイヤー 1
 62
   250
420
  2299925
440
 33554687
100
AcDbHatch
 10
0.0
 20
0.0
 30
0.0
210
0.0
220
0.0
230
1.0
  2
SOLID
 70
     1
 71
     1
 91
        1
 92
        1
 93
        1
 72
     4
 94
        3
 73
     0
 74
     0
 95
       26
 96
       22
 40
0.0
 40
0.0
 40
0.0
 40
0.0
 40
1.0
 40
1.0
 40
1.0
 40
2.0
 40
2.0
 40
2.0
 40
3.0
 40
3.0
 40
3.0
 40
4.0
 40
4.0
 40
4.0
 40
5.0
 40
5.0
 40
5.0
 40
6.0
 40
6.0
 40
6.0
 40
7.0
 40
7.0
 40
7.0
 40
7.0
 10
88.33948294232484
 20
-141.5047132350231
 10
88.33948294232484
 20
-141.5047132350231
 10
88.33948294232484
 20
-140.4003878772263
 10
88.33948294232484
 20
-140.4003878772263
 10
88.33948294232484
 20
-140.4003878772263
 10
88.00944279483791
 20
-140.4003878772263
 10
88.00944279483791
 20
-140.4003878772263
 10
88.00944279483791
 20
-140.4003878772263
 10
88.00944279483791
 20
-140.2522487713605
 10
88.00944279483791
 20
-140.2522487713605
 10
88.34154999961601
 20
-140.2376071155482
 10
88.38805878866688
 20
-140.0746540990959
 10
88.41768660984003
 20
-139.9604491837599
 10
88.41768660984003
 20
-139.9604491837599
 10
88.56375865841462
 20
-139.9604491837599
 10
88.56375865841462
 20
-139.9604491837599
 10
88.56375865841462
 20
-139.9604491837599
 10
88.56375865841462
 20
-141.5047132350231
 10
88.56375865841462
 20
-141.5047132350231
 10
88.56375865841462
 20
-141.5047132350231
 10
88.33948294232484
 20
-141.5047132350231
 10
88.33948294232484
 20
-141.5047132350231
 97
        0
 97
        1
330
FF
 75
     2
 76
     1
 98
        1
 10
0.0
 20
0.0
450
        0
451
        0
460
0.0
461
0.0
452
        0
462
0.0
453
        0
470

  0
ENDBLK
  5
FC
330
F9
100
AcDbEntity
  8
0
100
AcDbBlockEnd
  0
BLOCK
  5
105
330
103
100
AcDbEntity
  8
0
100
AcDbBlockBegin
  2
Block_4
 70
     0
 10
0.0
 20
0.0
 30
0.0
  3
Block_4
  1

  0
SPLINE
  5
107
330
103
100
AcDbEntity
  8
レイヤー 1
100
AcDbSpline
210
0.0
220
0.0
230
1.0
 70
     9
 71
     3
 72
    53
 73
    49
 74
     0
 42
0.0000000001
 43
0.0000000001
 40
0.0
 40
0.0
 40
0.0
 40
0.0
 40
1.0
 40
1.0
 40
1.0
 40
2.0
 40
2.0
 40
2.0
 40
3.0
 40
3.0
 40
3.0
 40
4.0
 40
4.0
 40
4.0
 40
5.0
 40
5.0
 40
5.0
 40
6.0
 40
6.0
 40
6.0
 40
7.0
 40
7.0
 40
7.0
 40
8.0
 40
8.0
 40
8.0
 40
9.0
 40
9.0
 40
9.0
 40
10.0
 40
10.0
 40
10.0
 40
11.0
 40
11.0
 40
11.0
 40
12.0
 40
12.0
 40
12.0
 40
13.0
 40
13.0
 40
13.0
 40
14.0
 40
14.0
 40
14.0
 40
15.0
 40
15.0
 40
15.0
 40
16.0
 40
16.0
 40
16.0
 40
16.0
 10
74.57632647875175
 20
-150.7911403702883
 30
0.0
 10
74.57632647875175
 20
-150.8693440378035
 30
0.0
 10
74.55944551087402
 20
-150.9709743546183
 30
0.0
 10
74.49588349917117
 20
-151.0726046714332
 30
0.0
 10
74.38581269841744
 20
-151.2458929743413
 30
0.0
 10
74.25472681520368
 20
-151.2672525663498
 30
0.0
 10
74.14689532651536
 20
-151.2862005915187
 30
0.0
 10
74.14689532651536
 20
-151.2862005915187
 30
0.0
 10
74.14689532651536
 20
-151.0639919327201
 30
0.0
 10
74.14689532651536
 20
-151.0639919327201
 30
0.0
 10
74.34567733601427
 20
-151.0092149145046
 30
0.0
 10
74.37530515718743
 20
-150.8820908910989
 30
0.0
 10
74.37530515718743
 20
-150.7890733129972
 30
0.0
 10
74.37530515718743
 20
-150.6495469458446
 30
0.0
 10
74.27591415243796
 20
-150.4972737253965
 30
0.0
 10
74.04319795240934
 20
-150.4972737253965
 30
0.0
 10
73.78722735785529
 20
-150.4972737253965
 30
0.0
 10
73.71746417427897
 20
-150.6771077097265
 30
0.0
 10
73.71746417427897
 20
-150.7976860517103
 30
0.0
 10
73.71746417427897
 20
-150.8293809301746
 30
0.0
 10
73.71746417427897
 20
-150.9709743546183
 30
0.0
 10
73.84648300020157
 20
-151.0598578181378
 30
0.0
 10
73.84648300020157
 20
-151.0598578181378
 30
0.0
 10
73.82736272025844
 20
-151.2355576878855
 30
0.0
 10
73.82736272025844
 20
-151.2355576878855
 30
0.0
 10
73.82736272025844
 20
-151.2355576878855
 30
0.0
 10
72.98124726908108
 20
-151.1149793459018
 30
0.0
 10
72.98124726908108
 20
-151.1149793459018
 30
0.0
 10
72.98124726908108
 20
-151.1149793459018
 30
0.0
 10
72.98124726908108
 20
-150.3363877662353
 30
0.0
 10
72.98124726908108
 20
-150.3363877662353
 30
0.0
 10
72.98124726908108
 20
-150.3363877662353
 30
0.0
 10
73.17589516399769
 20
-150.3363877662353
 30
0.0
 10
73.17589516399769
 20
-150.3363877662353
 30
0.0
 10
73.17589516399769
 20
-150.3363877662353
 30
0.0
 10
73.17589516399769
 20
-150.9520263294495
 30
0.0
 10
73.17589516399769
 20
-150.9520263294495
 30
0.0
 10
73.17589516399769
 20
-150.9520263294495
 30
0.0
 10
73.59895288958637
 20
-151.0174831436692
 30
0.0
 10
73.59895288958637
 20
-151.0174831436692
 30
0.0
 10
73.56501869905667
 20
-150.9561604440318
 30
0.0
 10
73.5248833366535
 20
-150.8738226619343
 30
0.0
 10
73.5248833366535
 20
-150.7553113772417
 30
0.0
 10
73.5248833366535
 20
-150.5014078399788
 30
0.0
 10
73.71109074763126
 20
-150.2643852705936
 30
0.0
 10
74.02407767246621
 20
-150.2643852705936
 30
0.0
 10
74.34154322143197
 20
-150.2643852705936
 30
0.0
 10
74.57632647875175
 20
-150.4886609866834
 30
0.0
 10
74.57632647875175
 20
-150.7911403702883
 30
0.0
  0
HATCH
  5
108
330
103
100
AcDbEntity
  8
レイヤー 1
 62
   250
420
  2299925
440
 33554687
100
AcDbHatch
 10
0.0
 20
0.0
 30
0.0
210
0.0
220
0.0
230
1.0
  2
SOLID
 70
     1
 71
     1
 91
        1
 92
        1
 93
        1
 72
     4
 94
        3
 73
     0
 74
     0
 95
       53
 96
       49
 40
0.0
 40
0.0
 40
0.0
 40
0.0
 40
1.0
 40
1.0
 40
1.0
 40
2.0
 40
2.0
 40
2.0
 40
3.0
 40
3.0
 40
3.0
 40
4.0
 40
4.0
 40
4.0
 40
5.0
 40
5.0
 40
5.0
 40
6.0
 40
6.0
 40
6.0
 40
7.0
 40
7.0
 40
7.0
 40
8.0
 40
8.0
 40
8.0
 40
9.0
 40
9.0
 40
9.0
 40
10.0
 40
10.0
 40
10.0
 40
11.0
 40
11.0
 40
11.0
 40
12.0
 40
12.0
 40
12.0
 40
13.0
 40
13.0
 40
13.0
 40
14.0
 40
14.0
 40
14.0
 40
15.0
 40
15.0
 40
15.0
 40
16.0
 40
16.0
 40
16.0
 40
16.0
 10
74.57632647875175
 20
-150.7911403702883
 10
74.57632647875175
 20
-150.8693440378035
 10
74.55944551087402
 20
-150.9709743546183
 10
74.49588349917117
 20
-151.0726046714332
 10
74.38581269841744
 20
-151.2458929743413
 10
74.25472681520368
 20
-151.2672525663498
 10
74.14689532651536
 20
-151.2862005915187
 10
74.14689532651536
 20
-151.2862005915187
 10
74.14689532651536
 20
-151.0639919327201
 10
74.14689532651536
 20
-151.0639919327201
 10
74.34567733601427
 20
-151.0092149145046
 10
74.37530515718743
 20
-150.8820908910989
 10
74.37530515718743
 20
-150.7890733129972
 10
74.37530515718743
 20
-150.6495469458446
 10
74.27591415243796
 20
-150.4972737253965
 10
74.04319795240934
 20
-150.4972737253965
 10
73.78722735785529
 20
-150.4972737253965
 10
73.71746417427897
 20
-150.6771077097265
 10
73.71746417427897
 20
-150.7976860517103
 10
73.71746417427897
 20
-150.8293809301746
 10
73.71746417427897
 20
-150.9709743546183
 10
73.84648300020157
 20
-151.0598578181378
 10
73.84648300020157
 20
-151.0598578181378
 10
73.82736272025844
 20
-151.2355576878855
 10
73.82736272025844
 20
-151.2355576878855
 10
73.82736272025844
 20
-151.2355576878855
 10
72.98124726908108
 20
-151.1149793459018
 10
72.98124726908108
 20
-151.1149793459018
 10
72.98124726908108
 20
-151.1149793459018
 10
72.98124726908108
 20
-150.3363877662353
 10
72.98124726908108
 20
-150.3363877662353
 10
72.98124726908108
 20
-150.3363877662353
 10
73.17589516399769
 20
-150.3363877662353
 10
73.17589516399769
 20
-150.3363877662353
 10
73.17589516399769
 20
-150.3363877662353
 10
73.17589516399769
 20
-150.9520263294495
 10
73.17589516399769
 20
-150.9520263294495
 10
73.17589516399769
 20
-150.9520263294495
 10
73.59895288958637
 20
-151.0174831436692
 10
73.59895288958637
 20
-151.0174831436692
 10
73.56501869905667
 20
-150.9561604440318
 10
73.5248833366535
 20
-150.8738226619343
 10
73.5248833366535
 20
-150.7553113772417
 10
73.5248833366535
 20
-150.5014078399788
 10
73.71109074763126
 20
-150.2643852705936
 10
74.02407767246621
 20
-150.2643852705936
 10
74.34154322143197
 20
-150.2643852705936
 10
74.57632647875175
 20
-150.4886609866834
 10
74.57632647875175
 20
-150.7911403702883
 97
        0
 97
        1
330
107
 75
     2
 76
     1
 98
        1
 10
0.0
 20
0.0
450
        0
451
        0
460
0.0
461
0.0
452
        0
462
0.0
453
        0
470

  0
ENDBLK
  5
106
330
103
100
AcDbEntity
  8
0
100
AcDbBlockEnd
  0
BLOCK
  5
10D
330
10B
100
AcDbEntity
  8
0
100
AcDbBlockBegin
  2
Block_5
 70
     0
 10
0.0
 20
0.0
 30
0.0
  3
Block_5
  1

  0
INSERT
  5
110
330
10B
100
AcDbEntity
  8
レイヤー 1
100
AcDbBlockReference
  2
Block_6
 10
0.0
 20
0.0
 30
0.0
  0
ENDBLK
  5
10E
330
10B
100
AcDbEntity
  8
0
100
AcDbBlockEnd
  0
BLOCK
  5
111
330
10F
100
AcDbEntity
  8
0
100
AcDbBlockBegin
  2
Block_6
 70
     0
 10
0.0
 20
0.0
 30
0.0
  3
Block_6
  1

  0
SPLINE
  5
113
330
10F
100
AcDbEntity
  8
レイヤー 1
100
AcDbSpline
210
0.0
220
0.0
230
1.0
 70
     9
 71
     3
 72
    44
 73
    40
 74
     0
 42
0.0000000001
 43
0.0000000001
 40
0.0
 40
0.0
 40
0.0
 40
0.0
 40
1.0
 40
1.0
 40
1.0
 40
2.0
 40
2.0
 40
2.0
 40
3.0
 40
3.0
 40
3.0
 40
4.0
 40
4.0
 40
4.0
 40
5.0
 40
5.0
 40
5.0
 40
6.0
 40
6.0
 40
6.0
 40
7.0
 40
7.0
 40
7.0
 40
8.0
 40
8.0
 40
8.0
 40
9.0
 40
9.0
 40
9.0
 40
10.0
 40
10.0
 40
10.0
 40
11.0
 40
11.0
 40
11.0
 40
12.0
 40
12.0
 40
12.0
 40
13.0
 40
13.0
 40
13.0
 40
13.0
 10
118.3052679825765
 20
-140.9230088623387
 30
0.0
 10
118.0875379479086
 20
-141.0816555094344
 30
0.0
 10
117.9945203698069
 20
-141.1557250623673
 30
0.0
 10
117.9456000139164
 20
-141.2995577988765
 30
0.0
 10
117.9456000139164
 20
-141.2995577988765
 30
0.0
 10
118.7241915935828
 20
-141.2995577988765
 30
0.0
 10
118.7241915935828
 20
-141.2995577988765
 30
0.0
 10
118.7241915935828
 20
-141.2995577988765
 30
0.0
 10
118.7241915935828
 20
-141.5047132350231
 30
0.0
 10
118.7241915935828
 20
-141.5047132350231
 30
0.0
 10
118.7241915935828
 20
-141.5047132350231
 30
0.0
 10
117.6961751007843
 20
-141.5047132350231
 30
0.0
 10
117.6961751007843
 20
-141.5047132350231
 30
0.0
 10
117.7278699792486
 20
-141.1471123236542
 30
0.0
 10
117.7933267934683
 20
-141.068908656139
 30
0.0
 10
118.1784884687193
 20
-140.7705633871164
 30
0.0
 10
118.4344590632733
 20
-140.5717813776174
 30
0.0
 10
118.4999158774931
 20
-140.5040852513323
 30
0.0
 10
118.4999158774931
 20
-140.3666259414708
 30
0.0
 10
118.4999158774931
 20
-140.2481146567782
 30
0.0
 10
118.4279133818513
 20
-140.1168565187902
 30
0.0
 10
118.2311984296436
 20
-140.1168565187902
 30
0.0
 10
117.9710937205072
 20
-140.1168565187902
 30
0.0
 10
117.9628254913426
 20
-140.3475056615277
 30
0.0
 10
117.9583468672118
 20
-140.4639498889291
 30
0.0
 10
117.9583468672118
 20
-140.4639498889291
 30
0.0
 10
117.734071151122
 20
-140.4639498889291
 30
0.0
 10
117.734071151122
 20
-140.4639498889291
 30
0.0
 10
117.7426838898351
 20
-140.3369981202977
 30
0.0
 10
117.7533636858394
 20
-140.2248602622528
 30
0.0
 10
117.8336344106457
 20
-140.1063489775602
 30
0.0
 10
117.9435329566252
 20
-139.9456352731733
 30
0.0
 10
118.1299126223772
 20
-139.9117010826436
 30
0.0
 10
118.2460123402301
 20
-139.9117010826436
 30
0.0
 10
118.5233425267927
 20
-139.9117010826436
 30
0.0
 10
118.7307372750048
 20
-140.0958414363302
 30
0.0
 10
118.7307372750048
 20
-140.3686929987619
 30
0.0
 10
118.7307372750048
 20
-140.597102829434
 30
0.0
 10
118.6142930476034
 20
-140.6966660889578
 30
0.0
 10
118.3052679825765
 20
-140.9230088623387
 30
0.0
  0
HATCH
  5
114
330
10F
100
AcDbEntity
  8
レイヤー 1
 62
   250
420
  2299925
440
 33554687
100
AcDbHatch
 10
0.0
 20
0.0
 30
0.0
210
0.0
220
0.0
230
1.0
  2
SOLID
 70
     1
 71
     1
 91
        1
 92
        1
 93
        1
 72
     4
 94
        3
 73
     0
 74
     0
 95
       44
 96
       40
 40
0.0
 40
0.0
 40
0.0
 40
0.0
 40
1.0
 40
1.0
 40
1.0
 40
2.0
 40
2.0
 40
2.0
 40
3.0
 40
3.0
 40
3.0
 40
4.0
 40
4.0
 40
4.0
 40
5.0
 40
5.0
 40
5.0
 40
6.0
 40
6.0
 40
6.0
 40
7.0
 40
7.0
 40
7.0
 40
8.0
 40
8.0
 40
8.0
 40
9.0
 40
9.0
 40
9.0
 40
10.0
 40
10.0
 40
10.0
 40
11.0
 40
11.0
 40
11.0
 40
12.0
 40
12.0
 40
12.0
 40
13.0
 40
13.0
 40
13.0
 40
13.0
 10
118.3052679825765
 20
-140.9230088623387
 10
118.0875379479086
 20
-141.0816555094344
 10
117.9945203698069
 20
-141.1557250623673
 10
117.9456000139164
 20
-141.2995577988765
 10
117.9456000139164
 20
-141.2995577988765
 10
118.7241915935828
 20
-141.2995577988765
 10
118.7241915935828
 20
-141.2995577988765
 10
118.7241915935828
 20
-141.2995577988765
 10
118.7241915935828
 20
-141.5047132350231
 10
118.7241915935828
 20
-141.5047132350231
 10
118.7241915935828
 20
-141.5047132350231
 10
117.6961751007843
 20
-141.5047132350231
 10
117.6961751007843
 20
-141.5047132350231
 10
117.7278699792486
 20
-141.1471123236542
 10
117.7933267934683
 20
-141.068908656139
 10
118.1784884687193
 20
-140.7705633871164
 10
118.4344590632733
 20
-140.5717813776174
 10
118.4999158774931
 20
-140.5040852513323
 10
118.4999158774931
 20
-140.3666259414708
 10
118.4999158774931
 20
-140.2481146567782
 10
118.4279133818513
 20
-140.1168565187902
 10
118.2311984296436
 20
-140.1168565187902
 10
117.9710937205072
 20
-140.1168565187902
 10
117.9628254913426
 20
-140.3475056615277
 10
117.9583468672118
 20
-140.4639498889291
 10
117.9583468672118
 20
-140.4639498889291
 10
117.734071151122
 20
-140.4639498889291
 10
117.734071151122
 20
-140.4639498889291
 10
117.7426838898351
 20
-140.3369981202977
 10
117.7533636858394
 20
-140.2248602622528
 10
117.8336344106457
 20
-140.1063489775602
 10
117.9435329566252
 20
-139.9456352731733
 10
118.1299126223772
 20
-139.9117010826436
 10
118.2460123402301
 20
-139.9117010826436
 10
118.5233425267927
 20
-139.9117010826436
 10
118.7307372750048
 20
-140.0958414363302
 10
118.7307372750048
 20
-140.3686929987619
 10
118.7307372750048
 20
-140.597102829434
 10
118.6142930476034
 20
-140.6966660889578
 10
118.3052679825765
 20
-140.9230088623387
 97
        0
 97
        1
330
113
 75
     2
 76
     1
 98
        1
 10
0.0
 20
0.0
450
        0
451
        0
460
0.0
461
0.0
452
        0
462
0.0
453
        0
470

  0
SPLINE
  5
115
330
10F
100
AcDbEntity
  8
レイヤー 1
100
AcDbSpline
210
0.0
220
0.0
230
1.0
 70
    11
 71
     3
 72
    26
 73
    22
 74
     0
 42
0.0000000001
 43
0.0000000001
 40
0.0
 40
0.0
 40
0.0
 40
0.0
 40
1.0
 40
1.0
 40
1.0
 40
2.0
 40
2.0
 40
2.0
 40
3.0
 40
3.0
 40
3.0
 40
4.0
 40
4.0
 40
4.0
 40
5.0
 40
5.0
 40
5.0
 40
6.0
 40
6.0
 40
6.0
 40
7.0
 40
7.0
 40
7.0
 40
7.0
 10
119.340519175894
 20
-141.5047132350231
 30
0.0
 10
119.340519175894
 20
-141.5047132350231
 30
0.0
 10
119.340519175894
 20
-140.4003878772263
 30
0.0
 10
119.340519175894
 20
-140.4003878772263
 30
0.0
 10
119.340519175894
 20
-140.4003878772263
 30
0.0
 10
119.0104790284071
 20
-140.4003878772263
 30
0.0
 10
119.0104790284071
 20
-140.4003878772263
 30
0.0
 10
119.0104790284071
 20
-140.4003878772263
 30
0.0
 10
119.0104790284071
 20
-140.2522487713605
 30
0.0
 10
119.0104790284071
 20
-140.2522487713605
 30
0.0
 10
119.3425862331852
 20
-140.2376071155482
 30
0.0
 10
119.389095022236
 20
-140.0746540990959
 30
0.0
 10
119.4187228434092
 20
-139.9604491837599
 30
0.0
 10
119.4187228434092
 20
-139.9604491837599
 30
0.0
 10
119.5647948919838
 20
-139.9604491837599
 30
0.0
 10
119.5647948919838
 20
-139.9604491837599
 30
0.0
 10
119.5647948919838
 20
-139.9604491837599
 30
0.0
 10
119.5647948919838
 20
-141.5047132350231
 30
0.0
 10
119.5647948919838
 20
-141.5047132350231
 30
0.0
 10
119.5647948919838
 20
-141.5047132350231
 30
0.0
 10
119.340519175894
 20
-141.5047132350231
 30
0.0
 10
119.340519175894
 20
-141.5047132350231
 30
0.0
  0
HATCH
  5
116
330
10F
100
AcDbEntity
  8
レイヤー 1
 62
   250
420
  2299925
440
 33554687
100
AcDbHatch
 10
0.0
 20
0.0
 30
0.0
210
0.0
220
0.0
230
1.0
  2
SOLID
 70
     1
 71
     1
 91
        1
 92
        1
 93
        1
 72
     4
 94
        3
 73
     0
 74
     0
 95
       26
 96
       22
 40
0.0
 40
0.0
 40
0.0
 40
0.0
 40
1.0
 40
1.0
 40
1.0
 40
2.0
 40
2.0
 40
2.0
 40
3.0
 40
3.0
 40
3.0
 40
4.0
 40
4.0
 40
4.0
 40
5.0
 40
5.0
 40
5.0
 40
6.0
 40
6.0
 40
6.0
 40
7.0
 40
7.0
 40
7.0
 40
7.0
 10
119.340519175894
 20
-141.5047132350231
 10
119.340519175894
 20
-141.5047132350231
 10
119.340519175894
 20
-140.4003878772263
 10
119.340519175894
 20
-140.4003878772263
 10
119.340519175894
 20
-140.4003878772263
 10
119.0104790284071
 20
-140.4003878772263
 10
119.0104790284071
 20
-140.4003878772263
 10
119.0104790284071
 20
-140.4003878772263
 10
119.0104790284071
 20
-140.2522487713605
 10
119.0104790284071
 20
-140.2522487713605
 10
119.3425862331852
 20
-140.2376071155482
 10
119.389095022236
 20
-140.0746540990959
 10
119.4187228434092
 20
-139.9604491837599
 10
119.4187228434092
 20
-139.9604491837599
 10
119.5647948919838
 20
-139.9604491837599
 10
119.5647948919838
 20
-139.9604491837599
 10
119.5647948919838
 20
-139.9604491837599
 10
119.5647948919838
 20
-141.5047132350231
 10
119.5647948919838
 20
-141.5047132350231
 10
119.5647948919838
 20
-141.5047132350231
 10
119.340519175894
 20
-141.5047132350231
 10
119.340519175894
 20
-141.5047132350231
 97
        0
 97
        1
330
115
 75
     2
 76
     1
 98
        1
 10
0.0
 20
0.0
450
        0
451
        0
460
0.0
461
0.0
452
        0
462
0.0
453
        0
470

  0
ENDBLK
  5
112
330
10F
100
AcDbEntity
  8
0
100
AcDbBlockEnd
  0
BLOCK
  5
11C
330
11A
100
AcDbEntity
  8
0
100
AcDbBlockBegin
  2
Block_7
 70
     0
 10
0.0
 20
0.0
 30
0.0
  3
Block_7
  1

  0
SPLINE
  5
11E
330
11A
100
AcDbEntity
  8
レイヤー 1
100
AcDbSpline
210
0.0
220
0.0
230
1.0
 70
     9
 71
     3
 72
    17
 73
    13
 74
     0
 42
0.0000000001
 43
0.0000000001
 40
0.0
 40
0.0
 40
0.0
 40
0.0
 40
1.0
 40
1.0
 40
1.0
 40
2.0
 40
2.0
 40
2.0
 40
3.0
 40
3.0
 40
3.0
 40
4.0
 40
4.0
 40
4.0
 40
4.0
 10
102.2495727283438
 20
-140.104281920269
 30
0.0
 10
102.0845526546004
 20
-140.104281920269
 30
0.0
 10
101.9998033056632
 20
-140.199366555662
 30
0.0
 10
101.9998033056632
 20
-140.3347588082323
 30
0.0
 10
101.9998033056632
 20
-140.4575764622814
 30
0.0
 10
102.0718058013049
 20
-140.576087746974
 30
0.0
 10
102.2495727283438
 20
-140.576087746974
 30
0.0
 10
102.4273396553827
 20
-140.576087746974
 30
0.0
 10
102.4993421510244
 20
-140.4575764622814
 30
0.0
 10
102.4993421510244
 20
-140.3347588082323
 30
0.0
 10
102.4993421510244
 20
-140.199366555662
 30
0.0
 10
102.4125257447962
 20
-140.104281920269
 30
0.0
 10
102.2495727283438
 20
-140.104281920269
 30
0.0
  0
SPLINE
  5
11F
330
11A
100
AcDbEntity
  8
レイヤー 1
100
AcDbSpline
210
0.0
220
0.0
230
1.0
 70
     9
 71
     3
 72
    17
 73
    13
 74
     0
 42
0.0000000001
 43
0.0000000001
 40
0.0
 40
0.0
 40
0.0
 40
0.0
 40
1.0
 40
1.0
 40
1.0
 40
2.0
 40
2.0
 40
2.0
 40
3.0
 40
3.0
 40
3.0
 40
4.0
 40
4.0
 40
4.0
 40
4.0
 10
102.2495727283438
 20
-140.7643622152429
 30
0.0
 10
102.1059122466089
 20
-140.7643622152429
 30
0.0
 10
101.9532945166123
 20
-140.8510063666969
 30
0.0
 10
101.9532945166123
 20
-141.0540947455524
 30
0.0
 10
101.9532945166123
 20
-141.2592501816991
 30
0.0
 10
102.0804185400181
 20
-141.3608804985139
 30
0.0
 10
102.2495727283438
 20
-141.3608804985139
 30
0.0
 10
102.4356078845473
 20
-141.3608804985139
 30
0.0
 10
102.5458509400753
 20
-141.238235099239
 30
0.0
 10
102.5458509400753
 20
-141.0604681722001
 30
0.0
 10
102.5458509400753
 20
-140.8382595134015
 30
0.0
 10
102.382897923623
 20
-140.7643622152429
 30
0.0
 10
102.2495727283438
 20
-140.7643622152429
 30
0.0
  0
SPLINE
  5
120
330
11A
100
AcDbEntity
  8
レイヤー 1
100
AcDbSpline
210
0.0
220
0.0
230
1.0
 70
     9
 71
     3
 72
    29
 73
    25
 74
     0
 42
0.0000000001
 43
0.0000000001
 40
0.0
 40
0.0
 40
0.0
 40
0.0
 40
1.0
 40
1.0
 40
1.0
 40
2.0
 40
2.0
 40
2.0
 40
3.0
 40
3.0
 40
3.0
 40
4.0
 40
4.0
 40
4.0
 40
5.0
 40
5.0
 40
5.0
 40
6.0
 40
6.0
 40
6.0
 40
7.0
 40
7.0
 40
7.0
 40
8.0
 40
8.0
 40
8.0
 40
8.0
 10
102.2495727283438
 20
-141.5555283934305
 30
0.0
 10
101.9829223377855
 20
-141.5555283934305
 30
0.0
 10
101.7290188005226
 20
-141.4178968287948
 30
0.0
 10
101.7290188005226
 20
-141.068908656139
 30
0.0
 10
101.7290188005226
 20
-140.8129380615849
 30
0.0
 10
101.8709567345149
 20
-140.7176811714178
 30
0.0
 10
101.976721165912
 20
-140.6563584717803
 30
0.0
 10
101.852008709346
 20
-140.597102829434
 30
0.0
 10
101.775872099122
 20
-140.482897914098
 30
0.0
 10
101.775872099122
 20
-140.3221842097111
 30
0.0
 10
101.775872099122
 20
-140.0470933352139
 30
0.0
 10
101.9746541086209
 20
-139.9117010826436
 30
0.0
 10
102.2495727283438
 20
-139.9117010826436
 30
0.0
 10
102.5331040867799
 20
-139.9117010826436
 30
0.0
 10
102.7236178671142
 20
-140.0555338191528
 30
0.0
 10
102.7236178671142
 20
-140.3221842097111
 30
0.0
 10
102.7236178671142
 20
-140.482897914098
 30
0.0
 10
102.6450696900505
 20
-140.597102829434
 30
0.0
 10
102.5203572334845
 20
-140.6563584717803
 30
0.0
 10
102.6092406970039
 20
-140.7071736301878
 30
0.0
 10
102.7680595988739
 20
-140.8024305203549
 30
0.0
 10
102.7680595988739
 20
-141.0646022867824
 30
0.0
 10
102.7680595988739
 20
-141.4390841660291
 30
0.0
 10
102.4886623550202
 20
-141.5555283934305
 30
0.0
 10
102.2495727283438
 20
-141.5555283934305
 30
0.0
  0
HATCH
  5
121
330
11A
100
AcDbEntity
  8
レイヤー 1
 62
   250
420
  2299925
440
 33554687
100
AcDbHatch
 10
0.0
 20
0.0
 30
0.0
210
0.0
220
0.0
230
1.0
  2
SOLID
 70
     1
 71
     1
 91
        3
 92
        1
 93
        1
 72
     4
 94
        3
 73
     0
 74
     0
 95
       17
 96
       13
 40
0.0
 40
0.0
 40
0.0
 40
0.0
 40
1.0
 40
1.0
 40
1.0
 40
2.0
 40
2.0
 40
2.0
 40
3.0
 40
3.0
 40
3.0
 40
4.0
 40
4.0
 40
4.0
 40
4.0
 10
102.2495727283438
 20
-140.104281920269
 10
102.0845526546004
 20
-140.104281920269
 10
101.9998033056632
 20
-140.199366555662
 10
101.9998033056632
 20
-140.3347588082323
 10
101.9998033056632
 20
-140.4575764622814
 10
102.0718058013049
 20
-140.576087746974
 10
102.2495727283438
 20
-140.576087746974
 10
102.4273396553827
 20
-140.576087746974
 10
102.4993421510244
 20
-140.4575764622814
 10
102.4993421510244
 20
-140.3347588082323
 10
102.4993421510244
 20
-140.199366555662
 10
102.4125257447962
 20
-140.104281920269
 10
102.2495727283438
 20
-140.104281920269
 97
        0
 97
        1
330
11E
 92
        1
 93
        1
 72
     4
 94
        3
 73
     0
 74
     0
 95
       17
 96
       13
 40
0.0
 40
0.0
 40
0.0
 40
0.0
 40
1.0
 40
1.0
 40
1.0
 40
2.0
 40
2.0
 40
2.0
 40
3.0
 40
3.0
 40
3.0
 40
4.0
 40
4.0
 40
4.0
 40
4.0
 10
102.2495727283438
 20
-140.7643622152429
 10
102.1059122466089
 20
-140.7643622152429
 10
101.9532945166123
 20
-140.8510063666969
 10
101.9532945166123
 20
-141.0540947455524
 10
101.9532945166123
 20
-141.2592501816991
 10
102.0804185400181
 20
-141.3608804985139
 10
102.2495727283438
 20
-141.3608804985139
 10
102.4356078845473
 20
-141.3608804985139
 10
102.5458509400753
 20
-141.238235099239
 10
102.5458509400753
 20
-141.0604681722001
 10
102.5458509400753
 20
-140.8382595134015
 10
102.382897923623
 20
-140.7643622152429
 10
102.2495727283438
 20
-140.7643622152429
 97
        0
 97
        1
330
11F
 92
        1
 93
        1
 72
     4
 94
        3
 73
     0
 74
     0
 95
       29
 96
       25
 40
0.0
 40
0.0
 40
0.0
 40
0.0
 40
1.0
 40
1.0
 40
1.0
 40
2.0
 40
2.0
 40
2.0
 40
3.0
 40
3.0
 40
3.0
 40
4.0
 40
4.0
 40
4.0
 40
5.0
 40
5.0
 40
5.0
 40
6.0
 40
6.0
 40
6.0
 40
7.0
 40
7.0
 40
7.0
 40
8.0
 40
8.0
 40
8.0
 40
8.0
 10
102.2495727283438
 20
-141.5555283934305
 10
101.9829223377855
 20
-141.5555283934305
 10
101.7290188005226
 20
-141.4178968287948
 10
101.7290188005226
 20
-141.068908656139
 10
101.7290188005226
 20
-140.8129380615849
 10
101.8709567345149
 20
-140.7176811714178
 10
101.976721165912
 20
-140.6563584717803
 10
101.852008709346
 20
-140.597102829434
 10
101.775872099122
 20
-140.482897914098
 10
101.775872099122
 20
-140.3221842097111
 10
101.775872099122
 20
-140.0470933352139
 10
101.9746541086209
 20
-139.9117010826436
 10
102.2495727283438
 20
-139.9117010826436
 10
102.5331040867799
 20
-139.9117010826436
 10
102.7236178671142
 20
-140.0555338191528
 10
102.7236178671142
 20
-140.3221842097111
 10
102.7236178671142
 20
-140.482897914098
 10
102.6450696900505
 20
-140.597102829434
 10
102.5203572334845
 20
-140.6563584717803
 10
102.6092406970039
 20
-140.7071736301878
 10
102.7680595988739
 20
-140.8024305203549
 10
102.7680595988739
 20
-141.0646022867824
 10
102.7680595988739
 20
-141.4390841660291
 10
102.4886623550202
 20
-141.5555283934305
 10
102.2495727283438
 20
-141.5555283934305
 97
        0
 97
        1
330
120
 75
     2
 76
     1
 98
        1
 10
0.0
 20
0.0
450
        0
451
        0
460
0.0
461
0.0
452
        0
462
0.0
453
        0
470

  0
ENDBLK
  5
11D
330
11A
100
AcDbEntity
  8
0
100
AcDbBlockEnd
  0
BLOCK
  5
125
330
123
100
AcDbEntity
  8
0
100
AcDbBlockBegin
  2
Block_8
 70
     0
 10
0.0
 20
0.0
 30
0.0
  3
Block_8
  1

  0
SPLINE
  5
127
330
123
100
AcDbEntity
  8
レイヤー 1
100
AcDbSpline
210
0.0
220
0.0
230
1.0
 70
    11
 71
     3
 72
    26
 73
    22
 74
     0
 42
0.0000000001
 43
0.0000000001
 40
0.0
 40
0.0
 40
0.0
 40
0.0
 40
1.0
 40
1.0
 40
1.0
 40
2.0
 40
2.0
 40
2.0
 40
3.0
 40
3.0
 40
3.0
 40
4.0
 40
4.0
 40
4.0
 40
5.0
 40
5.0
 40
5.0
 40
6.0
 40
6.0
 40
6.0
 40
7.0
 40
7.0
 40
7.0
 40
7.0
 10
109.9598686791072
 20
-149.6670057134513
 30
0.0
 10
109.9598686791072
 20
-149.6670057134513
 30
0.0
 10
109.9598686791072
 20
-148.5625081008802
 30
0.0
 10
109.9598686791072
 20
-148.5625081008802
 30
0.0
 10
109.9598686791072
 20
-148.5625081008802
 30
0.0
 10
109.6298285316203
 20
-148.5625081008802
 30
0.0
 10
109.6298285316203
 20
-148.5625081008802
 30
0.0
 10
109.6298285316203
 20
-148.5625081008802
 30
0.0
 10
109.6298285316203
 20
-148.4143689950144
 30
0.0
 10
109.6298285316203
 20
-148.4143689950144
 30
0.0
 10
109.9619357363984
 20
-148.3997273392021
 30
0.0
 10
110.0084445254493
 20
-148.2367743227498
 30
0.0
 10
110.0380723466224
 20
-148.1225694074138
 30
0.0
 10
110.0380723466224
 20
-148.1225694074138
 30
0.0
 10
110.184144395197
 20
-148.1225694074138
 30
0.0
 10
110.184144395197
 20
-148.1225694074138
 30
0.0
 10
110.184144395197
 20
-148.1225694074138
 30
0.0
 10
110.184144395197
 20
-149.6670057134513
 30
0.0
 10
110.184144395197
 20
-149.6670057134513
 30
0.0
 10
110.184144395197
 20
-149.6670057134513
 30
0.0
 10
109.9598686791072
 20
-149.6670057134513
 30
0.0
 10
109.9598686791072
 20
-149.6670057134513
 30
0.0
  0
HATCH
  5
128
330
123
100
AcDbEntity
  8
レイヤー 1
 62
   250
420
  2299925
440
 33554687
100
AcDbHatch
 10
0.0
 20
0.0
 30
0.0
210
0.0
220
0.0
230
1.0
  2
SOLID
 70
     1
 71
     1
 91
        1
 92
        1
 93
        1
 72
     4
 94
        3
 73
     0
 74
     0
 95
       26
 96
       22
 40
0.0
 40
0.0
 40
0.0
 40
0.0
 40
1.0
 40
1.0
 40
1.0
 40
2.0
 40
2.0
 40
2.0
 40
3.0
 40
3.0
 40
3.0
 40
4.0
 40
4.0
 40
4.0
 40
5.0
 40
5.0
 40
5.0
 40
6.0
 40
6.0
 40
6.0
 40
7.0
 40
7.0
 40
7.0
 40
7.0
 10
109.9598686791072
 20
-149.6670057134513
 10
109.9598686791072
 20
-149.6670057134513
 10
109.9598686791072
 20
-148.5625081008802
 10
109.9598686791072
 20
-148.5625081008802
 10
109.9598686791072
 20
-148.5625081008802
 10
109.6298285316203
 20
-148.5625081008802
 10
109.6298285316203
 20
-148.5625081008802
 10
109.6298285316203
 20
-148.5625081008802
 10
109.6298285316203
 20
-148.4143689950144
 10
109.6298285316203
 20
-148.4143689950144
 10
109.9619357363984
 20
-148.3997273392021
 10
110.0084445254493
 20
-148.2367743227498
 10
110.0380723466224
 20
-148.1225694074138
 10
110.0380723466224
 20
-148.1225694074138
 10
110.184144395197
 20
-148.1225694074138
 10
110.184144395197
 20
-148.1225694074138
 10
110.184144395197
 20
-148.1225694074138
 10
110.184144395197
 20
-149.6670057134513
 10
110.184144395197
 20
-149.6670057134513
 10
110.184144395197
 20
-149.6670057134513
 10
109.9598686791072
 20
-149.6670057134513
 10
109.9598686791072
 20
-149.6670057134513
 97
        0
 97
        1
330
127
 75
     2
 76
     1
 98
        1
 10
0.0
 20
0.0
450
        0
451
        0
460
0.0
461
0.0
452
        0
462
0.0
453
        0
470

  0
ENDBLK
  5
126
330
123
100
AcDbEntity
  8
0
100
AcDbBlockEnd
  0
BLOCK
  5
130
330
12E
100
AcDbEntity
  8
0
100
AcDbBlockBegin
  2
Block_9
 70
     0
 10
0.0
 20
0.0
 30
0.0
  3
Block_9
  1

  0
INSERT
  5
133
330
12E
100
AcDbEntity
  8
レイヤー 1
100
AcDbBlockReference
  2
Block_10
 10
0.0
 20
0.0
 30
0.0
  0
ENDBLK
  5
131
330
12E
100
AcDbEntity
  8
0
100
AcDbBlockEnd
  0
BLOCK
  5
134
330
132
100
AcDbEntity
  8
0
100
AcDbBlockBegin
  2
Block_10
 70
     0
 10
0.0
 20
0.0
 30
0.0
  3
Block_10
  1

  0
SPLINE
  5
136
330
132
100
AcDbEntity
  8
レイヤー 1
100
AcDbSpline
210
0.0
220
0.0
230
1.0
 70
    11
 71
     3
 72
    26
 73
    22
 74
     0
 42
0.0000000001
 43
0.0000000001
 40
0.0
 40
0.0
 40
0.0
 40
0.0
 40
1.0
 40
1.0
 40
1.0
 40
2.0
 40
2.0
 40
2.0
 40
3.0
 40
3.0
 40
3.0
 40
4.0
 40
4.0
 40
4.0
 40
5.0
 40
5.0
 40
5.0
 40
6.0
 40
6.0
 40
6.0
 40
7.0
 40
7.0
 40
7.0
 40
7.0
 10
101.837539308308
 20
-156.3208631336628
 30
0.0
 10
101.837539308308
 20
-156.3208631336628
 30
0.0
 10
101.837539308308
 20
-155.2167100306403
 30
0.0
 10
101.837539308308
 20
-155.2167100306403
 30
0.0
 10
101.837539308308
 20
-155.2167100306403
 30
0.0
 10
101.507499160821
 20
-155.2167100306403
 30
0.0
 10
101.507499160821
 20
-155.2167100306403
 30
0.0
 10
101.507499160821
 20
-155.2167100306403
 30
0.0
 10
101.507499160821
 20
-155.0685709247745
 30
0.0
 10
101.507499160821
 20
-155.0685709247745
 30
0.0
 10
101.8396063655991
 20
-155.0537570141879
 30
0.0
 10
101.88611515465
 20
-154.8908039977356
 30
0.0
 10
101.9157429758231
 20
-154.7764268276253
 30
0.0
 10
101.9157429758231
 20
-154.7764268276253
 30
0.0
 10
102.0618150243977
 20
-154.7764268276253
 30
0.0
 10
102.0618150243977
 20
-154.7764268276253
 30
0.0
 10
102.0618150243977
 20
-154.7764268276253
 30
0.0
 10
102.0618150243977
 20
-156.3208631336628
 30
0.0
 10
102.0618150243977
 20
-156.3208631336628
 30
0.0
 10
102.0618150243977
 20
-156.3208631336628
 30
0.0
 10
101.837539308308
 20
-156.3208631336628
 30
0.0
 10
101.837539308308
 20
-156.3208631336628
 30
0.0
  0
HATCH
  5
137
330
132
100
AcDbEntity
  8
レイヤー 1
 62
   250
420
  2299925
440
 33554687
100
AcDbHatch
 10
0.0
 20
0.0
 30
0.0
210
0.0
220
0.0
230
1.0
  2
SOLID
 70
     1
 71
     1
 91
        1
 92
        1
 93
        1
 72
     4
 94
        3
 73
     0
 74
     0
 95
       26
 96
       22
 40
0.0
 40
0.0
 40
0.0
 40
0.0
 40
1.0
 40
1.0
 40
1.0
 40
2.0
 40
2.0
 40
2.0
 40
3.0
 40
3.0
 40
3.0
 40
4.0
 40
4.0
 40
4.0
 40
5.0
 40
5.0
 40
5.0
 40
6.0
 40
6.0
 40
6.0
 40
7.0
 40
7.0
 40
7.0
 40
7.0
 10
101.837539308308
 20
-156.3208631336628
 10
101.837539308308
 20
-156.3208631336628
 10
101.837539308308
 20
-155.2167100306403
 10
101.837539308308
 20
-155.2167100306403
 10
101.837539308308
 20
-155.2167100306403
 10
101.507499160821
 20
-155.2167100306403
 10
101.507499160821
 20
-155.2167100306403
 10
101.507499160821
 20
-155.2167100306403
 10
101.507499160821
 20
-155.0685709247745
 10
101.507499160821
 20
-155.0685709247745
 10
101.8396063655991
 20
-155.0537570141879
 10
101.88611515465
 20
-154.8908039977356
 10
101.9157429758231
 20
-154.7764268276253
 10
101.9157429758231
 20
-154.7764268276253
 10
102.0618150243977
 20
-154.7764268276253
 10
102.0618150243977
 20
-154.7764268276253
 10
102.0618150243977
 20
-154.7764268276253
 10
102.0618150243977
 20
-156.3208631336628
 10
102.0618150243977
 20
-156.3208631336628
 10
102.0618150243977
 20
-156.3208631336628
 10
101.837539308308
 20
-156.3208631336628
 10
101.837539308308
 20
-156.3208631336628
 97
        0
 97
        1
330
136
 75
     2
 76
     1
 98
        1
 10
0.0
 20
0.0
450
        0
451
        0
460
0.0
461
0.0
452
        0
462
0.0
453
        0
470

  0
SPLINE
  5
138
330
132
100
AcDbEntity
  8
レイヤー 1
100
AcDbSpline
210
0.0
220
0.0
230
1.0
 70
     9
 71
     3
 72
    17
 73
    13
 74
     0
 42
0.0000000001
 43
0.0000000001
 40
0.0
 40
0.0
 40
0.0
 40
0.0
 40
1.0
 40
1.0
 40
1.0
 40
2.0
 40
2.0
 40
2.0
 40
3.0
 40
3.0
 40
3.0
 40
4.0
 40
4.0
 40
4.0
 40
4.0
 10
103.0629597724113
 20
-154.9204318189087
 30
0.0
 10
102.813362604505
 20
-154.9204318189087
 30
0.0
 10
102.7668538154541
 20
-155.2039631773448
 30
0.0
 10
102.7668538154541
 20
-155.5488172354183
 30
0.0
 10
102.7668538154541
 20
-155.868177586901
 30
0.0
 10
102.802855063275
 20
-156.1768581423794
 30
0.0
 10
103.0629597724113
 20
-156.1768581423794
 30
0.0
 10
103.3104898830265
 20
-156.1768581423794
 30
0.0
 10
103.3592379841428
 20
-155.895738350783
 30
0.0
 10
103.3592379841428
 20
-155.5488172354183
 30
0.0
 10
103.3592379841428
 20
-155.2291123743871
 30
0.0
 10
103.3211696790308
 20
-154.9204318189087
 30
0.0
 10
103.0629597724113
 20
-154.9204318189087
 30
0.0
  0
SPLINE
  5
139
330
132
100
AcDbEntity
  8
レイヤー 1
100
AcDbSpline
210
0.0
220
0.0
230
1.0
 70
     9
 71
     3
 72
    29
 73
    25
 74
     0
 42
0.0000000001
 43
0.0000000001
 40
0.0
 40
0.0
 40
0.0
 40
0.0
 40
1.0
 40
1.0
 40
1.0
 40
2.0
 40
2.0
 40
2.0
 40
3.0
 40
3.0
 40
3.0
 40
4.0
 40
4.0
 40
4.0
 40
5.0
 40
5.0
 40
5.0
 40
6.0
 40
6.0
 40
6.0
 40
7.0
 40
7.0
 40
7.0
 40
8.0
 40
8.0
 40
8.0
 40
8.0
 10
103.4606960461834
 20
-156.1430962066239
 30
0.0
 10
103.3528645574951
 20
-156.3525580121271
 30
0.0
 10
103.1794039998128
 20
-156.371506037296
 30
0.0
 10
103.0629597724113
 20
-156.371506037296
 30
0.0
 10
102.9022460680244
 20
-156.371506037296
 30
0.0
 10
102.7604803888064
 20
-156.3249972482451
 30
0.0
 10
102.6652234986392
 20
-156.1430962066239
 30
0.0
 10
102.5616983793075
 20
-155.9484483117073
 30
0.0
 10
102.5425780993643
 20
-155.7114257423221
 30
0.0
 10
102.5425780993643
 20
-155.5488172354183
 30
0.0
 10
102.5425780993643
 20
-155.4048122441349
 30
0.0
 10
102.5594590672421
 20
-155.1529757641631
 30
0.0
 10
102.6652234986392
 20
-154.9541937546642
 30
0.0
 10
102.7732272421018
 20
-154.751277630583
 30
0.0
 10
102.9339409464887
 20
-154.7278509812833
 30
0.0
 10
103.0629597724113
 20
-154.7278509812833
 30
0.0
 10
103.2216064195071
 20
-154.7278509812833
 30
0.0
 10
103.3656114107905
 20
-154.772292713043
 30
0.0
 10
103.4606960461834
 20
-154.9541937546642
 30
0.0
 10
103.5600870509329
 20
-155.1467745922897
 30
0.0
 10
103.5833414454583
 20
-155.3751844229618
 30
0.0
 10
103.5833414454583
 20
-155.5488172354183
 30
0.0
 10
103.5833414454583
 20
-155.7200384810353
 30
0.0
 10
103.5623263629983
 20
-155.9505153689985
 30
0.0
 10
103.4606960461834
 20
-156.1430962066239
 30
0.0
  0
HATCH
  5
13A
330
132
100
AcDbEntity
  8
レイヤー 1
 62
   250
420
  2299925
440
 33554687
100
AcDbHatch
 10
0.0
 20
0.0
 30
0.0
210
0.0
220
0.0
230
1.0
  2
SOLID
 70
     1
 71
     1
 91
        2
 92
        1
 93
        1
 72
     4
 94
        3
 73
     0
 74
     0
 95
       17
 96
       13
 40
0.0
 40
0.0
 40
0.0
 40
0.0
 40
1.0
 40
1.0
 40
1.0
 40
2.0
 40
2.0
 40
2.0
 40
3.0
 40
3.0
 40
3.0
 40
4.0
 40
4.0
 40
4.0
 40
4.0
 10
103.0629597724113
 20
-154.9204318189087
 10
102.813362604505
 20
-154.9204318189087
 10
102.7668538154541
 20
-155.2039631773448
 10
102.7668538154541
 20
-155.5488172354183
 10
102.7668538154541
 20
-155.868177586901
 10
102.802855063275
 20
-156.1768581423794
 10
103.0629597724113
 20
-156.1768581423794
 10
103.3104898830265
 20
-156.1768581423794
 10
103.3592379841428
 20
-155.895738350783
 10
103.3592379841428
 20
-155.5488172354183
 10
103.3592379841428
 20
-155.2291123743871
 10
103.3211696790308
 20
-154.9204318189087
 10
103.0629597724113
 20
-154.9204318189087
 97
        0
 97
        1
330
138
 92
        1
 93
        1
 72
     4
 94
        3
 73
     0
 74
     0
 95
       29
 96
       25
 40
0.0
 40
0.0
 40
0.0
 40
0.0
 40
1.0
 40
1.0
 40
1.0
 40
2.0
 40
2.0
 40
2.0
 40
3.0
 40
3.0
 40
3.0
 40
4.0
 40
4.0
 40
4.0
 40
5.0
 40
5.0
 40
5.0
 40
6.0
 40
6.0
 40
6.0
 40
7.0
 40
7.0
 40
7.0
 40
8.0
 40
8.0
 40
8.0
 40
8.0
 10
103.4606960461834
 20
-156.1430962066239
 10
103.3528645574951
 20
-156.3525580121271
 10
103.1794039998128
 20
-156.371506037296
 10
103.0629597724113
 20
-156.371506037296
 10
102.9022460680244
 20
-156.371506037296
 10
102.7604803888064
 20
-156.3249972482451
 10
102.6652234986392
 20
-156.1430962066239
 10
102.5616983793075
 20
-155.9484483117073
 10
102.5425780993643
 20
-155.7114257423221
 10
102.5425780993643
 20
-155.5488172354183
 10
102.5425780993643
 20
-155.4048122441349
 10
102.5594590672421
 20
-155.1529757641631
 10
102.6652234986392
 20
-154.9541937546642
 10
102.7732272421018
 20
-154.751277630583
 10
102.9339409464887
 20
-154.7278509812833
 10
103.0629597724113
 20
-154.7278509812833
 10
103.2216064195071
 20
-154.7278509812833
 10
103.3656114107905
 20
-154.772292713043
 10
103.4606960461834
 20
-154.9541937546642
 10
103.5600870509329
 20
-155.1467745922897
 10
103.5833414454583
 20
-155.3751844229618
 10
103.5833414454583
 20
-155.5488172354183
 10
103.5833414454583
 20
-155.7200384810353
 10
103.5623263629983
 20
-155.9505153689985
 10
103.4606960461834
 20
-156.1430962066239
 97
        0
 97
        1
330
139
 75
     2
 76
     1
 98
        1
 10
0.0
 20
0.0
450
        0
451
        0
460
0.0
461
0.0
452
        0
462
0.0
453
        0
470

  0
ENDBLK
  5
135
330
132
100
AcDbEntity
  8
0
100
AcDbBlockEnd
  0
BLOCK
  5
13D
330
13B
100
AcDbEntity
  8
0
100
AcDbBlockBegin
  2
Block_11
 70
     0
 10
0.0
 20
0.0
 30
0.0
  3
Block_11
  1

  0
INSERT
  5
140
330
13B
100
AcDbEntity
  8
レイヤー 1
100
AcDbBlockReference
  2
Block_12
 10
0.0
 20
0.0
 30
0.0
  0
INSERT
  5
147
330
13B
100
AcDbEntity
  8
レイヤー 1
100
AcDbBlockReference
  2
Block_13
 10
0.0
 20
0.0
 30
0.0
  0
ENDBLK
  5
13E
330
13B
100
AcDbEntity
  8
0
100
AcDbBlockEnd
  0
BLOCK
  5
141
330
13F
100
AcDbEntity
  8
0
100
AcDbBlockBegin
  2
Block_12
 70
     0
 10
0.0
 20
0.0
 30
0.0
  3
Block_12
  1

  0
LINE
  5
143
330
13F
100
AcDbEntity
  8
レイヤー 1
 62
    18
420
        0
370
     9
100
AcDbLine
 10
121.4069986102633
 20
-148.5541154339028
 30
0.0
 11
122.2183169228982
 21
-149.1387387670901
 31
0.0
  0
LINE
  5
144
330
13F
100
AcDbEntity
  8
レイヤー 1
 62
    18
420
        0
370
     9
100
AcDbLine
 10
121.4069986102633
 20
-148.5541154339028
 30
0.0
 11
123.9846434966791
 21
-151.7111943220024
 31
0.0
  0
LINE
  5
145
330
13F
100
AcDbEntity
  8
レイヤー 1
 62
    18
420
        0
370
     9
100
AcDbLine
 10
121.4069986102633
 20
-148.5541154339028
 30
0.0
 11
121.8173144331286
 21
-149.4662223781192
 31
0.0
  0
ENDBLK
  5
142
330
13F
100
AcDbEntity
  8
0
100
AcDbBlockEnd
  0
BLOCK
  5
148
330
146
100
AcDbEntity
  8
0
100
AcDbBlockBegin
  2
Block_13
 70
     0
 10
0.0
 20
0.0
 30
0.0
  3
Block_13
  1

  0
INSERT
  5
14B
330
146
100
AcDbEntity
  8
レイヤー 1
100
AcDbBlockReference
  2
Block_14
 10
0.0
 20
0.0
 30
0.0
  0
ENDBLK
  5
149
330
146
100
AcDbEntity
  8
0
100
AcDbBlockEnd
  0
BLOCK
  5
14C
330
14A
100
AcDbEntity
  8
0
100
AcDbBlockBegin
  2
Block_14
 70
     0
 10
0.0
 20
0.0
 30
0.0
  3
Block_14
  1

  0
SPLINE
  5
14E
330
14A
100
AcDbEntity
  8
レイヤー 1
100
AcDbSpline
210
0.0
220
0.0
230
1.0
 70
     9
 71
     3
 72
    17
 73
    13
 74
     0
 42
0.0000000001
 43
0.0000000001
 40
0.0
 40
0.0
 40
0.0
 40
0.0
 40
1.0
 40
1.0
 40
1.0
 40
2.0
 40
2.0
 40
2.0
 40
3.0
 40
3.0
 40
3.0
 40
4.0
 40
4.0
 40
4.0
 40
4.0
 10
125.6509005762261
 20
-152.1581542588354
 30
0.0
 10
125.6340196083484
 20
-152.1877820800086
 30
0.0
 10
125.5833767047153
 20
-152.2807996581103
 30
0.0
 10
125.572696908711
 20
-152.2997476832792
 30
0.0
 10
125.7632106890453
 20
-152.3590033256255
 30
0.0
 10
125.7842257715053
 20
-152.3655490070475
 30
0.0
 10
125.856228267147
 20
-152.392765261381
 30
0.0
 10
125.9110052853625
 20
-152.3062933647012
 30
0.0
 10
125.9344319346622
 20
-152.2322238117683
 30
0.0
 10
125.9492458452488
 20
-152.1581542588354
 30
0.0
 10
125.9492458452488
 20
-152.1581542588354
 30
0.0
 10
125.6509005762261
 20
-152.1581542588354
 30
0.0
 10
125.6509005762261
 20
-152.1581542588354
 30
0.0
  0
SPLINE
  5
14F
330
14A
100
AcDbEntity
  8
レイヤー 1
100
AcDbSpline
210
0.0
220
0.0
230
1.0
 70
    11
 71
     3
 72
    20
 73
    16
 74
     0
 42
0.0000000001
 43
0.0000000001
 40
0.0
 40
0.0
 40
0.0
 40
0.0
 40
1.0
 40
1.0
 40
1.0
 40
2.0
 40
2.0
 40
2.0
 40
3.0
 40
3.0
 40
3.0
 40
4.0
 40
4.0
 40
4.0
 40
5.0
 40
5.0
 40
5.0
 40
5.0
 10
125.5875108192975
 20
-151.3075601835272
 30
0.0
 10
125.5875108192975
 20
-151.3075601835272
 30
0.0
 10
125.5558159408332
 20
-151.3075601835272
 30
0.0
 10
125.5558159408332
 20
-151.3075601835272
 30
0.0
 10
125.6023247298841
 20
-151.407123443051
 30
0.0
 10
125.6340196083484
 20
-151.4873941678573
 30
0.0
 10
125.6677815441039
 20
-151.614518191263
 30
0.0
 10
125.6677815441039
 20
-151.614518191263
 30
0.0
 10
125.8751762923159
 20
-151.614518191263
 30
0.0
 10
125.8751762923159
 20
-151.614518191263
 30
0.0
 10
125.9068711707802
 20
-151.5215006131613
 30
0.0
 10
125.9302978200799
 20
-151.4367512642241
 30
0.0
 10
125.9533799598311
 20
-151.3075601835272
 30
0.0
 10
125.9533799598311
 20
-151.3075601835272
 30
0.0
 10
125.5875108192975
 20
-151.3075601835272
 30
0.0
 10
125.5875108192975
 20
-151.3075601835272
 30
0.0
  0
SPLINE
  5
150
330
14A
100
AcDbEntity
  8
レイヤー 1
100
AcDbSpline
210
0.0
220
0.0
230
1.0
 70
     9
 71
     3
 72
   242
 73
   238
 74
     0
 42
0.0000000001
 43
0.0000000001
 40
0.0
 40
0.0
 40
0.0
 40
0.0
 40
1.0
 40
1.0
 40
1.0
 40
2.0
 40
2.0
 40
2.0
 40
3.0
 40
3.0
 40
3.0
 40
4.0
 40
4.0
 40
4.0
 40
5.0
 40
5.0
 40
5.0
 40
6.0
 40
6.0
 40
6.0
 40
7.0
 40
7.0
 40
7.0
 40
8.0
 40
8.0
 40
8.0
 40
9.0
 40
9.0
 40
9.0
 40
10.0
 40
10.0
 40
10.0
 40
11.0
 40
11.0
 40
11.0
 40
12.0
 40
12.0
 40
12.0
 40
13.0
 40
13.0
 40
13.0
 40
14.0
 40
14.0
 40
14.0
 40
15.0
 40
15.0
 40
15.0
 40
16.0
 40
16.0
 40
16.0
 40
17.0
 40
17.0
 40
17.0
 40
18.0
 40
18.0
 40
18.0
 40
19.0
 40
19.0
 40
19.0
 40
20.0
 40
20.0
 40
20.0
 40
21.0
 40
21.0
 40
21.0
 40
22.0
 40
22.0
 40
22.0
 40
23.0
 40
23.0
 40
23.0
 40
24.0
 40
24.0
 40
24.0
 40
25.0
 40
25.0
 40
25.0
 40
26.0
 40
26.0
 40
26.0
 40
27.0
 40
27.0
 40
27.0
 40
28.0
 40
28.0
 40
28.0
 40
29.0
 40
29.0
 40
29.0
 40
30.0
 40
30.0
 40
30.0
 40
31.0
 40
31.0
 40
31.0
 40
32.0
 40
32.0
 40
32.0
 40
33.0
 40
33.0
 40
33.0
 40
34.0
 40
34.0
 40
34.0
 40
35.0
 40
35.0
 40
35.0
 40
36.0
 40
36.0
 40
36.0
 40
37.0
 40
37.0
 40
37.0
 40
38.0
 40
38.0
 40
38.0
 40
39.0
 40
39.0
 40
39.0
 40
40.0
 40
40.0
 40
40.0
 40
41.0
 40
41.0
 40
41.0
 40
42.0
 40
42.0
 40
42.0
 40
43.0
 40
43.0
 40
43.0
 40
44.0
 40
44.0
 40
44.0
 40
45.0
 40
45.0
 40
45.0
 40
46.0
 40
46.0
 40
46.0
 40
47.0
 40
47.0
 40
47.0
 40
48.0
 40
48.0
 40
48.0
 40
49.0
 40
49.0
 40
49.0
 40
50.0
 40
50.0
 40
50.0
 40
51.0
 40
51.0
 40
51.0
 40
52.0
 40
52.0
 40
52.0
 40
53.0
 40
53.0
 40
53.0
 40
54.0
 40
54.0
 40
54.0
 40
55.0
 40
55.0
 40
55.0
 40
56.0
 40
56.0
 40
56.0
 40
57.0
 40
57.0
 40
57.0
 40
58.0
 40
58.0
 40
58.0
 40
59.0
 40
59.0
 40
59.0
 40
60.0
 40
60.0
 40
60.0
 40
61.0
 40
61.0
 40
61.0
 40
62.0
 40
62.0
 40
62.0
 40
63.0
 40
63.0
 40
63.0
 40
64.0
 40
64.0
 40
64.0
 40
65.0
 40
65.0
 40
65.0
 40
66.0
 40
66.0
 40
66.0
 40
67.0
 40
67.0
 40
67.0
 40
68.0
 40
68.0
 40
68.0
 40
69.0
 40
69.0
 40
69.0
 40
70.0
 40
70.0
 40
70.0
 40
71.0
 40
71.0
 40
71.0
 40
72.0
 40
72.0
 40
72.0
 40
73.0
 40
73.0
 40
73.0
 40
74.0
 40
74.0
 40
74.0
 40
75.0
 40
75.0
 40
75.0
 40
76.0
 40
76.0
 40
76.0
 40
77.0
 40
77.0
 40
77.0
 40
78.0
 40
78.0
 40
78.0
 40
79.0
 40
79.0
 40
79.0
 40
79.0
 10
126.2158962358071
 20
-151.7729925835845
 30
0.0
 10
126.2158962358071
 20
-151.7729925835845
 30
0.0
 10
125.9619926985442
 20
-151.7729925835845
 30
0.0
 10
125.9619926985442
 20
-151.7729925835845
 30
0.0
 10
125.9619926985442
 20
-151.7729925835845
 30
0.0
 10
125.6846625119816
 20
-151.7729925835845
 30
0.0
 10
125.6846625119816
 20
-151.7729925835845
 30
0.0
 10
125.6846625119816
 20
-151.7729925835845
 30
0.0
 10
125.8117865353873
 20
-151.8153672580531
 30
0.0
 10
125.8117865353873
 20
-151.8153672580531
 30
0.0
 10
125.8224663313916
 20
-151.8195013726354
 30
0.0
 10
125.8348686751385
 20
-151.8260470540574
 30
0.0
 10
125.8348686751385
 20
-151.8387939073528
 30
0.0
 10
125.8348686751385
 20
-151.8598089898128
 30
0.0
 10
125.8031737966742
 20
-151.8660101616863
 30
0.0
 10
125.7821587142142
 20
-151.8704887858171
 30
0.0
 10
125.7714789182099
 20
-151.8935709255682
 30
0.0
 10
125.7418510970367
 20
-151.9593722493365
 30
0.0
 10
125.7229030718679
 20
-152.0038139810963
 30
0.0
 10
125.7229030718679
 20
-152.0038139810963
 30
0.0
 10
125.9936875770085
 20
-152.0038139810963
 30
0.0
 10
125.9936875770085
 20
-152.0038139810963
 30
0.0
 10
126.0846380978191
 20
-152.0038139810963
 30
0.0
 10
126.2813530500269
 20
-151.9993353569654
 30
0.0
 10
126.4229464744706
 20
-151.9910671278008
 30
0.0
 10
126.4229464744706
 20
-151.9910671278008
 30
0.0
 10
126.4229464744706
 20
-152.1688340548397
 30
0.0
 10
126.4229464744706
 20
-152.1688340548397
 30
0.0
 10
126.3406086923732
 20
-152.1643554307089
 30
0.0
 10
126.3195936099132
 20
-152.1643554307089
 30
0.0
 10
126.1397596255831
 20
-152.1602213161266
 30
0.0
 10
126.1080647471188
 20
-152.3145615938658
 30
0.0
 10
126.0636230153591
 20
-152.3951768282206
 30
0.0
 10
126.0191812835994
 20
-152.4647677570227
 30
0.0
 10
126.1397596255831
 20
-152.524023399369
 30
0.0
 10
126.2455240569803
 20
-152.5918917804284
 30
0.0
 10
126.3492214310863
 20
-152.6742295625258
 30
0.0
 10
126.3492214310863
 20
-152.6742295625258
 30
0.0
 10
126.2307101463937
 20
-152.8413166935605
 30
0.0
 10
126.2307101463937
 20
-152.8413166935605
 30
0.0
 10
126.207283497094
 20
-152.8223686683916
 30
0.0
 10
126.1945366437986
 20
-152.8137559296785
 30
0.0
 10
126.082571040528
 20
-152.7293510902899
 30
0.0
 10
126.0339951941859
 20
-152.6911105304036
 30
0.0
 10
125.9747395518396
 20
-152.655281537357
 30
0.0
 10
125.8941243174848
 20
-152.6108398055973
 30
0.0
 10
125.6825954546904
 20
-152.7968749618008
 30
0.0
 10
125.4776122733181
 20
-152.8203016111005
 30
0.0
 10
125.18753523346
 20
-152.8499294322736
 30
0.0
 10
125.18753523346
 20
-152.8499294322736
 30
0.0
 10
125.083837859354
 20
-152.6700954479436
 30
0.0
 10
125.083837859354
 20
-152.6700954479436
 30
0.0
 10
125.401475663094
 20
-152.6659613333612
 30
0.0
 10
125.5768310232933
 20
-152.6404676267704
 30
0.0
 10
125.7291042437413
 20
-152.5305690807909
 30
0.0
 10
125.6105929590487
 20
-152.4795816676092
 30
0.0
 10
125.5220540050778
 20
-152.4520209037273
 30
0.0
 10
125.4858805024827
 20
-152.4396185599804
 30
0.0
 10
125.4669324773138
 20
-152.4668348143138
 30
0.0
 10
125.4521185667272
 20
-152.4861273490312
 30
0.0
 10
125.4245578028452
 20
-152.5198892847867
 30
0.0
 10
125.4245578028452
 20
-152.5198892847867
 30
0.0
 10
125.2278428506375
 20
-152.4372069931407
 30
0.0
 10
125.2278428506375
 20
-152.4372069931407
 30
0.0
 10
125.3105251422835
 20
-152.3569362683343
 30
0.0
 10
125.3718478419209
 20
-152.2618516329415
 30
0.0
 10
125.4286919174275
 20
-152.1602213161266
 30
0.0
 10
125.2385226466417
 20
-152.1643554307089
 30
0.0
 10
125.2171630546332
 20
-152.1643554307089
 30
0.0
 10
125.1348252725357
 20
-152.1688340548397
 30
0.0
 10
125.1348252725357
 20
-152.1688340548397
 30
0.0
 10
125.1348252725357
 20
-151.9910671278008
 30
0.0
 10
125.1348252725357
 20
-151.9910671278008
 30
0.0
 10
125.2743516396883
 20
-151.9972682996742
 30
0.0
 10
125.4838134451915
 20
-152.0014024142566
 30
0.0
 10
125.5093071517824
 20
-152.0014024142566
 30
0.0
 10
125.5261881196601
 20
-151.9676404785011
 30
0.0
 10
125.5813096474241
 20
-151.8470621365174
 30
0.0
 10
125.600257672593
 20
-151.7729925835845
 30
0.0
 10
125.5813096474241
 20
-151.7729925835845
 30
0.0
 10
125.4035427203852
 20
-151.7795382650065
 30
0.0
 10
125.2088948254686
 20
-151.7922851183019
 30
0.0
 10
125.2088948254686
 20
-151.7922851183019
 30
0.0
 10
125.2088948254686
 20
-151.9252658040326
 30
0.0
 10
125.2088948254686
 20
-151.9252658040326
 30
0.0
 10
125.1603189791266
 20
-151.9507595106234
 30
0.0
 10
125.1010633367803
 20
-151.9824543890877
 30
0.0
 10
124.9677381415011
 20
-152.048255712856
 30
0.0
 10
124.9677381415011
 20
-152.048255712856
 30
0.0
 10
124.9677381415011
 20
-152.193983251882
 30
0.0
 10
124.9677381415011
 20
-152.193983251882
 30
0.0
 10
124.9677381415011
 20
-152.193983251882
 30
0.0
 10
124.9677381415011
 20
-152.6614827092305
 30
0.0
 10
124.9677381415011
 20
-152.6614827092305
 30
0.0
 10
124.9677381415011
 20
-152.7886067326362
 30
0.0
 10
124.931564638906
 20
-152.8478623749825
 30
0.0
 10
124.6480332804699
 20
-152.8392496362693
 30
0.0
 10
124.6480332804699
 20
-152.8392496362693
 30
0.0
 10
124.5446804159124
 20
-152.6318548880573
 30
0.0
 10
124.5446804159124
 20
-152.6318548880573
 30
0.0
 10
124.608070172841
 20
-152.6446017413527
 30
0.0
 10
124.656646019183
 20
-152.648735855935
 30
0.0
 10
124.6969536363605
 20
-152.648735855935
 30
0.0
 10
124.7730902465845
 20
-152.648735855935
 30
0.0
 10
124.7834255330402
 20
-152.6256537161839
 30
0.0
 10
124.7834255330402
 20
-152.5601969019641
 30
0.0
 10
124.7834255330402
 20
-152.5601969019641
 30
0.0
 10
124.7834255330402
 20
-152.1305934949535
 30
0.0
 10
124.7834255330402
 20
-152.1305934949535
 30
0.0
 10
124.6862738403562
 20
-152.1709011121309
 30
0.0
 10
124.6693928724785
 20
-152.1771022840043
 30
0.0
 10
124.6228840834276
 20
-152.1960503091732
 30
0.0
 10
124.6187499688453
 20
-152.2174099011817
 30
0.0
 10
124.6142713447145
 20
-152.2470377223549
 30
0.0
 10
124.5953233195456
 20
-152.2470377223549
 30
0.0
 10
124.5867105808325
 20
-152.2470377223549
 30
0.0
 10
124.5763752943767
 20
-152.2429036077726
 30
0.0
 10
124.5698296129547
 20
-152.2194769584729
 30
0.0
 10
124.5698296129547
 20
-152.2194769584729
 30
0.0
 10
124.5171196520304
 20
-152.0268961208474
 30
0.0
 10
124.5171196520304
 20
-152.0268961208474
 30
0.0
 10
124.6628471910565
 20
-151.9803873317965
 30
0.0
 10
124.7286485148248
 20
-151.9573051920454
 30
0.0
 10
124.7834255330402
 20
-151.9359456000368
 30
0.0
 10
124.7834255330402
 20
-151.9359456000368
 30
0.0
 10
124.7834255330402
 20
-151.5235676704524
 30
0.0
 10
124.7834255330402
 20
-151.5235676704524
 30
0.0
 10
124.7834255330402
 20
-151.5235676704524
 30
0.0
 10
124.7307155721159
 20
-151.5235676704524
 30
0.0
 10
124.7307155721159
 20
-151.5235676704524
 30
0.0
 10
124.7307155721159
 20
-151.5235676704524
 30
0.0
 10
124.6525119046008
 20
-151.5235676704524
 30
0.0
 10
124.6525119046008
 20
-151.5235676704524
 30
0.0
 10
124.5846435235413
 20
-151.5235676704524
 30
0.0
 10
124.5763752943767
 20
-151.5235676704524
 30
0.0
 10
124.5402017917816
 20
-151.5297688423259
 30
0.0
 10
124.5402017917816
 20
-151.5297688423259
 30
0.0
 10
124.5402017917816
 20
-151.3351209474093
 30
0.0
 10
124.5402017917816
 20
-151.3351209474093
 30
0.0
 10
124.5677625556636
 20
-151.3416666288312
 30
0.0
 10
124.5763752943767
 20
-151.3416666288312
 30
0.0
 10
124.6459662231788
 20
-151.3416666288312
 30
0.0
 10
124.6459662231788
 20
-151.3416666288312
 30
0.0
 10
124.7792914184579
 20
-151.3416666288312
 30
0.0
 10
124.7792914184579
 20
-151.3416666288312
 30
0.0
 10
124.7792914184579
 20
-151.2717311904807
 30
0.0
 10
124.7792914184579
 20
-151.1890488988347
 30
0.0
 10
124.7772243611668
 20
-151.1849147842523
 30
0.0
 10
124.7689561320022
 20
-151.0050807999223
 30
0.0
 10
124.7689561320022
 20
-150.9861327747534
 30
0.0
 10
124.7665445651625
 20
-150.9396239857026
 30
0.0
 10
124.7665445651625
 20
-150.9396239857026
 30
0.0
 10
124.9825520520877
 20
-150.9478922148672
 30
0.0
 10
124.9825520520877
 20
-150.9478922148672
 30
0.0
 10
124.9928873385434
 20
-150.9478922148672
 30
0.0
 10
125.014246930552
 20
-150.9503037817069
 30
0.0
 10
125.014246930552
 20
-150.9671847495846
 30
0.0
 10
125.014246930552
 20
-150.9861327747534
 30
0.0
 10
124.9994330199654
 20
-150.9968125707577
 30
0.0
 10
124.9739393133745
 20
-151.0157605959266
 30
0.0
 10
124.9739393133745
 20
-151.0664034995597
 30
0.0
 10
124.9677381415011
 20
-151.2948133302318
 30
0.0
 10
124.9698051987923
 20
-151.3416666288312
 30
0.0
 10
125.0986517699406
 20
-151.3416666288312
 30
0.0
 10
125.111398623236
 20
-151.3416666288312
 30
0.0
 10
125.2088948254686
 20
-151.3330538901181
 30
0.0
 10
125.2088948254686
 20
-151.3330538901181
 30
0.0
 10
125.2088948254686
 20
-151.5277017850347
 30
0.0
 10
125.2088948254686
 20
-151.5277017850347
 30
0.0
 10
125.1706542655823
 20
-151.5256347277436
 30
0.0
 10
125.1031303940714
 20
-151.5215006131613
 30
0.0
 10
124.9677381415011
 20
-151.5235676704524
 30
0.0
 10
124.9677381415011
 20
-151.5235676704524
 30
0.0
 10
124.9677381415011
 20
-151.8618760471039
 30
0.0
 10
124.9677381415011
 20
-151.8618760471039
 30
0.0
 10
125.0225151597166
 20
-151.8387939073528
 30
0.0
 10
125.0883164834849
 20
-151.8112331434708
 30
0.0
 10
125.1368923298269
 20
-151.7878064941711
 30
0.0
 10
125.1368923298269
 20
-151.7878064941711
 30
0.0
 10
125.1368923298269
 20
-151.6100395671322
 30
0.0
 10
125.1368923298269
 20
-151.6100395671322
 30
0.0
 10
125.2512694999372
 20
-151.6227864204276
 30
0.0
 10
125.3694362750812
 20
-151.6227864204276
 30
0.0
 10
125.4858805024827
 20
-151.6227864204276
 30
0.0
 10
125.4627983627315
 20
-151.5277017850347
 30
0.0
 10
125.4352375988495
 20
-151.4450194933887
 30
0.0
 10
125.3718478419209
 20
-151.3120388076581
 30
0.0
 10
125.3274061101612
 20
-151.3141058649492
 30
0.0
 10
125.2447238185152
 20
-151.3182399795315
 30
0.0
 10
125.2068277681774
 20
-151.3203070368227
 30
0.0
 10
125.2068277681774
 20
-151.3203070368227
 30
0.0
 10
125.2068277681774
 20
-151.1404730524926
 30
0.0
 10
125.2068277681774
 20
-151.1404730524926
 30
0.0
 10
125.3315402247435
 20
-151.1490857912058
 30
0.0
 10
125.5048285276516
 20
-151.1532199057881
 30
0.0
 10
125.5875108192975
 20
-151.1532199057881
 30
0.0
 10
125.5875108192975
 20
-151.1532199057881
 30
0.0
 10
125.669848601395
 20
-151.1532199057881
 30
0.0
 10
125.669848601395
 20
-151.1532199057881
 30
0.0
 10
125.669848601395
 20
-150.9902668893357
 30
0.0
 10
125.669848601395
 20
-150.97993160288
 30
0.0
 10
125.6677815441039
 20
-150.924810075116
 30
0.0
 10
125.6677815441039
 20
-150.924810075116
 30
0.0
 10
125.8920572601936
 20
-150.9503037817069
 30
0.0
 10
125.8920572601936
 20
-150.9503037817069
 30
0.0
 10
125.8961913747759
 20
-150.9503037817069
 30
0.0
 10
125.9175509667845
 20
-150.952370838998
 30
0.0
 10
125.9175509667845
 20
-150.9692518068757
 30
0.0
 10
125.9175509667845
 20
-150.9840657174623
 30
0.0
 10
125.9068711707802
 20
-150.9923339466269
 30
0.0
 10
125.8793104068982
 20
-151.0071478572135
 30
0.0
 10
125.8731092350248
 20
-151.0729491809818
 30
0.0
 10
125.8710421777336
 20
-151.0939642634418
 30
0.0
 10
125.8710421777336
 20
-151.1532199057881
 30
0.0
 10
125.8710421777336
 20
-151.1532199057881
 30
0.0
 10
125.9661268131265
 20
-151.1532199057881
 30
0.0
 10
125.9661268131265
 20
-151.1532199057881
 30
0.0
 10
126.0488091047725
 20
-151.1532199057881
 30
0.0
 10
126.2220974076806
 20
-151.1490857912058
 30
0.0
 10
126.3468098642466
 20
-151.1404730524926
 30
0.0
 10
126.3468098642466
 20
-151.1404730524926
 30
0.0
 10
126.3468098642466
 20
-151.3203070368227
 30
0.0
 10
126.3468098642466
 20
-151.3203070368227
 30
0.0
 10
126.3171820430735
 20
-151.3182399795315
 30
0.0
 10
126.1990152679294
 20
-151.3141058649492
 30
0.0
 10
126.158707650752
 20
-151.3120388076581
 30
0.0
 10
126.1438937401654
 20
-151.3626817112912
 30
0.0
 10
126.1101318044099
 20
-151.4746473145619
 30
0.0
 10
126.0443304806417
 20
-151.614518191263
 30
0.0
 10
126.0867051551103
 20
-151.614518191263
 30
0.0
 10
126.3640353416729
 20
-151.5952256565456
 30
0.0
 10
126.4253580413103
 20
-151.5931585992545
 30
0.0
 10
126.4253580413103
 20
-151.5931585992545
 30
0.0
 10
126.4253580413103
 20
-151.7774712077153
 30
0.0
 10
126.4253580413103
 20
-151.7774712077153
 30
0.0
 10
126.3957302201372
 20
-151.7774712077153
 30
0.0
 10
126.3788492522594
 20
-151.7729925835845
 30
0.0
 10
126.2158962358071
 20
-151.7729925835845
 30
0.0
  0
HATCH
  5
151
330
14A
100
AcDbEntity
  8
レイヤー 1
 62
    18
420
        0
440
 33554687
100
AcDbHatch
 10
0.0
 20
0.0
 30
0.0
210
0.0
220
0.0
230
1.0
  2
SOLID
 70
     1
 71
     1
 91
        3
 92
        1
 93
        1
 72
     4
 94
        3
 73
     0
 74
     0
 95
       17
 96
       13
 40
0.0
 40
0.0
 40
0.0
 40
0.0
 40
1.0
 40
1.0
 40
1.0
 40
2.0
 40
2.0
 40
2.0
 40
3.0
 40
3.0
 40
3.0
 40
4.0
 40
4.0
 40
4.0
 40
4.0
 10
125.6509005762261
 20
-152.1581542588354
 10
125.6340196083484
 20
-152.1877820800086
 10
125.5833767047153
 20
-152.2807996581103
 10
125.572696908711
 20
-152.2997476832792
 10
125.7632106890453
 20
-152.3590033256255
 10
125.7842257715053
 20
-152.3655490070475
 10
125.856228267147
 20
-152.392765261381
 10
125.9110052853625
 20
-152.3062933647012
 10
125.9344319346622
 20
-152.2322238117683
 10
125.9492458452488
 20
-152.1581542588354
 10
125.9492458452488
 20
-152.1581542588354
 10
125.6509005762261
 20
-152.1581542588354
 10
125.6509005762261
 20
-152.1581542588354
 97
        0
 97
        1
330
14E
 92
        1
 93
        1
 72
     4
 94
        3
 73
     0
 74
     0
 95
       20
 96
       16
 40
0.0
 40
0.0
 40
0.0
 40
0.0
 40
1.0
 40
1.0
 40
1.0
 40
2.0
 40
2.0
 40
2.0
 40
3.0
 40
3.0
 40
3.0
 40
4.0
 40
4.0
 40
4.0
 40
5.0
 40
5.0
 40
5.0
 40
5.0
 10
125.5875108192975
 20
-151.3075601835272
 10
125.5875108192975
 20
-151.3075601835272
 10
125.5558159408332
 20
-151.3075601835272
 10
125.5558159408332
 20
-151.3075601835272
 10
125.6023247298841
 20
-151.407123443051
 10
125.6340196083484
 20
-151.4873941678573
 10
125.6677815441039
 20
-151.614518191263
 10
125.6677815441039
 20
-151.614518191263
 10
125.8751762923159
 20
-151.614518191263
 10
125.8751762923159
 20
-151.614518191263
 10
125.9068711707802
 20
-151.5215006131613
 10
125.9302978200799
 20
-151.4367512642241
 10
125.9533799598311
 20
-151.3075601835272
 10
125.9533799598311
 20
-151.3075601835272
 10
125.5875108192975
 20
-151.3075601835272
 10
125.5875108192975
 20
-151.3075601835272
 97
        0
 97
        1
330
14F
 92
        1
 93
        1
 72
     4
 94
        3
 73
     0
 74
     0
 95
      242
 96
      238
 40
0.0
 40
0.0
 40
0.0
 40
0.0
 40
1.0
 40
1.0
 40
1.0
 40
2.0
 40
2.0
 40
2.0
 40
3.0
 40
3.0
 40
3.0
 40
4.0
 40
4.0
 40
4.0
 40
5.0
 40
5.0
 40
5.0
 40
6.0
 40
6.0
 40
6.0
 40
7.0
 40
7.0
 40
7.0
 40
8.0
 40
8.0
 40
8.0
 40
9.0
 40
9.0
 40
9.0
 40
10.0
 40
10.0
 40
10.0
 40
11.0
 40
11.0
 40
11.0
 40
12.0
 40
12.0
 40
12.0
 40
13.0
 40
13.0
 40
13.0
 40
14.0
 40
14.0
 40
14.0
 40
15.0
 40
15.0
 40
15.0
 40
16.0
 40
16.0
 40
16.0
 40
17.0
 40
17.0
 40
17.0
 40
18.0
 40
18.0
 40
18.0
 40
19.0
 40
19.0
 40
19.0
 40
20.0
 40
20.0
 40
20.0
 40
21.0
 40
21.0
 40
21.0
 40
22.0
 40
22.0
 40
22.0
 40
23.0
 40
23.0
 40
23.0
 40
24.0
 40
24.0
 40
24.0
 40
25.0
 40
25.0
 40
25.0
 40
26.0
 40
26.0
 40
26.0
 40
27.0
 40
27.0
 40
27.0
 40
28.0
 40
28.0
 40
28.0
 40
29.0
 40
29.0
 40
29.0
 40
30.0
 40
30.0
 40
30.0
 40
31.0
 40
31.0
 40
31.0
 40
32.0
 40
32.0
 40
32.0
 40
33.0
 40
33.0
 40
33.0
 40
34.0
 40
34.0
 40
34.0
 40
35.0
 40
35.0
 40
35.0
 40
36.0
 40
36.0
 40
36.0
 40
37.0
 40
37.0
 40
37.0
 40
38.0
 40
38.0
 40
38.0
 40
39.0
 40
39.0
 40
39.0
 40
40.0
 40
40.0
 40
40.0
 40
41.0
 40
41.0
 40
41.0
 40
42.0
 40
42.0
 40
42.0
 40
43.0
 40
43.0
 40
43.0
 40
44.0
 40
44.0
 40
44.0
 40
45.0
 40
45.0
 40
45.0
 40
46.0
 40
46.0
 40
46.0
 40
47.0
 40
47.0
 40
47.0
 40
48.0
 40
48.0
 40
48.0
 40
49.0
 40
49.0
 40
49.0
 40
50.0
 40
50.0
 40
50.0
 40
51.0
 40
51.0
 40
51.0
 40
52.0
 40
52.0
 40
52.0
 40
53.0
 40
53.0
 40
53.0
 40
54.0
 40
54.0
 40
54.0
 40
55.0
 40
55.0
 40
55.0
 40
56.0
 40
56.0
 40
56.0
 40
57.0
 40
57.0
 40
57.0
 40
58.0
 40
58.0
 40
58.0
 40
59.0
 40
59.0
 40
59.0
 40
60.0
 40
60.0
 40
60.0
 40
61.0
 40
61.0
 40
61.0
 40
62.0
 40
62.0
 40
62.0
 40
63.0
 40
63.0
 40
63.0
 40
64.0
 40
64.0
 40
64.0
 40
65.0
 40
65.0
 40
65.0
 40
66.0
 40
66.0
 40
66.0
 40
67.0
 40
67.0
 40
67.0
 40
68.0
 40
68.0
 40
68.0
 40
69.0
 40
69.0
 40
69.0
 40
70.0
 40
70.0
 40
70.0
 40
71.0
 40
71.0
 40
71.0
 40
72.0
 40
72.0
 40
72.0
 40
73.0
 40
73.0
 40
73.0
 40
74.0
 40
74.0
 40
74.0
 40
75.0
 40
75.0
 40
75.0
 40
76.0
 40
76.0
 40
76.0
 40
77.0
 40
77.0
 40
77.0
 40
78.0
 40
78.0
 40
78.0
 40
79.0
 40
79.0
 40
79.0
 40
79.0
 10
126.2158962358071
 20
-151.7729925835845
 10
126.2158962358071
 20
-151.7729925835845
 10
125.9619926985442
 20
-151.7729925835845
 10
125.9619926985442
 20
-151.7729925835845
 10
125.9619926985442
 20
-151.7729925835845
 10
125.6846625119816
 20
-151.7729925835845
 10
125.6846625119816
 20
-151.7729925835845
 10
125.6846625119816
 20
-151.7729925835845
 10
125.8117865353873
 20
-151.8153672580531
 10
125.8117865353873
 20
-151.8153672580531
 10
125.8224663313916
 20
-151.8195013726354
 10
125.8348686751385
 20
-151.8260470540574
 10
125.8348686751385
 20
-151.8387939073528
 10
125.8348686751385
 20
-151.8598089898128
 10
125.8031737966742
 20
-151.8660101616863
 10
125.7821587142142
 20
-151.8704887858171
 10
125.7714789182099
 20
-151.8935709255682
 10
125.7418510970367
 20
-151.9593722493365
 10
125.7229030718679
 20
-152.0038139810963
 10
125.7229030718679
 20
-152.0038139810963
 10
125.9936875770085
 20
-152.0038139810963
 10
125.9936875770085
 20
-152.0038139810963
 10
126.0846380978191
 20
-152.0038139810963
 10
126.2813530500269
 20
-151.9993353569654
 10
126.4229464744706
 20
-151.9910671278008
 10
126.4229464744706
 20
-151.9910671278008
 10
126.4229464744706
 20
-152.1688340548397
 10
126.4229464744706
 20
-152.1688340548397
 10
126.3406086923732
 20
-152.1643554307089
 10
126.3195936099132
 20
-152.1643554307089
 10
126.1397596255831
 20
-152.1602213161266
 10
126.1080647471188
 20
-152.3145615938658
 10
126.0636230153591
 20
-152.3951768282206
 10
126.0191812835994
 20
-152.4647677570227
 10
126.1397596255831
 20
-152.524023399369
 10
126.2455240569803
 20
-152.5918917804284
 10
126.3492214310863
 20
-152.6742295625258
 10
126.3492214310863
 20
-152.6742295625258
 10
126.2307101463937
 20
-152.8413166935605
 10
126.2307101463937
 20
-152.8413166935605
 10
126.207283497094
 20
-152.8223686683916
 10
126.1945366437986
 20
-152.8137559296785
 10
126.082571040528
 20
-152.7293510902899
 10
126.0339951941859
 20
-152.6911105304036
 10
125.9747395518396
 20
-152.655281537357
 10
125.8941243174848
 20
-152.6108398055973
 10
125.6825954546904
 20
-152.7968749618008
 10
125.4776122733181
 20
-152.8203016111005
 10
125.18753523346
 20
-152.8499294322736
 10
125.18753523346
 20
-152.8499294322736
 10
125.083837859354
 20
-152.6700954479436
 10
125.083837859354
 20
-152.6700954479436
 10
125.401475663094
 20
-152.6659613333612
 10
125.5768310232933
 20
-152.6404676267704
 10
125.7291042437413
 20
-152.5305690807909
 10
125.6105929590487
 20
-152.4795816676092
 10
125.5220540050778
 20
-152.4520209037273
 10
125.4858805024827
 20
-152.4396185599804
 10
125.4669324773138
 20
-152.4668348143138
 10
125.4521185667272
 20
-152.4861273490312
 10
125.4245578028452
 20
-152.5198892847867
 10
125.4245578028452
 20
-152.5198892847867
 10
125.2278428506375
 20
-152.4372069931407
 10
125.2278428506375
 20
-152.4372069931407
 10
125.3105251422835
 20
-152.3569362683343
 10
125.3718478419209
 20
-152.2618516329415
 10
125.4286919174275
 20
-152.1602213161266
 10
125.2385226466417
 20
-152.1643554307089
 10
125.2171630546332
 20
-152.1643554307089
 10
125.1348252725357
 20
-152.1688340548397
 10
125.1348252725357
 20
-152.1688340548397
 10
125.1348252725357
 20
-151.9910671278008
 10
125.1348252725357
 20
-151.9910671278008
 10
125.2743516396883
 20
-151.9972682996742
 10
125.4838134451915
 20
-152.0014024142566
 10
125.5093071517824
 20
-152.0014024142566
 10
125.5261881196601
 20
-151.9676404785011
 10
125.5813096474241
 20
-151.8470621365174
 10
125.600257672593
 20
-151.7729925835845
 10
125.5813096474241
 20
-151.7729925835845
 10
125.4035427203852
 20
-151.7795382650065
 10
125.2088948254686
 20
-151.7922851183019
 10
125.2088948254686
 20
-151.7922851183019
 10
125.2088948254686
 20
-151.9252658040326
 10
125.2088948254686
 20
-151.9252658040326
 10
125.1603189791266
 20
-151.9507595106234
 10
125.1010633367803
 20
-151.9824543890877
 10
124.9677381415011
 20
-152.048255712856
 10
124.9677381415011
 20
-152.048255712856
 10
124.9677381415011
 20
-152.193983251882
 10
124.9677381415011
 20
-152.193983251882
 10
124.9677381415011
 20
-152.193983251882
 10
124.9677381415011
 20
-152.6614827092305
 10
124.9677381415011
 20
-152.6614827092305
 10
124.9677381415011
 20
-152.7886067326362
 10
124.931564638906
 20
-152.8478623749825
 10
124.6480332804699
 20
-152.8392496362693
 10
124.6480332804699
 20
-152.8392496362693
 10
124.5446804159124
 20
-152.6318548880573
 10
124.5446804159124
 20
-152.6318548880573
 10
124.608070172841
 20
-152.6446017413527
 10
124.656646019183
 20
-152.648735855935
 10
124.6969536363605
 20
-152.648735855935
 10
124.7730902465845
 20
-152.648735855935
 10
124.7834255330402
 20
-152.6256537161839
 10
124.7834255330402
 20
-152.5601969019641
 10
124.7834255330402
 20
-152.5601969019641
 10
124.7834255330402
 20
-152.1305934949535
 10
124.7834255330402
 20
-152.1305934949535
 10
124.6862738403562
 20
-152.1709011121309
 10
124.6693928724785
 20
-152.1771022840043
 10
124.6228840834276
 20
-152.1960503091732
 10
124.6187499688453
 20
-152.2174099011817
 10
124.6142713447145
 20
-152.2470377223549
 10
124.5953233195456
 20
-152.2470377223549
 10
124.5867105808325
 20
-152.2470377223549
 10
124.5763752943767
 20
-152.2429036077726
 10
124.5698296129547
 20
-152.2194769584729
 10
124.5698296129547
 20
-152.2194769584729
 10
124.5171196520304
 20
-152.0268961208474
 10
124.5171196520304
 20
-152.0268961208474
 10
124.6628471910565
 20
-151.9803873317965
 10
124.7286485148248
 20
-151.9573051920454
 10
124.7834255330402
 20
-151.9359456000368
 10
124.7834255330402
 20
-151.9359456000368
 10
124.7834255330402
 20
-151.5235676704524
 10
124.7834255330402
 20
-151.5235676704524
 10
124.7834255330402
 20
-151.5235676704524
 10
124.7307155721159
 20
-151.5235676704524
 10
124.7307155721159
 20
-151.5235676704524
 10
124.7307155721159
 20
-151.5235676704524
 10
124.6525119046008
 20
-151.5235676704524
 10
124.6525119046008
 20
-151.5235676704524
 10
124.5846435235413
 20
-151.5235676704524
 10
124.5763752943767
 20
-151.5235676704524
 10
124.5402017917816
 20
-151.5297688423259
 10
124.5402017917816
 20
-151.5297688423259
 10
124.5402017917816
 20
-151.3351209474093
 10
124.5402017917816
 20
-151.3351209474093
 10
124.5677625556636
 20
-151.3416666288312
 10
124.5763752943767
 20
-151.3416666288312
 10
124.6459662231788
 20
-151.3416666288312
 10
124.6459662231788
 20
-151.3416666288312
 10
124.7792914184579
 20
-151.3416666288312
 10
124.7792914184579
 20
-151.3416666288312
 10
124.7792914184579
 20
-151.2717311904807
 10
124.7792914184579
 20
-151.1890488988347
 10
124.7772243611668
 20
-151.1849147842523
 10
124.7689561320022
 20
-151.0050807999223
 10
124.7689561320022
 20
-150.9861327747534
 10
124.7665445651625
 20
-150.9396239857026
 10
124.7665445651625
 20
-150.9396239857026
 10
124.9825520520877
 20
-150.9478922148672
 10
124.9825520520877
 20
-150.9478922148672
 10
124.9928873385434
 20
-150.9478922148672
 10
125.014246930552
 20
-150.9503037817069
 10
125.014246930552
 20
-150.9671847495846
 10
125.014246930552
 20
-150.9861327747534
 10
124.9994330199654
 20
-150.9968125707577
 10
124.9739393133745
 20
-151.0157605959266
 10
124.9739393133745
 20
-151.0664034995597
 10
124.9677381415011
 20
-151.2948133302318
 10
124.9698051987923
 20
-151.3416666288312
 10
125.0986517699406
 20
-151.3416666288312
 10
125.111398623236
 20
-151.3416666288312
 10
125.2088948254686
 20
-151.3330538901181
 10
125.2088948254686
 20
-151.3330538901181
 10
125.2088948254686
 20
-151.5277017850347
 10
125.2088948254686
 20
-151.5277017850347
 10
125.1706542655823
 20
-151.5256347277436
 10
125.1031303940714
 20
-151.5215006131613
 10
124.9677381415011
 20
-151.5235676704524
 10
124.9677381415011
 20
-151.5235676704524
 10
124.9677381415011
 20
-151.8618760471039
 10
124.9677381415011
 20
-151.8618760471039
 10
125.0225151597166
 20
-151.8387939073528
 10
125.0883164834849
 20
-151.8112331434708
 10
125.1368923298269
 20
-151.7878064941711
 10
125.1368923298269
 20
-151.7878064941711
 10
125.1368923298269
 20
-151.6100395671322
 10
125.1368923298269
 20
-151.6100395671322
 10
125.2512694999372
 20
-151.6227864204276
 10
125.3694362750812
 20
-151.6227864204276
 10
125.4858805024827
 20
-151.6227864204276
 10
125.4627983627315
 20
-151.5277017850347
 10
125.4352375988495
 20
-151.4450194933887
 10
125.3718478419209
 20
-151.3120388076581
 10
125.3274061101612
 20
-151.3141058649492
 10
125.2447238185152
 20
-151.3182399795315
 10
125.2068277681774
 20
-151.3203070368227
 10
125.2068277681774
 20
-151.3203070368227
 10
125.2068277681774
 20
-151.1404730524926
 10
125.2068277681774
 20
-151.1404730524926
 10
125.3315402247435
 20
-151.1490857912058
 10
125.5048285276516
 20
-151.1532199057881
 10
125.5875108192975
 20
-151.1532199057881
 10
125.5875108192975
 20
-151.1532199057881
 10
125.669848601395
 20
-151.1532199057881
 10
125.669848601395
 20
-151.1532199057881
 10
125.669848601395
 20
-150.9902668893357
 10
125.669848601395
 20
-150.97993160288
 10
125.6677815441039
 20
-150.924810075116
 10
125.6677815441039
 20
-150.924810075116
 10
125.8920572601936
 20
-150.9503037817069
 10
125.8920572601936
 20
-150.9503037817069
 10
125.8961913747759
 20
-150.9503037817069
 10
125.9175509667845
 20
-150.952370838998
 10
125.9175509667845
 20
-150.9692518068757
 10
125.9175509667845
 20
-150.9840657174623
 10
125.9068711707802
 20
-150.9923339466269
 10
125.8793104068982
 20
-151.0071478572135
 10
125.8731092350248
 20
-151.0729491809818
 10
125.8710421777336
 20
-151.0939642634418
 10
125.8710421777336
 20
-151.1532199057881
 10
125.8710421777336
 20
-151.1532199057881
 10
125.9661268131265
 20
-151.1532199057881
 10
125.9661268131265
 20
-151.1532199057881
 10
126.0488091047725
 20
-151.1532199057881
 10
126.2220974076806
 20
-151.1490857912058
 10
126.3468098642466
 20
-151.1404730524926
 10
126.3468098642466
 20
-151.1404730524926
 10
126.3468098642466
 20
-151.3203070368227
 10
126.3468098642466
 20
-151.3203070368227
 10
126.3171820430735
 20
-151.3182399795315
 10
126.1990152679294
 20
-151.3141058649492
 10
126.158707650752
 20
-151.3120388076581
 10
126.1438937401654
 20
-151.3626817112912
 10
126.1101318044099
 20
-151.4746473145619
 10
126.0443304806417
 20
-151.614518191263
 10
126.0867051551103
 20
-151.614518191263
 10
126.3640353416729
 20
-151.5952256565456
 10
126.4253580413103
 20
-151.5931585992545
 10
126.4253580413103
 20
-151.5931585992545
 10
126.4253580413103
 20
-151.7774712077153
 10
126.4253580413103
 20
-151.7774712077153
 10
126.3957302201372
 20
-151.7774712077153
 10
126.3788492522594
 20
-151.7729925835845
 10
126.2158962358071
 20
-151.7729925835845
 97
        0
 97
        1
330
150
 75
     2
 76
     1
 98
        1
 10
0.0
 20
0.0
450
        0
451
        0
460
0.0
461
0.0
452
        0
462
0.0
453
        0
470

  0
SPLINE
  5
152
330
14A
100
AcDbEntity
  8
レイヤー 1
100
AcDbSpline
210
0.0
220
0.0
230
1.0
 70
    11
 71
     3
 72
    17
 73
    13
 74
     0
 42
0.0000000001
 43
0.0000000001
 40
0.0
 40
0.0
 40
0.0
 40
0.0
 40
1.0
 40
1.0
 40
1.0
 40
2.0
 40
2.0
 40
2.0
 40
3.0
 40
3.0
 40
3.0
 40
4.0
 40
4.0
 40
4.0
 40
4.0
 10
128.0721136832597
 20
-152.572599245711
 30
0.0
 10
128.0721136832597
 20
-152.572599245711
 30
0.0
 10
127.365524599235
 20
-152.572599245711
 30
0.0
 10
127.365524599235
 20
-152.572599245711
 30
0.0
 10
127.365524599235
 20
-152.572599245711
 30
0.0
 10
127.365524599235
 20
-152.6869764158213
 30
0.0
 10
127.365524599235
 20
-152.6869764158213
 30
0.0
 10
127.365524599235
 20
-152.6869764158213
 30
0.0
 10
128.0721136832597
 20
-152.6869764158213
 30
0.0
 10
128.0721136832597
 20
-152.6869764158213
 30
0.0
 10
128.0721136832597
 20
-152.6869764158213
 30
0.0
 10
128.0721136832597
 20
-152.572599245711
 30
0.0
 10
128.0721136832597
 20
-152.572599245711
 30
0.0
  0
SPLINE
  5
153
330
14A
100
AcDbEntity
  8
レイヤー 1
100
AcDbSpline
210
0.0
220
0.0
230
1.0
 70
    11
 71
     3
 72
    17
 73
    13
 74
     0
 42
0.0000000001
 43
0.0000000001
 40
0.0
 40
0.0
 40
0.0
 40
0.0
 40
1.0
 40
1.0
 40
1.0
 40
2.0
 40
2.0
 40
2.0
 40
3.0
 40
3.0
 40
3.0
 40
4.0
 40
4.0
 40
4.0
 40
4.0
 10
128.0721136832597
 20
-152.3293755044524
 30
0.0
 10
128.0721136832597
 20
-152.3293755044524
 30
0.0
 10
127.365524599235
 20
-152.3293755044524
 30
0.0
 10
127.365524599235
 20
-152.3293755044524
 30
0.0
 10
127.365524599235
 20
-152.3293755044524
 30
0.0
 10
127.365524599235
 20
-152.4437526745627
 30
0.0
 10
127.365524599235
 20
-152.4437526745627
 30
0.0
 10
127.365524599235
 20
-152.4437526745627
 30
0.0
 10
128.0721136832597
 20
-152.4437526745627
 30
0.0
 10
128.0721136832597
 20
-152.4437526745627
 30
0.0
 10
128.0721136832597
 20
-152.4437526745627
 30
0.0
 10
128.0721136832597
 20
-152.3293755044524
 30
0.0
 10
128.0721136832597
 20
-152.3293755044524
 30
0.0
  0
SPLINE
  5
154
330
14A
100
AcDbEntity
  8
レイヤー 1
100
AcDbSpline
210
0.0
220
0.0
230
1.0
 70
    11
 71
     3
 72
    17
 73
    13
 74
     0
 42
0.0000000001
 43
0.0000000001
 40
0.0
 40
0.0
 40
0.0
 40
0.0
 40
1.0
 40
1.0
 40
1.0
 40
2.0
 40
2.0
 40
2.0
 40
3.0
 40
3.0
 40
3.0
 40
4.0
 40
4.0
 40
4.0
 40
4.0
 10
128.0721136832597
 20
-152.096831559198
 30
0.0
 10
128.0721136832597
 20
-152.096831559198
 30
0.0
 10
127.365524599235
 20
-152.096831559198
 30
0.0
 10
127.365524599235
 20
-152.096831559198
 30
0.0
 10
127.365524599235
 20
-152.096831559198
 30
0.0
 10
127.365524599235
 20
-152.2046630478863
 30
0.0
 10
127.365524599235
 20
-152.2046630478863
 30
0.0
 10
127.365524599235
 20
-152.2046630478863
 30
0.0
 10
128.0721136832597
 20
-152.2046630478863
 30
0.0
 10
128.0721136832597
 20
-152.2046630478863
 30
0.0
 10
128.0721136832597
 20
-152.2046630478863
 30
0.0
 10
128.0721136832597
 20
-152.096831559198
 30
0.0
 10
128.0721136832597
 20
-152.096831559198
 30
0.0
  0
SPLINE
  5
155
330
14A
100
AcDbEntity
  8
レイヤー 1
100
AcDbSpline
210
0.0
220
0.0
230
1.0
 70
     9
 71
     3
 72
   203
 73
   199
 74
     0
 42
0.0000000001
 43
0.0000000001
 40
0.0
 40
0.0
 40
0.0
 40
0.0
 40
1.0
 40
1.0
 40
1.0
 40
2.0
 40
2.0
 40
2.0
 40
3.0
 40
3.0
 40
3.0
 40
4.0
 40
4.0
 40
4.0
 40
5.0
 40
5.0
 40
5.0
 40
6.0
 40
6.0
 40
6.0
 40
7.0
 40
7.0
 40
7.0
 40
8.0
 40
8.0
 40
8.0
 40
9.0
 40
9.0
 40
9.0
 40
10.0
 40
10.0
 40
10.0
 40
11.0
 40
11.0
 40
11.0
 40
12.0
 40
12.0
 40
12.0
 40
13.0
 40
13.0
 40
13.0
 40
14.0
 40
14.0
 40
14.0
 40
15.0
 40
15.0
 40
15.0
 40
16.0
 40
16.0
 40
16.0
 40
17.0
 40
17.0
 40
17.0
 40
18.0
 40
18.0
 40
18.0
 40
19.0
 40
19.0
 40
19.0
 40
20.0
 40
20.0
 40
20.0
 40
21.0
 40
21.0
 40
21.0
 40
22.0
 40
22.0
 40
22.0
 40
23.0
 40
23.0
 40
23.0
 40
24.0
 40
24.0
 40
24.0
 40
25.0
 40
25.0
 40
25.0
 40
26.0
 40
26.0
 40
26.0
 40
27.0
 40
27.0
 40
27.0
 40
28.0
 40
28.0
 40
28.0
 40
29.0
 40
29.0
 40
29.0
 40
30.0
 40
30.0
 40
30.0
 40
31.0
 40
31.0
 40
31.0
 40
32.0
 40
32.0
 40
32.0
 40
33.0
 40
33.0
 40
33.0
 40
34.0
 40
34.0
 40
34.0
 40
35.0
 40
35.0
 40
35.0
 40
36.0
 40
36.0
 40
36.0
 40
37.0
 40
37.0
 40
37.0
 40
38.0
 40
38.0
 40
38.0
 40
39.0
 40
39.0
 40
39.0
 40
40.0
 40
40.0
 40
40.0
 40
41.0
 40
41.0
 40
41.0
 40
42.0
 40
42.0
 40
42.0
 40
43.0
 40
43.0
 40
43.0
 40
44.0
 40
44.0
 40
44.0
 40
45.0
 40
45.0
 40
45.0
 40
46.0
 40
46.0
 40
46.0
 40
47.0
 40
47.0
 40
47.0
 40
48.0
 40
48.0
 40
48.0
 40
49.0
 40
49.0
 40
49.0
 40
50.0
 40
50.0
 40
50.0
 40
51.0
 40
51.0
 40
51.0
 40
52.0
 40
52.0
 40
52.0
 40
53.0
 40
53.0
 40
53.0
 40
54.0
 40
54.0
 40
54.0
 40
55.0
 40
55.0
 40
55.0
 40
56.0
 40
56.0
 40
56.0
 40
57.0
 40
57.0
 40
57.0
 40
58.0
 40
58.0
 40
58.0
 40
59.0
 40
59.0
 40
59.0
 40
60.0
 40
60.0
 40
60.0
 40
61.0
 40
61.0
 40
61.0
 40
62.0
 40
62.0
 40
62.0
 40
63.0
 40
63.0
 40
63.0
 40
64.0
 40
64.0
 40
64.0
 40
65.0
 40
65.0
 40
65.0
 40
66.0
 40
66.0
 40
66.0
 40
66.0
 10
127.9070936095163
 20
-151.8408609646439
 30
0.0
 10
127.9070936095163
 20
-151.8408609646439
 30
0.0
 10
127.3486436313573
 20
-151.8408609646439
 30
0.0
 10
127.3486436313573
 20
-151.8408609646439
 30
0.0
 10
127.3383083449015
 20
-151.8853026964037
 30
0.0
 10
127.3296956061884
 20
-151.916997574868
 30
0.0
 10
127.316948752893
 20
-151.9548936252057
 30
0.0
 10
127.3424424594838
 20
-151.9548936252057
 30
0.0
 10
127.3572563700704
 20
-151.9573051920454
 30
0.0
 10
127.3634575419438
 20
-151.9573051920454
 30
0.0
 10
127.3634575419438
 20
-151.9573051920454
 30
0.0
 10
127.551904264987
 20
-151.9573051920454
 30
0.0
 10
127.551904264987
 20
-151.9573051920454
 30
0.0
 10
127.551904264987
 20
-151.9573051920454
 30
0.0
 10
127.9263861442337
 20
-151.9573051920454
 30
0.0
 10
127.9263861442337
 20
-151.9573051920454
 30
0.0
 10
127.9770290478668
 20
-151.9573051920454
 30
0.0
 10
128.2605604063029
 20
-151.94455833875
 30
0.0
 10
128.2922552847672
 20
-151.94455833875
 30
0.0
 10
128.2901882274761
 20
-151.9721191026319
 30
0.0
 10
128.2881211701849
 20
-151.9910671278008
 30
0.0
 10
128.2881211701849
 20
-152.020694948974
 30
0.0
 10
128.2860541128937
 20
-152.0523898274383
 30
0.0
 10
128.2860541128937
 20
-152.1877820800086
 30
0.0
 10
128.2860541128937
 20
-152.2153428438906
 30
0.0
 10
128.2860541128937
 20
-152.2153428438906
 30
0.0
 10
128.2860541128937
 20
-152.4606336424404
 30
0.0
 10
128.2860541128937
 20
-152.4606336424404
 30
0.0
 10
128.2860541128937
 20
-152.5050753742001
 30
0.0
 10
128.2901882274761
 20
-152.7017903264079
 30
0.0
 10
128.2943223420583
 20
-152.8540635468559
 30
0.0
 10
128.2943223420583
 20
-152.8540635468559
 30
0.0
 10
128.0679795686774
 20
-152.8540635468559
 30
0.0
 10
128.0679795686774
 20
-152.8540635468559
 30
0.0
 10
128.0679795686774
 20
-152.8540635468559
 30
0.0
 10
128.0700466259686
 20
-152.8203016111005
 30
0.0
 10
128.0700466259686
 20
-152.8203016111005
 30
0.0
 10
128.0700466259686
 20
-152.8203016111005
 30
0.0
 10
127.3679361660747
 20
-152.8203016111005
 30
0.0
 10
127.3679361660747
 20
-152.8203016111005
 30
0.0
 10
127.3679361660747
 20
-152.8203016111005
 30
0.0
 10
127.3700032233658
 20
-152.8540635468559
 30
0.0
 10
127.3700032233658
 20
-152.8540635468559
 30
0.0
 10
127.3700032233658
 20
-152.8540635468559
 30
0.0
 10
127.1519286791495
 20
-152.8540635468559
 30
0.0
 10
127.1519286791495
 20
-152.8540635468559
 30
0.0
 10
127.1564073032803
 20
-152.7989420190919
 30
0.0
 10
127.1564073032803
 20
-152.786539675345
 30
0.0
 10
127.1626084751538
 20
-152.6721625052347
 30
0.0
 10
127.1646755324449
 20
-152.6446017413527
 30
0.0
 10
127.1667425897361
 20
-152.5112765460736
 30
0.0
 10
127.1667425897361
 20
-152.4923285209047
 30
0.0
 10
127.1667425897361
 20
-152.4923285209047
 30
0.0
 10
127.1667425897361
 20
-152.2894123968234
 30
0.0
 10
127.1667425897361
 20
-152.2894123968234
 30
0.0
 10
127.0272162225835
 20
-152.5388373099555
 30
0.0
 10
126.8580620342577
 20
-152.6700954479436
 30
0.0
 10
126.7522976028605
 20
-152.7355522621633
 30
0.0
 10
126.7522976028605
 20
-152.7355522621633
 30
0.0
 10
126.5786647904039
 20
-152.5960258950107
 30
0.0
 10
126.5786647904039
 20
-152.5960258950107
 30
0.0
 10
126.6675482539234
 20
-152.5453829913775
 30
0.0
 10
126.8115532452068
 20
-152.4585665851492
 30
0.0
 10
126.9490125550683
 20
-152.2639186902326
 30
0.0
 10
127.0399630758789
 20
-152.1367946668269
 30
0.0
 10
127.1054198900986
 20
-151.993134185092
 30
0.0
 10
127.1391818258541
 20
-151.8408609646439
 30
0.0
 10
126.910771995182
 20
-151.8429280219351
 30
0.0
 10
126.730938010852
 20
-151.8491291938085
 30
0.0
 10
126.6358533754591
 20
-151.8511962510997
 30
0.0
 10
126.6358533754591
 20
-151.8511962510997
 30
0.0
 10
126.6358533754591
 20
-151.6737738336093
 30
0.0
 10
126.6358533754591
 20
-151.6737738336093
 30
0.0
 10
126.8325683276668
 20
-151.6799750054827
 30
0.0
 10
127.1160996861029
 20
-151.6841091200651
 30
0.0
 10
127.2663058492598
 20
-151.6841091200651
 30
0.0
 10
127.2663058492598
 20
-151.6841091200651
 30
0.0
 10
127.4799017693453
 20
-151.6841091200651
 30
0.0
 10
127.4799017693453
 20
-151.6841091200651
 30
0.0
 10
127.4799017693453
 20
-151.6841091200651
 30
0.0
 10
127.4799017693453
 20
-151.5762776313767
 30
0.0
 10
127.4799017693453
 20
-151.5762776313767
 30
0.0
 10
127.4799017693453
 20
-151.5762776313767
 30
0.0
 10
127.3338297207707
 20
-151.5762776313767
 30
0.0
 10
127.3338297207707
 20
-151.5762776313767
 30
0.0
 10
127.1646755324449
 20
-151.5762776313767
 30
0.0
 10
126.9955213441191
 20
-151.5804117459591
 30
0.0
 10
126.8284342130845
 20
-151.586957427381
 30
0.0
 10
126.8284342130845
 20
-151.586957427381
 30
0.0
 10
126.8284342130845
 20
-151.4157361817641
 30
0.0
 10
126.8284342130845
 20
-151.4157361817641
 30
0.0
 10
126.9827744908237
 20
-151.4260714682198
 30
0.0
 10
127.1688096470272
 20
-151.4260714682198
 30
0.0
 10
127.3338297207707
 20
-151.4260714682198
 30
0.0
 10
127.3338297207707
 20
-151.4260714682198
 30
0.0
 10
127.4799017693453
 20
-151.4260714682198
 30
0.0
 10
127.4799017693453
 20
-151.4260714682198
 30
0.0
 10
127.4799017693453
 20
-151.4260714682198
 30
0.0
 10
127.4799017693453
 20
-151.3075601835272
 30
0.0
 10
127.4799017693453
 20
-151.3075601835272
 30
0.0
 10
127.4799017693453
 20
-151.3075601835272
 30
0.0
 10
127.3486436313573
 20
-151.3075601835272
 30
0.0
 10
127.3486436313573
 20
-151.3075601835272
 30
0.0
 10
127.3021348423064
 20
-151.3075601835272
 30
0.0
 10
127.0992187182252
 20
-151.3161729222404
 30
0.0
 10
127.0568440437566
 20
-151.3161729222404
 30
0.0
 10
126.8535834101269
 20
-151.3203070368227
 30
0.0
 10
126.7774467999028
 20
-151.3223740941138
 30
0.0
 10
126.6992431323877
 20
-151.324441151405
 30
0.0
 10
126.6992431323877
 20
-151.324441151405
 30
0.0
 10
126.6992431323877
 20
-151.1404730524926
 30
0.0
 10
126.6992431323877
 20
-151.1404730524926
 30
0.0
 10
126.813620302498
 20
-151.1490857912058
 30
0.0
 10
126.8580620342577
 20
-151.1490857912058
 30
0.0
 10
127.240812142669
 20
-151.1573540203704
 30
0.0
 10
127.1774223857403
 20
-151.0622693849775
 30
0.0
 10
127.1498616218583
 20
-151.0347086210955
 30
0.0
 10
127.1140326288118
 20
-150.9988796280489
 30
0.0
 10
127.1140326288118
 20
-150.9988796280489
 30
0.0
 10
127.289387989011
 20
-150.9161973364029
 30
0.0
 10
127.289387989011
 20
-150.9161973364029
 30
0.0
 10
127.3296956061884
 20
-150.952370838998
 30
0.0
 10
127.3741373379481
 20
-150.9947455134666
 30
0.0
 10
127.448206890881
 20
-151.104644059446
 30
0.0
 10
127.448206890881
 20
-151.104644059446
 30
0.0
 10
127.3338297207707
 20
-151.15976558721
 30
0.0
 10
127.3338297207707
 20
-151.15976558721
 30
0.0
 10
127.3338297207707
 20
-151.15976558721
 30
0.0
 10
127.344509516775
 20
-151.15976558721
 30
0.0
 10
127.344509516775
 20
-151.15976558721
 30
0.0
 10
127.344509516775
 20
-151.15976558721
 30
0.0
 10
127.8671305018874
 20
-151.15976558721
 30
0.0
 10
127.8671305018874
 20
-151.15976558721
 30
0.0
 10
127.8671305018874
 20
-151.15976558721
 30
0.0
 10
127.7717013569459
 20
-151.1153238554503
 30
0.0
 10
127.7717013569459
 20
-151.1153238554503
 30
0.0
 10
127.7992621208279
 20
-151.0770832955641
 30
0.0
 10
127.8564507058831
 20
-150.9968125707577
 30
0.0
 10
127.8712646164697
 20
-150.9227430178248
 30
0.0
 10
127.8712646164697
 20
-150.9227430178248
 30
0.0
 10
128.0848605365551
 20
-150.9861327747534
 30
0.0
 10
128.0848605365551
 20
-150.9861327747534
 30
0.0
 10
128.0934732752683
 20
-150.9881998320446
 30
0.0
 10
128.1144883577283
 20
-150.9988796280489
 30
0.0
 10
128.1144883577283
 20
-151.0198947105089
 30
0.0
 10
128.1144883577283
 20
-151.0581352703951
 30
0.0
 10
128.0490315435086
 20
-151.0581352703951
 30
0.0
 10
128.0300835183397
 20
-151.0581352703951
 30
0.0
 10
128.0194037223354
 20
-151.0770832955641
 30
0.0
 10
127.9959770730357
 20
-151.1173909127415
 30
0.0
 10
127.9663492518626
 20
-151.1573540203704
 30
0.0
 10
128.3663248377001
 20
-151.1511528484969
 30
0.0
 10
128.3959526588732
 20
-151.1490857912058
 30
0.0
 10
128.4720892690972
 20
-151.1425401097838
 30
0.0
 10
128.4720892690972
 20
-151.1425401097838
 30
0.0
 10
128.4720892690972
 20
-151.324441151405
 30
0.0
 10
128.4720892690972
 20
-151.324441151405
 30
0.0
 10
128.4531412439284
 20
-151.324441151405
 30
0.0
 10
128.4276475373375
 20
-151.3223740941138
 30
0.0
 10
128.2075059358301
 20
-151.3141058649492
 30
0.0
 10
128.1568630321969
 20
-151.3120388076581
 30
0.0
 10
127.9367214306894
 20
-151.3075601835272
 30
0.0
 10
127.8922796989297
 20
-151.3075601835272
 30
0.0
 10
127.8922796989297
 20
-151.3075601835272
 30
0.0
 10
127.6766167215531
 20
-151.3075601835272
 30
0.0
 10
127.6766167215531
 20
-151.3075601835272
 30
0.0
 10
127.6766167215531
 20
-151.3075601835272
 30
0.0
 10
127.6766167215531
 20
-151.4260714682198
 30
0.0
 10
127.6766167215531
 20
-151.4260714682198
 30
0.0
 10
127.6766167215531
 20
-151.4260714682198
 30
0.0
 10
127.8502495340096
 20
-151.4260714682198
 30
0.0
 10
127.8502495340096
 20
-151.4260714682198
 30
0.0
 10
128.0128580409134
 20
-151.4260714682198
 30
0.0
 10
128.2033718212477
 20
-151.4260714682198
 30
0.0
 10
128.3601236658266
 20
-151.4157361817641
 30
0.0
 10
128.3601236658266
 20
-151.4157361817641
 30
0.0
 10
128.3601236658266
 20
-151.586957427381
 30
0.0
 10
128.3601236658266
 20
-151.586957427381
 30
0.0
 10
128.1506618603234
 20
-151.5783446886679
 30
0.0
 10
127.9539469081157
 20
-151.5762776313767
 30
0.0
 10
127.8502495340096
 20
-151.5762776313767
 30
0.0
 10
127.8502495340096
 20
-151.5762776313767
 30
0.0
 10
127.6766167215531
 20
-151.5762776313767
 30
0.0
 10
127.6766167215531
 20
-151.5762776313767
 30
0.0
 10
127.6766167215531
 20
-151.5762776313767
 30
0.0
 10
127.6766167215531
 20
-151.6841091200651
 30
0.0
 10
127.6766167215531
 20
-151.6841091200651
 30
0.0
 10
127.6766167215531
 20
-151.6841091200651
 30
0.0
 10
127.9070936095163
 20
-151.6841091200651
 30
0.0
 10
127.9070936095163
 20
-151.6841091200651
 30
0.0
 10
128.0404188047954
 20
-151.6841091200651
 30
0.0
 10
128.3280842778138
 20
-151.6799750054827
 30
0.0
 10
128.537546083317
 20
-151.6737738336093
 30
0.0
 10
128.537546083317
 20
-151.6737738336093
 30
0.0
 10
128.537546083317
 20
-151.8511962510997
 30
0.0
 10
128.537546083317
 20
-151.8511962510997
 30
0.0
 10
128.3453097552401
 20
-151.8449950792262
 30
0.0
 10
128.0321505756308
 20
-151.8408609646439
 30
0.0
 10
127.9070936095163
 20
-151.8408609646439
 30
0.0
  0
HATCH
  5
156
330
14A
100
AcDbEntity
  8
レイヤー 1
 62
    18
420
        0
440
 33554687
100
AcDbHatch
 10
0.0
 20
0.0
 30
0.0
210
0.0
220
0.0
230
1.0
  2
SOLID
 70
     1
 71
     1
 91
        4
 92
        1
 93
        1
 72
     4
 94
        3
 73
     0
 74
     0
 95
       17
 96
       13
 40
0.0
 40
0.0
 40
0.0
 40
0.0
 40
1.0
 40
1.0
 40
1.0
 40
2.0
 40
2.0
 40
2.0
 40
3.0
 40
3.0
 40
3.0
 40
4.0
 40
4.0
 40
4.0
 40
4.0
 10
128.0721136832597
 20
-152.572599245711
 10
128.0721136832597
 20
-152.572599245711
 10
127.365524599235
 20
-152.572599245711
 10
127.365524599235
 20
-152.572599245711
 10
127.365524599235
 20
-152.572599245711
 10
127.365524599235
 20
-152.6869764158213
 10
127.365524599235
 20
-152.6869764158213
 10
127.365524599235
 20
-152.6869764158213
 10
128.0721136832597
 20
-152.6869764158213
 10
128.0721136832597
 20
-152.6869764158213
 10
128.0721136832597
 20
-152.6869764158213
 10
128.0721136832597
 20
-152.572599245711
 10
128.0721136832597
 20
-152.572599245711
 97
        0
 97
        1
330
152
 92
        1
 93
        1
 72
     4
 94
        3
 73
     0
 74
     0
 95
       17
 96
       13
 40
0.0
 40
0.0
 40
0.0
 40
0.0
 40
1.0
 40
1.0
 40
1.0
 40
2.0
 40
2.0
 40
2.0
 40
3.0
 40
3.0
 40
3.0
 40
4.0
 40
4.0
 40
4.0
 40
4.0
 10
128.0721136832597
 20
-152.3293755044524
 10
128.0721136832597
 20
-152.3293755044524
 10
127.365524599235
 20
-152.3293755044524
 10
127.365524599235
 20
-152.3293755044524
 10
127.365524599235
 20
-152.3293755044524
 10
127.365524599235
 20
-152.4437526745627
 10
127.365524599235
 20
-152.4437526745627
 10
127.365524599235
 20
-152.4437526745627
 10
128.0721136832597
 20
-152.4437526745627
 10
128.0721136832597
 20
-152.4437526745627
 10
128.0721136832597
 20
-152.4437526745627
 10
128.0721136832597
 20
-152.3293755044524
 10
128.0721136832597
 20
-152.3293755044524
 97
        0
 97
        1
330
153
 92
        1
 93
        1
 72
     4
 94
        3
 73
     0
 74
     0
 95
       17
 96
       13
 40
0.0
 40
0.0
 40
0.0
 40
0.0
 40
1.0
 40
1.0
 40
1.0
 40
2.0
 40
2.0
 40
2.0
 40
3.0
 40
3.0
 40
3.0
 40
4.0
 40
4.0
 40
4.0
 40
4.0
 10
128.0721136832597
 20
-152.096831559198
 10
128.0721136832597
 20
-152.096831559198
 10
127.365524599235
 20
-152.096831559198
 10
127.365524599235
 20
-152.096831559198
 10
127.365524599235
 20
-152.096831559198
 10
127.365524599235
 20
-152.2046630478863
 10
127.365524599235
 20
-152.2046630478863
 10
127.365524599235
 20
-152.2046630478863
 10
128.0721136832597
 20
-152.2046630478863
 10
128.0721136832597
 20
-152.2046630478863
 10
128.0721136832597
 20
-152.2046630478863
 10
128.0721136832597
 20
-152.096831559198
 10
128.0721136832597
 20
-152.096831559198
 97
        0
 97
        1
330
154
 92
        1
 93
        1
 72
     4
 94
        3
 73
     0
 74
     0
 95
      203
 96
      199
 40
0.0
 40
0.0
 40
0.0
 40
0.0
 40
1.0
 40
1.0
 40
1.0
 40
2.0
 40
2.0
 40
2.0
 40
3.0
 40
3.0
 40
3.0
 40
4.0
 40
4.0
 40
4.0
 40
5.0
 40
5.0
 40
5.0
 40
6.0
 40
6.0
 40
6.0
 40
7.0
 40
7.0
 40
7.0
 40
8.0
 40
8.0
 40
8.0
 40
9.0
 40
9.0
 40
9.0
 40
10.0
 40
10.0
 40
10.0
 40
11.0
 40
11.0
 40
11.0
 40
12.0
 40
12.0
 40
12.0
 40
13.0
 40
13.0
 40
13.0
 40
14.0
 40
14.0
 40
14.0
 40
15.0
 40
15.0
 40
15.0
 40
16.0
 40
16.0
 40
16.0
 40
17.0
 40
17.0
 40
17.0
 40
18.0
 40
18.0
 40
18.0
 40
19.0
 40
19.0
 40
19.0
 40
20.0
 40
20.0
 40
20.0
 40
21.0
 40
21.0
 40
21.0
 40
22.0
 40
22.0
 40
22.0
 40
23.0
 40
23.0
 40
23.0
 40
24.0
 40
24.0
 40
24.0
 40
25.0
 40
25.0
 40
25.0
 40
26.0
 40
26.0
 40
26.0
 40
27.0
 40
27.0
 40
27.0
 40
28.0
 40
28.0
 40
28.0
 40
29.0
 40
29.0
 40
29.0
 40
30.0
 40
30.0
 40
30.0
 40
31.0
 40
31.0
 40
31.0
 40
32.0
 40
32.0
 40
32.0
 40
33.0
 40
33.0
 40
33.0
 40
34.0
 40
34.0
 40
34.0
 40
35.0
 40
35.0
 40
35.0
 40
36.0
 40
36.0
 40
36.0
 40
37.0
 40
37.0
 40
37.0
 40
38.0
 40
38.0
 40
38.0
 40
39.0
 40
39.0
 40
39.0
 40
40.0
 40
40.0
 40
40.0
 40
41.0
 40
41.0
 40
41.0
 40
42.0
 40
42.0
 40
42.0
 40
43.0
 40
43.0
 40
43.0
 40
44.0
 40
44.0
 40
44.0
 40
45.0
 40
45.0
 40
45.0
 40
46.0
 40
46.0
 40
46.0
 40
47.0
 40
47.0
 40
47.0
 40
48.0
 40
48.0
 40
48.0
 40
49.0
 40
49.0
 40
49.0
 40
50.0
 40
50.0
 40
50.0
 40
51.0
 40
51.0
 40
51.0
 40
52.0
 40
52.0
 40
52.0
 40
53.0
 40
53.0
 40
53.0
 40
54.0
 40
54.0
 40
54.0
 40
55.0
 40
55.0
 40
55.0
 40
56.0
 40
56.0
 40
56.0
 40
57.0
 40
57.0
 40
57.0
 40
58.0
 40
58.0
 40
58.0
 40
59.0
 40
59.0
 40
59.0
 40
60.0
 40
60.0
 40
60.0
 40
61.0
 40
61.0
 40
61.0
 40
62.0
 40
62.0
 40
62.0
 40
63.0
 40
63.0
 40
63.0
 40
64.0
 40
64.0
 40
64.0
 40
65.0
 40
65.0
 40
65.0
 40
66.0
 40
66.0
 40
66.0
 40
66.0
 10
127.9070936095163
 20
-151.8408609646439
 10
127.9070936095163
 20
-151.8408609646439
 10
127.3486436313573
 20
-151.8408609646439
 10
127.3486436313573
 20
-151.8408609646439
 10
127.3383083449015
 20
-151.8853026964037
 10
127.3296956061884
 20
-151.916997574868
 10
127.316948752893
 20
-151.9548936252057
 10
127.3424424594838
 20
-151.9548936252057
 10
127.3572563700704
 20
-151.9573051920454
 10
127.3634575419438
 20
-151.9573051920454
 10
127.3634575419438
 20
-151.9573051920454
 10
127.551904264987
 20
-151.9573051920454
 10
127.551904264987
 20
-151.9573051920454
 10
127.551904264987
 20
-151.9573051920454
 10
127.9263861442337
 20
-151.9573051920454
 10
127.9263861442337
 20
-151.9573051920454
 10
127.9770290478668
 20
-151.9573051920454
 10
128.2605604063029
 20
-151.94455833875
 10
128.2922552847672
 20
-151.94455833875
 10
128.2901882274761
 20
-151.9721191026319
 10
128.2881211701849
 20
-151.9910671278008
 10
128.2881211701849
 20
-152.020694948974
 10
128.2860541128937
 20
-152.0523898274383
 10
128.2860541128937
 20
-152.1877820800086
 10
128.2860541128937
 20
-152.2153428438906
 10
128.2860541128937
 20
-152.2153428438906
 10
128.2860541128937
 20
-152.4606336424404
 10
128.2860541128937
 20
-152.4606336424404
 10
128.2860541128937
 20
-152.5050753742001
 10
128.2901882274761
 20
-152.7017903264079
 10
128.2943223420583
 20
-152.8540635468559
 10
128.2943223420583
 20
-152.8540635468559
 10
128.0679795686774
 20
-152.8540635468559
 10
128.0679795686774
 20
-152.8540635468559
 10
128.0679795686774
 20
-152.8540635468559
 10
128.0700466259686
 20
-152.8203016111005
 10
128.0700466259686
 20
-152.8203016111005
 10
128.0700466259686
 20
-152.8203016111005
 10
127.3679361660747
 20
-152.8203016111005
 10
127.3679361660747
 20
-152.8203016111005
 10
127.3679361660747
 20
-152.8203016111005
 10
127.3700032233658
 20
-152.8540635468559
 10
127.3700032233658
 20
-152.8540635468559
 10
127.3700032233658
 20
-152.8540635468559
 10
127.1519286791495
 20
-152.8540635468559
 10
127.1519286791495
 20
-152.8540635468559
 10
127.1564073032803
 20
-152.7989420190919
 10
127.1564073032803
 20
-152.786539675345
 10
127.1626084751538
 20
-152.6721625052347
 10
127.1646755324449
 20
-152.6446017413527
 10
127.1667425897361
 20
-152.5112765460736
 10
127.1667425897361
 20
-152.4923285209047
 10
127.1667425897361
 20
-152.4923285209047
 10
127.1667425897361
 20
-152.2894123968234
 10
127.1667425897361
 20
-152.2894123968234
 10
127.0272162225835
 20
-152.5388373099555
 10
126.8580620342577
 20
-152.6700954479436
 10
126.7522976028605
 20
-152.7355522621633
 10
126.7522976028605
 20
-152.7355522621633
 10
126.5786647904039
 20
-152.5960258950107
 10
126.5786647904039
 20
-152.5960258950107
 10
126.6675482539234
 20
-152.5453829913775
 10
126.8115532452068
 20
-152.4585665851492
 10
126.9490125550683
 20
-152.2639186902326
 10
127.0399630758789
 20
-152.1367946668269
 10
127.1054198900986
 20
-151.993134185092
 10
127.1391818258541
 20
-151.8408609646439
 10
126.910771995182
 20
-151.8429280219351
 10
126.730938010852
 20
-151.8491291938085
 10
126.6358533754591
 20
-151.8511962510997
 10
126.6358533754591
 20
-151.8511962510997
 10
126.6358533754591
 20
-151.6737738336093
 10
126.6358533754591
 20
-151.6737738336093
 10
126.8325683276668
 20
-151.6799750054827
 10
127.1160996861029
 20
-151.6841091200651
 10
127.2663058492598
 20
-151.6841091200651
 10
127.2663058492598
 20
-151.6841091200651
 10
127.4799017693453
 20
-151.6841091200651
 10
127.4799017693453
 20
-151.6841091200651
 10
127.4799017693453
 20
-151.6841091200651
 10
127.4799017693453
 20
-151.5762776313767
 10
127.4799017693453
 20
-151.5762776313767
 10
127.4799017693453
 20
-151.5762776313767
 10
127.3338297207707
 20
-151.5762776313767
 10
127.3338297207707
 20
-151.5762776313767
 10
127.1646755324449
 20
-151.5762776313767
 10
126.9955213441191
 20
-151.5804117459591
 10
126.8284342130845
 20
-151.586957427381
 10
126.8284342130845
 20
-151.586957427381
 10
126.8284342130845
 20
-151.4157361817641
 10
126.8284342130845
 20
-151.4157361817641
 10
126.9827744908237
 20
-151.4260714682198
 10
127.1688096470272
 20
-151.4260714682198
 10
127.3338297207707
 20
-151.4260714682198
 10
127.3338297207707
 20
-151.4260714682198
 10
127.4799017693453
 20
-151.4260714682198
 10
127.4799017693453
 20
-151.4260714682198
 10
127.4799017693453
 20
-151.4260714682198
 10
127.4799017693453
 20
-151.3075601835272
 10
127.4799017693453
 20
-151.3075601835272
 10
127.4799017693453
 20
-151.3075601835272
 10
127.3486436313573
 20
-151.3075601835272
 10
127.3486436313573
 20
-151.3075601835272
 10
127.3021348423064
 20
-151.3075601835272
 10
127.0992187182252
 20
-151.3161729222404
 10
127.0568440437566
 20
-151.3161729222404
 10
126.8535834101269
 20
-151.3203070368227
 10
126.7774467999028
 20
-151.3223740941138
 10
126.6992431323877
 20
-151.324441151405
 10
126.6992431323877
 20
-151.324441151405
 10
126.6992431323877
 20
-151.1404730524926
 10
126.6992431323877
 20
-151.1404730524926
 10
126.813620302498
 20
-151.1490857912058
 10
126.8580620342577
 20
-151.1490857912058
 10
127.240812142669
 20
-151.1573540203704
 10
127.1774223857403
 20
-151.0622693849775
 10
127.1498616218583
 20
-151.0347086210955
 10
127.1140326288118
 20
-150.9988796280489
 10
127.1140326288118
 20
-150.9988796280489
 10
127.289387989011
 20
-150.9161973364029
 10
127.289387989011
 20
-150.9161973364029
 10
127.3296956061884
 20
-150.952370838998
 10
127.3741373379481
 20
-150.9947455134666
 10
127.448206890881
 20
-151.104644059446
 10
127.448206890881
 20
-151.104644059446
 10
127.3338297207707
 20
-151.15976558721
 10
127.3338297207707
 20
-151.15976558721
 10
127.3338297207707
 20
-151.15976558721
 10
127.344509516775
 20
-151.15976558721
 10
127.344509516775
 20
-151.15976558721
 10
127.344509516775
 20
-151.15976558721
 10
127.8671305018874
 20
-151.15976558721
 10
127.8671305018874
 20
-151.15976558721
 10
127.8671305018874
 20
-151.15976558721
 10
127.7717013569459
 20
-151.1153238554503
 10
127.7717013569459
 20
-151.1153238554503
 10
127.7992621208279
 20
-151.0770832955641
 10
127.8564507058831
 20
-150.9968125707577
 10
127.8712646164697
 20
-150.9227430178248
 10
127.8712646164697
 20
-150.9227430178248
 10
128.0848605365551
 20
-150.9861327747534
 10
128.0848605365551
 20
-150.9861327747534
 10
128.0934732752683
 20
-150.9881998320446
 10
128.1144883577283
 20
-150.9988796280489
 10
128.1144883577283
 20
-151.0198947105089
 10
128.1144883577283
 20
-151.0581352703951
 10
128.0490315435086
 20
-151.0581352703951
 10
128.0300835183397
 20
-151.0581352703951
 10
128.0194037223354
 20
-151.0770832955641
 10
127.9959770730357
 20
-151.1173909127415
 10
127.9663492518626
 20
-151.1573540203704
 10
128.3663248377001
 20
-151.1511528484969
 10
128.3959526588732
 20
-151.1490857912058
 10
128.4720892690972
 20
-151.1425401097838
 10
128.4720892690972
 20
-151.1425401097838
 10
128.4720892690972
 20
-151.324441151405
 10
128.4720892690972
 20
-151.324441151405
 10
128.4531412439284
 20
-151.324441151405
 10
128.4276475373375
 20
-151.3223740941138
 10
128.2075059358301
 20
-151.3141058649492
 10
128.1568630321969
 20
-151.3120388076581
 10
127.9367214306894
 20
-151.3075601835272
 10
127.8922796989297
 20
-151.3075601835272
 10
127.8922796989297
 20
-151.3075601835272
 10
127.6766167215531
 20
-151.3075601835272
 10
127.6766167215531
 20
-151.3075601835272
 10
127.6766167215531
 20
-151.3075601835272
 10
127.6766167215531
 20
-151.4260714682198
 10
127.6766167215531
 20
-151.4260714682198
 10
127.6766167215531
 20
-151.4260714682198
 10
127.8502495340096
 20
-151.4260714682198
 10
127.8502495340096
 20
-151.4260714682198
 10
128.0128580409134
 20
-151.4260714682198
 10
128.2033718212477
 20
-151.4260714682198
 10
128.3601236658266
 20
-151.4157361817641
 10
128.3601236658266
 20
-151.4157361817641
 10
128.3601236658266
 20
-151.586957427381
 10
128.3601236658266
 20
-151.586957427381
 10
128.1506618603234
 20
-151.5783446886679
 10
127.9539469081157
 20
-151.5762776313767
 10
127.8502495340096
 20
-151.5762776313767
 10
127.8502495340096
 20
-151.5762776313767
 10
127.6766167215531
 20
-151.5762776313767
 10
127.6766167215531
 20
-151.5762776313767
 10
127.6766167215531
 20
-151.5762776313767
 10
127.6766167215531
 20
-151.6841091200651
 10
127.6766167215531
 20
-151.6841091200651
 10
127.6766167215531
 20
-151.6841091200651
 10
127.9070936095163
 20
-151.6841091200651
 10
127.9070936095163
 20
-151.6841091200651
 10
128.0404188047954
 20
-151.6841091200651
 10
128.3280842778138
 20
-151.6799750054827
 10
128.537546083317
 20
-151.6737738336093
 10
128.537546083317
 20
-151.6737738336093
 10
128.537546083317
 20
-151.8511962510997
 10
128.537546083317
 20
-151.8511962510997
 10
128.3453097552401
 20
-151.8449950792262
 10
128.0321505756308
 20
-151.8408609646439
 10
127.9070936095163
 20
-151.8408609646439
 97
        0
 97
        1
330
155
 75
     2
 76
     1
 98
        1
 10
0.0
 20
0.0
450
        0
451
        0
460
0.0
461
0.0
452
        0
462
0.0
453
        0
470

  0
SPLINE
  5
157
330
14A
100
AcDbEntity
  8
レイヤー 1
100
AcDbSpline
210
0.0
220
0.0
230
1.0
 70
     9
 71
     3
 72
    29
 73
    25
 74
     0
 42
0.0000000001
 43
0.0000000001
 40
0.0
 40
0.0
 40
0.0
 40
0.0
 40
1.0
 40
1.0
 40
1.0
 40
2.0
 40
2.0
 40
2.0
 40
3.0
 40
3.0
 40
3.0
 40
4.0
 40
4.0
 40
4.0
 40
5.0
 40
5.0
 40
5.0
 40
6.0
 40
6.0
 40
6.0
 40
7.0
 40
7.0
 40
7.0
 40
8.0
 40
8.0
 40
8.0
 40
8.0
 10
129.7826035916863
 20
-151.2886121583584
 30
0.0
 10
129.7826035916863
 20
-151.2886121583584
 30
0.0
 10
129.4294813044482
 20
-151.2886121583584
 30
0.0
 10
129.4294813044482
 20
-151.2886121583584
 30
0.0
 10
129.317171191629
 20
-151.2886121583584
 30
0.0
 10
129.1776448244764
 20
-151.2948133302318
 30
0.0
 10
129.0698133357881
 20
-151.3075601835272
 30
0.0
 10
129.0698133357881
 20
-151.3075601835272
 30
0.0
 10
129.0698133357881
 20
-151.0729491809818
 30
0.0
 10
129.0698133357881
 20
-151.0729491809818
 30
0.0
 10
129.1883246204807
 20
-151.0877630915683
 30
0.0
 10
129.372292719393
 20
-151.0918972061506
 30
0.0
 10
129.4294813044482
 20
-151.0918972061506
 30
0.0
 10
129.4294813044482
 20
-151.0918972061506
 30
0.0
 10
129.7826035916863
 20
-151.0918972061506
 30
0.0
 10
129.7826035916863
 20
-151.0918972061506
 30
0.0
 10
129.8018961264037
 20
-151.0918972061506
 30
0.0
 10
130.0048122504849
 20
-151.0918972061506
 30
0.0
 10
130.1464056749287
 20
-151.0729491809818
 30
0.0
 10
130.1464056749287
 20
-151.0729491809818
 30
0.0
 10
130.1464056749287
 20
-151.3075601835272
 30
0.0
 10
130.1464056749287
 20
-151.3075601835272
 30
0.0
 10
129.9899983398983
 20
-151.2886121583584
 30
0.0
 10
129.799484559564
 20
-151.2886121583584
 30
0.0
 10
129.7826035916863
 20
-151.2886121583584
 30
0.0
  0
SPLINE
  5
158
330
14A
100
AcDbEntity
  8
レイヤー 1
100
AcDbSpline
210
0.0
220
0.0
230
1.0
 70
     9
 71
     3
 72
    47
 73
    43
 74
     0
 42
0.0000000001
 43
0.0000000001
 40
0.0
 40
0.0
 40
0.0
 40
0.0
 40
1.0
 40
1.0
 40
1.0
 40
2.0
 40
2.0
 40
2.0
 40
3.0
 40
3.0
 40
3.0
 40
4.0
 40
4.0
 40
4.0
 40
5.0
 40
5.0
 40
5.0
 40
6.0
 40
6.0
 40
6.0
 40
7.0
 40
7.0
 40
7.0
 40
8.0
 40
8.0
 40
8.0
 40
9.0
 40
9.0
 40
9.0
 40
10.0
 40
10.0
 40
10.0
 40
11.0
 40
11.0
 40
11.0
 40
12.0
 40
12.0
 40
12.0
 40
13.0
 40
13.0
 40
13.0
 40
14.0
 40
14.0
 40
14.0
 40
14.0
 10
129.8842339085011
 20
-151.8174343153442
 30
0.0
 10
129.8842339085011
 20
-151.8174343153442
 30
0.0
 10
129.7826035916863
 20
-151.8174343153442
 30
0.0
 10
129.7826035916863
 20
-151.8174343153442
 30
0.0
 10
129.7826035916863
 20
-151.9042507215725
 30
0.0
 10
129.7615885092262
 20
-152.2935465114058
 30
0.0
 10
129.5648735570185
 20
-152.5136881129132
 30
0.0
 10
129.4126003365704
 20
-152.682842301239
 30
0.0
 10
129.2052055883584
 20
-152.7524332300411
 30
0.0
 10
129.1204562394213
 20
-152.779993993923
 30
0.0
 10
129.1204562394213
 20
-152.779993993923
 30
0.0
 10
128.9258083445046
 20
-152.6129068628884
 30
0.0
 10
128.9258083445046
 20
-152.6129068628884
 30
0.0
 10
129.0233045467372
 20
-152.600160009593
 30
0.0
 10
129.1986599069364
 20
-152.5770778698418
 30
0.0
 10
129.3871066299796
 20
-152.3886311467987
 30
0.0
 10
129.4611761829125
 20
-152.3166286511569
 30
0.0
 10
129.5648735570185
 20
-152.1771022840043
 30
0.0
 10
129.5648735570185
 20
-151.8174343153442
 30
0.0
 10
129.5648735570185
 20
-151.8174343153442
 30
0.0
 10
129.3340521595067
 20
-151.8174343153442
 30
0.0
 10
129.3340521595067
 20
-151.8174343153442
 30
0.0
 10
129.1480170033032
 20
-151.8174343153442
 30
0.0
 10
128.9619818470998
 20
-151.8219129394751
 30
0.0
 10
128.7756021813478
 20
-151.8363823405131
 30
0.0
 10
128.7756021813478
 20
-151.8363823405131
 30
0.0
 10
128.7756021813478
 20
-151.6165852485542
 30
0.0
 10
128.7756021813478
 20
-151.6165852485542
 30
0.0
 10
128.9640489043909
 20
-151.6313991591407
 30
0.0
 10
129.2496473201181
 20
-151.635533273723
 30
0.0
 10
129.3340521595067
 20
-151.635533273723
 30
0.0
 10
129.3340521595067
 20
-151.635533273723
 30
0.0
 10
129.8842339085011
 20
-151.635533273723
 30
0.0
 10
129.8842339085011
 20
-151.635533273723
 30
0.0
 10
129.90318193367
 20
-151.635533273723
 30
0.0
 10
130.2204752278615
 20
-151.635533273723
 30
0.0
 10
130.4492295680821
 20
-151.6165852485542
 30
0.0
 10
130.4492295680821
 20
-151.6165852485542
 30
0.0
 10
130.4492295680821
 20
-151.8363823405131
 30
0.0
 10
130.4492295680821
 20
-151.8363823405131
 30
0.0
 10
130.260782845039
 20
-151.8219129394751
 30
0.0
 10
130.0726806315443
 20
-151.8174343153442
 30
0.0
 10
129.8842339085011
 20
-151.8174343153442
 30
0.0
  0
HATCH
  5
159
330
14A
100
AcDbEntity
  8
レイヤー 1
 62
    18
420
        0
440
 33554687
100
AcDbHatch
 10
0.0
 20
0.0
 30
0.0
210
0.0
220
0.0
230
1.0
  2
SOLID
 70
     1
 71
     1
 91
        2
 92
        1
 93
        1
 72
     4
 94
        3
 73
     0
 74
     0
 95
       29
 96
       25
 40
0.0
 40
0.0
 40
0.0
 40
0.0
 40
1.0
 40
1.0
 40
1.0
 40
2.0
 40
2.0
 40
2.0
 40
3.0
 40
3.0
 40
3.0
 40
4.0
 40
4.0
 40
4.0
 40
5.0
 40
5.0
 40
5.0
 40
6.0
 40
6.0
 40
6.0
 40
7.0
 40
7.0
 40
7.0
 40
8.0
 40
8.0
 40
8.0
 40
8.0
 10
129.7826035916863
 20
-151.2886121583584
 10
129.7826035916863
 20
-151.2886121583584
 10
129.4294813044482
 20
-151.2886121583584
 10
129.4294813044482
 20
-151.2886121583584
 10
129.317171191629
 20
-151.2886121583584
 10
129.1776448244764
 20
-151.2948133302318
 10
129.0698133357881
 20
-151.3075601835272
 10
129.0698133357881
 20
-151.3075601835272
 10
129.0698133357881
 20
-151.0729491809818
 10
129.0698133357881
 20
-151.0729491809818
 10
129.1883246204807
 20
-151.0877630915683
 10
129.372292719393
 20
-151.0918972061506
 10
129.4294813044482
 20
-151.0918972061506
 10
129.4294813044482
 20
-151.0918972061506
 10
129.7826035916863
 20
-151.0918972061506
 10
129.7826035916863
 20
-151.0918972061506
 10
129.8018961264037
 20
-151.0918972061506
 10
130.0048122504849
 20
-151.0918972061506
 10
130.1464056749287
 20
-151.0729491809818
 10
130.1464056749287
 20
-151.0729491809818
 10
130.1464056749287
 20
-151.3075601835272
 10
130.1464056749287
 20
-151.3075601835272
 10
129.9899983398983
 20
-151.2886121583584
 10
129.799484559564
 20
-151.2886121583584
 10
129.7826035916863
 20
-151.2886121583584
 97
        0
 97
        1
330
157
 92
        1
 93
        1
 72
     4
 94
        3
 73
     0
 74
     0
 95
       47
 96
       43
 40
0.0
 40
0.0
 40
0.0
 40
0.0
 40
1.0
 40
1.0
 40
1.0
 40
2.0
 40
2.0
 40
2.0
 40
3.0
 40
3.0
 40
3.0
 40
4.0
 40
4.0
 40
4.0
 40
5.0
 40
5.0
 40
5.0
 40
6.0
 40
6.0
 40
6.0
 40
7.0
 40
7.0
 40
7.0
 40
8.0
 40
8.0
 40
8.0
 40
9.0
 40
9.0
 40
9.0
 40
10.0
 40
10.0
 40
10.0
 40
11.0
 40
11.0
 40
11.0
 40
12.0
 40
12.0
 40
12.0
 40
13.0
 40
13.0
 40
13.0
 40
14.0
 40
14.0
 40
14.0
 40
14.0
 10
129.8842339085011
 20
-151.8174343153442
 10
129.8842339085011
 20
-151.8174343153442
 10
129.7826035916863
 20
-151.8174343153442
 10
129.7826035916863
 20
-151.8174343153442
 10
129.7826035916863
 20
-151.9042507215725
 10
129.7615885092262
 20
-152.2935465114058
 10
129.5648735570185
 20
-152.5136881129132
 10
129.4126003365704
 20
-152.682842301239
 10
129.2052055883584
 20
-152.7524332300411
 10
129.1204562394213
 20
-152.779993993923
 10
129.1204562394213
 20
-152.779993993923
 10
128.9258083445046
 20
-152.6129068628884
 10
128.9258083445046
 20
-152.6129068628884
 10
129.0233045467372
 20
-152.600160009593
 10
129.1986599069364
 20
-152.5770778698418
 10
129.3871066299796
 20
-152.3886311467987
 10
129.4611761829125
 20
-152.3166286511569
 10
129.5648735570185
 20
-152.1771022840043
 10
129.5648735570185
 20
-151.8174343153442
 10
129.5648735570185
 20
-151.8174343153442
 10
129.3340521595067
 20
-151.8174343153442
 10
129.3340521595067
 20
-151.8174343153442
 10
129.1480170033032
 20
-151.8174343153442
 10
128.9619818470998
 20
-151.8219129394751
 10
128.7756021813478
 20
-151.8363823405131
 10
128.7756021813478
 20
-151.8363823405131
 10
128.7756021813478
 20
-151.6165852485542
 10
128.7756021813478
 20
-151.6165852485542
 10
128.9640489043909
 20
-151.6313991591407
 10
129.2496473201181
 20
-151.635533273723
 10
129.3340521595067
 20
-151.635533273723
 10
129.3340521595067
 20
-151.635533273723
 10
129.8842339085011
 20
-151.635533273723
 10
129.8842339085011
 20
-151.635533273723
 10
129.90318193367
 20
-151.635533273723
 10
130.2204752278615
 20
-151.635533273723
 10
130.4492295680821
 20
-151.6165852485542
 10
130.4492295680821
 20
-151.6165852485542
 10
130.4492295680821
 20
-151.8363823405131
 10
130.4492295680821
 20
-151.8363823405131
 10
130.260782845039
 20
-151.8219129394751
 10
130.0726806315443
 20
-151.8174343153442
 10
129.8842339085011
 20
-151.8174343153442
 97
        0
 97
        1
330
158
 75
     2
 76
     1
 98
        1
 10
0.0
 20
0.0
450
        0
451
        0
460
0.0
461
0.0
452
        0
462
0.0
453
        0
470

  0
SPLINE
  5
15A
330
14A
100
AcDbEntity
  8
レイヤー 1
100
AcDbSpline
210
0.0
220
0.0
230
1.0
 70
     9
 71
     3
 72
    29
 73
    25
 74
     0
 42
0.0000000001
 43
0.0000000001
 40
0.0
 40
0.0
 40
0.0
 40
0.0
 40
1.0
 40
1.0
 40
1.0
 40
2.0
 40
2.0
 40
2.0
 40
3.0
 40
3.0
 40
3.0
 40
4.0
 40
4.0
 40
4.0
 40
5.0
 40
5.0
 40
5.0
 40
6.0
 40
6.0
 40
6.0
 40
7.0
 40
7.0
 40
7.0
 40
8.0
 40
8.0
 40
8.0
 40
8.0
 10
131.730116069498
 20
-151.9803873317965
 30
0.0
 10
131.730116069498
 20
-151.9803873317965
 30
0.0
 10
131.2457356442719
 20
-151.9803873317965
 30
0.0
 10
131.2457356442719
 20
-151.9803873317965
 30
0.0
 10
131.2181748803899
 20
-151.9803873317965
 30
0.0
 10
130.9008815861984
 20
-151.9803873317965
 30
0.0
 10
130.689352723404
 20
-152.0058810383874
 30
0.0
 10
130.689352723404
 20
-152.0058810383874
 30
0.0
 10
130.689352723404
 20
-151.7750596408757
 30
0.0
 10
130.689352723404
 20
-151.7750596408757
 30
0.0
 10
130.8478271157255
 20
-151.7984862901754
 30
0.0
 10
131.0383408960599
 20
-151.8005533474665
 30
0.0
 10
131.2457356442719
 20
-151.8005533474665
 30
0.0
 10
131.2457356442719
 20
-151.8005533474665
 30
0.0
 10
131.730116069498
 20
-151.8005533474665
 30
0.0
 10
131.730116069498
 20
-151.8005533474665
 30
0.0
 10
131.9161512257015
 20
-151.8005533474665
 30
0.0
 10
132.102186381905
 20
-151.7984862901754
 30
0.0
 10
132.2864989903659
 20
-151.7750596408757
 30
0.0
 10
132.2864989903659
 20
-151.7750596408757
 30
0.0
 10
132.2864989903659
 20
-152.0058810383874
 30
0.0
 10
132.2864989903659
 20
-152.0058810383874
 30
0.0
 10
132.102186381905
 20
-151.9824543890877
 30
0.0
 10
131.854828526064
 20
-151.9803873317965
 30
0.0
 10
131.730116069498
 20
-151.9803873317965
 30
0.0
  0
HATCH
  5
15B
330
14A
100
AcDbEntity
  8
レイヤー 1
 62
    18
420
        0
440
 33554687
100
AcDbHatch
 10
0.0
 20
0.0
 30
0.0
210
0.0
220
0.0
230
1.0
  2
SOLID
 70
     1
 71
     1
 91
        1
 92
        1
 93
        1
 72
     4
 94
        3
 73
     0
 74
     0
 95
       29
 96
       25
 40
0.0
 40
0.0
 40
0.0
 40
0.0
 40
1.0
 40
1.0
 40
1.0
 40
2.0
 40
2.0
 40
2.0
 40
3.0
 40
3.0
 40
3.0
 40
4.0
 40
4.0
 40
4.0
 40
5.0
 40
5.0
 40
5.0
 40
6.0
 40
6.0
 40
6.0
 40
7.0
 40
7.0
 40
7.0
 40
8.0
 40
8.0
 40
8.0
 40
8.0
 10
131.730116069498
 20
-151.9803873317965
 10
131.730116069498
 20
-151.9803873317965
 10
131.2457356442719
 20
-151.9803873317965
 10
131.2457356442719
 20
-151.9803873317965
 10
131.2181748803899
 20
-151.9803873317965
 10
130.9008815861984
 20
-151.9803873317965
 10
130.689352723404
 20
-152.0058810383874
 10
130.689352723404
 20
-152.0058810383874
 10
130.689352723404
 20
-151.7750596408757
 10
130.689352723404
 20
-151.7750596408757
 10
130.8478271157255
 20
-151.7984862901754
 10
131.0383408960599
 20
-151.8005533474665
 10
131.2457356442719
 20
-151.8005533474665
 10
131.2457356442719
 20
-151.8005533474665
 10
131.730116069498
 20
-151.8005533474665
 10
131.730116069498
 20
-151.8005533474665
 10
131.9161512257015
 20
-151.8005533474665
 10
132.102186381905
 20
-151.7984862901754
 10
132.2864989903659
 20
-151.7750596408757
 10
132.2864989903659
 20
-151.7750596408757
 10
132.2864989903659
 20
-152.0058810383874
 10
132.2864989903659
 20
-152.0058810383874
 10
132.102186381905
 20
-151.9824543890877
 10
131.854828526064
 20
-151.9803873317965
 10
131.730116069498
 20
-151.9803873317965
 97
        0
 97
        1
330
15A
 75
     2
 76
     1
 98
        1
 10
0.0
 20
0.0
450
        0
451
        0
460
0.0
461
0.0
452
        0
462
0.0
453
        0
470

  0
SPLINE
  5
15C
330
14A
100
AcDbEntity
  8
レイヤー 1
100
AcDbSpline
210
0.0
220
0.0
230
1.0
 70
     9
 71
     3
 72
    47
 73
    43
 74
     0
 42
0.0000000001
 43
0.0000000001
 40
0.0
 40
0.0
 40
0.0
 40
0.0
 40
1.0
 40
1.0
 40
1.0
 40
2.0
 40
2.0
 40
2.0
 40
3.0
 40
3.0
 40
3.0
 40
4.0
 40
4.0
 40
4.0
 40
5.0
 40
5.0
 40
5.0
 40
6.0
 40
6.0
 40
6.0
 40
7.0
 40
7.0
 40
7.0
 40
8.0
 40
8.0
 40
8.0
 40
9.0
 40
9.0
 40
9.0
 40
10.0
 40
10.0
 40
10.0
 40
11.0
 40
11.0
 40
11.0
 40
12.0
 40
12.0
 40
12.0
 40
13.0
 40
13.0
 40
13.0
 40
14.0
 40
14.0
 40
14.0
 40
14.0
 10
133.950135600193
 20
-151.386108360591
 30
0.0
 10
133.880544671391
 20
-151.6651610948962
 30
0.0
 10
133.8040635516184
 20
-151.9697075357923
 30
0.0
 10
133.4912488815577
 20
-152.3018147405704
 30
0.0
 10
133.2542263121725
 20
-152.551584163251
 30
0.0
 10
133.0089355136227
 20
-152.6511474227747
 30
0.0
 10
132.9031710822256
 20
-152.6931775876948
 30
0.0
 10
132.9031710822256
 20
-152.6931775876948
 30
0.0
 10
132.708523187309
 20
-152.5112765460736
 30
0.0
 10
132.708523187309
 20
-152.5112765460736
 30
0.0
 10
132.8945583435124
 20
-152.4647677570227
 30
0.0
 10
133.2562933694637
 20
-152.3717501789209
 30
0.0
 10
133.5525715811952
 20
-151.8766899576905
 30
0.0
 10
133.7131130308078
 20
-151.6100395671322
 30
0.0
 10
133.7258598841033
 20
-151.4367512642241
 30
0.0
 10
133.7344726228164
 20
-151.3458007434135
 30
0.0
 10
133.7344726228164
 20
-151.3458007434135
 30
0.0
 10
133.2287326055817
 20
-151.3458007434135
 30
0.0
 10
133.2287326055817
 20
-151.3458007434135
 30
0.0
 10
133.1102213208891
 20
-151.3458007434135
 30
0.0
 10
132.6892306525916
 20
-151.3647487685824
 30
0.0
 10
132.5369574321435
 20
-151.3754285645867
 30
0.0
 10
132.5369574321435
 20
-151.3754285645867
 30
0.0
 10
132.5369574321435
 20
-151.1659667590835
 30
0.0
 10
132.5369574321435
 20
-151.1659667590835
 30
0.0
 10
132.6788953661358
 20
-151.1787136123789
 30
0.0
 10
132.9558810431499
 20
-151.1828477269612
 30
0.0
 10
133.0723252705513
 20
-151.1828477269612
 30
0.0
 10
133.0723252705513
 20
-151.1828477269612
 30
0.0
 10
133.4275146150806
 20
-151.1828477269612
 30
0.0
 10
133.4275146150806
 20
-151.1828477269612
 30
0.0
 10
133.4550753789626
 20
-151.1828477269612
 30
0.0
 10
133.6159613381238
 20
-151.1807806696701
 30
0.0
 10
133.7258598841033
 20
-151.1659667590835
 30
0.0
 10
133.7830484691584
 20
-151.15976558721
 30
0.0
 10
133.7999294370361
 20
-151.1404730524926
 30
0.0
 10
133.8233560863358
 20
-151.1173909127415
 30
0.0
 10
133.8233560863358
 20
-151.1173909127415
 30
0.0
 10
134.0114582998304
 20
-151.2675970758984
 30
0.0
 10
134.0114582998304
 20
-151.2675970758984
 30
0.0
 10
133.9966443892439
 20
-151.2972248970715
 30
0.0
 10
133.9863091027881
 20
-151.3161729222404
 30
0.0
 10
133.950135600193
 20
-151.386108360591
 30
0.0
  0
HATCH
  5
15D
330
14A
100
AcDbEntity
  8
レイヤー 1
 62
    18
420
        0
440
 33554687
100
AcDbHatch
 10
0.0
 20
0.0
 30
0.0
210
0.0
220
0.0
230
1.0
  2
SOLID
 70
     1
 71
     1
 91
        1
 92
        1
 93
        1
 72
     4
 94
        3
 73
     0
 74
     0
 95
       47
 96
       43
 40
0.0
 40
0.0
 40
0.0
 40
0.0
 40
1.0
 40
1.0
 40
1.0
 40
2.0
 40
2.0
 40
2.0
 40
3.0
 40
3.0
 40
3.0
 40
4.0
 40
4.0
 40
4.0
 40
5.0
 40
5.0
 40
5.0
 40
6.0
 40
6.0
 40
6.0
 40
7.0
 40
7.0
 40
7.0
 40
8.0
 40
8.0
 40
8.0
 40
9.0
 40
9.0
 40
9.0
 40
10.0
 40
10.0
 40
10.0
 40
11.0
 40
11.0
 40
11.0
 40
12.0
 40
12.0
 40
12.0
 40
13.0
 40
13.0
 40
13.0
 40
14.0
 40
14.0
 40
14.0
 40
14.0
 10
133.950135600193
 20
-151.386108360591
 10
133.880544671391
 20
-151.6651610948962
 10
133.8040635516184
 20
-151.9697075357923
 10
133.4912488815577
 20
-152.3018147405704
 10
133.2542263121725
 20
-152.551584163251
 10
133.0089355136227
 20
-152.6511474227747
 10
132.9031710822256
 20
-152.6931775876948
 10
132.9031710822256
 20
-152.6931775876948
 10
132.708523187309
 20
-152.5112765460736
 10
132.708523187309
 20
-152.5112765460736
 10
132.8945583435124
 20
-152.4647677570227
 10
133.2562933694637
 20
-152.3717501789209
 10
133.5525715811952
 20
-151.8766899576905
 10
133.7131130308078
 20
-151.6100395671322
 10
133.7258598841033
 20
-151.4367512642241
 10
133.7344726228164
 20
-151.3458007434135
 10
133.7344726228164
 20
-151.3458007434135
 10
133.2287326055817
 20
-151.3458007434135
 10
133.2287326055817
 20
-151.3458007434135
 10
133.1102213208891
 20
-151.3458007434135
 10
132.6892306525916
 20
-151.3647487685824
 10
132.5369574321435
 20
-151.3754285645867
 10
132.5369574321435
 20
-151.3754285645867
 10
132.5369574321435
 20
-151.1659667590835
 10
132.5369574321435
 20
-151.1659667590835
 10
132.6788953661358
 20
-151.1787136123789
 10
132.9558810431499
 20
-151.1828477269612
 10
133.0723252705513
 20
-151.1828477269612
 10
133.0723252705513
 20
-151.1828477269612
 10
133.4275146150806
 20
-151.1828477269612
 10
133.4275146150806
 20
-151.1828477269612
 10
133.4550753789626
 20
-151.1828477269612
 10
133.6159613381238
 20
-151.1807806696701
 10
133.7258598841033
 20
-151.1659667590835
 10
133.7830484691584
 20
-151.15976558721
 10
133.7999294370361
 20
-151.1404730524926
 10
133.8233560863358
 20
-151.1173909127415
 10
133.8233560863358
 20
-151.1173909127415
 10
134.0114582998304
 20
-151.2675970758984
 10
134.0114582998304
 20
-151.2675970758984
 10
133.9966443892439
 20
-151.2972248970715
 10
133.9863091027881
 20
-151.3161729222404
 10
133.950135600193
 20
-151.386108360591
 97
        0
 97
        1
330
15C
 75
     2
 76
     1
 98
        1
 10
0.0
 20
0.0
450
        0
451
        0
460
0.0
461
0.0
452
        0
462
0.0
453
        0
470

  0
SPLINE
  5
15E
330
14A
100
AcDbEntity
  8
レイヤー 1
100
AcDbSpline
210
0.0
220
0.0
230
1.0
 70
    11
 71
     3
 72
    17
 73
    13
 74
     0
 42
0.0000000001
 43
0.0000000001
 40
0.0
 40
0.0
 40
0.0
 40
0.0
 40
1.0
 40
1.0
 40
1.0
 40
2.0
 40
2.0
 40
2.0
 40
3.0
 40
3.0
 40
3.0
 40
4.0
 40
4.0
 40
4.0
 40
4.0
 10
134.3404649186718
 20
-151.1680338163746
 30
0.0
 10
134.3404649186718
 20
-151.2272894587209
 30
0.0
 10
134.3869737077227
 20
-151.2737982477718
 30
0.0
 10
134.446229350069
 20
-151.2737982477718
 30
0.0
 10
134.5054849924153
 20
-151.2737982477718
 30
0.0
 10
134.5540608387573
 20
-151.2272894587209
 30
0.0
 10
134.5540608387573
 20
-151.1680338163746
 30
0.0
 10
134.5540608387573
 20
-151.1087781740283
 30
0.0
 10
134.5054849924153
 20
-151.0602023276863
 30
0.0
 10
134.446229350069
 20
-151.0602023276863
 30
0.0
 10
134.3869737077227
 20
-151.0602023276863
 30
0.0
 10
134.3404649186718
 20
-151.1087781740283
 30
0.0
 10
134.3404649186718
 20
-151.1680338163746
 30
0.0
  0
SPLINE
  5
15F
330
14A
100
AcDbEntity
  8
レイヤー 1
100
AcDbSpline
210
0.0
220
0.0
230
1.0
 70
     9
 71
     3
 72
    17
 73
    13
 74
     0
 42
0.0000000001
 43
0.0000000001
 40
0.0
 40
0.0
 40
0.0
 40
0.0
 40
1.0
 40
1.0
 40
1.0
 40
2.0
 40
2.0
 40
2.0
 40
3.0
 40
3.0
 40
3.0
 40
4.0
 40
4.0
 40
4.0
 40
4.0
 10
134.6556911555722
 20
-151.1680338163746
 30
0.0
 10
134.6556911555722
 20
-151.2824109864849
 30
0.0
 10
134.5626735774704
 20
-151.3774956218778
 30
0.0
 10
134.446229350069
 20
-151.3774956218778
 30
0.0
 10
134.3318521799587
 20
-151.3774956218778
 30
0.0
 10
134.2367675445658
 20
-151.2824109864849
 30
0.0
 10
134.2367675445658
 20
-151.1680338163746
 30
0.0
 10
134.2367675445658
 20
-151.0515895889732
 30
0.0
 10
134.3318521799587
 20
-150.9585720108715
 30
0.0
 10
134.446229350069
 20
-150.9585720108715
 30
0.0
 10
134.5606065201793
 20
-150.9585720108715
 30
0.0
 10
134.6556911555722
 20
-151.0515895889732
 30
0.0
 10
134.6556911555722
 20
-151.1680338163746
 30
0.0
  0
HATCH
  5
160
330
14A
100
AcDbEntity
  8
レイヤー 1
 62
    18
420
        0
440
 33554687
100
AcDbHatch
 10
0.0
 20
0.0
 30
0.0
210
0.0
220
0.0
230
1.0
  2
SOLID
 70
     1
 71
     1
 91
        2
 92
        1
 93
        1
 72
     4
 94
        3
 73
     0
 74
     0
 95
       17
 96
       13
 40
0.0
 40
0.0
 40
0.0
 40
0.0
 40
1.0
 40
1.0
 40
1.0
 40
2.0
 40
2.0
 40
2.0
 40
3.0
 40
3.0
 40
3.0
 40
4.0
 40
4.0
 40
4.0
 40
4.0
 10
134.3404649186718
 20
-151.1680338163746
 10
134.3404649186718
 20
-151.2272894587209
 10
134.3869737077227
 20
-151.2737982477718
 10
134.446229350069
 20
-151.2737982477718
 10
134.5054849924153
 20
-151.2737982477718
 10
134.5540608387573
 20
-151.2272894587209
 10
134.5540608387573
 20
-151.1680338163746
 10
134.5540608387573
 20
-151.1087781740283
 10
134.5054849924153
 20
-151.0602023276863
 10
134.446229350069
 20
-151.0602023276863
 10
134.3869737077227
 20
-151.0602023276863
 10
134.3404649186718
 20
-151.1087781740283
 10
134.3404649186718
 20
-151.1680338163746
 97
        0
 97
        1
330
15E
 92
        1
 93
        1
 72
     4
 94
        3
 73
     0
 74
     0
 95
       17
 96
       13
 40
0.0
 40
0.0
 40
0.0
 40
0.0
 40
1.0
 40
1.0
 40
1.0
 40
2.0
 40
2.0
 40
2.0
 40
3.0
 40
3.0
 40
3.0
 40
4.0
 40
4.0
 40
4.0
 40
4.0
 10
134.6556911555722
 20
-151.1680338163746
 10
134.6556911555722
 20
-151.2824109864849
 10
134.5626735774704
 20
-151.3774956218778
 10
134.446229350069
 20
-151.3774956218778
 10
134.3318521799587
 20
-151.3774956218778
 10
134.2367675445658
 20
-151.2824109864849
 10
134.2367675445658
 20
-151.1680338163746
 10
134.2367675445658
 20
-151.0515895889732
 10
134.3318521799587
 20
-150.9585720108715
 10
134.446229350069
 20
-150.9585720108715
 10
134.5606065201793
 20
-150.9585720108715
 10
134.6556911555722
 20
-151.0515895889732
 10
134.6556911555722
 20
-151.1680338163746
 97
        0
 97
        1
330
15F
 75
     2
 76
     1
 98
        1
 10
0.0
 20
0.0
450
        0
451
        0
460
0.0
461
0.0
452
        0
462
0.0
453
        0
470

  0
ENDBLK
  5
14D
330
14A
100
AcDbEntity
  8
0
100
AcDbBlockEnd
  0
ENDSEC
  0
SECTION
  2
ENTITIES
  0
LINE
  5
79
330
70
100
AcDbEntity
  8
レイヤー 1
  6
AI-Linetype-0
 62
   154
420
    23468
370
    25
100
AcDbLine
 10
77.37525306694042
 20
-148.0862615451307
 30
0.0
 11
87.37533864515032
 21
-148.0862615451307
 31
0.0
  0
LINE
  5
7B
330
70
100
AcDbEntity
  8
レイヤー 1
  6
AI-Linetype-1
 62
   154
420
    23468
370
    25
100
AcDbLine
 10
116.9301076133672
 20
-148.0862615451307
 30
0.0
 11
127.4300792899351
 21
-148.0862615451307
 31
0.0
  0
LINE
  5
7D
330
70
100
AcDbEntity
  8
レイヤー 1
 62
    18
420
        0
370
    25
100
AcDbLine
 10
107.3758273015616
 20
-152.4808495995875
 30
0.0
 11
97.37609450112088
 21
-152.4808495995875
 31
0.0
  0
LINE
  5
7E
330
70
100
AcDbEntity
  8
レイヤー 1
 62
    18
420
        0
370
    25
100
AcDbLine
 10
77.37525306694042
 20
-146.9804090454073
 30
0.0
 11
77.37525306694042
 21
-147.4806126563935
 31
0.0
  0
LINE
  5
7F
330
70
100
AcDbEntity
  8
レイヤー 1
 62
    18
420
        0
370
    25
100
AcDbLine
 10
97.37609450112088
 20
-147.4806126563935
 30
0.0
 11
77.37525306694042
 21
-147.4806126563935
 31
0.0
  0
LINE
  5
80
330
70
100
AcDbEntity
  8
レイヤー 1
 62
    18
420
        0
370
    25
100
AcDbLine
 10
77.37525306694042
 20
-146.9804090454073
 30
0.0
 11
77.8888974982807
 21
-147.3628201564227
 31
0.0
  0
LINE
  5
81
330
70
100
AcDbEntity
  8
レイヤー 1
 62
    18
420
        0
370
    25
100
AcDbLine
 10
77.8888974982807
 20
-147.3628201564227
 30
0.0
 11
78.37431970811909
 21
-146.9452723787496
 31
0.0
  0
LINE
  5
82
330
70
100
AcDbEntity
  8
レイヤー 1
 62
    18
420
        0
370
    25
100
AcDbLine
 10
78.8883546190639
 20
-147.3269779342095
 30
0.0
 11
79.3737391270659
 21
-146.9094301565363
 31
0.0
  0
LINE
  5
83
330
70
100
AcDbEntity
  8
レイヤー 1
 62
    18
420
        0
370
    25
100
AcDbLine
 10
78.37431970811909
 20
-146.9452723787496
 30
0.0
 11
78.8883546190639
 21
-147.3269779342095
 31
0.0
  0
LINE
  5
84
330
70
100
AcDbEntity
  8
レイヤー 1
 62
    18
420
        0
370
    25
100
AcDbLine
 10
79.3737391270659
 20
-146.9094301565363
 30
0.0
 11
79.88777406325836
 21
-147.2911357119962
 31
0.0
  0
LINE
  5
85
330
70
100
AcDbEntity
  8
レイヤー 1
 62
    18
420
        0
370
    25
100
AcDbLine
 10
79.88777406325836
 20
-147.2911357119962
 30
0.0
 11
80.37315854601303
 21
-146.8735879343228
 31
0.0
  0
LINE
  5
86
330
70
100
AcDbEntity
  8
レイヤー 1
 62
    18
420
        0
370
    25
100
AcDbLine
 10
80.37315854601303
 20
-146.8735879343228
 30
0.0
 11
80.88719350745282
 21
-147.2553287675608
 31
0.0
  0
LINE
  5
87
330
70
100
AcDbEntity
  8
レイヤー 1
 62
    18
420
        0
370
    25
100
AcDbLine
 10
80.88719350745282
 20
-147.2553287675608
 30
0.0
 11
81.37226295177599
 21
-146.8377809898877
 31
0.0
  0
LINE
  5
88
330
70
100
AcDbEntity
  8
レイヤー 1
 62
    18
420
        0
370
    25
100
AcDbLine
 10
81.37226295177599
 20
-146.8377809898877
 30
0.0
 11
81.88626017386985
 21
-147.2194865453476
 31
0.0
  0
LINE
  5
89
330
70
100
AcDbEntity
  8
レイヤー 1
 62
    18
420
        0
370
    25
100
AcDbLine
 10
81.88626017386985
 20
-147.2194865453476
 30
0.0
 11
82.37203517374855
 21
-146.8019387676741
 31
0.0
  0
LINE
  5
8A
330
70
100
AcDbEntity
  8
レイヤー 1
 62
    18
420
        0
370
    25
100
AcDbLine
 10
82.37203517374855
 20
-146.8019387676741
 30
0.0
 11
82.88603239584206
 21
-147.1843498786896
 31
0.0
  0
LINE
  5
8B
330
70
100
AcDbEntity
  8
レイヤー 1
 62
    18
420
        0
370
    25
100
AcDbLine
 10
82.88603239584206
 20
-147.1843498786896
 30
0.0
 11
83.37110184016523
 21
-146.7668021010164
 31
0.0
  0
LINE
  5
8C
330
70
100
AcDbEntity
  8
レイヤー 1
 62
    18
420
        0
370
    25
100
AcDbLine
 10
83.37110184016523
 20
-146.7668021010164
 30
0.0
 11
83.88509906225907
 21
-147.1485076564763
 31
0.0
  0
LINE
  5
8D
330
70
100
AcDbEntity
  8
レイヤー 1
 62
    18
420
        0
370
    25
100
AcDbLine
 10
83.88509906225907
 20
-147.1485076564763
 30
0.0
 11
84.37052128436
 21
-146.7309598788031
 31
0.0
  0
LINE
  5
8E
330
70
100
AcDbEntity
  8
レイヤー 1
 62
    18
420
        0
370
    25
100
AcDbLine
 10
84.88451850645352
 20
-147.1127007120409
 30
0.0
 11
85.36994072855447
 21
-146.6951529343674
 31
0.0
  0
LINE
  5
8F
330
70
100
AcDbEntity
  8
レイヤー 1
 62
    18
420
        0
370
    25
100
AcDbLine
 10
84.37052128436
 20
-146.7309598788031
 30
0.0
 11
84.88451850645352
 21
-147.1127007120409
 31
0.0
  0
LINE
  5
90
330
70
100
AcDbEntity
  8
レイヤー 1
 62
    18
420
        0
370
    25
100
AcDbLine
 10
85.36994072855447
 20
-146.6951529343674
 30
0.0
 11
85.88393795064831
 21
-147.0768584898276
 31
0.0
  0
LINE
  5
91
330
70
100
AcDbEntity
  8
レイヤー 1
 62
    18
420
        0
370
    25
100
AcDbLine
 10
85.88393795064831
 20
-147.0768584898276
 30
0.0
 11
86.36936017274893
 21
-146.6593107121541
 31
0.0
  0
LINE
  5
92
330
70
100
AcDbEntity
  8
レイヤー 1
 62
    18
420
        0
370
    25
100
AcDbLine
 10
86.88303726882109
 20
-147.0410162676144
 30
0.0
 11
87.36877961694371
 21
-146.6235037677187
 31
0.0
  0
LINE
  5
93
330
70
100
AcDbEntity
  8
レイヤー 1
 62
    18
420
        0
370
    25
100
AcDbLine
 10
86.36936017274893
 20
-146.6593107121541
 30
0.0
 11
86.88303726882109
 21
-147.0410162676144
 31
0.0
  0
LINE
  5
94
330
70
100
AcDbEntity
  8
レイヤー 1
 62
    18
420
        0
370
    25
100
AcDbLine
 10
87.88277683903723
 20
-147.0058796009563
 30
0.0
 11
88.3678462833604
 21
-146.5883318232832
 31
0.0
  0
LINE
  5
95
330
70
100
AcDbEntity
  8
レイヤー 1
 62
    18
420
        0
370
    25
100
AcDbLine
 10
87.36877961694371
 20
-146.6235037677187
 30
0.0
 11
87.88277683903723
 21
-147.0058796009563
 31
0.0
  0
LINE
  5
96
330
70
100
AcDbEntity
  8
レイヤー 1
 62
    18
420
        0
370
    25
100
AcDbLine
 10
88.3678462833604
 20
-146.5883318232832
 30
0.0
 11
88.88187610671534
 21
-146.9700726565213
 31
0.0
  0
LINE
  5
97
330
70
100
AcDbEntity
  8
レイヤー 1
 62
    18
420
        0
370
    25
100
AcDbLine
 10
88.88187610671534
 20
-146.9700726565213
 30
0.0
 11
89.36761850533295
 21
-146.5525248788478
 31
0.0
  0
LINE
  5
98
330
70
100
AcDbEntity
  8
レイヤー 1
 62
    18
420
        0
370
    25
100
AcDbLine
 10
89.36761850533295
 20
-146.5525248788478
 30
0.0
 11
89.88129552566279
 21
-146.9342304343077
 31
0.0
  0
LINE
  5
99
330
70
100
AcDbEntity
  8
レイヤー 1
 62
    18
420
        0
370
    25
100
AcDbLine
 10
89.88129552566279
 20
-146.9342304343077
 30
0.0
 11
90.36671773550054
 21
-146.5166826566345
 31
0.0
  0
LINE
  5
9A
330
70
100
AcDbEntity
  8
レイヤー 1
 62
    18
420
        0
370
    25
100
AcDbLine
 10
90.36671773550054
 20
-146.5166826566345
 30
0.0
 11
90.8807149446096
 21
-146.8984234898723
 31
0.0
  0
LINE
  5
9B
330
70
100
AcDbEntity
  8
レイヤー 1
 62
    18
420
        0
370
    25
100
AcDbLine
 10
90.8807149446096
 20
-146.8984234898723
 30
0.0
 11
91.36578437667857
 21
-146.4808757121988
 31
0.0
  0
LINE
  5
9C
330
70
100
AcDbEntity
  8
レイヤー 1
 62
    18
420
        0
370
    25
100
AcDbLine
 10
91.36578437667857
 20
-146.4808757121988
 30
0.0
 11
91.87978158578827
 21
-146.8625812676591
 31
0.0
  0
LINE
  5
9D
330
70
100
AcDbEntity
  8
レイヤー 1
 62
    18
420
        0
370
    25
100
AcDbLine
 10
91.87978158578827
 20
-146.8625812676591
 30
0.0
 11
92.36555657339481
 21
-146.4450334899856
 31
0.0
  0
LINE
  5
9E
330
70
100
AcDbEntity
  8
レイヤー 1
 62
    18
420
        0
370
    25
100
AcDbLine
 10
92.36555657339481
 20
-146.4450334899856
 30
0.0
 11
92.87955378250385
 21
-146.827444601001
 31
0.0
  0
LINE
  5
9F
330
70
100
AcDbEntity
  8
レイヤー 1
 62
    18
420
        0
370
    25
100
AcDbLine
 10
92.87955378250385
 20
-146.827444601001
 30
0.0
 11
93.36462321457316
 21
-146.4098968233278
 31
0.0
  0
LINE
  5
A0
330
70
100
AcDbEntity
  8
レイヤー 1
 62
    18
420
        0
370
    25
100
AcDbLine
 10
93.36462321457316
 20
-146.4098968233278
 30
0.0
 11
93.87862042368222
 21
-146.7916023787877
 31
0.0
  0
LINE
  5
A1
330
70
100
AcDbEntity
  8
レイヤー 1
 62
    18
420
        0
370
    25
100
AcDbLine
 10
93.87862042368222
 20
-146.7916023787877
 30
0.0
 11
94.36439541128907
 21
-146.3740546011146
 31
0.0
  0
LINE
  5
A2
330
70
100
AcDbEntity
  8
レイヤー 1
 62
    18
420
        0
370
    25
100
AcDbLine
 10
94.36439541128907
 20
-146.3740546011146
 30
0.0
 11
94.87839262039845
 21
-146.7557954343523
 31
0.0
  0
LINE
  5
A3
330
70
100
AcDbEntity
  8
レイヤー 1
 62
    18
420
        0
370
    25
100
AcDbLine
 10
94.87839262039845
 20
-146.7557954343523
 30
0.0
 11
95.36346205246742
 21
-146.3382476566788
 31
0.0
  0
LINE
  5
A4
330
70
100
AcDbEntity
  8
レイヤー 1
 62
    18
420
        0
370
    25
100
AcDbLine
 10
95.36346205246742
 20
-146.3382476566788
 30
0.0
 11
95.87749453935336
 21
-146.7199532121391
 31
0.0
  0
LINE
  5
A5
330
70
100
AcDbEntity
  8
レイヤー 1
 62
    18
420
        0
370
    25
100
AcDbLine
 10
95.87749453935336
 20
-146.7199532121391
 30
0.0
 11
96.36256397142265
 21
-146.3024054344656
 31
0.0
  0
LINE
  5
A6
330
70
100
AcDbEntity
  8
レイヤー 1
 62
    18
420
        0
370
    25
100
AcDbLine
 10
96.36256397142265
 20
-146.3024054344656
 30
0.0
 11
96.87656118053171
 21
-146.6841109899258
 31
0.0
  0
LINE
  5
A7
330
70
100
AcDbEntity
  8
レイヤー 1
 62
    18
420
        0
370
    25
100
AcDbLine
 10
96.87656118053171
 20
-146.6841109899258
 30
0.0
 11
97.36230089036169
 21
-146.2665632122523
 31
0.0
  0
LINE
  5
A8
330
70
100
AcDbEntity
  8
レイヤー 1
 62
    18
420
        0
370
    25
100
AcDbLine
 10
97.44287395838261
 20
-146.2183384900422
 30
0.0
 11
98.37653697559748
 21
-146.2183384900422
 31
0.0
  0
LINE
  5
A9
330
70
100
AcDbEntity
  8
レイヤー 1
 62
    18
420
        0
370
    25
100
AcDbLine
 10
98.37653697559748
 20
-146.2183384900422
 30
0.0
 11
98.37653697559748
 21
-151.4803718220601
 31
0.0
  0
LINE
  5
AA
330
70
100
AcDbEntity
  8
レイヤー 1
 62
    18
420
        0
370
    25
100
AcDbLine
 10
97.37609450112088
 20
-147.4806126563935
 30
0.0
 11
97.37609450112088
 21
-152.4808495995875
 31
0.0
  0
LINE
  5
AB
330
70
100
AcDbEntity
  8
レイヤー 1
 62
    18
420
        0
370
    25
100
AcDbLine
 10
106.3760551048458
 20
-151.4803718220601
 30
0.0
 11
98.37653697559748
 21
-151.4803718220601
 31
0.0
  0
LINE
  5
AC
330
70
100
AcDbEntity
  8
レイヤー 1
 62
    18
420
        0
370
    25
100
AcDbLine
 10
117.4368728782163
 20
-146.6235037677187
 30
0.0
 11
116.9228756691073
 21
-147.0058796009563
 31
0.0
  0
LINE
  5
AD
330
70
100
AcDbEntity
  8
レイヤー 1
 62
    18
420
        0
370
    25
100
AcDbLine
 10
122.4336524729601
 20
-146.8019387676741
 30
0.0
 11
121.919655263851
 21
-147.1843498786896
 31
0.0
  0
LINE
  5
AE
330
70
100
AcDbEntity
  8
レイヤー 1
 62
    18
420
        0
370
    25
100
AcDbLine
 10
117.9219423102856
 20
-147.0410162676144
 30
0.0
 11
117.4368728782163
 21
-146.6235037677187
 31
0.0
  0
LINE
  5
AF
330
70
100
AcDbEntity
  8
レイヤー 1
 62
    18
420
        0
370
    25
100
AcDbLine
 10
118.9217145070015
 20
-147.0768584898276
 30
0.0
 11
118.4359747971716
 21
-146.6593107121541
 31
0.0
  0
LINE
  5
B0
330
70
100
AcDbEntity
  8
レイヤー 1
 62
    18
420
        0
370
    25
100
AcDbLine
 10
116.9228756691073
 20
-147.0058796009563
 30
0.0
 11
116.4371359592773
 21
-146.5883318232832
 31
0.0
  0
LINE
  5
B1
330
70
100
AcDbEntity
  8
レイヤー 1
 62
    18
420
        0
370
    25
100
AcDbLine
 10
118.4359747971716
 20
-146.6593107121541
 30
0.0
 11
117.9219423102856
 21
-147.0410162676144
 31
0.0
  0
LINE
  5
B2
330
70
100
AcDbEntity
  8
レイヤー 1
 62
    18
420
        0
370
    25
100
AcDbLine
 10
126.4313301487486
 20
-146.9452723787496
 30
0.0
 11
125.9173329396396
 21
-147.3269779342095
 31
0.0
  0
LINE
  5
B3
330
70
100
AcDbEntity
  8
レイヤー 1
 62
    18
420
        0
370
    25
100
AcDbLine
 10
119.4357469938875
 20
-146.6951529343674
 30
0.0
 11
118.9217145070015
 21
-147.0768584898276
 31
0.0
  0
LINE
  5
B4
330
70
100
AcDbEntity
  8
レイヤー 1
 62
    18
420
        0
370
    25
100
AcDbLine
 10
120.4348136350658
 20
-146.7309598788031
 30
0.0
 11
119.9208164259568
 21
-147.1127007120409
 31
0.0
  0
LINE
  5
B5
330
70
100
AcDbEntity
  8
レイヤー 1
 62
    18
420
        0
370
    25
100
AcDbLine
 10
106.4291128812699
 20
-146.2183384900422
 30
0.0
 11
106.4291128812699
 21
-151.4803718220601
 31
0.0
  0
LINE
  5
B6
330
70
100
AcDbEntity
  8
レイヤー 1
 62
    18
420
        0
370
    25
100
AcDbLine
 10
119.9208164259568
 20
-147.1127007120409
 30
0.0
 11
119.4357469938875
 21
-146.6951529343674
 31
0.0
  0
LINE
  5
B7
330
70
100
AcDbEntity
  8
レイヤー 1
 62
    18
420
        0
370
    25
100
AcDbLine
 10
120.9205533448958
 20
-147.1485076564763
 30
0.0
 11
120.4348136350658
 21
-146.7309598788031
 31
0.0
  0
LINE
  5
B8
330
70
100
AcDbEntity
  8
レイヤー 1
 62
    18
420
        0
370
    25
100
AcDbLine
 10
125.9173329396396
 20
-147.3269779342095
 30
0.0
 11
125.4315579520327
 21
-146.9094301565363
 31
0.0
  0
LINE
  5
B9
330
70
100
AcDbEntity
  8
レイヤー 1
 62
    18
420
        0
370
    25
100
AcDbLine
 10
121.4338802762442
 20
-146.7668021010164
 30
0.0
 11
120.9205533448958
 21
-147.1485076564763
 31
0.0
  0
LINE
  5
BA
330
70
100
AcDbEntity
  8
レイヤー 1
 62
    18
420
        0
370
    25
100
AcDbLine
 10
121.919655263851
 20
-147.1843498786896
 30
0.0
 11
121.4338802762442
 21
-146.7668021010164
 31
0.0
  0
LINE
  5
BB
330
70
100
AcDbEntity
  8
レイヤー 1
 62
    18
420
        0
370
    25
100
AcDbLine
 10
126.9163995808179
 20
-147.3628201564227
 30
0.0
 11
126.4313301487486
 21
-146.9452723787496
 31
0.0
  0
LINE
  5
BC
330
70
100
AcDbEntity
  8
レイヤー 1
 62
    18
420
        0
370
    25
100
AcDbLine
 10
123.4327191141384
 20
-146.8377809898877
 30
0.0
 11
122.9187219050294
 21
-147.2194865453476
 31
0.0
  0
LINE
  5
BD
330
70
100
AcDbEntity
  8
レイヤー 1
 62
    18
420
        0
370
    25
100
AcDbLine
 10
124.4324913108544
 20
-146.8735879343228
 30
0.0
 11
123.9184941017453
 21
-147.2553287675608
 31
0.0
  0
LINE
  5
BE
330
70
100
AcDbEntity
  8
レイヤー 1
 62
    18
420
        0
370
    25
100
AcDbLine
 10
123.9184941017453
 20
-147.2553287675608
 30
0.0
 11
123.4327191141384
 21
-146.8377809898877
 31
0.0
  0
LINE
  5
BF
330
70
100
AcDbEntity
  8
レイヤー 1
 62
    18
420
        0
370
    25
100
AcDbLine
 10
127.4304320677039
 20
-146.9804090454073
 30
0.0
 11
126.9163995808179
 21
-147.3628201564227
 31
0.0
  0
LINE
  5
C0
330
70
100
AcDbEntity
  8
レイヤー 1
 62
    18
420
        0
370
    25
100
AcDbLine
 10
122.9187219050294
 20
-147.2194865453476
 30
0.0
 11
122.4336524729601
 21
-146.8019387676741
 31
0.0
  0
LINE
  5
C1
330
70
100
AcDbEntity
  8
レイヤー 1
 62
    18
420
        0
370
    25
100
AcDbLine
 10
125.4315579520327
 20
-146.9094301565363
 30
0.0
 11
124.9175607429236
 21
-147.2911357119962
 31
0.0
  0
LINE
  5
C2
330
70
100
AcDbEntity
  8
レイヤー 1
 62
    18
420
        0
370
    25
100
AcDbLine
 10
124.9175607429236
 20
-147.2911357119962
 30
0.0
 11
124.4324913108544
 21
-146.8735879343228
 31
0.0
  0
LINE
  5
C3
330
70
100
AcDbEntity
  8
レイヤー 1
 62
    18
420
        0
370
    25
100
AcDbLine
 10
127.4304320677039
 20
-146.9804090454073
 30
0.0
 11
127.4304320677039
 21
-147.4806126563935
 31
0.0
  0
LINE
  5
C4
330
70
100
AcDbEntity
  8
レイヤー 1
 62
    18
420
        0
370
    25
100
AcDbLine
 10
107.4288850779858
 20
-147.4806126563935
 30
0.0
 11
127.4304320677039
 21
-147.4806126563935
 31
0.0
  0
LINE
  5
C5
330
70
100
AcDbEntity
  8
レイヤー 1
 62
    18
420
        0
370
    25
100
AcDbLine
 10
116.4371359592773
 20
-146.5883318232832
 30
0.0
 11
115.9231034723914
 21
-146.9700726565213
 31
0.0
  0
LINE
  5
C6
330
70
100
AcDbEntity
  8
レイヤー 1
 62
    18
420
        0
370
    25
100
AcDbLine
 10
115.9231034723914
 20
-146.9700726565213
 30
0.0
 11
115.4380340403221
 21
-146.5525248788478
 31
0.0
  0
LINE
  5
C7
330
70
100
AcDbEntity
  8
レイヤー 1
 62
    18
420
        0
370
    25
100
AcDbLine
 10
115.4380340403221
 20
-146.5525248788478
 30
0.0
 11
114.924036831213
 21
-146.9342304343077
 31
0.0
  0
LINE
  5
C8
330
70
100
AcDbEntity
  8
レイヤー 1
 62
    18
420
        0
370
    25
100
AcDbLine
 10
114.924036831213
 20
-146.9342304343077
 30
0.0
 11
114.4389673991437
 21
-146.5166826566345
 31
0.0
  0
LINE
  5
C9
330
70
100
AcDbEntity
  8
レイヤー 1
 62
    18
420
        0
370
    25
100
AcDbLine
 10
114.4389673991437
 20
-146.5166826566345
 30
0.0
 11
113.9249701900347
 21
-146.8984234898723
 31
0.0
  0
LINE
  5
CA
330
70
100
AcDbEntity
  8
レイヤー 1
 62
    18
420
        0
370
    25
100
AcDbLine
 10
113.9249701900347
 20
-146.8984234898723
 30
0.0
 11
113.4391952024278
 21
-146.4808757121988
 31
0.0
  0
LINE
  5
CB
330
70
100
AcDbEntity
  8
レイヤー 1
 62
    18
420
        0
370
    25
100
AcDbLine
 10
113.4391952024278
 20
-146.4808757121988
 30
0.0
 11
112.9251979933187
 21
-146.8625812676591
 31
0.0
  0
LINE
  5
CC
330
70
100
AcDbEntity
  8
レイヤー 1
 62
    18
420
        0
370
    25
100
AcDbLine
 10
112.9251979933187
 20
-146.8625812676591
 30
0.0
 11
112.4401285612494
 21
-146.4450334899856
 31
0.0
  0
LINE
  5
CD
330
70
100
AcDbEntity
  8
レイヤー 1
 62
    18
420
        0
370
    25
100
AcDbLine
 10
112.4401285612494
 20
-146.4450334899856
 30
0.0
 11
111.9260960743635
 21
-146.827444601001
 31
0.0
  0
LINE
  5
CE
330
70
100
AcDbEntity
  8
レイヤー 1
 62
    18
420
        0
370
    25
100
AcDbLine
 10
111.9260960743635
 20
-146.827444601001
 30
0.0
 11
111.4403563645335
 21
-146.4098968233278
 31
0.0
  0
LINE
  5
CF
330
70
100
AcDbEntity
  8
レイヤー 1
 62
    18
420
        0
370
    25
100
AcDbLine
 10
111.4403563645335
 20
-146.4098968233278
 30
0.0
 11
110.9263591554245
 21
-146.7916023787877
 31
0.0
  0
LINE
  5
D0
330
70
100
AcDbEntity
  8
レイヤー 1
 62
    18
420
        0
370
    25
100
AcDbLine
 10
110.9263591554245
 20
-146.7916023787877
 30
0.0
 11
110.4412897233552
 21
-146.3740546011146
 31
0.0
  0
LINE
  5
D1
330
70
100
AcDbEntity
  8
レイヤー 1
 62
    18
420
        0
370
    25
100
AcDbLine
 10
110.4412897233552
 20
-146.3740546011146
 30
0.0
 11
109.9272572364693
 21
-146.7557954343523
 31
0.0
  0
LINE
  5
D2
330
70
100
AcDbEntity
  8
レイヤー 1
 62
    18
420
        0
370
    25
100
AcDbLine
 10
109.9272572364693
 20
-146.7557954343523
 30
0.0
 11
109.4421878044
 21
-146.3382476566788
 31
0.0
  0
LINE
  5
D3
330
70
100
AcDbEntity
  8
レイヤー 1
 62
    18
420
        0
370
    25
100
AcDbLine
 10
109.4421878044
 20
-146.3382476566788
 30
0.0
 11
108.9281905952909
 21
-146.7199532121391
 31
0.0
  0
LINE
  5
D4
330
70
100
AcDbEntity
  8
レイヤー 1
 62
    18
420
        0
370
    25
100
AcDbLine
 10
108.9281905952909
 20
-146.7199532121391
 30
0.0
 11
108.4424156076841
 21
-146.3024054344656
 31
0.0
  0
LINE
  5
D5
330
70
100
AcDbEntity
  8
レイヤー 1
 62
    18
420
        0
370
    25
100
AcDbLine
 10
108.4424156076841
 20
-146.3024054344656
 30
0.0
 11
107.928418398575
 21
-146.6841109899258
 31
0.0
  0
LINE
  5
D6
330
70
100
AcDbEntity
  8
レイヤー 1
 62
    18
420
        0
370
    25
100
AcDbLine
 10
107.928418398575
 20
-146.6841109899258
 30
0.0
 11
107.4433489665057
 21
-146.2665632122523
 31
0.0
  0
LINE
  5
D7
330
70
100
AcDbEntity
  8
レイヤー 1
 62
    18
420
        0
370
    25
100
AcDbLine
 10
107.3788432809867
 20
-146.2183384900422
 30
0.0
 11
106.4291128812699
 21
-146.2183384900422
 31
0.0
  0
LINE
  5
D8
330
70
100
AcDbEntity
  8
レイヤー 1
 62
    18
420
        0
370
    25
100
AcDbLine
 10
107.4288850779858
 20
-147.4806126563935
 30
0.0
 11
107.4288850779858
 21
-152.4808495995875
 31
0.0
  0
SPLINE
  5
D9
330
70
100
AcDbEntity
  8
レイヤー 1
 62
    18
420
        0
370
     9
100
AcDbSpline
210
0.0
220
0.0
230
1.0
 70
     9
 71
     3
 72
    17
 73
    13
 74
     0
 42
0.0000000001
 43
0.0000000001
 40
0.0
 40
0.0
 40
0.0
 40
0.0
 40
1.0
 40
1.0
 40
1.0
 40
2.0
 40
2.0
 40
2.0
 40
3.0
 40
3.0
 40
3.0
 40
4.0
 40
4.0
 40
4.0
 40
4.0
 10
77.47515973105826
 20
-142.2185793243756
 30
0.0
 10
77.47515973105826
 20
-142.1634754355007
 30
0.0
 10
77.43035695442348
 20
-142.118672657734
 30
0.0
 10
77.37525306694042
 20
-142.118672657734
 30
0.0
 10
77.31979640168889
 20
-142.118672657734
 30
0.0
 10
77.27499362505381
 20
-142.1634754355007
 30
0.0
 10
77.27499362505381
 20
-142.2185793243756
 30
0.0
 10
77.27499362505381
 20
-142.2737184910287
 30
0.0
 10
77.31979640168889
 20
-142.3184859910172
 30
0.0
 10
77.37525306694042
 20
-142.3184859910172
 30
0.0
 10
77.43035695442348
 20
-142.3184859910172
 30
0.0
 10
77.47515973105826
 20
-142.2737184910287
 30
0.0
 10
77.47515973105826
 20
-142.2185793243756
 30
0.0
  0
SPLINE
  5
DA
330
70
100
AcDbEntity
  8
レイヤー 1
 62
    18
420
        0
370
     9
100
AcDbSpline
210
0.0
220
0.0
230
1.0
 70
     9
 71
     3
 72
    17
 73
    13
 74
     0
 42
0.0000000001
 43
0.0000000001
 40
0.0
 40
0.0
 40
0.0
 40
0.0
 40
1.0
 40
1.0
 40
1.0
 40
2.0
 40
2.0
 40
2.0
 40
3.0
 40
3.0
 40
3.0
 40
4.0
 40
4.0
 40
4.0
 40
4.0
 10
75.33884339667166
 20
-146.9804090454073
 30
0.0
 10
75.33884339667166
 20
-146.9252698787545
 30
0.0
 10
75.29407589781346
 20
-146.8805023787657
 30
0.0
 10
75.23861923256127
 20
-146.8805023787657
 30
0.0
 10
75.18348239776774
 20
-146.8805023787657
 30
0.0
 10
75.13867962000102
 20
-146.9252698787545
 30
0.0
 10
75.13867962000102
 20
-146.9804090454073
 30
0.0
 10
75.13867962000102
 20
-147.0355129342825
 30
0.0
 10
75.18348239776774
 20
-147.0803157120492
 30
0.0
 10
75.23861923256127
 20
-147.0803157120492
 30
0.0
 10
75.29407589781346
 20
-147.0803157120492
 30
0.0
 10
75.33884339667166
 20
-147.0355129342825
 30
0.0
 10
75.33884339667166
 20
-146.9804090454073
 30
0.0
  0
SPLINE
  5
DB
330
70
100
AcDbEntity
  8
レイヤー 1
 62
    18
420
        0
370
     9
100
AcDbSpline
210
0.0
220
0.0
230
1.0
 70
     9
 71
     3
 72
    17
 73
    13
 74
     0
 42
0.0000000001
 43
0.0000000001
 40
0.0
 40
0.0
 40
0.0
 40
0.0
 40
1.0
 40
1.0
 40
1.0
 40
2.0
 40
2.0
 40
2.0
 40
3.0
 40
3.0
 40
3.0
 40
4.0
 40
4.0
 40
4.0
 40
4.0
 10
75.33884339667166
 20
-147.4806126563935
 30
0.0
 10
75.33884339667166
 20
-147.4255087675182
 30
0.0
 10
75.29407589781346
 20
-147.3807059897515
 30
0.0
 10
75.23861923256127
 20
-147.3807059897515
 30
0.0
 10
75.18348239776774
 20
-147.3807059897515
 30
0.0
 10
75.13867962000102
 20
-147.4255087675182
 30
0.0
 10
75.13867962000102
 20
-147.4806126563935
 30
0.0
 10
75.13867962000102
 20
-147.5357518230462
 30
0.0
 10
75.18348239776774
 20
-147.5805193230351
 30
0.0
 10
75.23861923256127
 20
-147.5805193230351
 30
0.0
 10
75.29407589781346
 20
-147.5805193230351
 30
0.0
 10
75.33884339667166
 20
-147.5357518230462
 30
0.0
 10
75.33884339667166
 20
-147.4806126563935
 30
0.0
  0
SPLINE
  5
DC
330
70
100
AcDbEntity
  8
レイヤー 1
 62
    18
420
        0
370
     9
100
AcDbSpline
210
0.0
220
0.0
230
1.0
 70
     9
 71
     3
 72
    17
 73
    13
 74
     0
 42
0.0000000001
 43
0.0000000001
 40
0.0
 40
0.0
 40
0.0
 40
0.0
 40
1.0
 40
1.0
 40
1.0
 40
2.0
 40
2.0
 40
2.0
 40
3.0
 40
3.0
 40
3.0
 40
4.0
 40
4.0
 40
4.0
 40
4.0
 10
75.33884339667166
 20
-152.4808495995875
 30
0.0
 10
75.33884339667166
 20
-152.425710432935
 30
0.0
 10
75.29407589781346
 20
-152.3809429329465
 30
0.0
 10
75.23861923256127
 20
-152.3809429329465
 30
0.0
 10
75.18348239776774
 20
-152.3809429329465
 30
0.0
 10
75.13867962000102
 20
-152.425710432935
 30
0.0
 10
75.13867962000102
 20
-152.4808495995875
 30
0.0
 10
75.13867962000102
 20
-152.535953488463
 30
0.0
 10
75.18348239776774
 20
-152.5807562662298
 30
0.0
 10
75.23861923256127
 20
-152.5807562662298
 30
0.0
 10
75.29407589781346
 20
-152.5807562662298
 30
0.0
 10
75.33884339667166
 20
-152.535953488463
 30
0.0
 10
75.33884339667166
 20
-152.4808495995875
 30
0.0
  0
SPLINE
  5
DD
330
70
100
AcDbEntity
  8
レイヤー 1
 62
    18
420
        0
370
     9
100
AcDbSpline
210
0.0
220
0.0
230
1.0
 70
     9
 71
     3
 72
    17
 73
    13
 74
     0
 42
0.0000000001
 43
0.0000000001
 40
0.0
 40
0.0
 40
0.0
 40
0.0
 40
1.0
 40
1.0
 40
1.0
 40
2.0
 40
2.0
 40
2.0
 40
3.0
 40
3.0
 40
3.0
 40
4.0
 40
4.0
 40
4.0
 40
4.0
 10
98.47644363971532
 20
-142.2185793243756
 30
0.0
 10
98.47644363971532
 20
-142.1634754355007
 30
0.0
 10
98.43167614085743
 20
-142.118672657734
 30
0.0
 10
98.37653697559748
 20
-142.118672657734
 30
0.0
 10
98.32072753257685
 20
-142.118672657734
 30
0.0
 10
98.27596294755046
 20
-142.1634754355007
 30
0.0
 10
98.27596294755046
 20
-142.2185793243756
 30
0.0
 10
98.27596294755046
 20
-142.2737184910287
 30
0.0
 10
98.32072753257685
 20
-142.3184859910172
 30
0.0
 10
98.37653697559748
 20
-142.3184859910172
 30
0.0
 10
98.43167614085743
 20
-142.3184859910172
 30
0.0
 10
98.47644363971532
 20
-142.2737184910287
 30
0.0
 10
98.47644363971532
 20
-142.2185793243756
 30
0.0
  0
CIRCLE
  5
DE
330
70
100
AcDbEntity
  8
レイヤー 1
 62
    18
420
        0
370
     9
100
AcDbCircle
 10
127.3877106799049
 20
-142.2185793243756
 30
0.0
 40
0.0999066653797365
  0
CIRCLE
  5
DF
330
70
100
AcDbEntity
  8
レイヤー 1
 62
    18
420
        0
370
     9
100
AcDbCircle
 10
106.2761484407279
 20
-142.2185793243756
 30
0.0
 40
0.0999066653797365
  0
LINE
  5
E0
330
70
100
AcDbEntity
  8
レイヤー 1
 62
    18
420
        0
370
     9
100
AcDbLine
 10
75.23861923256127
 20
-146.9804090454073
 30
0.0
 11
75.23861923256127
 21
-141.7231734911661
 31
0.0
  0
LINE
  5
E1
330
70
100
AcDbEntity
  8
レイヤー 1
 62
    18
420
        0
370
     9
100
AcDbLine
 10
75.23861923256127
 20
-146.9804090454073
 30
0.0
 11
75.23861923256127
 21
-147.4806126563935
 31
0.0
  0
LINE
  5
E2
330
70
100
AcDbEntity
  8
レイヤー 1
 62
    18
420
        0
370
     9
100
AcDbLine
 10
76.69862530642486
 20
-146.9804090454073
 30
0.0
 11
74.23884703584569
 21
-146.9804090454073
 31
0.0
  0
LINE
  5
E3
330
70
100
AcDbEntity
  8
レイヤー 1
 62
    18
420
        0
370
     9
100
AcDbLine
 10
76.69862530642486
 20
-147.4806126563935
 30
0.0
 11
74.23884703584569
 21
-147.4806126563935
 31
0.0
  0
INSERT
  5
E5
330
70
100
AcDbEntity
  8
レイヤー 1
100
AcDbBlockReference
  2
Block_0
 10
0.0
 20
0.0
 30
0.0
  0
LINE
  5
F3
330
70
100
AcDbEntity
  8
レイヤー 1
 62
    18
420
        0
370
     9
100
AcDbLine
 10
77.37525306694042
 20
-142.2185793243756
 30
0.0
 11
98.37653697559748
 21
-142.2185793243756
 31
0.0
  0
LINE
  5
F4
330
70
100
AcDbEntity
  8
レイヤー 1
 62
    18
420
        0
370
     9
100
AcDbLine
 10
77.37525306694042
 20
-144.4406912682644
 30
0.0
 11
77.37525306694042
 21
-141.2188071024034
 31
0.0
  0
INSERT
  5
F6
330
70
100
AcDbEntity
  8
レイヤー 1
100
AcDbBlockReference
  2
Block_2
 10
0.0
 20
0.0
 30
0.0
  0
LINE
  5
101
330
70
100
AcDbEntity
  8
レイヤー 1
 62
    18
420
        0
370
     9
100
AcDbLine
 10
75.23861923256127
 20
-147.4806126563935
 30
0.0
 11
75.23861923256127
 21
-152.4808495995875
 31
0.0
  0
LINE
  5
102
330
70
100
AcDbEntity
  8
レイヤー 1
 62
    18
420
        0
370
     9
100
AcDbLine
 10
96.70017229614288
 20
-152.4808495995875
 30
0.0
 11
74.23884703584569
 21
-152.4808495995875
 31
0.0
  0
INSERT
  5
104
330
70
100
AcDbEntity
  8
レイヤー 1
100
AcDbBlockReference
  2
Block_4
 10
0.0
 20
0.0
 30
0.0
  0
LINE
  5
109
330
70
100
AcDbEntity
  8
レイヤー 1
 62
    18
420
        0
370
     9
100
AcDbLine
 10
127.3877106799049
 20
-142.2185793243756
 30
0.0
 11
106.3863914934709
 21
-142.2185793243756
 31
0.0
  0
LINE
  5
10A
330
70
100
AcDbEntity
  8
レイヤー 1
 62
    18
420
        0
370
     9
100
AcDbLine
 10
127.3877106799049
 20
-144.4406912682644
 30
0.0
 11
127.3877106799049
 21
-141.2188071024034
 31
0.0
  0
INSERT
  5
10C
330
70
100
AcDbEntity
  8
レイヤー 1
100
AcDbBlockReference
  2
Block_5
 10
0.0
 20
0.0
 30
0.0
  0
LINE
  5
117
330
70
100
AcDbEntity
  8
レイヤー 1
 62
    18
420
        0
370
     9
100
AcDbLine
 10
98.37653697559748
 20
-142.2185793243756
 30
0.0
 11
106.3760551048458
 21
-142.2185793243756
 31
0.0
  0
LINE
  5
118
330
70
100
AcDbEntity
  8
レイヤー 1
 62
    18
420
        0
370
     9
100
AcDbLine
 10
98.37653697559748
 20
-143.6786207128993
 30
0.0
 11
98.37653697559748
 21
-141.2188071024034
 31
0.0
  0
LINE
  5
119
330
70
100
AcDbEntity
  8
レイヤー 1
 62
    18
420
        0
370
     9
100
AcDbLine
 10
106.2761484407279
 20
-143.6786207128993
 30
0.0
 11
106.2761484407279
 21
-141.2188071024034
 31
0.0
  0
INSERT
  5
11B
330
70
100
AcDbEntity
  8
レイヤー 1
100
AcDbBlockReference
  2
Block_7
 10
0.0
 20
0.0
 30
0.0
  0
LINE
  5
122
330
70
100
AcDbEntity
  8
レイヤー 1
 62
    18
420
        0
370
     9
100
AcDbLine
 10
105.0000806955057
 20
-150.4351265445441
 30
0.0
 11
112.999598824754
 21
-150.4351265445441
 31
0.0
  0
INSERT
  5
124
330
70
100
AcDbEntity
  8
レイヤー 1
100
AcDbBlockReference
  2
Block_8
 10
0.0
 20
0.0
 30
0.0
  0
SPLINE
  5
129
330
70
100
AcDbEntity
  8
レイヤー 1
 62
    18
420
        0
370
     9
100
AcDbSpline
210
0.0
220
0.0
230
1.0
 70
     9
 71
     3
 72
    17
 73
    13
 74
     0
 42
0.0000000001
 43
0.0000000001
 40
0.0
 40
0.0
 40
0.0
 40
0.0
 40
1.0
 40
1.0
 40
1.0
 40
2.0
 40
2.0
 40
2.0
 40
3.0
 40
3.0
 40
3.0
 40
4.0
 40
4.0
 40
4.0
 40
4.0
 10
107.5694317410668
 20
-156.9484273762486
 30
0.0
 10
107.5694317410668
 20
-156.8933234873737
 30
0.0
 10
107.5136222980462
 20
-156.848520709607
 30
0.0
 10
107.4454303553415
 20
-156.848520709607
 30
0.0
 10
107.3765328570992
 20
-156.848520709607
 30
0.0
 10
107.3213936918393
 20
-156.8933234873737
 30
0.0
 10
107.3213936918393
 20
-156.9484273762486
 30
0.0
 10
107.3213936918393
 20
-157.0035665429017
 30
0.0
 10
107.3765328570992
 20
-157.0483340428902
 30
0.0
 10
107.4454303553415
 20
-157.0483340428902
 30
0.0
 10
107.5136222980462
 20
-157.0483340428902
 30
0.0
 10
107.5694317410668
 20
-157.0035665429017
 30
0.0
 10
107.5694317410668
 20
-156.9484273762486
 30
0.0
  0
SPLINE
  5
12A
330
70
100
AcDbEntity
  8
レイヤー 1
 62
    18
420
        0
370
     9
100
AcDbSpline
210
0.0
220
0.0
230
1.0
 70
     9
 71
     3
 72
    17
 73
    13
 74
     0
 42
0.0000000001
 43
0.0000000001
 40
0.0
 40
0.0
 40
0.0
 40
0.0
 40
1.0
 40
1.0
 40
1.0
 40
2.0
 40
2.0
 40
2.0
 40
3.0
 40
3.0
 40
3.0
 40
4.0
 40
4.0
 40
4.0
 40
4.0
 10
97.6275897724825
 20
-156.9484273762486
 30
0.0
 10
97.6275897724825
 20
-156.8933234873737
 30
0.0
 10
97.57178032946185
 20
-156.848520709607
 30
0.0
 10
97.50355310898026
 20
-156.848520709607
 30
0.0
 10
97.43465561073797
 20
-156.848520709607
 30
0.0
 10
97.37955461444084
 20
-156.8933234873737
 30
0.0
 10
97.37955461444084
 20
-156.9484273762486
 30
0.0
 10
97.37955461444084
 20
-157.0035665429017
 30
0.0
 10
97.43465561073797
 20
-157.0483340428902
 30
0.0
 10
97.50355310898026
 20
-157.0483340428902
 30
0.0
 10
97.57178032946185
 20
-157.0483340428902
 30
0.0
 10
97.6275897724825
 20
-157.0035665429017
 30
0.0
 10
97.6275897724825
 20
-156.9484273762486
 30
0.0
  0
LINE
  5
12B
330
70
100
AcDbEntity
  8
レイヤー 1
 62
   250
420
  2299925
370
     9
100
AcDbLine
 10
107.4454303553415
 20
-156.9484273762486
 30
0.0
 11
97.50355310898026
 21
-156.9484273762486
 31
0.0
  0
LINE
  5
12C
330
70
100
AcDbEntity
  8
レイヤー 1
 62
   250
420
  2299925
370
     9
100
AcDbLine
 10
107.4454303553415
 20
-155.4884212655024
 30
0.0
 11
107.4454303553415
 21
-157.9481995982205
 31
0.0
  0
LINE
  5
12D
330
70
100
AcDbEntity
  8
レイヤー 1
 62
   250
420
  2299925
370
     9
100
AcDbLine
 10
97.50355310898026
 20
-155.4884212655024
 30
0.0
 11
97.50355310898026
 21
-157.9481995982205
 31
0.0
  0
INSERT
  5
12F
330
70
100
AcDbEntity
  8
レイヤー 1
100
AcDbBlockReference
  2
Block_9
 10
0.0
 20
0.0
 30
0.0
  0
INSERT
  5
13C
330
70
100
AcDbEntity
  8
レイヤー 1
100
AcDbBlockReference
  2
Block_11
 10
0.0
 20
0.0
 30
0.0
  0
ENDSEC
  0
SECTION
  2
OBJECTS
  0
DICTIONARY
  5
C
330
0
100
AcDbDictionary
281
     1
  3
ACAD_COLOR
350
63
  3
ACAD_DETAILVIEWSTYLE
350
6A
  3
ACAD_GROUP
350
D
  3
ACAD_LAYOUT
350
62
  3
ACAD_MATERIAL
350
10
  3
ACAD_MLEADERSTYLE
350
66
  3
ACAD_MLINESTYLE
350
5F
  3
ACAD_PLOTSETTINGS
350
61
  3
ACAD_PLOTSTYLENAME
350
E
  3
ACAD_SCALELIST
350
42
  3
ACAD_SECTIONVIEWSTYLE
350
68
  3
ACAD_TABLESTYLE
350
64
  3
ACAD_VISUALSTYLE
350
29
  3
ACDB_RECOMPOSE_DATA
350
169
  3
AcDbVariableDictionary
350
161
  0
DICTIONARY
  5
63
102
{ACAD_REACTORS
330
C
102
}
330
C
100
AcDbDictionary
281
     1
  0
DICTIONARY
  5
6A
102
{ACAD_REACTORS
330
C
102
}
330
C
100
AcDbDictionary
281
     1
  3
Imperial24
350
6B
  0
DICTIONARY
  5
D
102
{ACAD_REACTORS
330
C
102
}
330
C
100
AcDbDictionary
281
     1
  0
DICTIONARY
  5
62
102
{ACAD_REACTORS
330
C
102
}
330
C
100
AcDbDictionary
281
     1
  3
Layout1
350
6F
  3
Layout2
350
77
  3
Model
350
73
  0
DICTIONARY
  5
10
102
{ACAD_REACTORS
330
C
102
}
330
C
100
AcDbDictionary
281
     1
  3
ByBlock
350
19
  3
ByLayer
350
11
  3
Global
350
21
  0
DICTIONARY
  5
66
102
{ACAD_REACTORS
330
C
102
}
330
C
100
AcDbDictionary
281
     1
  3
Standard
350
67
  0
DICTIONARY
  5
5F
102
{ACAD_REACTORS
330
C
102
}
330
C
100
AcDbDictionary
281
     1
  3
Standard
350
60
  0
DICTIONARY
  5
61
102
{ACAD_REACTORS
330
C
102
}
330
C
100
AcDbDictionary
281
     1
  0
ACDBDICTIONARYWDFLT
  5
E
102
{ACAD_REACTORS
330
C
102
}
330
C
100
AcDbDictionary
281
     1
  3
Normal
350
F
100
AcDbDictionaryWithDefault
340
F
  0
DICTIONARY
  5
42
102
{ACAD_REACTORS
330
C
102
}
330
C
100
AcDbDictionary
281
     1
  3
A0
350
43
  3
A1
350
44
  3
A2
350
45
  3
A3
350
46
  3
A4
350
47
  3
A5
350
48
  3
A6
350
49
  3
A7
350
4A
  3
A8
350
4B
  3
A9
350
4C
  3
B0
350
4D
  3
B1
350
4E
  3
B2
350
4F
  3
B3
350
50
  3
B4
350
51
  3
B5
350
52
  3
B6
350
53
  0
DICTIONARY
  5
68
102
{ACAD_REACTORS
330
C
102
}
330
C
100
AcDbDictionary
281
     1
  3
Imperial24
350
69
  0
DICTIONARY
  5
64
102
{ACAD_REACTORS
330
C
102
}
330
C
100
AcDbDictionary
281
     1
  3
Standard
350
65
  0
DICTIONARY
  5
29
102
{ACAD_REACTORS
330
C
102
}
330
C
100
AcDbDictionary
281
     1
  3
2dWireframe
350
2F
  3
Basic
350
2E
  3
Brighten
350
35
  3
ColorChange
350
39
  3
Conceptual
350
32
  3
Dim
350
34
  3
EdgeColorOff
350
41
  3
Facepattern
350
38
  3
Flat
350
2A
  3
FlatWithEdges
350
2B
  3
Gouraud
350
2C
  3
GouraudWithEdges
350
2D
  3
Hidden
350
31
  3
JitterOff
350
3F
  3
Linepattern
350
37
  3
OverhangOff
350
40
  3
Realistic
350
33
  3
Shaded
350
3E
  3
Shaded with edges
350
3D
  3
Shades of Gray
350
3A
  3
Sketchy
350
3B
  3
Thicken
350
36
  3
Wireframe
350
30
  3
X-Ray
350
3C
  0
XRECORD
  5
169
102
{ACAD_REACTORS
330
C
102
}
330
C
100
AcDbXrecord
280
     1
 90
        1
330
65
  0
DICTIONARY
  5
161
102
{ACAD_REACTORS
330
C
102
}
330
C
100
AcDbDictionary
281
     1
  3
CANNOSCALE
350
166
  3
CMLEADERSTYLE
350
163
  3
CTABLESTYLE
350
162
  3
CVIEWDETAILSTYLE
350
164
  3
CVIEWSECTIONSTYLE
350
165
  0
ACDBDETAILVIEWSTYLE
  5
6B
102
{ACAD_XDICTIONARY
360
19E
102
}
102
{ACAD_REACTORS
330
6A
102
}
330
6A
100
AcDbModelDocViewStyle
 70
     0
  3
Imperial24
290
     0
100
AcDbDetailViewStyle
 70
     0
 71
     0
 90
        3
 71
     1
340
55
 62
   256
 40
0.24
340
0
 62
   256
 40
0.24
300

 40
0.36
280
     3
 71
     2
340
5D
 90
       25
 62
   256
 71
     3
340
55
 62
   256
 40
0.24
 90
        1
 40
0.75
 90
        1
300
%<\AcVar ViewType \f "%tc1">% %<\AcVar ViewDetailId>%\PSCALE %<\AcVar ViewScale \f "%sn">%
 71
     4
340
5D
 90
       25
 62
   256
340
5D
 90
       25
 62
   256
280
     0
  0
LAYOUT
  5
6F
102
{ACAD_REACTORS
330
62
102
}
330
62
100
AcDbPlotSettings
  1

  2

  4

  6

 40
0.0
 41
0.0
 42
0.0
 43
0.0
 44
0.0
 45
0.0
 46
0.0
 47
0.0
 48
0.0
 49
0.0
140
0.0
141
0.0
142
1.0
143
1.0
 70
   688
 72
     0
 73
     0
 74
     5
  7

 75
    16
147
1.0
 76
     0
 77
     2
 78
   300
148
0.0
149
0.0
100
AcDbLayout
  1
Layout1
 70
     1
 71
     1
 10
0.0
 20
0.0
 11
12.0
 21
9.0
 12
0.0
 22
0.0
 32
0.0
 14
0.0
 24
0.0
 34
0.0
 15
0.0
 25
0.0
 35
0.0
146
0.0
 13
0.0
 23
0.0
 33
0.0
 16
1.0
 26
0.0
 36
0.0
 17
0.0
 27
1.0
 37
0.0
 76
     0
330
6C
  0
LAYOUT
  5
77
102
{ACAD_REACTORS
330
62
102
}
330
62
100
AcDbPlotSettings
  1

  2

  4

  6

 40
0.0
 41
0.0
 42
0.0
 43
0.0
 44
0.0
 45
0.0
 46
0.0
 47
0.0
 48
0.0
 49
0.0
140
0.0
141
0.0
142
1.0
143
1.0
 70
   688
 72
     0
 73
     0
 74
     5
  7

 75
    16
147
1.0
 76
     0
 77
     2
 78
   300
148
0.0
149
0.0
100
AcDbLayout
  1
Layout2
 70
     1
 71
     2
 10
0.0
 20
0.0
 11
12.0
 21
9.0
 12
0.0
 22
0.0
 32
0.0
 14
0.0
 24
0.0
 34
0.0
 15
0.0
 25
0.0
 35
0.0
146
0.0
 13
0.0
 23
0.0
 33
0.0
 16
1.0
 26
0.0
 36
0.0
 17
0.0
 27
1.0
 37
0.0
 76
     0
330
74
  0
LAYOUT
  5
73
102
{ACAD_REACTORS
330
62
102
}
330
62
100
AcDbPlotSettings
  1

  2

  4

  6

 40
0.0
 41
0.0
 42
0.0
 43
0.0
 44
0.0
 45
0.0
 46
0.0
 47
0.0
 48
0.0
 49
0.0
140
0.0
141
0.0
142
1.0
143
1.0
 70
  1712
 72
     0
 73
     0
 74
     0
  7

 75
     0
147
1.0
 76
     0
 77
     2
 78
   300
148
0.0
149
0.0
100
AcDbLayout
  1
Model
 70
     1
 71
     0
 10
0.0
 20
0.0
 11
12.0
 21
9.0
 12
0.0
 22
0.0
 32
0.0
 14
0.0
 24
0.0
 34
0.0
 15
0.0
 25
0.0
 35
0.0
146
0.0
 13
0.0
 23
0.0
 33
0.0
 16
1.0
 26
0.0
 36
0.0
 17
0.0
 27
1.0
 37
0.0
 76
     0
330
70
  0
MATERIAL
  5
19
102
{ACAD_XDICTIONARY
360
1A
102
}
102
{ACAD_REACTORS
330
10
102
}
330
10
100
AcDbMaterial
  1
ByBlock
 72
     0
 43
0.0208333333333333
 43
0.0
 43
0.0
 43
0.0
 43
0.0
 43
0.0208333333333333
 43
0.0
 43
0.0
 43
0.0
 43
0.0
 43
1.0
 43
0.0
 43
0.0
 43
0.0
 43
0.0
 43
1.0
 77
     0
 47
0.0208333333333333
 47
0.0
 47
0.0
 47
0.0
 47
0.0
 47
0.0208333333333333
 47
0.0
 47
0.0
 47
0.0
 47
0.0
 47
1.0
 47
0.0
 47
0.0
 47
0.0
 47
0.0
 47
1.0
171
     0
 49
0.0208333333333333
 49
0.0
 49
0.0
 49
0.0
 49
0.0
 49
0.0208333333333333
 49
0.0
 49
0.0
 49
0.0
 49
0.0
 49
1.0
 49
0.0
 49
0.0
 49
0.0
 49
0.0
 49
1.0
175
     0
142
0.0208333333333333
142
0.0
142
0.0
142
0.0
142
0.0
142
0.0208333333333333
142
0.0
142
0.0
142
0.0
142
0.0
142
1.0
142
0.0
142
0.0
142
0.0
142
0.0
142
1.0
179
     0
144
0.0208333333333333
144
0.0
144
0.0
144
0.0
144
0.0
144
0.0208333333333333
144
0.0
144
0.0
144
0.0
144
0.0
144
1.0
144
0.0
144
0.0
144
0.0
144
0.0
144
1.0
147
0.0208333333333333
147
0.0
147
0.0
147
0.0
147
0.0
147
0.0208333333333333
147
0.0
147
0.0
147
0.0
147
0.0
147
1.0
147
0.0
147
0.0
147
0.0
147
0.0
147
1.0
  0
MATERIAL
  5
11
102
{ACAD_XDICTIONARY
360
12
102
}
102
{ACAD_REACTORS
330
10
102
}
330
10
100
AcDbMaterial
  1
ByLayer
 72
     0
 43
0.0208333333333333
 43
0.0
 43
0.0
 43
0.0
 43
0.0
 43
0.0208333333333333
 43
0.0
 43
0.0
 43
0.0
 43
0.0
 43
1.0
 43
0.0
 43
0.0
 43
0.0
 43
0.0
 43
1.0
 77
     0
 47
0.0208333333333333
 47
0.0
 47
0.0
 47
0.0
 47
0.0
 47
0.0208333333333333
 47
0.0
 47
0.0
 47
0.0
 47
0.0
 47
1.0
 47
0.0
 47
0.0
 47
0.0
 47
0.0
 47
1.0
171
     0
 49
0.0208333333333333
 49
0.0
 49
0.0
 49
0.0
 49
0.0
 49
0.0208333333333333
 49
0.0
 49
0.0
 49
0.0
 49
0.0
 49
1.0
 49
0.0
 49
0.0
 49
0.0
 49
0.0
 49
1.0
175
     0
142
0.0208333333333333
142
0.0
142
0.0
142
0.0
142
0.0
142
0.0208333333333333
142
0.0
142
0.0
142
0.0
142
0.0
142
1.0
142
0.0
142
0.0
142
0.0
142
0.0
142
1.0
179
     0
144
0.0208333333333333
144
0.0
144
0.0
144
0.0
144
0.0
144
0.0208333333333333
144
0.0
144
0.0
144
0.0
144
0.0
144
1.0
144
0.0
144
0.0
144
0.0
144
0.0
144
1.0
147
0.0208333333333333
147
0.0
147
0.0
147
0.0
147
0.0
147
0.0208333333333333
147
0.0
147
0.0
147
0.0
147
0.0
147
1.0
147
0.0
147
0.0
147
0.0
147
0.0
147
1.0
  0
MATERIAL
  5
21
102
{ACAD_XDICTIONARY
360
22
102
}
102
{ACAD_REACTORS
330
10
102
}
330
10
100
AcDbMaterial
  1
Global
 72
     0
 43
0.0208333333333333
 43
0.0
 43
0.0
 43
0.0
 43
0.0
 43
0.0208333333333333
 43
0.0
 43
0.0
 43
0.0
 43
0.0
 43
1.0
 43
0.0
 43
0.0
 43
0.0
 43
0.0
 43
1.0
 77
     0
 47
0.0208333333333333
 47
0.0
 47
0.0
 47
0.0
 47
0.0
 47
0.0208333333333333
 47
0.0
 47
0.0
 47
0.0
 47
0.0
 47
1.0
 47
0.0
 47
0.0
 47
0.0
 47
0.0
 47
1.0
171
     0
 49
0.0208333333333333
 49
0.0
 49
0.0
 49
0.0
 49
0.0
 49
0.0208333333333333
 49
0.0
 49
0.0
 49
0.0
 49
0.0
 49
1.0
 49
0.0
 49
0.0
 49
0.0
 49
0.0
 49
1.0
175
     0
142
0.0208333333333333
142
0.0
142
0.0
142
0.0
142
0.0
142
0.0208333333333333
142
0.0
142
0.0
142
0.0
142
0.0
142
1.0
142
0.0
142
0.0
142
0.0
142
0.0
142
1.0
179
     0
144
0.0208333333333333
144
0.0
144
0.0
144
0.0
144
0.0
144
0.0208333333333333
144
0.0
144
0.0
144
0.0
144
0.0
144
1.0
144
0.0
144
0.0
144
0.0
144
0.0
144
1.0
147
0.0208333333333333
147
0.0
147
0.0
147
0.0
147
0.0
147
0.0208333333333333
147
0.0
147
0.0
147
0.0
147
0.0
147
1.0
147
0.0
147
0.0
147
0.0
147
0.0
147
1.0
  0
MLEADERSTYLE
  5
67
102
{ACAD_XDICTIONARY
360
19A
102
}
102
{ACAD_REACTORS
330
66
102
}
330
66
100
AcDbMLeaderStyle
179
     2
170
     2
171
     1
172
     0
 90
        2
 40
0.0
 41
0.0
173
     1
 91
-1056964608
340
5B
 92
       -2
290
     1
 42
0.09
291
     1
 43
0.36
  3
Standard
 44
0.18
300

342
55
174
     1
178
     6
175
     1
176
     0
 93
-1056964608
 45
0.18
292
     0
297
     0
 46
0.18
 94
-1056964608
 47
1.0
 49
1.0
140
1.0
293
     1
141
0.0
294
     1
177
     0
142
1.0
295
     0
296
     0
143
0.125
271
     0
272
     9
273
     9
  0
MLINESTYLE
  5
60
102
{ACAD_REACTORS
330
5F
102
}
330
5F
100
AcDbMlineStyle
  2
STANDARD
 70
     0
  3

 62
   256
 51
90.0
 52
90.0
 71
     2
 49
0.5
 62
   256
  6
BYLAYER
 49
-0.5
 62
   256
  6
BYLAYER
  0
ACDBPLACEHOLDER
  5
F
102
{ACAD_REACTORS
330
E
102
}
330
E
  0
SCALE
  5
43
102
{ACAD_REACTORS
330
42
102
}
330
42
100
AcDbScale
 70
     0
300
1:1
140
1.0
141
1.0
290
     1
  0
SCALE
  5
44
102
{ACAD_REACTORS
330
42
102
}
330
42
100
AcDbScale
 70
     0
300
1/128" = 1'-0"
140
0.0078125
141
12.0
290
     0
  0
SCALE
  5
45
102
{ACAD_REACTORS
330
42
102
}
330
42
100
AcDbScale
 70
     0
300
1/64" = 1'-0"
140
0.015625
141
12.0
290
     0
  0
SCALE
  5
46
102
{ACAD_REACTORS
330
42
102
}
330
42
100
AcDbScale
 70
     0
300
1/32" = 1'-0"
140
0.03125
141
12.0
290
     0
  0
SCALE
  5
47
102
{ACAD_REACTORS
330
42
102
}
330
42
100
AcDbScale
 70
     0
300
1/16" = 1'-0"
140
0.0625
141
12.0
290
     0
  0
SCALE
  5
48
102
{ACAD_REACTORS
330
42
102
}
330
42
100
AcDbScale
 70
     0
300
3/32" = 1'-0"
140
0.09375
141
12.0
290
     0
  0
SCALE
  5
49
102
{ACAD_REACTORS
330
42
102
}
330
42
100
AcDbScale
 70
     0
300
1/8" = 1'-0"
140
0.125
141
12.0
290
     0
  0
SCALE
  5
4A
102
{ACAD_REACTORS
330
42
102
}
330
42
100
AcDbScale
 70
     0
300
3/16" = 1'-0"
140
0.1875
141
12.0
290
     0
  0
SCALE
  5
4B
102
{ACAD_REACTORS
330
42
102
}
330
42
100
AcDbScale
 70
     0
300
1/4" = 1'-0"
140
0.25
141
12.0
290
     0
  0
SCALE
  5
4C
102
{ACAD_REACTORS
330
42
102
}
330
42
100
AcDbScale
 70
     0
300
3/8" = 1'-0"
140
0.375
141
12.0
290
     0
  0
SCALE
  5
4D
102
{ACAD_REACTORS
330
42
102
}
330
42
100
AcDbScale
 70
     0
300
1/2" = 1'-0"
140
0.5
141
12.0
290
     0
  0
SCALE
  5
4E
102
{ACAD_REACTORS
330
42
102
}
330
42
100
AcDbScale
 70
     0
300
3/4" = 1'-0"
140
0.75
141
12.0
290
     0
  0
SCALE
  5
4F
102
{ACAD_REACTORS
330
42
102
}
330
42
100
AcDbScale
 70
     0
300
1" = 1'-0"
140
1.0
141
12.0
290
     0
  0
SCALE
  5
50
102
{ACAD_REACTORS
330
42
102
}
330
42
100
AcDbScale
 70
     0
300
1-1/2" = 1'-0"
140
1.5
141
12.0
290
     0
  0
SCALE
  5
51
102
{ACAD_REACTORS
330
42
102
}
330
42
100
AcDbScale
 70
     0
300
3" = 1'-0"
140
3.0
141
12.0
290
     0
  0
SCALE
  5
52
102
{ACAD_REACTORS
330
42
102
}
330
42
100
AcDbScale
 70
     0
300
6" = 1'-0"
140
6.0
141
12.0
290
     0
  0
SCALE
  5
53
102
{ACAD_REACTORS
330
42
102
}
330
42
100
AcDbScale
 70
     0
300
1'-0" = 1'-0"
140
12.0
141
12.0
290
     0
  0
ACDBSECTIONVIEWSTYLE
  5
69
102
{ACAD_XDICTIONARY
360
19C
102
}
102
{ACAD_REACTORS
330
68
102
}
330
68
100
AcDbModelDocViewStyle
 70
     0
  3
Imperial24
290
     0
100
AcDbSectionViewStyle
 70
     0
 71
     0
 90
       78
 71
     1
340
55
 62
   256
 40
0.24
340
0
340
0
 62
   256
 40
0.24
300
I, O, Q, S, X, Z
 40
0.48
 90
        3
 40
0.18
 90
        1
 71
     2
340
5D
 90
       25
 62
   256
340
5D
 90
       50
 62
   256
 40
0.24
 40
0.0
 40
0.24
 71
     3
340
55
 62
   256
 40
0.24
 90
        1
 40
0.75
 90
        1
300
%<\AcVar ViewType \f "%tc1">% %<\AcVar ViewSectionStartId>%-%<\AcVar ViewSectionEndId>%\PSCALE %<\AcVar ViewScale \f "%sn">%
 71
     4
 62
   256
 62
   257
300
ANSI31
 40
1.0
 90
        0
290
     0
290
     0
 90
        6
 40
0.0
 40
1.570796326794896
 40
0.2617993877991494
 40
1.308996938995747
 40
-0.2617993877991494
 40
1.832595714594046
  0
TABLESTYLE
  5
65
102
{ACAD_XDICTIONARY
360
167
102
}
102
{ACAD_REACTORS
330
64
102
}
330
64
100
AcDbTableStyle
280
     0
  3
Standard
 70
     0
 71
     0
 40
0.06
 41
0.06
280
     0
281
     0
  7
Standard
140
0.18
170
     2
 62
     0
 63
     7
283
     0
 90
      512
 91
        0
  1

274
    -2
284
     1
 64
     0
275
    -2
285
     1
 65
     0
276
    -2
286
     1
 66
     0
277
    -2
287
     1
 67
     0
278
    -2
288
     1
 68
     0
279
    -2
289
     1
 69
     0
  7
Standard
140
0.25
170
     5
 62
     0
 63
     7
283
     0
 90
      512
 91
        0
  1

274
    -2
284
     1
 64
     0
275
    -2
285
     1
 65
     0
276
    -2
286
     1
 66
     0
277
    -2
287
     1
 67
     0
278
    -2
288
     1
 68
     0
279
    -2
289
     1
 69
     0
  7
Standard
140
0.18
170
     5
 62
     0
 63
     7
283
     0
 90
      512
 91
        0
  1

274
    -2
284
     1
 64
     0
275
    -2
285
     1
 65
     0
276
    -2
286
     1
 66
     0
277
    -2
287
     1
 67
     0
278
    -2
288
     1
 68
     0
279
    -2
289
     1
 69
     0
  0
VISUALSTYLE
  5
2F
102
{ACAD_XDICTIONARY
360
174
102
}
102
{ACAD_REACTORS
330
29
102
}
330
29
100
AcDbVisualStyle
  2
2dWireframe
 70
     4
177
     2
291
     0
 71
     0
176
     1
 72
     2
176
     1
 73
     0
176
     1
 90
        0
176
     1
 40
0.6
176
     1
 41
30.0
176
     1
 63
     7
421
 16777215
176
     1
 74
     1
176
     1
 91
        4
176
     1
 64
     7
176
     1
 65
   257
176
     1
 75
     1
176
     1
175
     1
176
     1
 42
1.0
176
     1
 92
        0
176
     1
 66
   257
176
     1
 43
1.0
176
     1
 76
     1
176
     1
 77
     6
176
     1
 78
     2
176
     1
 67
     7
176
     1
 79
     5
176
     1
170
     0
176
     1
171
     0
176
     1
290
     0
176
     1
 93
        1
176
     1
 44
0.0
176
     1
173
     0
176
     1
1001
ACAD
1000
AcDbSavedByObjectVersion
1070
     0
  0
VISUALSTYLE
  5
2E
102
{ACAD_XDICTIONARY
360
172
102
}
102
{ACAD_REACTORS
330
29
102
}
330
29
100
AcDbVisualStyle
  2
Basic
 70
     7
177
     2
291
     1
 71
     1
176
     1
 72
     0
176
     1
 73
     1
176
     1
 90
        0
176
     1
 40
0.6
176
     1
 41
30.0
176
     1
 63
     7
421
 16777215
176
     1
 74
     0
176
     1
 91
        4
176
     1
 64
     7
176
     1
 65
   257
176
     1
 75
     1
176
     1
175
     1
176
     1
 42
1.0
176
     1
 92
        8
176
     1
 66
     7
176
     1
 43
1.0
176
     1
 76
     1
176
     1
 77
     6
176
     1
 78
     2
176
     1
 67
     7
176
     1
 79
     5
176
     1
170
     0
176
     1
171
     0
176
     1
290
     0
176
     1
 93
        1
176
     1
 44
0.0
176
     1
173
     0
176
     1
1001
ACAD
1000
AcDbSavedByObjectVersion
1070
     0
  0
VISUALSTYLE
  5
35
102
{ACAD_XDICTIONARY
360
180
102
}
102
{ACAD_REACTORS
330
29
102
}
330
29
100
AcDbVisualStyle
  2
Brighten
 70
    12
177
     2
291
     1
 71
     2
176
     1
 72
     2
176
     1
 73
     0
176
     1
 90
        0
176
     1
 40
0.6
176
     1
 41
30.0
176
     1
 63
     7
421
 16777215
176
     1
 74
     1
176
     1
 91
        4
176
     1
 64
     7
176
     1
 65
   257
176
     1
 75
     1
176
     1
175
     1
176
     1
 42
1.0
176
     1
 92
        8
176
     1
 66
     7
176
     1
 43
1.0
176
     1
 76
     1
176
     1
 77
     6
176
     1
 78
     2
176
     1
 67
     7
176
     1
 79
     5
176
     1
170
     0
176
     1
171
     0
176
     1
290
     0
176
     1
 93
        1
176
     1
 44
50.0
176
     1
173
     0
176
     1
1001
ACAD
1000
AcDbSavedByObjectVersion
1070
     0
  0
VISUALSTYLE
  5
39
102
{ACAD_XDICTIONARY
360
188
102
}
102
{ACAD_REACTORS
330
29
102
}
330
29
100
AcDbVisualStyle
  2
ColorChange
 70
    16
177
     2
291
     1
 71
     2
176
     1
 72
     2
176
     1
 73
     3
176
     1
 90
        0
176
     1
 40
0.6
176
     1
 41
30.0
176
     1
 63
     8
421
  8421504
176
     1
 74
     1
176
     1
 91
        4
176
     1
 64
     7
176
     1
 65
   257
176
     1
 75
     1
176
     1
175
     1
176
     1
 42
1.0
176
     1
 92
        8
176
     1
 66
     8
424
  8421504
176
     1
 43
1.0
176
     1
 76
     1
176
     1
 77
     6
176
     1
 78
     2
176
     1
 67
     7
176
     1
 79
     5
176
     1
170
     0
176
     1
171
     0
176
     1
290
     0
176
     1
 93
        1
176
     1
 44
0.0
176
     1
173
     0
176
     1
1001
ACAD
1000
AcDbSavedByObjectVersion
1070
     0
  0
VISUALSTYLE
  5
32
102
{ACAD_XDICTIONARY
360
17A
102
}
102
{ACAD_REACTORS
330
29
102
}
330
29
100
AcDbVisualStyle
  2
Conceptual
 70
     9
177
     2
291
     0
 71
     3
176
     1
 72
     2
176
     1
 73
     0
176
     1
 90
        0
176
     1
 40
0.6
176
     1
 41
30.0
176
     1
 63
     7
421
 16777215
176
     1
 74
     2
176
     1
 91
        2
176
     1
 64
     7
176
     1
 65
   257
176
     1
 75
     1
176
     1
175
     1
176
     1
 42
179.0
176
     1
 92
        8
176
     1
 66
     7
176
     1
 43
1.0
176
     1
 76
     1
176
     1
 77
     6
176
     1
 78
     2
176
     1
 67
     7
176
     1
 79
     3
176
     1
170
     0
176
     1
171
     0
176
     1
290
     0
176
     1
 93
        1
176
     1
 44
0.0
176
     1
173
     0
176
     1
1001
ACAD
1000
AcDbSavedByObjectVersion
1070
     0
  0
VISUALSTYLE
  5
34
102
{ACAD_XDICTIONARY
360
17E
102
}
102
{ACAD_REACTORS
330
29
102
}
330
29
100
AcDbVisualStyle
  2
Dim
 70
    11
177
     2
291
     1
 71
     2
176
     1
 72
     2
176
     1
 73
     0
176
     1
 90
        0
176
     1
 40
0.6
176
     1
 41
30.0
176
     1
 63
     7
421
 16777215
176
     1
 74
     1
176
     1
 91
        4
176
     1
 64
     7
176
     1
 65
   257
176
     1
 75
     1
176
     1
175
     1
176
     1
 42
1.0
176
     1
 92
        8
176
     1
 66
     7
176
     1
 43
1.0
176
     1
 76
     1
176
     1
 77
     6
176
     1
 78
     2
176
     1
 67
     7
176
     1
 79
     5
176
     1
170
     0
176
     1
171
     0
176
     1
290
     0
176
     1
 93
        1
176
     1
 44
-50.0
176
     1
173
     0
176
     1
1001
ACAD
1000
AcDbSavedByObjectVersion
1070
     0
  0
VISUALSTYLE
  5
41
102
{ACAD_XDICTIONARY
360
198
102
}
102
{ACAD_REACTORS
330
29
102
}
330
29
100
AcDbVisualStyle
  2
EdgeColorOff
 70
    22
177
     2
291
     1
 71
     2
176
     0
 72
     2
176
     0
 73
     0
176
     0
 90
        0
176
     0
 40
0.6
176
     0
 41
30.0
176
     0
 63
     7
421
 16777215
176
     0
 74
     1
176
     0
 91
        4
176
     0
 64
     7
176
     0
 65
   257
176
     0
 75
     1
176
     0
175
     1
176
     0
 42
1.0
176
     0
 92
        8
176
     2
 66
     7
176
     0
 43
1.0
176
     0
 76
     1
176
     0
 77
     6
176
     0
 78
     2
176
     0
 67
     7
176
     0
 79
     5
176
     0
170
     0
176
     0
171
     0
176
     0
290
     0
176
     0
 93
        1
176
     0
 44
0.0
176
     0
173
     0
176
     0
1001
ACAD
1000
AcDbSavedByObjectVersion
1070
     0
  0
VISUALSTYLE
  5
38
102
{ACAD_XDICTIONARY
360
186
102
}
102
{ACAD_REACTORS
330
29
102
}
330
29
100
AcDbVisualStyle
  2
Facepattern
 70
    15
177
     2
291
     1
 71
     2
176
     1
 72
     2
176
     1
 73
     0
176
     1
 90
        0
176
     1
 40
0.6
176
     1
 41
30.0
176
     1
 63
     7
421
 16777215
176
     1
 74
     1
176
     1
 91
        4
176
     1
 64
     7
176
     1
 65
   257
176
     1
 75
     1
176
     1
175
     1
176
     1
 42
1.0
176
     1
 92
        8
176
     1
 66
     7
176
     1
 43
1.0
176
     1
 76
     1
176
     1
 77
     6
176
     1
 78
     2
176
     1
 67
     7
176
     1
 79
     5
176
     1
170
     0
176
     1
171
     0
176
     1
290
     0
176
     1
 93
        1
176
     1
 44
0.0
176
     1
173
     0
176
     1
1001
ACAD
1000
AcDbSavedByObjectVersion
1070
     0
  0
VISUALSTYLE
  5
2A
102
{ACAD_XDICTIONARY
360
16A
102
}
102
{ACAD_REACTORS
330
29
102
}
330
29
100
AcDbVisualStyle
  2
Flat
 70
     0
177
     2
291
     1
 71
     2
176
     1
 72
     1
176
     1
 73
     1
176
     1
 90
        2
176
     1
 40
0.6
176
     1
 41
30.0
176
     1
 63
     7
421
 16777215
176
     1
 74
     0
176
     1
 91
        0
176
     1
 64
     7
176
     1
 65
   257
176
     1
 75
     1
176
     1
175
     1
176
     1
 42
1.0
176
     1
 92
        8
176
     1
 66
     7
176
     1
 43
1.0
176
     1
 76
     1
176
     1
 77
     6
176
     1
 78
     2
176
     1
 67
     7
176
     1
 79
     5
176
     1
170
     0
176
     1
171
     0
176
     1
290
     0
176
     1
 93
       13
176
     1
 44
0.0
176
     1
173
     0
176
     1
1001
ACAD
1000
AcDbSavedByObjectVersion
1070
     0
  0
VISUALSTYLE
  5
2B
102
{ACAD_XDICTIONARY
360
16C
102
}
102
{ACAD_REACTORS
330
29
102
}
330
29
100
AcDbVisualStyle
  2
FlatWithEdges
 70
     1
177
     2
291
     1
 71
     2
176
     1
 72
     1
176
     1
 73
     1
176
     1
 90
        2
176
     1
 40
0.6
176
     1
 41
30.0
176
     1
 63
     7
421
 16777215
176
     1
 74
     1
176
     1
 91
        0
176
     1
 64
     7
176
     1
 65
   257
176
     1
 75
     1
176
     1
175
     1
176
     1
 42
1.0
176
     1
 92
        0
176
     1
 66
   257
176
     1
 43
1.0
176
     1
 76
     1
176
     1
 77
     6
176
     1
 78
     2
176
     1
 67
     7
176
     1
 79
     5
176
     1
170
     0
176
     1
171
     0
176
     1
290
     0
176
     1
 93
       13
176
     1
 44
0.0
176
     1
173
     0
176
     1
1001
ACAD
1000
AcDbSavedByObjectVersion
1070
     0
  0
VISUALSTYLE
  5
2C
102
{ACAD_XDICTIONARY
360
16E
102
}
102
{ACAD_REACTORS
330
29
102
}
330
29
100
AcDbVisualStyle
  2
Gouraud
 70
     2
177
     2
291
     1
 71
     2
176
     1
 72
     2
176
     1
 73
     1
176
     1
 90
        2
176
     1
 40
0.6
176
     1
 41
30.0
176
     1
 63
     7
421
 16777215
176
     1
 74
     0
176
     1
 91
        0
176
     1
 64
     7
176
     1
 65
   257
176
     1
 75
     1
176
     1
175
     1
176
     1
 42
1.0
176
     1
 92
        0
176
     1
 66
     7
176
     1
 43
1.0
176
     1
 76
     1
176
     1
 77
     6
176
     1
 78
     2
176
     1
 67
     7
176
     1
 79
     5
176
     1
170
     0
176
     1
171
     0
176
     1
290
     0
176
     1
 93
       13
176
     1
 44
0.0
176
     1
173
     0
176
     1
1001
ACAD
1000
AcDbSavedByObjectVersion
1070
     0
  0
VISUALSTYLE
  5
2D
102
{ACAD_XDICTIONARY
360
170
102
}
102
{ACAD_REACTORS
330
29
102
}
330
29
100
AcDbVisualStyle
  2
GouraudWithEdges
 70
     3
177
     2
291
     1
 71
     2
176
     1
 72
     2
176
     1
 73
     1
176
     1
 90
        2
176
     1
 40
0.6
176
     1
 41
30.0
176
     1
 63
     7
421
 16777215
176
     1
 74
     1
176
     1
 91
        0
176
     1
 64
     7
176
     1
 65
   257
176
     1
 75
     1
176
     1
175
     1
176
     1
 42
1.0
176
     1
 92
        0
176
     1
 66
   257
176
     1
 43
1.0
176
     1
 76
     1
176
     1
 77
     6
176
     1
 78
     2
176
     1
 67
     7
176
     1
 79
     5
176
     1
170
     0
176
     1
171
     0
176
     1
290
     0
176
     1
 93
       13
176
     1
 44
0.0
176
     1
173
     0
176
     1
1001
ACAD
1000
AcDbSavedByObjectVersion
1070
     0
  0
VISUALSTYLE
  5
31
102
{ACAD_XDICTIONARY
360
178
102
}
102
{ACAD_REACTORS
330
29
102
}
330
29
100
AcDbVisualStyle
  2
Hidden
 70
     6
177
     2
291
     0
 71
     1
176
     1
 72
     2
176
     1
 73
     2
176
     1
 90
        0
176
     1
 40
0.6
176
     1
 41
30.0
176
     1
 63
     7
421
 16777215
176
     1
 74
     2
176
     1
 91
        2
176
     1
 64
     7
176
     1
 65
   257
176
     1
 75
     2
176
     1
175
     1
176
     1
 42
40.0
176
     1
 92
        0
176
     1
 66
   257
176
     1
 43
1.0
176
     1
 76
     1
176
     1
 77
     6
176
     1
 78
     2
176
     1
 67
     7
176
     1
 79
     3
176
     1
170
     0
176
     1
171
     0
176
     1
290
     0
176
     1
 93
        1
176
     1
 44
0.0
176
     1
173
     0
176
     1
1001
ACAD
1000
AcDbSavedByObjectVersion
1070
     0
  0
VISUALSTYLE
  5
3F
102
{ACAD_XDICTIONARY
360
194
102
}
102
{ACAD_REACTORS
330
29
102
}
330
29
100
AcDbVisualStyle
  2
JitterOff
 70
    20
177
     2
291
     1
 71
     2
176
     0
 72
     2
176
     0
 73
     0
176
     0
 90
        0
176
     0
 40
0.6
176
     0
 41
30.0
176
     0
 63
     7
421
 16777215
176
     0
 74
     1
176
     0
 91
        4
176
     0
 64
     7
176
     0
 65
   257
176
     0
 75
     1
176
     0
175
     1
176
     0
 42
1.0
176
     0
 92
       10
176
     2
 66
     7
176
     0
 43
1.0
176
     0
 76
     1
176
     0
 77
     6
176
     0
 78
     2
176
     0
 67
     7
176
     0
 79
     5
176
     0
170
     0
176
     0
171
     0
176
     0
290
     0
176
     0
 93
        1
176
     0
 44
0.0
176
     0
173
     0
176
     0
1001
ACAD
1000
AcDbSavedByObjectVersion
1070
     0
  0
VISUALSTYLE
  5
37
102
{ACAD_XDICTIONARY
360
184
102
}
102
{ACAD_REACTORS
330
29
102
}
330
29
100
AcDbVisualStyle
  2
Linepattern
 70
    14
177
     2
291
     1
 71
     2
176
     1
 72
     2
176
     1
 73
     0
176
     1
 90
        0
176
     1
 40
0.6
176
     1
 41
30.0
176
     1
 63
     7
421
 16777215
176
     1
 74
     1
176
     1
 91
        4
176
     1
 64
     7
176
     1
 65
   257
176
     1
 75
     7
176
     1
175
     7
176
     1
 42
1.0
176
     1
 92
        8
176
     1
 66
     7
176
     1
 43
1.0
176
     1
 76
     1
176
     1
 77
     6
176
     1
 78
     2
176
     1
 67
     7
176
     1
 79
     5
176
     1
170
     0
176
     1
171
     0
176
     1
290
     0
176
     1
 93
        1
176
     1
 44
0.0
176
     1
173
     0
176
     1
1001
ACAD
1000
AcDbSavedByObjectVersion
1070
     0
  0
VISUALSTYLE
  5
40
102
{ACAD_XDICTIONARY
360
196
102
}
102
{ACAD_REACTORS
330
29
102
}
330
29
100
AcDbVisualStyle
  2
OverhangOff
 70
    21
177
     2
291
     1
 71
     2
176
     0
 72
     2
176
     0
 73
     0
176
     0
 90
        0
176
     0
 40
0.6
176
     0
 41
30.0
176
     0
 63
     7
421
 16777215
176
     0
 74
     1
176
     0
 91
        4
176
     0
 64
     7
176
     0
 65
   257
176
     0
 75
     1
176
     0
175
     1
176
     0
 42
1.0
176
     0
 92
        9
176
     2
 66
     7
176
     0
 43
1.0
176
     0
 76
     1
176
     0
 77
     6
176
     0
 78
     2
176
     0
 67
     7
176
     0
 79
     5
176
     0
170
     0
176
     0
171
     0
176
     0
290
     0
176
     0
 93
        1
176
     0
 44
0.0
176
     0
173
     0
176
     0
1001
ACAD
1000
AcDbSavedByObjectVersion
1070
     0
  0
VISUALSTYLE
  5
33
102
{ACAD_XDICTIONARY
360
17C
102
}
102
{ACAD_REACTORS
330
29
102
}
330
29
100
AcDbVisualStyle
  2
Realistic
 70
     8
177
     2
291
     0
 71
     2
176
     1
 72
     3
176
     1
 73
     0
176
     1
 90
        2
176
     1
 40
0.6
176
     1
 41
30.0
176
     1
 63
     7
421
 16777215
176
     1
 74
     0
176
     1
 91
        0
176
     1
 64
     7
176
     1
 65
   257
176
     1
 75
     1
176
     1
175
     1
176
     1
 42
1.0
176
     1
 92
        8
176
     1
 66
   257
176
     1
 43
1.0
176
     1
 76
     1
176
     1
 77
     6
176
     1
 78
     2
176
     1
 67
     7
176
     1
 79
     3
176
     1
170
     0
176
     1
171
     0
176
     1
290
     0
176
     1
 93
       13
176
     1
 44
0.0
176
     1
173
     0
176
     1
1001
ACAD
1000
AcDbSavedByObjectVersion
1070
     0
  0
VISUALSTYLE
  5
3E
102
{ACAD_XDICTIONARY
360
192
102
}
102
{ACAD_REACTORS
330
29
102
}
330
29
100
AcDbVisualStyle
  2
Shaded
 70
    27
177
     2
291
     0
 71
     2
176
     1
 72
     2
176
     1
 73
     1
176
     1
 90
        2
176
     1
 40
0.6
176
     1
 41
30.0
176
     1
 63
     7
421
 16777215
176
     1
 74
     0
176
     1
 91
        4
176
     1
 64
     7
176
     1
 65
   257
176
     1
 75
     1
176
     1
175
     1
176
     1
 42
1.0
176
     1
 92
        8
176
     1
 66
   257
176
     1
 43
1.0
176
     1
 76
     1
176
     1
 77
     6
176
     1
 78
     2
176
     1
 67
     8
425
  7895160
176
     1
 79
     3
176
     1
170
     0
176
     1
171
     0
176
     1
290
     0
176
     1
 93
        5
176
     1
 44
0.0
176
     1
173
     0
176
     1
1001
ACAD
1000
AcDbSavedByObjectVersion
1070
     0
  0
VISUALSTYLE
  5
3D
102
{ACAD_XDICTIONARY
360
190
102
}
102
{ACAD_REACTORS
330
29
102
}
330
29
100
AcDbVisualStyle
  2
Shaded with edges
 70
    26
177
     2
291
     0
 71
     2
176
     1
 72
     2
176
     1
 73
     1
176
     1
 90
        2
176
     1
 40
0.6
176
     1
 41
30.0
176
     1
 63
     7
421
 16777215
176
     1
 74
     1
176
     1
 91
        2
176
     1
 64
     7
176
     1
 65
   257
176
     1
 75
     2
176
     1
175
     1
176
     1
 42
1.0
176
     1
 92
        8
176
     1
 66
   257
176
     1
 43
1.0
176
     1
 76
     1
176
     1
 77
     6
176
     1
 78
     2
176
     1
 67
     7
176
     1
 79
     3
176
     1
170
     0
176
     1
171
     0
176
     1
290
     0
176
     1
 93
        5
176
     1
 44
0.0
176
     1
173
     0
176
     1
1001
ACAD
1000
AcDbSavedByObjectVersion
1070
     0
  0
VISUALSTYLE
  5
3A
102
{ACAD_XDICTIONARY
360
18A
102
}
102
{ACAD_REACTORS
330
29
102
}
330
29
100
AcDbVisualStyle
  2
Shades of Gray
 70
    23
177
     2
291
     0
 71
     2
176
     1
 72
     2
176
     1
 73
     3
176
     1
 90
        0
176
     1
 40
0.6
176
     1
 41
30.0
176
     1
 63
     7
421
 16777215
176
     1
 74
     2
176
     1
 91
        2
176
     1
 64
     7
176
     1
 65
     7
176
     1
 75
     1
176
     1
175
     1
176
     1
 42
40.0
176
     1
 92
        8
176
     1
 66
     7
176
     1
 43
1.0
176
     1
 76
     1
176
     1
 77
     6
176
     1
 78
     2
176
     1
 67
     7
176
     1
 79
     3
176
     1
170
     0
176
     1
171
     0
176
     1
290
     0
176
     1
 93
        1
176
     1
 44
0.0
176
     1
173
     0
176
     1
1001
ACAD
1000
AcDbSavedByObjectVersion
1070
     0
  0
VISUALSTYLE
  5
3B
102
{ACAD_XDICTIONARY
360
18C
102
}
102
{ACAD_REACTORS
330
29
102
}
330
29
100
AcDbVisualStyle
  2
Sketchy
 70
    24
177
     2
291
     0
 71
     1
176
     1
 72
     2
176
     1
 73
     2
176
     1
 90
        0
176
     1
 40
0.6
176
     1
 41
30.0
176
     1
 63
     7
421
 16777215
176
     1
 74
     2
176
     1
 91
        2
176
     1
 64
     7
176
     1
 65
     7
176
     1
 75
     1
176
     1
175
     1
176
     1
 42
40.0
176
     1
 92
       11
176
     1
 66
     7
176
     1
 43
1.0
176
     1
 76
     1
176
     1
 77
     6
176
     1
 78
     2
176
     1
 67
     7
176
     1
 79
     6
176
     1
170
     0
176
     1
171
     0
176
     1
290
     0
176
     1
 93
        1
176
     1
 44
0.0
176
     1
173
     0
176
     1
1001
ACAD
1000
AcDbSavedByObjectVersion
1070
     0
  0
VISUALSTYLE
  5
36
102
{ACAD_XDICTIONARY
360
182
102
}
102
{ACAD_REACTORS
330
29
102
}
330
29
100
AcDbVisualStyle
  2
Thicken
 70
    13
177
     2
291
     1
 71
     2
176
     1
 72
     2
176
     1
 73
     0
176
     1
 90
        0
176
     1
 40
0.6
176
     1
 41
30.0
176
     1
 63
     7
421
 16777215
176
     1
 74
     1
176
     1
 91
        4
176
     1
 64
     7
176
     1
 65
   257
176
     1
 75
     1
176
     1
175
     1
176
     1
 42
1.0
176
     1
 92
       12
176
     1
 66
     7
176
     1
 43
1.0
176
     1
 76
     1
176
     1
 77
     6
176
     1
 78
     2
176
     1
 67
     7
176
     1
 79
     5
176
     1
170
     0
176
     1
171
     0
176
     1
290
     0
176
     1
 93
        1
176
     1
 44
0.0
176
     1
173
     0
176
     1
1001
ACAD
1000
AcDbSavedByObjectVersion
1070
     0
  0
VISUALSTYLE
  5
30
102
{ACAD_XDICTIONARY
360
176
102
}
102
{ACAD_REACTORS
330
29
102
}
330
29
100
AcDbVisualStyle
  2
Wireframe
 70
     5
177
     2
291
     0
 71
     0
176
     1
 72
     2
176
     1
 73
     0
176
     1
 90
        0
176
     1
 40
0.6
176
     1
 41
30.0
176
     1
 63
     7
421
 16777215
176
     1
 74
     1
176
     1
 91
        4
176
     1
 64
     7
176
     1
 65
   257
176
     1
 75
     1
176
     1
175
     1
176
     1
 42
1.0
176
     1
 92
        0
176
     1
 66
   257
176
     1
 43
1.0
176
     1
 76
     1
176
     1
 77
     6
176
     1
 78
     2
176
     1
 67
     7
176
     1
 79
     3
176
     1
170
     0
176
     1
171
     0
176
     1
290
     0
176
     1
 93
        1
176
     1
 44
0.0
176
     1
173
     0
176
     1
1001
ACAD
1000
AcDbSavedByObjectVersion
1070
     0
  0
VISUALSTYLE
  5
3C
102
{ACAD_XDICTIONARY
360
18E
102
}
102
{ACAD_REACTORS
330
29
102
}
330
29
100
AcDbVisualStyle
  2
X-Ray
 70
    25
177
     2
291
     0
 71
     2
176
     1
 72
     2
176
     1
 73
     1
176
     1
 90
        1
176
     1
 40
0.5
176
     1
 41
30.0
176
     1
 63
     7
421
 16777215
176
     1
 74
     1
176
     1
 91
        0
176
     1
 64
     7
176
     1
 65
   257
176
     1
 75
     1
176
     1
175
     1
176
     1
 42
1.0
176
     1
 92
        8
176
     1
 66
     7
176
     1
 43
1.0
176
     1
 76
     1
176
     1
 77
     6
176
     1
 78
     2
176
     1
 67
     7
176
     1
 79
     3
176
     1
170
     0
176
     1
171
     0
176
     1
290
     0
176
     1
 93
       13
176
     1
 44
0.0
176
     1
173
     0
176
     1
1001
ACAD
1000
AcDbSavedByObjectVersion
1070
     0
  0
DICTIONARYVAR
  5
166
102
{ACAD_REACTORS
330
161
102
}
330
161
100
DictionaryVariables
280
     0
  1
1:1
  0
DICTIONARYVAR
  5
163
102
{ACAD_REACTORS
330
161
102
}
330
161
100
DictionaryVariables
280
     0
  1
STANDARD
  0
DICTIONARYVAR
  5
162
102
{ACAD_REACTORS
330
161
102
}
330
161
100
DictionaryVariables
280
     0
  1
STANDARD
  0
DICTIONARYVAR
  5
164
102
{ACAD_REACTORS
330
161
102
}
330
161
100
DictionaryVariables
280
     0
  1
Imperial24
  0
DICTIONARYVAR
  5
165
102
{ACAD_REACTORS
330
161
102
}
330
161
100
DictionaryVariables
280
     0
  1
Imperial24
  0
DICTIONARY
  5
19E
330
6B
100
AcDbDictionary
280
     1
281
     1
  3
ACAD_XREC_ROUNDTRIP
360
19F
  0
DICTIONARY
  5
1A
330
19
100
AcDbDictionary
280
     1
281
     1
  3
BUMPTILE
360
1C
  3
DIFFUSETILE
360
1B
  3
OPACITYTILE
360
1F
  3
REFLECTIONTILE
360
1E
  3
REFRACTIONTILE
360
20
  3
SPECULARTILE
360
1D
  0
DICTIONARY
  5
12
330
11
100
AcDbDictionary
280
     1
281
     1
  3
BUMPTILE
360
14
  3
DIFFUSETILE
360
13
  3
OPACITYTILE
360
17
  3
REFLECTIONTILE
360
16
  3
REFRACTIONTILE
360
18
  3
SPECULARTILE
360
15
  0
DICTIONARY
  5
22
330
21
100
AcDbDictionary
280
     1
281
     1
  3
BUMPTILE
360
24
  3
DIFFUSETILE
360
23
  3
OPACITYTILE
360
27
  3
REFLECTIONTILE
360
26
  3
REFRACTIONTILE
360
28
  3
SPECULARTILE
360
25
  0
DICTIONARY
  5
19A
330
67
100
AcDbDictionary
280
     1
281
     1
  3
ACAD_XREC_ROUNDTRIP
360
19B
  0
DICTIONARY
  5
19C
330
69
100
AcDbDictionary
280
     1
281
     1
  3
ACAD_XREC_ROUNDTRIP
360
19D
  0
DICTIONARY
  5
167
330
65
100
AcDbDictionary
280
     1
281
     1
  3
ACAD_ROUNDTRIP_2008_TABLESTYLE_CELLSTYLEMAP
360
168
  0
DICTIONARY
  5
174
330
2F
100
AcDbDictionary
280
     1
281
     1
  3
ACAD_XREC_ROUNDTRIP
360
175
  0
DICTIONARY
  5
172
330
2E
100
AcDbDictionary
280
     1
281
     1
  3
ACAD_XREC_ROUNDTRIP
360
173
  0
DICTIONARY
  5
180
330
35
100
AcDbDictionary
280
     1
281
     1
  3
ACAD_XREC_ROUNDTRIP
360
181
  0
DICTIONARY
  5
188
330
39
100
AcDbDictionary
280
     1
281
     1
  3
ACAD_XREC_ROUNDTRIP
360
189
  0
DICTIONARY
  5
17A
330
32
100
AcDbDictionary
280
     1
281
     1
  3
ACAD_XREC_ROUNDTRIP
360
17B
  0
DICTIONARY
  5
17E
330
34
100
AcDbDictionary
280
     1
281
     1
  3
ACAD_XREC_ROUNDTRIP
360
17F
  0
DICTIONARY
  5
198
330
41
100
AcDbDictionary
280
     1
281
     1
  3
ACAD_XREC_ROUNDTRIP
360
199
  0
DICTIONARY
  5
186
330
38
100
AcDbDictionary
280
     1
281
     1
  3
ACAD_XREC_ROUNDTRIP
360
187
  0
DICTIONARY
  5
16A
330
2A
100
AcDbDictionary
280
     1
281
     1
  3
ACAD_XREC_ROUNDTRIP
360
16B
  0
DICTIONARY
  5
16C
330
2B
100
AcDbDictionary
280
     1
281
     1
  3
ACAD_XREC_ROUNDTRIP
360
16D
  0
DICTIONARY
  5
16E
330
2C
100
AcDbDictionary
280
     1
281
     1
  3
ACAD_XREC_ROUNDTRIP
360
16F
  0
DICTIONARY
  5
170
330
2D
100
AcDbDictionary
280
     1
281
     1
  3
ACAD_XREC_ROUNDTRIP
360
171
  0
DICTIONARY
  5
178
330
31
100
AcDbDictionary
280
     1
281
     1
  3
ACAD_XREC_ROUNDTRIP
360
179
  0
DICTIONARY
  5
194
330
3F
100
AcDbDictionary
280
     1
281
     1
  3
ACAD_XREC_ROUNDTRIP
360
195
  0
DICTIONARY
  5
184
330
37
100
AcDbDictionary
280
     1
281
     1
  3
ACAD_XREC_ROUNDTRIP
360
185
  0
DICTIONARY
  5
196
330
40
100
AcDbDictionary
280
     1
281
     1
  3
ACAD_XREC_ROUNDTRIP
360
197
  0
DICTIONARY
  5
17C
330
33
100
AcDbDictionary
280
     1
281
     1
  3
ACAD_XREC_ROUNDTRIP
360
17D
  0
DICTIONARY
  5
192
330
3E
100
AcDbDictionary
280
     1
281
     1
  3
ACAD_XREC_ROUNDTRIP
360
193
  0
DICTIONARY
  5
190
330
3D
100
AcDbDictionary
280
     1
281
     1
  3
ACAD_XREC_ROUNDTRIP
360
191
  0
DICTIONARY
  5
18A
330
3A
100
AcDbDictionary
280
     1
281
     1
  3
ACAD_XREC_ROUNDTRIP
360
18B
  0
DICTIONARY
  5
18C
330
3B
100
AcDbDictionary
280
     1
281
     1
  3
ACAD_XREC_ROUNDTRIP
360
18D
  0
DICTIONARY
  5
182
330
36
100
AcDbDictionary
280
     1
281
     1
  3
ACAD_XREC_ROUNDTRIP
360
183
  0
DICTIONARY
  5
176
330
30
100
AcDbDictionary
280
     1
281
     1
  3
ACAD_XREC_ROUNDTRIP
360
177
  0
DICTIONARY
  5
18E
330
3C
100
AcDbDictionary
280
     1
281
     1
  3
ACAD_XREC_ROUNDTRIP
360
18F
  0
XRECORD
  5
19F
102
{ACAD_REACTORS
330
19E
102
}
330
19E
100
AcDbXrecord
280
     1
102
DISPLAYNAME
  1
Imperial24
102
FLAGS
 90
        0
  0
XRECORD
  5
1C
102
{ACAD_REACTORS
330
1A
102
}
330
1A
100
AcDbXrecord
280
     1
270
     1
271
     1
  0
XRECORD
  5
1B
102
{ACAD_REACTORS
330
1A
102
}
330
1A
100
AcDbXrecord
280
     1
270
     1
271
     1
  0
XRECORD
  5
1F
102
{ACAD_REACTORS
330
1A
102
}
330
1A
100
AcDbXrecord
280
     1
270
     1
271
     1
  0
XRECORD
  5
1E
102
{ACAD_REACTORS
330
1A
102
}
330
1A
100
AcDbXrecord
280
     1
270
     1
271
     1
  0
XRECORD
  5
20
102
{ACAD_REACTORS
330
1A
102
}
330
1A
100
AcDbXrecord
280
     1
270
     1
271
     1
  0
XRECORD
  5
1D
102
{ACAD_REACTORS
330
1A
102
}
330
1A
100
AcDbXrecord
280
     1
270
     1
271
     1
  0
XRECORD
  5
14
102
{ACAD_REACTORS
330
12
102
}
330
12
100
AcDbXrecord
280
     1
270
     1
271
     1
  0
XRECORD
  5
13
102
{ACAD_REACTORS
330
12
102
}
330
12
100
AcDbXrecord
280
     1
270
     1
271
     1
  0
XRECORD
  5
17
102
{ACAD_REACTORS
330
12
102
}
330
12
100
AcDbXrecord
280
     1
270
     1
271
     1
  0
XRECORD
  5
16
102
{ACAD_REACTORS
330
12
102
}
330
12
100
AcDbXrecord
280
     1
270
     1
271
     1
  0
XRECORD
  5
18
102
{ACAD_REACTORS
330
12
102
}
330
12
100
AcDbXrecord
280
     1
270
     1
271
     1
  0
XRECORD
  5
15
102
{ACAD_REACTORS
330
12
102
}
330
12
100
AcDbXrecord
280
     1
270
     1
271
     1
  0
XRECORD
  5
24
102
{ACAD_REACTORS
330
22
102
}
330
22
100
AcDbXrecord
280
     1
270
     1
271
     1
  0
XRECORD
  5
23
102
{ACAD_REACTORS
330
22
102
}
330
22
100
AcDbXrecord
280
     1
270
     1
271
     1
  0
XRECORD
  5
27
102
{ACAD_REACTORS
330
22
102
}
330
22
100
AcDbXrecord
280
     1
270
     1
271
     1
  0
XRECORD
  5
26
102
{ACAD_REACTORS
330
22
102
}
330
22
100
AcDbXrecord
280
     1
270
     1
271
     1
  0
XRECORD
  5
28
102
{ACAD_REACTORS
330
22
102
}
330
22
100
AcDbXrecord
280
     1
270
     1
271
     1
  0
XRECORD
  5
25
102
{ACAD_REACTORS
330
22
102
}
330
22
100
AcDbXrecord
280
     1
270
     1
271
     1
  0
XRECORD
  5
19B
102
{ACAD_REACTORS
330
19A
102
}
330
19A
100
AcDbXrecord
280
     1
102
ACAD_ROUNDTRIP_2012_MLEADER_STYLE
298
     1
  0
XRECORD
  5
19D
102
{ACAD_REACTORS
330
19C
102
}
330
19C
100
AcDbXrecord
280
     1
102
DISPLAYNAME
  1
Imperial24
102
FLAGS
 90
        0
  0
CELLSTYLEMAP
  5
168
102
{ACAD_REACTORS
330
167
102
}
330
167
100
AcDbCellStyleMap
 90
        3
300
CELLSTYLE
  1
TABLEFORMAT_BEGIN
 90
        5
170
     1
 91
        0
 92
    32768
 62
   257
 93
        1
300
CONTENTFORMAT
  1
CONTENTFORMAT_BEGIN
 90
        0
 91
        0
 92
      512
 93
        0
300

 40
0.0
140
1.0
 94
        5
 62
     0
340
55
144
0.25
309
CONTENTFORMAT_END
171
     0
 94
        0
309
TABLEFORMAT_END
  1
CELLSTYLE_BEGIN
 90
        1
 91
        1
300
_TITLE
309
CELLSTYLE_END
300
CELLSTYLE
  1
TABLEFORMAT_BEGIN
 90
        5
170
     1
 91
        0
 92
        0
 62
   257
 93
        1
300
CONTENTFORMAT
  1
CONTENTFORMAT_BEGIN
 90
        0
 91
        0
 92
      512
 93
        0
300

 40
0.0
140
1.0
 94
        5
 62
     0
340
55
144
0.18
309
CONTENTFORMAT_END
171
     0
 94
        0
309
TABLEFORMAT_END
  1
CELLSTYLE_BEGIN
 90
        2
 91
        1
300
_HEADER
309
CELLSTYLE_END
300
CELLSTYLE
  1
TABLEFORMAT_BEGIN
 90
        5
170
     1
 91
        0
 92
        0
 62
   257
 93
        1
300
CONTENTFORMAT
  1
CONTENTFORMAT_BEGIN
 90
        0
 91
        0
 92
      512
 93
        0
300

 40
0.0
140
1.0
 94
        2
 62
     0
340
55
144
0.18
309
CONTENTFORMAT_END
171
     0
 94
        0
309
TABLEFORMAT_END
  1
CELLSTYLE_BEGIN
 90
        3
 91
        2
300
_DATA
309
CELLSTYLE_END
  0
XRECORD
  5
175
102
{ACAD_REACTORS
330
174
102
}
330
174
100
AcDbXrecord
280
     1
102
RTVSPost2010Prop28
280
     1
102
RTVSPost2010PropOp28
 70
     1
102
RTVSPost2010Prop29
280
     1
102
RTVSPost2010PropOp29
 70
     1
102
RTVSPost2010Prop30
280
     0
102
RTVSPost2010PropOp30
 70
     1
102
RTVSPost2010Prop31
280
     0
102
RTVSPost2010PropOp31
 70
     1
102
RTVSPost2010Prop32
280
     0
102
RTVSPost2010PropOp32
 70
     1
102
RTVSPost2010Prop33
280
     0
102
RTVSPost2010PropOp33
 70
     1
102
RTVSPost2010Prop34
280
     0
102
RTVSPost2010PropOp34
 70
     1
102
RTVSPost2010Prop35
280
     0
102
RTVSPost2010PropOp35
 70
     1
102
RTVSPost2010Prop36
280
     0
102
RTVSPost2010PropOp36
 70
     1
102
RTVSPost2010Prop37
 90
       50
102
RTVSPost2010PropOp37
 70
     1
102
RTVSPost2010Prop38
140
0.0
102
RTVSPost2010PropOp38
 70
     1
102
RTVSPost2010Prop39
140
1.0
102
RTVSPost2010PropOp39
 70
     1
102
RTVSPost2010Prop40
 90
        0
102
RTVSPost2010PropOp40
 70
     1
102
RTVSPost2010Prop41ColorIndex
 90
       18
102
RTVSPost2010Prop41ColorRGB
 90
        0
102
RTVSPost2010PropOp41
 70
     1
102
RTVSPost2010Prop42
 90
       50
102
RTVSPost2010PropOp42
 70
     1
102
RTVSPost2010Prop43
 90
        3
102
RTVSPost2010PropOp43
 70
     1
102
RTVSPost2010Prop44ColorIndex
 90
        5
102
RTVSPost2010Prop44ColorRGB
 90
      255
102
RTVSPost2010PropOp44
 70
     1
102
RTVSPost2010Prop45
280
     0
102
RTVSPost2010PropOp45
 70
     1
102
RTVSPost2010Prop46
 90
       50
102
RTVSPost2010PropOp46
 70
     1
102
RTVSPost2010Prop47
 90
       50
102
RTVSPost2010PropOp47
 70
     1
102
RTVSPost2010Prop48
 90
       50
102
RTVSPost2010PropOp48
 70
     1
102
RTVSPost2010Prop49
280
     0
102
RTVSPost2010PropOp49
 70
     1
102
RTVSPost2010Prop50
 90
       50
102
RTVSPost2010PropOp50
 70
     1
102
RTVSPost2010Prop51ColorIndex
 90
      256
102
RTVSPost2010Prop51ColorRGB
 90
-16777216
102
RTVSPost2010PropOp51
 70
     0
102
RTVSPost2010Prop52
140
1.0
102
RTVSPost2010PropOp52
 70
     0
102
RTVSPost2010Prop53
 90
        2
102
RTVSPost2010PropOp53
 70
     1
102
RTVSPost2010Prop54
  1
strokes_ogs.tif
102
RTVSPost2010PropOp54
 70
     1
102
RTVSPost2010Prop55
280
     0
102
RTVSPost2010PropOp55
 70
     1
102
RTVSPost2010Prop56
140
1.0
102
RTVSPost2010PropOp56
 70
     1
102
RTVSPost2010Prop57
140
1.0
102
RTVSPost2010PropOp57
 70
     1
  0
XRECORD
  5
173
102
{ACAD_REACTORS
330
172
102
}
330
172
100
AcDbXrecord
280
     1
102
RTVSPost2010Prop28
280
     0
102
RTVSPost2010PropOp28
 70
     1
102
RTVSPost2010Prop29
280
     1
102
RTVSPost2010PropOp29
 70
     1
102
RTVSPost2010Prop30
280
     1
102
RTVSPost2010PropOp30
 70
     1
102
RTVSPost2010Prop31
280
     0
102
RTVSPost2010PropOp31
 70
     1
102
RTVSPost2010Prop32
280
     0
102
RTVSPost2010PropOp32
 70
     1
102
RTVSPost2010Prop33
280
     0
102
RTVSPost2010PropOp33
 70
     1
102
RTVSPost2010Prop34
280
     0
102
RTVSPost2010PropOp34
 70
     1
102
RTVSPost2010Prop35
280
     0
102
RTVSPost2010PropOp35
 70
     1
102
RTVSPost2010Prop36
280
     0
102
RTVSPost2010PropOp36
 70
     1
102
RTVSPost2010Prop37
 90
       50
102
RTVSPost2010PropOp37
 70
     1
102
RTVSPost2010Prop38
140
0.0
102
RTVSPost2010PropOp38
 70
     1
102
RTVSPost2010Prop39
140
1.0
102
RTVSPost2010PropOp39
 70
     1
102
RTVSPost2010Prop40
 90
        0
102
RTVSPost2010PropOp40
 70
     1
102
RTVSPost2010Prop41ColorIndex
 90
       18
102
RTVSPost2010Prop41ColorRGB
 90
        0
102
RTVSPost2010PropOp41
 70
     1
102
RTVSPost2010Prop42
 90
       50
102
RTVSPost2010PropOp42
 70
     1
102
RTVSPost2010Prop43
 90
        3
102
RTVSPost2010PropOp43
 70
     1
102
RTVSPost2010Prop44ColorIndex
 90
        5
102
RTVSPost2010Prop44ColorRGB
 90
      255
102
RTVSPost2010PropOp44
 70
     1
102
RTVSPost2010Prop45
280
     0
102
RTVSPost2010PropOp45
 70
     1
102
RTVSPost2010Prop46
 90
       50
102
RTVSPost2010PropOp46
 70
     1
102
RTVSPost2010Prop47
 90
       50
102
RTVSPost2010PropOp47
 70
     1
102
RTVSPost2010Prop48
 90
       50
102
RTVSPost2010PropOp48
 70
     1
102
RTVSPost2010Prop49
280
     0
102
RTVSPost2010PropOp49
 70
     1
102
RTVSPost2010Prop50
 90
       50
102
RTVSPost2010PropOp50
 70
     1
102
RTVSPost2010Prop51ColorIndex
 90
      256
102
RTVSPost2010Prop51ColorRGB
 90
-16777216
102
RTVSPost2010PropOp51
 70
     0
102
RTVSPost2010Prop52
140
1.0
102
RTVSPost2010PropOp52
 70
     0
102
RTVSPost2010Prop53
 90
        2
102
RTVSPost2010PropOp53
 70
     1
102
RTVSPost2010Prop54
  1
strokes_ogs.tif
102
RTVSPost2010PropOp54
 70
     1
102
RTVSPost2010Prop55
280
     0
102
RTVSPost2010PropOp55
 70
     1
102
RTVSPost2010Prop56
140
1.0
102
RTVSPost2010PropOp56
 70
     1
102
RTVSPost2010Prop57
140
1.0
102
RTVSPost2010PropOp57
 70
     1
  0
XRECORD
  5
181
102
{ACAD_REACTORS
330
180
102
}
330
180
100
AcDbXrecord
280
     1
102
RTVSPost2010Prop28
280
     0
102
RTVSPost2010PropOp28
 70
     1
102
RTVSPost2010Prop29
280
     1
102
RTVSPost2010PropOp29
 70
     1
102
RTVSPost2010Prop30
280
     1
102
RTVSPost2010PropOp30
 70
     1
102
RTVSPost2010Prop31
280
     0
102
RTVSPost2010PropOp31
 70
     1
102
RTVSPost2010Prop32
280
     0
102
RTVSPost2010PropOp32
 70
     1
102
RTVSPost2010Prop33
280
     0
102
RTVSPost2010PropOp33
 70
     1
102
RTVSPost2010Prop34
280
     0
102
RTVSPost2010PropOp34
 70
     1
102
RTVSPost2010Prop35
280
     0
102
RTVSPost2010PropOp35
 70
     1
102
RTVSPost2010Prop36
280
     0
102
RTVSPost2010PropOp36
 70
     1
102
RTVSPost2010Prop37
 90
       50
102
RTVSPost2010PropOp37
 70
     1
102
RTVSPost2010Prop38
140
0.0
102
RTVSPost2010PropOp38
 70
     1
102
RTVSPost2010Prop39
140
1.0
102
RTVSPost2010PropOp39
 70
     1
102
RTVSPost2010Prop40
 90
        0
102
RTVSPost2010PropOp40
 70
     1
102
RTVSPost2010Prop41ColorIndex
 90
       18
102
RTVSPost2010Prop41ColorRGB
 90
        0
102
RTVSPost2010PropOp41
 70
     1
102
RTVSPost2010Prop42
 90
       50
102
RTVSPost2010PropOp42
 70
     1
102
RTVSPost2010Prop43
 90
        3
102
RTVSPost2010PropOp43
 70
     1
102
RTVSPost2010Prop44ColorIndex
 90
        5
102
RTVSPost2010Prop44ColorRGB
 90
      255
102
RTVSPost2010PropOp44
 70
     1
102
RTVSPost2010Prop45
280
     0
102
RTVSPost2010PropOp45
 70
     1
102
RTVSPost2010Prop46
 90
       50
102
RTVSPost2010PropOp46
 70
     1
102
RTVSPost2010Prop47
 90
       50
102
RTVSPost2010PropOp47
 70
     1
102
RTVSPost2010Prop48
 90
       50
102
RTVSPost2010PropOp48
 70
     1
102
RTVSPost2010Prop49
280
     0
102
RTVSPost2010PropOp49
 70
     1
102
RTVSPost2010Prop50
 90
       50
102
RTVSPost2010PropOp50
 70
     1
102
RTVSPost2010Prop51ColorIndex
 90
      256
102
RTVSPost2010Prop51ColorRGB
 90
-16777216
102
RTVSPost2010PropOp51
 70
     0
102
RTVSPost2010Prop52
140
1.0
102
RTVSPost2010PropOp52
 70
     0
102
RTVSPost2010Prop53
 90
        2
102
RTVSPost2010PropOp53
 70
     1
102
RTVSPost2010Prop54
  1
strokes_ogs.tif
102
RTVSPost2010PropOp54
 70
     1
102
RTVSPost2010Prop55
280
     0
102
RTVSPost2010PropOp55
 70
     1
102
RTVSPost2010Prop56
140
1.0
102
RTVSPost2010PropOp56
 70
     1
102
RTVSPost2010Prop57
140
1.0
102
RTVSPost2010PropOp57
 70
     1
  0
XRECORD
  5
189
102
{ACAD_REACTORS
330
188
102
}
330
188
100
AcDbXrecord
280
     1
102
RTVSPost2010Prop28
280
     0
102
RTVSPost2010PropOp28
 70
     1
102
RTVSPost2010Prop29
280
     1
102
RTVSPost2010PropOp29
 70
     1
102
RTVSPost2010Prop30
280
     1
102
RTVSPost2010PropOp30
 70
     1
102
RTVSPost2010Prop31
280
     0
102
RTVSPost2010PropOp31
 70
     1
102
RTVSPost2010Prop32
280
     0
102
RTVSPost2010PropOp32
 70
     1
102
RTVSPost2010Prop33
280
     0
102
RTVSPost2010PropOp33
 70
     1
102
RTVSPost2010Prop34
280
     0
102
RTVSPost2010PropOp34
 70
     1
102
RTVSPost2010Prop35
280
     0
102
RTVSPost2010PropOp35
 70
     1
102
RTVSPost2010Prop36
280
     0
102
RTVSPost2010PropOp36
 70
     1
102
RTVSPost2010Prop37
 90
       50
102
RTVSPost2010PropOp37
 70
     1
102
RTVSPost2010Prop38
140
0.0
102
RTVSPost2010PropOp38
 70
     1
102
RTVSPost2010Prop39
140
1.0
102
RTVSPost2010PropOp39
 70
     1
102
RTVSPost2010Prop40
 90
        0
102
RTVSPost2010PropOp40
 70
     1
102
RTVSPost2010Prop41ColorIndex
 90
       18
102
RTVSPost2010Prop41ColorRGB
 90
        0
102
RTVSPost2010PropOp41
 70
     1
102
RTVSPost2010Prop42
 90
       50
102
RTVSPost2010PropOp42
 70
     1
102
RTVSPost2010Prop43
 90
        3
102
RTVSPost2010PropOp43
 70
     1
102
RTVSPost2010Prop44ColorIndex
 90
        5
102
RTVSPost2010Prop44ColorRGB
 90
      255
102
RTVSPost2010PropOp44
 70
     1
102
RTVSPost2010Prop45
280
     0
102
RTVSPost2010PropOp45
 70
     1
102
RTVSPost2010Prop46
 90
       50
102
RTVSPost2010PropOp46
 70
     1
102
RTVSPost2010Prop47
 90
       50
102
RTVSPost2010PropOp47
 70
     1
102
RTVSPost2010Prop48
 90
       50
102
RTVSPost2010PropOp48
 70
     1
102
RTVSPost2010Prop49
280
     0
102
RTVSPost2010PropOp49
 70
     1
102
RTVSPost2010Prop50
 90
       50
102
RTVSPost2010PropOp50
 70
     1
102
RTVSPost2010Prop51ColorIndex
 90
      256
102
RTVSPost2010Prop51ColorRGB
 90
-16777216
102
RTVSPost2010PropOp51
 70
     0
102
RTVSPost2010Prop52
140
1.0
102
RTVSPost2010PropOp52
 70
     0
102
RTVSPost2010Prop53
 90
        2
102
RTVSPost2010PropOp53
 70
     1
102
RTVSPost2010Prop54
  1
strokes_ogs.tif
102
RTVSPost2010PropOp54
 70
     1
102
RTVSPost2010Prop55
280
     0
102
RTVSPost2010PropOp55
 70
     1
102
RTVSPost2010Prop56
140
1.0
102
RTVSPost2010PropOp56
 70
     1
102
RTVSPost2010Prop57
140
1.0
102
RTVSPost2010PropOp57
 70
     1
  0
XRECORD
  5
17B
102
{ACAD_REACTORS
330
17A
102
}
330
17A
100
AcDbXrecord
280
     1
102
RTVSPost2010Prop28
280
     0
102
RTVSPost2010PropOp28
 70
     1
102
RTVSPost2010Prop29
280
     1
102
RTVSPost2010PropOp29
 70
     1
102
RTVSPost2010Prop30
280
     1
102
RTVSPost2010PropOp30
 70
     1
102
RTVSPost2010Prop31
280
     0
102
RTVSPost2010PropOp31
 70
     1
102
RTVSPost2010Prop32
280
     0
102
RTVSPost2010PropOp32
 70
     1
102
RTVSPost2010Prop33
280
     0
102
RTVSPost2010PropOp33
 70
     1
102
RTVSPost2010Prop34
280
     0
102
RTVSPost2010PropOp34
 70
     1
102
RTVSPost2010Prop35
280
     0
102
RTVSPost2010PropOp35
 70
     1
102
RTVSPost2010Prop36
280
     0
102
RTVSPost2010PropOp36
 70
     1
102
RTVSPost2010Prop37
 90
       50
102
RTVSPost2010PropOp37
 70
     1
102
RTVSPost2010Prop38
140
0.0
102
RTVSPost2010PropOp38
 70
     1
102
RTVSPost2010Prop39
140
1.0
102
RTVSPost2010PropOp39
 70
     1
102
RTVSPost2010Prop40
 90
        0
102
RTVSPost2010PropOp40
 70
     1
102
RTVSPost2010Prop41ColorIndex
 90
       18
102
RTVSPost2010Prop41ColorRGB
 90
        0
102
RTVSPost2010PropOp41
 70
     1
102
RTVSPost2010Prop42
 90
       50
102
RTVSPost2010PropOp42
 70
     1
102
RTVSPost2010Prop43
 90
        3
102
RTVSPost2010PropOp43
 70
     1
102
RTVSPost2010Prop44ColorIndex
 90
        5
102
RTVSPost2010Prop44ColorRGB
 90
      255
102
RTVSPost2010PropOp44
 70
     1
102
RTVSPost2010Prop45
280
     0
102
RTVSPost2010PropOp45
 70
     1
102
RTVSPost2010Prop46
 90
       50
102
RTVSPost2010PropOp46
 70
     1
102
RTVSPost2010Prop47
 90
       50
102
RTVSPost2010PropOp47
 70
     1
102
RTVSPost2010Prop48
 90
       50
102
RTVSPost2010PropOp48
 70
     1
102
RTVSPost2010Prop49
280
     0
102
RTVSPost2010PropOp49
 70
     1
102
RTVSPost2010Prop50
 90
       50
102
RTVSPost2010PropOp50
 70
     1
102
RTVSPost2010Prop51ColorIndex
 90
      256
102
RTVSPost2010Prop51ColorRGB
 90
-16777216
102
RTVSPost2010PropOp51
 70
     0
102
RTVSPost2010Prop52
140
1.0
102
RTVSPost2010PropOp52
 70
     0
102
RTVSPost2010Prop53
 90
        2
102
RTVSPost2010PropOp53
 70
     1
102
RTVSPost2010Prop54
  1
strokes_ogs.tif
102
RTVSPost2010PropOp54
 70
     1
102
RTVSPost2010Prop55
280
     0
102
RTVSPost2010PropOp55
 70
     1
102
RTVSPost2010Prop56
140
1.0
102
RTVSPost2010PropOp56
 70
     1
102
RTVSPost2010Prop57
140
1.0
102
RTVSPost2010PropOp57
 70
     1
  0
XRECORD
  5
17F
102
{ACAD_REACTORS
330
17E
102
}
330
17E
100
AcDbXrecord
280
     1
102
RTVSPost2010Prop28
280
     0
102
RTVSPost2010PropOp28
 70
     1
102
RTVSPost2010Prop29
280
     1
102
RTVSPost2010PropOp29
 70
     1
102
RTVSPost2010Prop30
280
     1
102
RTVSPost2010PropOp30
 70
     1
102
RTVSPost2010Prop31
280
     0
102
RTVSPost2010PropOp31
 70
     1
102
RTVSPost2010Prop32
280
     0
102
RTVSPost2010PropOp32
 70
     1
102
RTVSPost2010Prop33
280
     0
102
RTVSPost2010PropOp33
 70
     1
102
RTVSPost2010Prop34
280
     0
102
RTVSPost2010PropOp34
 70
     1
102
RTVSPost2010Prop35
280
     0
102
RTVSPost2010PropOp35
 70
     1
102
RTVSPost2010Prop36
280
     0
102
RTVSPost2010PropOp36
 70
     1
102
RTVSPost2010Prop37
 90
       50
102
RTVSPost2010PropOp37
 70
     1
102
RTVSPost2010Prop38
140
0.0
102
RTVSPost2010PropOp38
 70
     1
102
RTVSPost2010Prop39
140
1.0
102
RTVSPost2010PropOp39
 70
     1
102
RTVSPost2010Prop40
 90
        0
102
RTVSPost2010PropOp40
 70
     1
102
RTVSPost2010Prop41ColorIndex
 90
       18
102
RTVSPost2010Prop41ColorRGB
 90
        0
102
RTVSPost2010PropOp41
 70
     1
102
RTVSPost2010Prop42
 90
       50
102
RTVSPost2010PropOp42
 70
     1
102
RTVSPost2010Prop43
 90
        3
102
RTVSPost2010PropOp43
 70
     1
102
RTVSPost2010Prop44ColorIndex
 90
        5
102
RTVSPost2010Prop44ColorRGB
 90
      255
102
RTVSPost2010PropOp44
 70
     1
102
RTVSPost2010Prop45
280
     0
102
RTVSPost2010PropOp45
 70
     1
102
RTVSPost2010Prop46
 90
       50
102
RTVSPost2010PropOp46
 70
     1
102
RTVSPost2010Prop47
 90
       50
102
RTVSPost2010PropOp47
 70
     1
102
RTVSPost2010Prop48
 90
       50
102
RTVSPost2010PropOp48
 70
     1
102
RTVSPost2010Prop49
280
     0
102
RTVSPost2010PropOp49
 70
     1
102
RTVSPost2010Prop50
 90
       50
102
RTVSPost2010PropOp50
 70
     1
102
RTVSPost2010Prop51ColorIndex
 90
      256
102
RTVSPost2010Prop51ColorRGB
 90
-16777216
102
RTVSPost2010PropOp51
 70
     0
102
RTVSPost2010Prop52
140
1.0
102
RTVSPost2010PropOp52
 70
     0
102
RTVSPost2010Prop53
 90
        2
102
RTVSPost2010PropOp53
 70
     1
102
RTVSPost2010Prop54
  1
strokes_ogs.tif
102
RTVSPost2010PropOp54
 70
     1
102
RTVSPost2010Prop55
280
     0
102
RTVSPost2010PropOp55
 70
     1
102
RTVSPost2010Prop56
140
1.0
102
RTVSPost2010PropOp56
 70
     1
102
RTVSPost2010Prop57
140
1.0
102
RTVSPost2010PropOp57
 70
     1
  0
XRECORD
  5
199
102
{ACAD_REACTORS
330
198
102
}
330
198
100
AcDbXrecord
280
     1
102
RTVSPost2010Prop28
280
     0
102
RTVSPost2010PropOp28
 70
     0
102
RTVSPost2010Prop29
280
     1
102
RTVSPost2010PropOp29
 70
     0
102
RTVSPost2010Prop30
280
     1
102
RTVSPost2010PropOp30
 70
     0
102
RTVSPost2010Prop31
280
     0
102
RTVSPost2010PropOp31
 70
     0
102
RTVSPost2010Prop32
280
     0
102
RTVSPost2010PropOp32
 70
     0
102
RTVSPost2010Prop33
280
     0
102
RTVSPost2010PropOp33
 70
     0
102
RTVSPost2010Prop34
280
     0
102
RTVSPost2010PropOp34
 70
     0
102
RTVSPost2010Prop35
280
     0
102
RTVSPost2010PropOp35
 70
     0
102
RTVSPost2010Prop36
280
     0
102
RTVSPost2010PropOp36
 70
     0
102
RTVSPost2010Prop37
 90
       50
102
RTVSPost2010PropOp37
 70
     0
102
RTVSPost2010Prop38
140
0.0
102
RTVSPost2010PropOp38
 70
     0
102
RTVSPost2010Prop39
140
1.0
102
RTVSPost2010PropOp39
 70
     0
102
RTVSPost2010Prop40
 90
        0
102
RTVSPost2010PropOp40
 70
     0
102
RTVSPost2010Prop41ColorIndex
 90
       18
102
RTVSPost2010Prop41ColorRGB
 90
        0
102
RTVSPost2010PropOp41
 70
     0
102
RTVSPost2010Prop42
 90
       50
102
RTVSPost2010PropOp42
 70
     0
102
RTVSPost2010Prop43
 90
        3
102
RTVSPost2010PropOp43
 70
     0
102
RTVSPost2010Prop44ColorIndex
 90
        5
102
RTVSPost2010Prop44ColorRGB
 90
      255
102
RTVSPost2010PropOp44
 70
     0
102
RTVSPost2010Prop45
280
     0
102
RTVSPost2010PropOp45
 70
     0
102
RTVSPost2010Prop46
 90
       50
102
RTVSPost2010PropOp46
 70
     0
102
RTVSPost2010Prop47
 90
       50
102
RTVSPost2010PropOp47
 70
     0
102
RTVSPost2010Prop48
 90
       50
102
RTVSPost2010PropOp48
 70
     0
102
RTVSPost2010Prop49
280
     0
102
RTVSPost2010PropOp49
 70
     0
102
RTVSPost2010Prop50
 90
       50
102
RTVSPost2010PropOp50
 70
     0
102
RTVSPost2010Prop51ColorIndex
 90
      256
102
RTVSPost2010Prop51ColorRGB
 90
-16777216
102
RTVSPost2010PropOp51
 70
     0
102
RTVSPost2010Prop52
140
1.0
102
RTVSPost2010PropOp52
 70
     0
102
RTVSPost2010Prop53
 90
        2
102
RTVSPost2010PropOp53
 70
     0
102
RTVSPost2010Prop54
  1
strokes_ogs.tif
102
RTVSPost2010PropOp54
 70
     0
102
RTVSPost2010Prop55
280
     0
102
RTVSPost2010PropOp55
 70
     0
102
RTVSPost2010Prop56
140
1.0
102
RTVSPost2010PropOp56
 70
     0
102
RTVSPost2010Prop57
140
1.0
102
RTVSPost2010PropOp57
 70
     0
  0
XRECORD
  5
187
102
{ACAD_REACTORS
330
186
102
}
330
186
100
AcDbXrecord
280
     1
102
RTVSPost2010Prop28
280
     0
102
RTVSPost2010PropOp28
 70
     1
102
RTVSPost2010Prop29
280
     1
102
RTVSPost2010PropOp29
 70
     1
102
RTVSPost2010Prop30
280
     1
102
RTVSPost2010PropOp30
 70
     1
102
RTVSPost2010Prop31
280
     0
102
RTVSPost2010PropOp31
 70
     1
102
RTVSPost2010Prop32
280
     0
102
RTVSPost2010PropOp32
 70
     1
102
RTVSPost2010Prop33
280
     0
102
RTVSPost2010PropOp33
 70
     1
102
RTVSPost2010Prop34
280
     0
102
RTVSPost2010PropOp34
 70
     1
102
RTVSPost2010Prop35
280
     0
102
RTVSPost2010PropOp35
 70
     1
102
RTVSPost2010Prop36
280
     0
102
RTVSPost2010PropOp36
 70
     1
102
RTVSPost2010Prop37
 90
       50
102
RTVSPost2010PropOp37
 70
     1
102
RTVSPost2010Prop38
140
0.0
102
RTVSPost2010PropOp38
 70
     1
102
RTVSPost2010Prop39
140
1.0
102
RTVSPost2010PropOp39
 70
     1
102
RTVSPost2010Prop40
 90
        0
102
RTVSPost2010PropOp40
 70
     1
102
RTVSPost2010Prop41ColorIndex
 90
       18
102
RTVSPost2010Prop41ColorRGB
 90
        0
102
RTVSPost2010PropOp41
 70
     1
102
RTVSPost2010Prop42
 90
       50
102
RTVSPost2010PropOp42
 70
     1
102
RTVSPost2010Prop43
 90
        3
102
RTVSPost2010PropOp43
 70
     1
102
RTVSPost2010Prop44ColorIndex
 90
        5
102
RTVSPost2010Prop44ColorRGB
 90
      255
102
RTVSPost2010PropOp44
 70
     1
102
RTVSPost2010Prop45
280
     0
102
RTVSPost2010PropOp45
 70
     1
102
RTVSPost2010Prop46
 90
       50
102
RTVSPost2010PropOp46
 70
     1
102
RTVSPost2010Prop47
 90
       50
102
RTVSPost2010PropOp47
 70
     1
102
RTVSPost2010Prop48
 90
       50
102
RTVSPost2010PropOp48
 70
     1
102
RTVSPost2010Prop49
280
     0
102
RTVSPost2010PropOp49
 70
     1
102
RTVSPost2010Prop50
 90
       50
102
RTVSPost2010PropOp50
 70
     1
102
RTVSPost2010Prop51ColorIndex
 90
      256
102
RTVSPost2010Prop51ColorRGB
 90
-16777216
102
RTVSPost2010PropOp51
 70
     0
102
RTVSPost2010Prop52
140
1.0
102
RTVSPost2010PropOp52
 70
     0
102
RTVSPost2010Prop53
 90
        2
102
RTVSPost2010PropOp53
 70
     1
102
RTVSPost2010Prop54
  1
strokes_ogs.tif
102
RTVSPost2010PropOp54
 70
     1
102
RTVSPost2010Prop55
280
     0
102
RTVSPost2010PropOp55
 70
     1
102
RTVSPost2010Prop56
140
1.0
102
RTVSPost2010PropOp56
 70
     1
102
RTVSPost2010Prop57
140
1.0
102
RTVSPost2010PropOp57
 70
     1
  0
XRECORD
  5
16B
102
{ACAD_REACTORS
330
16A
102
}
330
16A
100
AcDbXrecord
280
     1
102
RTVSPost2010Prop28
280
     0
102
RTVSPost2010PropOp28
 70
     1
102
RTVSPost2010Prop29
280
     1
102
RTVSPost2010PropOp29
 70
     1
102
RTVSPost2010Prop30
280
     1
102
RTVSPost2010PropOp30
 70
     1
102
RTVSPost2010Prop31
280
     0
102
RTVSPost2010PropOp31
 70
     1
102
RTVSPost2010Prop32
280
     0
102
RTVSPost2010PropOp32
 70
     1
102
RTVSPost2010Prop33
280
     0
102
RTVSPost2010PropOp33
 70
     1
102
RTVSPost2010Prop34
280
     0
102
RTVSPost2010PropOp34
 70
     1
102
RTVSPost2010Prop35
280
     0
102
RTVSPost2010PropOp35
 70
     1
102
RTVSPost2010Prop36
280
     0
102
RTVSPost2010PropOp36
 70
     1
102
RTVSPost2010Prop37
 90
       50
102
RTVSPost2010PropOp37
 70
     1
102
RTVSPost2010Prop38
140
0.0
102
RTVSPost2010PropOp38
 70
     1
102
RTVSPost2010Prop39
140
1.0
102
RTVSPost2010PropOp39
 70
     1
102
RTVSPost2010Prop40
 90
        0
102
RTVSPost2010PropOp40
 70
     1
102
RTVSPost2010Prop41ColorIndex
 90
       18
102
RTVSPost2010Prop41ColorRGB
 90
        0
102
RTVSPost2010PropOp41
 70
     1
102
RTVSPost2010Prop42
 90
       50
102
RTVSPost2010PropOp42
 70
     1
102
RTVSPost2010Prop43
 90
        3
102
RTVSPost2010PropOp43
 70
     1
102
RTVSPost2010Prop44ColorIndex
 90
        5
102
RTVSPost2010Prop44ColorRGB
 90
      255
102
RTVSPost2010PropOp44
 70
     1
102
RTVSPost2010Prop45
280
     0
102
RTVSPost2010PropOp45
 70
     1
102
RTVSPost2010Prop46
 90
       50
102
RTVSPost2010PropOp46
 70
     1
102
RTVSPost2010Prop47
 90
       50
102
RTVSPost2010PropOp47
 70
     1
102
RTVSPost2010Prop48
 90
       50
102
RTVSPost2010PropOp48
 70
     1
102
RTVSPost2010Prop49
280
     0
102
RTVSPost2010PropOp49
 70
     1
102
RTVSPost2010Prop50
 90
       50
102
RTVSPost2010PropOp50
 70
     1
102
RTVSPost2010Prop51ColorIndex
 90
      256
102
RTVSPost2010Prop51ColorRGB
 90
-16777216
102
RTVSPost2010PropOp51
 70
     0
102
RTVSPost2010Prop52
140
1.0
102
RTVSPost2010PropOp52
 70
     0
102
RTVSPost2010Prop53
 90
        2
102
RTVSPost2010PropOp53
 70
     1
102
RTVSPost2010Prop54
  1
strokes_ogs.tif
102
RTVSPost2010PropOp54
 70
     1
102
RTVSPost2010Prop55
280
     0
102
RTVSPost2010PropOp55
 70
     1
102
RTVSPost2010Prop56
140
1.0
102
RTVSPost2010PropOp56
 70
     1
102
RTVSPost2010Prop57
140
1.0
102
RTVSPost2010PropOp57
 70
     1
  0
XRECORD
  5
16D
102
{ACAD_REACTORS
330
16C
102
}
330
16C
100
AcDbXrecord
280
     1
102
RTVSPost2010Prop28
280
     0
102
RTVSPost2010PropOp28
 70
     1
102
RTVSPost2010Prop29
280
     1
102
RTVSPost2010PropOp29
 70
     1
102
RTVSPost2010Prop30
280
     1
102
RTVSPost2010PropOp30
 70
     1
102
RTVSPost2010Prop31
280
     0
102
RTVSPost2010PropOp31
 70
     1
102
RTVSPost2010Prop32
280
     0
102
RTVSPost2010PropOp32
 70
     1
102
RTVSPost2010Prop33
280
     0
102
RTVSPost2010PropOp33
 70
     1
102
RTVSPost2010Prop34
280
     0
102
RTVSPost2010PropOp34
 70
     1
102
RTVSPost2010Prop35
280
     0
102
RTVSPost2010PropOp35
 70
     1
102
RTVSPost2010Prop36
280
     0
102
RTVSPost2010PropOp36
 70
     1
102
RTVSPost2010Prop37
 90
       50
102
RTVSPost2010PropOp37
 70
     1
102
RTVSPost2010Prop38
140
0.0
102
RTVSPost2010PropOp38
 70
     1
102
RTVSPost2010Prop39
140
1.0
102
RTVSPost2010PropOp39
 70
     1
102
RTVSPost2010Prop40
 90
        0
102
RTVSPost2010PropOp40
 70
     1
102
RTVSPost2010Prop41ColorIndex
 90
       18
102
RTVSPost2010Prop41ColorRGB
 90
        0
102
RTVSPost2010PropOp41
 70
     1
102
RTVSPost2010Prop42
 90
       50
102
RTVSPost2010PropOp42
 70
     1
102
RTVSPost2010Prop43
 90
        3
102
RTVSPost2010PropOp43
 70
     1
102
RTVSPost2010Prop44ColorIndex
 90
        5
102
RTVSPost2010Prop44ColorRGB
 90
      255
102
RTVSPost2010PropOp44
 70
     1
102
RTVSPost2010Prop45
280
     0
102
RTVSPost2010PropOp45
 70
     1
102
RTVSPost2010Prop46
 90
       50
102
RTVSPost2010PropOp46
 70
     1
102
RTVSPost2010Prop47
 90
       50
102
RTVSPost2010PropOp47
 70
     1
102
RTVSPost2010Prop48
 90
       50
102
RTVSPost2010PropOp48
 70
     1
102
RTVSPost2010Prop49
280
     0
102
RTVSPost2010PropOp49
 70
     1
102
RTVSPost2010Prop50
 90
       50
102
RTVSPost2010PropOp50
 70
     1
102
RTVSPost2010Prop51ColorIndex
 90
      256
102
RTVSPost2010Prop51ColorRGB
 90
-16777216
102
RTVSPost2010PropOp51
 70
     0
102
RTVSPost2010Prop52
140
1.0
102
RTVSPost2010PropOp52
 70
     0
102
RTVSPost2010Prop53
 90
        2
102
RTVSPost2010PropOp53
 70
     1
102
RTVSPost2010Prop54
  1
strokes_ogs.tif
102
RTVSPost2010PropOp54
 70
     1
102
RTVSPost2010Prop55
280
     0
102
RTVSPost2010PropOp55
 70
     1
102
RTVSPost2010Prop56
140
1.0
102
RTVSPost2010PropOp56
 70
     1
102
RTVSPost2010Prop57
140
1.0
102
RTVSPost2010PropOp57
 70
     1
  0
XRECORD
  5
16F
102
{ACAD_REACTORS
330
16E
102
}
330
16E
100
AcDbXrecord
280
     1
102
RTVSPost2010Prop28
280
     0
102
RTVSPost2010PropOp28
 70
     1
102
RTVSPost2010Prop29
280
     1
102
RTVSPost2010PropOp29
 70
     1
102
RTVSPost2010Prop30
280
     1
102
RTVSPost2010PropOp30
 70
     1
102
RTVSPost2010Prop31
280
     0
102
RTVSPost2010PropOp31
 70
     1
102
RTVSPost2010Prop32
280
     0
102
RTVSPost2010PropOp32
 70
     1
102
RTVSPost2010Prop33
280
     0
102
RTVSPost2010PropOp33
 70
     1
102
RTVSPost2010Prop34
280
     0
102
RTVSPost2010PropOp34
 70
     1
102
RTVSPost2010Prop35
280
     0
102
RTVSPost2010PropOp35
 70
     1
102
RTVSPost2010Prop36
280
     0
102
RTVSPost2010PropOp36
 70
     1
102
RTVSPost2010Prop37
 90
       50
102
RTVSPost2010PropOp37
 70
     1
102
RTVSPost2010Prop38
140
0.0
102
RTVSPost2010PropOp38
 70
     1
102
RTVSPost2010Prop39
140
1.0
102
RTVSPost2010PropOp39
 70
     1
102
RTVSPost2010Prop40
 90
        0
102
RTVSPost2010PropOp40
 70
     1
102
RTVSPost2010Prop41ColorIndex
 90
       18
102
RTVSPost2010Prop41ColorRGB
 90
        0
102
RTVSPost2010PropOp41
 70
     1
102
RTVSPost2010Prop42
 90
       50
102
RTVSPost2010PropOp42
 70
     1
102
RTVSPost2010Prop43
 90
        3
102
RTVSPost2010PropOp43
 70
     1
102
RTVSPost2010Prop44ColorIndex
 90
        5
102
RTVSPost2010Prop44ColorRGB
 90
      255
102
RTVSPost2010PropOp44
 70
     1
102
RTVSPost2010Prop45
280
     0
102
RTVSPost2010PropOp45
 70
     1
102
RTVSPost2010Prop46
 90
       50
102
RTVSPost2010PropOp46
 70
     1
102
RTVSPost2010Prop47
 90
       50
102
RTVSPost2010PropOp47
 70
     1
102
RTVSPost2010Prop48
 90
       50
102
RTVSPost2010PropOp48
 70
     1
102
RTVSPost2010Prop49
280
     0
102
RTVSPost2010PropOp49
 70
     1
102
RTVSPost2010Prop50
 90
       50
102
RTVSPost2010PropOp50
 70
     1
102
RTVSPost2010Prop51ColorIndex
 90
      256
102
RTVSPost2010Prop51ColorRGB
 90
-16777216
102
RTVSPost2010PropOp51
 70
     0
102
RTVSPost2010Prop52
140
1.0
102
RTVSPost2010PropOp52
 70
     0
102
RTVSPost2010Prop53
 90
        2
102
RTVSPost2010PropOp53
 70
     1
102
RTVSPost2010Prop54
  1
strokes_ogs.tif
102
RTVSPost2010PropOp54
 70
     1
102
RTVSPost2010Prop55
280
     0
102
RTVSPost2010PropOp55
 70
     1
102
RTVSPost2010Prop56
140
1.0
102
RTVSPost2010PropOp56
 70
     1
102
RTVSPost2010Prop57
140
1.0
102
RTVSPost2010PropOp57
 70
     1
  0
XRECORD
  5
171
102
{ACAD_REACTORS
330
170
102
}
330
170
100
AcDbXrecord
280
     1
102
RTVSPost2010Prop28
280
     0
102
RTVSPost2010PropOp28
 70
     1
102
RTVSPost2010Prop29
280
     1
102
RTVSPost2010PropOp29
 70
     1
102
RTVSPost2010Prop30
280
     1
102
RTVSPost2010PropOp30
 70
     1
102
RTVSPost2010Prop31
280
     0
102
RTVSPost2010PropOp31
 70
     1
102
RTVSPost2010Prop32
280
     0
102
RTVSPost2010PropOp32
 70
     1
102
RTVSPost2010Prop33
280
     0
102
RTVSPost2010PropOp33
 70
     1
102
RTVSPost2010Prop34
280
     0
102
RTVSPost2010PropOp34
 70
     1
102
RTVSPost2010Prop35
280
     0
102
RTVSPost2010PropOp35
 70
     1
102
RTVSPost2010Prop36
280
     0
102
RTVSPost2010PropOp36
 70
     1
102
RTVSPost2010Prop37
 90
       50
102
RTVSPost2010PropOp37
 70
     1
102
RTVSPost2010Prop38
140
0.0
102
RTVSPost2010PropOp38
 70
     1
102
RTVSPost2010Prop39
140
1.0
102
RTVSPost2010PropOp39
 70
     1
102
RTVSPost2010Prop40
 90
        0
102
RTVSPost2010PropOp40
 70
     1
102
RTVSPost2010Prop41ColorIndex
 90
       18
102
RTVSPost2010Prop41ColorRGB
 90
        0
102
RTVSPost2010PropOp41
 70
     1
102
RTVSPost2010Prop42
 90
       50
102
RTVSPost2010PropOp42
 70
     1
102
RTVSPost2010Prop43
 90
        3
102
RTVSPost2010PropOp43
 70
     1
102
RTVSPost2010Prop44ColorIndex
 90
        5
102
RTVSPost2010Prop44ColorRGB
 90
      255
102
RTVSPost2010PropOp44
 70
     1
102
RTVSPost2010Prop45
280
     0
102
RTVSPost2010PropOp45
 70
     1
102
RTVSPost2010Prop46
 90
       50
102
RTVSPost2010PropOp46
 70
     1
102
RTVSPost2010Prop47
 90
       50
102
RTVSPost2010PropOp47
 70
     1
102
RTVSPost2010Prop48
 90
       50
102
RTVSPost2010PropOp48
 70
     1
102
RTVSPost2010Prop49
280
     0
102
RTVSPost2010PropOp49
 70
     1
102
RTVSPost2010Prop50
 90
       50
102
RTVSPost2010PropOp50
 70
     1
102
RTVSPost2010Prop51ColorIndex
 90
      256
102
RTVSPost2010Prop51ColorRGB
 90
-16777216
102
RTVSPost2010PropOp51
 70
     0
102
RTVSPost2010Prop52
140
1.0
102
RTVSPost2010PropOp52
 70
     0
102
RTVSPost2010Prop53
 90
        2
102
RTVSPost2010PropOp53
 70
     1
102
RTVSPost2010Prop54
  1
strokes_ogs.tif
102
RTVSPost2010PropOp54
 70
     1
102
RTVSPost2010Prop55
280
     0
102
RTVSPost2010PropOp55
 70
     1
102
RTVSPost2010Prop56
140
1.0
102
RTVSPost2010PropOp56
 70
     1
102
RTVSPost2010Prop57
140
1.0
102
RTVSPost2010PropOp57
 70
     1
  0
XRECORD
  5
179
102
{ACAD_REACTORS
330
178
102
}
330
178
100
AcDbXrecord
280
     1
102
RTVSPost2010Prop28
280
     0
102
RTVSPost2010PropOp28
 70
     1
102
RTVSPost2010Prop29
280
     1
102
RTVSPost2010PropOp29
 70
     1
102
RTVSPost2010Prop30
280
     1
102
RTVSPost2010PropOp30
 70
     1
102
RTVSPost2010Prop31
280
     0
102
RTVSPost2010PropOp31
 70
     1
102
RTVSPost2010Prop32
280
     0
102
RTVSPost2010PropOp32
 70
     1
102
RTVSPost2010Prop33
280
     0
102
RTVSPost2010PropOp33
 70
     1
102
RTVSPost2010Prop34
280
     0
102
RTVSPost2010PropOp34
 70
     1
102
RTVSPost2010Prop35
280
     0
102
RTVSPost2010PropOp35
 70
     1
102
RTVSPost2010Prop36
280
     0
102
RTVSPost2010PropOp36
 70
     1
102
RTVSPost2010Prop37
 90
       50
102
RTVSPost2010PropOp37
 70
     1
102
RTVSPost2010Prop38
140
0.0
102
RTVSPost2010PropOp38
 70
     1
102
RTVSPost2010Prop39
140
1.0
102
RTVSPost2010PropOp39
 70
     1
102
RTVSPost2010Prop40
 90
        0
102
RTVSPost2010PropOp40
 70
     1
102
RTVSPost2010Prop41ColorIndex
 90
       18
102
RTVSPost2010Prop41ColorRGB
 90
        0
102
RTVSPost2010PropOp41
 70
     1
102
RTVSPost2010Prop42
 90
       50
102
RTVSPost2010PropOp42
 70
     1
102
RTVSPost2010Prop43
 90
        3
102
RTVSPost2010PropOp43
 70
     1
102
RTVSPost2010Prop44ColorIndex
 90
        5
102
RTVSPost2010Prop44ColorRGB
 90
      255
102
RTVSPost2010PropOp44
 70
     1
102
RTVSPost2010Prop45
280
     0
102
RTVSPost2010PropOp45
 70
     1
102
RTVSPost2010Prop46
 90
       50
102
RTVSPost2010PropOp46
 70
     1
102
RTVSPost2010Prop47
 90
       50
102
RTVSPost2010PropOp47
 70
     1
102
RTVSPost2010Prop48
 90
       50
102
RTVSPost2010PropOp48
 70
     1
102
RTVSPost2010Prop49
280
     0
102
RTVSPost2010PropOp49
 70
     1
102
RTVSPost2010Prop50
 90
       50
102
RTVSPost2010PropOp50
 70
     1
102
RTVSPost2010Prop51ColorIndex
 90
      256
102
RTVSPost2010Prop51ColorRGB
 90
-16777216
102
RTVSPost2010PropOp51
 70
     0
102
RTVSPost2010Prop52
140
1.0
102
RTVSPost2010PropOp52
 70
     0
102
RTVSPost2010Prop53
 90
        2
102
RTVSPost2010PropOp53
 70
     1
102
RTVSPost2010Prop54
  1
strokes_ogs.tif
102
RTVSPost2010PropOp54
 70
     1
102
RTVSPost2010Prop55
280
     0
102
RTVSPost2010PropOp55
 70
     1
102
RTVSPost2010Prop56
140
1.0
102
RTVSPost2010PropOp56
 70
     1
102
RTVSPost2010Prop57
140
1.0
102
RTVSPost2010PropOp57
 70
     1
  0
XRECORD
  5
195
102
{ACAD_REACTORS
330
194
102
}
330
194
100
AcDbXrecord
280
     1
102
RTVSPost2010Prop28
280
     0
102
RTVSPost2010PropOp28
 70
     0
102
RTVSPost2010Prop29
280
     1
102
RTVSPost2010PropOp29
 70
     0
102
RTVSPost2010Prop30
280
     1
102
RTVSPost2010PropOp30
 70
     0
102
RTVSPost2010Prop31
280
     0
102
RTVSPost2010PropOp31
 70
     0
102
RTVSPost2010Prop32
280
     0
102
RTVSPost2010PropOp32
 70
     0
102
RTVSPost2010Prop33
280
     0
102
RTVSPost2010PropOp33
 70
     0
102
RTVSPost2010Prop34
280
     0
102
RTVSPost2010PropOp34
 70
     0
102
RTVSPost2010Prop35
280
     0
102
RTVSPost2010PropOp35
 70
     0
102
RTVSPost2010Prop36
280
     0
102
RTVSPost2010PropOp36
 70
     0
102
RTVSPost2010Prop37
 90
       50
102
RTVSPost2010PropOp37
 70
     0
102
RTVSPost2010Prop38
140
0.0
102
RTVSPost2010PropOp38
 70
     0
102
RTVSPost2010Prop39
140
1.0
102
RTVSPost2010PropOp39
 70
     0
102
RTVSPost2010Prop40
 90
        0
102
RTVSPost2010PropOp40
 70
     0
102
RTVSPost2010Prop41ColorIndex
 90
       18
102
RTVSPost2010Prop41ColorRGB
 90
        0
102
RTVSPost2010PropOp41
 70
     0
102
RTVSPost2010Prop42
 90
       50
102
RTVSPost2010PropOp42
 70
     0
102
RTVSPost2010Prop43
 90
        3
102
RTVSPost2010PropOp43
 70
     0
102
RTVSPost2010Prop44ColorIndex
 90
        5
102
RTVSPost2010Prop44ColorRGB
 90
      255
102
RTVSPost2010PropOp44
 70
     0
102
RTVSPost2010Prop45
280
     0
102
RTVSPost2010PropOp45
 70
     0
102
RTVSPost2010Prop46
 90
       50
102
RTVSPost2010PropOp46
 70
     0
102
RTVSPost2010Prop47
 90
       50
102
RTVSPost2010PropOp47
 70
     0
102
RTVSPost2010Prop48
 90
       50
102
RTVSPost2010PropOp48
 70
     0
102
RTVSPost2010Prop49
280
     0
102
RTVSPost2010PropOp49
 70
     0
102
RTVSPost2010Prop50
 90
       50
102
RTVSPost2010PropOp50
 70
     0
102
RTVSPost2010Prop51ColorIndex
 90
      256
102
RTVSPost2010Prop51ColorRGB
 90
-16777216
102
RTVSPost2010PropOp51
 70
     0
102
RTVSPost2010Prop52
140
1.0
102
RTVSPost2010PropOp52
 70
     0
102
RTVSPost2010Prop53
 90
        2
102
RTVSPost2010PropOp53
 70
     0
102
RTVSPost2010Prop54
  1
strokes_ogs.tif
102
RTVSPost2010PropOp54
 70
     0
102
RTVSPost2010Prop55
280
     0
102
RTVSPost2010PropOp55
 70
     0
102
RTVSPost2010Prop56
140
1.0
102
RTVSPost2010PropOp56
 70
     0
102
RTVSPost2010Prop57
140
1.0
102
RTVSPost2010PropOp57
 70
     0
  0
XRECORD
  5
185
102
{ACAD_REACTORS
330
184
102
}
330
184
100
AcDbXrecord
280
     1
102
RTVSPost2010Prop28
280
     0
102
RTVSPost2010PropOp28
 70
     1
102
RTVSPost2010Prop29
280
     1
102
RTVSPost2010PropOp29
 70
     1
102
RTVSPost2010Prop30
280
     1
102
RTVSPost2010PropOp30
 70
     1
102
RTVSPost2010Prop31
280
     0
102
RTVSPost2010PropOp31
 70
     1
102
RTVSPost2010Prop32
280
     0
102
RTVSPost2010PropOp32
 70
     1
102
RTVSPost2010Prop33
280
     0
102
RTVSPost2010PropOp33
 70
     1
102
RTVSPost2010Prop34
280
     0
102
RTVSPost2010PropOp34
 70
     1
102
RTVSPost2010Prop35
280
     0
102
RTVSPost2010PropOp35
 70
     1
102
RTVSPost2010Prop36
280
     0
102
RTVSPost2010PropOp36
 70
     1
102
RTVSPost2010Prop37
 90
       50
102
RTVSPost2010PropOp37
 70
     1
102
RTVSPost2010Prop38
140
0.0
102
RTVSPost2010PropOp38
 70
     1
102
RTVSPost2010Prop39
140
1.0
102
RTVSPost2010PropOp39
 70
     1
102
RTVSPost2010Prop40
 90
        0
102
RTVSPost2010PropOp40
 70
     1
102
RTVSPost2010Prop41ColorIndex
 90
       18
102
RTVSPost2010Prop41ColorRGB
 90
        0
102
RTVSPost2010PropOp41
 70
     1
102
RTVSPost2010Prop42
 90
       50
102
RTVSPost2010PropOp42
 70
     1
102
RTVSPost2010Prop43
 90
        3
102
RTVSPost2010PropOp43
 70
     1
102
RTVSPost2010Prop44ColorIndex
 90
        5
102
RTVSPost2010Prop44ColorRGB
 90
      255
102
RTVSPost2010PropOp44
 70
     1
102
RTVSPost2010Prop45
280
     0
102
RTVSPost2010PropOp45
 70
     1
102
RTVSPost2010Prop46
 90
       50
102
RTVSPost2010PropOp46
 70
     1
102
RTVSPost2010Prop47
 90
       50
102
RTVSPost2010PropOp47
 70
     1
102
RTVSPost2010Prop48
 90
       50
102
RTVSPost2010PropOp48
 70
     1
102
RTVSPost2010Prop49
280
     0
102
RTVSPost2010PropOp49
 70
     1
102
RTVSPost2010Prop50
 90
       50
102
RTVSPost2010PropOp50
 70
     1
102
RTVSPost2010Prop51ColorIndex
 90
      256
102
RTVSPost2010Prop51ColorRGB
 90
-16777216
102
RTVSPost2010PropOp51
 70
     0
102
RTVSPost2010Prop52
140
1.0
102
RTVSPost2010PropOp52
 70
     0
102
RTVSPost2010Prop53
 90
        2
102
RTVSPost2010PropOp53
 70
     1
102
RTVSPost2010Prop54
  1
strokes_ogs.tif
102
RTVSPost2010PropOp54
 70
     1
102
RTVSPost2010Prop55
280
     0
102
RTVSPost2010PropOp55
 70
     1
102
RTVSPost2010Prop56
140
1.0
102
RTVSPost2010PropOp56
 70
     1
102
RTVSPost2010Prop57
140
1.0
102
RTVSPost2010PropOp57
 70
     1
  0
XRECORD
  5
197
102
{ACAD_REACTORS
330
196
102
}
330
196
100
AcDbXrecord
280
     1
102
RTVSPost2010Prop28
280
     0
102
RTVSPost2010PropOp28
 70
     0
102
RTVSPost2010Prop29
280
     1
102
RTVSPost2010PropOp29
 70
     0
102
RTVSPost2010Prop30
280
     1
102
RTVSPost2010PropOp30
 70
     0
102
RTVSPost2010Prop31
280
     0
102
RTVSPost2010PropOp31
 70
     0
102
RTVSPost2010Prop32
280
     0
102
RTVSPost2010PropOp32
 70
     0
102
RTVSPost2010Prop33
280
     0
102
RTVSPost2010PropOp33
 70
     0
102
RTVSPost2010Prop34
280
     0
102
RTVSPost2010PropOp34
 70
     0
102
RTVSPost2010Prop35
280
     0
102
RTVSPost2010PropOp35
 70
     0
102
RTVSPost2010Prop36
280
     0
102
RTVSPost2010PropOp36
 70
     0
102
RTVSPost2010Prop37
 90
       50
102
RTVSPost2010PropOp37
 70
     0
102
RTVSPost2010Prop38
140
0.0
102
RTVSPost2010PropOp38
 70
     0
102
RTVSPost2010Prop39
140
1.0
102
RTVSPost2010PropOp39
 70
     0
102
RTVSPost2010Prop40
 90
        0
102
RTVSPost2010PropOp40
 70
     0
102
RTVSPost2010Prop41ColorIndex
 90
       18
102
RTVSPost2010Prop41ColorRGB
 90
        0
102
RTVSPost2010PropOp41
 70
     0
102
RTVSPost2010Prop42
 90
       50
102
RTVSPost2010PropOp42
 70
     0
102
RTVSPost2010Prop43
 90
        3
102
RTVSPost2010PropOp43
 70
     0
102
RTVSPost2010Prop44ColorIndex
 90
        5
102
RTVSPost2010Prop44ColorRGB
 90
      255
102
RTVSPost2010PropOp44
 70
     0
102
RTVSPost2010Prop45
280
     0
102
RTVSPost2010PropOp45
 70
     0
102
RTVSPost2010Prop46
 90
       50
102
RTVSPost2010PropOp46
 70
     0
102
RTVSPost2010Prop47
 90
       50
102
RTVSPost2010PropOp47
 70
     0
102
RTVSPost2010Prop48
 90
       50
102
RTVSPost2010PropOp48
 70
     0
102
RTVSPost2010Prop49
280
     0
102
RTVSPost2010PropOp49
 70
     0
102
RTVSPost2010Prop50
 90
       50
102
RTVSPost2010PropOp50
 70
     0
102
RTVSPost2010Prop51ColorIndex
 90
      256
102
RTVSPost2010Prop51ColorRGB
 90
-16777216
102
RTVSPost2010PropOp51
 70
     0
102
RTVSPost2010Prop52
140
1.0
102
RTVSPost2010PropOp52
 70
     0
102
RTVSPost2010Prop53
 90
        2
102
RTVSPost2010PropOp53
 70
     0
102
RTVSPost2010Prop54
  1
strokes_ogs.tif
102
RTVSPost2010PropOp54
 70
     0
102
RTVSPost2010Prop55
280
     0
102
RTVSPost2010PropOp55
 70
     0
102
RTVSPost2010Prop56
140
1.0
102
RTVSPost2010PropOp56
 70
     0
102
RTVSPost2010Prop57
140
1.0
102
RTVSPost2010PropOp57
 70
     0
  0
XRECORD
  5
17D
102
{ACAD_REACTORS
330
17C
102
}
330
17C
100
AcDbXrecord
280
     1
102
RTVSPost2010Prop28
280
     0
102
RTVSPost2010PropOp28
 70
     1
102
RTVSPost2010Prop29
280
     1
102
RTVSPost2010PropOp29
 70
     1
102
RTVSPost2010Prop30
280
     1
102
RTVSPost2010PropOp30
 70
     1
102
RTVSPost2010Prop31
280
     0
102
RTVSPost2010PropOp31
 70
     1
102
RTVSPost2010Prop32
280
     0
102
RTVSPost2010PropOp32
 70
     1
102
RTVSPost2010Prop33
280
     0
102
RTVSPost2010PropOp33
 70
     1
102
RTVSPost2010Prop34
280
     0
102
RTVSPost2010PropOp34
 70
     1
102
RTVSPost2010Prop35
280
     0
102
RTVSPost2010PropOp35
 70
     1
102
RTVSPost2010Prop36
280
     0
102
RTVSPost2010PropOp36
 70
     1
102
RTVSPost2010Prop37
 90
       50
102
RTVSPost2010PropOp37
 70
     1
102
RTVSPost2010Prop38
140
0.0
102
RTVSPost2010PropOp38
 70
     1
102
RTVSPost2010Prop39
140
1.0
102
RTVSPost2010PropOp39
 70
     1
102
RTVSPost2010Prop40
 90
        0
102
RTVSPost2010PropOp40
 70
     1
102
RTVSPost2010Prop41ColorIndex
 90
       18
102
RTVSPost2010Prop41ColorRGB
 90
        0
102
RTVSPost2010PropOp41
 70
     1
102
RTVSPost2010Prop42
 90
       50
102
RTVSPost2010PropOp42
 70
     1
102
RTVSPost2010Prop43
 90
        3
102
RTVSPost2010PropOp43
 70
     1
102
RTVSPost2010Prop44ColorIndex
 90
        5
102
RTVSPost2010Prop44ColorRGB
 90
      255
102
RTVSPost2010PropOp44
 70
     1
102
RTVSPost2010Prop45
280
     0
102
RTVSPost2010PropOp45
 70
     1
102
RTVSPost2010Prop46
 90
       50
102
RTVSPost2010PropOp46
 70
     1
102
RTVSPost2010Prop47
 90
       50
102
RTVSPost2010PropOp47
 70
     1
102
RTVSPost2010Prop48
 90
       50
102
RTVSPost2010PropOp48
 70
     1
102
RTVSPost2010Prop49
280
     0
102
RTVSPost2010PropOp49
 70
     1
102
RTVSPost2010Prop50
 90
       50
102
RTVSPost2010PropOp50
 70
     1
102
RTVSPost2010Prop51ColorIndex
 90
      256
102
RTVSPost2010Prop51ColorRGB
 90
-16777216
102
RTVSPost2010PropOp51
 70
     0
102
RTVSPost2010Prop52
140
1.0
102
RTVSPost2010PropOp52
 70
     0
102
RTVSPost2010Prop53
 90
        2
102
RTVSPost2010PropOp53
 70
     1
102
RTVSPost2010Prop54
  1
strokes_ogs.tif
102
RTVSPost2010PropOp54
 70
     1
102
RTVSPost2010Prop55
280
     0
102
RTVSPost2010PropOp55
 70
     1
102
RTVSPost2010Prop56
140
1.0
102
RTVSPost2010PropOp56
 70
     1
102
RTVSPost2010Prop57
140
1.0
102
RTVSPost2010PropOp57
 70
     1
  0
XRECORD
  5
193
102
{ACAD_REACTORS
330
192
102
}
330
192
100
AcDbXrecord
280
     1
102
RTVSPost2010Prop28
280
     0
102
RTVSPost2010PropOp28
 70
     1
102
RTVSPost2010Prop29
280
     1
102
RTVSPost2010PropOp29
 70
     1
102
RTVSPost2010Prop30
280
     1
102
RTVSPost2010PropOp30
 70
     1
102
RTVSPost2010Prop31
280
     0
102
RTVSPost2010PropOp31
 70
     1
102
RTVSPost2010Prop32
280
     0
102
RTVSPost2010PropOp32
 70
     1
102
RTVSPost2010Prop33
280
     0
102
RTVSPost2010PropOp33
 70
     1
102
RTVSPost2010Prop34
280
     0
102
RTVSPost2010PropOp34
 70
     1
102
RTVSPost2010Prop35
280
     0
102
RTVSPost2010PropOp35
 70
     1
102
RTVSPost2010Prop36
280
     0
102
RTVSPost2010PropOp36
 70
     1
102
RTVSPost2010Prop37
 90
       50
102
RTVSPost2010PropOp37
 70
     1
102
RTVSPost2010Prop38
140
0.0
102
RTVSPost2010PropOp38
 70
     1
102
RTVSPost2010Prop39
140
1.0
102
RTVSPost2010PropOp39
 70
     1
102
RTVSPost2010Prop40
 90
        0
102
RTVSPost2010PropOp40
 70
     1
102
RTVSPost2010Prop41ColorIndex
 90
       18
102
RTVSPost2010Prop41ColorRGB
 90
        0
102
RTVSPost2010PropOp41
 70
     1
102
RTVSPost2010Prop42
 90
       50
102
RTVSPost2010PropOp42
 70
     1
102
RTVSPost2010Prop43
 90
        3
102
RTVSPost2010PropOp43
 70
     1
102
RTVSPost2010Prop44ColorIndex
 90
        5
102
RTVSPost2010Prop44ColorRGB
 90
      255
102
RTVSPost2010PropOp44
 70
     1
102
RTVSPost2010Prop45
280
     0
102
RTVSPost2010PropOp45
 70
     1
102
RTVSPost2010Prop46
 90
       50
102
RTVSPost2010PropOp46
 70
     1
102
RTVSPost2010Prop47
 90
       50
102
RTVSPost2010PropOp47
 70
     1
102
RTVSPost2010Prop48
 90
       50
102
RTVSPost2010PropOp48
 70
     1
102
RTVSPost2010Prop49
280
     0
102
RTVSPost2010PropOp49
 70
     1
102
RTVSPost2010Prop50
 90
       50
102
RTVSPost2010PropOp50
 70
     1
102
RTVSPost2010Prop51ColorIndex
 90
      256
102
RTVSPost2010Prop51ColorRGB
 90
-16777216
102
RTVSPost2010PropOp51
 70
     0
102
RTVSPost2010Prop52
140
1.0
102
RTVSPost2010PropOp52
 70
     0
102
RTVSPost2010Prop53
 90
        2
102
RTVSPost2010PropOp53
 70
     1
102
RTVSPost2010Prop54
  1
strokes_ogs.tif
102
RTVSPost2010PropOp54
 70
     1
102
RTVSPost2010Prop55
280
     0
102
RTVSPost2010PropOp55
 70
     1
102
RTVSPost2010Prop56
140
1.0
102
RTVSPost2010PropOp56
 70
     1
102
RTVSPost2010Prop57
140
1.0
102
RTVSPost2010PropOp57
 70
     1
  0
XRECORD
  5
191
102
{ACAD_REACTORS
330
190
102
}
330
190
100
AcDbXrecord
280
     1
102
RTVSPost2010Prop28
280
     0
102
RTVSPost2010PropOp28
 70
     1
102
RTVSPost2010Prop29
280
     1
102
RTVSPost2010PropOp29
 70
     1
102
RTVSPost2010Prop30
280
     1
102
RTVSPost2010PropOp30
 70
     1
102
RTVSPost2010Prop31
280
     0
102
RTVSPost2010PropOp31
 70
     1
102
RTVSPost2010Prop32
280
     0
102
RTVSPost2010PropOp32
 70
     1
102
RTVSPost2010Prop33
280
     0
102
RTVSPost2010PropOp33
 70
     1
102
RTVSPost2010Prop34
280
     0
102
RTVSPost2010PropOp34
 70
     1
102
RTVSPost2010Prop35
280
     0
102
RTVSPost2010PropOp35
 70
     1
102
RTVSPost2010Prop36
280
     0
102
RTVSPost2010PropOp36
 70
     1
102
RTVSPost2010Prop37
 90
       50
102
RTVSPost2010PropOp37
 70
     1
102
RTVSPost2010Prop38
140
0.0
102
RTVSPost2010PropOp38
 70
     1
102
RTVSPost2010Prop39
140
1.0
102
RTVSPost2010PropOp39
 70
     1
102
RTVSPost2010Prop40
 90
        0
102
RTVSPost2010PropOp40
 70
     1
102
RTVSPost2010Prop41ColorIndex
 90
       18
102
RTVSPost2010Prop41ColorRGB
 90
        0
102
RTVSPost2010PropOp41
 70
     1
102
RTVSPost2010Prop42
 90
       50
102
RTVSPost2010PropOp42
 70
     1
102
RTVSPost2010Prop43
 90
        3
102
RTVSPost2010PropOp43
 70
     1
102
RTVSPost2010Prop44ColorIndex
 90
        5
102
RTVSPost2010Prop44ColorRGB
 90
      255
102
RTVSPost2010PropOp44
 70
     1
102
RTVSPost2010Prop45
280
     0
102
RTVSPost2010PropOp45
 70
     1
102
RTVSPost2010Prop46
 90
       50
102
RTVSPost2010PropOp46
 70
     1
102
RTVSPost2010Prop47
 90
       50
102
RTVSPost2010PropOp47
 70
     1
102
RTVSPost2010Prop48
 90
       50
102
RTVSPost2010PropOp48
 70
     1
102
RTVSPost2010Prop49
280
     0
102
RTVSPost2010PropOp49
 70
     1
102
RTVSPost2010Prop50
 90
       50
102
RTVSPost2010PropOp50
 70
     1
102
RTVSPost2010Prop51ColorIndex
 90
      256
102
RTVSPost2010Prop51ColorRGB
 90
-16777216
102
RTVSPost2010PropOp51
 70
     0
102
RTVSPost2010Prop52
140
1.0
102
RTVSPost2010PropOp52
 70
     0
102
RTVSPost2010Prop53
 90
        2
102
RTVSPost2010PropOp53
 70
     1
102
RTVSPost2010Prop54
  1
strokes_ogs.tif
102
RTVSPost2010PropOp54
 70
     1
102
RTVSPost2010Prop55
280
     0
102
RTVSPost2010PropOp55
 70
     1
102
RTVSPost2010Prop56
140
1.0
102
RTVSPost2010PropOp56
 70
     1
102
RTVSPost2010Prop57
140
1.0
102
RTVSPost2010PropOp57
 70
     1
  0
XRECORD
  5
18B
102
{ACAD_REACTORS
330
18A
102
}
330
18A
100
AcDbXrecord
280
     1
102
RTVSPost2010Prop28
280
     0
102
RTVSPost2010PropOp28
 70
     1
102
RTVSPost2010Prop29
280
     1
102
RTVSPost2010PropOp29
 70
     1
102
RTVSPost2010Prop30
280
     1
102
RTVSPost2010PropOp30
 70
     1
102
RTVSPost2010Prop31
280
     0
102
RTVSPost2010PropOp31
 70
     1
102
RTVSPost2010Prop32
280
     0
102
RTVSPost2010PropOp32
 70
     1
102
RTVSPost2010Prop33
280
     0
102
RTVSPost2010PropOp33
 70
     1
102
RTVSPost2010Prop34
280
     0
102
RTVSPost2010PropOp34
 70
     1
102
RTVSPost2010Prop35
280
     0
102
RTVSPost2010PropOp35
 70
     1
102
RTVSPost2010Prop36
280
     0
102
RTVSPost2010PropOp36
 70
     1
102
RTVSPost2010Prop37
 90
       50
102
RTVSPost2010PropOp37
 70
     1
102
RTVSPost2010Prop38
140
0.0
102
RTVSPost2010PropOp38
 70
     1
102
RTVSPost2010Prop39
140
1.0
102
RTVSPost2010PropOp39
 70
     1
102
RTVSPost2010Prop40
 90
        0
102
RTVSPost2010PropOp40
 70
     1
102
RTVSPost2010Prop41ColorIndex
 90
       18
102
RTVSPost2010Prop41ColorRGB
 90
        0
102
RTVSPost2010PropOp41
 70
     1
102
RTVSPost2010Prop42
 90
       50
102
RTVSPost2010PropOp42
 70
     1
102
RTVSPost2010Prop43
 90
        3
102
RTVSPost2010PropOp43
 70
     1
102
RTVSPost2010Prop44ColorIndex
 90
        5
102
RTVSPost2010Prop44ColorRGB
 90
      255
102
RTVSPost2010PropOp44
 70
     1
102
RTVSPost2010Prop45
280
     0
102
RTVSPost2010PropOp45
 70
     1
102
RTVSPost2010Prop46
 90
       50
102
RTVSPost2010PropOp46
 70
     1
102
RTVSPost2010Prop47
 90
       50
102
RTVSPost2010PropOp47
 70
     1
102
RTVSPost2010Prop48
 90
       50
102
RTVSPost2010PropOp48
 70
     1
102
RTVSPost2010Prop49
280
     0
102
RTVSPost2010PropOp49
 70
     1
102
RTVSPost2010Prop50
 90
       50
102
RTVSPost2010PropOp50
 70
     1
102
RTVSPost2010Prop51ColorIndex
 90
      256
102
RTVSPost2010Prop51ColorRGB
 90
-16777216
102
RTVSPost2010PropOp51
 70
     0
102
RTVSPost2010Prop52
140
1.0
102
RTVSPost2010PropOp52
 70
     0
102
RTVSPost2010Prop53
 90
        2
102
RTVSPost2010PropOp53
 70
     1
102
RTVSPost2010Prop54
  1
strokes_ogs.tif
102
RTVSPost2010PropOp54
 70
     1
102
RTVSPost2010Prop55
280
     0
102
RTVSPost2010PropOp55
 70
     1
102
RTVSPost2010Prop56
140
1.0
102
RTVSPost2010PropOp56
 70
     1
102
RTVSPost2010Prop57
140
1.0
102
RTVSPost2010PropOp57
 70
     1
  0
XRECORD
  5
18D
102
{ACAD_REACTORS
330
18C
102
}
330
18C
100
AcDbXrecord
280
     1
102
RTVSPost2010Prop28
280
     0
102
RTVSPost2010PropOp28
 70
     1
102
RTVSPost2010Prop29
280
     1
102
RTVSPost2010PropOp29
 70
     1
102
RTVSPost2010Prop30
280
     1
102
RTVSPost2010PropOp30
 70
     1
102
RTVSPost2010Prop31
280
     0
102
RTVSPost2010PropOp31
 70
     1
102
RTVSPost2010Prop32
280
     0
102
RTVSPost2010PropOp32
 70
     1
102
RTVSPost2010Prop33
280
     0
102
RTVSPost2010PropOp33
 70
     1
102
RTVSPost2010Prop34
280
     0
102
RTVSPost2010PropOp34
 70
     1
102
RTVSPost2010Prop35
280
     0
102
RTVSPost2010PropOp35
 70
     1
102
RTVSPost2010Prop36
280
     0
102
RTVSPost2010PropOp36
 70
     1
102
RTVSPost2010Prop37
 90
       50
102
RTVSPost2010PropOp37
 70
     1
102
RTVSPost2010Prop38
140
0.0
102
RTVSPost2010PropOp38
 70
     1
102
RTVSPost2010Prop39
140
1.0
102
RTVSPost2010PropOp39
 70
     1
102
RTVSPost2010Prop40
 90
        0
102
RTVSPost2010PropOp40
 70
     1
102
RTVSPost2010Prop41ColorIndex
 90
       18
102
RTVSPost2010Prop41ColorRGB
 90
        0
102
RTVSPost2010PropOp41
 70
     1
102
RTVSPost2010Prop42
 90
       50
102
RTVSPost2010PropOp42
 70
     1
102
RTVSPost2010Prop43
 90
        3
102
RTVSPost2010PropOp43
 70
     1
102
RTVSPost2010Prop44ColorIndex
 90
        5
102
RTVSPost2010Prop44ColorRGB
 90
      255
102
RTVSPost2010PropOp44
 70
     1
102
RTVSPost2010Prop45
280
     0
102
RTVSPost2010PropOp45
 70
     1
102
RTVSPost2010Prop46
 90
       50
102
RTVSPost2010PropOp46
 70
     1
102
RTVSPost2010Prop47
 90
       50
102
RTVSPost2010PropOp47
 70
     1
102
RTVSPost2010Prop48
 90
       50
102
RTVSPost2010PropOp48
 70
     1
102
RTVSPost2010Prop49
280
     0
102
RTVSPost2010PropOp49
 70
     1
102
RTVSPost2010Prop50
 90
       50
102
RTVSPost2010PropOp50
 70
     1
102
RTVSPost2010Prop51ColorIndex
 90
      256
102
RTVSPost2010Prop51ColorRGB
 90
-16777216
102
RTVSPost2010PropOp51
 70
     0
102
RTVSPost2010Prop52
140
1.0
102
RTVSPost2010PropOp52
 70
     0
102
RTVSPost2010Prop53
 90
        2
102
RTVSPost2010PropOp53
 70
     1
102
RTVSPost2010Prop54
  1
strokes_ogs.tif
102
RTVSPost2010PropOp54
 70
     1
102
RTVSPost2010Prop55
280
     0
102
RTVSPost2010PropOp55
 70
     1
102
RTVSPost2010Prop56
140
1.0
102
RTVSPost2010PropOp56
 70
     1
102
RTVSPost2010Prop57
140
1.0
102
RTVSPost2010PropOp57
 70
     1
  0
XRECORD
  5
183
102
{ACAD_REACTORS
330
182
102
}
330
182
100
AcDbXrecord
280
     1
102
RTVSPost2010Prop28
280
     0
102
RTVSPost2010PropOp28
 70
     1
102
RTVSPost2010Prop29
280
     1
102
RTVSPost2010PropOp29
 70
     1
102
RTVSPost2010Prop30
280
     1
102
RTVSPost2010PropOp30
 70
     1
102
RTVSPost2010Prop31
280
     0
102
RTVSPost2010PropOp31
 70
     1
102
RTVSPost2010Prop32
280
     0
102
RTVSPost2010PropOp32
 70
     1
102
RTVSPost2010Prop33
280
     0
102
RTVSPost2010PropOp33
 70
     1
102
RTVSPost2010Prop34
280
     0
102
RTVSPost2010PropOp34
 70
     1
102
RTVSPost2010Prop35
280
     0
102
RTVSPost2010PropOp35
 70
     1
102
RTVSPost2010Prop36
280
     0
102
RTVSPost2010PropOp36
 70
     1
102
RTVSPost2010Prop37
 90
       50
102
RTVSPost2010PropOp37
 70
     1
102
RTVSPost2010Prop38
140
0.0
102
RTVSPost2010PropOp38
 70
     1
102
RTVSPost2010Prop39
140
1.0
102
RTVSPost2010PropOp39
 70
     1
102
RTVSPost2010Prop40
 90
        0
102
RTVSPost2010PropOp40
 70
     1
102
RTVSPost2010Prop41ColorIndex
 90
       18
102
RTVSPost2010Prop41ColorRGB
 90
        0
102
RTVSPost2010PropOp41
 70
     1
102
RTVSPost2010Prop42
 90
       50
102
RTVSPost2010PropOp42
 70
     1
102
RTVSPost2010Prop43
 90
        3
102
RTVSPost2010PropOp43
 70
     1
102
RTVSPost2010Prop44ColorIndex
 90
        5
102
RTVSPost2010Prop44ColorRGB
 90
      255
102
RTVSPost2010PropOp44
 70
     1
102
RTVSPost2010Prop45
280
     0
102
RTVSPost2010PropOp45
 70
     1
102
RTVSPost2010Prop46
 90
       50
102
RTVSPost2010PropOp46
 70
     1
102
RTVSPost2010Prop47
 90
       50
102
RTVSPost2010PropOp47
 70
     1
102
RTVSPost2010Prop48
 90
       50
102
RTVSPost2010PropOp48
 70
     1
102
RTVSPost2010Prop49
280
     0
102
RTVSPost2010PropOp49
 70
     1
102
RTVSPost2010Prop50
 90
       50
102
RTVSPost2010PropOp50
 70
     1
102
RTVSPost2010Prop51ColorIndex
 90
      256
102
RTVSPost2010Prop51ColorRGB
 90
-16777216
102
RTVSPost2010PropOp51
 70
     0
102
RTVSPost2010Prop52
140
1.0
102
RTVSPost2010PropOp52
 70
     0
102
RTVSPost2010Prop53
 90
        2
102
RTVSPost2010PropOp53
 70
     1
102
RTVSPost2010Prop54
  1
strokes_ogs.tif
102
RTVSPost2010PropOp54
 70
     1
102
RTVSPost2010Prop55
280
     0
102
RTVSPost2010PropOp55
 70
     1
102
RTVSPost2010Prop56
140
1.0
102
RTVSPost2010PropOp56
 70
     1
102
RTVSPost2010Prop57
140
1.0
102
RTVSPost2010PropOp57
 70
     1
  0
XRECORD
  5
177
102
{ACAD_REACTORS
330
176
102
}
330
176
100
AcDbXrecord
280
     1
102
RTVSPost2010Prop28
280
     0
102
RTVSPost2010PropOp28
 70
     1
102
RTVSPost2010Prop29
280
     1
102
RTVSPost2010PropOp29
 70
     1
102
RTVSPost2010Prop30
280
     1
102
RTVSPost2010PropOp30
 70
     1
102
RTVSPost2010Prop31
280
     0
102
RTVSPost2010PropOp31
 70
     1
102
RTVSPost2010Prop32
280
     0
102
RTVSPost2010PropOp32
 70
     1
102
RTVSPost2010Prop33
280
     0
102
RTVSPost2010PropOp33
 70
     1
102
RTVSPost2010Prop34
280
     0
102
RTVSPost2010PropOp34
 70
     1
102
RTVSPost2010Prop35
280
     0
102
RTVSPost2010PropOp35
 70
     1
102
RTVSPost2010Prop36
280
     0
102
RTVSPost2010PropOp36
 70
     1
102
RTVSPost2010Prop37
 90
       50
102
RTVSPost2010PropOp37
 70
     1
102
RTVSPost2010Prop38
140
0.0
102
RTVSPost2010PropOp38
 70
     1
102
RTVSPost2010Prop39
140
1.0
102
RTVSPost2010PropOp39
 70
     1
102
RTVSPost2010Prop40
 90
        0
102
RTVSPost2010PropOp40
 70
     1
102
RTVSPost2010Prop41ColorIndex
 90
       18
102
RTVSPost2010Prop41ColorRGB
 90
        0
102
RTVSPost2010PropOp41
 70
     1
102
RTVSPost2010Prop42
 90
       50
102
RTVSPost2010PropOp42
 70
     1
102
RTVSPost2010Prop43
 90
        3
102
RTVSPost2010PropOp43
 70
     1
102
RTVSPost2010Prop44ColorIndex
 90
        5
102
RTVSPost2010Prop44ColorRGB
 90
      255
102
RTVSPost2010PropOp44
 70
     1
102
RTVSPost2010Prop45
280
     0
102
RTVSPost2010PropOp45
 70
     1
102
RTVSPost2010Prop46
 90
       50
102
RTVSPost2010PropOp46
 70
     1
102
RTVSPost2010Prop47
 90
       50
102
RTVSPost2010PropOp47
 70
     1
102
RTVSPost2010Prop48
 90
       50
102
RTVSPost2010PropOp48
 70
     1
102
RTVSPost2010Prop49
280
     0
102
RTVSPost2010PropOp49
 70
     1
102
RTVSPost2010Prop50
 90
       50
102
RTVSPost2010PropOp50
 70
     1
102
RTVSPost2010Prop51ColorIndex
 90
      256
102
RTVSPost2010Prop51ColorRGB
 90
-16777216
102
RTVSPost2010PropOp51
 70
     0
102
RTVSPost2010Prop52
140
1.0
102
RTVSPost2010PropOp52
 70
     0
102
RTVSPost2010Prop53
 90
        2
102
RTVSPost2010PropOp53
 70
     1
102
RTVSPost2010Prop54
  1
strokes_ogs.tif
102
RTVSPost2010PropOp54
 70
     1
102
RTVSPost2010Prop55
280
     0
102
RTVSPost2010PropOp55
 70
     1
102
RTVSPost2010Prop56
140
1.0
102
RTVSPost2010PropOp56
 70
     1
102
RTVSPost2010Prop57
140
1.0
102
RTVSPost2010PropOp57
 70
     1
  0
XRECORD
  5
18F
102
{ACAD_REACTORS
330
18E
102
}
330
18E
100
AcDbXrecord
280
     1
102
RTVSPost2010Prop28
280
     0
102
RTVSPost2010PropOp28
 70
     1
102
RTVSPost2010Prop29
280
     1
102
RTVSPost2010PropOp29
 70
     1
102
RTVSPost2010Prop30
280
     1
102
RTVSPost2010PropOp30
 70
     1
102
RTVSPost2010Prop31
280
     0
102
RTVSPost2010PropOp31
 70
     1
102
RTVSPost2010Prop32
280
     0
102
RTVSPost2010PropOp32
 70
     1
102
RTVSPost2010Prop33
280
     0
102
RTVSPost2010PropOp33
 70
     1
102
RTVSPost2010Prop34
280
     0
102
RTVSPost2010PropOp34
 70
     1
102
RTVSPost2010Prop35
280
     0
102
RTVSPost2010PropOp35
 70
     1
102
RTVSPost2010Prop36
280
     0
102
RTVSPost2010PropOp36
 70
     1
102
RTVSPost2010Prop37
 90
       50
102
RTVSPost2010PropOp37
 70
     1
102
RTVSPost2010Prop38
140
0.0
102
RTVSPost2010PropOp38
 70
     1
102
RTVSPost2010Prop39
140
1.0
102
RTVSPost2010PropOp39
 70
     1
102
RTVSPost2010Prop40
 90
        0
102
RTVSPost2010PropOp40
 70
     1
102
RTVSPost2010Prop41ColorIndex
 90
       18
102
RTVSPost2010Prop41ColorRGB
 90
        0
102
RTVSPost2010PropOp41
 70
     1
102
RTVSPost2010Prop42
 90
       50
102
RTVSPost2010PropOp42
 70
     1
102
RTVSPost2010Prop43
 90
        3
102
RTVSPost2010PropOp43
 70
     1
102
RTVSPost2010Prop44ColorIndex
 90
        5
102
RTVSPost2010Prop44ColorRGB
 90
      255
102
RTVSPost2010PropOp44
 70
     1
102
RTVSPost2010Prop45
280
     0
102
RTVSPost2010PropOp45
 70
     1
102
RTVSPost2010Prop46
 90
       50
102
RTVSPost2010PropOp46
 70
     1
102
RTVSPost2010Prop47
 90
       50
102
RTVSPost2010PropOp47
 70
     1
102
RTVSPost2010Prop48
 90
       50
102
RTVSPost2010PropOp48
 70
     1
102
RTVSPost2010Prop49
280
     0
102
RTVSPost2010PropOp49
 70
     1
102
RTVSPost2010Prop50
 90
       50
102
RTVSPost2010PropOp50
 70
     1
102
RTVSPost2010Prop51ColorIndex
 90
      256
102
RTVSPost2010Prop51ColorRGB
 90
-16777216
102
RTVSPost2010PropOp51
 70
     0
102
RTVSPost2010Prop52
140
1.0
102
RTVSPost2010PropOp52
 70
     0
102
RTVSPost2010Prop53
 90
        2
102
RTVSPost2010PropOp53
 70
     1
102
RTVSPost2010Prop54
  1
strokes_ogs.tif
102
RTVSPost2010PropOp54
 70
     1
102
RTVSPost2010Prop55
280
     0
102
RTVSPost2010PropOp55
 70
     1
102
RTVSPost2010Prop56
140
1.0
102
RTVSPost2010PropOp56
 70
     1
102
RTVSPost2010Prop57
140
1.0
102
RTVSPost2010PropOp57
 70
     1
  0
ENDSEC
  0
EOF
