  0
SECTION
  2
HEADER
  9
$ACADVER
  1
AC1024
  9
$ACADMAINTVER
 70
   226
  9
$DWGCODEPAGE
  3
ANSI_932
  9
$INSBASE
 10
0.0
 20
0.0
 30
0.0
  9
$EXTMIN
 10
1.000000000000000E+20
 20
1.000000000000000E+20
 30
1.000000000000000E+20
  9
$EXTMAX
 10
-1.000000000000000E+20
 20
-1.000000000000000E+20
 30
-1.000000000000000E+20
  9
$LIMMIN
 10
0.0
 20
0.0
  9
$LIMMAX
 10
12.0
 20
9.0
  9
$ORTHOMODE
 70
     0
  9
$REGENMODE
 70
     1
  9
$FILLMODE
 70
     1
  9
$QTEXTMODE
 70
     0
  9
$MIRRTEXT
 70
     0
  9
$LTSCALE
 40
1.0
  9
$ATTMODE
 70
     1
  9
$TEXTSIZE
 40
0.2
  9
$TRACEWID
 40
0.05
  9
$TEXTSTYLE
  7
Standard
  9
$CLAYER
  8
0
  9
$CELTYPE
  6
ByLayer
  9
$CECOLOR
 62
   256
  9
$CELTSCALE
 40
1.0
  9
$DISPSILH
 70
     0
  9
$DIMSCALE
 40
1.0
  9
$DIMASZ
 40
0.18
  9
$DIMEXO
 40
0.0625
  9
$DIMDLI
 40
0.38
  9
$DIMRND
 40
0.0
  9
$DIMDLE
 40
0.0
  9
$DIMEXE
 40
0.18
  9
$DIMTP
 40
0.0
  9
$DIMTM
 40
0.0
  9
$DIMTXT
 40
0.18
  9
$DIMCEN
 40
0.09
  9
$DIMTSZ
 40
0.0
  9
$DIMTOL
 70
     0
  9
$DIMLIM
 70
     0
  9
$DIMTIH
 70
     1
  9
$DIMTOH
 70
     1
  9
$DIMSE1
 70
     0
  9
$DIMSE2
 70
     0
  9
$DIMTAD
 70
     0
  9
$DIMZIN
 70
     0
  9
$DIMBLK
  1

  9
$DIMASO
 70
     1
  9
$DIMSHO
 70
     1
  9
$DIMPOST
  1

  9
$DIMAPOST
  1

  9
$DIMALT
 70
     0
  9
$DIMALTD
 70
     2
  9
$DIMALTF
 40
25.4
  9
$DIMLFAC
 40
1.0
  9
$DIMTOFL
 70
     0
  9
$DIMTVP
 40
0.0
  9
$DIMTIX
 70
     0
  9
$DIMSOXD
 70
     0
  9
$DIMSAH
 70
     0
  9
$DIMBLK1
  1

  9
$DIMBLK2
  1

  9
$DIMSTYLE
  2
Standard
  9
$DIMCLRD
 70
     0
  9
$DIMCLRE
 70
     0
  9
$DIMCLRT
 70
     0
  9
$DIMTFAC
 40
1.0
  9
$DIMGAP
 40
0.09
  9
$DIMJUST
 70
     0
  9
$DIMSD1
 70
     0
  9
$DIMSD2
 70
     0
  9
$DIMTOLJ
 70
     1
  9
$DIMTZIN
 70
     0
  9
$DIMALTZ
 70
     0
  9
$DIMALTTZ
 70
     0
  9
$DIMUPT
 70
     0
  9
$DIMDEC
 70
     4
  9
$DIMTDEC
 70
     4
  9
$DIMALTU
 70
     2
  9
$DIMALTTD
 70
     2
  9
$DIMTXSTY
  7
Standard
  9
$DIMAUNIT
 70
     0
  9
$DIMADEC
 70
     0
  9
$DIMALTRND
 40
0.0
  9
$DIMAZIN
 70
     0
  9
$DIMDSEP
 70
    46
  9
$DIMATFIT
 70
     3
  9
$DIMFRAC
 70
     0
  9
$DIMLDRBLK
  1

  9
$DIMLUNIT
 70
     2
  9
$DIMLWD
 70
    -2
  9
$DIMLWE
 70
    -2
  9
$DIMTMOVE
 70
     0
  9
$DIMFXL
 40
1.0
  9
$DIMFXLON
 70
     0
  9
$DIMJOGANG
 40
0.7853981633974483
  9
$DIMTFILL
 70
     0
  9
$DIMTFILLCLR
 70
     0
  9
$DIMARCSYM
 70
     0
  9
$DIMLTYPE
  6

  9
$DIMLTEX1
  6

  9
$DIMLTEX2
  6

  9
$DIMTXTDIRECTION
 70
     0
  9
$LUNITS
 70
     2
  9
$LUPREC
 70
     4
  9
$SKETCHINC
 40
0.1
  9
$FILLETRAD
 40
0.0
  9
$AUNITS
 70
     0
  9
$AUPREC
 70
     0
  9
$MENU
  1
.
  9
$ELEVATION
 40
0.0
  9
$PELEVATION
 40
0.0
  9
$THICKNESS
 40
0.0
  9
$LIMCHECK
 70
     0
  9
$CHAMFERA
 40
0.0
  9
$CHAMFERB
 40
0.0
  9
$CHAMFERC
 40
0.0
  9
$CHAMFERD
 40
0.0
  9
$SKPOLY
 70
     0
  9
$TDCREATE
 40
2459569.503101852
  9
$TDUCREATE
 40
2459569.128101852
  9
$TDUPDATE
 40
2459569.503101852
  9
$TDUUPDATE
 40
2459569.128101852
  9
$TDINDWG
 40
0.0000000000
  9
$TDUSRTIMER
 40
0.0000000000
  9
$USRTIMER
 70
     1
  9
$ANGBASE
 50
0.0
  9
$ANGDIR
 70
     0
  9
$PDMODE
 70
     0
  9
$PDSIZE
 40
0.0
  9
$PLINEWID
 40
0.0
  9
$SPLFRAME
 70
     0
  9
$SPLINETYPE
 70
     6
  9
$SPLINESEGS
 70
     8
  9
$HANDSEED
  5
1A1
  9
$SURFTAB1
 70
     6
  9
$SURFTAB2
 70
     6
  9
$SURFTYPE
 70
     6
  9
$SURFU
 70
     6
  9
$SURFV
 70
     6
  9
$UCSBASE
  2

  9
$UCSNAME
  2

  9
$UCSORG
 10
0.0
 20
0.0
 30
0.0
  9
$UCSXDIR
 10
1.0
 20
0.0
 30
0.0
  9
$UCSYDIR
 10
0.0
 20
1.0
 30
0.0
  9
$UCSORTHOREF
  2

  9
$UCSORTHOVIEW
 70
     0
  9
$UCSORGTOP
 10
0.0
 20
0.0
 30
0.0
  9
$UCSORGBOTTOM
 10
0.0
 20
0.0
 30
0.0
  9
$UCSORGLEFT
 10
0.0
 20
0.0
 30
0.0
  9
$UCSORGRIGHT
 10
0.0
 20
0.0
 30
0.0
  9
$UCSORGFRONT
 10
0.0
 20
0.0
 30
0.0
  9
$UCSORGBACK
 10
0.0
 20
0.0
 30
0.0
  9
$PUCSBASE
  2

  9
$PUCSNAME
  2

  9
$PUCSORG
 10
0.0
 20
0.0
 30
0.0
  9
$PUCSXDIR
 10
1.0
 20
0.0
 30
0.0
  9
$PUCSYDIR
 10
0.0
 20
1.0
 30
0.0
  9
$PUCSORTHOREF
  2

  9
$PUCSORTHOVIEW
 70
     0
  9
$PUCSORGTOP
 10
0.0
 20
0.0
 30
0.0
  9
$PUCSORGBOTTOM
 10
0.0
 20
0.0
 30
0.0
  9
$PUCSORGLEFT
 10
0.0
 20
0.0
 30
0.0
  9
$PUCSORGRIGHT
 10
0.0
 20
0.0
 30
0.0
  9
$PUCSORGFRONT
 10
0.0
 20
0.0
 30
0.0
  9
$PUCSORGBACK
 10
0.0
 20
0.0
 30
0.0
  9
$USERI1
 70
     0
  9
$USERI2
 70
     0
  9
$USERI3
 70
     0
  9
$USERI4
 70
     0
  9
$USERI5
 70
     0
  9
$USERR1
 40
0.0
  9
$USERR2
 40
0.0
  9
$USERR3
 40
0.0
  9
$USERR4
 40
0.0
  9
$USERR5
 40
0.0
  9
$WORLDVIEW
 70
     1
  9
$SHADEDGE
 70
     3
  9
$SHADEDIF
 70
    70
  9
$TILEMODE
 70
     1
  9
$MAXACTVP
 70
    64
  9
$PINSBASE
 10
0.0
 20
0.0
 30
0.0
  9
$PLIMCHECK
 70
     0
  9
$PEXTMIN
 10
1.000000000000000E+20
 20
1.000000000000000E+20
 30
1.000000000000000E+20
  9
$PEXTMAX
 10
-1.000000000000000E+20
 20
-1.000000000000000E+20
 30
-1.000000000000000E+20
  9
$PLIMMIN
 10
0.0
 20
0.0
  9
$PLIMMAX
 10
12.0
 20
9.0
  9
$UNITMODE
 70
     0
  9
$VISRETAIN
 70
     1
  9
$PLINEGEN
 70
     0
  9
$PSLTSCALE
 70
     1
  9
$TREEDEPTH
 70
  3020
  9
$CMLSTYLE
  2
Standard
  9
$CMLJUST
 70
     0
  9
$CMLSCALE
 40
1.0
  9
$PROXYGRAPHICS
 70
     1
  9
$MEASUREMENT
 70
     0
  9
$CELWEIGHT
370
    -1
  9
$ENDCAPS
280
     0
  9
$JOINSTYLE
280
     0
  9
$LWDISPLAY
290
     1
  9
$INSUNITS
 70
     4
  9
$HYPERLINKBASE
  1

  9
$STYLESHEET
  1

  9
$XEDIT
290
     1
  9
$CEPSNTYPE
380
     0
  9
$PSTYLEMODE
290
     1
  9
$FINGERPRINTGUID
  2
{D4D693DD-A09F-F34B-BCA2-3565C702D8F4}
  9
$VERSIONGUID
  2
{5CC6FA8E-252B-2746-9F64-7E656EFA17CE}
  9
$EXTNAMES
290
     1
  9
$PSVPSCALE
 40
0.0
  9
$OLESTARTUP
290
     0
  9
$SORTENTS
280
   127
  9
$INDEXCTL
280
     0
  9
$HIDETEXT
280
     1
  9
$XCLIPFRAME
280
     2
  9
$HALOGAP
280
     0
  9
$OBSCOLOR
 70
   257
  9
$OBSLTYPE
280
     0
  9
$INTERSECTIONDISPLAY
280
     0
  9
$INTERSECTIONCOLOR
 70
   257
  9
$DIMASSOC
280
     2
  9
$PROJECTNAME
  1

  9
$CAMERADISPLAY
290
     0
  9
$LENSLENGTH
 40
50.0
  9
$CAMERAHEIGHT
 40
0.0
  9
$STEPSPERSEC
 40
2.0
  9
$STEPSIZE
 40
6.0
  9
$3DDWFPREC
 40
2.0
  9
$PSOLWIDTH
 40
0.25
  9
$PSOLHEIGHT
 40
4.0
  9
$LOFTANG1
 40
1.570796326794896
  9
$LOFTANG2
 40
1.570796326794896
  9
$LOFTMAG1
 40
0.0
  9
$LOFTMAG2
 40
0.0
  9
$LOFTPARAM
 70
     7
  9
$LOFTNORMALS
280
     1
  9
$LATITUDE
 40
37.795
  9
$LONGITUDE
 40
-122.394
  9
$NORTHDIRECTION
 40
0.0
  9
$TIMEZONE
 70
 -8000
  9
$LIGHTGLYPHDISPLAY
280
     1
  9
$TILEMODELIGHTSYNCH
280
     1
  9
$CMATERIAL
347
11
  9
$SOLIDHIST
280
     0
  9
$SHOWHIST
280
     1
  9
$DWFFRAME
280
     2
  9
$DGNFRAME
280
     0
  9
$REALWORLDSCALE
290
     1
  9
$INTERFERECOLOR
 62
     1
  9
$INTERFEREOBJVS
345
33
  9
$INTERFEREVPVS
346
30
  9
$CSHADOW
280
     0
  9
$SHADOWPLANELOCATION
 40
0.0
  0
ENDSEC
  0
SECTION
  2
CLASSES
  0
CLASS
  1
ACDBDICTIONARYWDFLT
  2
AcDbDictionaryWithDefault
  3
ObjectDBX Classes
 90
        0
 91
        1
280
     0
281
     0
  0
CLASS
  1
MATERIAL
  2
AcDbMaterial
  3
ObjectDBX Classes
 90
     1153
 91
        3
280
     0
281
     0
  0
CLASS
  1
VISUALSTYLE
  2
AcDbVisualStyle
  3
ObjectDBX Classes
 90
     4095
 91
       24
280
     0
281
     0
  0
CLASS
  1
SCALE
  2
AcDbScale
  3
ObjectDBX Classes
 90
     1153
 91
       17
280
     0
281
     0
  0
CLASS
  1
TABLESTYLE
  2
AcDbTableStyle
  3
ObjectDBX Classes
 90
     4095
 91
        1
280
     0
281
     0
  0
CLASS
  1
MLEADERSTYLE
  2
AcDbMLeaderStyle
  3
ACDB_MLEADERSTYLE_CLASS
 90
     4095
 91
        1
280
     0
281
     0
  0
CLASS
  1
ACDBSECTIONVIEWSTYLE
  2
AcDbSectionViewStyle
  3
ObjectDBX Classes
 90
     1025
 91
        1
280
     0
281
     0
  0
CLASS
  1
ACDBDETAILVIEWSTYLE
  2
AcDbDetailViewStyle
  3
ObjectDBX Classes
 90
     1025
 91
        1
280
     0
281
     0
  0
CLASS
  1
DICTIONARYVAR
  2
AcDbDictionaryVar
  3
ObjectDBX Classes
 90
        0
 91
        5
280
     0
281
     0
  0
CLASS
  1
CELLSTYLEMAP
  2
AcDbCellStyleMap
  3
ObjectDBX Classes
 90
     1152
 91
        1
280
     0
281
     0
  0
ENDSEC
  0
SECTION
  2
TABLES
  0
TABLE
  2
VPORT
  5
8
330
0
100
AcDbSymbolTable
 70
     1
  0
VPORT
  5
57
330
8
100
AcDbSymbolTableRecord
100
AcDbViewportTableRecord
  2
*Active
 70
     0
 10
0.0
 20
0.0
 11
1.0
 21
1.0
 12
0.0
 22
0.0
 13
0.0
 23
0.0
 14
1.0
 24
1.0
 15
0.0
 25
0.0
 16
0.0
 26
0.0
 36
1.0
 17
104.9999999737534
 27
-148.4999999628701
 37
0.0
 40
302.939999924255
 41
0.7070707070707534
 42
50.0
 43
0.0
 44
0.0
 50
0.0
 51
0.0
 71
     0
 72
   100
 73
     1
 74
     0
 75
     1
 76
     0
 77
     0
 78
     0
281
     0
 65
     1
110
0.0
120
0.0
130
0.0
111
1.0
121
0.0
131
0.0
112
0.0
122
1.0
132
0.0
 79
     0
146
0.0
 60
     3
 61
     5
292
     1
282
     1
141
0.0
142
0.0
 63
   250
421
  3355443
  0
ENDTAB
  0
TABLE
  2
LTYPE
  5
5
330
0
100
AcDbSymbolTable
 70
     2
  0
LTYPE
  5
5B
330
5
100
AcDbSymbolTableRecord
100
AcDbLinetypeTableRecord
  2
ByBlock
 70
     0
  3

 72
    65
 73
     0
 40
0.0
  0
LTYPE
  5
5C
330
5
100
AcDbSymbolTableRecord
100
AcDbLinetypeTableRecord
  2
ByLayer
 70
     0
  3

 72
    65
 73
     0
 40
0.0
  0
LTYPE
  5
5D
330
5
100
AcDbSymbolTableRecord
100
AcDbLinetypeTableRecord
  2
Continuous
 70
     0
  3
Solid line
 72
    65
 73
     0
 40
0.0
  0
LTYPE
  5
161
330
5
100
AcDbSymbolTableRecord
100
AcDbLinetypeTableRecord
  2
AI-Linetype-0
 70
     0
  3
Adobe Illustrator Linetype No. 0
 72
    65
 73
     2
 40
1.411111110758333
 49
0.7055555553791667
 74
     0
 49
-0.7055555553791667
 74
     0
  0
ENDTAB
  0
TABLE
  2
LAYER
  5
2
330
0
100
AcDbSymbolTable
 70
     2
  0
LAYER
  5
54
330
2
100
AcDbSymbolTableRecord
100
AcDbLayerTableRecord
  2
0
 70
     0
 62
     7
  6
Continuous
370
    -3
390
F
347
21
  0
LAYER
  5
78
330
2
100
AcDbSymbolTableRecord
100
AcDbLayerTableRecord
  2
レイヤー 1
 70
     0
 62
     7
  6
Continuous
370
     0
390
F
347
21
  0
ENDTAB
  0
TABLE
  2
STYLE
  5
3
330
0
100
AcDbSymbolTable
 70
     2
  0
STYLE
  5
55
330
3
100
AcDbSymbolTableRecord
100
AcDbTextStyleTableRecord
  2
Standard
 70
     0
 40
0.0
 41
1.0
 50
0.0
 71
     0
 42
0.2
  3
txt
  4

  0
STYLE
  5
5A
330
3
100
AcDbSymbolTableRecord
100
AcDbTextStyleTableRecord
  2
Annotative
 70
     0
 40
0.0
 41
1.0
 50
0.0
 71
     0
 42
0.2
  3
txt
  4

1001
AcadAnnotative
1000
AnnotativeData
1002
{
1070
     1
1070
     1
1002
}
  0
ENDTAB
  0
TABLE
  2
VIEW
  5
6
330
0
100
AcDbSymbolTable
 70
     0
  0
ENDTAB
  0
TABLE
  2
UCS
  5
7
330
0
100
AcDbSymbolTable
 70
     0
  0
ENDTAB
  0
TABLE
  2
APPID
  5
9
330
0
100
AcDbSymbolTable
 70
     2
  0
APPID
  5
56
330
9
100
AcDbSymbolTableRecord
100
AcDbRegAppTableRecord
  2
ACAD
 70
     0
  0
APPID
  5
5E
330
9
100
AcDbSymbolTableRecord
100
AcDbRegAppTableRecord
  2
AcadAnnotative
 70
     0
  0
ENDTAB
  0
TABLE
  2
DIMSTYLE
  5
A
330
0
100
AcDbSymbolTable
 70
     2
100
AcDbDimStyleTable
 71
     0
  0
DIMSTYLE
105
58
330
A
100
AcDbSymbolTableRecord
100
AcDbDimStyleTableRecord
  2
Standard
 70
     0
340
55
  0
DIMSTYLE
105
59
330
A
100
AcDbSymbolTableRecord
100
AcDbDimStyleTableRecord
  2
Annotative
 70
     0
340
55
1001
AcadAnnotative
1000
AnnotativeData
1002
{
1070
     1
1070
     1
1002
}
  0
ENDTAB
  0
TABLE
  2
BLOCK_RECORD
  5
1
330
0
100
AcDbSymbolTable
 70
    15
  0
BLOCK_RECORD
  5
70
330
1
100
AcDbSymbolTableRecord
100
AcDbBlockTableRecord
  2
*Model_Space
340
73
 70
     0
280
     1
281
     0
  0
BLOCK_RECORD
  5
6C
330
1
100
AcDbSymbolTableRecord
100
AcDbBlockTableRecord
  2
*Paper_Space
340
6F
 70
     0
280
     1
281
     0
  0
BLOCK_RECORD
  5
74
330
1
100
AcDbSymbolTableRecord
100
AcDbBlockTableRecord
  2
*Paper_Space0
340
77
 70
     0
280
     1
281
     0
  0
BLOCK_RECORD
  5
79
330
1
100
AcDbSymbolTableRecord
100
AcDbBlockTableRecord
  2
Block_0
340
0
102
{BLKREFS
331
7A
102
}
 70
     0
280
     1
281
     0
  0
BLOCK_RECORD
  5
7D
330
1
100
AcDbSymbolTableRecord
100
AcDbBlockTableRecord
  2
Block_1
340
0
102
{BLKREFS
331
7E
102
}
 70
     0
280
     1
281
     0
  0
BLOCK_RECORD
  5
E8
330
1
100
AcDbSymbolTableRecord
100
AcDbBlockTableRecord
  2
Block_2
340
0
102
{BLKREFS
331
E9
102
}
 70
     0
280
     1
281
     0
  0
BLOCK_RECORD
  5
EC
330
1
100
AcDbSymbolTableRecord
100
AcDbBlockTableRecord
  2
Block_3
340
0
102
{BLKREFS
331
ED
102
}
 70
     0
280
     1
281
     0
  0
BLOCK_RECORD
  5
F9
330
1
100
AcDbSymbolTableRecord
100
AcDbBlockTableRecord
  2
Block_4
340
0
102
{BLKREFS
331
FA
102
}
 70
     0
280
     1
281
     0
  0
BLOCK_RECORD
  5
FD
330
1
100
AcDbSymbolTableRecord
100
AcDbBlockTableRecord
  2
Block_5
340
0
102
{BLKREFS
331
FE
102
}
 70
     0
280
     1
281
     0
  0
BLOCK_RECORD
  5
107
330
1
100
AcDbSymbolTableRecord
100
AcDbBlockTableRecord
  2
Block_6
340
0
102
{BLKREFS
331
108
102
}
 70
     0
280
     1
281
     0
  0
BLOCK_RECORD
  5
10F
330
1
100
AcDbSymbolTableRecord
100
AcDbBlockTableRecord
  2
Block_7
340
0
102
{BLKREFS
331
110
102
}
 70
     0
280
     1
281
     0
  0
BLOCK_RECORD
  5
113
330
1
100
AcDbSymbolTableRecord
100
AcDbBlockTableRecord
  2
Block_8
340
0
102
{BLKREFS
331
114
102
}
 70
     0
280
     1
281
     0
  0
BLOCK_RECORD
  5
11E
330
1
100
AcDbSymbolTableRecord
100
AcDbBlockTableRecord
  2
Block_9
340
0
102
{BLKREFS
331
11F
102
}
 70
     0
280
     1
281
     0
  0
BLOCK_RECORD
  5
12A
330
1
100
AcDbSymbolTableRecord
100
AcDbBlockTableRecord
  2
Block_10
340
0
102
{BLKREFS
331
12B
102
}
 70
     0
280
     1
281
     0
  0
BLOCK_RECORD
  5
133
330
1
100
AcDbSymbolTableRecord
100
AcDbBlockTableRecord
  2
Block_11
340
0
102
{BLKREFS
331
134
102
}
 70
     0
280
     1
281
     0
  0
BLOCK_RECORD
  5
139
330
1
100
AcDbSymbolTableRecord
100
AcDbBlockTableRecord
  2
Block_12
340
0
102
{BLKREFS
331
13A
102
}
 70
     0
280
     1
281
     0
  0
BLOCK_RECORD
  5
13D
330
1
100
AcDbSymbolTableRecord
100
AcDbBlockTableRecord
  2
Block_13
340
0
102
{BLKREFS
331
13E
102
}
 70
     0
280
     1
281
     0
  0
ENDTAB
  0
ENDSEC
  0
SECTION
  2
BLOCKS
  0
BLOCK
  5
71
330
70
100
AcDbEntity
  8
0
100
AcDbBlockBegin
  2
*Model_Space
 70
     0
 10
0.0
 20
0.0
 30
0.0
  3
*Model_Space
  1

  0
ENDBLK
  5
72
330
70
100
AcDbEntity
  8
0
100
AcDbBlockEnd
  0
BLOCK
  5
6D
330
6C
100
AcDbEntity
 67
     1
  8
0
100
AcDbBlockBegin
  2
*Paper_Space
 70
     0
 10
0.0
 20
0.0
 30
0.0
  3
*Paper_Space
  1

  0
ENDBLK
  5
6E
330
6C
100
AcDbEntity
 67
     1
  8
0
100
AcDbBlockEnd
  0
BLOCK
  5
75
330
74
100
AcDbEntity
 67
     1
  8
0
100
AcDbBlockBegin
  2
*Paper_Space0
 70
     0
 10
0.0
 20
0.0
 30
0.0
  3
*Paper_Space0
  1

  0
ENDBLK
  5
76
330
74
100
AcDbEntity
 67
     1
  8
0
100
AcDbBlockEnd
  0
BLOCK
  5
7B
330
79
100
AcDbEntity
  8
0
100
AcDbBlockBegin
  2
Block_0
 70
     0
 10
0.0
 20
0.0
 30
0.0
  3
Block_0
  1

  0
INSERT
  5
7E
330
79
100
AcDbEntity
  8
レイヤー 1
100
AcDbBlockReference
  2
Block_1
 10
0.0
 20
0.0
 30
0.0
  0
INSERT
  5
13A
330
79
100
AcDbEntity
  8
レイヤー 1
100
AcDbBlockReference
  2
Block_12
 10
0.0
 20
0.0
 30
0.0
  0
LWPOLYLINE
  5
15F
330
79
100
AcDbEntity
  8
レイヤー 1
 62
   250
420
  2299925
370
     9
100
AcDbPolyline
 90
        3
 70
     0
 43
0.0
 10
118.9437796940943
 20
-146.3628693407008
 10
125.1173906477035
 20
-154.4765818386723
 10
135.7599550984112
 20
-154.4765818386723
  0
LWPOLYLINE
  5
160
330
79
100
AcDbEntity
  8
レイヤー 1
  6
AI-Linetype-0
 62
   154
420
    23468
370
    25
100
AcDbPolyline
 90
        6
 70
     0
 43
0.0
 10
80.7266231690955
 20
-146.4805207295601
 10
102.3046634519271
 20
-145.6573137853216
 10
102.3046634519271
 20
-150.9489804506654
 10
107.361344711809
 20
-150.9489804506654
 10
107.361344711809
 20
-145.7162276741956
 10
128.9393849946407
 20
-146.4217832295747
  0
ENDBLK
  5
7C
330
79
100
AcDbEntity
  8
0
100
AcDbBlockEnd
  0
BLOCK
  5
7F
330
7D
100
AcDbEntity
  8
0
100
AcDbBlockBegin
  2
Block_1
 70
     0
 10
0.0
 20
0.0
 30
0.0
  3
Block_1
  1

  0
LINE
  5
81
330
7D
100
AcDbEntity
  8
レイヤー 1
 62
    18
420
        0
370
    25
100
AcDbLine
 10
108.8275949521796
 20
-152.5027196169436
 30
0.0
 11
100.8274065451707
 21
-152.5027196169436
 31
0.0
  0
LINE
  5
82
330
7D
100
AcDbEntity
  8
レイヤー 1
 62
    18
420
        0
370
    25
100
AcDbLine
 10
80.82550677768388
 20
-147.0026318405409
 30
0.0
 11
80.82550677768388
 21
-147.5028354515267
 31
0.0
  0
LINE
  5
83
330
7D
100
AcDbEntity
  8
レイヤー 1
 62
    18
420
        0
370
    25
100
AcDbLine
 10
100.8274065451707
 20
-147.5028354515267
 30
0.0
 11
80.82550677768388
 21
-147.5028354515267
 31
0.0
  0
LINE
  5
84
330
7D
100
AcDbEntity
  8
レイヤー 1
 62
    18
420
        0
370
    25
100
AcDbLine
 10
80.82550677768388
 20
-147.0026318405409
 30
0.0
 11
81.33950398679294
 21
-147.3846901737786
 31
0.0
  0
LINE
  5
85
330
7D
100
AcDbEntity
  8
レイヤー 1
 62
    18
420
        0
370
    25
100
AcDbLine
 10
81.33950398679294
 20
-147.3846901737786
 30
0.0
 11
81.82492619663102
 21
-146.9671423961051
 31
0.0
  0
LINE
  5
86
330
7D
100
AcDbEntity
  8
レイヤー 1
 62
    18
420
        0
370
    25
100
AcDbLine
 10
82.33895868351696
 20
-147.3492007293431
 30
0.0
 11
82.82434561557847
 21
-146.9313001738918
 31
0.0
  0
LINE
  5
87
330
7D
100
AcDbEntity
  8
レイヤー 1
 62
    18
420
        0
370
    25
100
AcDbLine
 10
81.82492619663102
 20
-146.9671423961051
 30
0.0
 11
82.33895868351696
 21
-147.3492007293431
 31
0.0
  0
LINE
  5
88
330
7D
100
AcDbEntity
  8
レイヤー 1
 62
    18
420
        0
370
    25
100
AcDbLine
 10
82.82434561557847
 20
-146.9313001738918
 30
0.0
 11
83.33837810246409
 21
-147.3133585071298
 31
0.0
  0
LINE
  5
89
330
7D
100
AcDbEntity
  8
レイヤー 1
 62
    18
420
        0
370
    25
100
AcDbLine
 10
83.33837810246409
 20
-147.3133585071298
 30
0.0
 11
83.82376503452496
 21
-146.8958107294563
 31
0.0
  0
LINE
  5
8A
330
7D
100
AcDbEntity
  8
レイヤー 1
 62
    18
420
        0
370
    25
100
AcDbLine
 10
83.82376503452496
 20
-146.8958107294563
 30
0.0
 11
84.33744474364244
 21
-147.2775515626941
 31
0.0
  0
LINE
  5
8B
330
7D
100
AcDbEntity
  8
レイヤー 1
 62
    18
420
        0
370
    25
100
AcDbLine
 10
84.33744474364244
 20
-147.2775515626941
 30
0.0
 11
84.82318445347241
 21
-146.8600037850209
 31
0.0
  0
LINE
  5
8C
330
7D
100
AcDbEntity
  8
レイヤー 1
 62
    18
420
        0
370
    25
100
AcDbLine
 10
84.82318445347241
 20
-146.8600037850209
 30
0.0
 11
85.33721694035834
 21
-147.2417093404809
 31
0.0
  0
LINE
  5
8D
330
7D
100
AcDbEntity
  8
レイヤー 1
 62
    18
420
        0
370
    25
100
AcDbLine
 10
85.33721694035834
 20
-147.2417093404809
 30
0.0
 11
85.82228637242764
 21
-146.8241615628077
 31
0.0
  0
LINE
  5
8E
330
7D
100
AcDbEntity
  8
レイヤー 1
 62
    18
420
        0
370
    25
100
AcDbLine
 10
85.82228637242764
 20
-146.8241615628077
 30
0.0
 11
86.3362835815367
 21
-147.2062198960454
 31
0.0
  0
LINE
  5
8F
330
7D
100
AcDbEntity
  8
レイヤー 1
 62
    18
420
        0
370
    25
100
AcDbLine
 10
86.3362835815367
 20
-147.2062198960454
 30
0.0
 11
86.82205856914356
 21
-146.7886721183719
 31
0.0
  0
LINE
  5
90
330
7D
100
AcDbEntity
  8
レイヤー 1
 62
    18
420
        0
370
    25
100
AcDbLine
 10
86.82205856914356
 20
-146.7886721183719
 30
0.0
 11
87.33570300048416
 21
-147.1707304516099
 31
0.0
  0
LINE
  5
91
330
7D
100
AcDbEntity
  8
レイヤー 1
 62
    18
420
        0
370
    25
100
AcDbLine
 10
87.33570300048416
 20
-147.1707304516099
 30
0.0
 11
87.82112521032191
 21
-146.7528651739365
 31
0.0
  0
LINE
  5
92
330
7D
100
AcDbEntity
  8
レイヤー 1
 62
    18
420
        0
370
    25
100
AcDbLine
 10
88.33547519719974
 20
-147.1349235071745
 30
0.0
 11
88.82054462926904
 21
-146.717375729501
 31
0.0
  0
LINE
  5
93
330
7D
100
AcDbEntity
  8
レイヤー 1
 62
    18
420
        0
370
    25
100
AcDbLine
 10
87.82112521032191
 20
-146.7528651739365
 30
0.0
 11
88.33547519719974
 21
-147.1349235071745
 31
0.0
  0
LINE
  5
94
330
7D
100
AcDbEntity
  8
レイヤー 1
 62
    18
420
        0
370
    25
100
AcDbLine
 10
88.82054462926904
 20
-146.717375729501
 30
0.0
 11
89.3345418383781
 21
-147.0990812849616
 31
0.0
  0
LINE
  5
95
330
7D
100
AcDbEntity
  8
レイヤー 1
 62
    18
420
        0
370
    25
100
AcDbLine
 10
89.3345418383781
 20
-147.0990812849616
 30
0.0
 11
89.82031682598494
 21
-146.6815335072877
 31
0.0
  0
LINE
  5
96
330
7D
100
AcDbEntity
  8
レイヤー 1
 62
    18
420
        0
370
    25
100
AcDbLine
 10
90.33431403509368
 20
-147.063239062748
 30
0.0
 11
90.81938346716329
 21
-146.6456912850745
 31
0.0
  0
LINE
  5
97
330
7D
100
AcDbEntity
  8
レイヤー 1
 62
    18
420
        0
370
    25
100
AcDbLine
 10
89.82031682598494
 20
-146.6815335072877
 30
0.0
 11
90.33431403509368
 21
-147.063239062748
 31
0.0
  0
LINE
  5
98
330
7D
100
AcDbEntity
  8
レイヤー 1
 62
    18
420
        0
370
    25
100
AcDbLine
 10
91.33341595404923
 20
-147.02778489609
 30
0.0
 11
91.81915566387919
 21
-146.6102371184165
 31
0.0
  0
LINE
  5
99
330
7D
100
AcDbEntity
  8
レイヤー 1
 62
    18
420
        0
370
    25
100
AcDbLine
 10
90.81938346716329
 20
-146.6456912850745
 30
0.0
 11
91.33341595404923
 21
-147.02778489609
 31
0.0
  0
LINE
  5
9A
330
7D
100
AcDbEntity
  8
レイヤー 1
 62
    18
420
        0
370
    25
100
AcDbLine
 10
91.81915566387919
 20
-146.6102371184165
 30
0.0
 11
92.33315287298827
 21
-146.9922954516545
 31
0.0
  0
LINE
  5
9B
330
7D
100
AcDbEntity
  8
レイヤー 1
 62
    18
420
        0
370
    25
100
AcDbLine
 10
92.33315287298827
 20
-146.9922954516545
 30
0.0
 11
92.81822230505756
 21
-146.5743948962033
 31
0.0
  0
LINE
  5
9C
330
7D
100
AcDbEntity
  8
レイヤー 1
 62
    18
420
        0
370
    25
100
AcDbLine
 10
92.81822230505756
 20
-146.5743948962033
 30
0.0
 11
93.3322547919435
 21
-146.9564532294413
 31
0.0
  0
LINE
  5
9D
330
7D
100
AcDbEntity
  8
レイヤー 1
 62
    18
420
        0
370
    25
100
AcDbLine
 10
93.3322547919435
 20
-146.9564532294413
 30
0.0
 11
93.81732422401279
 21
-146.5389054517678
 31
0.0
  0
LINE
  5
9E
330
7D
100
AcDbEntity
  8
レイヤー 1
 62
    18
420
        0
370
    25
100
AcDbLine
 10
93.81732422401279
 20
-146.5389054517678
 30
0.0
 11
94.33132143312185
 21
-146.920611007228
 31
0.0
  0
LINE
  5
9F
330
7D
100
AcDbEntity
  8
レイヤー 1
 62
    18
420
        0
370
    25
100
AcDbLine
 10
94.33132143312185
 20
-146.920611007228
 30
0.0
 11
94.81709642072869
 21
-146.5030632295545
 31
0.0
  0
LINE
  5
A0
330
7D
100
AcDbEntity
  8
レイヤー 1
 62
    18
420
        0
370
    25
100
AcDbLine
 10
94.81709642072869
 20
-146.5030632295545
 30
0.0
 11
95.33109362983775
 21
-146.8848040627923
 31
0.0
  0
LINE
  5
A1
330
7D
100
AcDbEntity
  8
レイヤー 1
 62
    18
420
        0
370
    25
100
AcDbLine
 10
95.33109362983775
 20
-146.8848040627923
 30
0.0
 11
95.81616306190705
 21
-146.4672562851191
 31
0.0
  0
LINE
  5
A2
330
7D
100
AcDbEntity
  8
レイヤー 1
 62
    18
420
        0
370
    25
100
AcDbLine
 10
95.81616306190705
 20
-146.4672562851191
 30
0.0
 11
96.33016027101611
 21
-146.8493146183568
 31
0.0
  0
LINE
  5
A3
330
7D
100
AcDbEntity
  8
レイヤー 1
 62
    18
420
        0
370
    25
100
AcDbLine
 10
96.33016027101611
 20
-146.8493146183568
 30
0.0
 11
96.81593525862297
 21
-146.4317668406833
 31
0.0
  0
LINE
  5
A4
330
7D
100
AcDbEntity
  8
レイヤー 1
 62
    18
420
        0
370
    25
100
AcDbLine
 10
96.81593525862297
 20
-146.4317668406833
 30
0.0
 11
97.32993246773203
 21
-146.8138251739213
 31
0.0
  0
LINE
  5
A5
330
7D
100
AcDbEntity
  8
レイヤー 1
 62
    18
420
        0
370
    25
100
AcDbLine
 10
97.32993246773203
 20
-146.8138251739213
 30
0.0
 11
97.81500189980164
 21
-146.3959246184701
 31
0.0
  0
LINE
  5
A6
330
7D
100
AcDbEntity
  8
レイヤー 1
 62
    18
420
        0
370
    25
100
AcDbLine
 10
97.81500189980164
 20
-146.3959246184701
 30
0.0
 11
98.32899910891038
 21
-146.7779829517081
 31
0.0
  0
LINE
  5
A7
330
7D
100
AcDbEntity
  8
レイヤー 1
 62
    18
420
        0
370
    25
100
AcDbLine
 10
98.32899910891038
 20
-146.7779829517081
 30
0.0
 11
98.81477409651722
 21
-146.3604351740346
 31
0.0
  0
LINE
  5
A8
330
7D
100
AcDbEntity
  8
レイヤー 1
 62
    18
420
        0
370
    25
100
AcDbLine
 10
98.81477409651722
 20
-146.3604351740346
 30
0.0
 11
99.32877130562628
 21
-146.7421760072727
 31
0.0
  0
LINE
  5
A9
330
7D
100
AcDbEntity
  8
レイヤー 1
 62
    18
420
        0
370
    25
100
AcDbLine
 10
99.32877130562628
 20
-146.7421760072727
 30
0.0
 11
99.81384073769557
 21
-146.3246282295992
 31
0.0
  0
LINE
  5
AA
330
7D
100
AcDbEntity
  8
レイヤー 1
 62
    18
420
        0
370
    25
100
AcDbLine
 10
99.81384073769557
 20
-146.3246282295992
 30
0.0
 11
100.3278379468043
 21
-146.7063337850591
 31
0.0
  0
LINE
  5
AB
330
7D
100
AcDbEntity
  8
レイヤー 1
 62
    18
420
        0
370
    25
100
AcDbLine
 10
100.3278379468043
 20
-146.7063337850591
 30
0.0
 11
100.8136129344118
 21
-146.2887860073859
 31
0.0
  0
LINE
  5
AC
330
7D
100
AcDbEntity
  8
レイヤー 1
 62
    18
420
        0
370
    25
100
AcDbLine
 10
100.8710527267102
 20
-146.2405612851758
 30
0.0
 11
101.8271434641097
 21
-146.2405612851758
 31
0.0
  0
LINE
  5
AD
330
7D
100
AcDbEntity
  8
レイヤー 1
 62
    18
420
        0
370
    25
100
AcDbLine
 10
101.8271434641097
 20
-146.2405612851758
 30
0.0
 11
101.8271434641097
 21
-151.5025946171939
 31
0.0
  0
LINE
  5
AE
330
7D
100
AcDbEntity
  8
レイヤー 1
 62
    18
420
        0
370
    25
100
AcDbLine
 10
100.8274065451707
 20
-147.5028354515267
 30
0.0
 11
100.8274065451707
 21
-152.5027196169436
 31
0.0
  0
LINE
  5
AF
330
7D
100
AcDbEntity
  8
レイヤー 1
 62
    18
420
        0
370
    25
100
AcDbLine
 10
107.8271524777031
 20
-151.5025946171939
 30
0.0
 11
101.8271434641097
 21
-151.5025946171939
 31
0.0
  0
LINE
  5
B0
330
7D
100
AcDbEntity
  8
レイヤー 1
 62
    18
420
        0
370
    25
100
AcDbLine
 10
118.8349124746495
 20
-146.6456912850745
 30
0.0
 11
118.3209152655404
 21
-147.02778489609
 31
0.0
  0
LINE
  5
B1
330
7D
100
AcDbEntity
  8
レイヤー 1
 62
    18
420
        0
370
    25
100
AcDbLine
 10
123.8316567916164
 20
-146.8241615628077
 30
0.0
 11
123.3176595825073
 21
-147.2062198960454
 31
0.0
  0
LINE
  5
B2
330
7D
100
AcDbEntity
  8
レイヤー 1
 62
    18
420
        0
370
    25
100
AcDbLine
 10
119.3199819067188
 20
-147.063239062748
 30
0.0
 11
118.8349124746495
 21
-146.6456912850745
 31
0.0
  0
LINE
  5
B3
330
7D
100
AcDbEntity
  8
レイヤー 1
 62
    18
420
        0
370
    25
100
AcDbLine
 10
120.3197541034347
 20
-147.0990812849616
 30
0.0
 11
119.8339791158278
 21
-146.6815335072877
 31
0.0
  0
LINE
  5
B4
330
7D
100
AcDbEntity
  8
レイヤー 1
 62
    18
420
        0
370
    25
100
AcDbLine
 10
118.3209152655404
 20
-147.02778489609
 30
0.0
 11
117.8358458334711
 21
-146.6102371184165
 31
0.0
  0
LINE
  5
B5
330
7D
100
AcDbEntity
  8
レイヤー 1
 62
    18
420
        0
370
    25
100
AcDbLine
 10
119.8339791158278
 20
-146.6815335072877
 30
0.0
 11
119.3199819067188
 21
-147.063239062748
 31
0.0
  0
LINE
  5
B6
330
7D
100
AcDbEntity
  8
レイヤー 1
 62
    18
420
        0
370
    25
100
AcDbLine
 10
127.8293697451818
 20
-146.9671423961051
 30
0.0
 11
127.3153372582958
 21
-147.3492007293431
 31
0.0
  0
LINE
  5
B7
330
7D
100
AcDbEntity
  8
レイヤー 1
 62
    18
420
        0
370
    25
100
AcDbLine
 10
120.8337513125437
 20
-146.717375729501
 30
0.0
 11
120.3197541034347
 21
-147.0990812849616
 31
0.0
  0
LINE
  5
B8
330
7D
100
AcDbEntity
  8
レイヤー 1
 62
    18
420
        0
370
    25
100
AcDbLine
 10
121.8328179537221
 20
-146.7528651739365
 30
0.0
 11
121.318820744613
 21
-147.1349235071745
 31
0.0
  0
LINE
  5
B9
330
7D
100
AcDbEntity
  8
レイヤー 1
 62
    18
420
        0
370
    25
100
AcDbLine
 10
107.8271524777031
 20
-146.2405612851758
 30
0.0
 11
107.8271524777031
 21
-151.5025946171939
 31
0.0
  0
LINE
  5
BA
330
7D
100
AcDbEntity
  8
レイヤー 1
 62
    18
420
        0
370
    25
100
AcDbLine
 10
121.318820744613
 20
-147.1349235071745
 30
0.0
 11
120.8337513125437
 21
-146.717375729501
 31
0.0
  0
LINE
  5
BB
330
7D
100
AcDbEntity
  8
レイヤー 1
 62
    18
420
        0
370
    25
100
AcDbLine
 10
122.318592941329
 20
-147.1707304516099
 30
0.0
 11
121.8328179537221
 21
-146.7528651739365
 31
0.0
  0
LINE
  5
BC
330
7D
100
AcDbEntity
  8
レイヤー 1
 62
    18
420
        0
370
    25
100
AcDbLine
 10
127.3153372582958
 20
-147.3492007293431
 30
0.0
 11
126.8295975484658
 21
-146.9313001738918
 31
0.0
  0
LINE
  5
BD
330
7D
100
AcDbEntity
  8
レイヤー 1
 62
    18
420
        0
370
    25
100
AcDbLine
 10
122.832590150438
 20
-146.7886721183719
 30
0.0
 11
122.318592941329
 21
-147.1707304516099
 31
0.0
  0
LINE
  5
BE
330
7D
100
AcDbEntity
  8
レイヤー 1
 62
    18
420
        0
370
    25
100
AcDbLine
 10
123.3176595825073
 20
-147.2062198960454
 30
0.0
 11
122.832590150438
 21
-146.7886721183719
 31
0.0
  0
LINE
  5
BF
330
7D
100
AcDbEntity
  8
レイヤー 1
 62
    18
420
        0
370
    25
100
AcDbLine
 10
128.314439177251
 20
-147.3846901737786
 30
0.0
 11
127.8293697451818
 21
-146.9671423961051
 31
0.0
  0
LINE
  5
C0
330
7D
100
AcDbEntity
  8
レイヤー 1
 62
    18
420
        0
370
    25
100
AcDbLine
 10
124.8307587105716
 20
-146.8600037850209
 30
0.0
 11
124.3174317792232
 21
-147.2417093404809
 31
0.0
  0
LINE
  5
C1
330
7D
100
AcDbEntity
  8
レイヤー 1
 62
    18
420
        0
370
    25
100
AcDbLine
 10
125.8305309072875
 20
-146.8958107294563
 30
0.0
 11
125.3164984204016
 21
-147.2775515626941
 31
0.0
  0
LINE
  5
C2
330
7D
100
AcDbEntity
  8
レイヤー 1
 62
    18
420
        0
370
    25
100
AcDbLine
 10
125.3164984204016
 20
-147.2775515626941
 30
0.0
 11
124.8307587105716
 21
-146.8600037850209
 31
0.0
  0
LINE
  5
C3
330
7D
100
AcDbEntity
  8
レイヤー 1
 62
    18
420
        0
370
    25
100
AcDbLine
 10
128.8284363863601
 20
-147.0026318405409
 30
0.0
 11
128.314439177251
 21
-147.3846901737786
 31
0.0
  0
LINE
  5
C4
330
7D
100
AcDbEntity
  8
レイヤー 1
 62
    18
420
        0
370
    25
100
AcDbLine
 10
124.3174317792232
 20
-147.2417093404809
 30
0.0
 11
123.8316567916164
 21
-146.8241615628077
 31
0.0
  0
LINE
  5
C5
330
7D
100
AcDbEntity
  8
レイヤー 1
 62
    18
420
        0
370
    25
100
AcDbLine
 10
126.8295975484658
 20
-146.9313001738918
 30
0.0
 11
126.3156003393568
 21
-147.3133585071298
 31
0.0
  0
LINE
  5
C6
330
7D
100
AcDbEntity
  8
レイヤー 1
 62
    18
420
        0
370
    25
100
AcDbLine
 10
126.3156003393568
 20
-147.3133585071298
 30
0.0
 11
125.8305309072875
 21
-146.8958107294563
 31
0.0
  0
LINE
  5
C7
330
7D
100
AcDbEntity
  8
レイヤー 1
 62
    18
420
        0
370
    25
100
AcDbLine
 10
128.8284363863601
 20
-147.0026318405409
 30
0.0
 11
128.8284363863601
 21
-147.5028354515267
 31
0.0
  0
LINE
  5
C8
330
7D
100
AcDbEntity
  8
レイヤー 1
 62
    18
420
        0
370
    25
100
AcDbLine
 10
108.8275949521796
 20
-147.5028354515267
 30
0.0
 11
128.8284363863601
 21
-147.5028354515267
 31
0.0
  0
LINE
  5
C9
330
7D
100
AcDbEntity
  8
レイヤー 1
 62
    18
420
        0
370
    25
100
AcDbLine
 10
117.8358458334711
 20
-146.6102371184165
 30
0.0
 11
117.3218133465852
 21
-146.9922954516545
 31
0.0
  0
LINE
  5
CA
330
7D
100
AcDbEntity
  8
レイヤー 1
 62
    18
420
        0
370
    25
100
AcDbLine
 10
117.3218133465852
 20
-146.9922954516545
 30
0.0
 11
116.8360736367552
 21
-146.5743948962033
 31
0.0
  0
LINE
  5
CB
330
7D
100
AcDbEntity
  8
レイヤー 1
 62
    18
420
        0
370
    25
100
AcDbLine
 10
116.8360736367552
 20
-146.5743948962033
 30
0.0
 11
116.3220411498693
 21
-146.9564532294413
 31
0.0
  0
LINE
  5
CC
330
7D
100
AcDbEntity
  8
レイヤー 1
 62
    18
420
        0
370
    25
100
AcDbLine
 10
116.3220411498693
 20
-146.9564532294413
 30
0.0
 11
115.8369717178
 21
-146.5389054517678
 31
0.0
  0
LINE
  5
CD
330
7D
100
AcDbEntity
  8
レイヤー 1
 62
    18
420
        0
370
    25
100
AcDbLine
 10
115.8369717178
 20
-146.5389054517678
 30
0.0
 11
115.3229745086909
 21
-146.920611007228
 31
0.0
  0
LINE
  5
CE
330
7D
100
AcDbEntity
  8
レイヤー 1
 62
    18
420
        0
370
    25
100
AcDbLine
 10
115.3229745086909
 20
-146.920611007228
 30
0.0
 11
114.837234798861
 21
-146.5030632295545
 31
0.0
  0
LINE
  5
CF
330
7D
100
AcDbEntity
  8
レイヤー 1
 62
    18
420
        0
370
    25
100
AcDbLine
 10
114.837234798861
 20
-146.5030632295545
 30
0.0
 11
114.323202311975
 21
-146.8848040627923
 31
0.0
  0
LINE
  5
D0
330
7D
100
AcDbEntity
  8
レイヤー 1
 62
    18
420
        0
370
    25
100
AcDbLine
 10
114.323202311975
 20
-146.8848040627923
 30
0.0
 11
113.8381328799057
 21
-146.4672562851191
 31
0.0
  0
LINE
  5
D1
330
7D
100
AcDbEntity
  8
レイヤー 1
 62
    18
420
        0
370
    25
100
AcDbLine
 10
113.8381328799057
 20
-146.4672562851191
 30
0.0
 11
113.3241356707967
 21
-146.8493146183568
 31
0.0
  0
LINE
  5
D2
330
7D
100
AcDbEntity
  8
レイヤー 1
 62
    18
420
        0
370
    25
100
AcDbLine
 10
113.3241356707967
 20
-146.8493146183568
 30
0.0
 11
112.8390662387274
 21
-146.4317668406833
 31
0.0
  0
LINE
  5
D3
330
7D
100
AcDbEntity
  8
レイヤー 1
 62
    18
420
        0
370
    25
100
AcDbLine
 10
112.8390662387274
 20
-146.4317668406833
 30
0.0
 11
112.3250690296183
 21
-146.8138251739213
 31
0.0
  0
LINE
  5
D4
330
7D
100
AcDbEntity
  8
レイヤー 1
 62
    18
420
        0
370
    25
100
AcDbLine
 10
112.3250690296183
 20
-146.8138251739213
 30
0.0
 11
111.8392940420115
 21
-146.3959246184701
 31
0.0
  0
LINE
  5
D5
330
7D
100
AcDbEntity
  8
レイヤー 1
 62
    18
420
        0
370
    25
100
AcDbLine
 10
111.8392940420115
 20
-146.3959246184701
 30
0.0
 11
111.3252968329024
 21
-146.7779829517081
 31
0.0
  0
LINE
  5
D6
330
7D
100
AcDbEntity
  8
レイヤー 1
 62
    18
420
        0
370
    25
100
AcDbLine
 10
111.3252968329024
 20
-146.7779829517081
 30
0.0
 11
110.8402274008331
 21
-146.3604351740346
 31
0.0
  0
LINE
  5
D7
330
7D
100
AcDbEntity
  8
レイヤー 1
 62
    18
420
        0
370
    25
100
AcDbLine
 10
110.8402274008331
 20
-146.3604351740346
 30
0.0
 11
110.3261949139472
 21
-146.7421760072727
 31
0.0
  0
LINE
  5
D8
330
7D
100
AcDbEntity
  8
レイヤー 1
 62
    18
420
        0
370
    25
100
AcDbLine
 10
110.3261949139472
 20
-146.7421760072727
 30
0.0
 11
109.8404552041172
 21
-146.3246282295992
 31
0.0
  0
LINE
  5
D9
330
7D
100
AcDbEntity
  8
レイヤー 1
 62
    18
420
        0
370
    25
100
AcDbLine
 10
109.8404552041172
 20
-146.3246282295992
 30
0.0
 11
109.3264579950081
 21
-146.7063337850591
 31
0.0
  0
LINE
  5
DA
330
7D
100
AcDbEntity
  8
レイヤー 1
 62
    18
420
        0
370
    25
100
AcDbLine
 10
109.3264579950081
 20
-146.7063337850591
 30
0.0
 11
108.8413885629389
 21
-146.2887860073859
 31
0.0
  0
LINE
  5
DB
330
7D
100
AcDbEntity
  8
レイヤー 1
 62
    18
420
        0
370
    25
100
AcDbLine
 10
108.7769205541784
 20
-146.2405612851758
 30
0.0
 11
107.8271524777031
 21
-146.2405612851758
 31
0.0
  0
LINE
  5
DC
330
7D
100
AcDbEntity
  8
レイヤー 1
 62
    18
420
        0
370
    25
100
AcDbLine
 10
108.8275949521796
 20
-147.5028354515267
 30
0.0
 11
108.8275949521796
 21
-152.5027196169436
 31
0.0
  0
SPLINE
  5
DD
330
7D
100
AcDbEntity
  8
レイヤー 1
 62
    18
420
        0
370
     9
100
AcDbSpline
210
0.0
220
0.0
230
1.0
 70
     9
 71
     3
 72
    17
 73
    13
 74
     0
 42
0.0000000001
 43
0.0000000001
 40
0.0
 40
0.0
 40
0.0
 40
0.0
 40
1.0
 40
1.0
 40
1.0
 40
2.0
 40
2.0
 40
2.0
 40
3.0
 40
3.0
 40
3.0
 40
4.0
 40
4.0
 40
4.0
 40
4.0
 10
80.92541344180173
 20
-142.2408021195089
 30
0.0
 10
80.92541344180173
 20
-142.1853454528562
 30
0.0
 10
80.88064594294385
 20
-142.1405426750895
 30
0.0
 10
80.82550677768388
 20
-142.1405426750895
 30
0.0
 10
80.7704028902008
 20
-142.1405426750895
 30
0.0
 10
80.72560011356637
 20
-142.1853454528562
 30
0.0
 10
80.72560011356637
 20
-142.2408021195089
 30
0.0
 10
80.72560011356637
 20
-142.2959412861619
 30
0.0
 10
80.7704028902008
 20
-142.3407087861505
 30
0.0
 10
80.82550677768388
 20
-142.3407087861505
 30
0.0
 10
80.88064594294385
 20
-142.3407087861505
 30
0.0
 10
80.92541344180173
 20
-142.2959412861619
 30
0.0
 10
80.92541344180173
 20
-142.2408021195089
 30
0.0
  0
SPLINE
  5
DE
330
7D
100
AcDbEntity
  8
レイヤー 1
 62
    18
420
        0
370
     9
100
AcDbSpline
210
0.0
220
0.0
230
1.0
 70
     9
 71
     3
 72
    17
 73
    13
 74
     0
 42
0.0000000001
 43
0.0000000001
 40
0.0
 40
0.0
 40
0.0
 40
0.0
 40
1.0
 40
1.0
 40
1.0
 40
2.0
 40
2.0
 40
2.0
 40
3.0
 40
3.0
 40
3.0
 40
4.0
 40
4.0
 40
4.0
 40
4.0
 10
76.92565437717774
 20
-147.0026318405409
 30
0.0
 10
76.92565437717774
 20
-146.9474926738878
 30
0.0
 10
76.88088687831953
 20
-146.9027251738989
 30
0.0
 10
76.82574771305957
 20
-146.9027251738989
 30
0.0
 10
76.7706461560516
 20
-146.9027251738989
 30
0.0
 10
76.72584337828486
 20
-146.9474926738878
 30
0.0
 10
76.72584337828486
 20
-147.0026318405409
 30
0.0
 10
76.72584337828486
 20
-147.0577357294158
 30
0.0
 10
76.7706461560516
 20
-147.1025385071825
 30
0.0
 10
76.82574771305957
 20
-147.1025385071825
 30
0.0
 10
76.88088687831953
 20
-147.1025385071825
 30
0.0
 10
76.92565437717774
 20
-147.0577357294158
 30
0.0
 10
76.92565437717774
 20
-147.0026318405409
 30
0.0
  0
SPLINE
  5
DF
330
7D
100
AcDbEntity
  8
レイヤー 1
 62
    18
420
        0
370
     9
100
AcDbSpline
210
0.0
220
0.0
230
1.0
 70
     9
 71
     3
 72
    17
 73
    13
 74
     0
 42
0.0000000001
 43
0.0000000001
 40
0.0
 40
0.0
 40
0.0
 40
0.0
 40
1.0
 40
1.0
 40
1.0
 40
2.0
 40
2.0
 40
2.0
 40
3.0
 40
3.0
 40
3.0
 40
4.0
 40
4.0
 40
4.0
 40
4.0
 10
76.92565437717774
 20
-147.5028354515267
 30
0.0
 10
76.92565437717774
 20
-147.4477315626518
 30
0.0
 10
76.88088687831953
 20
-147.4029287848851
 30
0.0
 10
76.82574771305957
 20
-147.4029287848851
 30
0.0
 10
76.7706461560516
 20
-147.4029287848851
 30
0.0
 10
76.72584337828486
 20
-147.4477315626518
 30
0.0
 10
76.72584337828486
 20
-147.5028354515267
 30
0.0
 10
76.72584337828486
 20
-147.5579746181798
 30
0.0
 10
76.7706461560516
 20
-147.6027421181684
 30
0.0
 10
76.82574771305957
 20
-147.6027421181684
 30
0.0
 10
76.88088687831953
 20
-147.6027421181684
 30
0.0
 10
76.92565437717774
 20
-147.5579746181798
 30
0.0
 10
76.92565437717774
 20
-147.5028354515267
 30
0.0
  0
SPLINE
  5
E0
330
7D
100
AcDbEntity
  8
レイヤー 1
 62
    18
420
        0
370
     9
100
AcDbSpline
210
0.0
220
0.0
230
1.0
 70
     9
 71
     3
 72
    17
 73
    13
 74
     0
 42
0.0000000001
 43
0.0000000001
 40
0.0
 40
0.0
 40
0.0
 40
0.0
 40
1.0
 40
1.0
 40
1.0
 40
2.0
 40
2.0
 40
2.0
 40
3.0
 40
3.0
 40
3.0
 40
4.0
 40
4.0
 40
4.0
 40
4.0
 10
76.92565437717774
 20
-152.5027196169436
 30
0.0
 10
76.92565437717774
 20
-152.4475804502905
 30
0.0
 10
76.88088687831953
 20
-152.4028129503013
 30
0.0
 10
76.82574771305957
 20
-152.4028129503013
 30
0.0
 10
76.7706461560516
 20
-152.4028129503013
 30
0.0
 10
76.72584337828486
 20
-152.4475804502905
 30
0.0
 10
76.72584337828486
 20
-152.5027196169436
 30
0.0
 10
76.72584337828486
 20
-152.5578235058185
 30
0.0
 10
76.7706461560516
 20
-152.6026262835853
 30
0.0
 10
76.82574771305957
 20
-152.6026262835853
 30
0.0
 10
76.88088687831953
 20
-152.6026262835853
 30
0.0
 10
76.92565437717774
 20
-152.5578235058185
 30
0.0
 10
76.92565437717774
 20
-152.5027196169436
 30
0.0
  0
SPLINE
  5
E1
330
7D
100
AcDbEntity
  8
レイヤー 1
 62
    18
420
        0
370
     9
100
AcDbSpline
210
0.0
220
0.0
230
1.0
 70
     9
 71
     3
 72
    17
 73
    13
 74
     0
 42
0.0000000001
 43
0.0000000001
 40
0.0
 40
0.0
 40
0.0
 40
0.0
 40
1.0
 40
1.0
 40
1.0
 40
2.0
 40
2.0
 40
2.0
 40
3.0
 40
3.0
 40
3.0
 40
4.0
 40
4.0
 40
4.0
 40
4.0
 10
101.9270501282275
 20
-142.2408021195089
 30
0.0
 10
101.9270501282275
 20
-142.1853454528562
 30
0.0
 10
101.8822826293696
 20
-142.1405426750895
 30
0.0
 10
101.8271434641097
 20
-142.1405426750895
 30
0.0
 10
101.7720395766266
 20
-142.1405426750895
 30
0.0
 10
101.7272367999919
 20
-142.1853454528562
 30
0.0
 10
101.7272367999919
 20
-142.2408021195089
 30
0.0
 10
101.7272367999919
 20
-142.2959412861619
 30
0.0
 10
101.7720395766266
 20
-142.3407087861505
 30
0.0
 10
101.8271434641097
 20
-142.3407087861505
 30
0.0
 10
101.8822826293696
 20
-142.3407087861505
 30
0.0
 10
101.9270501282275
 20
-142.2959412861619
 30
0.0
 10
101.9270501282275
 20
-142.2408021195089
 30
0.0
  0
SPLINE
  5
E2
330
7D
100
AcDbEntity
  8
レイヤー 1
 62
    18
420
        0
370
     9
100
AcDbSpline
210
0.0
220
0.0
230
1.0
 70
     9
 71
     3
 72
    17
 73
    13
 74
     0
 42
0.0000000001
 43
0.0000000001
 40
0.0
 40
0.0
 40
0.0
 40
0.0
 40
1.0
 40
1.0
 40
1.0
 40
2.0
 40
2.0
 40
2.0
 40
3.0
 40
3.0
 40
3.0
 40
4.0
 40
4.0
 40
4.0
 40
4.0
 10
128.9283430504779
 20
-142.2408021195089
 30
0.0
 10
128.9283430504779
 20
-142.1853454528562
 30
0.0
 10
128.8835755516201
 20
-142.1405426750895
 30
0.0
 10
128.8284363863601
 20
-142.1405426750895
 30
0.0
 10
128.7733324988771
 20
-142.1405426750895
 30
0.0
 10
128.7285297222423
 20
-142.1853454528562
 30
0.0
 10
128.7285297222423
 20
-142.2408021195089
 30
0.0
 10
128.7285297222423
 20
-142.2959412861619
 30
0.0
 10
128.7733324988771
 20
-142.3407087861505
 30
0.0
 10
128.8284363863601
 20
-142.3407087861505
 30
0.0
 10
128.8835755516201
 20
-142.3407087861505
 30
0.0
 10
128.9283430504779
 20
-142.2959412861619
 30
0.0
 10
128.9283430504779
 20
-142.2408021195089
 30
0.0
  0
SPLINE
  5
E3
330
7D
100
AcDbEntity
  8
レイヤー 1
 62
    18
420
        0
370
     9
100
AcDbSpline
210
0.0
220
0.0
230
1.0
 70
     9
 71
     3
 72
    17
 73
    13
 74
     0
 42
0.0000000001
 43
0.0000000001
 40
0.0
 40
0.0
 40
0.0
 40
0.0
 40
1.0
 40
1.0
 40
1.0
 40
2.0
 40
2.0
 40
2.0
 40
3.0
 40
3.0
 40
3.0
 40
4.0
 40
4.0
 40
4.0
 40
4.0
 10
107.9270591418209
 20
-142.2408021195089
 30
0.0
 10
107.9270591418209
 20
-142.1853454528562
 30
0.0
 10
107.8822563651861
 20
-142.1405426750895
 30
0.0
 10
107.8271524777031
 20
-142.1405426750895
 30
0.0
 10
107.7720133124431
 20
-142.1405426750895
 30
0.0
 10
107.72724892609
 20
-142.1853454528562
 30
0.0
 10
107.72724892609
 20
-142.2408021195089
 30
0.0
 10
107.72724892609
 20
-142.2959412861619
 30
0.0
 10
107.7720133124431
 20
-142.3407087861505
 30
0.0
 10
107.8271524777031
 20
-142.3407087861505
 30
0.0
 10
107.8822563651861
 20
-142.3407087861505
 30
0.0
 10
107.9270591418209
 20
-142.2959412861619
 30
0.0
 10
107.9270591418209
 20
-142.2408021195089
 30
0.0
  0
LINE
  5
E4
330
7D
100
AcDbEntity
  8
レイヤー 1
 62
    18
420
        0
370
     9
100
AcDbLine
 10
76.82574771305957
 20
-147.0026318405409
 30
0.0
 11
76.82574771305957
 21
-141.744726008522
 31
0.0
  0
LINE
  5
E5
330
7D
100
AcDbEntity
  8
レイヤー 1
 62
    18
420
        0
370
     9
100
AcDbLine
 10
76.82574771305957
 20
-147.0026318405409
 30
0.0
 11
76.82574771305957
 21
-147.5028354515267
 31
0.0
  0
LINE
  5
E6
330
7D
100
AcDbEntity
  8
レイヤー 1
 62
    18
420
        0
370
     9
100
AcDbLine
 10
78.28578906469971
 20
-147.0026318405409
 30
0.0
 11
75.82565801635176
 21
-147.0026318405409
 31
0.0
  0
LINE
  5
E7
330
7D
100
AcDbEntity
  8
レイヤー 1
 62
    18
420
        0
370
     9
100
AcDbLine
 10
78.28578906469971
 20
-147.5028354515267
 30
0.0
 11
75.82565801635176
 21
-147.5028354515267
 31
0.0
  0
INSERT
  5
E9
330
7D
100
AcDbEntity
  8
レイヤー 1
100
AcDbBlockReference
  2
Block_2
 10
0.0
 20
0.0
 30
0.0
  0
LINE
  5
F7
330
7D
100
AcDbEntity
  8
レイヤー 1
 62
    18
420
        0
370
     9
100
AcDbLine
 10
80.82550677768388
 20
-142.2408021195089
 30
0.0
 11
101.8271434641097
 21
-142.2408021195089
 31
0.0
  0
LINE
  5
F8
330
7D
100
AcDbEntity
  8
レイヤー 1
 62
    18
420
        0
370
     9
100
AcDbLine
 10
80.82550677768388
 20
-144.4628787856202
 30
0.0
 11
80.82550677768388
 21
-141.2407123975367
 31
0.0
  0
INSERT
  5
FA
330
7D
100
AcDbEntity
  8
レイヤー 1
100
AcDbBlockReference
  2
Block_4
 10
0.0
 20
0.0
 30
0.0
  0
LINE
  5
105
330
7D
100
AcDbEntity
  8
レイヤー 1
 62
    18
420
        0
370
     9
100
AcDbLine
 10
76.82574771305957
 20
-147.5028354515267
 30
0.0
 11
76.82574771305957
 21
-152.5027196169436
 31
0.0
  0
LINE
  5
106
330
7D
100
AcDbEntity
  8
レイヤー 1
 62
    18
420
        0
370
     9
100
AcDbLine
 10
98.28765355440964
 20
-152.5027196169436
 30
0.0
 11
75.82565801635176
 21
-152.5027196169436
 31
0.0
  0
INSERT
  5
108
330
7D
100
AcDbEntity
  8
レイヤー 1
100
AcDbBlockReference
  2
Block_6
 10
0.0
 20
0.0
 30
0.0
  0
LINE
  5
10D
330
7D
100
AcDbEntity
  8
レイヤー 1
 62
    18
420
        0
370
     9
100
AcDbLine
 10
128.8284363863601
 20
-142.2408021195089
 30
0.0
 11
107.8271524777031
 21
-142.2408021195089
 31
0.0
  0
LINE
  5
10E
330
7D
100
AcDbEntity
  8
レイヤー 1
 62
    18
420
        0
370
     9
100
AcDbLine
 10
128.8284363863601
 20
-144.4628787856202
 30
0.0
 11
128.8284363863601
 21
-141.2407123975367
 31
0.0
  0
INSERT
  5
110
330
7D
100
AcDbEntity
  8
レイヤー 1
100
AcDbBlockReference
  2
Block_7
 10
0.0
 20
0.0
 30
0.0
  0
LINE
  5
11B
330
7D
100
AcDbEntity
  8
レイヤー 1
 62
    18
420
        0
370
     9
100
AcDbLine
 10
101.8271434641097
 20
-142.2408021195089
 30
0.0
 11
107.8271524777031
 21
-142.2408021195089
 31
0.0
  0
LINE
  5
11C
330
7D
100
AcDbEntity
  8
レイヤー 1
 62
    18
420
        0
370
     9
100
AcDbLine
 10
101.8271434641097
 20
-143.7008435080329
 30
0.0
 11
101.8271434641097
 21
-141.2407123975367
 31
0.0
  0
LINE
  5
11D
330
7D
100
AcDbEntity
  8
レイヤー 1
 62
    18
420
        0
370
     9
100
AcDbLine
 10
107.8271524777031
 20
-143.7008435080329
 30
0.0
 11
107.8271524777031
 21
-141.2407123975367
 31
0.0
  0
INSERT
  5
11F
330
7D
100
AcDbEntity
  8
レイヤー 1
100
AcDbBlockReference
  2
Block_9
 10
0.0
 20
0.0
 30
0.0
  0
SPLINE
  5
125
330
7D
100
AcDbEntity
  8
レイヤー 1
 62
    18
420
        0
370
     9
100
AcDbSpline
210
0.0
220
0.0
230
1.0
 70
     9
 71
     3
 72
    17
 73
    13
 74
     0
 42
0.0000000001
 43
0.0000000001
 40
0.0
 40
0.0
 40
0.0
 40
0.0
 40
1.0
 40
1.0
 40
1.0
 40
2.0
 40
2.0
 40
2.0
 40
3.0
 40
3.0
 40
3.0
 40
4.0
 40
4.0
 40
4.0
 40
4.0
 10
101.1112544832995
 20
-156.9262001713935
 30
0.0
 10
101.1112544832995
 20
-156.871096282518
 30
0.0
 10
101.0554420949085
 20
-156.8262935047513
 30
0.0
 10
100.9872501522041
 20
-156.8262935047513
 30
0.0
 10
100.9183526539616
 20
-156.8262935047513
 30
0.0
 10
100.8632134887016
 20
-156.871096282518
 30
0.0
 10
100.8632134887016
 20
-156.9262001713935
 30
0.0
 10
100.8632134887016
 20
-156.981339338046
 30
0.0
 10
100.9183526539616
 20
-157.0261068380346
 30
0.0
 10
100.9872501522041
 20
-157.0261068380346
 30
0.0
 10
101.0554420949085
 20
-157.0261068380346
 30
0.0
 10
101.1112544832995
 20
-156.981339338046
 30
0.0
 10
101.1112544832995
 20
-156.9262001713935
 30
0.0
  0
SPLINE
  5
126
330
7D
100
AcDbEntity
  8
レイヤー 1
 62
    18
420
        0
370
     9
100
AcDbSpline
210
0.0
220
0.0
230
1.0
 70
     9
 71
     3
 72
    17
 73
    13
 74
     0
 42
0.0000000001
 43
0.0000000001
 40
0.0
 40
0.0
 40
0.0
 40
0.0
 40
1.0
 40
1.0
 40
1.0
 40
2.0
 40
2.0
 40
2.0
 40
3.0
 40
3.0
 40
3.0
 40
4.0
 40
4.0
 40
4.0
 40
4.0
 10
109.1955421650147
 20
-156.9262001713935
 30
0.0
 10
109.1955421650147
 20
-156.871096282518
 30
0.0
 10
109.1397327219941
 20
-156.8262935047513
 30
0.0
 10
109.070799945975
 20
-156.8262935047513
 30
0.0
 10
109.0019024477327
 20
-156.8262935047513
 30
0.0
 10
108.9468017035636
 20
-156.871096282518
 30
0.0
 10
108.9468017035636
 20
-156.9262001713935
 30
0.0
 10
108.9468017035636
 20
-156.981339338046
 30
0.0
 10
109.0019024477327
 20
-157.0261068380346
 30
0.0
 10
109.070799945975
 20
-157.0261068380346
 30
0.0
 10
109.1397327219941
 20
-157.0261068380346
 30
0.0
 10
109.1955421650147
 20
-156.981339338046
 30
0.0
 10
109.1955421650147
 20
-156.9262001713935
 30
0.0
  0
LINE
  5
127
330
7D
100
AcDbEntity
  8
レイヤー 1
 62
    18
420
        0
370
     9
100
AcDbLine
 10
109.070799945975
 20
-156.9262001713935
 30
0.0
 11
100.9872501522041
 21
-156.9262001713935
 31
0.0
  0
LINE
  5
128
330
7D
100
AcDbEntity
  8
レイヤー 1
 62
    18
420
        0
370
     9
100
AcDbLine
 10
109.070799945975
 20
-155.4661940606467
 30
0.0
 11
109.070799945975
 21
-157.9263251711432
 31
0.0
  0
LINE
  5
129
330
7D
100
AcDbEntity
  8
レイヤー 1
 62
    18
420
        0
370
     9
100
AcDbLine
 10
100.9872501522041
 20
-155.4661940606467
 30
0.0
 11
100.9872501522041
 21
-157.9263251711432
 31
0.0
  0
INSERT
  5
12B
330
7D
100
AcDbEntity
  8
レイヤー 1
100
AcDbBlockReference
  2
Block_10
 10
0.0
 20
0.0
 30
0.0
  0
LINE
  5
132
330
7D
100
AcDbEntity
  8
レイヤー 1
 62
    18
420
        0
370
     9
100
AcDbLine
 10
105.7690469746541
 20
-150.5014465618879
 30
0.0
 11
113.7692353816635
 21
-150.5014465618879
 31
0.0
  0
INSERT
  5
134
330
7D
100
AcDbEntity
  8
レイヤー 1
100
AcDbBlockReference
  2
Block_11
 10
0.0
 20
0.0
 30
0.0
  0
ENDBLK
  5
80
330
7D
100
AcDbEntity
  8
0
100
AcDbBlockEnd
  0
BLOCK
  5
EA
330
E8
100
AcDbEntity
  8
0
100
AcDbBlockBegin
  2
Block_2
 70
     0
 10
0.0
 20
0.0
 30
0.0
  3
Block_2
  1

  0
INSERT
  5
ED
330
E8
100
AcDbEntity
  8
レイヤー 1
100
AcDbBlockReference
  2
Block_3
 10
0.0
 20
0.0
 30
0.0
  0
ENDBLK
  5
EB
330
E8
100
AcDbEntity
  8
0
100
AcDbBlockEnd
  0
BLOCK
  5
EE
330
EC
100
AcDbEntity
  8
0
100
AcDbBlockBegin
  2
Block_3
 70
     0
 10
0.0
 20
0.0
 30
0.0
  3
Block_3
  1

  0
SPLINE
  5
F0
330
EC
100
AcDbEntity
  8
レイヤー 1
100
AcDbSpline
210
0.0
220
0.0
230
1.0
 70
     9
 71
     3
 72
    17
 73
    13
 74
     0
 42
0.0000000001
 43
0.0000000001
 40
0.0
 40
0.0
 40
0.0
 40
0.0
 40
1.0
 40
1.0
 40
1.0
 40
2.0
 40
2.0
 40
2.0
 40
3.0
 40
3.0
 40
3.0
 40
4.0
 40
4.0
 40
4.0
 40
4.0
 10
73.9813584884491
 20
-148.1573648718148
 30
0.0
 10
73.9813584884491
 20
-148.4071342944954
 30
0.0
 10
74.26471759211091
 20
-148.4536430835463
 30
0.0
 10
74.60957165018442
 20
-148.4536430835463
 30
0.0
 10
74.92910425644133
 20
-148.4536430835463
 30
0.0
 10
75.23795706669398
 20
-148.4174695809512
 30
0.0
 10
75.23795706669398
 20
-148.1573648718148
 30
0.0
 10
75.23795706669398
 20
-147.9096625064254
 30
0.0
 10
74.95649276554907
 20
-147.8610866600833
 30
0.0
 10
74.60957165018442
 20
-147.8610866600833
 30
0.0
 10
74.29021129870176
 20
-147.8610866600833
 30
0.0
 10
73.9813584884491
 20
-147.8993272199696
 30
0.0
 10
73.9813584884491
 20
-148.1573648718148
 30
0.0
  0
SPLINE
  5
F1
330
EC
100
AcDbEntity
  8
レイヤー 1
100
AcDbSpline
210
0.0
220
0.0
230
1.0
 70
     9
 71
     3
 72
    29
 73
    25
 74
     0
 42
0.0000000001
 43
0.0000000001
 40
0.0
 40
0.0
 40
0.0
 40
0.0
 40
1.0
 40
1.0
 40
1.0
 40
2.0
 40
2.0
 40
2.0
 40
3.0
 40
3.0
 40
3.0
 40
4.0
 40
4.0
 40
4.0
 40
5.0
 40
5.0
 40
5.0
 40
6.0
 40
6.0
 40
6.0
 40
7.0
 40
7.0
 40
7.0
 40
8.0
 40
8.0
 40
8.0
 40
8.0
 10
75.20402287616427
 20
-147.7594563432685
 30
0.0
 10
75.41348468166747
 20
-147.8676323415053
 30
0.0
 10
75.4326049616106
 20
-148.0409206444134
 30
0.0
 10
75.4326049616106
 20
-148.1573648718148
 30
0.0
 10
75.4326049616106
 20
-148.318250830976
 30
0.0
 10
75.38609617255973
 20
-148.4598442554197
 30
0.0
 10
75.20402287616427
 20
-148.5549288908126
 30
0.0
 10
75.00954723602191
 20
-148.6586262649187
 30
0.0
 10
74.77252466663673
 20
-148.677918799636
 30
0.0
 10
74.60957165018442
 20
-148.677918799636
 30
0.0
 10
74.46573891367524
 20
-148.677918799636
 30
0.0
 10
74.21407468847774
 20
-148.6606933222098
 30
0.0
 10
74.01512042420455
 20
-148.5549288908126
 30
0.0
 10
73.81203204534909
 20
-148.4470974021243
 30
0.0
 10
73.78877765082364
 20
-148.2862114429632
 30
0.0
 10
73.78877765082364
 20
-148.1573648718148
 30
0.0
 10
73.78877765082364
 20
-147.9985459699448
 30
0.0
 10
73.83321938258337
 20
-147.8548854882099
 30
0.0
 10
74.01512042420455
 20
-147.7594563432685
 30
0.0
 10
74.20770126183002
 20
-147.6602375932933
 30
0.0
 10
74.43611109250209
 20
-147.6368109439936
 30
0.0
 10
74.60957165018442
 20
-147.6368109439936
 30
0.0
 10
74.7809651505756
 20
-147.6368109439936
 30
0.0
 10
75.01161429331308
 20
-147.6581705360021
 30
0.0
 10
75.20402287616427
 20
-147.7594563432685
 30
0.0
  0
HATCH
  5
F2
330
EC
100
AcDbEntity
  8
レイヤー 1
 62
    18
420
        0
440
 33554687
100
AcDbHatch
 10
0.0
 20
0.0
 30
0.0
210
0.0
220
0.0
230
1.0
  2
SOLID
 70
     1
 71
     1
 91
        2
 92
        1
 93
        1
 72
     4
 94
        3
 73
     0
 74
     0
 95
       17
 96
       13
 40
0.0
 40
0.0
 40
0.0
 40
0.0
 40
1.0
 40
1.0
 40
1.0
 40
2.0
 40
2.0
 40
2.0
 40
3.0
 40
3.0
 40
3.0
 40
4.0
 40
4.0
 40
4.0
 40
4.0
 10
73.9813584884491
 20
-148.1573648718148
 10
73.9813584884491
 20
-148.4071342944954
 10
74.26471759211091
 20
-148.4536430835463
 10
74.60957165018442
 20
-148.4536430835463
 10
74.92910425644133
 20
-148.4536430835463
 10
75.23795706669398
 20
-148.4174695809512
 10
75.23795706669398
 20
-148.1573648718148
 10
75.23795706669398
 20
-147.9096625064254
 10
74.95649276554907
 20
-147.8610866600833
 10
74.60957165018442
 20
-147.8610866600833
 10
74.29021129870176
 20
-147.8610866600833
 10
73.9813584884491
 20
-147.8993272199696
 10
73.9813584884491
 20
-148.1573648718148
 97
        0
 97
        1
330
F0
 92
        1
 93
        1
 72
     4
 94
        3
 73
     0
 74
     0
 95
       29
 96
       25
 40
0.0
 40
0.0
 40
0.0
 40
0.0
 40
1.0
 40
1.0
 40
1.0
 40
2.0
 40
2.0
 40
2.0
 40
3.0
 40
3.0
 40
3.0
 40
4.0
 40
4.0
 40
4.0
 40
5.0
 40
5.0
 40
5.0
 40
6.0
 40
6.0
 40
6.0
 40
7.0
 40
7.0
 40
7.0
 40
8.0
 40
8.0
 40
8.0
 40
8.0
 10
75.20402287616427
 20
-147.7594563432685
 10
75.41348468166747
 20
-147.8676323415053
 10
75.4326049616106
 20
-148.0409206444134
 10
75.4326049616106
 20
-148.1573648718148
 10
75.4326049616106
 20
-148.318250830976
 10
75.38609617255973
 20
-148.4598442554197
 10
75.20402287616427
 20
-148.5549288908126
 10
75.00954723602191
 20
-148.6586262649187
 10
74.77252466663673
 20
-148.677918799636
 10
74.60957165018442
 20
-148.677918799636
 10
74.46573891367524
 20
-148.677918799636
 10
74.21407468847774
 20
-148.6606933222098
 10
74.01512042420455
 20
-148.5549288908126
 10
73.81203204534909
 20
-148.4470974021243
 10
73.78877765082364
 20
-148.2862114429632
 10
73.78877765082364
 20
-148.1573648718148
 10
73.78877765082364
 20
-147.9985459699448
 10
73.83321938258337
 20
-147.8548854882099
 10
74.01512042420455
 20
-147.7594563432685
 10
74.20770126183002
 20
-147.6602375932933
 10
74.43611109250209
 20
-147.6368109439936
 10
74.60957165018442
 20
-147.6368109439936
 10
74.7809651505756
 20
-147.6368109439936
 10
75.01161429331308
 20
-147.6581705360021
 10
75.20402287616427
 20
-147.7594563432685
 97
        0
 97
        1
330
F1
 75
     2
 76
     1
 98
        1
 10
0.0
 20
0.0
450
        0
451
        0
460
0.0
461
0.0
452
        0
462
0.0
453
        0
470

  0
SPLINE
  5
F3
330
EC
100
AcDbEntity
  8
レイヤー 1
100
AcDbSpline
210
0.0
220
0.0
230
1.0
 70
    11
 71
     3
 72
    17
 73
    13
 74
     0
 42
0.0000000001
 43
0.0000000001
 40
0.0
 40
0.0
 40
0.0
 40
0.0
 40
1.0
 40
1.0
 40
1.0
 40
2.0
 40
2.0
 40
2.0
 40
3.0
 40
3.0
 40
3.0
 40
4.0
 40
4.0
 40
4.0
 40
4.0
 10
75.38178980320316
 20
-147.4204589475199
 30
0.0
 10
75.38178980320316
 20
-147.4204589475199
 30
0.0
 10
75.13012557800566
 20
-147.4204589475199
 30
0.0
 10
75.13012557800566
 20
-147.4204589475199
 30
0.0
 10
75.13012557800566
 20
-147.4204589475199
 30
0.0
 10
75.13012557800566
 20
-147.1686224675481
 30
0.0
 10
75.13012557800566
 20
-147.1686224675481
 30
0.0
 10
75.13012557800566
 20
-147.1686224675481
 30
0.0
 10
75.38178980320316
 20
-147.1686224675481
 30
0.0
 10
75.38178980320316
 20
-147.1686224675481
 30
0.0
 10
75.38178980320316
 20
-147.1686224675481
 30
0.0
 10
75.38178980320316
 20
-147.4204589475199
 30
0.0
 10
75.38178980320316
 20
-147.4204589475199
 30
0.0
  0
HATCH
  5
F4
330
EC
100
AcDbEntity
  8
レイヤー 1
 62
    18
420
        0
440
 33554687
100
AcDbHatch
 10
0.0
 20
0.0
 30
0.0
210
0.0
220
0.0
230
1.0
  2
SOLID
 70
     1
 71
     1
 91
        1
 92
        1
 93
        1
 72
     4
 94
        3
 73
     0
 74
     0
 95
       17
 96
       13
 40
0.0
 40
0.0
 40
0.0
 40
0.0
 40
1.0
 40
1.0
 40
1.0
 40
2.0
 40
2.0
 40
2.0
 40
3.0
 40
3.0
 40
3.0
 40
4.0
 40
4.0
 40
4.0
 40
4.0
 10
75.38178980320316
 20
-147.4204589475199
 10
75.38178980320316
 20
-147.4204589475199
 10
75.13012557800566
 20
-147.4204589475199
 10
75.13012557800566
 20
-147.4204589475199
 10
75.13012557800566
 20
-147.4204589475199
 10
75.13012557800566
 20
-147.1686224675481
 10
75.13012557800566
 20
-147.1686224675481
 10
75.13012557800566
 20
-147.1686224675481
 10
75.38178980320316
 20
-147.1686224675481
 10
75.38178980320316
 20
-147.1686224675481
 10
75.38178980320316
 20
-147.1686224675481
 10
75.38178980320316
 20
-147.4204589475199
 10
75.38178980320316
 20
-147.4204589475199
 97
        0
 97
        1
330
F3
 75
     2
 76
     1
 98
        1
 10
0.0
 20
0.0
450
        0
451
        0
460
0.0
461
0.0
452
        0
462
0.0
453
        0
470

  0
SPLINE
  5
F5
330
EC
100
AcDbEntity
  8
レイヤー 1
100
AcDbSpline
210
0.0
220
0.0
230
1.0
 70
     9
 71
     3
 72
    53
 73
    49
 74
     0
 42
0.0000000001
 43
0.0000000001
 40
0.0
 40
0.0
 40
0.0
 40
0.0
 40
1.0
 40
1.0
 40
1.0
 40
2.0
 40
2.0
 40
2.0
 40
3.0
 40
3.0
 40
3.0
 40
4.0
 40
4.0
 40
4.0
 40
5.0
 40
5.0
 40
5.0
 40
6.0
 40
6.0
 40
6.0
 40
7.0
 40
7.0
 40
7.0
 40
8.0
 40
8.0
 40
8.0
 40
9.0
 40
9.0
 40
9.0
 40
10.0
 40
10.0
 40
10.0
 40
11.0
 40
11.0
 40
11.0
 40
12.0
 40
12.0
 40
12.0
 40
13.0
 40
13.0
 40
13.0
 40
14.0
 40
14.0
 40
14.0
 40
15.0
 40
15.0
 40
15.0
 40
16.0
 40
16.0
 40
16.0
 40
16.0
 10
75.4326049616106
 20
-146.4513535875191
 30
0.0
 10
75.4326049616106
 20
-146.5295572550343
 30
0.0
 10
75.41572399373288
 20
-146.6311875718491
 30
0.0
 10
75.35216198203001
 20
-146.732817888664
 30
0.0
 10
75.24209118127628
 20
-146.9061061915721
 30
0.0
 10
75.11100529806253
 20
-146.9274657835806
 30
0.0
 10
75.00317380937421
 20
-146.9464138087495
 30
0.0
 10
75.00317380937421
 20
-146.9464138087495
 30
0.0
 10
75.00317380937421
 20
-146.7242051499509
 30
0.0
 10
75.00317380937421
 20
-146.7242051499509
 30
0.0
 10
75.20195581887313
 20
-146.6694281317354
 30
0.0
 10
75.23158364004626
 20
-146.5423041083297
 30
0.0
 10
75.23158364004626
 20
-146.4492865302279
 30
0.0
 10
75.23158364004626
 20
-146.3097601630753
 30
0.0
 10
75.13219263529681
 20
-146.1574869426273
 30
0.0
 10
74.89947643526818
 20
-146.1574869426273
 30
0.0
 10
74.64350584071413
 20
-146.1574869426273
 30
0.0
 10
74.57374265713781
 20
-146.3373209269573
 30
0.0
 10
74.57374265713781
 20
-146.4578992689411
 30
0.0
 10
74.57374265713781
 20
-146.4895941474054
 30
0.0
 10
74.57374265713781
 20
-146.6311875718491
 30
0.0
 10
74.70276148306043
 20
-146.7200710353686
 30
0.0
 10
74.70276148306043
 20
-146.7200710353686
 30
0.0
 10
74.68364120311729
 20
-146.8957709051163
 30
0.0
 10
74.68364120311729
 20
-146.8957709051163
 30
0.0
 10
74.68364120311729
 20
-146.8957709051163
 30
0.0
 10
73.83752575193992
 20
-146.7751925631326
 30
0.0
 10
73.83752575193992
 20
-146.7751925631326
 30
0.0
 10
73.83752575193992
 20
-146.7751925631326
 30
0.0
 10
73.83752575193992
 20
-145.9966009834661
 30
0.0
 10
73.83752575193992
 20
-145.9966009834661
 30
0.0
 10
73.83752575193992
 20
-145.9966009834661
 30
0.0
 10
74.03217364685655
 20
-145.9966009834661
 30
0.0
 10
74.03217364685655
 20
-145.9966009834661
 30
0.0
 10
74.03217364685655
 20
-145.9966009834661
 30
0.0
 10
74.03217364685655
 20
-146.6122395466802
 30
0.0
 10
74.03217364685655
 20
-146.6122395466802
 30
0.0
 10
74.03217364685655
 20
-146.6122395466802
 30
0.0
 10
74.45523137244522
 20
-146.6776963609
 30
0.0
 10
74.45523137244522
 20
-146.6776963609
 30
0.0
 10
74.42129718191551
 20
-146.6163736612625
 30
0.0
 10
74.38116181951236
 20
-146.5340358791651
 30
0.0
 10
74.38116181951236
 20
-146.4155245944725
 30
0.0
 10
74.38116181951236
 20
-146.1616210572096
 30
0.0
 10
74.5673692304901
 20
-145.9245984878244
 30
0.0
 10
74.88035615532506
 20
-145.9245984878244
 30
0.0
 10
75.19782170429083
 20
-145.9245984878244
 30
0.0
 10
75.4326049616106
 20
-146.1488742039142
 30
0.0
 10
75.4326049616106
 20
-146.4513535875191
 30
0.0
  0
HATCH
  5
F6
330
EC
100
AcDbEntity
  8
レイヤー 1
 62
    18
420
        0
440
 33554687
100
AcDbHatch
 10
0.0
 20
0.0
 30
0.0
210
0.0
220
0.0
230
1.0
  2
SOLID
 70
     1
 71
     1
 91
        1
 92
        1
 93
        1
 72
     4
 94
        3
 73
     0
 74
     0
 95
       53
 96
       49
 40
0.0
 40
0.0
 40
0.0
 40
0.0
 40
1.0
 40
1.0
 40
1.0
 40
2.0
 40
2.0
 40
2.0
 40
3.0
 40
3.0
 40
3.0
 40
4.0
 40
4.0
 40
4.0
 40
5.0
 40
5.0
 40
5.0
 40
6.0
 40
6.0
 40
6.0
 40
7.0
 40
7.0
 40
7.0
 40
8.0
 40
8.0
 40
8.0
 40
9.0
 40
9.0
 40
9.0
 40
10.0
 40
10.0
 40
10.0
 40
11.0
 40
11.0
 40
11.0
 40
12.0
 40
12.0
 40
12.0
 40
13.0
 40
13.0
 40
13.0
 40
14.0
 40
14.0
 40
14.0
 40
15.0
 40
15.0
 40
15.0
 40
16.0
 40
16.0
 40
16.0
 40
16.0
 10
75.4326049616106
 20
-146.4513535875191
 10
75.4326049616106
 20
-146.5295572550343
 10
75.41572399373288
 20
-146.6311875718491
 10
75.35216198203001
 20
-146.732817888664
 10
75.24209118127628
 20
-146.9061061915721
 10
75.11100529806253
 20
-146.9274657835806
 10
75.00317380937421
 20
-146.9464138087495
 10
75.00317380937421
 20
-146.9464138087495
 10
75.00317380937421
 20
-146.7242051499509
 10
75.00317380937421
 20
-146.7242051499509
 10
75.20195581887313
 20
-146.6694281317354
 10
75.23158364004626
 20
-146.5423041083297
 10
75.23158364004626
 20
-146.4492865302279
 10
75.23158364004626
 20
-146.3097601630753
 10
75.13219263529681
 20
-146.1574869426273
 10
74.89947643526818
 20
-146.1574869426273
 10
74.64350584071413
 20
-146.1574869426273
 10
74.57374265713781
 20
-146.3373209269573
 10
74.57374265713781
 20
-146.4578992689411
 10
74.57374265713781
 20
-146.4895941474054
 10
74.57374265713781
 20
-146.6311875718491
 10
74.70276148306043
 20
-146.7200710353686
 10
74.70276148306043
 20
-146.7200710353686
 10
74.68364120311729
 20
-146.8957709051163
 10
74.68364120311729
 20
-146.8957709051163
 10
74.68364120311729
 20
-146.8957709051163
 10
73.83752575193992
 20
-146.7751925631326
 10
73.83752575193992
 20
-146.7751925631326
 10
73.83752575193992
 20
-146.7751925631326
 10
73.83752575193992
 20
-145.9966009834661
 10
73.83752575193992
 20
-145.9966009834661
 10
73.83752575193992
 20
-145.9966009834661
 10
74.03217364685655
 20
-145.9966009834661
 10
74.03217364685655
 20
-145.9966009834661
 10
74.03217364685655
 20
-145.9966009834661
 10
74.03217364685655
 20
-146.6122395466802
 10
74.03217364685655
 20
-146.6122395466802
 10
74.03217364685655
 20
-146.6122395466802
 10
74.45523137244522
 20
-146.6776963609
 10
74.45523137244522
 20
-146.6776963609
 10
74.42129718191551
 20
-146.6163736612625
 10
74.38116181951236
 20
-146.5340358791651
 10
74.38116181951236
 20
-146.4155245944725
 10
74.38116181951236
 20
-146.1616210572096
 10
74.5673692304901
 20
-145.9245984878244
 10
74.88035615532506
 20
-145.9245984878244
 10
75.19782170429083
 20
-145.9245984878244
 10
75.4326049616106
 20
-146.1488742039142
 10
75.4326049616106
 20
-146.4513535875191
 97
        0
 97
        1
330
F5
 75
     2
 76
     1
 98
        1
 10
0.0
 20
0.0
450
        0
451
        0
460
0.0
461
0.0
452
        0
462
0.0
453
        0
470

  0
ENDBLK
  5
EF
330
EC
100
AcDbEntity
  8
0
100
AcDbBlockEnd
  0
BLOCK
  5
FB
330
F9
100
AcDbEntity
  8
0
100
AcDbBlockBegin
  2
Block_4
 70
     0
 10
0.0
 20
0.0
 30
0.0
  3
Block_4
  1

  0
INSERT
  5
FE
330
F9
100
AcDbEntity
  8
レイヤー 1
100
AcDbBlockReference
  2
Block_5
 10
0.0
 20
0.0
 30
0.0
  0
ENDBLK
  5
FC
330
F9
100
AcDbEntity
  8
0
100
AcDbBlockEnd
  0
BLOCK
  5
FF
330
FD
100
AcDbEntity
  8
0
100
AcDbBlockBegin
  2
Block_5
 70
     0
 10
0.0
 20
0.0
 30
0.0
  3
Block_5
  1

  0
SPLINE
  5
101
330
FD
100
AcDbEntity
  8
レイヤー 1
100
AcDbSpline
210
0.0
220
0.0
230
1.0
 70
     9
 71
     3
 72
    44
 73
    40
 74
     0
 42
0.0000000001
 43
0.0000000001
 40
0.0
 40
0.0
 40
0.0
 40
0.0
 40
1.0
 40
1.0
 40
1.0
 40
2.0
 40
2.0
 40
2.0
 40
3.0
 40
3.0
 40
3.0
 40
4.0
 40
4.0
 40
4.0
 40
5.0
 40
5.0
 40
5.0
 40
6.0
 40
6.0
 40
6.0
 40
7.0
 40
7.0
 40
7.0
 40
8.0
 40
8.0
 40
8.0
 40
9.0
 40
9.0
 40
9.0
 40
10.0
 40
10.0
 40
10.0
 40
11.0
 40
11.0
 40
11.0
 40
12.0
 40
12.0
 40
12.0
 40
13.0
 40
13.0
 40
13.0
 40
13.0
 10
90.75501164180778
 20
-140.9450574734443
 30
0.0
 10
90.53710935236573
 20
-141.10370412054
 30
0.0
 10
90.44391951948972
 20
-141.1777736734729
 30
0.0
 10
90.3953436731477
 20
-141.3216064099821
 30
0.0
 10
90.3953436731477
 20
-141.3216064099821
 30
0.0
 10
91.17376299803989
 20
-141.3216064099821
 30
0.0
 10
91.17376299803989
 20
-141.3216064099821
 30
0.0
 10
91.17376299803989
 20
-141.3216064099821
 30
0.0
 10
91.17376299803989
 20
-141.5267618461287
 30
0.0
 10
91.17376299803989
 20
-141.5267618461287
 30
0.0
 10
91.17376299803989
 20
-141.5267618461287
 30
0.0
 10
90.14574650524135
 20
-141.5267618461287
 30
0.0
 10
90.14574650524135
 20
-141.5267618461287
 30
0.0
 10
90.17744138370565
 20
-141.1691609347598
 30
0.0
 10
90.24289819792539
 20
-141.0909572672446
 30
0.0
 10
90.62805987317632
 20
-140.792611998222
 30
0.0
 10
90.88403046773038
 20
-140.5938299887231
 30
0.0
 10
90.94948728195012
 20
-140.5261338624379
 30
0.0
 10
90.94948728195012
 20
-140.3886745525764
 30
0.0
 10
90.94948728195012
 20
-140.2701632678838
 30
0.0
 10
90.87765704108267
 20
-140.1389051298958
 30
0.0
 10
90.68094208887492
 20
-140.1389051298958
 30
0.0
 10
90.42066512496429
 20
-140.1389051298958
 30
0.0
 10
90.41222464102542
 20
-140.3695542726333
 30
0.0
 10
90.40791827166886
 20
-140.4859985000347
 30
0.0
 10
90.40791827166886
 20
-140.4859985000347
 30
0.0
 10
90.18381481035335
 20
-140.4859985000347
 30
0.0
 10
90.18381481035335
 20
-140.4859985000347
 30
0.0
 10
90.19225529429222
 20
-140.3590467314033
 30
0.0
 10
90.20276283552224
 20
-140.2469088733584
 30
0.0
 10
90.28320581510282
 20
-140.1283975886658
 30
0.0
 10
90.39310436108229
 20
-139.9676838842789
 30
0.0
 10
90.57931177206004
 20
-139.9337496937492
 30
0.0
 10
90.69575599946148
 20
-139.9337496937492
 30
0.0
 10
90.97291393124983
 20
-139.9337496937492
 30
0.0
 10
91.1801364246876
 20
-140.1178900474358
 30
0.0
 10
91.1801364246876
 20
-140.3907416098676
 30
0.0
 10
91.1801364246876
 20
-140.6191514405396
 30
0.0
 10
91.06386445206043
 20
-140.7187147000634
 30
0.0
 10
90.75501164180778
 20
-140.9450574734443
 30
0.0
  0
HATCH
  5
102
330
FD
100
AcDbEntity
  8
レイヤー 1
 62
    18
420
        0
440
 33554687
100
AcDbHatch
 10
0.0
 20
0.0
 30
0.0
210
0.0
220
0.0
230
1.0
  2
SOLID
 70
     1
 71
     1
 91
        1
 92
        1
 93
        1
 72
     4
 94
        3
 73
     0
 74
     0
 95
       44
 96
       40
 40
0.0
 40
0.0
 40
0.0
 40
0.0
 40
1.0
 40
1.0
 40
1.0
 40
2.0
 40
2.0
 40
2.0
 40
3.0
 40
3.0
 40
3.0
 40
4.0
 40
4.0
 40
4.0
 40
5.0
 40
5.0
 40
5.0
 40
6.0
 40
6.0
 40
6.0
 40
7.0
 40
7.0
 40
7.0
 40
8.0
 40
8.0
 40
8.0
 40
9.0
 40
9.0
 40
9.0
 40
10.0
 40
10.0
 40
10.0
 40
11.0
 40
11.0
 40
11.0
 40
12.0
 40
12.0
 40
12.0
 40
13.0
 40
13.0
 40
13.0
 40
13.0
 10
90.75501164180778
 20
-140.9450574734443
 10
90.53710935236573
 20
-141.10370412054
 10
90.44391951948972
 20
-141.1777736734729
 10
90.3953436731477
 20
-141.3216064099821
 10
90.3953436731477
 20
-141.3216064099821
 10
91.17376299803989
 20
-141.3216064099821
 10
91.17376299803989
 20
-141.3216064099821
 10
91.17376299803989
 20
-141.3216064099821
 10
91.17376299803989
 20
-141.5267618461287
 10
91.17376299803989
 20
-141.5267618461287
 10
91.17376299803989
 20
-141.5267618461287
 10
90.14574650524135
 20
-141.5267618461287
 10
90.14574650524135
 20
-141.5267618461287
 10
90.17744138370565
 20
-141.1691609347598
 10
90.24289819792539
 20
-141.0909572672446
 10
90.62805987317632
 20
-140.792611998222
 10
90.88403046773038
 20
-140.5938299887231
 10
90.94948728195012
 20
-140.5261338624379
 10
90.94948728195012
 20
-140.3886745525764
 10
90.94948728195012
 20
-140.2701632678838
 10
90.87765704108267
 20
-140.1389051298958
 10
90.68094208887492
 20
-140.1389051298958
 10
90.42066512496429
 20
-140.1389051298958
 10
90.41222464102542
 20
-140.3695542726333
 10
90.40791827166886
 20
-140.4859985000347
 10
90.40791827166886
 20
-140.4859985000347
 10
90.18381481035335
 20
-140.4859985000347
 10
90.18381481035335
 20
-140.4859985000347
 10
90.19225529429222
 20
-140.3590467314033
 10
90.20276283552224
 20
-140.2469088733584
 10
90.28320581510282
 20
-140.1283975886658
 10
90.39310436108229
 20
-139.9676838842789
 10
90.57931177206004
 20
-139.9337496937492
 10
90.69575599946148
 20
-139.9337496937492
 10
90.97291393124983
 20
-139.9337496937492
 10
91.1801364246876
 20
-140.1178900474358
 10
91.1801364246876
 20
-140.3907416098676
 10
91.1801364246876
 20
-140.6191514405396
 10
91.06386445206043
 20
-140.7187147000634
 10
90.75501164180778
 20
-140.9450574734443
 97
        0
 97
        1
330
101
 75
     2
 76
     1
 98
        1
 10
0.0
 20
0.0
450
        0
451
        0
460
0.0
461
0.0
452
        0
462
0.0
453
        0
470

  0
SPLINE
  5
103
330
FD
100
AcDbEntity
  8
レイヤー 1
100
AcDbSpline
210
0.0
220
0.0
230
1.0
 70
    11
 71
     3
 72
    26
 73
    22
 74
     0
 42
0.0000000001
 43
0.0000000001
 40
0.0
 40
0.0
 40
0.0
 40
0.0
 40
1.0
 40
1.0
 40
1.0
 40
2.0
 40
2.0
 40
2.0
 40
3.0
 40
3.0
 40
3.0
 40
4.0
 40
4.0
 40
4.0
 40
5.0
 40
5.0
 40
5.0
 40
6.0
 40
6.0
 40
6.0
 40
7.0
 40
7.0
 40
7.0
 40
7.0
 10
91.79009058035109
 20
-141.5267618461287
 30
0.0
 10
91.79009058035109
 20
-141.5267618461287
 30
0.0
 10
91.79009058035109
 20
-140.4224364883319
 30
0.0
 10
91.79009058035109
 20
-140.4224364883319
 30
0.0
 10
91.79009058035109
 20
-140.4224364883319
 30
0.0
 10
91.46005043286416
 20
-140.4224364883319
 30
0.0
 10
91.46005043286416
 20
-140.4224364883319
 30
0.0
 10
91.46005043286416
 20
-140.4224364883319
 30
0.0
 10
91.46005043286416
 20
-140.2742973824661
 30
0.0
 10
91.46005043286416
 20
-140.2742973824661
 30
0.0
 10
91.79215763764224
 20
-140.2596557266538
 30
0.0
 10
91.83866642669311
 20
-140.0967027102015
 30
0.0
 10
91.86829424786626
 20
-139.9824977948655
 30
0.0
 10
91.86829424786626
 20
-139.9824977948655
 30
0.0
 10
92.01436629644085
 20
-139.9824977948655
 30
0.0
 10
92.01436629644085
 20
-139.9824977948655
 30
0.0
 10
92.01436629644085
 20
-139.9824977948655
 30
0.0
 10
92.01436629644085
 20
-141.5267618461287
 30
0.0
 10
92.01436629644085
 20
-141.5267618461287
 30
0.0
 10
92.01436629644085
 20
-141.5267618461287
 30
0.0
 10
91.79009058035109
 20
-141.5267618461287
 30
0.0
 10
91.79009058035109
 20
-141.5267618461287
 30
0.0
  0
HATCH
  5
104
330
FD
100
AcDbEntity
  8
レイヤー 1
 62
    18
420
        0
440
 33554687
100
AcDbHatch
 10
0.0
 20
0.0
 30
0.0
210
0.0
220
0.0
230
1.0
  2
SOLID
 70
     1
 71
     1
 91
        1
 92
        1
 93
        1
 72
     4
 94
        3
 73
     0
 74
     0
 95
       26
 96
       22
 40
0.0
 40
0.0
 40
0.0
 40
0.0
 40
1.0
 40
1.0
 40
1.0
 40
2.0
 40
2.0
 40
2.0
 40
3.0
 40
3.0
 40
3.0
 40
4.0
 40
4.0
 40
4.0
 40
5.0
 40
5.0
 40
5.0
 40
6.0
 40
6.0
 40
6.0
 40
7.0
 40
7.0
 40
7.0
 40
7.0
 10
91.79009058035109
 20
-141.5267618461287
 10
91.79009058035109
 20
-141.5267618461287
 10
91.79009058035109
 20
-140.4224364883319
 10
91.79009058035109
 20
-140.4224364883319
 10
91.79009058035109
 20
-140.4224364883319
 10
91.46005043286416
 20
-140.4224364883319
 10
91.46005043286416
 20
-140.4224364883319
 10
91.46005043286416
 20
-140.4224364883319
 10
91.46005043286416
 20
-140.2742973824661
 10
91.46005043286416
 20
-140.2742973824661
 10
91.79215763764224
 20
-140.2596557266538
 10
91.83866642669311
 20
-140.0967027102015
 10
91.86829424786626
 20
-139.9824977948655
 10
91.86829424786626
 20
-139.9824977948655
 10
92.01436629644085
 20
-139.9824977948655
 10
92.01436629644085
 20
-139.9824977948655
 10
92.01436629644085
 20
-139.9824977948655
 10
92.01436629644085
 20
-141.5267618461287
 10
92.01436629644085
 20
-141.5267618461287
 10
92.01436629644085
 20
-141.5267618461287
 10
91.79009058035109
 20
-141.5267618461287
 10
91.79009058035109
 20
-141.5267618461287
 97
        0
 97
        1
330
103
 75
     2
 76
     1
 98
        1
 10
0.0
 20
0.0
450
        0
451
        0
460
0.0
461
0.0
452
        0
462
0.0
453
        0
470

  0
ENDBLK
  5
100
330
FD
100
AcDbEntity
  8
0
100
AcDbBlockEnd
  0
BLOCK
  5
109
330
107
100
AcDbEntity
  8
0
100
AcDbBlockBegin
  2
Block_6
 70
     0
 10
0.0
 20
0.0
 30
0.0
  3
Block_6
  1

  0
SPLINE
  5
10B
330
107
100
AcDbEntity
  8
レイヤー 1
100
AcDbSpline
210
0.0
220
0.0
230
1.0
 70
     9
 71
     3
 72
    53
 73
    49
 74
     0
 42
0.0000000001
 43
0.0000000001
 40
0.0
 40
0.0
 40
0.0
 40
0.0
 40
1.0
 40
1.0
 40
1.0
 40
2.0
 40
2.0
 40
2.0
 40
3.0
 40
3.0
 40
3.0
 40
4.0
 40
4.0
 40
4.0
 40
5.0
 40
5.0
 40
5.0
 40
6.0
 40
6.0
 40
6.0
 40
7.0
 40
7.0
 40
7.0
 40
8.0
 40
8.0
 40
8.0
 40
9.0
 40
9.0
 40
9.0
 40
10.0
 40
10.0
 40
10.0
 40
11.0
 40
11.0
 40
11.0
 40
12.0
 40
12.0
 40
12.0
 40
13.0
 40
13.0
 40
13.0
 40
14.0
 40
14.0
 40
14.0
 40
15.0
 40
15.0
 40
15.0
 40
16.0
 40
16.0
 40
16.0
 40
16.0
 10
76.16313745925783
 20
-150.6388671498403
 30
0.0
 10
76.16313745925783
 20
-150.7170708173554
 30
0.0
 10
76.1462564913801
 20
-150.8187011341703
 30
0.0
 10
76.08269447967725
 20
-150.9203314509852
 30
0.0
 10
75.97262367892351
 20
-151.0936197538933
 30
0.0
 10
75.84153779570975
 20
-151.1149793459018
 30
0.0
 10
75.73370630702143
 20
-151.1339273710707
 30
0.0
 10
75.73370630702143
 20
-151.1339273710707
 30
0.0
 10
75.73370630702143
 20
-150.9117187122721
 30
0.0
 10
75.73370630702143
 20
-150.9117187122721
 30
0.0
 10
75.93248831652035
 20
-150.8569416940566
 30
0.0
 10
75.9621161376935
 20
-150.7298176706509
 30
0.0
 10
75.9621161376935
 20
-150.6368000925491
 30
0.0
 10
75.9621161376935
 20
-150.4972737253965
 30
0.0
 10
75.86272513294405
 20
-150.3450005049485
 30
0.0
 10
75.63000893291541
 20
-150.3450005049485
 30
0.0
 10
75.37403833836136
 20
-150.3450005049485
 30
0.0
 10
75.30427515478504
 20
-150.5248344892785
 30
0.0
 10
75.30427515478504
 20
-150.6454128312622
 30
0.0
 10
75.30427515478504
 20
-150.6771077097265
 30
0.0
 10
75.30427515478504
 20
-150.8187011341703
 30
0.0
 10
75.43329398070764
 20
-150.9075845976898
 30
0.0
 10
75.43329398070764
 20
-150.9075845976898
 30
0.0
 10
75.41417370076452
 20
-151.0832844674375
 30
0.0
 10
75.41417370076452
 20
-151.0832844674375
 30
0.0
 10
75.41417370076452
 20
-151.0832844674375
 30
0.0
 10
74.56805824958715
 20
-150.9627061254537
 30
0.0
 10
74.56805824958715
 20
-150.9627061254537
 30
0.0
 10
74.56805824958715
 20
-150.9627061254537
 30
0.0
 10
74.56805824958715
 20
-150.1841145457873
 30
0.0
 10
74.56805824958715
 20
-150.1841145457873
 30
0.0
 10
74.56805824958715
 20
-150.1841145457873
 30
0.0
 10
74.76270614450377
 20
-150.1841145457873
 30
0.0
 10
74.76270614450377
 20
-150.1841145457873
 30
0.0
 10
74.76270614450377
 20
-150.1841145457873
 30
0.0
 10
74.76270614450377
 20
-150.7997531090014
 30
0.0
 10
74.76270614450377
 20
-150.7997531090014
 30
0.0
 10
74.76270614450377
 20
-150.7997531090014
 30
0.0
 10
75.18576387009246
 20
-150.8652099232212
 30
0.0
 10
75.18576387009246
 20
-150.8652099232212
 30
0.0
 10
75.15182967956274
 20
-150.8038872235837
 30
0.0
 10
75.11169431715957
 20
-150.7215494414863
 30
0.0
 10
75.11169431715957
 20
-150.6030381567937
 30
0.0
 10
75.11169431715957
 20
-150.3491346195308
 30
0.0
 10
75.29790172813733
 20
-150.1121120501456
 30
0.0
 10
75.61088865297228
 20
-150.1121120501456
 30
0.0
 10
75.92835420193805
 20
-150.1121120501456
 30
0.0
 10
76.16313745925783
 20
-150.3363877662353
 30
0.0
 10
76.16313745925783
 20
-150.6388671498403
 30
0.0
  0
HATCH
  5
10C
330
107
100
AcDbEntity
  8
レイヤー 1
 62
    18
420
        0
440
 33554687
100
AcDbHatch
 10
0.0
 20
0.0
 30
0.0
210
0.0
220
0.0
230
1.0
  2
SOLID
 70
     1
 71
     1
 91
        1
 92
        1
 93
        1
 72
     4
 94
        3
 73
     0
 74
     0
 95
       53
 96
       49
 40
0.0
 40
0.0
 40
0.0
 40
0.0
 40
1.0
 40
1.0
 40
1.0
 40
2.0
 40
2.0
 40
2.0
 40
3.0
 40
3.0
 40
3.0
 40
4.0
 40
4.0
 40
4.0
 40
5.0
 40
5.0
 40
5.0
 40
6.0
 40
6.0
 40
6.0
 40
7.0
 40
7.0
 40
7.0
 40
8.0
 40
8.0
 40
8.0
 40
9.0
 40
9.0
 40
9.0
 40
10.0
 40
10.0
 40
10.0
 40
11.0
 40
11.0
 40
11.0
 40
12.0
 40
12.0
 40
12.0
 40
13.0
 40
13.0
 40
13.0
 40
14.0
 40
14.0
 40
14.0
 40
15.0
 40
15.0
 40
15.0
 40
16.0
 40
16.0
 40
16.0
 40
16.0
 10
76.16313745925783
 20
-150.6388671498403
 10
76.16313745925783
 20
-150.7170708173554
 10
76.1462564913801
 20
-150.8187011341703
 10
76.08269447967725
 20
-150.9203314509852
 10
75.97262367892351
 20
-151.0936197538933
 10
75.84153779570975
 20
-151.1149793459018
 10
75.73370630702143
 20
-151.1339273710707
 10
75.73370630702143
 20
-151.1339273710707
 10
75.73370630702143
 20
-150.9117187122721
 10
75.73370630702143
 20
-150.9117187122721
 10
75.93248831652035
 20
-150.8569416940566
 10
75.9621161376935
 20
-150.7298176706509
 10
75.9621161376935
 20
-150.6368000925491
 10
75.9621161376935
 20
-150.4972737253965
 10
75.86272513294405
 20
-150.3450005049485
 10
75.63000893291541
 20
-150.3450005049485
 10
75.37403833836136
 20
-150.3450005049485
 10
75.30427515478504
 20
-150.5248344892785
 10
75.30427515478504
 20
-150.6454128312622
 10
75.30427515478504
 20
-150.6771077097265
 10
75.30427515478504
 20
-150.8187011341703
 10
75.43329398070764
 20
-150.9075845976898
 10
75.43329398070764
 20
-150.9075845976898
 10
75.41417370076452
 20
-151.0832844674375
 10
75.41417370076452
 20
-151.0832844674375
 10
75.41417370076452
 20
-151.0832844674375
 10
74.56805824958715
 20
-150.9627061254537
 10
74.56805824958715
 20
-150.9627061254537
 10
74.56805824958715
 20
-150.9627061254537
 10
74.56805824958715
 20
-150.1841145457873
 10
74.56805824958715
 20
-150.1841145457873
 10
74.56805824958715
 20
-150.1841145457873
 10
74.76270614450377
 20
-150.1841145457873
 10
74.76270614450377
 20
-150.1841145457873
 10
74.76270614450377
 20
-150.1841145457873
 10
74.76270614450377
 20
-150.7997531090014
 10
74.76270614450377
 20
-150.7997531090014
 10
74.76270614450377
 20
-150.7997531090014
 10
75.18576387009246
 20
-150.8652099232212
 10
75.18576387009246
 20
-150.8652099232212
 10
75.15182967956274
 20
-150.8038872235837
 10
75.11169431715957
 20
-150.7215494414863
 10
75.11169431715957
 20
-150.6030381567937
 10
75.11169431715957
 20
-150.3491346195308
 10
75.29790172813733
 20
-150.1121120501456
 10
75.61088865297228
 20
-150.1121120501456
 10
75.92835420193805
 20
-150.1121120501456
 10
76.16313745925783
 20
-150.3363877662353
 10
76.16313745925783
 20
-150.6388671498403
 97
        0
 97
        1
330
10B
 75
     2
 76
     1
 98
        1
 10
0.0
 20
0.0
450
        0
451
        0
460
0.0
461
0.0
452
        0
462
0.0
453
        0
470

  0
ENDBLK
  5
10A
330
107
100
AcDbEntity
  8
0
100
AcDbBlockEnd
  0
BLOCK
  5
111
330
10F
100
AcDbEntity
  8
0
100
AcDbBlockBegin
  2
Block_7
 70
     0
 10
0.0
 20
0.0
 30
0.0
  3
Block_7
  1

  0
INSERT
  5
114
330
10F
100
AcDbEntity
  8
レイヤー 1
100
AcDbBlockReference
  2
Block_8
 10
0.0
 20
0.0
 30
0.0
  0
ENDBLK
  5
112
330
10F
100
AcDbEntity
  8
0
100
AcDbBlockEnd
  0
BLOCK
  5
115
330
113
100
AcDbEntity
  8
0
100
AcDbBlockBegin
  2
Block_8
 70
     0
 10
0.0
 20
0.0
 30
0.0
  3
Block_8
  1

  0
SPLINE
  5
117
330
113
100
AcDbEntity
  8
レイヤー 1
100
AcDbSpline
210
0.0
220
0.0
230
1.0
 70
     9
 71
     3
 72
    44
 73
    40
 74
     0
 42
0.0000000001
 43
0.0000000001
 40
0.0
 40
0.0
 40
0.0
 40
0.0
 40
1.0
 40
1.0
 40
1.0
 40
2.0
 40
2.0
 40
2.0
 40
3.0
 40
3.0
 40
3.0
 40
4.0
 40
4.0
 40
4.0
 40
5.0
 40
5.0
 40
5.0
 40
6.0
 40
6.0
 40
6.0
 40
7.0
 40
7.0
 40
7.0
 40
8.0
 40
8.0
 40
8.0
 40
9.0
 40
9.0
 40
9.0
 40
10.0
 40
10.0
 40
10.0
 40
11.0
 40
11.0
 40
11.0
 40
12.0
 40
12.0
 40
12.0
 40
13.0
 40
13.0
 40
13.0
 40
13.0
 10
117.7561197622276
 20
-140.9450574734443
 30
0.0
 10
117.5383897275598
 20
-141.10370412054
 30
0.0
 10
117.4453721494581
 20
-141.1777736734729
 30
0.0
 10
117.3964517935675
 20
-141.3216064099821
 30
0.0
 10
117.3964517935675
 20
-141.3216064099821
 30
0.0
 10
118.175043373234
 20
-141.3216064099821
 30
0.0
 10
118.175043373234
 20
-141.3216064099821
 30
0.0
 10
118.175043373234
 20
-141.3216064099821
 30
0.0
 10
118.175043373234
 20
-141.5267618461287
 30
0.0
 10
118.175043373234
 20
-141.5267618461287
 30
0.0
 10
118.175043373234
 20
-141.5267618461287
 30
0.0
 10
117.1470268804355
 20
-141.5267618461287
 30
0.0
 10
117.1470268804355
 20
-141.5267618461287
 30
0.0
 10
117.1787217588997
 20
-141.1691609347598
 30
0.0
 10
117.2441785731195
 20
-141.0909572672446
 30
0.0
 10
117.6293402483704
 20
-140.792611998222
 30
0.0
 10
117.8853108429245
 20
-140.5938299887231
 30
0.0
 10
117.9507676571442
 20
-140.5261338624379
 30
0.0
 10
117.9507676571442
 20
-140.3886745525764
 30
0.0
 10
117.9507676571442
 20
-140.2701632678838
 30
0.0
 10
117.8787651615025
 20
-140.1389051298958
 30
0.0
 10
117.6820502092947
 20
-140.1389051298958
 30
0.0
 10
117.4219455001584
 20
-140.1389051298958
 30
0.0
 10
117.4136772709938
 20
-140.3695542726333
 30
0.0
 10
117.409198646863
 20
-140.4859985000347
 30
0.0
 10
117.409198646863
 20
-140.4859985000347
 30
0.0
 10
117.1849229307732
 20
-140.4859985000347
 30
0.0
 10
117.1849229307732
 20
-140.4859985000347
 30
0.0
 10
117.1935356694863
 20
-140.3590467314033
 30
0.0
 10
117.2042154654906
 20
-140.2469088733584
 30
0.0
 10
117.2844861902969
 20
-140.1283975886658
 30
0.0
 10
117.3943847362764
 20
-139.9676838842789
 30
0.0
 10
117.5807644020284
 20
-139.9337496937492
 30
0.0
 10
117.6968641198813
 20
-139.9337496937492
 30
0.0
 10
117.9741943064439
 20
-139.9337496937492
 30
0.0
 10
118.181589054656
 20
-140.1178900474358
 30
0.0
 10
118.181589054656
 20
-140.3907416098676
 30
0.0
 10
118.181589054656
 20
-140.6191514405396
 30
0.0
 10
118.0651448272545
 20
-140.7187147000634
 30
0.0
 10
117.7561197622276
 20
-140.9450574734443
 30
0.0
  0
HATCH
  5
118
330
113
100
AcDbEntity
  8
レイヤー 1
 62
    18
420
        0
440
 33554687
100
AcDbHatch
 10
0.0
 20
0.0
 30
0.0
210
0.0
220
0.0
230
1.0
  2
SOLID
 70
     1
 71
     1
 91
        1
 92
        1
 93
        1
 72
     4
 94
        3
 73
     0
 74
     0
 95
       44
 96
       40
 40
0.0
 40
0.0
 40
0.0
 40
0.0
 40
1.0
 40
1.0
 40
1.0
 40
2.0
 40
2.0
 40
2.0
 40
3.0
 40
3.0
 40
3.0
 40
4.0
 40
4.0
 40
4.0
 40
5.0
 40
5.0
 40
5.0
 40
6.0
 40
6.0
 40
6.0
 40
7.0
 40
7.0
 40
7.0
 40
8.0
 40
8.0
 40
8.0
 40
9.0
 40
9.0
 40
9.0
 40
10.0
 40
10.0
 40
10.0
 40
11.0
 40
11.0
 40
11.0
 40
12.0
 40
12.0
 40
12.0
 40
13.0
 40
13.0
 40
13.0
 40
13.0
 10
117.7561197622276
 20
-140.9450574734443
 10
117.5383897275598
 20
-141.10370412054
 10
117.4453721494581
 20
-141.1777736734729
 10
117.3964517935675
 20
-141.3216064099821
 10
117.3964517935675
 20
-141.3216064099821
 10
118.175043373234
 20
-141.3216064099821
 10
118.175043373234
 20
-141.3216064099821
 10
118.175043373234
 20
-141.3216064099821
 10
118.175043373234
 20
-141.5267618461287
 10
118.175043373234
 20
-141.5267618461287
 10
118.175043373234
 20
-141.5267618461287
 10
117.1470268804355
 20
-141.5267618461287
 10
117.1470268804355
 20
-141.5267618461287
 10
117.1787217588997
 20
-141.1691609347598
 10
117.2441785731195
 20
-141.0909572672446
 10
117.6293402483704
 20
-140.792611998222
 10
117.8853108429245
 20
-140.5938299887231
 10
117.9507676571442
 20
-140.5261338624379
 10
117.9507676571442
 20
-140.3886745525764
 10
117.9507676571442
 20
-140.2701632678838
 10
117.8787651615025
 20
-140.1389051298958
 10
117.6820502092947
 20
-140.1389051298958
 10
117.4219455001584
 20
-140.1389051298958
 10
117.4136772709938
 20
-140.3695542726333
 10
117.409198646863
 20
-140.4859985000347
 10
117.409198646863
 20
-140.4859985000347
 10
117.1849229307732
 20
-140.4859985000347
 10
117.1849229307732
 20
-140.4859985000347
 10
117.1935356694863
 20
-140.3590467314033
 10
117.2042154654906
 20
-140.2469088733584
 10
117.2844861902969
 20
-140.1283975886658
 10
117.3943847362764
 20
-139.9676838842789
 10
117.5807644020284
 20
-139.9337496937492
 10
117.6968641198813
 20
-139.9337496937492
 10
117.9741943064439
 20
-139.9337496937492
 10
118.181589054656
 20
-140.1178900474358
 10
118.181589054656
 20
-140.3907416098676
 10
118.181589054656
 20
-140.6191514405396
 10
118.0651448272545
 20
-140.7187147000634
 10
117.7561197622276
 20
-140.9450574734443
 97
        0
 97
        1
330
117
 75
     2
 76
     1
 98
        1
 10
0.0
 20
0.0
450
        0
451
        0
460
0.0
461
0.0
452
        0
462
0.0
453
        0
470

  0
SPLINE
  5
119
330
113
100
AcDbEntity
  8
レイヤー 1
100
AcDbSpline
210
0.0
220
0.0
230
1.0
 70
    11
 71
     3
 72
    26
 73
    22
 74
     0
 42
0.0000000001
 43
0.0000000001
 40
0.0
 40
0.0
 40
0.0
 40
0.0
 40
1.0
 40
1.0
 40
1.0
 40
2.0
 40
2.0
 40
2.0
 40
3.0
 40
3.0
 40
3.0
 40
4.0
 40
4.0
 40
4.0
 40
5.0
 40
5.0
 40
5.0
 40
6.0
 40
6.0
 40
6.0
 40
7.0
 40
7.0
 40
7.0
 40
7.0
 10
118.7913709555452
 20
-141.5267618461287
 30
0.0
 10
118.7913709555452
 20
-141.5267618461287
 30
0.0
 10
118.7913709555452
 20
-140.4224364883319
 30
0.0
 10
118.7913709555452
 20
-140.4224364883319
 30
0.0
 10
118.7913709555452
 20
-140.4224364883319
 30
0.0
 10
118.4613308080582
 20
-140.4224364883319
 30
0.0
 10
118.4613308080582
 20
-140.4224364883319
 30
0.0
 10
118.4613308080582
 20
-140.4224364883319
 30
0.0
 10
118.4613308080582
 20
-140.2742973824661
 30
0.0
 10
118.4613308080582
 20
-140.2742973824661
 30
0.0
 10
118.7934380128363
 20
-140.2596557266538
 30
0.0
 10
118.8399468018872
 20
-140.0967027102015
 30
0.0
 10
118.8695746230604
 20
-139.9824977948655
 30
0.0
 10
118.8695746230604
 20
-139.9824977948655
 30
0.0
 10
119.015646671635
 20
-139.9824977948655
 30
0.0
 10
119.015646671635
 20
-139.9824977948655
 30
0.0
 10
119.015646671635
 20
-139.9824977948655
 30
0.0
 10
119.015646671635
 20
-141.5267618461287
 30
0.0
 10
119.015646671635
 20
-141.5267618461287
 30
0.0
 10
119.015646671635
 20
-141.5267618461287
 30
0.0
 10
118.7913709555452
 20
-141.5267618461287
 30
0.0
 10
118.7913709555452
 20
-141.5267618461287
 30
0.0
  0
HATCH
  5
11A
330
113
100
AcDbEntity
  8
レイヤー 1
 62
    18
420
        0
440
 33554687
100
AcDbHatch
 10
0.0
 20
0.0
 30
0.0
210
0.0
220
0.0
230
1.0
  2
SOLID
 70
     1
 71
     1
 91
        1
 92
        1
 93
        1
 72
     4
 94
        3
 73
     0
 74
     0
 95
       26
 96
       22
 40
0.0
 40
0.0
 40
0.0
 40
0.0
 40
1.0
 40
1.0
 40
1.0
 40
2.0
 40
2.0
 40
2.0
 40
3.0
 40
3.0
 40
3.0
 40
4.0
 40
4.0
 40
4.0
 40
5.0
 40
5.0
 40
5.0
 40
6.0
 40
6.0
 40
6.0
 40
7.0
 40
7.0
 40
7.0
 40
7.0
 10
118.7913709555452
 20
-141.5267618461287
 10
118.7913709555452
 20
-141.5267618461287
 10
118.7913709555452
 20
-140.4224364883319
 10
118.7913709555452
 20
-140.4224364883319
 10
118.7913709555452
 20
-140.4224364883319
 10
118.4613308080582
 20
-140.4224364883319
 10
118.4613308080582
 20
-140.4224364883319
 10
118.4613308080582
 20
-140.4224364883319
 10
118.4613308080582
 20
-140.2742973824661
 10
118.4613308080582
 20
-140.2742973824661
 10
118.7934380128363
 20
-140.2596557266538
 10
118.8399468018872
 20
-140.0967027102015
 10
118.8695746230604
 20
-139.9824977948655
 10
118.8695746230604
 20
-139.9824977948655
 10
119.015646671635
 20
-139.9824977948655
 10
119.015646671635
 20
-139.9824977948655
 10
119.015646671635
 20
-139.9824977948655
 10
119.015646671635
 20
-141.5267618461287
 10
119.015646671635
 20
-141.5267618461287
 10
119.015646671635
 20
-141.5267618461287
 10
118.7913709555452
 20
-141.5267618461287
 10
118.7913709555452
 20
-141.5267618461287
 97
        0
 97
        1
330
119
 75
     2
 76
     1
 98
        1
 10
0.0
 20
0.0
450
        0
451
        0
460
0.0
461
0.0
452
        0
462
0.0
453
        0
470

  0
ENDBLK
  5
116
330
113
100
AcDbEntity
  8
0
100
AcDbBlockEnd
  0
BLOCK
  5
120
330
11E
100
AcDbEntity
  8
0
100
AcDbBlockBegin
  2
Block_9
 70
     0
 10
0.0
 20
0.0
 30
0.0
  3
Block_9
  1

  0
SPLINE
  5
122
330
11E
100
AcDbEntity
  8
レイヤー 1
100
AcDbSpline
210
0.0
220
0.0
230
1.0
 70
     9
 71
     3
 72
    17
 73
    13
 74
     0
 42
0.0000000001
 43
0.0000000001
 40
0.0
 40
0.0
 40
0.0
 40
0.0
 40
1.0
 40
1.0
 40
1.0
 40
2.0
 40
2.0
 40
2.0
 40
3.0
 40
3.0
 40
3.0
 40
4.0
 40
4.0
 40
4.0
 40
4.0
 10
104.8507920744817
 20
-140.7185424452891
 30
0.0
 10
104.58844805328
 20
-140.7185424452891
 30
0.0
 10
104.5503797481679
 20
-140.9300713080834
 30
0.0
 10
104.5503797481679
 20
-141.0463432807106
 30
0.0
 10
104.5503797481679
 20
-141.2220431504584
 30
0.0
 10
104.6456366383351
 20
-141.3848239121364
 30
0.0
 10
104.8296047372474
 20
-141.3848239121364
 30
0.0
 10
104.9501830792312
 20
-141.3848239121364
 30
0.0
 10
105.1258829489789
 20
-141.3255682697901
 30
0.0
 10
105.1258829489789
 20
-141.0399698540629
 30
0.0
 10
105.1258829489789
 20
-140.8158663927474
 30
0.0
 10
104.986184327052
 20
-140.7185424452891
 30
0.0
 10
104.8507920744817
 20
-140.7185424452891
 30
0.0
  0
SPLINE
  5
123
330
11E
100
AcDbEntity
  8
レイヤー 1
100
AcDbSpline
210
0.0
220
0.0
230
1.0
 70
     9
 71
     3
 72
    32
 73
    28
 74
     0
 42
0.0000000001
 43
0.0000000001
 40
0.0
 40
0.0
 40
0.0
 40
0.0
 40
1.0
 40
1.0
 40
1.0
 40
2.0
 40
2.0
 40
2.0
 40
3.0
 40
3.0
 40
3.0
 40
4.0
 40
4.0
 40
4.0
 40
5.0
 40
5.0
 40
5.0
 40
6.0
 40
6.0
 40
6.0
 40
7.0
 40
7.0
 40
7.0
 40
8.0
 40
8.0
 40
8.0
 40
9.0
 40
9.0
 40
9.0
 40
9.0
 10
104.833911106604
 20
-141.5774047497619
 30
0.0
 10
104.3176635481393
 20
-141.5774047497619
 30
0.0
 10
104.3092230642004
 20
-141.0230888861852
 30
0.0
 10
104.3092230642004
 20
-140.8094929660997
 30
0.0
 10
104.3092230642004
 20
-140.5788438233622
 30
0.0
 10
104.3283433441436
 20
-139.9315103816838
 30
0.0
 10
104.871979411716
 20
-139.9315103816838
 30
0.0
 10
105.0454399693983
 20
-139.9315103816838
 30
0.0
 10
105.2907307679481
 20
-140.0012735652601
 30
0.0
 10
105.3289713278344
 20
-140.3333807700382
 30
0.0
 10
105.3289713278344
 20
-140.3333807700382
 30
0.0
 10
105.1152031529746
 20
-140.3333807700382
 30
0.0
 10
105.1152031529746
 20
-140.3333807700382
 30
0.0
 10
105.1046956117446
 20
-140.2763644397573
 30
0.0
 10
105.0730007332803
 20
-140.1282253338915
 30
0.0
 10
104.8699123544249
 20
-140.1282253338915
 30
0.0
 10
104.5779405120499
 20
-140.1282253338915
 30
0.0
 10
104.5376328948725
 20
-140.4561984240873
 30
0.0
 10
104.5250582963513
 20
-140.661353860234
 30
0.0
 10
104.6180758744531
 20
-140.5831501927188
 30
0.0
 10
104.6857720007382
 20
-140.5238945503725
 30
0.0
 10
104.8676730423594
 20
-140.5238945503725
 30
0.0
 10
105.0475070266895
 20
-140.5238945503725
 30
0.0
 10
105.3499864102944
 20
-140.6317260390608
 30
0.0
 10
105.3499864102944
 20
-141.0379027967718
 30
0.0
 10
105.3499864102944
 20
-141.3574354030287
 30
0.0
 10
105.1512044007955
 20
-141.5774047497619
 30
0.0
 10
104.833911106604
 20
-141.5774047497619
 30
0.0
  0
HATCH
  5
124
330
11E
100
AcDbEntity
  8
レイヤー 1
 62
    18
420
        0
440
 33554687
100
AcDbHatch
 10
0.0
 20
0.0
 30
0.0
210
0.0
220
0.0
230
1.0
  2
SOLID
 70
     1
 71
     1
 91
        2
 92
        1
 93
        1
 72
     4
 94
        3
 73
     0
 74
     0
 95
       17
 96
       13
 40
0.0
 40
0.0
 40
0.0
 40
0.0
 40
1.0
 40
1.0
 40
1.0
 40
2.0
 40
2.0
 40
2.0
 40
3.0
 40
3.0
 40
3.0
 40
4.0
 40
4.0
 40
4.0
 40
4.0
 10
104.8507920744817
 20
-140.7185424452891
 10
104.58844805328
 20
-140.7185424452891
 10
104.5503797481679
 20
-140.9300713080834
 10
104.5503797481679
 20
-141.0463432807106
 10
104.5503797481679
 20
-141.2220431504584
 10
104.6456366383351
 20
-141.3848239121364
 10
104.8296047372474
 20
-141.3848239121364
 10
104.9501830792312
 20
-141.3848239121364
 10
105.1258829489789
 20
-141.3255682697901
 10
105.1258829489789
 20
-141.0399698540629
 10
105.1258829489789
 20
-140.8158663927474
 10
104.986184327052
 20
-140.7185424452891
 10
104.8507920744817
 20
-140.7185424452891
 97
        0
 97
        1
330
122
 92
        1
 93
        1
 72
     4
 94
        3
 73
     0
 74
     0
 95
       32
 96
       28
 40
0.0
 40
0.0
 40
0.0
 40
0.0
 40
1.0
 40
1.0
 40
1.0
 40
2.0
 40
2.0
 40
2.0
 40
3.0
 40
3.0
 40
3.0
 40
4.0
 40
4.0
 40
4.0
 40
5.0
 40
5.0
 40
5.0
 40
6.0
 40
6.0
 40
6.0
 40
7.0
 40
7.0
 40
7.0
 40
8.0
 40
8.0
 40
8.0
 40
9.0
 40
9.0
 40
9.0
 40
9.0
 10
104.833911106604
 20
-141.5774047497619
 10
104.3176635481393
 20
-141.5774047497619
 10
104.3092230642004
 20
-141.0230888861852
 10
104.3092230642004
 20
-140.8094929660997
 10
104.3092230642004
 20
-140.5788438233622
 10
104.3283433441436
 20
-139.9315103816838
 10
104.871979411716
 20
-139.9315103816838
 10
105.0454399693983
 20
-139.9315103816838
 10
105.2907307679481
 20
-140.0012735652601
 10
105.3289713278344
 20
-140.3333807700382
 10
105.3289713278344
 20
-140.3333807700382
 10
105.1152031529746
 20
-140.3333807700382
 10
105.1152031529746
 20
-140.3333807700382
 10
105.1046956117446
 20
-140.2763644397573
 10
105.0730007332803
 20
-140.1282253338915
 10
104.8699123544249
 20
-140.1282253338915
 10
104.5779405120499
 20
-140.1282253338915
 10
104.5376328948725
 20
-140.4561984240873
 10
104.5250582963513
 20
-140.661353860234
 10
104.6180758744531
 20
-140.5831501927188
 10
104.6857720007382
 20
-140.5238945503725
 10
104.8676730423594
 20
-140.5238945503725
 10
105.0475070266895
 20
-140.5238945503725
 10
105.3499864102944
 20
-140.6317260390608
 10
105.3499864102944
 20
-141.0379027967718
 10
105.3499864102944
 20
-141.3574354030287
 10
105.1512044007955
 20
-141.5774047497619
 10
104.833911106604
 20
-141.5774047497619
 97
        0
 97
        1
330
123
 75
     2
 76
     1
 98
        1
 10
0.0
 20
0.0
450
        0
451
        0
460
0.0
461
0.0
452
        0
462
0.0
453
        0
470

  0
ENDBLK
  5
121
330
11E
100
AcDbEntity
  8
0
100
AcDbBlockEnd
  0
BLOCK
  5
12C
330
12A
100
AcDbEntity
  8
0
100
AcDbBlockBegin
  2
Block_10
 70
     0
 10
0.0
 20
0.0
 30
0.0
  3
Block_10
  1

  0
SPLINE
  5
12E
330
12A
100
AcDbEntity
  8
レイヤー 1
100
AcDbSpline
210
0.0
220
0.0
230
1.0
 70
     9
 71
     3
 72
    17
 73
    13
 74
     0
 42
0.0000000001
 43
0.0000000001
 40
0.0
 40
0.0
 40
0.0
 40
0.0
 40
1.0
 40
1.0
 40
1.0
 40
2.0
 40
2.0
 40
2.0
 40
3.0
 40
3.0
 40
3.0
 40
4.0
 40
4.0
 40
4.0
 40
4.0
 10
104.6323730207169
 20
-154.8115668015749
 30
0.0
 10
104.4673529469734
 20
-154.8115668015749
 30
0.0
 10
104.3826035980363
 20
-154.9066514369678
 30
0.0
 10
104.3826035980363
 20
-155.0420436895381
 30
0.0
 10
104.3826035980363
 20
-155.164689088813
 30
0.0
 10
104.454606093678
 20
-155.2832003735056
 30
0.0
 10
104.6323730207169
 20
-155.2832003735056
 30
0.0
 10
104.8101399477558
 20
-155.2832003735056
 30
0.0
 10
104.8821424433975
 20
-155.164689088813
 30
0.0
 10
104.8821424433975
 20
-155.0420436895381
 30
0.0
 10
104.8821424433975
 20
-154.9066514369678
 30
0.0
 10
104.7953260371692
 20
-154.8115668015749
 30
0.0
 10
104.6323730207169
 20
-154.8115668015749
 30
0.0
  0
SPLINE
  5
12F
330
12A
100
AcDbEntity
  8
レイヤー 1
100
AcDbSpline
210
0.0
220
0.0
230
1.0
 70
     9
 71
     3
 72
    17
 73
    13
 74
     0
 42
0.0000000001
 43
0.0000000001
 40
0.0
 40
0.0
 40
0.0
 40
0.0
 40
1.0
 40
1.0
 40
1.0
 40
2.0
 40
2.0
 40
2.0
 40
3.0
 40
3.0
 40
3.0
 40
4.0
 40
4.0
 40
4.0
 40
4.0
 10
104.6323730207169
 20
-155.4716470965487
 30
0.0
 10
104.488712538982
 20
-155.4716470965487
 30
0.0
 10
104.3360948089854
 20
-155.558463502777
 30
0.0
 10
104.3360948089854
 20
-155.7613796268583
 30
0.0
 10
104.3360948089854
 20
-155.9667073177791
 30
0.0
 10
104.4632188323911
 20
-156.0679931250455
 30
0.0
 10
104.6323730207169
 20
-156.0679931250455
 30
0.0
 10
104.8184081769204
 20
-156.0679931250455
 30
0.0
 10
104.9286512324484
 20
-155.9453477257706
 30
0.0
 10
104.9286512324484
 20
-155.7675807987317
 30
0.0
 10
104.9286512324484
 20
-155.5457166494816
 30
0.0
 10
104.7656982159961
 20
-155.4716470965487
 30
0.0
 10
104.6323730207169
 20
-155.4716470965487
 30
0.0
  0
SPLINE
  5
130
330
12A
100
AcDbEntity
  8
レイヤー 1
100
AcDbSpline
210
0.0
220
0.0
230
1.0
 70
     9
 71
     3
 72
    29
 73
    25
 74
     0
 42
0.0000000001
 43
0.0000000001
 40
0.0
 40
0.0
 40
0.0
 40
0.0
 40
1.0
 40
1.0
 40
1.0
 40
2.0
 40
2.0
 40
2.0
 40
3.0
 40
3.0
 40
3.0
 40
4.0
 40
4.0
 40
4.0
 40
5.0
 40
5.0
 40
5.0
 40
6.0
 40
6.0
 40
6.0
 40
7.0
 40
7.0
 40
7.0
 40
8.0
 40
8.0
 40
8.0
 40
8.0
 10
104.6323730207169
 20
-156.2626410199621
 30
0.0
 10
104.3657226301585
 20
-156.2626410199621
 30
0.0
 10
104.1118190928956
 20
-156.1251817101006
 30
0.0
 10
104.1118190928956
 20
-155.7761935374448
 30
0.0
 10
104.1118190928956
 20
-155.5202229428908
 30
0.0
 10
104.2537570268879
 20
-155.4251383074979
 30
0.0
 10
104.3595214582851
 20
-155.3638156078604
 30
0.0
 10
104.2348090017191
 20
-155.3045599655141
 30
0.0
 10
104.158672391495
 20
-155.1901827954038
 30
0.0
 10
104.158672391495
 20
-155.0292968362427
 30
0.0
 10
104.158672391495
 20
-154.7543782165197
 30
0.0
 10
104.3574544009939
 20
-154.6189859639494
 30
0.0
 10
104.6323730207169
 20
-154.6189859639494
 30
0.0
 10
104.9159043791529
 20
-154.6189859639494
 30
0.0
 10
105.1064181594873
 20
-154.7629909552329
 30
0.0
 10
105.1064181594873
 20
-155.0292968362427
 30
0.0
 10
105.1064181594873
 20
-155.1901827954038
 30
0.0
 10
105.0278699824236
 20
-155.3045599655141
 30
0.0
 10
104.9031575258575
 20
-155.3638156078604
 30
0.0
 10
104.992040989377
 20
-155.4144585114936
 30
0.0
 10
105.150859891247
 20
-155.5095431468865
 30
0.0
 10
105.150859891247
 20
-155.7720594228625
 30
0.0
 10
105.150859891247
 20
-156.1465413021092
 30
0.0
 10
104.8714626473932
 20
-156.2626410199621
 30
0.0
 10
104.6323730207169
 20
-156.2626410199621
 30
0.0
  0
HATCH
  5
131
330
12A
100
AcDbEntity
  8
レイヤー 1
 62
    18
420
        0
440
 33554687
100
AcDbHatch
 10
0.0
 20
0.0
 30
0.0
210
0.0
220
0.0
230
1.0
  2
SOLID
 70
     1
 71
     1
 91
        3
 92
        1
 93
        1
 72
     4
 94
        3
 73
     0
 74
     0
 95
       17
 96
       13
 40
0.0
 40
0.0
 40
0.0
 40
0.0
 40
1.0
 40
1.0
 40
1.0
 40
2.0
 40
2.0
 40
2.0
 40
3.0
 40
3.0
 40
3.0
 40
4.0
 40
4.0
 40
4.0
 40
4.0
 10
104.6323730207169
 20
-154.8115668015749
 10
104.4673529469734
 20
-154.8115668015749
 10
104.3826035980363
 20
-154.9066514369678
 10
104.3826035980363
 20
-155.0420436895381
 10
104.3826035980363
 20
-155.164689088813
 10
104.454606093678
 20
-155.2832003735056
 10
104.6323730207169
 20
-155.2832003735056
 10
104.8101399477558
 20
-155.2832003735056
 10
104.8821424433975
 20
-155.164689088813
 10
104.8821424433975
 20
-155.0420436895381
 10
104.8821424433975
 20
-154.9066514369678
 10
104.7953260371692
 20
-154.8115668015749
 10
104.6323730207169
 20
-154.8115668015749
 97
        0
 97
        1
330
12E
 92
        1
 93
        1
 72
     4
 94
        3
 73
     0
 74
     0
 95
       17
 96
       13
 40
0.0
 40
0.0
 40
0.0
 40
0.0
 40
1.0
 40
1.0
 40
1.0
 40
2.0
 40
2.0
 40
2.0
 40
3.0
 40
3.0
 40
3.0
 40
4.0
 40
4.0
 40
4.0
 40
4.0
 10
104.6323730207169
 20
-155.4716470965487
 10
104.488712538982
 20
-155.4716470965487
 10
104.3360948089854
 20
-155.558463502777
 10
104.3360948089854
 20
-155.7613796268583
 10
104.3360948089854
 20
-155.9667073177791
 10
104.4632188323911
 20
-156.0679931250455
 10
104.6323730207169
 20
-156.0679931250455
 10
104.8184081769204
 20
-156.0679931250455
 10
104.9286512324484
 20
-155.9453477257706
 10
104.9286512324484
 20
-155.7675807987317
 10
104.9286512324484
 20
-155.5457166494816
 10
104.7656982159961
 20
-155.4716470965487
 10
104.6323730207169
 20
-155.4716470965487
 97
        0
 97
        1
330
12F
 92
        1
 93
        1
 72
     4
 94
        3
 73
     0
 74
     0
 95
       29
 96
       25
 40
0.0
 40
0.0
 40
0.0
 40
0.0
 40
1.0
 40
1.0
 40
1.0
 40
2.0
 40
2.0
 40
2.0
 40
3.0
 40
3.0
 40
3.0
 40
4.0
 40
4.0
 40
4.0
 40
5.0
 40
5.0
 40
5.0
 40
6.0
 40
6.0
 40
6.0
 40
7.0
 40
7.0
 40
7.0
 40
8.0
 40
8.0
 40
8.0
 40
8.0
 10
104.6323730207169
 20
-156.2626410199621
 10
104.3657226301585
 20
-156.2626410199621
 10
104.1118190928956
 20
-156.1251817101006
 10
104.1118190928956
 20
-155.7761935374448
 10
104.1118190928956
 20
-155.5202229428908
 10
104.2537570268879
 20
-155.4251383074979
 10
104.3595214582851
 20
-155.3638156078604
 10
104.2348090017191
 20
-155.3045599655141
 10
104.158672391495
 20
-155.1901827954038
 10
104.158672391495
 20
-155.0292968362427
 10
104.158672391495
 20
-154.7543782165197
 10
104.3574544009939
 20
-154.6189859639494
 10
104.6323730207169
 20
-154.6189859639494
 10
104.9159043791529
 20
-154.6189859639494
 10
105.1064181594873
 20
-154.7629909552329
 10
105.1064181594873
 20
-155.0292968362427
 10
105.1064181594873
 20
-155.1901827954038
 10
105.0278699824236
 20
-155.3045599655141
 10
104.9031575258575
 20
-155.3638156078604
 10
104.992040989377
 20
-155.4144585114936
 10
105.150859891247
 20
-155.5095431468865
 10
105.150859891247
 20
-155.7720594228625
 10
105.150859891247
 20
-156.1465413021092
 10
104.8714626473932
 20
-156.2626410199621
 10
104.6323730207169
 20
-156.2626410199621
 97
        0
 97
        1
330
130
 75
     2
 76
     1
 98
        1
 10
0.0
 20
0.0
450
        0
451
        0
460
0.0
461
0.0
452
        0
462
0.0
453
        0
470

  0
ENDBLK
  5
12D
330
12A
100
AcDbEntity
  8
0
100
AcDbBlockEnd
  0
BLOCK
  5
135
330
133
100
AcDbEntity
  8
0
100
AcDbBlockBegin
  2
Block_11
 70
     0
 10
0.0
 20
0.0
 30
0.0
  3
Block_11
  1

  0
SPLINE
  5
137
330
133
100
AcDbEntity
  8
レイヤー 1
100
AcDbSpline
210
0.0
220
0.0
230
1.0
 70
    11
 71
     3
 72
    26
 73
    22
 74
     0
 42
0.0000000001
 43
0.0000000001
 40
0.0
 40
0.0
 40
0.0
 40
0.0
 40
1.0
 40
1.0
 40
1.0
 40
2.0
 40
2.0
 40
2.0
 40
3.0
 40
3.0
 40
3.0
 40
4.0
 40
4.0
 40
4.0
 40
5.0
 40
5.0
 40
5.0
 40
6.0
 40
6.0
 40
6.0
 40
7.0
 40
7.0
 40
7.0
 40
7.0
 10
110.728813991415
 20
-149.7331515467681
 30
0.0
 10
110.728813991415
 20
-149.7331515467681
 30
0.0
 10
110.728813991415
 20
-148.628653934197
 30
0.0
 10
110.728813991415
 20
-148.628653934197
 30
0.0
 10
110.728813991415
 20
-148.628653934197
 30
0.0
 10
110.3987738439281
 20
-148.628653934197
 30
0.0
 10
110.3987738439281
 20
-148.628653934197
 30
0.0
 10
110.3987738439281
 20
-148.628653934197
 30
0.0
 10
110.3987738439281
 20
-148.4805148283313
 30
0.0
 10
110.3987738439281
 20
-148.4805148283313
 30
0.0
 10
110.7308810487062
 20
-148.465873172519
 30
0.0
 10
110.777389837757
 20
-148.3029201560666
 30
0.0
 10
110.8070176589302
 20
-148.1887152407306
 30
0.0
 10
110.8070176589302
 20
-148.1887152407306
 30
0.0
 10
110.9530897075048
 20
-148.1887152407306
 30
0.0
 10
110.9530897075048
 20
-148.1887152407306
 30
0.0
 10
110.9530897075048
 20
-148.1887152407306
 30
0.0
 10
110.9530897075048
 20
-149.7331515467681
 30
0.0
 10
110.9530897075048
 20
-149.7331515467681
 30
0.0
 10
110.9530897075048
 20
-149.7331515467681
 30
0.0
 10
110.728813991415
 20
-149.7331515467681
 30
0.0
 10
110.728813991415
 20
-149.7331515467681
 30
0.0
  0
HATCH
  5
138
330
133
100
AcDbEntity
  8
レイヤー 1
 62
    18
420
        0
440
 33554687
100
AcDbHatch
 10
0.0
 20
0.0
 30
0.0
210
0.0
220
0.0
230
1.0
  2
SOLID
 70
     1
 71
     1
 91
        1
 92
        1
 93
        1
 72
     4
 94
        3
 73
     0
 74
     0
 95
       26
 96
       22
 40
0.0
 40
0.0
 40
0.0
 40
0.0
 40
1.0
 40
1.0
 40
1.0
 40
2.0
 40
2.0
 40
2.0
 40
3.0
 40
3.0
 40
3.0
 40
4.0
 40
4.0
 40
4.0
 40
5.0
 40
5.0
 40
5.0
 40
6.0
 40
6.0
 40
6.0
 40
7.0
 40
7.0
 40
7.0
 40
7.0
 10
110.728813991415
 20
-149.7331515467681
 10
110.728813991415
 20
-149.7331515467681
 10
110.728813991415
 20
-148.628653934197
 10
110.728813991415
 20
-148.628653934197
 10
110.728813991415
 20
-148.628653934197
 10
110.3987738439281
 20
-148.628653934197
 10
110.3987738439281
 20
-148.628653934197
 10
110.3987738439281
 20
-148.628653934197
 10
110.3987738439281
 20
-148.4805148283313
 10
110.3987738439281
 20
-148.4805148283313
 10
110.7308810487062
 20
-148.465873172519
 10
110.777389837757
 20
-148.3029201560666
 10
110.8070176589302
 20
-148.1887152407306
 10
110.8070176589302
 20
-148.1887152407306
 10
110.9530897075048
 20
-148.1887152407306
 10
110.9530897075048
 20
-148.1887152407306
 10
110.9530897075048
 20
-148.1887152407306
 10
110.9530897075048
 20
-149.7331515467681
 10
110.9530897075048
 20
-149.7331515467681
 10
110.9530897075048
 20
-149.7331515467681
 10
110.728813991415
 20
-149.7331515467681
 10
110.728813991415
 20
-149.7331515467681
 97
        0
 97
        1
330
137
 75
     2
 76
     1
 98
        1
 10
0.0
 20
0.0
450
        0
451
        0
460
0.0
461
0.0
452
        0
462
0.0
453
        0
470

  0
ENDBLK
  5
136
330
133
100
AcDbEntity
  8
0
100
AcDbBlockEnd
  0
BLOCK
  5
13B
330
139
100
AcDbEntity
  8
0
100
AcDbBlockBegin
  2
Block_12
 70
     0
 10
0.0
 20
0.0
 30
0.0
  3
Block_12
  1

  0
INSERT
  5
13E
330
139
100
AcDbEntity
  8
レイヤー 1
100
AcDbBlockReference
  2
Block_13
 10
0.0
 20
0.0
 30
0.0
  0
ENDBLK
  5
13C
330
139
100
AcDbEntity
  8
0
100
AcDbBlockEnd
  0
BLOCK
  5
13F
330
13D
100
AcDbEntity
  8
0
100
AcDbBlockBegin
  2
Block_13
 70
     0
 10
0.0
 20
0.0
 30
0.0
  3
Block_13
  1

  0
SPLINE
  5
141
330
13D
100
AcDbEntity
  8
レイヤー 1
100
AcDbSpline
210
0.0
220
0.0
230
1.0
 70
     9
 71
     3
 72
    59
 73
    55
 74
     0
 42
0.0000000001
 43
0.0000000001
 40
0.0
 40
0.0
 40
0.0
 40
0.0
 40
1.0
 40
1.0
 40
1.0
 40
2.0
 40
2.0
 40
2.0
 40
3.0
 40
3.0
 40
3.0
 40
4.0
 40
4.0
 40
4.0
 40
5.0
 40
5.0
 40
5.0
 40
6.0
 40
6.0
 40
6.0
 40
7.0
 40
7.0
 40
7.0
 40
8.0
 40
8.0
 40
8.0
 40
9.0
 40
9.0
 40
9.0
 40
10.0
 40
10.0
 40
10.0
 40
11.0
 40
11.0
 40
11.0
 40
12.0
 40
12.0
 40
12.0
 40
13.0
 40
13.0
 40
13.0
 40
14.0
 40
14.0
 40
14.0
 40
15.0
 40
15.0
 40
15.0
 40
16.0
 40
16.0
 40
16.0
 40
17.0
 40
17.0
 40
17.0
 40
18.0
 40
18.0
 40
18.0
 40
18.0
 10
126.4770344735891
 20
-150.0935085345252
 30
0.0
 10
126.3309624250145
 20
-150.580300526591
 30
0.0
 10
126.1125433712496
 20
-151.1025770021549
 30
0.0
 10
125.5881998383946
 20
-151.4198702963464
 30
0.0
 10
125.5881998383946
 20
-151.4198702963464
 30
0.0
 10
125.4235242741996
 20
-151.2675970758984
 30
0.0
 10
125.4235242741996
 20
-151.2675970758984
 30
0.0
 10
125.5644286795464
 20
-151.1980061470963
 30
0.0
 10
125.7790581282774
 20
-151.0877630915683
 30
0.0
 10
125.9995442393334
 20
-150.7577229440814
 30
0.0
 10
126.2069389875455
 20
-150.4449082740207
 30
0.0
 10
126.2568928720816
 20
-150.1889376794666
 30
0.0
 10
126.2810085404783
 20
-150.0618136560609
 30
0.0
 10
126.2810085404783
 20
-150.0618136560609
 30
0.0
 10
125.7142903331547
 20
-150.0618136560609
 30
0.0
 10
125.7142903331547
 20
-150.0618136560609
 30
0.0
 10
125.6236843218927
 20
-150.2226996152221
 30
0.0
 10
125.5179198904955
 20
-150.3897867462567
 30
0.0
 10
125.3494547212668
 20
-150.5610079918736
 30
0.0
 10
125.3494547212668
 20
-150.5610079918736
 30
0.0
 10
125.1975260103673
 20
-150.4383625925987
 30
0.0
 10
125.1975260103673
 20
-150.4383625925987
 30
0.0
 10
125.2495469521945
 20
-150.3918538035479
 30
0.0
 10
125.3790825424399
 20
-150.2798882002772
 30
0.0
 10
125.5234320432719
 20
-150.0301187775966
 30
0.0
 10
125.5902668956857
 20
-149.911607492904
 30
0.0
 10
125.6808729069478
 20
-149.7424533045782
 30
0.0
 10
125.703266027602
 20
-149.6198079053034
 30
0.0
 10
125.703266027602
 20
-149.6198079053034
 30
0.0
 10
125.9051486230376
 20
-149.7210937125697
 30
0.0
 10
125.9051486230376
 20
-149.7210937125697
 30
0.0
 10
125.917895476333
 20
-149.7276393939917
 30
0.0
 10
125.930986839177
 20
-149.7359076231563
 30
0.0
 10
125.930986839177
 20
-149.7507215337428
 30
0.0
 10
125.930986839177
 20
-149.7720811257514
 30
0.0
 10
125.9085937185228
 20
-149.7848279790468
 30
0.0
 10
125.9013590180038
 20
-149.786895036338
 30
0.0
 10
125.8772433496071
 20
-149.7951632655026
 30
0.0
 10
125.870008649088
 20
-149.7930962082114
 30
0.0
 10
125.8476155284339
 20
-149.8185899148023
 30
0.0
 10
125.8252224077798
 20
-149.8440836213931
 30
0.0
 10
125.8272894650709
 20
-149.8523518505577
 30
0.0
 10
125.7993841916404
 20
-149.9054063210306
 30
0.0
 10
125.7993841916404
 20
-149.9054063210306
 30
0.0
 10
126.0918727983381
 20
-149.9054063210306
 30
0.0
 10
126.0918727983381
 20
-149.9054063210306
 30
0.0
 10
126.3161485144279
 20
-149.9054063210306
 30
0.0
 10
126.3440537878584
 20
-149.8926594677351
 30
0.0
 10
126.3940076723945
 20
-149.863031646562
 30
0.0
 10
126.3940076723945
 20
-149.863031646562
 30
0.0
 10
126.530777963159
 20
-150.0280517203055
 30
0.0
 10
126.530777963159
 20
-150.0280517203055
 30
0.0
 10
126.5011501419858
 20
-150.0638807133521
 30
0.0
 10
126.4994275942432
 20
-150.0659477706432
 30
0.0
 10
126.4770344735891
 20
-150.0935085345252
 30
0.0
  0
HATCH
  5
142
330
13D
100
AcDbEntity
  8
レイヤー 1
 62
   250
420
  2299925
440
 33554687
100
AcDbHatch
 10
0.0
 20
0.0
 30
0.0
210
0.0
220
0.0
230
1.0
  2
SOLID
 70
     1
 71
     1
 91
        1
 92
        1
 93
        1
 72
     4
 94
        3
 73
     0
 74
     0
 95
       59
 96
       55
 40
0.0
 40
0.0
 40
0.0
 40
0.0
 40
1.0
 40
1.0
 40
1.0
 40
2.0
 40
2.0
 40
2.0
 40
3.0
 40
3.0
 40
3.0
 40
4.0
 40
4.0
 40
4.0
 40
5.0
 40
5.0
 40
5.0
 40
6.0
 40
6.0
 40
6.0
 40
7.0
 40
7.0
 40
7.0
 40
8.0
 40
8.0
 40
8.0
 40
9.0
 40
9.0
 40
9.0
 40
10.0
 40
10.0
 40
10.0
 40
11.0
 40
11.0
 40
11.0
 40
12.0
 40
12.0
 40
12.0
 40
13.0
 40
13.0
 40
13.0
 40
14.0
 40
14.0
 40
14.0
 40
15.0
 40
15.0
 40
15.0
 40
16.0
 40
16.0
 40
16.0
 40
17.0
 40
17.0
 40
17.0
 40
18.0
 40
18.0
 40
18.0
 40
18.0
 10
126.4770344735891
 20
-150.0935085345252
 10
126.3309624250145
 20
-150.580300526591
 10
126.1125433712496
 20
-151.1025770021549
 10
125.5881998383946
 20
-151.4198702963464
 10
125.5881998383946
 20
-151.4198702963464
 10
125.4235242741996
 20
-151.2675970758984
 10
125.4235242741996
 20
-151.2675970758984
 10
125.5644286795464
 20
-151.1980061470963
 10
125.7790581282774
 20
-151.0877630915683
 10
125.9995442393334
 20
-150.7577229440814
 10
126.2069389875455
 20
-150.4449082740207
 10
126.2568928720816
 20
-150.1889376794666
 10
126.2810085404783
 20
-150.0618136560609
 10
126.2810085404783
 20
-150.0618136560609
 10
125.7142903331547
 20
-150.0618136560609
 10
125.7142903331547
 20
-150.0618136560609
 10
125.6236843218927
 20
-150.2226996152221
 10
125.5179198904955
 20
-150.3897867462567
 10
125.3494547212668
 20
-150.5610079918736
 10
125.3494547212668
 20
-150.5610079918736
 10
125.1975260103673
 20
-150.4383625925987
 10
125.1975260103673
 20
-150.4383625925987
 10
125.2495469521945
 20
-150.3918538035479
 10
125.3790825424399
 20
-150.2798882002772
 10
125.5234320432719
 20
-150.0301187775966
 10
125.5902668956857
 20
-149.911607492904
 10
125.6808729069478
 20
-149.7424533045782
 10
125.703266027602
 20
-149.6198079053034
 10
125.703266027602
 20
-149.6198079053034
 10
125.9051486230376
 20
-149.7210937125697
 10
125.9051486230376
 20
-149.7210937125697
 10
125.917895476333
 20
-149.7276393939917
 10
125.930986839177
 20
-149.7359076231563
 10
125.930986839177
 20
-149.7507215337428
 10
125.930986839177
 20
-149.7720811257514
 10
125.9085937185228
 20
-149.7848279790468
 10
125.9013590180038
 20
-149.786895036338
 10
125.8772433496071
 20
-149.7951632655026
 10
125.870008649088
 20
-149.7930962082114
 10
125.8476155284339
 20
-149.8185899148023
 10
125.8252224077798
 20
-149.8440836213931
 10
125.8272894650709
 20
-149.8523518505577
 10
125.7993841916404
 20
-149.9054063210306
 10
125.7993841916404
 20
-149.9054063210306
 10
126.0918727983381
 20
-149.9054063210306
 10
126.0918727983381
 20
-149.9054063210306
 10
126.3161485144279
 20
-149.9054063210306
 10
126.3440537878584
 20
-149.8926594677351
 10
126.3940076723945
 20
-149.863031646562
 10
126.3940076723945
 20
-149.863031646562
 10
126.530777963159
 20
-150.0280517203055
 10
126.530777963159
 20
-150.0280517203055
 10
126.5011501419858
 20
-150.0638807133521
 10
126.4994275942432
 20
-150.0659477706432
 10
126.4770344735891
 20
-150.0935085345252
 97
        0
 97
        1
330
141
 75
     2
 76
     1
 98
        1
 10
0.0
 20
0.0
450
        0
451
        0
460
0.0
461
0.0
452
        0
462
0.0
453
        0
470

  0
SPLINE
  5
143
330
13D
100
AcDbEntity
  8
レイヤー 1
100
AcDbSpline
210
0.0
220
0.0
230
1.0
 70
    11
 71
     3
 72
    17
 73
    13
 74
     0
 42
0.0000000001
 43
0.0000000001
 40
0.0
 40
0.0
 40
0.0
 40
0.0
 40
1.0
 40
1.0
 40
1.0
 40
2.0
 40
2.0
 40
2.0
 40
3.0
 40
3.0
 40
3.0
 40
4.0
 40
4.0
 40
4.0
 40
4.0
 10
127.9160508577779
 20
-150.0025580137146
 30
0.0
 10
127.9160508577779
 20
-150.0025580137146
 30
0.0
 10
127.0048231019293
 20
-150.0025580137146
 30
0.0
 10
127.0048231019293
 20
-150.0025580137146
 30
0.0
 10
127.0048231019293
 20
-150.0025580137146
 30
0.0
 10
127.0048231019293
 20
-150.8910481393606
 30
0.0
 10
127.0048231019293
 20
-150.8910481393606
 30
0.0
 10
127.0048231019293
 20
-150.8910481393606
 30
0.0
 10
127.9160508577779
 20
-150.8910481393606
 30
0.0
 10
127.9160508577779
 20
-150.8910481393606
 30
0.0
 10
127.9160508577779
 20
-150.8910481393606
 30
0.0
 10
127.9160508577779
 20
-150.0025580137146
 30
0.0
 10
127.9160508577779
 20
-150.0025580137146
 30
0.0
  0
SPLINE
  5
144
330
13D
100
AcDbEntity
  8
レイヤー 1
100
AcDbSpline
210
0.0
220
0.0
230
1.0
 70
     9
 71
     3
 72
    53
 73
    49
 74
     0
 42
0.0000000001
 43
0.0000000001
 40
0.0
 40
0.0
 40
0.0
 40
0.0
 40
1.0
 40
1.0
 40
1.0
 40
2.0
 40
2.0
 40
2.0
 40
3.0
 40
3.0
 40
3.0
 40
4.0
 40
4.0
 40
4.0
 40
5.0
 40
5.0
 40
5.0
 40
6.0
 40
6.0
 40
6.0
 40
7.0
 40
7.0
 40
7.0
 40
8.0
 40
8.0
 40
8.0
 40
9.0
 40
9.0
 40
9.0
 40
10.0
 40
10.0
 40
10.0
 40
11.0
 40
11.0
 40
11.0
 40
12.0
 40
12.0
 40
12.0
 40
13.0
 40
13.0
 40
13.0
 40
14.0
 40
14.0
 40
14.0
 40
15.0
 40
15.0
 40
15.0
 40
16.0
 40
16.0
 40
16.0
 40
16.0
 10
127.8957247944149
 20
-151.2062743762609
 30
0.0
 10
127.902959494934
 20
-151.1618326445012
 30
0.0
 10
127.902959494934
 20
-151.1535644153366
 30
0.0
 10
127.9084716477104
 20
-151.0794948624037
 30
0.0
 10
127.9084716477104
 20
-151.0794948624037
 30
0.0
 10
127.0068901592205
 20
-151.0794948624037
 30
0.0
 10
127.0068901592205
 20
-151.0794948624037
 30
0.0
 10
127.0068901592205
 20
-151.111189740868
 30
0.0
 10
127.0068901592205
 20
-151.166311268632
 30
0.0
 10
127.0103352547057
 20
-151.2021402616786
 30
0.0
 10
127.0103352547057
 20
-151.2021402616786
 30
0.0
 10
126.7994954110085
 20
-151.2021402616786
 30
0.0
 10
126.7994954110085
 20
-151.2021402616786
 30
0.0
 10
126.8050075637848
 20
-151.1470187339146
 30
0.0
 10
126.814309321595
 20
-151.056068213104
 30
0.0
 10
126.814309321595
 20
-150.9272216419557
 30
0.0
 10
126.8160318693376
 20
-150.7218939510348
 30
0.0
 10
126.8160318693376
 20
-150.6984673017351
 30
0.0
 10
126.8160318693376
 20
-150.6753851619839
 30
0.0
 10
126.8160318693376
 20
-150.6753851619839
 30
0.0
 10
126.8160318693376
 20
-150.2354464685175
 30
0.0
 10
126.8160318693376
 20
-150.2354464685175
 30
0.0
 10
126.8160318693376
 20
-150.1696451447492
 30
0.0
 10
126.8105197165612
 20
-149.8461506786843
 30
0.0
 10
126.8067301115275
 20
-149.7910291509203
 30
0.0
 10
126.9159396384099
 20
-149.8037760042157
 30
0.0
 10
127.1474500550187
 20
-149.807910118798
 30
0.0
 10
127.262516244226
 20
-149.807910118798
 30
0.0
 10
127.262516244226
 20
-149.807910118798
 30
0.0
 10
127.6604247727724
 20
-149.807910118798
 30
0.0
 10
127.6604247727724
 20
-149.807910118798
 30
0.0
 10
127.7920274203089
 20
-149.807910118798
 30
0.0
 10
127.9880533534196
 20
-149.8058430615069
 30
0.0
 10
128.1158663959224
 20
-149.7975748323423
 30
0.0
 10
128.1086316954034
 20
-149.9074733783217
 30
0.0
 10
128.1048420903696
 20
-150.1568982914538
 30
0.0
 10
128.1048420903696
 20
-150.2754095761464
 30
0.0
 10
128.1048420903696
 20
-150.2754095761464
 30
0.0
 10
128.1048420903696
 20
-150.6943331871528
 30
0.0
 10
128.1048420903696
 20
-150.6943331871528
 30
0.0
 10
128.1048420903696
 20
-150.7367078616214
 30
0.0
 10
128.110354243146
 20
-150.9186089032426
 30
0.0
 10
128.110354243146
 20
-150.9568494631288
 30
0.0
 10
128.1124213004372
 20
-151.1070556262857
 30
0.0
 10
128.1196560009562
 20
-151.1576985299189
 30
0.0
 10
128.1272352110237
 20
-151.2062743762609
 30
0.0
 10
128.1272352110237
 20
-151.2062743762609
 30
0.0
 10
127.8957247944149
 20
-151.2062743762609
 30
0.0
 10
127.8957247944149
 20
-151.2062743762609
 30
0.0
  0
HATCH
  5
145
330
13D
100
AcDbEntity
  8
レイヤー 1
 62
   250
420
  2299925
440
 33554687
100
AcDbHatch
 10
0.0
 20
0.0
 30
0.0
210
0.0
220
0.0
230
1.0
  2
SOLID
 70
     1
 71
     1
 91
        2
 92
        1
 93
        1
 72
     4
 94
        3
 73
     0
 74
     0
 95
       17
 96
       13
 40
0.0
 40
0.0
 40
0.0
 40
0.0
 40
1.0
 40
1.0
 40
1.0
 40
2.0
 40
2.0
 40
2.0
 40
3.0
 40
3.0
 40
3.0
 40
4.0
 40
4.0
 40
4.0
 40
4.0
 10
127.9160508577779
 20
-150.0025580137146
 10
127.9160508577779
 20
-150.0025580137146
 10
127.0048231019293
 20
-150.0025580137146
 10
127.0048231019293
 20
-150.0025580137146
 10
127.0048231019293
 20
-150.0025580137146
 10
127.0048231019293
 20
-150.8910481393606
 10
127.0048231019293
 20
-150.8910481393606
 10
127.0048231019293
 20
-150.8910481393606
 10
127.9160508577779
 20
-150.8910481393606
 10
127.9160508577779
 20
-150.8910481393606
 10
127.9160508577779
 20
-150.8910481393606
 10
127.9160508577779
 20
-150.0025580137146
 10
127.9160508577779
 20
-150.0025580137146
 97
        0
 97
        1
330
143
 92
        1
 93
        1
 72
     4
 94
        3
 73
     0
 74
     0
 95
       53
 96
       49
 40
0.0
 40
0.0
 40
0.0
 40
0.0
 40
1.0
 40
1.0
 40
1.0
 40
2.0
 40
2.0
 40
2.0
 40
3.0
 40
3.0
 40
3.0
 40
4.0
 40
4.0
 40
4.0
 40
5.0
 40
5.0
 40
5.0
 40
6.0
 40
6.0
 40
6.0
 40
7.0
 40
7.0
 40
7.0
 40
8.0
 40
8.0
 40
8.0
 40
9.0
 40
9.0
 40
9.0
 40
10.0
 40
10.0
 40
10.0
 40
11.0
 40
11.0
 40
11.0
 40
12.0
 40
12.0
 40
12.0
 40
13.0
 40
13.0
 40
13.0
 40
14.0
 40
14.0
 40
14.0
 40
15.0
 40
15.0
 40
15.0
 40
16.0
 40
16.0
 40
16.0
 40
16.0
 10
127.8957247944149
 20
-151.2062743762609
 10
127.902959494934
 20
-151.1618326445012
 10
127.902959494934
 20
-151.1535644153366
 10
127.9084716477104
 20
-151.0794948624037
 10
127.9084716477104
 20
-151.0794948624037
 10
127.0068901592205
 20
-151.0794948624037
 10
127.0068901592205
 20
-151.0794948624037
 10
127.0068901592205
 20
-151.111189740868
 10
127.0068901592205
 20
-151.166311268632
 10
127.0103352547057
 20
-151.2021402616786
 10
127.0103352547057
 20
-151.2021402616786
 10
126.7994954110085
 20
-151.2021402616786
 10
126.7994954110085
 20
-151.2021402616786
 10
126.8050075637848
 20
-151.1470187339146
 10
126.814309321595
 20
-151.056068213104
 10
126.814309321595
 20
-150.9272216419557
 10
126.8160318693376
 20
-150.7218939510348
 10
126.8160318693376
 20
-150.6984673017351
 10
126.8160318693376
 20
-150.6753851619839
 10
126.8160318693376
 20
-150.6753851619839
 10
126.8160318693376
 20
-150.2354464685175
 10
126.8160318693376
 20
-150.2354464685175
 10
126.8160318693376
 20
-150.1696451447492
 10
126.8105197165612
 20
-149.8461506786843
 10
126.8067301115275
 20
-149.7910291509203
 10
126.9159396384099
 20
-149.8037760042157
 10
127.1474500550187
 20
-149.807910118798
 10
127.262516244226
 20
-149.807910118798
 10
127.262516244226
 20
-149.807910118798
 10
127.6604247727724
 20
-149.807910118798
 10
127.6604247727724
 20
-149.807910118798
 10
127.7920274203089
 20
-149.807910118798
 10
127.9880533534196
 20
-149.8058430615069
 10
128.1158663959224
 20
-149.7975748323423
 10
128.1086316954034
 20
-149.9074733783217
 10
128.1048420903696
 20
-150.1568982914538
 10
128.1048420903696
 20
-150.2754095761464
 10
128.1048420903696
 20
-150.2754095761464
 10
128.1048420903696
 20
-150.6943331871528
 10
128.1048420903696
 20
-150.6943331871528
 10
128.1048420903696
 20
-150.7367078616214
 10
128.110354243146
 20
-150.9186089032426
 10
128.110354243146
 20
-150.9568494631288
 10
128.1124213004372
 20
-151.1070556262857
 10
128.1196560009562
 20
-151.1576985299189
 10
128.1272352110237
 20
-151.2062743762609
 10
128.1272352110237
 20
-151.2062743762609
 10
127.8957247944149
 20
-151.2062743762609
 10
127.8957247944149
 20
-151.2062743762609
 97
        0
 97
        1
330
144
 75
     2
 76
     1
 98
        1
 10
0.0
 20
0.0
450
        0
451
        0
460
0.0
461
0.0
452
        0
462
0.0
453
        0
470

  0
SPLINE
  5
146
330
13D
100
AcDbEntity
  8
レイヤー 1
100
AcDbSpline
210
0.0
220
0.0
230
1.0
 70
     9
 71
     3
 72
    56
 73
    52
 74
     0
 42
0.0000000001
 43
0.0000000001
 40
0.0
 40
0.0
 40
0.0
 40
0.0
 40
1.0
 40
1.0
 40
1.0
 40
2.0
 40
2.0
 40
2.0
 40
3.0
 40
3.0
 40
3.0
 40
4.0
 40
4.0
 40
4.0
 40
5.0
 40
5.0
 40
5.0
 40
6.0
 40
6.0
 40
6.0
 40
7.0
 40
7.0
 40
7.0
 40
8.0
 40
8.0
 40
8.0
 40
9.0
 40
9.0
 40
9.0
 40
10.0
 40
10.0
 40
10.0
 40
11.0
 40
11.0
 40
11.0
 40
12.0
 40
12.0
 40
12.0
 40
13.0
 40
13.0
 40
13.0
 40
14.0
 40
14.0
 40
14.0
 40
15.0
 40
15.0
 40
15.0
 40
16.0
 40
16.0
 40
16.0
 40
17.0
 40
17.0
 40
17.0
 40
17.0
 10
129.6568576064747
 20
-151.2720757000292
 30
0.0
 10
129.4883924372459
 20
-150.9630506350023
 30
0.0
 10
129.2627386829621
 20
-150.7577229440814
 30
0.0
 10
129.1828124677043
 20
-150.6922661298616
 30
0.0
 10
128.9254638349561
 20
-151.0309190160617
 30
0.0
 10
128.6719048072417
 20
-151.1831922365098
 30
0.0
 10
128.4979274852366
 20
-151.2762098146115
 30
0.0
 10
128.4979274852366
 20
-151.2762098146115
 30
0.0
 10
128.3587456276325
 20
-151.0877630915683
 30
0.0
 10
128.3587456276325
 20
-151.0877630915683
 30
0.0
 10
128.4496961484431
 20
-151.0519340985217
 30
0.0
 10
128.6367648332922
 20
-150.9757974882977
 30
0.0
 10
128.8403699764705
 20
-150.7897623320942
 30
0.0
 10
129.0718803930792
 20
-150.5778889597513
 30
0.0
 10
129.2348334095315
 20
-150.290223486733
 30
0.0
 10
129.3423203886713
 20
-149.9774088166723
 30
0.0
 10
129.3423203886713
 20
-149.9774088166723
 30
0.0
 10
129.0126247507329
 20
-149.9774088166723
 30
0.0
 10
129.0126247507329
 20
-149.9774088166723
 30
0.0
 10
128.8792995554538
 20
-149.9774088166723
 30
0.0
 10
128.6960204756385
 20
-149.9815429312546
 30
0.0
 10
128.5644178281019
 20
-150.0004909564235
 30
0.0
 10
128.5644178281019
 20
-150.0004909564235
 30
0.0
 10
128.5644178281019
 20
-149.7889620936291
 30
0.0
 10
128.5644178281019
 20
-149.7889620936291
 30
0.0
 10
128.6236734704482
 20
-149.7951632655026
 30
0.0
 10
128.8513942820233
 20
-149.8058430615069
 30
0.0
 10
128.9275308922473
 20
-149.8058430615069
 30
0.0
 10
128.9275308922473
 20
-149.8058430615069
 30
0.0
 10
129.199693435582
 20
-149.8058430615069
 30
0.0
 10
129.199693435582
 20
-149.8058430615069
 30
0.0
 10
129.3812499676547
 20
-149.8058430615069
 30
0.0
 10
129.4015760310176
 20
-149.7996418896334
 30
0.0
 10
129.4219020943806
 20
-149.7951632655026
 30
0.0
 10
129.4608316733639
 20
-149.7889620936291
 30
0.0
 10
129.4939045900223
 20
-149.7634683870383
 30
0.0
 10
129.5125081056427
 20
-149.7465874191606
 30
0.0
 10
129.5125081056427
 20
-149.7465874191606
 30
0.0
 10
129.6496229059556
 20
-149.9202202316172
 30
0.0
 10
129.6496229059556
 20
-149.9202202316172
 30
0.0
 10
129.6144829320061
 20
-149.9477809954991
 30
0.0
 10
129.6031141169047
 20
-149.9581162819549
 30
0.0
 10
129.5607394424362
 20
-149.99428978455
 30
0.0
 10
129.44774031052
 20
-150.241647640391
 30
0.0
 10
129.3774603626209
 20
-150.3918538035479
 30
0.0
 10
129.2865098418103
 20
-150.5379258521224
 30
0.0
 10
129.5607394424362
 20
-150.7556558867903
 30
0.0
 10
129.7605549805807
 20
-151.0412543025174
 30
0.0
 10
129.8070637696316
 20
-151.1194579700326
 30
0.0
 10
129.8070637696316
 20
-151.1194579700326
 30
0.0
 10
129.6568576064747
 20
-151.2720757000292
 30
0.0
 10
129.6568576064747
 20
-151.2720757000292
 30
0.0
  0
HATCH
  5
147
330
13D
100
AcDbEntity
  8
レイヤー 1
 62
   250
420
  2299925
440
 33554687
100
AcDbHatch
 10
0.0
 20
0.0
 30
0.0
210
0.0
220
0.0
230
1.0
  2
SOLID
 70
     1
 71
     1
 91
        1
 92
        1
 93
        1
 72
     4
 94
        3
 73
     0
 74
     0
 95
       56
 96
       52
 40
0.0
 40
0.0
 40
0.0
 40
0.0
 40
1.0
 40
1.0
 40
1.0
 40
2.0
 40
2.0
 40
2.0
 40
3.0
 40
3.0
 40
3.0
 40
4.0
 40
4.0
 40
4.0
 40
5.0
 40
5.0
 40
5.0
 40
6.0
 40
6.0
 40
6.0
 40
7.0
 40
7.0
 40
7.0
 40
8.0
 40
8.0
 40
8.0
 40
9.0
 40
9.0
 40
9.0
 40
10.0
 40
10.0
 40
10.0
 40
11.0
 40
11.0
 40
11.0
 40
12.0
 40
12.0
 40
12.0
 40
13.0
 40
13.0
 40
13.0
 40
14.0
 40
14.0
 40
14.0
 40
15.0
 40
15.0
 40
15.0
 40
16.0
 40
16.0
 40
16.0
 40
17.0
 40
17.0
 40
17.0
 40
17.0
 10
129.6568576064747
 20
-151.2720757000292
 10
129.4883924372459
 20
-150.9630506350023
 10
129.2627386829621
 20
-150.7577229440814
 10
129.1828124677043
 20
-150.6922661298616
 10
128.9254638349561
 20
-151.0309190160617
 10
128.6719048072417
 20
-151.1831922365098
 10
128.4979274852366
 20
-151.2762098146115
 10
128.4979274852366
 20
-151.2762098146115
 10
128.3587456276325
 20
-151.0877630915683
 10
128.3587456276325
 20
-151.0877630915683
 10
128.4496961484431
 20
-151.0519340985217
 10
128.6367648332922
 20
-150.9757974882977
 10
128.8403699764705
 20
-150.7897623320942
 10
129.0718803930792
 20
-150.5778889597513
 10
129.2348334095315
 20
-150.290223486733
 10
129.3423203886713
 20
-149.9774088166723
 10
129.3423203886713
 20
-149.9774088166723
 10
129.0126247507329
 20
-149.9774088166723
 10
129.0126247507329
 20
-149.9774088166723
 10
128.8792995554538
 20
-149.9774088166723
 10
128.6960204756385
 20
-149.9815429312546
 10
128.5644178281019
 20
-150.0004909564235
 10
128.5644178281019
 20
-150.0004909564235
 10
128.5644178281019
 20
-149.7889620936291
 10
128.5644178281019
 20
-149.7889620936291
 10
128.6236734704482
 20
-149.7951632655026
 10
128.8513942820233
 20
-149.8058430615069
 10
128.9275308922473
 20
-149.8058430615069
 10
128.9275308922473
 20
-149.8058430615069
 10
129.199693435582
 20
-149.8058430615069
 10
129.199693435582
 20
-149.8058430615069
 10
129.3812499676547
 20
-149.8058430615069
 10
129.4015760310176
 20
-149.7996418896334
 10
129.4219020943806
 20
-149.7951632655026
 10
129.4608316733639
 20
-149.7889620936291
 10
129.4939045900223
 20
-149.7634683870383
 10
129.5125081056427
 20
-149.7465874191606
 10
129.5125081056427
 20
-149.7465874191606
 10
129.6496229059556
 20
-149.9202202316172
 10
129.6496229059556
 20
-149.9202202316172
 10
129.6144829320061
 20
-149.9477809954991
 10
129.6031141169047
 20
-149.9581162819549
 10
129.5607394424362
 20
-149.99428978455
 10
129.44774031052
 20
-150.241647640391
 10
129.3774603626209
 20
-150.3918538035479
 10
129.2865098418103
 20
-150.5379258521224
 10
129.5607394424362
 20
-150.7556558867903
 10
129.7605549805807
 20
-151.0412543025174
 10
129.8070637696316
 20
-151.1194579700326
 10
129.8070637696316
 20
-151.1194579700326
 10
129.6568576064747
 20
-151.2720757000292
 10
129.6568576064747
 20
-151.2720757000292
 97
        0
 97
        1
330
146
 75
     2
 76
     1
 98
        1
 10
0.0
 20
0.0
450
        0
451
        0
460
0.0
461
0.0
452
        0
462
0.0
453
        0
470

  0
SPLINE
  5
148
330
13D
100
AcDbEntity
  8
レイヤー 1
100
AcDbSpline
210
0.0
220
0.0
230
1.0
 70
    11
 71
     3
 72
    17
 73
    13
 74
     0
 42
0.0000000001
 43
0.0000000001
 40
0.0
 40
0.0
 40
0.0
 40
0.0
 40
1.0
 40
1.0
 40
1.0
 40
2.0
 40
2.0
 40
2.0
 40
3.0
 40
3.0
 40
3.0
 40
4.0
 40
4.0
 40
4.0
 40
4.0
 10
131.3053357961667
 20
-150.2947021108638
 30
0.0
 10
131.3053357961667
 20
-150.2947021108638
 30
0.0
 10
130.9036376625866
 20
-150.2947021108638
 30
0.0
 10
130.9036376625866
 20
-150.2947021108638
 30
0.0
 10
130.9036376625866
 20
-150.2947021108638
 30
0.0
 10
130.9036376625866
 20
-150.6033826663422
 30
0.0
 10
130.9036376625866
 20
-150.6033826663422
 30
0.0
 10
130.9036376625866
 20
-150.6033826663422
 30
0.0
 10
131.3053357961667
 20
-150.6033826663422
 30
0.0
 10
131.3053357961667
 20
-150.6033826663422
 30
0.0
 10
131.3053357961667
 20
-150.6033826663422
 30
0.0
 10
131.3053357961667
 20
-150.2947021108638
 30
0.0
 10
131.3053357961667
 20
-150.2947021108638
 30
0.0
  0
SPLINE
  5
149
330
13D
100
AcDbEntity
  8
レイヤー 1
100
AcDbSpline
210
0.0
220
0.0
230
1.0
 70
    11
 71
     3
 72
    17
 73
    13
 74
     0
 42
0.0000000001
 43
0.0000000001
 40
0.0
 40
0.0
 40
0.0
 40
0.0
 40
1.0
 40
1.0
 40
1.0
 40
2.0
 40
2.0
 40
2.0
 40
3.0
 40
3.0
 40
3.0
 40
4.0
 40
4.0
 40
4.0
 40
4.0
 10
131.3053357961667
 20
-149.8227240293846
 30
0.0
 10
131.3053357961667
 20
-149.8227240293846
 30
0.0
 10
130.9036376625866
 20
-149.8227240293846
 30
0.0
 10
130.9036376625866
 20
-149.8227240293846
 30
0.0
 10
130.9036376625866
 20
-149.8227240293846
 30
0.0
 10
130.9036376625866
 20
-150.1272704702806
 30
0.0
 10
130.9036376625866
 20
-150.1272704702806
 30
0.0
 10
130.9036376625866
 20
-150.1272704702806
 30
0.0
 10
131.3053357961667
 20
-150.1272704702806
 30
0.0
 10
131.3053357961667
 20
-150.1272704702806
 30
0.0
 10
131.3053357961667
 20
-150.1272704702806
 30
0.0
 10
131.3053357961667
 20
-149.8227240293846
 30
0.0
 10
131.3053357961667
 20
-149.8227240293846
 30
0.0
  0
SPLINE
  5
14A
330
13D
100
AcDbEntity
  8
レイヤー 1
100
AcDbSpline
210
0.0
220
0.0
230
1.0
 70
    11
 71
     3
 72
    17
 73
    13
 74
     0
 42
0.0000000001
 43
0.0000000001
 40
0.0
 40
0.0
 40
0.0
 40
0.0
 40
1.0
 40
1.0
 40
1.0
 40
2.0
 40
2.0
 40
2.0
 40
3.0
 40
3.0
 40
3.0
 40
4.0
 40
4.0
 40
4.0
 40
4.0
 10
130.7368950411005
 20
-150.2947021108638
 30
0.0
 10
130.7368950411005
 20
-150.2947021108638
 30
0.0
 10
130.3534559135922
 20
-150.2947021108638
 30
0.0
 10
130.3534559135922
 20
-150.2947021108638
 30
0.0
 10
130.3534559135922
 20
-150.2947021108638
 30
0.0
 10
130.3534559135922
 20
-150.6033826663422
 30
0.0
 10
130.3534559135922
 20
-150.6033826663422
 30
0.0
 10
130.3534559135922
 20
-150.6033826663422
 30
0.0
 10
130.7368950411005
 20
-150.6033826663422
 30
0.0
 10
130.7368950411005
 20
-150.6033826663422
 30
0.0
 10
130.7368950411005
 20
-150.6033826663422
 30
0.0
 10
130.7368950411005
 20
-150.2947021108638
 30
0.0
 10
130.7368950411005
 20
-150.2947021108638
 30
0.0
  0
SPLINE
  5
14B
330
13D
100
AcDbEntity
  8
レイヤー 1
100
AcDbSpline
210
0.0
220
0.0
230
1.0
 70
    11
 71
     3
 72
    17
 73
    13
 74
     0
 42
0.0000000001
 43
0.0000000001
 40
0.0
 40
0.0
 40
0.0
 40
0.0
 40
1.0
 40
1.0
 40
1.0
 40
2.0
 40
2.0
 40
2.0
 40
3.0
 40
3.0
 40
3.0
 40
4.0
 40
4.0
 40
4.0
 40
4.0
 10
130.7368950411005
 20
-149.8227240293846
 30
0.0
 10
130.7368950411005
 20
-149.8227240293846
 30
0.0
 10
130.3534559135922
 20
-149.8227240293846
 30
0.0
 10
130.3534559135922
 20
-149.8227240293846
 30
0.0
 10
130.3534559135922
 20
-149.8227240293846
 30
0.0
 10
130.3534559135922
 20
-150.1272704702806
 30
0.0
 10
130.3534559135922
 20
-150.1272704702806
 30
0.0
 10
130.3534559135922
 20
-150.1272704702806
 30
0.0
 10
130.7368950411005
 20
-150.1272704702806
 30
0.0
 10
130.7368950411005
 20
-150.1272704702806
 30
0.0
 10
130.7368950411005
 20
-150.1272704702806
 30
0.0
 10
130.7368950411005
 20
-149.8227240293846
 30
0.0
 10
130.7368950411005
 20
-149.8227240293846
 30
0.0
  0
SPLINE
  5
14C
330
13D
100
AcDbEntity
  8
レイヤー 1
100
AcDbSpline
210
0.0
220
0.0
230
1.0
 70
     9
 71
     3
 72
    77
 73
    73
 74
     0
 42
0.0000000001
 43
0.0000000001
 40
0.0
 40
0.0
 40
0.0
 40
0.0
 40
1.0
 40
1.0
 40
1.0
 40
2.0
 40
2.0
 40
2.0
 40
3.0
 40
3.0
 40
3.0
 40
4.0
 40
4.0
 40
4.0
 40
5.0
 40
5.0
 40
5.0
 40
6.0
 40
6.0
 40
6.0
 40
7.0
 40
7.0
 40
7.0
 40
8.0
 40
8.0
 40
8.0
 40
9.0
 40
9.0
 40
9.0
 40
10.0
 40
10.0
 40
10.0
 40
11.0
 40
11.0
 40
11.0
 40
12.0
 40
12.0
 40
12.0
 40
13.0
 40
13.0
 40
13.0
 40
14.0
 40
14.0
 40
14.0
 40
15.0
 40
15.0
 40
15.0
 40
16.0
 40
16.0
 40
16.0
 40
17.0
 40
17.0
 40
17.0
 40
18.0
 40
18.0
 40
18.0
 40
19.0
 40
19.0
 40
19.0
 40
20.0
 40
20.0
 40
20.0
 40
21.0
 40
21.0
 40
21.0
 40
22.0
 40
22.0
 40
22.0
 40
23.0
 40
23.0
 40
23.0
 40
24.0
 40
24.0
 40
24.0
 40
24.0
 10
131.4238470808593
 20
-151.4095350098906
 30
0.0
 10
131.3831949541334
 20
-151.434684206933
 30
0.0
 10
131.2739854272509
 20
-151.4474310602284
 30
0.0
 10
131.2054280270945
 20
-151.4474310602284
 30
0.0
 10
131.1940592119931
 20
-151.4474310602284
 30
0.0
 10
131.1720106008875
 20
-151.4474310602284
 30
0.0
 10
131.1423827797144
 20
-151.4432969456461
 30
0.0
 10
131.1423827797144
 20
-151.4432969456461
 30
0.0
 10
131.0572889212287
 20
-151.2169541722652
 30
0.0
 10
131.0572889212287
 20
-151.2169541722652
 30
0.0
 10
131.0831271373681
 20
-151.2231553441386
 30
0.0
 10
131.1330810219042
 20
-151.2317680828518
 30
0.0
 10
131.2350558482676
 20
-151.2317680828518
 30
0.0
 10
131.3036132484241
 20
-151.2317680828518
 30
0.0
 10
131.3053357961667
 20
-151.1893934083832
 30
0.0
 10
131.3053357961667
 20
-151.1322048233281
 30
0.0
 10
131.3053357961667
 20
-151.1322048233281
 30
0.0
 10
131.3053357961667
 20
-150.7832166506722
 30
0.0
 10
131.3053357961667
 20
-150.7832166506722
 30
0.0
 10
131.3053357961667
 20
-150.7832166506722
 30
0.0
 10
130.9036376625866
 20
-150.7832166506722
 30
0.0
 10
130.9036376625866
 20
-150.7832166506722
 30
0.0
 10
130.9053602103292
 20
-150.9206759605337
 30
0.0
 10
130.9070827580718
 20
-151.1194579700326
 30
0.0
 10
130.9129394203968
 20
-151.2527831653118
 30
0.0
 10
130.9146619681394
 20
-151.2803439291938
 30
0.0
 10
130.9146619681394
 20
-151.3247856609535
 30
0.0
 10
130.9256862736922
 20
-151.386108360591
 30
0.0
 10
130.9256862736922
 20
-151.386108360591
 30
0.0
 10
130.7145019204464
 20
-151.386108360591
 30
0.0
 10
130.7145019204464
 20
-151.386108360591
 30
0.0
 10
130.7368950411005
 20
-151.2613959040249
 30
0.0
 10
130.7368950411005
 20
-150.9206759605337
 30
0.0
 10
130.7368950411005
 20
-150.7832166506722
 30
0.0
 10
130.7368950411005
 20
-150.7832166506722
 30
0.0
 10
130.3500108181069
 20
-150.7832166506722
 30
0.0
 10
130.3500108181069
 20
-150.7832166506722
 30
0.0
 10
130.3293402451954
 20
-150.9906113988843
 30
0.0
 10
130.2721516601403
 20
-151.2593288467338
 30
0.0
 10
130.0998968858778
 20
-151.4432969456461
 30
0.0
 10
130.0998968858778
 20
-151.4432969456461
 30
0.0
 10
129.9352213216828
 20
-151.3206515463712
 30
0.0
 10
129.9352213216828
 20
-151.3206515463712
 30
0.0
 10
130.1570854709329
 20
-151.1005099448637
 30
0.0
 10
130.1849907443635
 20
-150.7684027400857
 30
0.0
 10
130.1849907443635
 20
-150.4362955353076
 30
0.0
 10
130.1849907443635
 20
-150.4362955353076
 30
0.0
 10
130.1849907443635
 20
-150.0004909564235
 30
0.0
 10
130.1849907443635
 20
-150.0004909564235
 30
0.0
 10
130.1849907443635
 20
-149.9646619633769
 30
0.0
 10
130.1832681966208
 20
-149.731773508574
 30
0.0
 10
130.1756889865533
 20
-149.6301431917591
 30
0.0
 10
130.2979898762796
 20
-149.6408229877634
 30
0.0
 10
130.5091742295255
 20
-149.6408229877634
 30
0.0
 10
130.6349202147371
 20
-149.6408229877634
 30
0.0
 10
130.6349202147371
 20
-149.6408229877634
 30
0.0
 10
131.0369628578657
 20
-149.6408229877634
 30
0.0
 10
131.0369628578657
 20
-149.6408229877634
 30
0.0
 10
131.0497097111612
 20
-149.6408229877634
 30
0.0
 10
131.3552896807028
 20
-149.6408229877634
 30
0.0
 10
131.4941270287584
 20
-149.6301431917591
 30
0.0
 10
131.4924044810158
 20
-149.6831976622319
 30
0.0
 10
131.4868923282394
 20
-149.8440836213931
 30
0.0
 10
131.4868923282394
 20
-149.8947265250263
 30
0.0
 10
131.4868923282394
 20
-149.8947265250263
 30
0.0
 10
131.4868923282394
 20
-150.5017523495273
 30
0.0
 10
131.4868923282394
 20
-150.5017523495273
 30
0.0
 10
131.4868923282394
 20
-150.5210448842447
 30
0.0
 10
131.4961940860496
 20
-151.0922417156991
 30
0.0
 10
131.4961940860496
 20
-151.2042073189698
 30
0.0
 10
131.4961940860496
 20
-151.2613959040249
 30
0.0
 10
131.4961940860496
 20
-151.3630262208398
 30
0.0
 10
131.4238470808593
 20
-151.4095350098906
 30
0.0
  0
HATCH
  5
14D
330
13D
100
AcDbEntity
  8
レイヤー 1
 62
   250
420
  2299925
440
 33554687
100
AcDbHatch
 10
0.0
 20
0.0
 30
0.0
210
0.0
220
0.0
230
1.0
  2
SOLID
 70
     1
 71
     1
 91
        5
 92
        1
 93
        1
 72
     4
 94
        3
 73
     0
 74
     0
 95
       17
 96
       13
 40
0.0
 40
0.0
 40
0.0
 40
0.0
 40
1.0
 40
1.0
 40
1.0
 40
2.0
 40
2.0
 40
2.0
 40
3.0
 40
3.0
 40
3.0
 40
4.0
 40
4.0
 40
4.0
 40
4.0
 10
131.3053357961667
 20
-150.2947021108638
 10
131.3053357961667
 20
-150.2947021108638
 10
130.9036376625866
 20
-150.2947021108638
 10
130.9036376625866
 20
-150.2947021108638
 10
130.9036376625866
 20
-150.2947021108638
 10
130.9036376625866
 20
-150.6033826663422
 10
130.9036376625866
 20
-150.6033826663422
 10
130.9036376625866
 20
-150.6033826663422
 10
131.3053357961667
 20
-150.6033826663422
 10
131.3053357961667
 20
-150.6033826663422
 10
131.3053357961667
 20
-150.6033826663422
 10
131.3053357961667
 20
-150.2947021108638
 10
131.3053357961667
 20
-150.2947021108638
 97
        0
 97
        1
330
148
 92
        1
 93
        1
 72
     4
 94
        3
 73
     0
 74
     0
 95
       17
 96
       13
 40
0.0
 40
0.0
 40
0.0
 40
0.0
 40
1.0
 40
1.0
 40
1.0
 40
2.0
 40
2.0
 40
2.0
 40
3.0
 40
3.0
 40
3.0
 40
4.0
 40
4.0
 40
4.0
 40
4.0
 10
131.3053357961667
 20
-149.8227240293846
 10
131.3053357961667
 20
-149.8227240293846
 10
130.9036376625866
 20
-149.8227240293846
 10
130.9036376625866
 20
-149.8227240293846
 10
130.9036376625866
 20
-149.8227240293846
 10
130.9036376625866
 20
-150.1272704702806
 10
130.9036376625866
 20
-150.1272704702806
 10
130.9036376625866
 20
-150.1272704702806
 10
131.3053357961667
 20
-150.1272704702806
 10
131.3053357961667
 20
-150.1272704702806
 10
131.3053357961667
 20
-150.1272704702806
 10
131.3053357961667
 20
-149.8227240293846
 10
131.3053357961667
 20
-149.8227240293846
 97
        0
 97
        1
330
149
 92
        1
 93
        1
 72
     4
 94
        3
 73
     0
 74
     0
 95
       17
 96
       13
 40
0.0
 40
0.0
 40
0.0
 40
0.0
 40
1.0
 40
1.0
 40
1.0
 40
2.0
 40
2.0
 40
2.0
 40
3.0
 40
3.0
 40
3.0
 40
4.0
 40
4.0
 40
4.0
 40
4.0
 10
130.7368950411005
 20
-150.2947021108638
 10
130.7368950411005
 20
-150.2947021108638
 10
130.3534559135922
 20
-150.2947021108638
 10
130.3534559135922
 20
-150.2947021108638
 10
130.3534559135922
 20
-150.2947021108638
 10
130.3534559135922
 20
-150.6033826663422
 10
130.3534559135922
 20
-150.6033826663422
 10
130.3534559135922
 20
-150.6033826663422
 10
130.7368950411005
 20
-150.6033826663422
 10
130.7368950411005
 20
-150.6033826663422
 10
130.7368950411005
 20
-150.6033826663422
 10
130.7368950411005
 20
-150.2947021108638
 10
130.7368950411005
 20
-150.2947021108638
 97
        0
 97
        1
330
14A
 92
        1
 93
        1
 72
     4
 94
        3
 73
     0
 74
     0
 95
       17
 96
       13
 40
0.0
 40
0.0
 40
0.0
 40
0.0
 40
1.0
 40
1.0
 40
1.0
 40
2.0
 40
2.0
 40
2.0
 40
3.0
 40
3.0
 40
3.0
 40
4.0
 40
4.0
 40
4.0
 40
4.0
 10
130.7368950411005
 20
-149.8227240293846
 10
130.7368950411005
 20
-149.8227240293846
 10
130.3534559135922
 20
-149.8227240293846
 10
130.3534559135922
 20
-149.8227240293846
 10
130.3534559135922
 20
-149.8227240293846
 10
130.3534559135922
 20
-150.1272704702806
 10
130.3534559135922
 20
-150.1272704702806
 10
130.3534559135922
 20
-150.1272704702806
 10
130.7368950411005
 20
-150.1272704702806
 10
130.7368950411005
 20
-150.1272704702806
 10
130.7368950411005
 20
-150.1272704702806
 10
130.7368950411005
 20
-149.8227240293846
 10
130.7368950411005
 20
-149.8227240293846
 97
        0
 97
        1
330
14B
 92
        1
 93
        1
 72
     4
 94
        3
 73
     0
 74
     0
 95
       77
 96
       73
 40
0.0
 40
0.0
 40
0.0
 40
0.0
 40
1.0
 40
1.0
 40
1.0
 40
2.0
 40
2.0
 40
2.0
 40
3.0
 40
3.0
 40
3.0
 40
4.0
 40
4.0
 40
4.0
 40
5.0
 40
5.0
 40
5.0
 40
6.0
 40
6.0
 40
6.0
 40
7.0
 40
7.0
 40
7.0
 40
8.0
 40
8.0
 40
8.0
 40
9.0
 40
9.0
 40
9.0
 40
10.0
 40
10.0
 40
10.0
 40
11.0
 40
11.0
 40
11.0
 40
12.0
 40
12.0
 40
12.0
 40
13.0
 40
13.0
 40
13.0
 40
14.0
 40
14.0
 40
14.0
 40
15.0
 40
15.0
 40
15.0
 40
16.0
 40
16.0
 40
16.0
 40
17.0
 40
17.0
 40
17.0
 40
18.0
 40
18.0
 40
18.0
 40
19.0
 40
19.0
 40
19.0
 40
20.0
 40
20.0
 40
20.0
 40
21.0
 40
21.0
 40
21.0
 40
22.0
 40
22.0
 40
22.0
 40
23.0
 40
23.0
 40
23.0
 40
24.0
 40
24.0
 40
24.0
 40
24.0
 10
131.4238470808593
 20
-151.4095350098906
 10
131.3831949541334
 20
-151.434684206933
 10
131.2739854272509
 20
-151.4474310602284
 10
131.2054280270945
 20
-151.4474310602284
 10
131.1940592119931
 20
-151.4474310602284
 10
131.1720106008875
 20
-151.4474310602284
 10
131.1423827797144
 20
-151.4432969456461
 10
131.1423827797144
 20
-151.4432969456461
 10
131.0572889212287
 20
-151.2169541722652
 10
131.0572889212287
 20
-151.2169541722652
 10
131.0831271373681
 20
-151.2231553441386
 10
131.1330810219042
 20
-151.2317680828518
 10
131.2350558482676
 20
-151.2317680828518
 10
131.3036132484241
 20
-151.2317680828518
 10
131.3053357961667
 20
-151.1893934083832
 10
131.3053357961667
 20
-151.1322048233281
 10
131.3053357961667
 20
-151.1322048233281
 10
131.3053357961667
 20
-150.7832166506722
 10
131.3053357961667
 20
-150.7832166506722
 10
131.3053357961667
 20
-150.7832166506722
 10
130.9036376625866
 20
-150.7832166506722
 10
130.9036376625866
 20
-150.7832166506722
 10
130.9053602103292
 20
-150.9206759605337
 10
130.9070827580718
 20
-151.1194579700326
 10
130.9129394203968
 20
-151.2527831653118
 10
130.9146619681394
 20
-151.2803439291938
 10
130.9146619681394
 20
-151.3247856609535
 10
130.9256862736922
 20
-151.386108360591
 10
130.9256862736922
 20
-151.386108360591
 10
130.7145019204464
 20
-151.386108360591
 10
130.7145019204464
 20
-151.386108360591
 10
130.7368950411005
 20
-151.2613959040249
 10
130.7368950411005
 20
-150.9206759605337
 10
130.7368950411005
 20
-150.7832166506722
 10
130.7368950411005
 20
-150.7832166506722
 10
130.3500108181069
 20
-150.7832166506722
 10
130.3500108181069
 20
-150.7832166506722
 10
130.3293402451954
 20
-150.9906113988843
 10
130.2721516601403
 20
-151.2593288467338
 10
130.0998968858778
 20
-151.4432969456461
 10
130.0998968858778
 20
-151.4432969456461
 10
129.9352213216828
 20
-151.3206515463712
 10
129.9352213216828
 20
-151.3206515463712
 10
130.1570854709329
 20
-151.1005099448637
 10
130.1849907443635
 20
-150.7684027400857
 10
130.1849907443635
 20
-150.4362955353076
 10
130.1849907443635
 20
-150.4362955353076
 10
130.1849907443635
 20
-150.0004909564235
 10
130.1849907443635
 20
-150.0004909564235
 10
130.1849907443635
 20
-149.9646619633769
 10
130.1832681966208
 20
-149.731773508574
 10
130.1756889865533
 20
-149.6301431917591
 10
130.2979898762796
 20
-149.6408229877634
 10
130.5091742295255
 20
-149.6408229877634
 10
130.6349202147371
 20
-149.6408229877634
 10
130.6349202147371
 20
-149.6408229877634
 10
131.0369628578657
 20
-149.6408229877634
 10
131.0369628578657
 20
-149.6408229877634
 10
131.0497097111612
 20
-149.6408229877634
 10
131.3552896807028
 20
-149.6408229877634
 10
131.4941270287584
 20
-149.6301431917591
 10
131.4924044810158
 20
-149.6831976622319
 10
131.4868923282394
 20
-149.8440836213931
 10
131.4868923282394
 20
-149.8947265250263
 10
131.4868923282394
 20
-149.8947265250263
 10
131.4868923282394
 20
-150.5017523495273
 10
131.4868923282394
 20
-150.5017523495273
 10
131.4868923282394
 20
-150.5210448842447
 10
131.4961940860496
 20
-151.0922417156991
 10
131.4961940860496
 20
-151.2042073189698
 10
131.4961940860496
 20
-151.2613959040249
 10
131.4961940860496
 20
-151.3630262208398
 10
131.4238470808593
 20
-151.4095350098906
 97
        0
 97
        1
330
14C
 75
     2
 76
     1
 98
        1
 10
0.0
 20
0.0
450
        0
451
        0
460
0.0
461
0.0
452
        0
462
0.0
453
        0
470

  0
SPLINE
  5
14E
330
13D
100
AcDbEntity
  8
レイヤー 1
100
AcDbSpline
210
0.0
220
0.0
230
1.0
 70
     9
 71
     3
 72
    17
 73
    13
 74
     0
 42
0.0000000001
 43
0.0000000001
 40
0.0
 40
0.0
 40
0.0
 40
0.0
 40
1.0
 40
1.0
 40
1.0
 40
2.0
 40
2.0
 40
2.0
 40
3.0
 40
3.0
 40
3.0
 40
4.0
 40
4.0
 40
4.0
 40
4.0
 10
126.6458441523663
 20
-152.1702120930338
 30
0.0
 10
126.5976128155728
 20
-152.1702120930338
 30
0.0
 10
126.5586832365895
 20
-152.2146538247936
 30
0.0
 10
126.5586832365895
 20
-152.2697753525575
 30
0.0
 10
126.5586832365895
 20
-152.3269639376127
 30
0.0
 10
126.5976128155728
 20
-152.3755397839547
 30
0.0
 10
126.6496337574001
 20
-152.3755397839547
 30
0.0
 10
126.7013101896788
 20
-152.3755397839547
 30
0.0
 10
126.7364501636284
 20
-152.3248968803216
 30
0.0
 10
126.7364501636284
 20
-152.2718424098487
 30
0.0
 10
126.7364501636284
 20
-152.2146538247936
 30
0.0
 10
126.6957980369024
 20
-152.1702120930338
 30
0.0
 10
126.6458441523663
 20
-152.1702120930338
 30
0.0
  0
SPLINE
  5
14F
330
13D
100
AcDbEntity
  8
レイヤー 1
100
AcDbSpline
210
0.0
220
0.0
230
1.0
 70
     9
 71
     3
 72
    17
 73
    13
 74
     0
 42
0.0000000001
 43
0.0000000001
 40
0.0
 40
0.0
 40
0.0
 40
0.0
 40
1.0
 40
1.0
 40
1.0
 40
2.0
 40
2.0
 40
2.0
 40
3.0
 40
3.0
 40
3.0
 40
4.0
 40
4.0
 40
4.0
 40
4.0
 10
126.6475667001089
 20
-152.5002522405207
 30
0.0
 10
126.5366346254839
 20
-152.5002522405207
 30
0.0
 10
126.4477511619644
 20
-152.3989664332544
 30
0.0
 10
126.4477511619644
 20
-152.2718424098487
 30
0.0
 10
126.4477511619644
 20
-152.1450628959915
 30
0.0
 10
126.5366346254839
 20
-152.0413655218855
 30
0.0
 10
126.6475667001089
 20
-152.0413655218855
 30
0.0
 10
126.7588432842825
 20
-152.0413655218855
 30
0.0
 10
126.8494492955446
 20
-152.1450628959915
 30
0.0
 10
126.8494492955446
 20
-152.2718424098487
 30
0.0
 10
126.8494492955446
 20
-152.3989664332544
 30
0.0
 10
126.7588432842825
 20
-152.5002522405207
 30
0.0
 10
126.6475667001089
 20
-152.5002522405207
 30
0.0
  0
SPLINE
  5
150
330
13D
100
AcDbEntity
  8
レイヤー 1
100
AcDbSpline
210
0.0
220
0.0
230
1.0
 70
     9
 71
     3
 72
    44
 73
    40
 74
     0
 42
0.0000000001
 43
0.0000000001
 40
0.0
 40
0.0
 40
0.0
 40
0.0
 40
1.0
 40
1.0
 40
1.0
 40
2.0
 40
2.0
 40
2.0
 40
3.0
 40
3.0
 40
3.0
 40
4.0
 40
4.0
 40
4.0
 40
5.0
 40
5.0
 40
5.0
 40
6.0
 40
6.0
 40
6.0
 40
7.0
 40
7.0
 40
7.0
 40
8.0
 40
8.0
 40
8.0
 40
9.0
 40
9.0
 40
9.0
 40
10.0
 40
10.0
 40
10.0
 40
11.0
 40
11.0
 40
11.0
 40
12.0
 40
12.0
 40
12.0
 40
13.0
 40
13.0
 40
13.0
 40
13.0
 10
126.4642876202936
 20
-152.6993787595682
 30
0.0
 10
126.366102398964
 20
-153.0673149573929
 30
0.0
 10
126.3216606672043
 20
-153.2261338592629
 30
0.0
 10
126.1494058929418
 20
-153.475558772395
 30
0.0
 10
125.9885199337806
 20
-153.7063801699067
 30
0.0
 10
125.7811251855686
 20
-153.8924153261102
 30
0.0
 10
125.5365234061158
 20
-153.985432904212
 30
0.0
 10
125.5365234061158
 20
-153.985432904212
 30
0.0
 10
125.3680582368871
 20
-153.8055989198819
 30
0.0
 10
125.3680582368871
 20
-153.8055989198819
 30
0.0
 10
125.9292642914343
 20
-153.6533256994339
 30
0.0
 10
126.2179632930983
 20
-153.096942778566
 30
0.0
 10
126.2737738399593
 20
-152.6570040850996
 30
0.0
 10
126.2737738399593
 20
-152.6570040850996
 30
0.0
 10
125.6033582585297
 20
-152.6570040850996
 30
0.0
 10
125.6033582585297
 20
-152.6570040850996
 30
0.0
 10
125.5217094955293
 20
-152.6570040850996
 30
0.0
 10
125.3608235363681
 20
-152.6611381996819
 30
0.0
 10
125.2237087360552
 20
-152.6800862248508
 30
0.0
 10
125.2237087360552
 20
-152.6800862248508
 30
0.0
 10
125.2237087360552
 20
-152.4602891328919
 30
0.0
 10
125.2237087360552
 20
-152.4602891328919
 30
0.0
 10
125.2995008367307
 20
-152.4813042153519
 30
0.0
 10
125.5199869477866
 20
-152.4813042153519
 30
0.0
 10
125.6068033540149
 20
-152.4813042153519
 30
0.0
 10
125.6068033540149
 20
-152.4813042153519
 30
0.0
 10
125.9847303287469
 20
-152.4813042153519
 30
0.0
 10
125.9847303287469
 20
-152.4813042153519
 30
0.0
 10
126.021592850439
 20
-152.4813042153519
 30
0.0
 10
126.2272650509084
 20
-152.4792371580607
 30
0.0
 10
126.2606824771154
 20
-152.4730359861873
 30
0.0
 10
126.2975449988075
 20
-152.4664903047653
 30
0.0
 10
126.2996120560987
 20
-152.4644232474742
 30
0.0
 10
126.3533555456686
 20
-152.4241156302967
 30
0.0
 10
126.3533555456686
 20
-152.4241156302967
 30
0.0
 10
126.5180311098635
 20
-152.5788004175844
 30
0.0
 10
126.5180311098635
 20
-152.5788004175844
 30
0.0
 10
126.4921928937241
 20
-152.6084282387576
 30
0.0
 10
126.4791015308802
 20
-152.6401231172219
 30
0.0
 10
126.4642876202936
 20
-152.6993787595682
 30
0.0
  0
HATCH
  5
151
330
13D
100
AcDbEntity
  8
レイヤー 1
 62
   250
420
  2299925
440
 33554687
100
AcDbHatch
 10
0.0
 20
0.0
 30
0.0
210
0.0
220
0.0
230
1.0
  2
SOLID
 70
     1
 71
     1
 91
        3
 92
        1
 93
        1
 72
     4
 94
        3
 73
     0
 74
     0
 95
       17
 96
       13
 40
0.0
 40
0.0
 40
0.0
 40
0.0
 40
1.0
 40
1.0
 40
1.0
 40
2.0
 40
2.0
 40
2.0
 40
3.0
 40
3.0
 40
3.0
 40
4.0
 40
4.0
 40
4.0
 40
4.0
 10
126.6458441523663
 20
-152.1702120930338
 10
126.5976128155728
 20
-152.1702120930338
 10
126.5586832365895
 20
-152.2146538247936
 10
126.5586832365895
 20
-152.2697753525575
 10
126.5586832365895
 20
-152.3269639376127
 10
126.5976128155728
 20
-152.3755397839547
 10
126.6496337574001
 20
-152.3755397839547
 10
126.7013101896788
 20
-152.3755397839547
 10
126.7364501636284
 20
-152.3248968803216
 10
126.7364501636284
 20
-152.2718424098487
 10
126.7364501636284
 20
-152.2146538247936
 10
126.6957980369024
 20
-152.1702120930338
 10
126.6458441523663
 20
-152.1702120930338
 97
        0
 97
        1
330
14E
 92
        1
 93
        1
 72
     4
 94
        3
 73
     0
 74
     0
 95
       17
 96
       13
 40
0.0
 40
0.0
 40
0.0
 40
0.0
 40
1.0
 40
1.0
 40
1.0
 40
2.0
 40
2.0
 40
2.0
 40
3.0
 40
3.0
 40
3.0
 40
4.0
 40
4.0
 40
4.0
 40
4.0
 10
126.6475667001089
 20
-152.5002522405207
 10
126.5366346254839
 20
-152.5002522405207
 10
126.4477511619644
 20
-152.3989664332544
 10
126.4477511619644
 20
-152.2718424098487
 10
126.4477511619644
 20
-152.1450628959915
 10
126.5366346254839
 20
-152.0413655218855
 10
126.6475667001089
 20
-152.0413655218855
 10
126.7588432842825
 20
-152.0413655218855
 10
126.8494492955446
 20
-152.1450628959915
 10
126.8494492955446
 20
-152.2718424098487
 10
126.8494492955446
 20
-152.3989664332544
 10
126.7588432842825
 20
-152.5002522405207
 10
126.6475667001089
 20
-152.5002522405207
 97
        0
 97
        1
330
14F
 92
        1
 93
        1
 72
     4
 94
        3
 73
     0
 74
     0
 95
       44
 96
       40
 40
0.0
 40
0.0
 40
0.0
 40
0.0
 40
1.0
 40
1.0
 40
1.0
 40
2.0
 40
2.0
 40
2.0
 40
3.0
 40
3.0
 40
3.0
 40
4.0
 40
4.0
 40
4.0
 40
5.0
 40
5.0
 40
5.0
 40
6.0
 40
6.0
 40
6.0
 40
7.0
 40
7.0
 40
7.0
 40
8.0
 40
8.0
 40
8.0
 40
9.0
 40
9.0
 40
9.0
 40
10.0
 40
10.0
 40
10.0
 40
11.0
 40
11.0
 40
11.0
 40
12.0
 40
12.0
 40
12.0
 40
13.0
 40
13.0
 40
13.0
 40
13.0
 10
126.4642876202936
 20
-152.6993787595682
 10
126.366102398964
 20
-153.0673149573929
 10
126.3216606672043
 20
-153.2261338592629
 10
126.1494058929418
 20
-153.475558772395
 10
125.9885199337806
 20
-153.7063801699067
 10
125.7811251855686
 20
-153.8924153261102
 10
125.5365234061158
 20
-153.985432904212
 10
125.5365234061158
 20
-153.985432904212
 10
125.3680582368871
 20
-153.8055989198819
 10
125.3680582368871
 20
-153.8055989198819
 10
125.9292642914343
 20
-153.6533256994339
 10
126.2179632930983
 20
-153.096942778566
 10
126.2737738399593
 20
-152.6570040850996
 10
126.2737738399593
 20
-152.6570040850996
 10
125.6033582585297
 20
-152.6570040850996
 10
125.6033582585297
 20
-152.6570040850996
 10
125.5217094955293
 20
-152.6570040850996
 10
125.3608235363681
 20
-152.6611381996819
 10
125.2237087360552
 20
-152.6800862248508
 10
125.2237087360552
 20
-152.6800862248508
 10
125.2237087360552
 20
-152.4602891328919
 10
125.2237087360552
 20
-152.4602891328919
 10
125.2995008367307
 20
-152.4813042153519
 10
125.5199869477866
 20
-152.4813042153519
 10
125.6068033540149
 20
-152.4813042153519
 10
125.6068033540149
 20
-152.4813042153519
 10
125.9847303287469
 20
-152.4813042153519
 10
125.9847303287469
 20
-152.4813042153519
 10
126.021592850439
 20
-152.4813042153519
 10
126.2272650509084
 20
-152.4792371580607
 10
126.2606824771154
 20
-152.4730359861873
 10
126.2975449988075
 20
-152.4664903047653
 10
126.2996120560987
 20
-152.4644232474742
 10
126.3533555456686
 20
-152.4241156302967
 10
126.3533555456686
 20
-152.4241156302967
 10
126.5180311098635
 20
-152.5788004175844
 10
126.5180311098635
 20
-152.5788004175844
 10
126.4921928937241
 20
-152.6084282387576
 10
126.4791015308802
 20
-152.6401231172219
 10
126.4642876202936
 20
-152.6993787595682
 97
        0
 97
        1
330
150
 75
     2
 76
     1
 98
        1
 10
0.0
 20
0.0
450
        0
451
        0
460
0.0
461
0.0
452
        0
462
0.0
453
        0
470

  0
SPLINE
  5
152
330
13D
100
AcDbEntity
  8
レイヤー 1
100
AcDbSpline
210
0.0
220
0.0
230
1.0
 70
     9
 71
     3
 72
    29
 73
    25
 74
     0
 42
0.0000000001
 43
0.0000000001
 40
0.0
 40
0.0
 40
0.0
 40
0.0
 40
1.0
 40
1.0
 40
1.0
 40
2.0
 40
2.0
 40
2.0
 40
3.0
 40
3.0
 40
3.0
 40
4.0
 40
4.0
 40
4.0
 40
5.0
 40
5.0
 40
5.0
 40
6.0
 40
6.0
 40
6.0
 40
7.0
 40
7.0
 40
7.0
 40
8.0
 40
8.0
 40
8.0
 40
8.0
 10
127.7885823248237
 20
-152.3820854653767
 30
0.0
 10
127.7885823248237
 20
-152.3820854653767
 30
0.0
 10
127.4905815653496
 20
-152.3820854653767
 30
0.0
 10
127.4905815653496
 20
-152.3820854653767
 30
0.0
 10
127.3906737962773
 20
-152.3820854653767
 30
0.0
 10
127.2886989699139
 20
-152.386219579959
 30
0.0
 10
127.1887912008417
 20
-152.4010334905456
 30
0.0
 10
127.1887912008417
 20
-152.4010334905456
 30
0.0
 10
127.1887912008417
 20
-152.1915716850424
 30
0.0
 10
127.1887912008417
 20
-152.1915716850424
 30
0.0
 10
127.2924885749477
 20
-152.206385595629
 30
0.0
 10
127.4444172858472
 20
-152.2105197102112
 30
0.0
 10
127.4905815653496
 20
-152.2105197102112
 30
0.0
 10
127.4905815653496
 20
-152.2105197102112
 30
0.0
 10
127.7885823248237
 20
-152.2105197102112
 30
0.0
 10
127.7885823248237
 20
-152.2105197102112
 30
0.0
 10
127.8905571511871
 20
-152.2105197102112
 30
0.0
 10
127.9921874680019
 20
-152.206385595629
 30
0.0
 10
128.0941622943653
 20
-152.1915716850424
 30
0.0
 10
128.0941622943653
 20
-152.1915716850424
 30
0.0
 10
128.0941622943653
 20
-152.4010334905456
 30
0.0
 10
128.0941622943653
 20
-152.4010334905456
 30
0.0
 10
127.9625596468288
 20
-152.3820854653767
 30
0.0
 10
127.8016736876676
 20
-152.3820854653767
 30
0.0
 10
127.7885823248237
 20
-152.3820854653767
 30
0.0
  0
SPLINE
  5
153
330
13D
100
AcDbEntity
  8
レイヤー 1
100
AcDbSpline
210
0.0
220
0.0
230
1.0
 70
     9
 71
     3
 72
    50
 73
    46
 74
     0
 42
0.0000000001
 43
0.0000000001
 40
0.0
 40
0.0
 40
0.0
 40
0.0
 40
1.0
 40
1.0
 40
1.0
 40
2.0
 40
2.0
 40
2.0
 40
3.0
 40
3.0
 40
3.0
 40
4.0
 40
4.0
 40
4.0
 40
5.0
 40
5.0
 40
5.0
 40
6.0
 40
6.0
 40
6.0
 40
7.0
 40
7.0
 40
7.0
 40
8.0
 40
8.0
 40
8.0
 40
9.0
 40
9.0
 40
9.0
 40
10.0
 40
10.0
 40
10.0
 40
11.0
 40
11.0
 40
11.0
 40
12.0
 40
12.0
 40
12.0
 40
13.0
 40
13.0
 40
13.0
 40
14.0
 40
14.0
 40
14.0
 40
15.0
 40
15.0
 40
15.0
 40
15.0
 10
128.2202527891255
 20
-153.0080593150466
 30
0.0
 10
128.151695388969
 20
-153.1858262420854
 30
0.0
 10
128.0331841042764
 20
-153.3932209902975
 30
0.0
 10
127.9126057622927
 20
-153.5327473574501
 30
0.0
 10
127.7644666564269
 20
-153.703968603067
 30
0.0
 10
127.6221842128861
 20
-153.7928520665865
 30
0.0
 10
127.3424424594838
 20
-153.9347900005788
 30
0.0
 10
127.3424424594838
 20
-153.9347900005788
 30
0.0
 10
127.1943033536181
 20
-153.7463432775356
 30
0.0
 10
127.1943033536181
 20
-153.7463432775356
 30
0.0
 10
127.3572563700704
 20
-153.7232611377844
 30
0.0
 10
127.5071180236788
 20
-153.6364447315562
 30
0.0
 10
127.6404432189579
 20
-153.530680300159
 30
0.0
 10
127.8702310878241
 20
-153.3487792585378
 30
0.0
 10
128.0369737093102
 20
-153.0356200789286
 30
0.0
 10
128.0793483837788
 20
-152.8537190373074
 30
0.0
 10
128.0793483837788
 20
-152.8537190373074
 30
0.0
 10
127.4923041130922
 20
-152.8537190373074
 30
0.0
 10
127.4923041130922
 20
-152.8537190373074
 30
0.0
 10
127.3534667650366
 20
-152.8537190373074
 30
0.0
 10
127.0978406800311
 20
-152.861987266472
 30
0.0
 10
126.9645154847519
 20
-152.8792127438982
 30
0.0
 10
126.9645154847519
 20
-152.8792127438982
 30
0.0
 10
126.9645154847519
 20
-152.6504584036777
 30
0.0
 10
126.9645154847519
 20
-152.6504584036777
 30
0.0
 10
126.9941433059251
 20
-152.6570040850996
 30
0.0
 10
127.0165364265792
 20
-152.6632052569731
 30
0.0
 10
127.0627007060815
 20
-152.6673393715554
 30
0.0
 10
127.151584169601
 20
-152.6738850529773
 30
0.0
 10
127.3238389438635
 20
-152.6759521102685
 30
0.0
 10
127.3979084967963
 20
-152.6759521102685
 30
0.0
 10
127.3979084967963
 20
-152.6759521102685
 30
0.0
 10
127.8406032666509
 20
-152.6759521102685
 30
0.0
 10
127.8406032666509
 20
-152.6759521102685
 30
0.0
 10
127.8998589089972
 20
-152.6759521102685
 30
0.0
 10
128.0276719515
 20
-152.6718179956862
 30
0.0
 10
128.0810709315214
 20
-152.6652723142642
 30
0.0
 10
128.1441161789014
 20
-152.6570040850996
 30
0.0
 10
128.1682318472982
 20
-152.6421901745131
 30
0.0
 10
128.1978596684714
 20
-152.6187635252133
 30
0.0
 10
128.1978596684714
 20
-152.6187635252133
 30
0.0
 10
128.3422091693033
 20
-152.785850656248
 30
0.0
 10
128.3422091693033
 20
-152.785850656248
 30
0.0
 10
128.2812309792144
 20
-152.8537190373074
 30
0.0
 10
128.2405788524885
 20
-152.9574164114134
 30
0.0
 10
128.2202527891255
 20
-153.0080593150466
 30
0.0
  0
HATCH
  5
154
330
13D
100
AcDbEntity
  8
レイヤー 1
 62
   250
420
  2299925
440
 33554687
100
AcDbHatch
 10
0.0
 20
0.0
 30
0.0
210
0.0
220
0.0
230
1.0
  2
SOLID
 70
     1
 71
     1
 91
        2
 92
        1
 93
        1
 72
     4
 94
        3
 73
     0
 74
     0
 95
       29
 96
       25
 40
0.0
 40
0.0
 40
0.0
 40
0.0
 40
1.0
 40
1.0
 40
1.0
 40
2.0
 40
2.0
 40
2.0
 40
3.0
 40
3.0
 40
3.0
 40
4.0
 40
4.0
 40
4.0
 40
5.0
 40
5.0
 40
5.0
 40
6.0
 40
6.0
 40
6.0
 40
7.0
 40
7.0
 40
7.0
 40
8.0
 40
8.0
 40
8.0
 40
8.0
 10
127.7885823248237
 20
-152.3820854653767
 10
127.7885823248237
 20
-152.3820854653767
 10
127.4905815653496
 20
-152.3820854653767
 10
127.4905815653496
 20
-152.3820854653767
 10
127.3906737962773
 20
-152.3820854653767
 10
127.2886989699139
 20
-152.386219579959
 10
127.1887912008417
 20
-152.4010334905456
 10
127.1887912008417
 20
-152.4010334905456
 10
127.1887912008417
 20
-152.1915716850424
 10
127.1887912008417
 20
-152.1915716850424
 10
127.2924885749477
 20
-152.206385595629
 10
127.4444172858472
 20
-152.2105197102112
 10
127.4905815653496
 20
-152.2105197102112
 10
127.4905815653496
 20
-152.2105197102112
 10
127.7885823248237
 20
-152.2105197102112
 10
127.7885823248237
 20
-152.2105197102112
 10
127.8905571511871
 20
-152.2105197102112
 10
127.9921874680019
 20
-152.206385595629
 10
128.0941622943653
 20
-152.1915716850424
 10
128.0941622943653
 20
-152.1915716850424
 10
128.0941622943653
 20
-152.4010334905456
 10
128.0941622943653
 20
-152.4010334905456
 10
127.9625596468288
 20
-152.3820854653767
 10
127.8016736876676
 20
-152.3820854653767
 10
127.7885823248237
 20
-152.3820854653767
 97
        0
 97
        1
330
152
 92
        1
 93
        1
 72
     4
 94
        3
 73
     0
 74
     0
 95
       50
 96
       46
 40
0.0
 40
0.0
 40
0.0
 40
0.0
 40
1.0
 40
1.0
 40
1.0
 40
2.0
 40
2.0
 40
2.0
 40
3.0
 40
3.0
 40
3.0
 40
4.0
 40
4.0
 40
4.0
 40
5.0
 40
5.0
 40
5.0
 40
6.0
 40
6.0
 40
6.0
 40
7.0
 40
7.0
 40
7.0
 40
8.0
 40
8.0
 40
8.0
 40
9.0
 40
9.0
 40
9.0
 40
10.0
 40
10.0
 40
10.0
 40
11.0
 40
11.0
 40
11.0
 40
12.0
 40
12.0
 40
12.0
 40
13.0
 40
13.0
 40
13.0
 40
14.0
 40
14.0
 40
14.0
 40
15.0
 40
15.0
 40
15.0
 40
15.0
 10
128.2202527891255
 20
-153.0080593150466
 10
128.151695388969
 20
-153.1858262420854
 10
128.0331841042764
 20
-153.3932209902975
 10
127.9126057622927
 20
-153.5327473574501
 10
127.7644666564269
 20
-153.703968603067
 10
127.6221842128861
 20
-153.7928520665865
 10
127.3424424594838
 20
-153.9347900005788
 10
127.3424424594838
 20
-153.9347900005788
 10
127.1943033536181
 20
-153.7463432775356
 10
127.1943033536181
 20
-153.7463432775356
 10
127.3572563700704
 20
-153.7232611377844
 10
127.5071180236788
 20
-153.6364447315562
 10
127.6404432189579
 20
-153.530680300159
 10
127.8702310878241
 20
-153.3487792585378
 10
128.0369737093102
 20
-153.0356200789286
 10
128.0793483837788
 20
-152.8537190373074
 10
128.0793483837788
 20
-152.8537190373074
 10
127.4923041130922
 20
-152.8537190373074
 10
127.4923041130922
 20
-152.8537190373074
 10
127.3534667650366
 20
-152.8537190373074
 10
127.0978406800311
 20
-152.861987266472
 10
126.9645154847519
 20
-152.8792127438982
 10
126.9645154847519
 20
-152.8792127438982
 10
126.9645154847519
 20
-152.6504584036777
 10
126.9645154847519
 20
-152.6504584036777
 10
126.9941433059251
 20
-152.6570040850996
 10
127.0165364265792
 20
-152.6632052569731
 10
127.0627007060815
 20
-152.6673393715554
 10
127.151584169601
 20
-152.6738850529773
 10
127.3238389438635
 20
-152.6759521102685
 10
127.3979084967963
 20
-152.6759521102685
 10
127.3979084967963
 20
-152.6759521102685
 10
127.8406032666509
 20
-152.6759521102685
 10
127.8406032666509
 20
-152.6759521102685
 10
127.8998589089972
 20
-152.6759521102685
 10
128.0276719515
 20
-152.6718179956862
 10
128.0810709315214
 20
-152.6652723142642
 10
128.1441161789014
 20
-152.6570040850996
 10
128.1682318472982
 20
-152.6421901745131
 10
128.1978596684714
 20
-152.6187635252133
 10
128.1978596684714
 20
-152.6187635252133
 10
128.3422091693033
 20
-152.785850656248
 10
128.3422091693033
 20
-152.785850656248
 10
128.2812309792144
 20
-152.8537190373074
 10
128.2405788524885
 20
-152.9574164114134
 10
128.2202527891255
 20
-153.0080593150466
 97
        0
 97
        1
330
153
 75
     2
 76
     1
 98
        1
 10
0.0
 20
0.0
450
        0
451
        0
460
0.0
461
0.0
452
        0
462
0.0
453
        0
470

  0
SPLINE
  5
155
330
13D
100
AcDbEntity
  8
レイヤー 1
100
AcDbSpline
210
0.0
220
0.0
230
1.0
 70
     9
 71
     3
 72
    50
 73
    46
 74
     0
 42
0.0000000001
 43
0.0000000001
 40
0.0
 40
0.0
 40
0.0
 40
0.0
 40
1.0
 40
1.0
 40
1.0
 40
2.0
 40
2.0
 40
2.0
 40
3.0
 40
3.0
 40
3.0
 40
4.0
 40
4.0
 40
4.0
 40
5.0
 40
5.0
 40
5.0
 40
6.0
 40
6.0
 40
6.0
 40
7.0
 40
7.0
 40
7.0
 40
8.0
 40
8.0
 40
8.0
 40
9.0
 40
9.0
 40
9.0
 40
10.0
 40
10.0
 40
10.0
 40
11.0
 40
11.0
 40
11.0
 40
12.0
 40
12.0
 40
12.0
 40
13.0
 40
13.0
 40
13.0
 40
14.0
 40
14.0
 40
14.0
 40
15.0
 40
15.0
 40
15.0
 40
15.0
 10
129.7181803061121
 20
-152.3672715547901
 30
0.0
 10
129.5349012262968
 20
-152.5808674748756
 30
0.0
 10
129.4722004884653
 20
-152.6528699705173
 30
0.0
 10
129.3478325414477
 20
-152.7710367456614
 30
0.0
 10
129.3478325414477
 20
-152.7710367456614
 30
0.0
 10
129.3478325414477
 20
-153.3380994625335
 30
0.0
 10
129.3478325414477
 20
-153.3380994625335
 30
0.0
 10
129.3478325414477
 20
-153.4883056256904
 30
0.0
 10
129.3536892037727
 20
-153.5072536508593
 30
0.0
 10
129.3571342992579
 20
-153.6850205778982
 30
0.0
 10
129.3592013565491
 20
-153.8162787158862
 30
0.0
 10
129.3647135093255
 20
-153.8648545622282
 30
0.0
 10
129.3702256621019
 20
-153.9241102045745
 30
0.0
 10
129.3702256621019
 20
-153.9241102045745
 30
0.0
 10
129.1721326717
 20
-153.9241102045745
 30
0.0
 10
129.1721326717
 20
-153.9241102045745
 30
0.0
 10
129.1759222767338
 20
-153.8796684728148
 30
0.0
 10
129.179367372219
 20
-153.8331596837639
 30
0.0
 10
129.179367372219
 20
-153.8245469450508
 30
0.0
 10
129.179367372219
 20
-153.7442762202445
 30
0.0
 10
129.1831569772528
 20
-153.3932209902975
 30
0.0
 10
129.1831569772528
 20
-153.3212184946558
 30
0.0
 10
129.1831569772528
 20
-153.3212184946558
 30
0.0
 10
129.1831569772528
 20
-152.9150417369448
 30
0.0
 10
129.1831569772528
 20
-152.9150417369448
 30
0.0
 10
129.0239935658342
 20
-153.0397541935109
 30
0.0
 10
128.8534613393144
 20
-153.1499972490389
 30
0.0
 10
128.6756944122755
 20
-153.2364691457186
 30
0.0
 10
128.6756944122755
 20
-153.2364691457186
 30
0.0
 10
128.4979274852366
 20
-153.0735161292663
 30
0.0
 10
128.4979274852366
 20
-153.0735161292663
 30
0.0
 10
128.6054144643764
 20
-153.0376871362197
 30
0.0
 10
128.8293456709176
 20
-152.9636175832869
 30
0.0
 10
129.1311360354255
 20
-152.7076469887328
 30
0.0
 10
129.3202717775657
 20
-152.5491725964113
 30
0.0
 10
129.4887369467945
 20
-152.3607258733681
 30
0.0
 10
129.6220621420736
 20
-152.1405842718607
 30
0.0
 10
129.6220621420736
 20
-152.1405842718607
 30
0.0
 10
129.7905273113024
 20
-152.2845892631441
 30
0.0
 10
129.7905273113024
 20
-152.2845892631441
 30
0.0
 10
129.8015516168551
 20
-152.2952690591484
 30
0.0
 10
129.8091308269227
 20
-152.310082969735
 30
0.0
 10
129.8091308269227
 20
-152.3228298230304
 30
0.0
 10
129.8091308269227
 20
-152.3627929306593
 30
0.0
 10
129.7757134007158
 20
-152.3627929306593
 30
0.0
 10
129.7181803061121
 20
-152.3672715547901
 30
0.0
  0
HATCH
  5
156
330
13D
100
AcDbEntity
  8
レイヤー 1
 62
   250
420
  2299925
440
 33554687
100
AcDbHatch
 10
0.0
 20
0.0
 30
0.0
210
0.0
220
0.0
230
1.0
  2
SOLID
 70
     1
 71
     1
 91
        1
 92
        1
 93
        1
 72
     4
 94
        3
 73
     0
 74
     0
 95
       50
 96
       46
 40
0.0
 40
0.0
 40
0.0
 40
0.0
 40
1.0
 40
1.0
 40
1.0
 40
2.0
 40
2.0
 40
2.0
 40
3.0
 40
3.0
 40
3.0
 40
4.0
 40
4.0
 40
4.0
 40
5.0
 40
5.0
 40
5.0
 40
6.0
 40
6.0
 40
6.0
 40
7.0
 40
7.0
 40
7.0
 40
8.0
 40
8.0
 40
8.0
 40
9.0
 40
9.0
 40
9.0
 40
10.0
 40
10.0
 40
10.0
 40
11.0
 40
11.0
 40
11.0
 40
12.0
 40
12.0
 40
12.0
 40
13.0
 40
13.0
 40
13.0
 40
14.0
 40
14.0
 40
14.0
 40
15.0
 40
15.0
 40
15.0
 40
15.0
 10
129.7181803061121
 20
-152.3672715547901
 10
129.5349012262968
 20
-152.5808674748756
 10
129.4722004884653
 20
-152.6528699705173
 10
129.3478325414477
 20
-152.7710367456614
 10
129.3478325414477
 20
-152.7710367456614
 10
129.3478325414477
 20
-153.3380994625335
 10
129.3478325414477
 20
-153.3380994625335
 10
129.3478325414477
 20
-153.4883056256904
 10
129.3536892037727
 20
-153.5072536508593
 10
129.3571342992579
 20
-153.6850205778982
 10
129.3592013565491
 20
-153.8162787158862
 10
129.3647135093255
 20
-153.8648545622282
 10
129.3702256621019
 20
-153.9241102045745
 10
129.3702256621019
 20
-153.9241102045745
 10
129.1721326717
 20
-153.9241102045745
 10
129.1721326717
 20
-153.9241102045745
 10
129.1759222767338
 20
-153.8796684728148
 10
129.179367372219
 20
-153.8331596837639
 10
129.179367372219
 20
-153.8245469450508
 10
129.179367372219
 20
-153.7442762202445
 10
129.1831569772528
 20
-153.3932209902975
 10
129.1831569772528
 20
-153.3212184946558
 10
129.1831569772528
 20
-153.3212184946558
 10
129.1831569772528
 20
-152.9150417369448
 10
129.1831569772528
 20
-152.9150417369448
 10
129.0239935658342
 20
-153.0397541935109
 10
128.8534613393144
 20
-153.1499972490389
 10
128.6756944122755
 20
-153.2364691457186
 10
128.6756944122755
 20
-153.2364691457186
 10
128.4979274852366
 20
-153.0735161292663
 10
128.4979274852366
 20
-153.0735161292663
 10
128.6054144643764
 20
-153.0376871362197
 10
128.8293456709176
 20
-152.9636175832869
 10
129.1311360354255
 20
-152.7076469887328
 10
129.3202717775657
 20
-152.5491725964113
 10
129.4887369467945
 20
-152.3607258733681
 10
129.6220621420736
 20
-152.1405842718607
 10
129.6220621420736
 20
-152.1405842718607
 10
129.7905273113024
 20
-152.2845892631441
 10
129.7905273113024
 20
-152.2845892631441
 10
129.8015516168551
 20
-152.2952690591484
 10
129.8091308269227
 20
-152.310082969735
 10
129.8091308269227
 20
-152.3228298230304
 10
129.8091308269227
 20
-152.3627929306593
 10
129.7757134007158
 20
-152.3627929306593
 10
129.7181803061121
 20
-152.3672715547901
 97
        0
 97
        1
330
155
 75
     2
 76
     1
 98
        1
 10
0.0
 20
0.0
450
        0
451
        0
460
0.0
461
0.0
452
        0
462
0.0
453
        0
470

  0
SPLINE
  5
157
330
13D
100
AcDbEntity
  8
レイヤー 1
100
AcDbSpline
210
0.0
220
0.0
230
1.0
 70
     9
 71
     3
 72
    50
 73
    46
 74
     0
 42
0.0000000001
 43
0.0000000001
 40
0.0
 40
0.0
 40
0.0
 40
0.0
 40
1.0
 40
1.0
 40
1.0
 40
2.0
 40
2.0
 40
2.0
 40
3.0
 40
3.0
 40
3.0
 40
4.0
 40
4.0
 40
4.0
 40
5.0
 40
5.0
 40
5.0
 40
6.0
 40
6.0
 40
6.0
 40
7.0
 40
7.0
 40
7.0
 40
8.0
 40
8.0
 40
8.0
 40
9.0
 40
9.0
 40
9.0
 40
10.0
 40
10.0
 40
10.0
 40
11.0
 40
11.0
 40
11.0
 40
12.0
 40
12.0
 40
12.0
 40
13.0
 40
13.0
 40
13.0
 40
14.0
 40
14.0
 40
14.0
 40
15.0
 40
15.0
 40
15.0
 40
15.0
 10
131.2143852753561
 20
-152.8940266544848
 30
0.0
 10
131.1609862953347
 20
-152.965684640578
 30
0.0
 10
130.9329209742112
 20
-153.2829779347695
 30
0.0
 10
130.8829670896751
 20
-153.3467122012466
 30
0.0
 10
130.9570366426079
 20
-153.4438638939307
 30
0.0
 10
131.0014783743677
 20
-153.5072536508593
 30
0.0
 10
131.0590114689713
 20
-153.5982041716699
 30
0.0
 10
131.0590114689713
 20
-153.5982041716699
 30
0.0
 10
130.8977810002616
 20
-153.7360079910799
 30
0.0
 10
130.8977810002616
 20
-153.7360079910799
 30
0.0
 10
130.7792697155691
 20
-153.524134618737
 30
0.0
 10
130.6294080619607
 20
-153.3002034121958
 30
0.0
 10
130.3720594292125
 20
-153.1010768931483
 30
0.0
 10
130.3720594292125
 20
-153.1010768931483
 30
0.0
 10
130.5015950194579
 20
-152.9467366154091
 30
0.0
 10
130.5015950194579
 20
-152.9467366154091
 30
0.0
 10
130.5980576930449
 20
-153.0270073402155
 30
0.0
 10
130.688663704307
 20
-153.1158908037349
 30
0.0
 10
130.7737575627927
 20
-153.2113199486763
 30
0.0
 10
130.833013205139
 20
-153.1351833384523
 30
0.0
 10
131.0107801321779
 20
-152.8916150876451
 30
0.0
 10
131.1275688691278
 20
-152.6632052569731
 30
0.0
 10
131.1275688691278
 20
-152.6632052569731
 30
0.0
 10
130.5388020506986
 20
-152.6632052569731
 30
0.0
 10
130.5388020506986
 20
-152.6632052569731
 30
0.0
 10
130.4292480142677
 20
-152.6632052569731
 30
0.0
 10
130.2091064127602
 20
-152.6718179956862
 30
0.0
 10
130.0258273329449
 20
-152.6821532821419
 30
0.0
 10
130.0258273329449
 20
-152.6821532821419
 30
0.0
 10
130.0258273329449
 20
-152.462356190183
 30
0.0
 10
130.0258273329449
 20
-152.462356190183
 30
0.0
 10
130.1867132921061
 20
-152.4813042153519
 30
0.0
 10
130.3665472764361
 20
-152.4854383299342
 30
0.0
 10
130.5312228406311
 20
-152.4854383299342
 30
0.0
 10
130.5312228406311
 20
-152.4854383299342
 30
0.0
 10
130.9718505531945
 20
-152.4854383299342
 30
0.0
 10
130.9718505531945
 20
-152.4854383299342
 30
0.0
 10
131.268128764926
 20
-152.4854383299342
 30
0.0
 10
131.3070583439093
 20
-152.4706244193476
 30
0.0
 10
131.3794053490996
 20
-152.4306613117187
 30
0.0
 10
131.3794053490996
 20
-152.4306613117187
 30
0.0
 10
131.5254773976742
 20
-152.5891357040402
 30
0.0
 10
131.5254773976742
 20
-152.5891357040402
 30
0.0
 10
131.392152202395
 20
-152.6611381996819
 30
0.0
 10
131.2664062171834
 20
-152.8240912161342
 30
0.0
 10
131.2143852753561
 20
-152.8940266544848
 30
0.0
  0
HATCH
  5
158
330
13D
100
AcDbEntity
  8
レイヤー 1
 62
   250
420
  2299925
440
 33554687
100
AcDbHatch
 10
0.0
 20
0.0
 30
0.0
210
0.0
220
0.0
230
1.0
  2
SOLID
 70
     1
 71
     1
 91
        1
 92
        1
 93
        1
 72
     4
 94
        3
 73
     0
 74
     0
 95
       50
 96
       46
 40
0.0
 40
0.0
 40
0.0
 40
0.0
 40
1.0
 40
1.0
 40
1.0
 40
2.0
 40
2.0
 40
2.0
 40
3.0
 40
3.0
 40
3.0
 40
4.0
 40
4.0
 40
4.0
 40
5.0
 40
5.0
 40
5.0
 40
6.0
 40
6.0
 40
6.0
 40
7.0
 40
7.0
 40
7.0
 40
8.0
 40
8.0
 40
8.0
 40
9.0
 40
9.0
 40
9.0
 40
10.0
 40
10.0
 40
10.0
 40
11.0
 40
11.0
 40
11.0
 40
12.0
 40
12.0
 40
12.0
 40
13.0
 40
13.0
 40
13.0
 40
14.0
 40
14.0
 40
14.0
 40
15.0
 40
15.0
 40
15.0
 40
15.0
 10
131.2143852753561
 20
-152.8940266544848
 10
131.1609862953347
 20
-152.965684640578
 10
130.9329209742112
 20
-153.2829779347695
 10
130.8829670896751
 20
-153.3467122012466
 10
130.9570366426079
 20
-153.4438638939307
 10
131.0014783743677
 20
-153.5072536508593
 10
131.0590114689713
 20
-153.5982041716699
 10
131.0590114689713
 20
-153.5982041716699
 10
130.8977810002616
 20
-153.7360079910799
 10
130.8977810002616
 20
-153.7360079910799
 10
130.7792697155691
 20
-153.524134618737
 10
130.6294080619607
 20
-153.3002034121958
 10
130.3720594292125
 20
-153.1010768931483
 10
130.3720594292125
 20
-153.1010768931483
 10
130.5015950194579
 20
-152.9467366154091
 10
130.5015950194579
 20
-152.9467366154091
 10
130.5980576930449
 20
-153.0270073402155
 10
130.688663704307
 20
-153.1158908037349
 10
130.7737575627927
 20
-153.2113199486763
 10
130.833013205139
 20
-153.1351833384523
 10
131.0107801321779
 20
-152.8916150876451
 10
131.1275688691278
 20
-152.6632052569731
 10
131.1275688691278
 20
-152.6632052569731
 10
130.5388020506986
 20
-152.6632052569731
 10
130.5388020506986
 20
-152.6632052569731
 10
130.4292480142677
 20
-152.6632052569731
 10
130.2091064127602
 20
-152.6718179956862
 10
130.0258273329449
 20
-152.6821532821419
 10
130.0258273329449
 20
-152.6821532821419
 10
130.0258273329449
 20
-152.462356190183
 10
130.0258273329449
 20
-152.462356190183
 10
130.1867132921061
 20
-152.4813042153519
 10
130.3665472764361
 20
-152.4854383299342
 10
130.5312228406311
 20
-152.4854383299342
 10
130.5312228406311
 20
-152.4854383299342
 10
130.9718505531945
 20
-152.4854383299342
 10
130.9718505531945
 20
-152.4854383299342
 10
131.268128764926
 20
-152.4854383299342
 10
131.3070583439093
 20
-152.4706244193476
 10
131.3794053490996
 20
-152.4306613117187
 10
131.3794053490996
 20
-152.4306613117187
 10
131.5254773976742
 20
-152.5891357040402
 10
131.5254773976742
 20
-152.5891357040402
 10
131.392152202395
 20
-152.6611381996819
 10
131.2664062171834
 20
-152.8240912161342
 10
131.2143852753561
 20
-152.8940266544848
 97
        0
 97
        1
330
157
 75
     2
 76
     1
 98
        1
 10
0.0
 20
0.0
450
        0
451
        0
460
0.0
461
0.0
452
        0
462
0.0
453
        0
470

  0
SPLINE
  5
159
330
13D
100
AcDbEntity
  8
レイヤー 1
100
AcDbSpline
210
0.0
220
0.0
230
1.0
 70
     9
 71
     3
 72
    29
 73
    25
 74
     0
 42
0.0000000001
 43
0.0000000001
 40
0.0
 40
0.0
 40
0.0
 40
0.0
 40
1.0
 40
1.0
 40
1.0
 40
2.0
 40
2.0
 40
2.0
 40
3.0
 40
3.0
 40
3.0
 40
4.0
 40
4.0
 40
4.0
 40
5.0
 40
5.0
 40
5.0
 40
6.0
 40
6.0
 40
6.0
 40
7.0
 40
7.0
 40
7.0
 40
8.0
 40
8.0
 40
8.0
 40
8.0
 10
132.6368652012158
 20
-153.1372503957435
 30
0.0
 10
132.6368652012158
 20
-153.1372503957435
 30
0.0
 10
132.2127739469815
 20
-153.1372503957435
 30
0.0
 10
132.2127739469815
 20
-153.1372503957435
 30
0.0
 10
132.1886582785848
 20
-153.1372503957435
 30
0.0
 10
131.9106390729251
 20
-153.1372503957435
 30
0.0
 10
131.7256374453672
 20
-153.1623995927858
 30
0.0
 10
131.7256374453672
 20
-153.1623995927858
 30
0.0
 10
131.7256374453672
 20
-152.9319227048225
 30
0.0
 10
131.7256374453672
 20
-152.9319227048225
 30
0.0
 10
131.8644747934228
 20
-152.9553493541223
 30
0.0
 10
132.0312174149088
 20
-152.9574164114134
 30
0.0
 10
132.2127739469815
 20
-152.9574164114134
 30
0.0
 10
132.2127739469815
 20
-152.9574164114134
 30
0.0
 10
132.6368652012158
 20
-152.9574164114134
 30
0.0
 10
132.6368652012158
 20
-152.9574164114134
 30
0.0
 10
132.7994737081196
 20
-152.9574164114134
 30
0.0
 10
132.9627712341204
 20
-152.9553493541223
 30
0.0
 10
133.1236571932816
 20
-152.9319227048225
 30
0.0
 10
133.1236571932816
 20
-152.9319227048225
 30
0.0
 10
133.1236571932816
 20
-153.1623995927858
 30
0.0
 10
133.1236571932816
 20
-153.1623995927858
 30
0.0
 10
132.9627712341204
 20
-153.1393174530346
 30
0.0
 10
132.7460747280982
 20
-153.1372503957435
 30
0.0
 10
132.6368652012158
 20
-153.1372503957435
 30
0.0
  0
HATCH
  5
15A
330
13D
100
AcDbEntity
  8
レイヤー 1
 62
   250
420
  2299925
440
 33554687
100
AcDbHatch
 10
0.0
 20
0.0
 30
0.0
210
0.0
220
0.0
230
1.0
  2
SOLID
 70
     1
 71
     1
 91
        1
 92
        1
 93
        1
 72
     4
 94
        3
 73
     0
 74
     0
 95
       29
 96
       25
 40
0.0
 40
0.0
 40
0.0
 40
0.0
 40
1.0
 40
1.0
 40
1.0
 40
2.0
 40
2.0
 40
2.0
 40
3.0
 40
3.0
 40
3.0
 40
4.0
 40
4.0
 40
4.0
 40
5.0
 40
5.0
 40
5.0
 40
6.0
 40
6.0
 40
6.0
 40
7.0
 40
7.0
 40
7.0
 40
8.0
 40
8.0
 40
8.0
 40
8.0
 10
132.6368652012158
 20
-153.1372503957435
 10
132.6368652012158
 20
-153.1372503957435
 10
132.2127739469815
 20
-153.1372503957435
 10
132.2127739469815
 20
-153.1372503957435
 10
132.1886582785848
 20
-153.1372503957435
 10
131.9106390729251
 20
-153.1372503957435
 10
131.7256374453672
 20
-153.1623995927858
 10
131.7256374453672
 20
-153.1623995927858
 10
131.7256374453672
 20
-152.9319227048225
 10
131.7256374453672
 20
-152.9319227048225
 10
131.8644747934228
 20
-152.9553493541223
 10
132.0312174149088
 20
-152.9574164114134
 10
132.2127739469815
 20
-152.9574164114134
 10
132.2127739469815
 20
-152.9574164114134
 10
132.6368652012158
 20
-152.9574164114134
 10
132.6368652012158
 20
-152.9574164114134
 10
132.7994737081196
 20
-152.9574164114134
 10
132.9627712341204
 20
-152.9553493541223
 10
133.1236571932816
 20
-152.9319227048225
 10
133.1236571932816
 20
-152.9319227048225
 10
133.1236571932816
 20
-153.1623995927858
 10
133.1236571932816
 20
-153.1623995927858
 10
132.9627712341204
 20
-153.1393174530346
 10
132.7460747280982
 20
-153.1372503957435
 10
132.6368652012158
 20
-153.1372503957435
 97
        0
 97
        1
330
159
 75
     2
 76
     1
 98
        1
 10
0.0
 20
0.0
450
        0
451
        0
460
0.0
461
0.0
452
        0
462
0.0
453
        0
470

  0
SPLINE
  5
15B
330
13D
100
AcDbEntity
  8
レイヤー 1
100
AcDbSpline
210
0.0
220
0.0
230
1.0
 70
     9
 71
     3
 72
    20
 73
    16
 74
     0
 42
0.0000000001
 43
0.0000000001
 40
0.0
 40
0.0
 40
0.0
 40
0.0
 40
1.0
 40
1.0
 40
1.0
 40
2.0
 40
2.0
 40
2.0
 40
3.0
 40
3.0
 40
3.0
 40
4.0
 40
4.0
 40
4.0
 40
5.0
 40
5.0
 40
5.0
 40
5.0
 10
134.2126518761691
 20
-153.4883056256904
 30
0.0
 10
134.1719997494431
 20
-153.3105386986515
 30
0.0
 10
134.0869058909574
 20
-153.1689452742077
 30
0.0
 10
133.964605001231
 20
-153.0590467282283
 30
0.0
 10
133.964605001231
 20
-153.0590467282283
 30
0.0
 10
134.1055094065778
 20
-152.944669558118
 30
0.0
 10
134.1055094065778
 20
-152.944669558118
 30
0.0
 10
134.1589083865991
 20
-152.9870442325865
 30
0.0
 10
134.1943928700972
 20
-153.020806168342
 30
0.0
 10
134.2608832129625
 20
-153.1286376570303
 30
0.0
 10
134.3311631608616
 20
-153.2450818844317
 30
0.0
 10
134.349766676482
 20
-153.2977918453561
 30
0.0
 10
134.3721597971361
 20
-153.3635931691244
 30
0.0
 10
134.3721597971361
 20
-153.3635931691244
 30
0.0
 10
134.2126518761691
 20
-153.4883056256904
 30
0.0
 10
134.2126518761691
 20
-153.4883056256904
 30
0.0
  0
SPLINE
  5
15C
330
13D
100
AcDbEntity
  8
レイヤー 1
100
AcDbSpline
210
0.0
220
0.0
230
1.0
 70
     9
 71
     3
 72
    77
 73
    73
 74
     0
 42
0.0000000001
 43
0.0000000001
 40
0.0
 40
0.0
 40
0.0
 40
0.0
 40
1.0
 40
1.0
 40
1.0
 40
2.0
 40
2.0
 40
2.0
 40
3.0
 40
3.0
 40
3.0
 40
4.0
 40
4.0
 40
4.0
 40
5.0
 40
5.0
 40
5.0
 40
6.0
 40
6.0
 40
6.0
 40
7.0
 40
7.0
 40
7.0
 40
8.0
 40
8.0
 40
8.0
 40
9.0
 40
9.0
 40
9.0
 40
10.0
 40
10.0
 40
10.0
 40
11.0
 40
11.0
 40
11.0
 40
12.0
 40
12.0
 40
12.0
 40
13.0
 40
13.0
 40
13.0
 40
14.0
 40
14.0
 40
14.0
 40
15.0
 40
15.0
 40
15.0
 40
16.0
 40
16.0
 40
16.0
 40
17.0
 40
17.0
 40
17.0
 40
18.0
 40
18.0
 40
18.0
 40
19.0
 40
19.0
 40
19.0
 40
20.0
 40
20.0
 40
20.0
 40
21.0
 40
21.0
 40
21.0
 40
22.0
 40
22.0
 40
22.0
 40
23.0
 40
23.0
 40
23.0
 40
24.0
 40
24.0
 40
24.0
 40
24.0
 10
134.8868570626324
 20
-152.7627685164968
 30
0.0
 10
134.8258788725435
 20
-152.7586344019145
 30
0.0
 10
134.7666232301972
 20
-152.7586344019145
 30
0.0
 10
134.7073675878509
 20
-152.7586344019145
 30
0.0
 10
134.7073675878509
 20
-152.7586344019145
 30
0.0
 10
134.7073675878509
 20
-153.5327473574501
 30
0.0
 10
134.7073675878509
 20
-153.5327473574501
 30
0.0
 10
134.7073675878509
 20
-153.7973306907173
 30
0.0
 10
134.7053005305598
 20
-153.8269585118905
 30
0.0
 10
134.6997883777834
 20
-153.8565863330636
 30
0.0
 10
134.6701605566102
 20
-153.9895670187942
 30
0.0
 10
134.5812770930908
 20
-153.9981797575074
 30
0.0
 10
134.4276258344486
 20
-153.9981797575074
 30
0.0
 10
134.3924858604991
 20
-153.9981797575074
 30
0.0
 10
134.3776719499125
 20
-153.9981797575074
 30
0.0
 10
134.3425319759629
 20
-153.9940456429251
 30
0.0
 10
134.3425319759629
 20
-153.9940456429251
 30
0.0
 10
134.2333224490805
 20
-153.7528889589576
 30
0.0
 10
134.2333224490805
 20
-153.7528889589576
 30
0.0
 10
134.3349527658954
 20
-153.7845838374219
 30
0.0
 10
134.4072997710857
 20
-153.7845838374219
 30
0.0
 10
134.4276258344486
 20
-153.7845838374219
 30
0.0
 10
134.4886040245375
 20
-153.7845838374219
 30
0.0
 10
134.5182318457107
 20
-153.7677028695442
 30
0.0
 10
134.5220214507445
 20
-153.710514284489
 30
0.0
 10
134.5220214507445
 20
-153.6977674311936
 30
0.0
 10
134.5237439984871
 20
-153.6006157385096
 30
0.0
 10
134.5237439984871
 20
-153.5434271534544
 30
0.0
 10
134.5237439984871
 20
-153.5434271534544
 30
0.0
 10
134.5237439984871
 20
-152.7562228350748
 30
0.0
 10
134.5237439984871
 20
-152.7562228350748
 30
0.0
 10
134.5237439984871
 20
-152.7562228350748
 30
0.0
 10
134.2663953657389
 20
-152.7562228350748
 30
0.0
 10
134.2663953657389
 20
-152.7562228350748
 30
0.0
 10
134.1385823232362
 20
-152.7562228350748
 30
0.0
 10
134.0107692807334
 20
-152.7627685164968
 30
0.0
 10
133.8850232955218
 20
-152.7755153697922
 30
0.0
 10
133.8850232955218
 20
-152.7755153697922
 30
0.0
 10
133.8850232955218
 20
-152.5681206215802
 30
0.0
 10
133.8850232955218
 20
-152.5681206215802
 30
0.0
 10
134.0166259430583
 20
-152.5808674748756
 30
0.0
 10
134.2071397233926
 20
-152.5850015894579
 30
0.0
 10
134.2663953657389
 20
-152.5850015894579
 30
0.0
 10
134.2663953657389
 20
-152.5850015894579
 30
0.0
 10
134.5237439984871
 20
-152.5850015894579
 30
0.0
 10
134.5237439984871
 20
-152.5850015894579
 30
0.0
 10
134.5220214507445
 20
-152.3162841416084
 30
0.0
 10
134.5220214507445
 20
-152.2401475313844
 30
0.0
 10
134.5144422406769
 20
-152.0920084255187
 30
0.0
 10
134.5144422406769
 20
-152.0920084255187
 30
0.0
 10
134.7404405045093
 20
-152.1302489854049
 30
0.0
 10
134.7404405045093
 20
-152.1302489854049
 30
0.0
 10
134.7535318673533
 20
-152.1323160426961
 30
0.0
 10
134.7666232301972
 20
-152.1385172145695
 30
0.0
 10
134.7666232301972
 20
-152.1598768065781
 30
0.0
 10
134.7666232301972
 20
-152.1788248317469
 30
0.0
 10
134.7607665678723
 20
-152.1808918890381
 30
0.0
 10
134.7108126833362
 20
-152.2146538247936
 30
0.0
 10
134.7073675878509
 20
-152.2932020018572
 30
0.0
 10
134.7073675878509
 20
-152.3080159124438
 30
0.0
 10
134.7073675878509
 20
-152.5850015894579
 30
0.0
 10
134.8627413942357
 20
-152.5808674748756
 30
0.0
 10
134.8792778525649
 20
-152.5808674748756
 30
0.0
 10
134.908905673738
 20
-152.5763888507448
 30
0.0
 10
134.9533474054978
 20
-152.5722547361625
 30
0.0
 10
134.9571370105316
 20
-152.5701876788713
 30
0.0
 10
134.9960665895148
 20
-152.5681206215802
 30
0.0
 10
134.9960665895148
 20
-152.5681206215802
 30
0.0
 10
134.9960665895148
 20
-152.7755153697922
 30
0.0
 10
134.9960665895148
 20
-152.7755153697922
 30
0.0
 10
134.9702283733755
 20
-152.7734483125011
 30
0.0
 10
134.921997036582
 20
-152.7648355737879
 30
0.0
 10
134.8868570626324
 20
-152.7627685164968
 30
0.0
  0
SPLINE
  5
15D
330
13D
100
AcDbEntity
  8
レイヤー 1
100
AcDbSpline
210
0.0
220
0.0
230
1.0
 70
     9
 71
     3
 72
    53
 73
    49
 74
     0
 42
0.0000000001
 43
0.0000000001
 40
0.0
 40
0.0
 40
0.0
 40
0.0
 40
1.0
 40
1.0
 40
1.0
 40
2.0
 40
2.0
 40
2.0
 40
3.0
 40
3.0
 40
3.0
 40
4.0
 40
4.0
 40
4.0
 40
5.0
 40
5.0
 40
5.0
 40
6.0
 40
6.0
 40
6.0
 40
7.0
 40
7.0
 40
7.0
 40
8.0
 40
8.0
 40
8.0
 40
9.0
 40
9.0
 40
9.0
 40
10.0
 40
10.0
 40
10.0
 40
11.0
 40
11.0
 40
11.0
 40
12.0
 40
12.0
 40
12.0
 40
13.0
 40
13.0
 40
13.0
 40
14.0
 40
14.0
 40
14.0
 40
15.0
 40
15.0
 40
15.0
 40
16.0
 40
16.0
 40
16.0
 40
16.0
 10
133.8795111427454
 20
-152.2635741806841
 30
0.0
 10
133.8202555003991
 20
-152.4158474011321
 30
0.0
 10
133.7830484691584
 20
-152.4940510686473
 30
0.0
 10
133.7499755525
 20
-152.5615749401582
 30
0.0
 10
133.7868380741922
 20
-152.5829345321668
 30
0.0
 10
133.7906276792259
 20
-152.5850015894579
 30
0.0
 10
133.7906276792259
 20
-152.5998155000445
 30
0.0
 10
133.7906276792259
 20
-152.6125623533399
 30
0.0
 10
133.7609998580528
 20
-152.6463242890953
 30
0.0
 10
133.7516981002426
 20
-152.6549370278085
 30
0.0
 10
133.7499755525
 20
-152.8516519800162
 30
0.0
 10
133.7499755525
 20
-152.8726670624763
 30
0.0
 10
133.7499755525
 20
-153.0059922577554
 30
0.0
 10
133.7479084952088
 20
-153.0187391110509
 30
0.0
 10
133.7479084952088
 20
-153.0335530216374
 30
0.0
 10
133.7479084952088
 20
-153.048366932224
 30
0.0
 10
133.7479084952088
 20
-153.048366932224
 30
0.0
 10
133.7479084952088
 20
-153.5833902610833
 30
0.0
 10
133.7479084952088
 20
-153.5833902610833
 30
0.0
 10
133.7479084952088
 20
-153.655392756725
 30
0.0
 10
133.7516981002426
 20
-153.8903482688191
 30
0.0
 10
133.7592773103102
 20
-154.0002468147985
 30
0.0
 10
133.7592773103102
 20
-154.0002468147985
 30
0.0
 10
133.5460258997732
 20
-154.0002468147985
 30
0.0
 10
133.5460258997732
 20
-154.0002468147985
 30
0.0
 10
133.5663519631362
 20
-153.841772422477
 30
0.0
 10
133.5722086254611
 20
-153.6006157385096
 30
0.0
 10
133.5722086254611
 20
-153.579256146501
 30
0.0
 10
133.5722086254611
 20
-153.579256146501
 30
0.0
 10
133.5722086254611
 20
-152.861987266472
 30
0.0
 10
133.5722086254611
 20
-152.861987266472
 30
0.0
 10
133.4926269197518
 20
-152.9763644365823
 30
0.0
 10
133.4388834301819
 20
-153.0356200789286
 30
0.0
 10
133.4016763989412
 20
-153.0779947533972
 30
0.0
 10
133.4016763989412
 20
-153.0779947533972
 30
0.0
 10
133.2349337774551
 20
-152.9405354435357
 30
0.0
 10
133.2349337774551
 20
-152.9405354435357
 30
0.0
 10
133.4812581046505
 20
-152.7245279566105
 30
0.0
 10
133.6497232738792
 20
-152.4158474011321
 30
0.0
 10
133.7479084952088
 20
-152.0792615722232
 30
0.0
 10
133.7479084952088
 20
-152.0792615722232
 30
0.0
 10
133.9404893328343
 20
-152.1936387423335
 30
0.0
 10
133.9404893328343
 20
-152.1936387423335
 30
0.0
 10
133.9515136383871
 20
-152.199839914207
 30
0.0
 10
133.9590928484547
 20
-152.2043185383378
 30
0.0
 10
133.9590928484547
 20
-152.2191324489244
 30
0.0
 10
133.9590928484547
 20
-152.2442816459667
 30
0.0
 10
133.9442789378681
 20
-152.2487602700975
 30
0.0
 10
133.8795111427454
 20
-152.2635741806841
 30
0.0
  0
HATCH
  5
15E
330
13D
100
AcDbEntity
  8
レイヤー 1
 62
   250
420
  2299925
440
 33554687
100
AcDbHatch
 10
0.0
 20
0.0
 30
0.0
210
0.0
220
0.0
230
1.0
  2
SOLID
 70
     1
 71
     1
 91
        3
 92
        1
 93
        1
 72
     4
 94
        3
 73
     0
 74
     0
 95
       20
 96
       16
 40
0.0
 40
0.0
 40
0.0
 40
0.0
 40
1.0
 40
1.0
 40
1.0
 40
2.0
 40
2.0
 40
2.0
 40
3.0
 40
3.0
 40
3.0
 40
4.0
 40
4.0
 40
4.0
 40
5.0
 40
5.0
 40
5.0
 40
5.0
 10
134.2126518761691
 20
-153.4883056256904
 10
134.1719997494431
 20
-153.3105386986515
 10
134.0869058909574
 20
-153.1689452742077
 10
133.964605001231
 20
-153.0590467282283
 10
133.964605001231
 20
-153.0590467282283
 10
134.1055094065778
 20
-152.944669558118
 10
134.1055094065778
 20
-152.944669558118
 10
134.1589083865991
 20
-152.9870442325865
 10
134.1943928700972
 20
-153.020806168342
 10
134.2608832129625
 20
-153.1286376570303
 10
134.3311631608616
 20
-153.2450818844317
 10
134.349766676482
 20
-153.2977918453561
 10
134.3721597971361
 20
-153.3635931691244
 10
134.3721597971361
 20
-153.3635931691244
 10
134.2126518761691
 20
-153.4883056256904
 10
134.2126518761691
 20
-153.4883056256904
 97
        0
 97
        1
330
15B
 92
        1
 93
        1
 72
     4
 94
        3
 73
     0
 74
     0
 95
       77
 96
       73
 40
0.0
 40
0.0
 40
0.0
 40
0.0
 40
1.0
 40
1.0
 40
1.0
 40
2.0
 40
2.0
 40
2.0
 40
3.0
 40
3.0
 40
3.0
 40
4.0
 40
4.0
 40
4.0
 40
5.0
 40
5.0
 40
5.0
 40
6.0
 40
6.0
 40
6.0
 40
7.0
 40
7.0
 40
7.0
 40
8.0
 40
8.0
 40
8.0
 40
9.0
 40
9.0
 40
9.0
 40
10.0
 40
10.0
 40
10.0
 40
11.0
 40
11.0
 40
11.0
 40
12.0
 40
12.0
 40
12.0
 40
13.0
 40
13.0
 40
13.0
 40
14.0
 40
14.0
 40
14.0
 40
15.0
 40
15.0
 40
15.0
 40
16.0
 40
16.0
 40
16.0
 40
17.0
 40
17.0
 40
17.0
 40
18.0
 40
18.0
 40
18.0
 40
19.0
 40
19.0
 40
19.0
 40
20.0
 40
20.0
 40
20.0
 40
21.0
 40
21.0
 40
21.0
 40
22.0
 40
22.0
 40
22.0
 40
23.0
 40
23.0
 40
23.0
 40
24.0
 40
24.0
 40
24.0
 40
24.0
 10
134.8868570626324
 20
-152.7627685164968
 10
134.8258788725435
 20
-152.7586344019145
 10
134.7666232301972
 20
-152.7586344019145
 10
134.7073675878509
 20
-152.7586344019145
 10
134.7073675878509
 20
-152.7586344019145
 10
134.7073675878509
 20
-153.5327473574501
 10
134.7073675878509
 20
-153.5327473574501
 10
134.7073675878509
 20
-153.7973306907173
 10
134.7053005305598
 20
-153.8269585118905
 10
134.6997883777834
 20
-153.8565863330636
 10
134.6701605566102
 20
-153.9895670187942
 10
134.5812770930908
 20
-153.9981797575074
 10
134.4276258344486
 20
-153.9981797575074
 10
134.3924858604991
 20
-153.9981797575074
 10
134.3776719499125
 20
-153.9981797575074
 10
134.3425319759629
 20
-153.9940456429251
 10
134.3425319759629
 20
-153.9940456429251
 10
134.2333224490805
 20
-153.7528889589576
 10
134.2333224490805
 20
-153.7528889589576
 10
134.3349527658954
 20
-153.7845838374219
 10
134.4072997710857
 20
-153.7845838374219
 10
134.4276258344486
 20
-153.7845838374219
 10
134.4886040245375
 20
-153.7845838374219
 10
134.5182318457107
 20
-153.7677028695442
 10
134.5220214507445
 20
-153.710514284489
 10
134.5220214507445
 20
-153.6977674311936
 10
134.5237439984871
 20
-153.6006157385096
 10
134.5237439984871
 20
-153.5434271534544
 10
134.5237439984871
 20
-153.5434271534544
 10
134.5237439984871
 20
-152.7562228350748
 10
134.5237439984871
 20
-152.7562228350748
 10
134.5237439984871
 20
-152.7562228350748
 10
134.2663953657389
 20
-152.7562228350748
 10
134.2663953657389
 20
-152.7562228350748
 10
134.1385823232362
 20
-152.7562228350748
 10
134.0107692807334
 20
-152.7627685164968
 10
133.8850232955218
 20
-152.7755153697922
 10
133.8850232955218
 20
-152.7755153697922
 10
133.8850232955218
 20
-152.5681206215802
 10
133.8850232955218
 20
-152.5681206215802
 10
134.0166259430583
 20
-152.5808674748756
 10
134.2071397233926
 20
-152.5850015894579
 10
134.2663953657389
 20
-152.5850015894579
 10
134.2663953657389
 20
-152.5850015894579
 10
134.5237439984871
 20
-152.5850015894579
 10
134.5237439984871
 20
-152.5850015894579
 10
134.5220214507445
 20
-152.3162841416084
 10
134.5220214507445
 20
-152.2401475313844
 10
134.5144422406769
 20
-152.0920084255187
 10
134.5144422406769
 20
-152.0920084255187
 10
134.7404405045093
 20
-152.1302489854049
 10
134.7404405045093
 20
-152.1302489854049
 10
134.7535318673533
 20
-152.1323160426961
 10
134.7666232301972
 20
-152.1385172145695
 10
134.7666232301972
 20
-152.1598768065781
 10
134.7666232301972
 20
-152.1788248317469
 10
134.7607665678723
 20
-152.1808918890381
 10
134.7108126833362
 20
-152.2146538247936
 10
134.7073675878509
 20
-152.2932020018572
 10
134.7073675878509
 20
-152.3080159124438
 10
134.7073675878509
 20
-152.5850015894579
 10
134.8627413942357
 20
-152.5808674748756
 10
134.8792778525649
 20
-152.5808674748756
 10
134.908905673738
 20
-152.5763888507448
 10
134.9533474054978
 20
-152.5722547361625
 10
134.9571370105316
 20
-152.5701876788713
 10
134.9960665895148
 20
-152.5681206215802
 10
134.9960665895148
 20
-152.5681206215802
 10
134.9960665895148
 20
-152.7755153697922
 10
134.9960665895148
 20
-152.7755153697922
 10
134.9702283733755
 20
-152.7734483125011
 10
134.921997036582
 20
-152.7648355737879
 10
134.8868570626324
 20
-152.7627685164968
 97
        0
 97
        1
330
15C
 92
        1
 93
        1
 72
     4
 94
        3
 73
     0
 74
     0
 95
       53
 96
       49
 40
0.0
 40
0.0
 40
0.0
 40
0.0
 40
1.0
 40
1.0
 40
1.0
 40
2.0
 40
2.0
 40
2.0
 40
3.0
 40
3.0
 40
3.0
 40
4.0
 40
4.0
 40
4.0
 40
5.0
 40
5.0
 40
5.0
 40
6.0
 40
6.0
 40
6.0
 40
7.0
 40
7.0
 40
7.0
 40
8.0
 40
8.0
 40
8.0
 40
9.0
 40
9.0
 40
9.0
 40
10.0
 40
10.0
 40
10.0
 40
11.0
 40
11.0
 40
11.0
 40
12.0
 40
12.0
 40
12.0
 40
13.0
 40
13.0
 40
13.0
 40
14.0
 40
14.0
 40
14.0
 40
15.0
 40
15.0
 40
15.0
 40
16.0
 40
16.0
 40
16.0
 40
16.0
 10
133.8795111427454
 20
-152.2635741806841
 10
133.8202555003991
 20
-152.4158474011321
 10
133.7830484691584
 20
-152.4940510686473
 10
133.7499755525
 20
-152.5615749401582
 10
133.7868380741922
 20
-152.5829345321668
 10
133.7906276792259
 20
-152.5850015894579
 10
133.7906276792259
 20
-152.5998155000445
 10
133.7906276792259
 20
-152.6125623533399
 10
133.7609998580528
 20
-152.6463242890953
 10
133.7516981002426
 20
-152.6549370278085
 10
133.7499755525
 20
-152.8516519800162
 10
133.7499755525
 20
-152.8726670624763
 10
133.7499755525
 20
-153.0059922577554
 10
133.7479084952088
 20
-153.0187391110509
 10
133.7479084952088
 20
-153.0335530216374
 10
133.7479084952088
 20
-153.048366932224
 10
133.7479084952088
 20
-153.048366932224
 10
133.7479084952088
 20
-153.5833902610833
 10
133.7479084952088
 20
-153.5833902610833
 10
133.7479084952088
 20
-153.655392756725
 10
133.7516981002426
 20
-153.8903482688191
 10
133.7592773103102
 20
-154.0002468147985
 10
133.7592773103102
 20
-154.0002468147985
 10
133.5460258997732
 20
-154.0002468147985
 10
133.5460258997732
 20
-154.0002468147985
 10
133.5663519631362
 20
-153.841772422477
 10
133.5722086254611
 20
-153.6006157385096
 10
133.5722086254611
 20
-153.579256146501
 10
133.5722086254611
 20
-153.579256146501
 10
133.5722086254611
 20
-152.861987266472
 10
133.5722086254611
 20
-152.861987266472
 10
133.4926269197518
 20
-152.9763644365823
 10
133.4388834301819
 20
-153.0356200789286
 10
133.4016763989412
 20
-153.0779947533972
 10
133.4016763989412
 20
-153.0779947533972
 10
133.2349337774551
 20
-152.9405354435357
 10
133.2349337774551
 20
-152.9405354435357
 10
133.4812581046505
 20
-152.7245279566105
 10
133.6497232738792
 20
-152.4158474011321
 10
133.7479084952088
 20
-152.0792615722232
 10
133.7479084952088
 20
-152.0792615722232
 10
133.9404893328343
 20
-152.1936387423335
 10
133.9404893328343
 20
-152.1936387423335
 10
133.9515136383871
 20
-152.199839914207
 10
133.9590928484547
 20
-152.2043185383378
 10
133.9590928484547
 20
-152.2191324489244
 10
133.9590928484547
 20
-152.2442816459667
 10
133.9442789378681
 20
-152.2487602700975
 10
133.8795111427454
 20
-152.2635741806841
 97
        0
 97
        1
330
15D
 75
     2
 76
     1
 98
        1
 10
0.0
 20
0.0
450
        0
451
        0
460
0.0
461
0.0
452
        0
462
0.0
453
        0
470

  0
ENDBLK
  5
140
330
13D
100
AcDbEntity
  8
0
100
AcDbBlockEnd
  0
ENDSEC
  0
SECTION
  2
ENTITIES
  0
INSERT
  5
7A
330
70
100
AcDbEntity
  8
レイヤー 1
100
AcDbBlockReference
  2
Block_0
 10
0.0
 20
0.0
 30
0.0
  0
ENDSEC
  0
SECTION
  2
OBJECTS
  0
DICTIONARY
  5
C
330
0
100
AcDbDictionary
281
     1
  3
ACAD_COLOR
350
63
  3
ACAD_DETAILVIEWSTYLE
350
6A
  3
ACAD_GROUP
350
D
  3
ACAD_LAYOUT
350
62
  3
ACAD_MATERIAL
350
10
  3
ACAD_MLEADERSTYLE
350
66
  3
ACAD_MLINESTYLE
350
5F
  3
ACAD_PLOTSETTINGS
350
61
  3
ACAD_PLOTSTYLENAME
350
E
  3
ACAD_SCALELIST
350
42
  3
ACAD_SECTIONVIEWSTYLE
350
68
  3
ACAD_TABLESTYLE
350
64
  3
ACAD_VISUALSTYLE
350
29
  3
ACDB_RECOMPOSE_DATA
350
16A
  3
AcDbVariableDictionary
350
162
  0
DICTIONARY
  5
63
102
{ACAD_REACTORS
330
C
102
}
330
C
100
AcDbDictionary
281
     1
  0
DICTIONARY
  5
6A
102
{ACAD_REACTORS
330
C
102
}
330
C
100
AcDbDictionary
281
     1
  3
Imperial24
350
6B
  0
DICTIONARY
  5
D
102
{ACAD_REACTORS
330
C
102
}
330
C
100
AcDbDictionary
281
     1
  0
DICTIONARY
  5
62
102
{ACAD_REACTORS
330
C
102
}
330
C
100
AcDbDictionary
281
     1
  3
Layout1
350
6F
  3
Layout2
350
77
  3
Model
350
73
  0
DICTIONARY
  5
10
102
{ACAD_REACTORS
330
C
102
}
330
C
100
AcDbDictionary
281
     1
  3
ByBlock
350
19
  3
ByLayer
350
11
  3
Global
350
21
  0
DICTIONARY
  5
66
102
{ACAD_REACTORS
330
C
102
}
330
C
100
AcDbDictionary
281
     1
  3
Standard
350
67
  0
DICTIONARY
  5
5F
102
{ACAD_REACTORS
330
C
102
}
330
C
100
AcDbDictionary
281
     1
  3
Standard
350
60
  0
DICTIONARY
  5
61
102
{ACAD_REACTORS
330
C
102
}
330
C
100
AcDbDictionary
281
     1
  0
ACDBDICTIONARYWDFLT
  5
E
102
{ACAD_REACTORS
330
C
102
}
330
C
100
AcDbDictionary
281
     1
  3
Normal
350
F
100
AcDbDictionaryWithDefault
340
F
  0
DICTIONARY
  5
42
102
{ACAD_REACTORS
330
C
102
}
330
C
100
AcDbDictionary
281
     1
  3
A0
350
43
  3
A1
350
44
  3
A2
350
45
  3
A3
350
46
  3
A4
350
47
  3
A5
350
48
  3
A6
350
49
  3
A7
350
4A
  3
A8
350
4B
  3
A9
350
4C
  3
B0
350
4D
  3
B1
350
4E
  3
B2
350
4F
  3
B3
350
50
  3
B4
350
51
  3
B5
350
52
  3
B6
350
53
  0
DICTIONARY
  5
68
102
{ACAD_REACTORS
330
C
102
}
330
C
100
AcDbDictionary
281
     1
  3
Imperial24
350
69
  0
DICTIONARY
  5
64
102
{ACAD_REACTORS
330
C
102
}
330
C
100
AcDbDictionary
281
     1
  3
Standard
350
65
  0
DICTIONARY
  5
29
102
{ACAD_REACTORS
330
C
102
}
330
C
100
AcDbDictionary
281
     1
  3
2dWireframe
350
2F
  3
Basic
350
2E
  3
Brighten
350
35
  3
ColorChange
350
39
  3
Conceptual
350
32
  3
Dim
350
34
  3
EdgeColorOff
350
41
  3
Facepattern
350
38
  3
Flat
350
2A
  3
FlatWithEdges
350
2B
  3
Gouraud
350
2C
  3
GouraudWithEdges
350
2D
  3
Hidden
350
31
  3
JitterOff
350
3F
  3
Linepattern
350
37
  3
OverhangOff
350
40
  3
Realistic
350
33
  3
Shaded
350
3E
  3
Shaded with edges
350
3D
  3
Shades of Gray
350
3A
  3
Sketchy
350
3B
  3
Thicken
350
36
  3
Wireframe
350
30
  3
X-Ray
350
3C
  0
XRECORD
  5
16A
102
{ACAD_REACTORS
330
C
102
}
330
C
100
AcDbXrecord
280
     1
 90
        1
330
65
  0
DICTIONARY
  5
162
102
{ACAD_REACTORS
330
C
102
}
330
C
100
AcDbDictionary
281
     1
  3
CANNOSCALE
350
167
  3
CMLEADERSTYLE
350
164
  3
CTABLESTYLE
350
163
  3
CVIEWDETAILSTYLE
350
165
  3
CVIEWSECTIONSTYLE
350
166
  0
ACDBDETAILVIEWSTYLE
  5
6B
102
{ACAD_XDICTIONARY
360
19F
102
}
102
{ACAD_REACTORS
330
6A
102
}
330
6A
100
AcDbModelDocViewStyle
 70
     0
  3
Imperial24
290
     0
100
AcDbDetailViewStyle
 70
     0
 71
     0
 90
        3
 71
     1
340
55
 62
   256
 40
0.24
340
0
 62
   256
 40
0.24
300

 40
0.36
280
     3
 71
     2
340
5D
 90
       25
 62
   256
 71
     3
340
55
 62
   256
 40
0.24
 90
        1
 40
0.75
 90
        1
300
%<\AcVar ViewType \f "%tc1">% %<\AcVar ViewDetailId>%\PSCALE %<\AcVar ViewScale \f "%sn">%
 71
     4
340
5D
 90
       25
 62
   256
340
5D
 90
       25
 62
   256
280
     0
  0
LAYOUT
  5
6F
102
{ACAD_REACTORS
330
62
102
}
330
62
100
AcDbPlotSettings
  1

  2

  4

  6

 40
0.0
 41
0.0
 42
0.0
 43
0.0
 44
0.0
 45
0.0
 46
0.0
 47
0.0
 48
0.0
 49
0.0
140
0.0
141
0.0
142
1.0
143
1.0
 70
   688
 72
     0
 73
     0
 74
     5
  7

 75
    16
147
1.0
 76
     0
 77
     2
 78
   300
148
0.0
149
0.0
100
AcDbLayout
  1
Layout1
 70
     1
 71
     1
 10
0.0
 20
0.0
 11
12.0
 21
9.0
 12
0.0
 22
0.0
 32
0.0
 14
0.0
 24
0.0
 34
0.0
 15
0.0
 25
0.0
 35
0.0
146
0.0
 13
0.0
 23
0.0
 33
0.0
 16
1.0
 26
0.0
 36
0.0
 17
0.0
 27
1.0
 37
0.0
 76
     0
330
6C
  0
LAYOUT
  5
77
102
{ACAD_REACTORS
330
62
102
}
330
62
100
AcDbPlotSettings
  1

  2

  4

  6

 40
0.0
 41
0.0
 42
0.0
 43
0.0
 44
0.0
 45
0.0
 46
0.0
 47
0.0
 48
0.0
 49
0.0
140
0.0
141
0.0
142
1.0
143
1.0
 70
   688
 72
     0
 73
     0
 74
     5
  7

 75
    16
147
1.0
 76
     0
 77
     2
 78
   300
148
0.0
149
0.0
100
AcDbLayout
  1
Layout2
 70
     1
 71
     2
 10
0.0
 20
0.0
 11
12.0
 21
9.0
 12
0.0
 22
0.0
 32
0.0
 14
0.0
 24
0.0
 34
0.0
 15
0.0
 25
0.0
 35
0.0
146
0.0
 13
0.0
 23
0.0
 33
0.0
 16
1.0
 26
0.0
 36
0.0
 17
0.0
 27
1.0
 37
0.0
 76
     0
330
74
  0
LAYOUT
  5
73
102
{ACAD_REACTORS
330
62
102
}
330
62
100
AcDbPlotSettings
  1

  2

  4

  6

 40
0.0
 41
0.0
 42
0.0
 43
0.0
 44
0.0
 45
0.0
 46
0.0
 47
0.0
 48
0.0
 49
0.0
140
0.0
141
0.0
142
1.0
143
1.0
 70
  1712
 72
     0
 73
     0
 74
     0
  7

 75
     0
147
1.0
 76
     0
 77
     2
 78
   300
148
0.0
149
0.0
100
AcDbLayout
  1
Model
 70
     1
 71
     0
 10
0.0
 20
0.0
 11
12.0
 21
9.0
 12
0.0
 22
0.0
 32
0.0
 14
0.0
 24
0.0
 34
0.0
 15
0.0
 25
0.0
 35
0.0
146
0.0
 13
0.0
 23
0.0
 33
0.0
 16
1.0
 26
0.0
 36
0.0
 17
0.0
 27
1.0
 37
0.0
 76
     0
330
70
  0
MATERIAL
  5
19
102
{ACAD_XDICTIONARY
360
1A
102
}
102
{ACAD_REACTORS
330
10
102
}
330
10
100
AcDbMaterial
  1
ByBlock
 72
     0
 43
0.0208333333333333
 43
0.0
 43
0.0
 43
0.0
 43
0.0
 43
0.0208333333333333
 43
0.0
 43
0.0
 43
0.0
 43
0.0
 43
1.0
 43
0.0
 43
0.0
 43
0.0
 43
0.0
 43
1.0
 77
     0
 47
0.0208333333333333
 47
0.0
 47
0.0
 47
0.0
 47
0.0
 47
0.0208333333333333
 47
0.0
 47
0.0
 47
0.0
 47
0.0
 47
1.0
 47
0.0
 47
0.0
 47
0.0
 47
0.0
 47
1.0
171
     0
 49
0.0208333333333333
 49
0.0
 49
0.0
 49
0.0
 49
0.0
 49
0.0208333333333333
 49
0.0
 49
0.0
 49
0.0
 49
0.0
 49
1.0
 49
0.0
 49
0.0
 49
0.0
 49
0.0
 49
1.0
175
     0
142
0.0208333333333333
142
0.0
142
0.0
142
0.0
142
0.0
142
0.0208333333333333
142
0.0
142
0.0
142
0.0
142
0.0
142
1.0
142
0.0
142
0.0
142
0.0
142
0.0
142
1.0
179
     0
144
0.0208333333333333
144
0.0
144
0.0
144
0.0
144
0.0
144
0.0208333333333333
144
0.0
144
0.0
144
0.0
144
0.0
144
1.0
144
0.0
144
0.0
144
0.0
144
0.0
144
1.0
147
0.0208333333333333
147
0.0
147
0.0
147
0.0
147
0.0
147
0.0208333333333333
147
0.0
147
0.0
147
0.0
147
0.0
147
1.0
147
0.0
147
0.0
147
0.0
147
0.0
147
1.0
  0
MATERIAL
  5
11
102
{ACAD_XDICTIONARY
360
12
102
}
102
{ACAD_REACTORS
330
10
102
}
330
10
100
AcDbMaterial
  1
ByLayer
 72
     0
 43
0.0208333333333333
 43
0.0
 43
0.0
 43
0.0
 43
0.0
 43
0.0208333333333333
 43
0.0
 43
0.0
 43
0.0
 43
0.0
 43
1.0
 43
0.0
 43
0.0
 43
0.0
 43
0.0
 43
1.0
 77
     0
 47
0.0208333333333333
 47
0.0
 47
0.0
 47
0.0
 47
0.0
 47
0.0208333333333333
 47
0.0
 47
0.0
 47
0.0
 47
0.0
 47
1.0
 47
0.0
 47
0.0
 47
0.0
 47
0.0
 47
1.0
171
     0
 49
0.0208333333333333
 49
0.0
 49
0.0
 49
0.0
 49
0.0
 49
0.0208333333333333
 49
0.0
 49
0.0
 49
0.0
 49
0.0
 49
1.0
 49
0.0
 49
0.0
 49
0.0
 49
0.0
 49
1.0
175
     0
142
0.0208333333333333
142
0.0
142
0.0
142
0.0
142
0.0
142
0.0208333333333333
142
0.0
142
0.0
142
0.0
142
0.0
142
1.0
142
0.0
142
0.0
142
0.0
142
0.0
142
1.0
179
     0
144
0.0208333333333333
144
0.0
144
0.0
144
0.0
144
0.0
144
0.0208333333333333
144
0.0
144
0.0
144
0.0
144
0.0
144
1.0
144
0.0
144
0.0
144
0.0
144
0.0
144
1.0
147
0.0208333333333333
147
0.0
147
0.0
147
0.0
147
0.0
147
0.0208333333333333
147
0.0
147
0.0
147
0.0
147
0.0
147
1.0
147
0.0
147
0.0
147
0.0
147
0.0
147
1.0
  0
MATERIAL
  5
21
102
{ACAD_XDICTIONARY
360
22
102
}
102
{ACAD_REACTORS
330
10
102
}
330
10
100
AcDbMaterial
  1
Global
 72
     0
 43
0.0208333333333333
 43
0.0
 43
0.0
 43
0.0
 43
0.0
 43
0.0208333333333333
 43
0.0
 43
0.0
 43
0.0
 43
0.0
 43
1.0
 43
0.0
 43
0.0
 43
0.0
 43
0.0
 43
1.0
 77
     0
 47
0.0208333333333333
 47
0.0
 47
0.0
 47
0.0
 47
0.0
 47
0.0208333333333333
 47
0.0
 47
0.0
 47
0.0
 47
0.0
 47
1.0
 47
0.0
 47
0.0
 47
0.0
 47
0.0
 47
1.0
171
     0
 49
0.0208333333333333
 49
0.0
 49
0.0
 49
0.0
 49
0.0
 49
0.0208333333333333
 49
0.0
 49
0.0
 49
0.0
 49
0.0
 49
1.0
 49
0.0
 49
0.0
 49
0.0
 49
0.0
 49
1.0
175
     0
142
0.0208333333333333
142
0.0
142
0.0
142
0.0
142
0.0
142
0.0208333333333333
142
0.0
142
0.0
142
0.0
142
0.0
142
1.0
142
0.0
142
0.0
142
0.0
142
0.0
142
1.0
179
     0
144
0.0208333333333333
144
0.0
144
0.0
144
0.0
144
0.0
144
0.0208333333333333
144
0.0
144
0.0
144
0.0
144
0.0
144
1.0
144
0.0
144
0.0
144
0.0
144
0.0
144
1.0
147
0.0208333333333333
147
0.0
147
0.0
147
0.0
147
0.0
147
0.0208333333333333
147
0.0
147
0.0
147
0.0
147
0.0
147
1.0
147
0.0
147
0.0
147
0.0
147
0.0
147
1.0
  0
MLEADERSTYLE
  5
67
102
{ACAD_XDICTIONARY
360
19B
102
}
102
{ACAD_REACTORS
330
66
102
}
330
66
100
AcDbMLeaderStyle
179
     2
170
     2
171
     1
172
     0
 90
        2
 40
0.0
 41
0.0
173
     1
 91
-1056964608
340
5B
 92
       -2
290
     1
 42
0.09
291
     1
 43
0.36
  3
Standard
 44
0.18
300

342
55
174
     1
178
     6
175
     1
176
     0
 93
-1056964608
 45
0.18
292
     0
297
     0
 46
0.18
 94
-1056964608
 47
1.0
 49
1.0
140
1.0
293
     1
141
0.0
294
     1
177
     0
142
1.0
295
     0
296
     0
143
0.125
271
     0
272
     9
273
     9
  0
MLINESTYLE
  5
60
102
{ACAD_REACTORS
330
5F
102
}
330
5F
100
AcDbMlineStyle
  2
STANDARD
 70
     0
  3

 62
   256
 51
90.0
 52
90.0
 71
     2
 49
0.5
 62
   256
  6
BYLAYER
 49
-0.5
 62
   256
  6
BYLAYER
  0
ACDBPLACEHOLDER
  5
F
102
{ACAD_REACTORS
330
E
102
}
330
E
  0
SCALE
  5
43
102
{ACAD_REACTORS
330
42
102
}
330
42
100
AcDbScale
 70
     0
300
1:1
140
1.0
141
1.0
290
     1
  0
SCALE
  5
44
102
{ACAD_REACTORS
330
42
102
}
330
42
100
AcDbScale
 70
     0
300
1/128" = 1'-0"
140
0.0078125
141
12.0
290
     0
  0
SCALE
  5
45
102
{ACAD_REACTORS
330
42
102
}
330
42
100
AcDbScale
 70
     0
300
1/64" = 1'-0"
140
0.015625
141
12.0
290
     0
  0
SCALE
  5
46
102
{ACAD_REACTORS
330
42
102
}
330
42
100
AcDbScale
 70
     0
300
1/32" = 1'-0"
140
0.03125
141
12.0
290
     0
  0
SCALE
  5
47
102
{ACAD_REACTORS
330
42
102
}
330
42
100
AcDbScale
 70
     0
300
1/16" = 1'-0"
140
0.0625
141
12.0
290
     0
  0
SCALE
  5
48
102
{ACAD_REACTORS
330
42
102
}
330
42
100
AcDbScale
 70
     0
300
3/32" = 1'-0"
140
0.09375
141
12.0
290
     0
  0
SCALE
  5
49
102
{ACAD_REACTORS
330
42
102
}
330
42
100
AcDbScale
 70
     0
300
1/8" = 1'-0"
140
0.125
141
12.0
290
     0
  0
SCALE
  5
4A
102
{ACAD_REACTORS
330
42
102
}
330
42
100
AcDbScale
 70
     0
300
3/16" = 1'-0"
140
0.1875
141
12.0
290
     0
  0
SCALE
  5
4B
102
{ACAD_REACTORS
330
42
102
}
330
42
100
AcDbScale
 70
     0
300
1/4" = 1'-0"
140
0.25
141
12.0
290
     0
  0
SCALE
  5
4C
102
{ACAD_REACTORS
330
42
102
}
330
42
100
AcDbScale
 70
     0
300
3/8" = 1'-0"
140
0.375
141
12.0
290
     0
  0
SCALE
  5
4D
102
{ACAD_REACTORS
330
42
102
}
330
42
100
AcDbScale
 70
     0
300
1/2" = 1'-0"
140
0.5
141
12.0
290
     0
  0
SCALE
  5
4E
102
{ACAD_REACTORS
330
42
102
}
330
42
100
AcDbScale
 70
     0
300
3/4" = 1'-0"
140
0.75
141
12.0
290
     0
  0
SCALE
  5
4F
102
{ACAD_REACTORS
330
42
102
}
330
42
100
AcDbScale
 70
     0
300
1" = 1'-0"
140
1.0
141
12.0
290
     0
  0
SCALE
  5
50
102
{ACAD_REACTORS
330
42
102
}
330
42
100
AcDbScale
 70
     0
300
1-1/2" = 1'-0"
140
1.5
141
12.0
290
     0
  0
SCALE
  5
51
102
{ACAD_REACTORS
330
42
102
}
330
42
100
AcDbScale
 70
     0
300
3" = 1'-0"
140
3.0
141
12.0
290
     0
  0
SCALE
  5
52
102
{ACAD_REACTORS
330
42
102
}
330
42
100
AcDbScale
 70
     0
300
6" = 1'-0"
140
6.0
141
12.0
290
     0
  0
SCALE
  5
53
102
{ACAD_REACTORS
330
42
102
}
330
42
100
AcDbScale
 70
     0
300
1'-0" = 1'-0"
140
12.0
141
12.0
290
     0
  0
ACDBSECTIONVIEWSTYLE
  5
69
102
{ACAD_XDICTIONARY
360
19D
102
}
102
{ACAD_REACTORS
330
68
102
}
330
68
100
AcDbModelDocViewStyle
 70
     0
  3
Imperial24
290
     0
100
AcDbSectionViewStyle
 70
     0
 71
     0
 90
       78
 71
     1
340
55
 62
   256
 40
0.24
340
0
340
0
 62
   256
 40
0.24
300
I, O, Q, S, X, Z
 40
0.48
 90
        3
 40
0.18
 90
        1
 71
     2
340
5D
 90
       25
 62
   256
340
5D
 90
       50
 62
   256
 40
0.24
 40
0.0
 40
0.24
 71
     3
340
55
 62
   256
 40
0.24
 90
        1
 40
0.75
 90
        1
300
%<\AcVar ViewType \f "%tc1">% %<\AcVar ViewSectionStartId>%-%<\AcVar ViewSectionEndId>%\PSCALE %<\AcVar ViewScale \f "%sn">%
 71
     4
 62
   256
 62
   257
300
ANSI31
 40
1.0
 90
        0
290
     0
290
     0
 90
        6
 40
0.0
 40
1.570796326794896
 40
0.2617993877991494
 40
1.308996938995747
 40
-0.2617993877991494
 40
1.832595714594046
  0
TABLESTYLE
  5
65
102
{ACAD_XDICTIONARY
360
168
102
}
102
{ACAD_REACTORS
330
64
102
}
330
64
100
AcDbTableStyle
280
     0
  3
Standard
 70
     0
 71
     0
 40
0.06
 41
0.06
280
     0
281
     0
  7
Standard
140
0.18
170
     2
 62
     0
 63
     7
283
     0
 90
      512
 91
        0
  1

274
    -2
284
     1
 64
     0
275
    -2
285
     1
 65
     0
276
    -2
286
     1
 66
     0
277
    -2
287
     1
 67
     0
278
    -2
288
     1
 68
     0
279
    -2
289
     1
 69
     0
  7
Standard
140
0.25
170
     5
 62
     0
 63
     7
283
     0
 90
      512
 91
        0
  1

274
    -2
284
     1
 64
     0
275
    -2
285
     1
 65
     0
276
    -2
286
     1
 66
     0
277
    -2
287
     1
 67
     0
278
    -2
288
     1
 68
     0
279
    -2
289
     1
 69
     0
  7
Standard
140
0.18
170
     5
 62
     0
 63
     7
283
     0
 90
      512
 91
        0
  1

274
    -2
284
     1
 64
     0
275
    -2
285
     1
 65
     0
276
    -2
286
     1
 66
     0
277
    -2
287
     1
 67
     0
278
    -2
288
     1
 68
     0
279
    -2
289
     1
 69
     0
  0
VISUALSTYLE
  5
2F
102
{ACAD_XDICTIONARY
360
175
102
}
102
{ACAD_REACTORS
330
29
102
}
330
29
100
AcDbVisualStyle
  2
2dWireframe
 70
     4
177
     2
291
     0
 71
     0
176
     1
 72
     2
176
     1
 73
     0
176
     1
 90
        0
176
     1
 40
0.6
176
     1
 41
30.0
176
     1
 63
     7
421
 16777215
176
     1
 74
     1
176
     1
 91
        4
176
     1
 64
     7
176
     1
 65
   257
176
     1
 75
     1
176
     1
175
     1
176
     1
 42
1.0
176
     1
 92
        0
176
     1
 66
   257
176
     1
 43
1.0
176
     1
 76
     1
176
     1
 77
     6
176
     1
 78
     2
176
     1
 67
     7
176
     1
 79
     5
176
     1
170
     0
176
     1
171
     0
176
     1
290
     0
176
     1
 93
        1
176
     1
 44
0.0
176
     1
173
     0
176
     1
1001
ACAD
1000
AcDbSavedByObjectVersion
1070
     0
  0
VISUALSTYLE
  5
2E
102
{ACAD_XDICTIONARY
360
173
102
}
102
{ACAD_REACTORS
330
29
102
}
330
29
100
AcDbVisualStyle
  2
Basic
 70
     7
177
     2
291
     1
 71
     1
176
     1
 72
     0
176
     1
 73
     1
176
     1
 90
        0
176
     1
 40
0.6
176
     1
 41
30.0
176
     1
 63
     7
421
 16777215
176
     1
 74
     0
176
     1
 91
        4
176
     1
 64
     7
176
     1
 65
   257
176
     1
 75
     1
176
     1
175
     1
176
     1
 42
1.0
176
     1
 92
        8
176
     1
 66
     7
176
     1
 43
1.0
176
     1
 76
     1
176
     1
 77
     6
176
     1
 78
     2
176
     1
 67
     7
176
     1
 79
     5
176
     1
170
     0
176
     1
171
     0
176
     1
290
     0
176
     1
 93
        1
176
     1
 44
0.0
176
     1
173
     0
176
     1
1001
ACAD
1000
AcDbSavedByObjectVersion
1070
     0
  0
VISUALSTYLE
  5
35
102
{ACAD_XDICTIONARY
360
181
102
}
102
{ACAD_REACTORS
330
29
102
}
330
29
100
AcDbVisualStyle
  2
Brighten
 70
    12
177
     2
291
     1
 71
     2
176
     1
 72
     2
176
     1
 73
     0
176
     1
 90
        0
176
     1
 40
0.6
176
     1
 41
30.0
176
     1
 63
     7
421
 16777215
176
     1
 74
     1
176
     1
 91
        4
176
     1
 64
     7
176
     1
 65
   257
176
     1
 75
     1
176
     1
175
     1
176
     1
 42
1.0
176
     1
 92
        8
176
     1
 66
     7
176
     1
 43
1.0
176
     1
 76
     1
176
     1
 77
     6
176
     1
 78
     2
176
     1
 67
     7
176
     1
 79
     5
176
     1
170
     0
176
     1
171
     0
176
     1
290
     0
176
     1
 93
        1
176
     1
 44
50.0
176
     1
173
     0
176
     1
1001
ACAD
1000
AcDbSavedByObjectVersion
1070
     0
  0
VISUALSTYLE
  5
39
102
{ACAD_XDICTIONARY
360
189
102
}
102
{ACAD_REACTORS
330
29
102
}
330
29
100
AcDbVisualStyle
  2
ColorChange
 70
    16
177
     2
291
     1
 71
     2
176
     1
 72
     2
176
     1
 73
     3
176
     1
 90
        0
176
     1
 40
0.6
176
     1
 41
30.0
176
     1
 63
     8
421
  8421504
176
     1
 74
     1
176
     1
 91
        4
176
     1
 64
     7
176
     1
 65
   257
176
     1
 75
     1
176
     1
175
     1
176
     1
 42
1.0
176
     1
 92
        8
176
     1
 66
     8
424
  8421504
176
     1
 43
1.0
176
     1
 76
     1
176
     1
 77
     6
176
     1
 78
     2
176
     1
 67
     7
176
     1
 79
     5
176
     1
170
     0
176
     1
171
     0
176
     1
290
     0
176
     1
 93
        1
176
     1
 44
0.0
176
     1
173
     0
176
     1
1001
ACAD
1000
AcDbSavedByObjectVersion
1070
     0
  0
VISUALSTYLE
  5
32
102
{ACAD_XDICTIONARY
360
17B
102
}
102
{ACAD_REACTORS
330
29
102
}
330
29
100
AcDbVisualStyle
  2
Conceptual
 70
     9
177
     2
291
     0
 71
     3
176
     1
 72
     2
176
     1
 73
     0
176
     1
 90
        0
176
     1
 40
0.6
176
     1
 41
30.0
176
     1
 63
     7
421
 16777215
176
     1
 74
     2
176
     1
 91
        2
176
     1
 64
     7
176
     1
 65
   257
176
     1
 75
     1
176
     1
175
     1
176
     1
 42
179.0
176
     1
 92
        8
176
     1
 66
     7
176
     1
 43
1.0
176
     1
 76
     1
176
     1
 77
     6
176
     1
 78
     2
176
     1
 67
     7
176
     1
 79
     3
176
     1
170
     0
176
     1
171
     0
176
     1
290
     0
176
     1
 93
        1
176
     1
 44
0.0
176
     1
173
     0
176
     1
1001
ACAD
1000
AcDbSavedByObjectVersion
1070
     0
  0
VISUALSTYLE
  5
34
102
{ACAD_XDICTIONARY
360
17F
102
}
102
{ACAD_REACTORS
330
29
102
}
330
29
100
AcDbVisualStyle
  2
Dim
 70
    11
177
     2
291
     1
 71
     2
176
     1
 72
     2
176
     1
 73
     0
176
     1
 90
        0
176
     1
 40
0.6
176
     1
 41
30.0
176
     1
 63
     7
421
 16777215
176
     1
 74
     1
176
     1
 91
        4
176
     1
 64
     7
176
     1
 65
   257
176
     1
 75
     1
176
     1
175
     1
176
     1
 42
1.0
176
     1
 92
        8
176
     1
 66
     7
176
     1
 43
1.0
176
     1
 76
     1
176
     1
 77
     6
176
     1
 78
     2
176
     1
 67
     7
176
     1
 79
     5
176
     1
170
     0
176
     1
171
     0
176
     1
290
     0
176
     1
 93
        1
176
     1
 44
-50.0
176
     1
173
     0
176
     1
1001
ACAD
1000
AcDbSavedByObjectVersion
1070
     0
  0
VISUALSTYLE
  5
41
102
{ACAD_XDICTIONARY
360
199
102
}
102
{ACAD_REACTORS
330
29
102
}
330
29
100
AcDbVisualStyle
  2
EdgeColorOff
 70
    22
177
     2
291
     1
 71
     2
176
     0
 72
     2
176
     0
 73
     0
176
     0
 90
        0
176
     0
 40
0.6
176
     0
 41
30.0
176
     0
 63
     7
421
 16777215
176
     0
 74
     1
176
     0
 91
        4
176
     0
 64
     7
176
     0
 65
   257
176
     0
 75
     1
176
     0
175
     1
176
     0
 42
1.0
176
     0
 92
        8
176
     2
 66
     7
176
     0
 43
1.0
176
     0
 76
     1
176
     0
 77
     6
176
     0
 78
     2
176
     0
 67
     7
176
     0
 79
     5
176
     0
170
     0
176
     0
171
     0
176
     0
290
     0
176
     0
 93
        1
176
     0
 44
0.0
176
     0
173
     0
176
     0
1001
ACAD
1000
AcDbSavedByObjectVersion
1070
     0
  0
VISUALSTYLE
  5
38
102
{ACAD_XDICTIONARY
360
187
102
}
102
{ACAD_REACTORS
330
29
102
}
330
29
100
AcDbVisualStyle
  2
Facepattern
 70
    15
177
     2
291
     1
 71
     2
176
     1
 72
     2
176
     1
 73
     0
176
     1
 90
        0
176
     1
 40
0.6
176
     1
 41
30.0
176
     1
 63
     7
421
 16777215
176
     1
 74
     1
176
     1
 91
        4
176
     1
 64
     7
176
     1
 65
   257
176
     1
 75
     1
176
     1
175
     1
176
     1
 42
1.0
176
     1
 92
        8
176
     1
 66
     7
176
     1
 43
1.0
176
     1
 76
     1
176
     1
 77
     6
176
     1
 78
     2
176
     1
 67
     7
176
     1
 79
     5
176
     1
170
     0
176
     1
171
     0
176
     1
290
     0
176
     1
 93
        1
176
     1
 44
0.0
176
     1
173
     0
176
     1
1001
ACAD
1000
AcDbSavedByObjectVersion
1070
     0
  0
VISUALSTYLE
  5
2A
102
{ACAD_XDICTIONARY
360
16B
102
}
102
{ACAD_REACTORS
330
29
102
}
330
29
100
AcDbVisualStyle
  2
Flat
 70
     0
177
     2
291
     1
 71
     2
176
     1
 72
     1
176
     1
 73
     1
176
     1
 90
        2
176
     1
 40
0.6
176
     1
 41
30.0
176
     1
 63
     7
421
 16777215
176
     1
 74
     0
176
     1
 91
        0
176
     1
 64
     7
176
     1
 65
   257
176
     1
 75
     1
176
     1
175
     1
176
     1
 42
1.0
176
     1
 92
        8
176
     1
 66
     7
176
     1
 43
1.0
176
     1
 76
     1
176
     1
 77
     6
176
     1
 78
     2
176
     1
 67
     7
176
     1
 79
     5
176
     1
170
     0
176
     1
171
     0
176
     1
290
     0
176
     1
 93
       13
176
     1
 44
0.0
176
     1
173
     0
176
     1
1001
ACAD
1000
AcDbSavedByObjectVersion
1070
     0
  0
VISUALSTYLE
  5
2B
102
{ACAD_XDICTIONARY
360
16D
102
}
102
{ACAD_REACTORS
330
29
102
}
330
29
100
AcDbVisualStyle
  2
FlatWithEdges
 70
     1
177
     2
291
     1
 71
     2
176
     1
 72
     1
176
     1
 73
     1
176
     1
 90
        2
176
     1
 40
0.6
176
     1
 41
30.0
176
     1
 63
     7
421
 16777215
176
     1
 74
     1
176
     1
 91
        0
176
     1
 64
     7
176
     1
 65
   257
176
     1
 75
     1
176
     1
175
     1
176
     1
 42
1.0
176
     1
 92
        0
176
     1
 66
   257
176
     1
 43
1.0
176
     1
 76
     1
176
     1
 77
     6
176
     1
 78
     2
176
     1
 67
     7
176
     1
 79
     5
176
     1
170
     0
176
     1
171
     0
176
     1
290
     0
176
     1
 93
       13
176
     1
 44
0.0
176
     1
173
     0
176
     1
1001
ACAD
1000
AcDbSavedByObjectVersion
1070
     0
  0
VISUALSTYLE
  5
2C
102
{ACAD_XDICTIONARY
360
16F
102
}
102
{ACAD_REACTORS
330
29
102
}
330
29
100
AcDbVisualStyle
  2
Gouraud
 70
     2
177
     2
291
     1
 71
     2
176
     1
 72
     2
176
     1
 73
     1
176
     1
 90
        2
176
     1
 40
0.6
176
     1
 41
30.0
176
     1
 63
     7
421
 16777215
176
     1
 74
     0
176
     1
 91
        0
176
     1
 64
     7
176
     1
 65
   257
176
     1
 75
     1
176
     1
175
     1
176
     1
 42
1.0
176
     1
 92
        0
176
     1
 66
     7
176
     1
 43
1.0
176
     1
 76
     1
176
     1
 77
     6
176
     1
 78
     2
176
     1
 67
     7
176
     1
 79
     5
176
     1
170
     0
176
     1
171
     0
176
     1
290
     0
176
     1
 93
       13
176
     1
 44
0.0
176
     1
173
     0
176
     1
1001
ACAD
1000
AcDbSavedByObjectVersion
1070
     0
  0
VISUALSTYLE
  5
2D
102
{ACAD_XDICTIONARY
360
171
102
}
102
{ACAD_REACTORS
330
29
102
}
330
29
100
AcDbVisualStyle
  2
GouraudWithEdges
 70
     3
177
     2
291
     1
 71
     2
176
     1
 72
     2
176
     1
 73
     1
176
     1
 90
        2
176
     1
 40
0.6
176
     1
 41
30.0
176
     1
 63
     7
421
 16777215
176
     1
 74
     1
176
     1
 91
        0
176
     1
 64
     7
176
     1
 65
   257
176
     1
 75
     1
176
     1
175
     1
176
     1
 42
1.0
176
     1
 92
        0
176
     1
 66
   257
176
     1
 43
1.0
176
     1
 76
     1
176
     1
 77
     6
176
     1
 78
     2
176
     1
 67
     7
176
     1
 79
     5
176
     1
170
     0
176
     1
171
     0
176
     1
290
     0
176
     1
 93
       13
176
     1
 44
0.0
176
     1
173
     0
176
     1
1001
ACAD
1000
AcDbSavedByObjectVersion
1070
     0
  0
VISUALSTYLE
  5
31
102
{ACAD_XDICTIONARY
360
179
102
}
102
{ACAD_REACTORS
330
29
102
}
330
29
100
AcDbVisualStyle
  2
Hidden
 70
     6
177
     2
291
     0
 71
     1
176
     1
 72
     2
176
     1
 73
     2
176
     1
 90
        0
176
     1
 40
0.6
176
     1
 41
30.0
176
     1
 63
     7
421
 16777215
176
     1
 74
     2
176
     1
 91
        2
176
     1
 64
     7
176
     1
 65
   257
176
     1
 75
     2
176
     1
175
     1
176
     1
 42
40.0
176
     1
 92
        0
176
     1
 66
   257
176
     1
 43
1.0
176
     1
 76
     1
176
     1
 77
     6
176
     1
 78
     2
176
     1
 67
     7
176
     1
 79
     3
176
     1
170
     0
176
     1
171
     0
176
     1
290
     0
176
     1
 93
        1
176
     1
 44
0.0
176
     1
173
     0
176
     1
1001
ACAD
1000
AcDbSavedByObjectVersion
1070
     0
  0
VISUALSTYLE
  5
3F
102
{ACAD_XDICTIONARY
360
195
102
}
102
{ACAD_REACTORS
330
29
102
}
330
29
100
AcDbVisualStyle
  2
JitterOff
 70
    20
177
     2
291
     1
 71
     2
176
     0
 72
     2
176
     0
 73
     0
176
     0
 90
        0
176
     0
 40
0.6
176
     0
 41
30.0
176
     0
 63
     7
421
 16777215
176
     0
 74
     1
176
     0
 91
        4
176
     0
 64
     7
176
     0
 65
   257
176
     0
 75
     1
176
     0
175
     1
176
     0
 42
1.0
176
     0
 92
       10
176
     2
 66
     7
176
     0
 43
1.0
176
     0
 76
     1
176
     0
 77
     6
176
     0
 78
     2
176
     0
 67
     7
176
     0
 79
     5
176
     0
170
     0
176
     0
171
     0
176
     0
290
     0
176
     0
 93
        1
176
     0
 44
0.0
176
     0
173
     0
176
     0
1001
ACAD
1000
AcDbSavedByObjectVersion
1070
     0
  0
VISUALSTYLE
  5
37
102
{ACAD_XDICTIONARY
360
185
102
}
102
{ACAD_REACTORS
330
29
102
}
330
29
100
AcDbVisualStyle
  2
Linepattern
 70
    14
177
     2
291
     1
 71
     2
176
     1
 72
     2
176
     1
 73
     0
176
     1
 90
        0
176
     1
 40
0.6
176
     1
 41
30.0
176
     1
 63
     7
421
 16777215
176
     1
 74
     1
176
     1
 91
        4
176
     1
 64
     7
176
     1
 65
   257
176
     1
 75
     7
176
     1
175
     7
176
     1
 42
1.0
176
     1
 92
        8
176
     1
 66
     7
176
     1
 43
1.0
176
     1
 76
     1
176
     1
 77
     6
176
     1
 78
     2
176
     1
 67
     7
176
     1
 79
     5
176
     1
170
     0
176
     1
171
     0
176
     1
290
     0
176
     1
 93
        1
176
     1
 44
0.0
176
     1
173
     0
176
     1
1001
ACAD
1000
AcDbSavedByObjectVersion
1070
     0
  0
VISUALSTYLE
  5
40
102
{ACAD_XDICTIONARY
360
197
102
}
102
{ACAD_REACTORS
330
29
102
}
330
29
100
AcDbVisualStyle
  2
OverhangOff
 70
    21
177
     2
291
     1
 71
     2
176
     0
 72
     2
176
     0
 73
     0
176
     0
 90
        0
176
     0
 40
0.6
176
     0
 41
30.0
176
     0
 63
     7
421
 16777215
176
     0
 74
     1
176
     0
 91
        4
176
     0
 64
     7
176
     0
 65
   257
176
     0
 75
     1
176
     0
175
     1
176
     0
 42
1.0
176
     0
 92
        9
176
     2
 66
     7
176
     0
 43
1.0
176
     0
 76
     1
176
     0
 77
     6
176
     0
 78
     2
176
     0
 67
     7
176
     0
 79
     5
176
     0
170
     0
176
     0
171
     0
176
     0
290
     0
176
     0
 93
        1
176
     0
 44
0.0
176
     0
173
     0
176
     0
1001
ACAD
1000
AcDbSavedByObjectVersion
1070
     0
  0
VISUALSTYLE
  5
33
102
{ACAD_XDICTIONARY
360
17D
102
}
102
{ACAD_REACTORS
330
29
102
}
330
29
100
AcDbVisualStyle
  2
Realistic
 70
     8
177
     2
291
     0
 71
     2
176
     1
 72
     3
176
     1
 73
     0
176
     1
 90
        2
176
     1
 40
0.6
176
     1
 41
30.0
176
     1
 63
     7
421
 16777215
176
     1
 74
     0
176
     1
 91
        0
176
     1
 64
     7
176
     1
 65
   257
176
     1
 75
     1
176
     1
175
     1
176
     1
 42
1.0
176
     1
 92
        8
176
     1
 66
   257
176
     1
 43
1.0
176
     1
 76
     1
176
     1
 77
     6
176
     1
 78
     2
176
     1
 67
     7
176
     1
 79
     3
176
     1
170
     0
176
     1
171
     0
176
     1
290
     0
176
     1
 93
       13
176
     1
 44
0.0
176
     1
173
     0
176
     1
1001
ACAD
1000
AcDbSavedByObjectVersion
1070
     0
  0
VISUALSTYLE
  5
3E
102
{ACAD_XDICTIONARY
360
193
102
}
102
{ACAD_REACTORS
330
29
102
}
330
29
100
AcDbVisualStyle
  2
Shaded
 70
    27
177
     2
291
     0
 71
     2
176
     1
 72
     2
176
     1
 73
     1
176
     1
 90
        2
176
     1
 40
0.6
176
     1
 41
30.0
176
     1
 63
     7
421
 16777215
176
     1
 74
     0
176
     1
 91
        4
176
     1
 64
     7
176
     1
 65
   257
176
     1
 75
     1
176
     1
175
     1
176
     1
 42
1.0
176
     1
 92
        8
176
     1
 66
   257
176
     1
 43
1.0
176
     1
 76
     1
176
     1
 77
     6
176
     1
 78
     2
176
     1
 67
     8
425
  7895160
176
     1
 79
     3
176
     1
170
     0
176
     1
171
     0
176
     1
290
     0
176
     1
 93
        5
176
     1
 44
0.0
176
     1
173
     0
176
     1
1001
ACAD
1000
AcDbSavedByObjectVersion
1070
     0
  0
VISUALSTYLE
  5
3D
102
{ACAD_XDICTIONARY
360
191
102
}
102
{ACAD_REACTORS
330
29
102
}
330
29
100
AcDbVisualStyle
  2
Shaded with edges
 70
    26
177
     2
291
     0
 71
     2
176
     1
 72
     2
176
     1
 73
     1
176
     1
 90
        2
176
     1
 40
0.6
176
     1
 41
30.0
176
     1
 63
     7
421
 16777215
176
     1
 74
     1
176
     1
 91
        2
176
     1
 64
     7
176
     1
 65
   257
176
     1
 75
     2
176
     1
175
     1
176
     1
 42
1.0
176
     1
 92
        8
176
     1
 66
   257
176
     1
 43
1.0
176
     1
 76
     1
176
     1
 77
     6
176
     1
 78
     2
176
     1
 67
     7
176
     1
 79
     3
176
     1
170
     0
176
     1
171
     0
176
     1
290
     0
176
     1
 93
        5
176
     1
 44
0.0
176
     1
173
     0
176
     1
1001
ACAD
1000
AcDbSavedByObjectVersion
1070
     0
  0
VISUALSTYLE
  5
3A
102
{ACAD_XDICTIONARY
360
18B
102
}
102
{ACAD_REACTORS
330
29
102
}
330
29
100
AcDbVisualStyle
  2
Shades of Gray
 70
    23
177
     2
291
     0
 71
     2
176
     1
 72
     2
176
     1
 73
     3
176
     1
 90
        0
176
     1
 40
0.6
176
     1
 41
30.0
176
     1
 63
     7
421
 16777215
176
     1
 74
     2
176
     1
 91
        2
176
     1
 64
     7
176
     1
 65
     7
176
     1
 75
     1
176
     1
175
     1
176
     1
 42
40.0
176
     1
 92
        8
176
     1
 66
     7
176
     1
 43
1.0
176
     1
 76
     1
176
     1
 77
     6
176
     1
 78
     2
176
     1
 67
     7
176
     1
 79
     3
176
     1
170
     0
176
     1
171
     0
176
     1
290
     0
176
     1
 93
        1
176
     1
 44
0.0
176
     1
173
     0
176
     1
1001
ACAD
1000
AcDbSavedByObjectVersion
1070
     0
  0
VISUALSTYLE
  5
3B
102
{ACAD_XDICTIONARY
360
18D
102
}
102
{ACAD_REACTORS
330
29
102
}
330
29
100
AcDbVisualStyle
  2
Sketchy
 70
    24
177
     2
291
     0
 71
     1
176
     1
 72
     2
176
     1
 73
     2
176
     1
 90
        0
176
     1
 40
0.6
176
     1
 41
30.0
176
     1
 63
     7
421
 16777215
176
     1
 74
     2
176
     1
 91
        2
176
     1
 64
     7
176
     1
 65
     7
176
     1
 75
     1
176
     1
175
     1
176
     1
 42
40.0
176
     1
 92
       11
176
     1
 66
     7
176
     1
 43
1.0
176
     1
 76
     1
176
     1
 77
     6
176
     1
 78
     2
176
     1
 67
     7
176
     1
 79
     6
176
     1
170
     0
176
     1
171
     0
176
     1
290
     0
176
     1
 93
        1
176
     1
 44
0.0
176
     1
173
     0
176
     1
1001
ACAD
1000
AcDbSavedByObjectVersion
1070
     0
  0
VISUALSTYLE
  5
36
102
{ACAD_XDICTIONARY
360
183
102
}
102
{ACAD_REACTORS
330
29
102
}
330
29
100
AcDbVisualStyle
  2
Thicken
 70
    13
177
     2
291
     1
 71
     2
176
     1
 72
     2
176
     1
 73
     0
176
     1
 90
        0
176
     1
 40
0.6
176
     1
 41
30.0
176
     1
 63
     7
421
 16777215
176
     1
 74
     1
176
     1
 91
        4
176
     1
 64
     7
176
     1
 65
   257
176
     1
 75
     1
176
     1
175
     1
176
     1
 42
1.0
176
     1
 92
       12
176
     1
 66
     7
176
     1
 43
1.0
176
     1
 76
     1
176
     1
 77
     6
176
     1
 78
     2
176
     1
 67
     7
176
     1
 79
     5
176
     1
170
     0
176
     1
171
     0
176
     1
290
     0
176
     1
 93
        1
176
     1
 44
0.0
176
     1
173
     0
176
     1
1001
ACAD
1000
AcDbSavedByObjectVersion
1070
     0
  0
VISUALSTYLE
  5
30
102
{ACAD_XDICTIONARY
360
177
102
}
102
{ACAD_REACTORS
330
29
102
}
330
29
100
AcDbVisualStyle
  2
Wireframe
 70
     5
177
     2
291
     0
 71
     0
176
     1
 72
     2
176
     1
 73
     0
176
     1
 90
        0
176
     1
 40
0.6
176
     1
 41
30.0
176
     1
 63
     7
421
 16777215
176
     1
 74
     1
176
     1
 91
        4
176
     1
 64
     7
176
     1
 65
   257
176
     1
 75
     1
176
     1
175
     1
176
     1
 42
1.0
176
     1
 92
        0
176
     1
 66
   257
176
     1
 43
1.0
176
     1
 76
     1
176
     1
 77
     6
176
     1
 78
     2
176
     1
 67
     7
176
     1
 79
     3
176
     1
170
     0
176
     1
171
     0
176
     1
290
     0
176
     1
 93
        1
176
     1
 44
0.0
176
     1
173
     0
176
     1
1001
ACAD
1000
AcDbSavedByObjectVersion
1070
     0
  0
VISUALSTYLE
  5
3C
102
{ACAD_XDICTIONARY
360
18F
102
}
102
{ACAD_REACTORS
330
29
102
}
330
29
100
AcDbVisualStyle
  2
X-Ray
 70
    25
177
     2
291
     0
 71
     2
176
     1
 72
     2
176
     1
 73
     1
176
     1
 90
        1
176
     1
 40
0.5
176
     1
 41
30.0
176
     1
 63
     7
421
 16777215
176
     1
 74
     1
176
     1
 91
        0
176
     1
 64
     7
176
     1
 65
   257
176
     1
 75
     1
176
     1
175
     1
176
     1
 42
1.0
176
     1
 92
        8
176
     1
 66
     7
176
     1
 43
1.0
176
     1
 76
     1
176
     1
 77
     6
176
     1
 78
     2
176
     1
 67
     7
176
     1
 79
     3
176
     1
170
     0
176
     1
171
     0
176
     1
290
     0
176
     1
 93
       13
176
     1
 44
0.0
176
     1
173
     0
176
     1
1001
ACAD
1000
AcDbSavedByObjectVersion
1070
     0
  0
DICTIONARYVAR
  5
167
102
{ACAD_REACTORS
330
162
102
}
330
162
100
DictionaryVariables
280
     0
  1
1:1
  0
DICTIONARYVAR
  5
164
102
{ACAD_REACTORS
330
162
102
}
330
162
100
DictionaryVariables
280
     0
  1
STANDARD
  0
DICTIONARYVAR
  5
163
102
{ACAD_REACTORS
330
162
102
}
330
162
100
DictionaryVariables
280
     0
  1
STANDARD
  0
DICTIONARYVAR
  5
165
102
{ACAD_REACTORS
330
162
102
}
330
162
100
DictionaryVariables
280
     0
  1
Imperial24
  0
DICTIONARYVAR
  5
166
102
{ACAD_REACTORS
330
162
102
}
330
162
100
DictionaryVariables
280
     0
  1
Imperial24
  0
DICTIONARY
  5
19F
330
6B
100
AcDbDictionary
280
     1
281
     1
  3
ACAD_XREC_ROUNDTRIP
360
1A0
  0
DICTIONARY
  5
1A
330
19
100
AcDbDictionary
280
     1
281
     1
  3
BUMPTILE
360
1C
  3
DIFFUSETILE
360
1B
  3
OPACITYTILE
360
1F
  3
REFLECTIONTILE
360
1E
  3
REFRACTIONTILE
360
20
  3
SPECULARTILE
360
1D
  0
DICTIONARY
  5
12
330
11
100
AcDbDictionary
280
     1
281
     1
  3
BUMPTILE
360
14
  3
DIFFUSETILE
360
13
  3
OPACITYTILE
360
17
  3
REFLECTIONTILE
360
16
  3
REFRACTIONTILE
360
18
  3
SPECULARTILE
360
15
  0
DICTIONARY
  5
22
330
21
100
AcDbDictionary
280
     1
281
     1
  3
BUMPTILE
360
24
  3
DIFFUSETILE
360
23
  3
OPACITYTILE
360
27
  3
REFLECTIONTILE
360
26
  3
REFRACTIONTILE
360
28
  3
SPECULARTILE
360
25
  0
DICTIONARY
  5
19B
330
67
100
AcDbDictionary
280
     1
281
     1
  3
ACAD_XREC_ROUNDTRIP
360
19C
  0
DICTIONARY
  5
19D
330
69
100
AcDbDictionary
280
     1
281
     1
  3
ACAD_XREC_ROUNDTRIP
360
19E
  0
DICTIONARY
  5
168
330
65
100
AcDbDictionary
280
     1
281
     1
  3
ACAD_ROUNDTRIP_2008_TABLESTYLE_CELLSTYLEMAP
360
169
  0
DICTIONARY
  5
175
330
2F
100
AcDbDictionary
280
     1
281
     1
  3
ACAD_XREC_ROUNDTRIP
360
176
  0
DICTIONARY
  5
173
330
2E
100
AcDbDictionary
280
     1
281
     1
  3
ACAD_XREC_ROUNDTRIP
360
174
  0
DICTIONARY
  5
181
330
35
100
AcDbDictionary
280
     1
281
     1
  3
ACAD_XREC_ROUNDTRIP
360
182
  0
DICTIONARY
  5
189
330
39
100
AcDbDictionary
280
     1
281
     1
  3
ACAD_XREC_ROUNDTRIP
360
18A
  0
DICTIONARY
  5
17B
330
32
100
AcDbDictionary
280
     1
281
     1
  3
ACAD_XREC_ROUNDTRIP
360
17C
  0
DICTIONARY
  5
17F
330
34
100
AcDbDictionary
280
     1
281
     1
  3
ACAD_XREC_ROUNDTRIP
360
180
  0
DICTIONARY
  5
199
330
41
100
AcDbDictionary
280
     1
281
     1
  3
ACAD_XREC_ROUNDTRIP
360
19A
  0
DICTIONARY
  5
187
330
38
100
AcDbDictionary
280
     1
281
     1
  3
ACAD_XREC_ROUNDTRIP
360
188
  0
DICTIONARY
  5
16B
330
2A
100
AcDbDictionary
280
     1
281
     1
  3
ACAD_XREC_ROUNDTRIP
360
16C
  0
DICTIONARY
  5
16D
330
2B
100
AcDbDictionary
280
     1
281
     1
  3
ACAD_XREC_ROUNDTRIP
360
16E
  0
DICTIONARY
  5
16F
330
2C
100
AcDbDictionary
280
     1
281
     1
  3
ACAD_XREC_ROUNDTRIP
360
170
  0
DICTIONARY
  5
171
330
2D
100
AcDbDictionary
280
     1
281
     1
  3
ACAD_XREC_ROUNDTRIP
360
172
  0
DICTIONARY
  5
179
330
31
100
AcDbDictionary
280
     1
281
     1
  3
ACAD_XREC_ROUNDTRIP
360
17A
  0
DICTIONARY
  5
195
330
3F
100
AcDbDictionary
280
     1
281
     1
  3
ACAD_XREC_ROUNDTRIP
360
196
  0
DICTIONARY
  5
185
330
37
100
AcDbDictionary
280
     1
281
     1
  3
ACAD_XREC_ROUNDTRIP
360
186
  0
DICTIONARY
  5
197
330
40
100
AcDbDictionary
280
     1
281
     1
  3
ACAD_XREC_ROUNDTRIP
360
198
  0
DICTIONARY
  5
17D
330
33
100
AcDbDictionary
280
     1
281
     1
  3
ACAD_XREC_ROUNDTRIP
360
17E
  0
DICTIONARY
  5
193
330
3E
100
AcDbDictionary
280
     1
281
     1
  3
ACAD_XREC_ROUNDTRIP
360
194
  0
DICTIONARY
  5
191
330
3D
100
AcDbDictionary
280
     1
281
     1
  3
ACAD_XREC_ROUNDTRIP
360
192
  0
DICTIONARY
  5
18B
330
3A
100
AcDbDictionary
280
     1
281
     1
  3
ACAD_XREC_ROUNDTRIP
360
18C
  0
DICTIONARY
  5
18D
330
3B
100
AcDbDictionary
280
     1
281
     1
  3
ACAD_XREC_ROUNDTRIP
360
18E
  0
DICTIONARY
  5
183
330
36
100
AcDbDictionary
280
     1
281
     1
  3
ACAD_XREC_ROUNDTRIP
360
184
  0
DICTIONARY
  5
177
330
30
100
AcDbDictionary
280
     1
281
     1
  3
ACAD_XREC_ROUNDTRIP
360
178
  0
DICTIONARY
  5
18F
330
3C
100
AcDbDictionary
280
     1
281
     1
  3
ACAD_XREC_ROUNDTRIP
360
190
  0
XRECORD
  5
1A0
102
{ACAD_REACTORS
330
19F
102
}
330
19F
100
AcDbXrecord
280
     1
102
DISPLAYNAME
  1
Imperial24
102
FLAGS
 90
        0
  0
XRECORD
  5
1C
102
{ACAD_REACTORS
330
1A
102
}
330
1A
100
AcDbXrecord
280
     1
270
     1
271
     1
  0
XRECORD
  5
1B
102
{ACAD_REACTORS
330
1A
102
}
330
1A
100
AcDbXrecord
280
     1
270
     1
271
     1
  0
XRECORD
  5
1F
102
{ACAD_REACTORS
330
1A
102
}
330
1A
100
AcDbXrecord
280
     1
270
     1
271
     1
  0
XRECORD
  5
1E
102
{ACAD_REACTORS
330
1A
102
}
330
1A
100
AcDbXrecord
280
     1
270
     1
271
     1
  0
XRECORD
  5
20
102
{ACAD_REACTORS
330
1A
102
}
330
1A
100
AcDbXrecord
280
     1
270
     1
271
     1
  0
XRECORD
  5
1D
102
{ACAD_REACTORS
330
1A
102
}
330
1A
100
AcDbXrecord
280
     1
270
     1
271
     1
  0
XRECORD
  5
14
102
{ACAD_REACTORS
330
12
102
}
330
12
100
AcDbXrecord
280
     1
270
     1
271
     1
  0
XRECORD
  5
13
102
{ACAD_REACTORS
330
12
102
}
330
12
100
AcDbXrecord
280
     1
270
     1
271
     1
  0
XRECORD
  5
17
102
{ACAD_REACTORS
330
12
102
}
330
12
100
AcDbXrecord
280
     1
270
     1
271
     1
  0
XRECORD
  5
16
102
{ACAD_REACTORS
330
12
102
}
330
12
100
AcDbXrecord
280
     1
270
     1
271
     1
  0
XRECORD
  5
18
102
{ACAD_REACTORS
330
12
102
}
330
12
100
AcDbXrecord
280
     1
270
     1
271
     1
  0
XRECORD
  5
15
102
{ACAD_REACTORS
330
12
102
}
330
12
100
AcDbXrecord
280
     1
270
     1
271
     1
  0
XRECORD
  5
24
102
{ACAD_REACTORS
330
22
102
}
330
22
100
AcDbXrecord
280
     1
270
     1
271
     1
  0
XRECORD
  5
23
102
{ACAD_REACTORS
330
22
102
}
330
22
100
AcDbXrecord
280
     1
270
     1
271
     1
  0
XRECORD
  5
27
102
{ACAD_REACTORS
330
22
102
}
330
22
100
AcDbXrecord
280
     1
270
     1
271
     1
  0
XRECORD
  5
26
102
{ACAD_REACTORS
330
22
102
}
330
22
100
AcDbXrecord
280
     1
270
     1
271
     1
  0
XRECORD
  5
28
102
{ACAD_REACTORS
330
22
102
}
330
22
100
AcDbXrecord
280
     1
270
     1
271
     1
  0
XRECORD
  5
25
102
{ACAD_REACTORS
330
22
102
}
330
22
100
AcDbXrecord
280
     1
270
     1
271
     1
  0
XRECORD
  5
19C
102
{ACAD_REACTORS
330
19B
102
}
330
19B
100
AcDbXrecord
280
     1
102
ACAD_ROUNDTRIP_2012_MLEADER_STYLE
298
     1
  0
XRECORD
  5
19E
102
{ACAD_REACTORS
330
19D
102
}
330
19D
100
AcDbXrecord
280
     1
102
DISPLAYNAME
  1
Imperial24
102
FLAGS
 90
        0
  0
CELLSTYLEMAP
  5
169
102
{ACAD_REACTORS
330
168
102
}
330
168
100
AcDbCellStyleMap
 90
        3
300
CELLSTYLE
  1
TABLEFORMAT_BEGIN
 90
        5
170
     1
 91
        0
 92
    32768
 62
   257
 93
        1
300
CONTENTFORMAT
  1
CONTENTFORMAT_BEGIN
 90
        0
 91
        0
 92
      512
 93
        0
300

 40
0.0
140
1.0
 94
        5
 62
     0
340
55
144
0.25
309
CONTENTFORMAT_END
171
     0
 94
        0
309
TABLEFORMAT_END
  1
CELLSTYLE_BEGIN
 90
        1
 91
        1
300
_TITLE
309
CELLSTYLE_END
300
CELLSTYLE
  1
TABLEFORMAT_BEGIN
 90
        5
170
     1
 91
        0
 92
        0
 62
   257
 93
        1
300
CONTENTFORMAT
  1
CONTENTFORMAT_BEGIN
 90
        0
 91
        0
 92
      512
 93
        0
300

 40
0.0
140
1.0
 94
        5
 62
     0
340
55
144
0.18
309
CONTENTFORMAT_END
171
     0
 94
        0
309
TABLEFORMAT_END
  1
CELLSTYLE_BEGIN
 90
        2
 91
        1
300
_HEADER
309
CELLSTYLE_END
300
CELLSTYLE
  1
TABLEFORMAT_BEGIN
 90
        5
170
     1
 91
        0
 92
        0
 62
   257
 93
        1
300
CONTENTFORMAT
  1
CONTENTFORMAT_BEGIN
 90
        0
 91
        0
 92
      512
 93
        0
300

 40
0.0
140
1.0
 94
        2
 62
     0
340
55
144
0.18
309
CONTENTFORMAT_END
171
     0
 94
        0
309
TABLEFORMAT_END
  1
CELLSTYLE_BEGIN
 90
        3
 91
        2
300
_DATA
309
CELLSTYLE_END
  0
XRECORD
  5
176
102
{ACAD_REACTORS
330
175
102
}
330
175
100
AcDbXrecord
280
     1
102
RTVSPost2010Prop28
280
     1
102
RTVSPost2010PropOp28
 70
     1
102
RTVSPost2010Prop29
280
     1
102
RTVSPost2010PropOp29
 70
     1
102
RTVSPost2010Prop30
280
     0
102
RTVSPost2010PropOp30
 70
     1
102
RTVSPost2010Prop31
280
     0
102
RTVSPost2010PropOp31
 70
     1
102
RTVSPost2010Prop32
280
     0
102
RTVSPost2010PropOp32
 70
     1
102
RTVSPost2010Prop33
280
     0
102
RTVSPost2010PropOp33
 70
     1
102
RTVSPost2010Prop34
280
     0
102
RTVSPost2010PropOp34
 70
     1
102
RTVSPost2010Prop35
280
     0
102
RTVSPost2010PropOp35
 70
     1
102
RTVSPost2010Prop36
280
     0
102
RTVSPost2010PropOp36
 70
     1
102
RTVSPost2010Prop37
 90
       50
102
RTVSPost2010PropOp37
 70
     1
102
RTVSPost2010Prop38
140
0.0
102
RTVSPost2010PropOp38
 70
     1
102
RTVSPost2010Prop39
140
1.0
102
RTVSPost2010PropOp39
 70
     1
102
RTVSPost2010Prop40
 90
        0
102
RTVSPost2010PropOp40
 70
     1
102
RTVSPost2010Prop41ColorIndex
 90
       18
102
RTVSPost2010Prop41ColorRGB
 90
        0
102
RTVSPost2010PropOp41
 70
     1
102
RTVSPost2010Prop42
 90
       50
102
RTVSPost2010PropOp42
 70
     1
102
RTVSPost2010Prop43
 90
        3
102
RTVSPost2010PropOp43
 70
     1
102
RTVSPost2010Prop44ColorIndex
 90
        5
102
RTVSPost2010Prop44ColorRGB
 90
      255
102
RTVSPost2010PropOp44
 70
     1
102
RTVSPost2010Prop45
280
     0
102
RTVSPost2010PropOp45
 70
     1
102
RTVSPost2010Prop46
 90
       50
102
RTVSPost2010PropOp46
 70
     1
102
RTVSPost2010Prop47
 90
       50
102
RTVSPost2010PropOp47
 70
     1
102
RTVSPost2010Prop48
 90
       50
102
RTVSPost2010PropOp48
 70
     1
102
RTVSPost2010Prop49
280
     0
102
RTVSPost2010PropOp49
 70
     1
102
RTVSPost2010Prop50
 90
       50
102
RTVSPost2010PropOp50
 70
     1
102
RTVSPost2010Prop51ColorIndex
 90
      256
102
RTVSPost2010Prop51ColorRGB
 90
-16777216
102
RTVSPost2010PropOp51
 70
     0
102
RTVSPost2010Prop52
140
1.0
102
RTVSPost2010PropOp52
 70
     0
102
RTVSPost2010Prop53
 90
        2
102
RTVSPost2010PropOp53
 70
     1
102
RTVSPost2010Prop54
  1
strokes_ogs.tif
102
RTVSPost2010PropOp54
 70
     1
102
RTVSPost2010Prop55
280
     0
102
RTVSPost2010PropOp55
 70
     1
102
RTVSPost2010Prop56
140
1.0
102
RTVSPost2010PropOp56
 70
     1
102
RTVSPost2010Prop57
140
1.0
102
RTVSPost2010PropOp57
 70
     1
  0
XRECORD
  5
174
102
{ACAD_REACTORS
330
173
102
}
330
173
100
AcDbXrecord
280
     1
102
RTVSPost2010Prop28
280
     0
102
RTVSPost2010PropOp28
 70
     1
102
RTVSPost2010Prop29
280
     1
102
RTVSPost2010PropOp29
 70
     1
102
RTVSPost2010Prop30
280
     1
102
RTVSPost2010PropOp30
 70
     1
102
RTVSPost2010Prop31
280
     0
102
RTVSPost2010PropOp31
 70
     1
102
RTVSPost2010Prop32
280
     0
102
RTVSPost2010PropOp32
 70
     1
102
RTVSPost2010Prop33
280
     0
102
RTVSPost2010PropOp33
 70
     1
102
RTVSPost2010Prop34
280
     0
102
RTVSPost2010PropOp34
 70
     1
102
RTVSPost2010Prop35
280
     0
102
RTVSPost2010PropOp35
 70
     1
102
RTVSPost2010Prop36
280
     0
102
RTVSPost2010PropOp36
 70
     1
102
RTVSPost2010Prop37
 90
       50
102
RTVSPost2010PropOp37
 70
     1
102
RTVSPost2010Prop38
140
0.0
102
RTVSPost2010PropOp38
 70
     1
102
RTVSPost2010Prop39
140
1.0
102
RTVSPost2010PropOp39
 70
     1
102
RTVSPost2010Prop40
 90
        0
102
RTVSPost2010PropOp40
 70
     1
102
RTVSPost2010Prop41ColorIndex
 90
       18
102
RTVSPost2010Prop41ColorRGB
 90
        0
102
RTVSPost2010PropOp41
 70
     1
102
RTVSPost2010Prop42
 90
       50
102
RTVSPost2010PropOp42
 70
     1
102
RTVSPost2010Prop43
 90
        3
102
RTVSPost2010PropOp43
 70
     1
102
RTVSPost2010Prop44ColorIndex
 90
        5
102
RTVSPost2010Prop44ColorRGB
 90
      255
102
RTVSPost2010PropOp44
 70
     1
102
RTVSPost2010Prop45
280
     0
102
RTVSPost2010PropOp45
 70
     1
102
RTVSPost2010Prop46
 90
       50
102
RTVSPost2010PropOp46
 70
     1
102
RTVSPost2010Prop47
 90
       50
102
RTVSPost2010PropOp47
 70
     1
102
RTVSPost2010Prop48
 90
       50
102
RTVSPost2010PropOp48
 70
     1
102
RTVSPost2010Prop49
280
     0
102
RTVSPost2010PropOp49
 70
     1
102
RTVSPost2010Prop50
 90
       50
102
RTVSPost2010PropOp50
 70
     1
102
RTVSPost2010Prop51ColorIndex
 90
      256
102
RTVSPost2010Prop51ColorRGB
 90
-16777216
102
RTVSPost2010PropOp51
 70
     0
102
RTVSPost2010Prop52
140
1.0
102
RTVSPost2010PropOp52
 70
     0
102
RTVSPost2010Prop53
 90
        2
102
RTVSPost2010PropOp53
 70
     1
102
RTVSPost2010Prop54
  1
strokes_ogs.tif
102
RTVSPost2010PropOp54
 70
     1
102
RTVSPost2010Prop55
280
     0
102
RTVSPost2010PropOp55
 70
     1
102
RTVSPost2010Prop56
140
1.0
102
RTVSPost2010PropOp56
 70
     1
102
RTVSPost2010Prop57
140
1.0
102
RTVSPost2010PropOp57
 70
     1
  0
XRECORD
  5
182
102
{ACAD_REACTORS
330
181
102
}
330
181
100
AcDbXrecord
280
     1
102
RTVSPost2010Prop28
280
     0
102
RTVSPost2010PropOp28
 70
     1
102
RTVSPost2010Prop29
280
     1
102
RTVSPost2010PropOp29
 70
     1
102
RTVSPost2010Prop30
280
     1
102
RTVSPost2010PropOp30
 70
     1
102
RTVSPost2010Prop31
280
     0
102
RTVSPost2010PropOp31
 70
     1
102
RTVSPost2010Prop32
280
     0
102
RTVSPost2010PropOp32
 70
     1
102
RTVSPost2010Prop33
280
     0
102
RTVSPost2010PropOp33
 70
     1
102
RTVSPost2010Prop34
280
     0
102
RTVSPost2010PropOp34
 70
     1
102
RTVSPost2010Prop35
280
     0
102
RTVSPost2010PropOp35
 70
     1
102
RTVSPost2010Prop36
280
     0
102
RTVSPost2010PropOp36
 70
     1
102
RTVSPost2010Prop37
 90
       50
102
RTVSPost2010PropOp37
 70
     1
102
RTVSPost2010Prop38
140
0.0
102
RTVSPost2010PropOp38
 70
     1
102
RTVSPost2010Prop39
140
1.0
102
RTVSPost2010PropOp39
 70
     1
102
RTVSPost2010Prop40
 90
        0
102
RTVSPost2010PropOp40
 70
     1
102
RTVSPost2010Prop41ColorIndex
 90
       18
102
RTVSPost2010Prop41ColorRGB
 90
        0
102
RTVSPost2010PropOp41
 70
     1
102
RTVSPost2010Prop42
 90
       50
102
RTVSPost2010PropOp42
 70
     1
102
RTVSPost2010Prop43
 90
        3
102
RTVSPost2010PropOp43
 70
     1
102
RTVSPost2010Prop44ColorIndex
 90
        5
102
RTVSPost2010Prop44ColorRGB
 90
      255
102
RTVSPost2010PropOp44
 70
     1
102
RTVSPost2010Prop45
280
     0
102
RTVSPost2010PropOp45
 70
     1
102
RTVSPost2010Prop46
 90
       50
102
RTVSPost2010PropOp46
 70
     1
102
RTVSPost2010Prop47
 90
       50
102
RTVSPost2010PropOp47
 70
     1
102
RTVSPost2010Prop48
 90
       50
102
RTVSPost2010PropOp48
 70
     1
102
RTVSPost2010Prop49
280
     0
102
RTVSPost2010PropOp49
 70
     1
102
RTVSPost2010Prop50
 90
       50
102
RTVSPost2010PropOp50
 70
     1
102
RTVSPost2010Prop51ColorIndex
 90
      256
102
RTVSPost2010Prop51ColorRGB
 90
-16777216
102
RTVSPost2010PropOp51
 70
     0
102
RTVSPost2010Prop52
140
1.0
102
RTVSPost2010PropOp52
 70
     0
102
RTVSPost2010Prop53
 90
        2
102
RTVSPost2010PropOp53
 70
     1
102
RTVSPost2010Prop54
  1
strokes_ogs.tif
102
RTVSPost2010PropOp54
 70
     1
102
RTVSPost2010Prop55
280
     0
102
RTVSPost2010PropOp55
 70
     1
102
RTVSPost2010Prop56
140
1.0
102
RTVSPost2010PropOp56
 70
     1
102
RTVSPost2010Prop57
140
1.0
102
RTVSPost2010PropOp57
 70
     1
  0
XRECORD
  5
18A
102
{ACAD_REACTORS
330
189
102
}
330
189
100
AcDbXrecord
280
     1
102
RTVSPost2010Prop28
280
     0
102
RTVSPost2010PropOp28
 70
     1
102
RTVSPost2010Prop29
280
     1
102
RTVSPost2010PropOp29
 70
     1
102
RTVSPost2010Prop30
280
     1
102
RTVSPost2010PropOp30
 70
     1
102
RTVSPost2010Prop31
280
     0
102
RTVSPost2010PropOp31
 70
     1
102
RTVSPost2010Prop32
280
     0
102
RTVSPost2010PropOp32
 70
     1
102
RTVSPost2010Prop33
280
     0
102
RTVSPost2010PropOp33
 70
     1
102
RTVSPost2010Prop34
280
     0
102
RTVSPost2010PropOp34
 70
     1
102
RTVSPost2010Prop35
280
     0
102
RTVSPost2010PropOp35
 70
     1
102
RTVSPost2010Prop36
280
     0
102
RTVSPost2010PropOp36
 70
     1
102
RTVSPost2010Prop37
 90
       50
102
RTVSPost2010PropOp37
 70
     1
102
RTVSPost2010Prop38
140
0.0
102
RTVSPost2010PropOp38
 70
     1
102
RTVSPost2010Prop39
140
1.0
102
RTVSPost2010PropOp39
 70
     1
102
RTVSPost2010Prop40
 90
        0
102
RTVSPost2010PropOp40
 70
     1
102
RTVSPost2010Prop41ColorIndex
 90
       18
102
RTVSPost2010Prop41ColorRGB
 90
        0
102
RTVSPost2010PropOp41
 70
     1
102
RTVSPost2010Prop42
 90
       50
102
RTVSPost2010PropOp42
 70
     1
102
RTVSPost2010Prop43
 90
        3
102
RTVSPost2010PropOp43
 70
     1
102
RTVSPost2010Prop44ColorIndex
 90
        5
102
RTVSPost2010Prop44ColorRGB
 90
      255
102
RTVSPost2010PropOp44
 70
     1
102
RTVSPost2010Prop45
280
     0
102
RTVSPost2010PropOp45
 70
     1
102
RTVSPost2010Prop46
 90
       50
102
RTVSPost2010PropOp46
 70
     1
102
RTVSPost2010Prop47
 90
       50
102
RTVSPost2010PropOp47
 70
     1
102
RTVSPost2010Prop48
 90
       50
102
RTVSPost2010PropOp48
 70
     1
102
RTVSPost2010Prop49
280
     0
102
RTVSPost2010PropOp49
 70
     1
102
RTVSPost2010Prop50
 90
       50
102
RTVSPost2010PropOp50
 70
     1
102
RTVSPost2010Prop51ColorIndex
 90
      256
102
RTVSPost2010Prop51ColorRGB
 90
-16777216
102
RTVSPost2010PropOp51
 70
     0
102
RTVSPost2010Prop52
140
1.0
102
RTVSPost2010PropOp52
 70
     0
102
RTVSPost2010Prop53
 90
        2
102
RTVSPost2010PropOp53
 70
     1
102
RTVSPost2010Prop54
  1
strokes_ogs.tif
102
RTVSPost2010PropOp54
 70
     1
102
RTVSPost2010Prop55
280
     0
102
RTVSPost2010PropOp55
 70
     1
102
RTVSPost2010Prop56
140
1.0
102
RTVSPost2010PropOp56
 70
     1
102
RTVSPost2010Prop57
140
1.0
102
RTVSPost2010PropOp57
 70
     1
  0
XRECORD
  5
17C
102
{ACAD_REACTORS
330
17B
102
}
330
17B
100
AcDbXrecord
280
     1
102
RTVSPost2010Prop28
280
     0
102
RTVSPost2010PropOp28
 70
     1
102
RTVSPost2010Prop29
280
     1
102
RTVSPost2010PropOp29
 70
     1
102
RTVSPost2010Prop30
280
     1
102
RTVSPost2010PropOp30
 70
     1
102
RTVSPost2010Prop31
280
     0
102
RTVSPost2010PropOp31
 70
     1
102
RTVSPost2010Prop32
280
     0
102
RTVSPost2010PropOp32
 70
     1
102
RTVSPost2010Prop33
280
     0
102
RTVSPost2010PropOp33
 70
     1
102
RTVSPost2010Prop34
280
     0
102
RTVSPost2010PropOp34
 70
     1
102
RTVSPost2010Prop35
280
     0
102
RTVSPost2010PropOp35
 70
     1
102
RTVSPost2010Prop36
280
     0
102
RTVSPost2010PropOp36
 70
     1
102
RTVSPost2010Prop37
 90
       50
102
RTVSPost2010PropOp37
 70
     1
102
RTVSPost2010Prop38
140
0.0
102
RTVSPost2010PropOp38
 70
     1
102
RTVSPost2010Prop39
140
1.0
102
RTVSPost2010PropOp39
 70
     1
102
RTVSPost2010Prop40
 90
        0
102
RTVSPost2010PropOp40
 70
     1
102
RTVSPost2010Prop41ColorIndex
 90
       18
102
RTVSPost2010Prop41ColorRGB
 90
        0
102
RTVSPost2010PropOp41
 70
     1
102
RTVSPost2010Prop42
 90
       50
102
RTVSPost2010PropOp42
 70
     1
102
RTVSPost2010Prop43
 90
        3
102
RTVSPost2010PropOp43
 70
     1
102
RTVSPost2010Prop44ColorIndex
 90
        5
102
RTVSPost2010Prop44ColorRGB
 90
      255
102
RTVSPost2010PropOp44
 70
     1
102
RTVSPost2010Prop45
280
     0
102
RTVSPost2010PropOp45
 70
     1
102
RTVSPost2010Prop46
 90
       50
102
RTVSPost2010PropOp46
 70
     1
102
RTVSPost2010Prop47
 90
       50
102
RTVSPost2010PropOp47
 70
     1
102
RTVSPost2010Prop48
 90
       50
102
RTVSPost2010PropOp48
 70
     1
102
RTVSPost2010Prop49
280
     0
102
RTVSPost2010PropOp49
 70
     1
102
RTVSPost2010Prop50
 90
       50
102
RTVSPost2010PropOp50
 70
     1
102
RTVSPost2010Prop51ColorIndex
 90
      256
102
RTVSPost2010Prop51ColorRGB
 90
-16777216
102
RTVSPost2010PropOp51
 70
     0
102
RTVSPost2010Prop52
140
1.0
102
RTVSPost2010PropOp52
 70
     0
102
RTVSPost2010Prop53
 90
        2
102
RTVSPost2010PropOp53
 70
     1
102
RTVSPost2010Prop54
  1
strokes_ogs.tif
102
RTVSPost2010PropOp54
 70
     1
102
RTVSPost2010Prop55
280
     0
102
RTVSPost2010PropOp55
 70
     1
102
RTVSPost2010Prop56
140
1.0
102
RTVSPost2010PropOp56
 70
     1
102
RTVSPost2010Prop57
140
1.0
102
RTVSPost2010PropOp57
 70
     1
  0
XRECORD
  5
180
102
{ACAD_REACTORS
330
17F
102
}
330
17F
100
AcDbXrecord
280
     1
102
RTVSPost2010Prop28
280
     0
102
RTVSPost2010PropOp28
 70
     1
102
RTVSPost2010Prop29
280
     1
102
RTVSPost2010PropOp29
 70
     1
102
RTVSPost2010Prop30
280
     1
102
RTVSPost2010PropOp30
 70
     1
102
RTVSPost2010Prop31
280
     0
102
RTVSPost2010PropOp31
 70
     1
102
RTVSPost2010Prop32
280
     0
102
RTVSPost2010PropOp32
 70
     1
102
RTVSPost2010Prop33
280
     0
102
RTVSPost2010PropOp33
 70
     1
102
RTVSPost2010Prop34
280
     0
102
RTVSPost2010PropOp34
 70
     1
102
RTVSPost2010Prop35
280
     0
102
RTVSPost2010PropOp35
 70
     1
102
RTVSPost2010Prop36
280
     0
102
RTVSPost2010PropOp36
 70
     1
102
RTVSPost2010Prop37
 90
       50
102
RTVSPost2010PropOp37
 70
     1
102
RTVSPost2010Prop38
140
0.0
102
RTVSPost2010PropOp38
 70
     1
102
RTVSPost2010Prop39
140
1.0
102
RTVSPost2010PropOp39
 70
     1
102
RTVSPost2010Prop40
 90
        0
102
RTVSPost2010PropOp40
 70
     1
102
RTVSPost2010Prop41ColorIndex
 90
       18
102
RTVSPost2010Prop41ColorRGB
 90
        0
102
RTVSPost2010PropOp41
 70
     1
102
RTVSPost2010Prop42
 90
       50
102
RTVSPost2010PropOp42
 70
     1
102
RTVSPost2010Prop43
 90
        3
102
RTVSPost2010PropOp43
 70
     1
102
RTVSPost2010Prop44ColorIndex
 90
        5
102
RTVSPost2010Prop44ColorRGB
 90
      255
102
RTVSPost2010PropOp44
 70
     1
102
RTVSPost2010Prop45
280
     0
102
RTVSPost2010PropOp45
 70
     1
102
RTVSPost2010Prop46
 90
       50
102
RTVSPost2010PropOp46
 70
     1
102
RTVSPost2010Prop47
 90
       50
102
RTVSPost2010PropOp47
 70
     1
102
RTVSPost2010Prop48
 90
       50
102
RTVSPost2010PropOp48
 70
     1
102
RTVSPost2010Prop49
280
     0
102
RTVSPost2010PropOp49
 70
     1
102
RTVSPost2010Prop50
 90
       50
102
RTVSPost2010PropOp50
 70
     1
102
RTVSPost2010Prop51ColorIndex
 90
      256
102
RTVSPost2010Prop51ColorRGB
 90
-16777216
102
RTVSPost2010PropOp51
 70
     0
102
RTVSPost2010Prop52
140
1.0
102
RTVSPost2010PropOp52
 70
     0
102
RTVSPost2010Prop53
 90
        2
102
RTVSPost2010PropOp53
 70
     1
102
RTVSPost2010Prop54
  1
strokes_ogs.tif
102
RTVSPost2010PropOp54
 70
     1
102
RTVSPost2010Prop55
280
     0
102
RTVSPost2010PropOp55
 70
     1
102
RTVSPost2010Prop56
140
1.0
102
RTVSPost2010PropOp56
 70
     1
102
RTVSPost2010Prop57
140
1.0
102
RTVSPost2010PropOp57
 70
     1
  0
XRECORD
  5
19A
102
{ACAD_REACTORS
330
199
102
}
330
199
100
AcDbXrecord
280
     1
102
RTVSPost2010Prop28
280
     0
102
RTVSPost2010PropOp28
 70
     0
102
RTVSPost2010Prop29
280
     1
102
RTVSPost2010PropOp29
 70
     0
102
RTVSPost2010Prop30
280
     1
102
RTVSPost2010PropOp30
 70
     0
102
RTVSPost2010Prop31
280
     0
102
RTVSPost2010PropOp31
 70
     0
102
RTVSPost2010Prop32
280
     0
102
RTVSPost2010PropOp32
 70
     0
102
RTVSPost2010Prop33
280
     0
102
RTVSPost2010PropOp33
 70
     0
102
RTVSPost2010Prop34
280
     0
102
RTVSPost2010PropOp34
 70
     0
102
RTVSPost2010Prop35
280
     0
102
RTVSPost2010PropOp35
 70
     0
102
RTVSPost2010Prop36
280
     0
102
RTVSPost2010PropOp36
 70
     0
102
RTVSPost2010Prop37
 90
       50
102
RTVSPost2010PropOp37
 70
     0
102
RTVSPost2010Prop38
140
0.0
102
RTVSPost2010PropOp38
 70
     0
102
RTVSPost2010Prop39
140
1.0
102
RTVSPost2010PropOp39
 70
     0
102
RTVSPost2010Prop40
 90
        0
102
RTVSPost2010PropOp40
 70
     0
102
RTVSPost2010Prop41ColorIndex
 90
       18
102
RTVSPost2010Prop41ColorRGB
 90
        0
102
RTVSPost2010PropOp41
 70
     0
102
RTVSPost2010Prop42
 90
       50
102
RTVSPost2010PropOp42
 70
     0
102
RTVSPost2010Prop43
 90
        3
102
RTVSPost2010PropOp43
 70
     0
102
RTVSPost2010Prop44ColorIndex
 90
        5
102
RTVSPost2010Prop44ColorRGB
 90
      255
102
RTVSPost2010PropOp44
 70
     0
102
RTVSPost2010Prop45
280
     0
102
RTVSPost2010PropOp45
 70
     0
102
RTVSPost2010Prop46
 90
       50
102
RTVSPost2010PropOp46
 70
     0
102
RTVSPost2010Prop47
 90
       50
102
RTVSPost2010PropOp47
 70
     0
102
RTVSPost2010Prop48
 90
       50
102
RTVSPost2010PropOp48
 70
     0
102
RTVSPost2010Prop49
280
     0
102
RTVSPost2010PropOp49
 70
     0
102
RTVSPost2010Prop50
 90
       50
102
RTVSPost2010PropOp50
 70
     0
102
RTVSPost2010Prop51ColorIndex
 90
      256
102
RTVSPost2010Prop51ColorRGB
 90
-16777216
102
RTVSPost2010PropOp51
 70
     0
102
RTVSPost2010Prop52
140
1.0
102
RTVSPost2010PropOp52
 70
     0
102
RTVSPost2010Prop53
 90
        2
102
RTVSPost2010PropOp53
 70
     0
102
RTVSPost2010Prop54
  1
strokes_ogs.tif
102
RTVSPost2010PropOp54
 70
     0
102
RTVSPost2010Prop55
280
     0
102
RTVSPost2010PropOp55
 70
     0
102
RTVSPost2010Prop56
140
1.0
102
RTVSPost2010PropOp56
 70
     0
102
RTVSPost2010Prop57
140
1.0
102
RTVSPost2010PropOp57
 70
     0
  0
XRECORD
  5
188
102
{ACAD_REACTORS
330
187
102
}
330
187
100
AcDbXrecord
280
     1
102
RTVSPost2010Prop28
280
     0
102
RTVSPost2010PropOp28
 70
     1
102
RTVSPost2010Prop29
280
     1
102
RTVSPost2010PropOp29
 70
     1
102
RTVSPost2010Prop30
280
     1
102
RTVSPost2010PropOp30
 70
     1
102
RTVSPost2010Prop31
280
     0
102
RTVSPost2010PropOp31
 70
     1
102
RTVSPost2010Prop32
280
     0
102
RTVSPost2010PropOp32
 70
     1
102
RTVSPost2010Prop33
280
     0
102
RTVSPost2010PropOp33
 70
     1
102
RTVSPost2010Prop34
280
     0
102
RTVSPost2010PropOp34
 70
     1
102
RTVSPost2010Prop35
280
     0
102
RTVSPost2010PropOp35
 70
     1
102
RTVSPost2010Prop36
280
     0
102
RTVSPost2010PropOp36
 70
     1
102
RTVSPost2010Prop37
 90
       50
102
RTVSPost2010PropOp37
 70
     1
102
RTVSPost2010Prop38
140
0.0
102
RTVSPost2010PropOp38
 70
     1
102
RTVSPost2010Prop39
140
1.0
102
RTVSPost2010PropOp39
 70
     1
102
RTVSPost2010Prop40
 90
        0
102
RTVSPost2010PropOp40
 70
     1
102
RTVSPost2010Prop41ColorIndex
 90
       18
102
RTVSPost2010Prop41ColorRGB
 90
        0
102
RTVSPost2010PropOp41
 70
     1
102
RTVSPost2010Prop42
 90
       50
102
RTVSPost2010PropOp42
 70
     1
102
RTVSPost2010Prop43
 90
        3
102
RTVSPost2010PropOp43
 70
     1
102
RTVSPost2010Prop44ColorIndex
 90
        5
102
RTVSPost2010Prop44ColorRGB
 90
      255
102
RTVSPost2010PropOp44
 70
     1
102
RTVSPost2010Prop45
280
     0
102
RTVSPost2010PropOp45
 70
     1
102
RTVSPost2010Prop46
 90
       50
102
RTVSPost2010PropOp46
 70
     1
102
RTVSPost2010Prop47
 90
       50
102
RTVSPost2010PropOp47
 70
     1
102
RTVSPost2010Prop48
 90
       50
102
RTVSPost2010PropOp48
 70
     1
102
RTVSPost2010Prop49
280
     0
102
RTVSPost2010PropOp49
 70
     1
102
RTVSPost2010Prop50
 90
       50
102
RTVSPost2010PropOp50
 70
     1
102
RTVSPost2010Prop51ColorIndex
 90
      256
102
RTVSPost2010Prop51ColorRGB
 90
-16777216
102
RTVSPost2010PropOp51
 70
     0
102
RTVSPost2010Prop52
140
1.0
102
RTVSPost2010PropOp52
 70
     0
102
RTVSPost2010Prop53
 90
        2
102
RTVSPost2010PropOp53
 70
     1
102
RTVSPost2010Prop54
  1
strokes_ogs.tif
102
RTVSPost2010PropOp54
 70
     1
102
RTVSPost2010Prop55
280
     0
102
RTVSPost2010PropOp55
 70
     1
102
RTVSPost2010Prop56
140
1.0
102
RTVSPost2010PropOp56
 70
     1
102
RTVSPost2010Prop57
140
1.0
102
RTVSPost2010PropOp57
 70
     1
  0
XRECORD
  5
16C
102
{ACAD_REACTORS
330
16B
102
}
330
16B
100
AcDbXrecord
280
     1
102
RTVSPost2010Prop28
280
     0
102
RTVSPost2010PropOp28
 70
     1
102
RTVSPost2010Prop29
280
     1
102
RTVSPost2010PropOp29
 70
     1
102
RTVSPost2010Prop30
280
     1
102
RTVSPost2010PropOp30
 70
     1
102
RTVSPost2010Prop31
280
     0
102
RTVSPost2010PropOp31
 70
     1
102
RTVSPost2010Prop32
280
     0
102
RTVSPost2010PropOp32
 70
     1
102
RTVSPost2010Prop33
280
     0
102
RTVSPost2010PropOp33
 70
     1
102
RTVSPost2010Prop34
280
     0
102
RTVSPost2010PropOp34
 70
     1
102
RTVSPost2010Prop35
280
     0
102
RTVSPost2010PropOp35
 70
     1
102
RTVSPost2010Prop36
280
     0
102
RTVSPost2010PropOp36
 70
     1
102
RTVSPost2010Prop37
 90
       50
102
RTVSPost2010PropOp37
 70
     1
102
RTVSPost2010Prop38
140
0.0
102
RTVSPost2010PropOp38
 70
     1
102
RTVSPost2010Prop39
140
1.0
102
RTVSPost2010PropOp39
 70
     1
102
RTVSPost2010Prop40
 90
        0
102
RTVSPost2010PropOp40
 70
     1
102
RTVSPost2010Prop41ColorIndex
 90
       18
102
RTVSPost2010Prop41ColorRGB
 90
        0
102
RTVSPost2010PropOp41
 70
     1
102
RTVSPost2010Prop42
 90
       50
102
RTVSPost2010PropOp42
 70
     1
102
RTVSPost2010Prop43
 90
        3
102
RTVSPost2010PropOp43
 70
     1
102
RTVSPost2010Prop44ColorIndex
 90
        5
102
RTVSPost2010Prop44ColorRGB
 90
      255
102
RTVSPost2010PropOp44
 70
     1
102
RTVSPost2010Prop45
280
     0
102
RTVSPost2010PropOp45
 70
     1
102
RTVSPost2010Prop46
 90
       50
102
RTVSPost2010PropOp46
 70
     1
102
RTVSPost2010Prop47
 90
       50
102
RTVSPost2010PropOp47
 70
     1
102
RTVSPost2010Prop48
 90
       50
102
RTVSPost2010PropOp48
 70
     1
102
RTVSPost2010Prop49
280
     0
102
RTVSPost2010PropOp49
 70
     1
102
RTVSPost2010Prop50
 90
       50
102
RTVSPost2010PropOp50
 70
     1
102
RTVSPost2010Prop51ColorIndex
 90
      256
102
RTVSPost2010Prop51ColorRGB
 90
-16777216
102
RTVSPost2010PropOp51
 70
     0
102
RTVSPost2010Prop52
140
1.0
102
RTVSPost2010PropOp52
 70
     0
102
RTVSPost2010Prop53
 90
        2
102
RTVSPost2010PropOp53
 70
     1
102
RTVSPost2010Prop54
  1
strokes_ogs.tif
102
RTVSPost2010PropOp54
 70
     1
102
RTVSPost2010Prop55
280
     0
102
RTVSPost2010PropOp55
 70
     1
102
RTVSPost2010Prop56
140
1.0
102
RTVSPost2010PropOp56
 70
     1
102
RTVSPost2010Prop57
140
1.0
102
RTVSPost2010PropOp57
 70
     1
  0
XRECORD
  5
16E
102
{ACAD_REACTORS
330
16D
102
}
330
16D
100
AcDbXrecord
280
     1
102
RTVSPost2010Prop28
280
     0
102
RTVSPost2010PropOp28
 70
     1
102
RTVSPost2010Prop29
280
     1
102
RTVSPost2010PropOp29
 70
     1
102
RTVSPost2010Prop30
280
     1
102
RTVSPost2010PropOp30
 70
     1
102
RTVSPost2010Prop31
280
     0
102
RTVSPost2010PropOp31
 70
     1
102
RTVSPost2010Prop32
280
     0
102
RTVSPost2010PropOp32
 70
     1
102
RTVSPost2010Prop33
280
     0
102
RTVSPost2010PropOp33
 70
     1
102
RTVSPost2010Prop34
280
     0
102
RTVSPost2010PropOp34
 70
     1
102
RTVSPost2010Prop35
280
     0
102
RTVSPost2010PropOp35
 70
     1
102
RTVSPost2010Prop36
280
     0
102
RTVSPost2010PropOp36
 70
     1
102
RTVSPost2010Prop37
 90
       50
102
RTVSPost2010PropOp37
 70
     1
102
RTVSPost2010Prop38
140
0.0
102
RTVSPost2010PropOp38
 70
     1
102
RTVSPost2010Prop39
140
1.0
102
RTVSPost2010PropOp39
 70
     1
102
RTVSPost2010Prop40
 90
        0
102
RTVSPost2010PropOp40
 70
     1
102
RTVSPost2010Prop41ColorIndex
 90
       18
102
RTVSPost2010Prop41ColorRGB
 90
        0
102
RTVSPost2010PropOp41
 70
     1
102
RTVSPost2010Prop42
 90
       50
102
RTVSPost2010PropOp42
 70
     1
102
RTVSPost2010Prop43
 90
        3
102
RTVSPost2010PropOp43
 70
     1
102
RTVSPost2010Prop44ColorIndex
 90
        5
102
RTVSPost2010Prop44ColorRGB
 90
      255
102
RTVSPost2010PropOp44
 70
     1
102
RTVSPost2010Prop45
280
     0
102
RTVSPost2010PropOp45
 70
     1
102
RTVSPost2010Prop46
 90
       50
102
RTVSPost2010PropOp46
 70
     1
102
RTVSPost2010Prop47
 90
       50
102
RTVSPost2010PropOp47
 70
     1
102
RTVSPost2010Prop48
 90
       50
102
RTVSPost2010PropOp48
 70
     1
102
RTVSPost2010Prop49
280
     0
102
RTVSPost2010PropOp49
 70
     1
102
RTVSPost2010Prop50
 90
       50
102
RTVSPost2010PropOp50
 70
     1
102
RTVSPost2010Prop51ColorIndex
 90
      256
102
RTVSPost2010Prop51ColorRGB
 90
-16777216
102
RTVSPost2010PropOp51
 70
     0
102
RTVSPost2010Prop52
140
1.0
102
RTVSPost2010PropOp52
 70
     0
102
RTVSPost2010Prop53
 90
        2
102
RTVSPost2010PropOp53
 70
     1
102
RTVSPost2010Prop54
  1
strokes_ogs.tif
102
RTVSPost2010PropOp54
 70
     1
102
RTVSPost2010Prop55
280
     0
102
RTVSPost2010PropOp55
 70
     1
102
RTVSPost2010Prop56
140
1.0
102
RTVSPost2010PropOp56
 70
     1
102
RTVSPost2010Prop57
140
1.0
102
RTVSPost2010PropOp57
 70
     1
  0
XRECORD
  5
170
102
{ACAD_REACTORS
330
16F
102
}
330
16F
100
AcDbXrecord
280
     1
102
RTVSPost2010Prop28
280
     0
102
RTVSPost2010PropOp28
 70
     1
102
RTVSPost2010Prop29
280
     1
102
RTVSPost2010PropOp29
 70
     1
102
RTVSPost2010Prop30
280
     1
102
RTVSPost2010PropOp30
 70
     1
102
RTVSPost2010Prop31
280
     0
102
RTVSPost2010PropOp31
 70
     1
102
RTVSPost2010Prop32
280
     0
102
RTVSPost2010PropOp32
 70
     1
102
RTVSPost2010Prop33
280
     0
102
RTVSPost2010PropOp33
 70
     1
102
RTVSPost2010Prop34
280
     0
102
RTVSPost2010PropOp34
 70
     1
102
RTVSPost2010Prop35
280
     0
102
RTVSPost2010PropOp35
 70
     1
102
RTVSPost2010Prop36
280
     0
102
RTVSPost2010PropOp36
 70
     1
102
RTVSPost2010Prop37
 90
       50
102
RTVSPost2010PropOp37
 70
     1
102
RTVSPost2010Prop38
140
0.0
102
RTVSPost2010PropOp38
 70
     1
102
RTVSPost2010Prop39
140
1.0
102
RTVSPost2010PropOp39
 70
     1
102
RTVSPost2010Prop40
 90
        0
102
RTVSPost2010PropOp40
 70
     1
102
RTVSPost2010Prop41ColorIndex
 90
       18
102
RTVSPost2010Prop41ColorRGB
 90
        0
102
RTVSPost2010PropOp41
 70
     1
102
RTVSPost2010Prop42
 90
       50
102
RTVSPost2010PropOp42
 70
     1
102
RTVSPost2010Prop43
 90
        3
102
RTVSPost2010PropOp43
 70
     1
102
RTVSPost2010Prop44ColorIndex
 90
        5
102
RTVSPost2010Prop44ColorRGB
 90
      255
102
RTVSPost2010PropOp44
 70
     1
102
RTVSPost2010Prop45
280
     0
102
RTVSPost2010PropOp45
 70
     1
102
RTVSPost2010Prop46
 90
       50
102
RTVSPost2010PropOp46
 70
     1
102
RTVSPost2010Prop47
 90
       50
102
RTVSPost2010PropOp47
 70
     1
102
RTVSPost2010Prop48
 90
       50
102
RTVSPost2010PropOp48
 70
     1
102
RTVSPost2010Prop49
280
     0
102
RTVSPost2010PropOp49
 70
     1
102
RTVSPost2010Prop50
 90
       50
102
RTVSPost2010PropOp50
 70
     1
102
RTVSPost2010Prop51ColorIndex
 90
      256
102
RTVSPost2010Prop51ColorRGB
 90
-16777216
102
RTVSPost2010PropOp51
 70
     0
102
RTVSPost2010Prop52
140
1.0
102
RTVSPost2010PropOp52
 70
     0
102
RTVSPost2010Prop53
 90
        2
102
RTVSPost2010PropOp53
 70
     1
102
RTVSPost2010Prop54
  1
strokes_ogs.tif
102
RTVSPost2010PropOp54
 70
     1
102
RTVSPost2010Prop55
280
     0
102
RTVSPost2010PropOp55
 70
     1
102
RTVSPost2010Prop56
140
1.0
102
RTVSPost2010PropOp56
 70
     1
102
RTVSPost2010Prop57
140
1.0
102
RTVSPost2010PropOp57
 70
     1
  0
XRECORD
  5
172
102
{ACAD_REACTORS
330
171
102
}
330
171
100
AcDbXrecord
280
     1
102
RTVSPost2010Prop28
280
     0
102
RTVSPost2010PropOp28
 70
     1
102
RTVSPost2010Prop29
280
     1
102
RTVSPost2010PropOp29
 70
     1
102
RTVSPost2010Prop30
280
     1
102
RTVSPost2010PropOp30
 70
     1
102
RTVSPost2010Prop31
280
     0
102
RTVSPost2010PropOp31
 70
     1
102
RTVSPost2010Prop32
280
     0
102
RTVSPost2010PropOp32
 70
     1
102
RTVSPost2010Prop33
280
     0
102
RTVSPost2010PropOp33
 70
     1
102
RTVSPost2010Prop34
280
     0
102
RTVSPost2010PropOp34
 70
     1
102
RTVSPost2010Prop35
280
     0
102
RTVSPost2010PropOp35
 70
     1
102
RTVSPost2010Prop36
280
     0
102
RTVSPost2010PropOp36
 70
     1
102
RTVSPost2010Prop37
 90
       50
102
RTVSPost2010PropOp37
 70
     1
102
RTVSPost2010Prop38
140
0.0
102
RTVSPost2010PropOp38
 70
     1
102
RTVSPost2010Prop39
140
1.0
102
RTVSPost2010PropOp39
 70
     1
102
RTVSPost2010Prop40
 90
        0
102
RTVSPost2010PropOp40
 70
     1
102
RTVSPost2010Prop41ColorIndex
 90
       18
102
RTVSPost2010Prop41ColorRGB
 90
        0
102
RTVSPost2010PropOp41
 70
     1
102
RTVSPost2010Prop42
 90
       50
102
RTVSPost2010PropOp42
 70
     1
102
RTVSPost2010Prop43
 90
        3
102
RTVSPost2010PropOp43
 70
     1
102
RTVSPost2010Prop44ColorIndex
 90
        5
102
RTVSPost2010Prop44ColorRGB
 90
      255
102
RTVSPost2010PropOp44
 70
     1
102
RTVSPost2010Prop45
280
     0
102
RTVSPost2010PropOp45
 70
     1
102
RTVSPost2010Prop46
 90
       50
102
RTVSPost2010PropOp46
 70
     1
102
RTVSPost2010Prop47
 90
       50
102
RTVSPost2010PropOp47
 70
     1
102
RTVSPost2010Prop48
 90
       50
102
RTVSPost2010PropOp48
 70
     1
102
RTVSPost2010Prop49
280
     0
102
RTVSPost2010PropOp49
 70
     1
102
RTVSPost2010Prop50
 90
       50
102
RTVSPost2010PropOp50
 70
     1
102
RTVSPost2010Prop51ColorIndex
 90
      256
102
RTVSPost2010Prop51ColorRGB
 90
-16777216
102
RTVSPost2010PropOp51
 70
     0
102
RTVSPost2010Prop52
140
1.0
102
RTVSPost2010PropOp52
 70
     0
102
RTVSPost2010Prop53
 90
        2
102
RTVSPost2010PropOp53
 70
     1
102
RTVSPost2010Prop54
  1
strokes_ogs.tif
102
RTVSPost2010PropOp54
 70
     1
102
RTVSPost2010Prop55
280
     0
102
RTVSPost2010PropOp55
 70
     1
102
RTVSPost2010Prop56
140
1.0
102
RTVSPost2010PropOp56
 70
     1
102
RTVSPost2010Prop57
140
1.0
102
RTVSPost2010PropOp57
 70
     1
  0
XRECORD
  5
17A
102
{ACAD_REACTORS
330
179
102
}
330
179
100
AcDbXrecord
280
     1
102
RTVSPost2010Prop28
280
     0
102
RTVSPost2010PropOp28
 70
     1
102
RTVSPost2010Prop29
280
     1
102
RTVSPost2010PropOp29
 70
     1
102
RTVSPost2010Prop30
280
     1
102
RTVSPost2010PropOp30
 70
     1
102
RTVSPost2010Prop31
280
     0
102
RTVSPost2010PropOp31
 70
     1
102
RTVSPost2010Prop32
280
     0
102
RTVSPost2010PropOp32
 70
     1
102
RTVSPost2010Prop33
280
     0
102
RTVSPost2010PropOp33
 70
     1
102
RTVSPost2010Prop34
280
     0
102
RTVSPost2010PropOp34
 70
     1
102
RTVSPost2010Prop35
280
     0
102
RTVSPost2010PropOp35
 70
     1
102
RTVSPost2010Prop36
280
     0
102
RTVSPost2010PropOp36
 70
     1
102
RTVSPost2010Prop37
 90
       50
102
RTVSPost2010PropOp37
 70
     1
102
RTVSPost2010Prop38
140
0.0
102
RTVSPost2010PropOp38
 70
     1
102
RTVSPost2010Prop39
140
1.0
102
RTVSPost2010PropOp39
 70
     1
102
RTVSPost2010Prop40
 90
        0
102
RTVSPost2010PropOp40
 70
     1
102
RTVSPost2010Prop41ColorIndex
 90
       18
102
RTVSPost2010Prop41ColorRGB
 90
        0
102
RTVSPost2010PropOp41
 70
     1
102
RTVSPost2010Prop42
 90
       50
102
RTVSPost2010PropOp42
 70
     1
102
RTVSPost2010Prop43
 90
        3
102
RTVSPost2010PropOp43
 70
     1
102
RTVSPost2010Prop44ColorIndex
 90
        5
102
RTVSPost2010Prop44ColorRGB
 90
      255
102
RTVSPost2010PropOp44
 70
     1
102
RTVSPost2010Prop45
280
     0
102
RTVSPost2010PropOp45
 70
     1
102
RTVSPost2010Prop46
 90
       50
102
RTVSPost2010PropOp46
 70
     1
102
RTVSPost2010Prop47
 90
       50
102
RTVSPost2010PropOp47
 70
     1
102
RTVSPost2010Prop48
 90
       50
102
RTVSPost2010PropOp48
 70
     1
102
RTVSPost2010Prop49
280
     0
102
RTVSPost2010PropOp49
 70
     1
102
RTVSPost2010Prop50
 90
       50
102
RTVSPost2010PropOp50
 70
     1
102
RTVSPost2010Prop51ColorIndex
 90
      256
102
RTVSPost2010Prop51ColorRGB
 90
-16777216
102
RTVSPost2010PropOp51
 70
     0
102
RTVSPost2010Prop52
140
1.0
102
RTVSPost2010PropOp52
 70
     0
102
RTVSPost2010Prop53
 90
        2
102
RTVSPost2010PropOp53
 70
     1
102
RTVSPost2010Prop54
  1
strokes_ogs.tif
102
RTVSPost2010PropOp54
 70
     1
102
RTVSPost2010Prop55
280
     0
102
RTVSPost2010PropOp55
 70
     1
102
RTVSPost2010Prop56
140
1.0
102
RTVSPost2010PropOp56
 70
     1
102
RTVSPost2010Prop57
140
1.0
102
RTVSPost2010PropOp57
 70
     1
  0
XRECORD
  5
196
102
{ACAD_REACTORS
330
195
102
}
330
195
100
AcDbXrecord
280
     1
102
RTVSPost2010Prop28
280
     0
102
RTVSPost2010PropOp28
 70
     0
102
RTVSPost2010Prop29
280
     1
102
RTVSPost2010PropOp29
 70
     0
102
RTVSPost2010Prop30
280
     1
102
RTVSPost2010PropOp30
 70
     0
102
RTVSPost2010Prop31
280
     0
102
RTVSPost2010PropOp31
 70
     0
102
RTVSPost2010Prop32
280
     0
102
RTVSPost2010PropOp32
 70
     0
102
RTVSPost2010Prop33
280
     0
102
RTVSPost2010PropOp33
 70
     0
102
RTVSPost2010Prop34
280
     0
102
RTVSPost2010PropOp34
 70
     0
102
RTVSPost2010Prop35
280
     0
102
RTVSPost2010PropOp35
 70
     0
102
RTVSPost2010Prop36
280
     0
102
RTVSPost2010PropOp36
 70
     0
102
RTVSPost2010Prop37
 90
       50
102
RTVSPost2010PropOp37
 70
     0
102
RTVSPost2010Prop38
140
0.0
102
RTVSPost2010PropOp38
 70
     0
102
RTVSPost2010Prop39
140
1.0
102
RTVSPost2010PropOp39
 70
     0
102
RTVSPost2010Prop40
 90
        0
102
RTVSPost2010PropOp40
 70
     0
102
RTVSPost2010Prop41ColorIndex
 90
       18
102
RTVSPost2010Prop41ColorRGB
 90
        0
102
RTVSPost2010PropOp41
 70
     0
102
RTVSPost2010Prop42
 90
       50
102
RTVSPost2010PropOp42
 70
     0
102
RTVSPost2010Prop43
 90
        3
102
RTVSPost2010PropOp43
 70
     0
102
RTVSPost2010Prop44ColorIndex
 90
        5
102
RTVSPost2010Prop44ColorRGB
 90
      255
102
RTVSPost2010PropOp44
 70
     0
102
RTVSPost2010Prop45
280
     0
102
RTVSPost2010PropOp45
 70
     0
102
RTVSPost2010Prop46
 90
       50
102
RTVSPost2010PropOp46
 70
     0
102
RTVSPost2010Prop47
 90
       50
102
RTVSPost2010PropOp47
 70
     0
102
RTVSPost2010Prop48
 90
       50
102
RTVSPost2010PropOp48
 70
     0
102
RTVSPost2010Prop49
280
     0
102
RTVSPost2010PropOp49
 70
     0
102
RTVSPost2010Prop50
 90
       50
102
RTVSPost2010PropOp50
 70
     0
102
RTVSPost2010Prop51ColorIndex
 90
      256
102
RTVSPost2010Prop51ColorRGB
 90
-16777216
102
RTVSPost2010PropOp51
 70
     0
102
RTVSPost2010Prop52
140
1.0
102
RTVSPost2010PropOp52
 70
     0
102
RTVSPost2010Prop53
 90
        2
102
RTVSPost2010PropOp53
 70
     0
102
RTVSPost2010Prop54
  1
strokes_ogs.tif
102
RTVSPost2010PropOp54
 70
     0
102
RTVSPost2010Prop55
280
     0
102
RTVSPost2010PropOp55
 70
     0
102
RTVSPost2010Prop56
140
1.0
102
RTVSPost2010PropOp56
 70
     0
102
RTVSPost2010Prop57
140
1.0
102
RTVSPost2010PropOp57
 70
     0
  0
XRECORD
  5
186
102
{ACAD_REACTORS
330
185
102
}
330
185
100
AcDbXrecord
280
     1
102
RTVSPost2010Prop28
280
     0
102
RTVSPost2010PropOp28
 70
     1
102
RTVSPost2010Prop29
280
     1
102
RTVSPost2010PropOp29
 70
     1
102
RTVSPost2010Prop30
280
     1
102
RTVSPost2010PropOp30
 70
     1
102
RTVSPost2010Prop31
280
     0
102
RTVSPost2010PropOp31
 70
     1
102
RTVSPost2010Prop32
280
     0
102
RTVSPost2010PropOp32
 70
     1
102
RTVSPost2010Prop33
280
     0
102
RTVSPost2010PropOp33
 70
     1
102
RTVSPost2010Prop34
280
     0
102
RTVSPost2010PropOp34
 70
     1
102
RTVSPost2010Prop35
280
     0
102
RTVSPost2010PropOp35
 70
     1
102
RTVSPost2010Prop36
280
     0
102
RTVSPost2010PropOp36
 70
     1
102
RTVSPost2010Prop37
 90
       50
102
RTVSPost2010PropOp37
 70
     1
102
RTVSPost2010Prop38
140
0.0
102
RTVSPost2010PropOp38
 70
     1
102
RTVSPost2010Prop39
140
1.0
102
RTVSPost2010PropOp39
 70
     1
102
RTVSPost2010Prop40
 90
        0
102
RTVSPost2010PropOp40
 70
     1
102
RTVSPost2010Prop41ColorIndex
 90
       18
102
RTVSPost2010Prop41ColorRGB
 90
        0
102
RTVSPost2010PropOp41
 70
     1
102
RTVSPost2010Prop42
 90
       50
102
RTVSPost2010PropOp42
 70
     1
102
RTVSPost2010Prop43
 90
        3
102
RTVSPost2010PropOp43
 70
     1
102
RTVSPost2010Prop44ColorIndex
 90
        5
102
RTVSPost2010Prop44ColorRGB
 90
      255
102
RTVSPost2010PropOp44
 70
     1
102
RTVSPost2010Prop45
280
     0
102
RTVSPost2010PropOp45
 70
     1
102
RTVSPost2010Prop46
 90
       50
102
RTVSPost2010PropOp46
 70
     1
102
RTVSPost2010Prop47
 90
       50
102
RTVSPost2010PropOp47
 70
     1
102
RTVSPost2010Prop48
 90
       50
102
RTVSPost2010PropOp48
 70
     1
102
RTVSPost2010Prop49
280
     0
102
RTVSPost2010PropOp49
 70
     1
102
RTVSPost2010Prop50
 90
       50
102
RTVSPost2010PropOp50
 70
     1
102
RTVSPost2010Prop51ColorIndex
 90
      256
102
RTVSPost2010Prop51ColorRGB
 90
-16777216
102
RTVSPost2010PropOp51
 70
     0
102
RTVSPost2010Prop52
140
1.0
102
RTVSPost2010PropOp52
 70
     0
102
RTVSPost2010Prop53
 90
        2
102
RTVSPost2010PropOp53
 70
     1
102
RTVSPost2010Prop54
  1
strokes_ogs.tif
102
RTVSPost2010PropOp54
 70
     1
102
RTVSPost2010Prop55
280
     0
102
RTVSPost2010PropOp55
 70
     1
102
RTVSPost2010Prop56
140
1.0
102
RTVSPost2010PropOp56
 70
     1
102
RTVSPost2010Prop57
140
1.0
102
RTVSPost2010PropOp57
 70
     1
  0
XRECORD
  5
198
102
{ACAD_REACTORS
330
197
102
}
330
197
100
AcDbXrecord
280
     1
102
RTVSPost2010Prop28
280
     0
102
RTVSPost2010PropOp28
 70
     0
102
RTVSPost2010Prop29
280
     1
102
RTVSPost2010PropOp29
 70
     0
102
RTVSPost2010Prop30
280
     1
102
RTVSPost2010PropOp30
 70
     0
102
RTVSPost2010Prop31
280
     0
102
RTVSPost2010PropOp31
 70
     0
102
RTVSPost2010Prop32
280
     0
102
RTVSPost2010PropOp32
 70
     0
102
RTVSPost2010Prop33
280
     0
102
RTVSPost2010PropOp33
 70
     0
102
RTVSPost2010Prop34
280
     0
102
RTVSPost2010PropOp34
 70
     0
102
RTVSPost2010Prop35
280
     0
102
RTVSPost2010PropOp35
 70
     0
102
RTVSPost2010Prop36
280
     0
102
RTVSPost2010PropOp36
 70
     0
102
RTVSPost2010Prop37
 90
       50
102
RTVSPost2010PropOp37
 70
     0
102
RTVSPost2010Prop38
140
0.0
102
RTVSPost2010PropOp38
 70
     0
102
RTVSPost2010Prop39
140
1.0
102
RTVSPost2010PropOp39
 70
     0
102
RTVSPost2010Prop40
 90
        0
102
RTVSPost2010PropOp40
 70
     0
102
RTVSPost2010Prop41ColorIndex
 90
       18
102
RTVSPost2010Prop41ColorRGB
 90
        0
102
RTVSPost2010PropOp41
 70
     0
102
RTVSPost2010Prop42
 90
       50
102
RTVSPost2010PropOp42
 70
     0
102
RTVSPost2010Prop43
 90
        3
102
RTVSPost2010PropOp43
 70
     0
102
RTVSPost2010Prop44ColorIndex
 90
        5
102
RTVSPost2010Prop44ColorRGB
 90
      255
102
RTVSPost2010PropOp44
 70
     0
102
RTVSPost2010Prop45
280
     0
102
RTVSPost2010PropOp45
 70
     0
102
RTVSPost2010Prop46
 90
       50
102
RTVSPost2010PropOp46
 70
     0
102
RTVSPost2010Prop47
 90
       50
102
RTVSPost2010PropOp47
 70
     0
102
RTVSPost2010Prop48
 90
       50
102
RTVSPost2010PropOp48
 70
     0
102
RTVSPost2010Prop49
280
     0
102
RTVSPost2010PropOp49
 70
     0
102
RTVSPost2010Prop50
 90
       50
102
RTVSPost2010PropOp50
 70
     0
102
RTVSPost2010Prop51ColorIndex
 90
      256
102
RTVSPost2010Prop51ColorRGB
 90
-16777216
102
RTVSPost2010PropOp51
 70
     0
102
RTVSPost2010Prop52
140
1.0
102
RTVSPost2010PropOp52
 70
     0
102
RTVSPost2010Prop53
 90
        2
102
RTVSPost2010PropOp53
 70
     0
102
RTVSPost2010Prop54
  1
strokes_ogs.tif
102
RTVSPost2010PropOp54
 70
     0
102
RTVSPost2010Prop55
280
     0
102
RTVSPost2010PropOp55
 70
     0
102
RTVSPost2010Prop56
140
1.0
102
RTVSPost2010PropOp56
 70
     0
102
RTVSPost2010Prop57
140
1.0
102
RTVSPost2010PropOp57
 70
     0
  0
XRECORD
  5
17E
102
{ACAD_REACTORS
330
17D
102
}
330
17D
100
AcDbXrecord
280
     1
102
RTVSPost2010Prop28
280
     0
102
RTVSPost2010PropOp28
 70
     1
102
RTVSPost2010Prop29
280
     1
102
RTVSPost2010PropOp29
 70
     1
102
RTVSPost2010Prop30
280
     1
102
RTVSPost2010PropOp30
 70
     1
102
RTVSPost2010Prop31
280
     0
102
RTVSPost2010PropOp31
 70
     1
102
RTVSPost2010Prop32
280
     0
102
RTVSPost2010PropOp32
 70
     1
102
RTVSPost2010Prop33
280
     0
102
RTVSPost2010PropOp33
 70
     1
102
RTVSPost2010Prop34
280
     0
102
RTVSPost2010PropOp34
 70
     1
102
RTVSPost2010Prop35
280
     0
102
RTVSPost2010PropOp35
 70
     1
102
RTVSPost2010Prop36
280
     0
102
RTVSPost2010PropOp36
 70
     1
102
RTVSPost2010Prop37
 90
       50
102
RTVSPost2010PropOp37
 70
     1
102
RTVSPost2010Prop38
140
0.0
102
RTVSPost2010PropOp38
 70
     1
102
RTVSPost2010Prop39
140
1.0
102
RTVSPost2010PropOp39
 70
     1
102
RTVSPost2010Prop40
 90
        0
102
RTVSPost2010PropOp40
 70
     1
102
RTVSPost2010Prop41ColorIndex
 90
       18
102
RTVSPost2010Prop41ColorRGB
 90
        0
102
RTVSPost2010PropOp41
 70
     1
102
RTVSPost2010Prop42
 90
       50
102
RTVSPost2010PropOp42
 70
     1
102
RTVSPost2010Prop43
 90
        3
102
RTVSPost2010PropOp43
 70
     1
102
RTVSPost2010Prop44ColorIndex
 90
        5
102
RTVSPost2010Prop44ColorRGB
 90
      255
102
RTVSPost2010PropOp44
 70
     1
102
RTVSPost2010Prop45
280
     0
102
RTVSPost2010PropOp45
 70
     1
102
RTVSPost2010Prop46
 90
       50
102
RTVSPost2010PropOp46
 70
     1
102
RTVSPost2010Prop47
 90
       50
102
RTVSPost2010PropOp47
 70
     1
102
RTVSPost2010Prop48
 90
       50
102
RTVSPost2010PropOp48
 70
     1
102
RTVSPost2010Prop49
280
     0
102
RTVSPost2010PropOp49
 70
     1
102
RTVSPost2010Prop50
 90
       50
102
RTVSPost2010PropOp50
 70
     1
102
RTVSPost2010Prop51ColorIndex
 90
      256
102
RTVSPost2010Prop51ColorRGB
 90
-16777216
102
RTVSPost2010PropOp51
 70
     0
102
RTVSPost2010Prop52
140
1.0
102
RTVSPost2010PropOp52
 70
     0
102
RTVSPost2010Prop53
 90
        2
102
RTVSPost2010PropOp53
 70
     1
102
RTVSPost2010Prop54
  1
strokes_ogs.tif
102
RTVSPost2010PropOp54
 70
     1
102
RTVSPost2010Prop55
280
     0
102
RTVSPost2010PropOp55
 70
     1
102
RTVSPost2010Prop56
140
1.0
102
RTVSPost2010PropOp56
 70
     1
102
RTVSPost2010Prop57
140
1.0
102
RTVSPost2010PropOp57
 70
     1
  0
XRECORD
  5
194
102
{ACAD_REACTORS
330
193
102
}
330
193
100
AcDbXrecord
280
     1
102
RTVSPost2010Prop28
280
     0
102
RTVSPost2010PropOp28
 70
     1
102
RTVSPost2010Prop29
280
     1
102
RTVSPost2010PropOp29
 70
     1
102
RTVSPost2010Prop30
280
     1
102
RTVSPost2010PropOp30
 70
     1
102
RTVSPost2010Prop31
280
     0
102
RTVSPost2010PropOp31
 70
     1
102
RTVSPost2010Prop32
280
     0
102
RTVSPost2010PropOp32
 70
     1
102
RTVSPost2010Prop33
280
     0
102
RTVSPost2010PropOp33
 70
     1
102
RTVSPost2010Prop34
280
     0
102
RTVSPost2010PropOp34
 70
     1
102
RTVSPost2010Prop35
280
     0
102
RTVSPost2010PropOp35
 70
     1
102
RTVSPost2010Prop36
280
     0
102
RTVSPost2010PropOp36
 70
     1
102
RTVSPost2010Prop37
 90
       50
102
RTVSPost2010PropOp37
 70
     1
102
RTVSPost2010Prop38
140
0.0
102
RTVSPost2010PropOp38
 70
     1
102
RTVSPost2010Prop39
140
1.0
102
RTVSPost2010PropOp39
 70
     1
102
RTVSPost2010Prop40
 90
        0
102
RTVSPost2010PropOp40
 70
     1
102
RTVSPost2010Prop41ColorIndex
 90
       18
102
RTVSPost2010Prop41ColorRGB
 90
        0
102
RTVSPost2010PropOp41
 70
     1
102
RTVSPost2010Prop42
 90
       50
102
RTVSPost2010PropOp42
 70
     1
102
RTVSPost2010Prop43
 90
        3
102
RTVSPost2010PropOp43
 70
     1
102
RTVSPost2010Prop44ColorIndex
 90
        5
102
RTVSPost2010Prop44ColorRGB
 90
      255
102
RTVSPost2010PropOp44
 70
     1
102
RTVSPost2010Prop45
280
     0
102
RTVSPost2010PropOp45
 70
     1
102
RTVSPost2010Prop46
 90
       50
102
RTVSPost2010PropOp46
 70
     1
102
RTVSPost2010Prop47
 90
       50
102
RTVSPost2010PropOp47
 70
     1
102
RTVSPost2010Prop48
 90
       50
102
RTVSPost2010PropOp48
 70
     1
102
RTVSPost2010Prop49
280
     0
102
RTVSPost2010PropOp49
 70
     1
102
RTVSPost2010Prop50
 90
       50
102
RTVSPost2010PropOp50
 70
     1
102
RTVSPost2010Prop51ColorIndex
 90
      256
102
RTVSPost2010Prop51ColorRGB
 90
-16777216
102
RTVSPost2010PropOp51
 70
     0
102
RTVSPost2010Prop52
140
1.0
102
RTVSPost2010PropOp52
 70
     0
102
RTVSPost2010Prop53
 90
        2
102
RTVSPost2010PropOp53
 70
     1
102
RTVSPost2010Prop54
  1
strokes_ogs.tif
102
RTVSPost2010PropOp54
 70
     1
102
RTVSPost2010Prop55
280
     0
102
RTVSPost2010PropOp55
 70
     1
102
RTVSPost2010Prop56
140
1.0
102
RTVSPost2010PropOp56
 70
     1
102
RTVSPost2010Prop57
140
1.0
102
RTVSPost2010PropOp57
 70
     1
  0
XRECORD
  5
192
102
{ACAD_REACTORS
330
191
102
}
330
191
100
AcDbXrecord
280
     1
102
RTVSPost2010Prop28
280
     0
102
RTVSPost2010PropOp28
 70
     1
102
RTVSPost2010Prop29
280
     1
102
RTVSPost2010PropOp29
 70
     1
102
RTVSPost2010Prop30
280
     1
102
RTVSPost2010PropOp30
 70
     1
102
RTVSPost2010Prop31
280
     0
102
RTVSPost2010PropOp31
 70
     1
102
RTVSPost2010Prop32
280
     0
102
RTVSPost2010PropOp32
 70
     1
102
RTVSPost2010Prop33
280
     0
102
RTVSPost2010PropOp33
 70
     1
102
RTVSPost2010Prop34
280
     0
102
RTVSPost2010PropOp34
 70
     1
102
RTVSPost2010Prop35
280
     0
102
RTVSPost2010PropOp35
 70
     1
102
RTVSPost2010Prop36
280
     0
102
RTVSPost2010PropOp36
 70
     1
102
RTVSPost2010Prop37
 90
       50
102
RTVSPost2010PropOp37
 70
     1
102
RTVSPost2010Prop38
140
0.0
102
RTVSPost2010PropOp38
 70
     1
102
RTVSPost2010Prop39
140
1.0
102
RTVSPost2010PropOp39
 70
     1
102
RTVSPost2010Prop40
 90
        0
102
RTVSPost2010PropOp40
 70
     1
102
RTVSPost2010Prop41ColorIndex
 90
       18
102
RTVSPost2010Prop41ColorRGB
 90
        0
102
RTVSPost2010PropOp41
 70
     1
102
RTVSPost2010Prop42
 90
       50
102
RTVSPost2010PropOp42
 70
     1
102
RTVSPost2010Prop43
 90
        3
102
RTVSPost2010PropOp43
 70
     1
102
RTVSPost2010Prop44ColorIndex
 90
        5
102
RTVSPost2010Prop44ColorRGB
 90
      255
102
RTVSPost2010PropOp44
 70
     1
102
RTVSPost2010Prop45
280
     0
102
RTVSPost2010PropOp45
 70
     1
102
RTVSPost2010Prop46
 90
       50
102
RTVSPost2010PropOp46
 70
     1
102
RTVSPost2010Prop47
 90
       50
102
RTVSPost2010PropOp47
 70
     1
102
RTVSPost2010Prop48
 90
       50
102
RTVSPost2010PropOp48
 70
     1
102
RTVSPost2010Prop49
280
     0
102
RTVSPost2010PropOp49
 70
     1
102
RTVSPost2010Prop50
 90
       50
102
RTVSPost2010PropOp50
 70
     1
102
RTVSPost2010Prop51ColorIndex
 90
      256
102
RTVSPost2010Prop51ColorRGB
 90
-16777216
102
RTVSPost2010PropOp51
 70
     0
102
RTVSPost2010Prop52
140
1.0
102
RTVSPost2010PropOp52
 70
     0
102
RTVSPost2010Prop53
 90
        2
102
RTVSPost2010PropOp53
 70
     1
102
RTVSPost2010Prop54
  1
strokes_ogs.tif
102
RTVSPost2010PropOp54
 70
     1
102
RTVSPost2010Prop55
280
     0
102
RTVSPost2010PropOp55
 70
     1
102
RTVSPost2010Prop56
140
1.0
102
RTVSPost2010PropOp56
 70
     1
102
RTVSPost2010Prop57
140
1.0
102
RTVSPost2010PropOp57
 70
     1
  0
XRECORD
  5
18C
102
{ACAD_REACTORS
330
18B
102
}
330
18B
100
AcDbXrecord
280
     1
102
RTVSPost2010Prop28
280
     0
102
RTVSPost2010PropOp28
 70
     1
102
RTVSPost2010Prop29
280
     1
102
RTVSPost2010PropOp29
 70
     1
102
RTVSPost2010Prop30
280
     1
102
RTVSPost2010PropOp30
 70
     1
102
RTVSPost2010Prop31
280
     0
102
RTVSPost2010PropOp31
 70
     1
102
RTVSPost2010Prop32
280
     0
102
RTVSPost2010PropOp32
 70
     1
102
RTVSPost2010Prop33
280
     0
102
RTVSPost2010PropOp33
 70
     1
102
RTVSPost2010Prop34
280
     0
102
RTVSPost2010PropOp34
 70
     1
102
RTVSPost2010Prop35
280
     0
102
RTVSPost2010PropOp35
 70
     1
102
RTVSPost2010Prop36
280
     0
102
RTVSPost2010PropOp36
 70
     1
102
RTVSPost2010Prop37
 90
       50
102
RTVSPost2010PropOp37
 70
     1
102
RTVSPost2010Prop38
140
0.0
102
RTVSPost2010PropOp38
 70
     1
102
RTVSPost2010Prop39
140
1.0
102
RTVSPost2010PropOp39
 70
     1
102
RTVSPost2010Prop40
 90
        0
102
RTVSPost2010PropOp40
 70
     1
102
RTVSPost2010Prop41ColorIndex
 90
       18
102
RTVSPost2010Prop41ColorRGB
 90
        0
102
RTVSPost2010PropOp41
 70
     1
102
RTVSPost2010Prop42
 90
       50
102
RTVSPost2010PropOp42
 70
     1
102
RTVSPost2010Prop43
 90
        3
102
RTVSPost2010PropOp43
 70
     1
102
RTVSPost2010Prop44ColorIndex
 90
        5
102
RTVSPost2010Prop44ColorRGB
 90
      255
102
RTVSPost2010PropOp44
 70
     1
102
RTVSPost2010Prop45
280
     0
102
RTVSPost2010PropOp45
 70
     1
102
RTVSPost2010Prop46
 90
       50
102
RTVSPost2010PropOp46
 70
     1
102
RTVSPost2010Prop47
 90
       50
102
RTVSPost2010PropOp47
 70
     1
102
RTVSPost2010Prop48
 90
       50
102
RTVSPost2010PropOp48
 70
     1
102
RTVSPost2010Prop49
280
     0
102
RTVSPost2010PropOp49
 70
     1
102
RTVSPost2010Prop50
 90
       50
102
RTVSPost2010PropOp50
 70
     1
102
RTVSPost2010Prop51ColorIndex
 90
      256
102
RTVSPost2010Prop51ColorRGB
 90
-16777216
102
RTVSPost2010PropOp51
 70
     0
102
RTVSPost2010Prop52
140
1.0
102
RTVSPost2010PropOp52
 70
     0
102
RTVSPost2010Prop53
 90
        2
102
RTVSPost2010PropOp53
 70
     1
102
RTVSPost2010Prop54
  1
strokes_ogs.tif
102
RTVSPost2010PropOp54
 70
     1
102
RTVSPost2010Prop55
280
     0
102
RTVSPost2010PropOp55
 70
     1
102
RTVSPost2010Prop56
140
1.0
102
RTVSPost2010PropOp56
 70
     1
102
RTVSPost2010Prop57
140
1.0
102
RTVSPost2010PropOp57
 70
     1
  0
XRECORD
  5
18E
102
{ACAD_REACTORS
330
18D
102
}
330
18D
100
AcDbXrecord
280
     1
102
RTVSPost2010Prop28
280
     0
102
RTVSPost2010PropOp28
 70
     1
102
RTVSPost2010Prop29
280
     1
102
RTVSPost2010PropOp29
 70
     1
102
RTVSPost2010Prop30
280
     1
102
RTVSPost2010PropOp30
 70
     1
102
RTVSPost2010Prop31
280
     0
102
RTVSPost2010PropOp31
 70
     1
102
RTVSPost2010Prop32
280
     0
102
RTVSPost2010PropOp32
 70
     1
102
RTVSPost2010Prop33
280
     0
102
RTVSPost2010PropOp33
 70
     1
102
RTVSPost2010Prop34
280
     0
102
RTVSPost2010PropOp34
 70
     1
102
RTVSPost2010Prop35
280
     0
102
RTVSPost2010PropOp35
 70
     1
102
RTVSPost2010Prop36
280
     0
102
RTVSPost2010PropOp36
 70
     1
102
RTVSPost2010Prop37
 90
       50
102
RTVSPost2010PropOp37
 70
     1
102
RTVSPost2010Prop38
140
0.0
102
RTVSPost2010PropOp38
 70
     1
102
RTVSPost2010Prop39
140
1.0
102
RTVSPost2010PropOp39
 70
     1
102
RTVSPost2010Prop40
 90
        0
102
RTVSPost2010PropOp40
 70
     1
102
RTVSPost2010Prop41ColorIndex
 90
       18
102
RTVSPost2010Prop41ColorRGB
 90
        0
102
RTVSPost2010PropOp41
 70
     1
102
RTVSPost2010Prop42
 90
       50
102
RTVSPost2010PropOp42
 70
     1
102
RTVSPost2010Prop43
 90
        3
102
RTVSPost2010PropOp43
 70
     1
102
RTVSPost2010Prop44ColorIndex
 90
        5
102
RTVSPost2010Prop44ColorRGB
 90
      255
102
RTVSPost2010PropOp44
 70
     1
102
RTVSPost2010Prop45
280
     0
102
RTVSPost2010PropOp45
 70
     1
102
RTVSPost2010Prop46
 90
       50
102
RTVSPost2010PropOp46
 70
     1
102
RTVSPost2010Prop47
 90
       50
102
RTVSPost2010PropOp47
 70
     1
102
RTVSPost2010Prop48
 90
       50
102
RTVSPost2010PropOp48
 70
     1
102
RTVSPost2010Prop49
280
     0
102
RTVSPost2010PropOp49
 70
     1
102
RTVSPost2010Prop50
 90
       50
102
RTVSPost2010PropOp50
 70
     1
102
RTVSPost2010Prop51ColorIndex
 90
      256
102
RTVSPost2010Prop51ColorRGB
 90
-16777216
102
RTVSPost2010PropOp51
 70
     0
102
RTVSPost2010Prop52
140
1.0
102
RTVSPost2010PropOp52
 70
     0
102
RTVSPost2010Prop53
 90
        2
102
RTVSPost2010PropOp53
 70
     1
102
RTVSPost2010Prop54
  1
strokes_ogs.tif
102
RTVSPost2010PropOp54
 70
     1
102
RTVSPost2010Prop55
280
     0
102
RTVSPost2010PropOp55
 70
     1
102
RTVSPost2010Prop56
140
1.0
102
RTVSPost2010PropOp56
 70
     1
102
RTVSPost2010Prop57
140
1.0
102
RTVSPost2010PropOp57
 70
     1
  0
XRECORD
  5
184
102
{ACAD_REACTORS
330
183
102
}
330
183
100
AcDbXrecord
280
     1
102
RTVSPost2010Prop28
280
     0
102
RTVSPost2010PropOp28
 70
     1
102
RTVSPost2010Prop29
280
     1
102
RTVSPost2010PropOp29
 70
     1
102
RTVSPost2010Prop30
280
     1
102
RTVSPost2010PropOp30
 70
     1
102
RTVSPost2010Prop31
280
     0
102
RTVSPost2010PropOp31
 70
     1
102
RTVSPost2010Prop32
280
     0
102
RTVSPost2010PropOp32
 70
     1
102
RTVSPost2010Prop33
280
     0
102
RTVSPost2010PropOp33
 70
     1
102
RTVSPost2010Prop34
280
     0
102
RTVSPost2010PropOp34
 70
     1
102
RTVSPost2010Prop35
280
     0
102
RTVSPost2010PropOp35
 70
     1
102
RTVSPost2010Prop36
280
     0
102
RTVSPost2010PropOp36
 70
     1
102
RTVSPost2010Prop37
 90
       50
102
RTVSPost2010PropOp37
 70
     1
102
RTVSPost2010Prop38
140
0.0
102
RTVSPost2010PropOp38
 70
     1
102
RTVSPost2010Prop39
140
1.0
102
RTVSPost2010PropOp39
 70
     1
102
RTVSPost2010Prop40
 90
        0
102
RTVSPost2010PropOp40
 70
     1
102
RTVSPost2010Prop41ColorIndex
 90
       18
102
RTVSPost2010Prop41ColorRGB
 90
        0
102
RTVSPost2010PropOp41
 70
     1
102
RTVSPost2010Prop42
 90
       50
102
RTVSPost2010PropOp42
 70
     1
102
RTVSPost2010Prop43
 90
        3
102
RTVSPost2010PropOp43
 70
     1
102
RTVSPost2010Prop44ColorIndex
 90
        5
102
RTVSPost2010Prop44ColorRGB
 90
      255
102
RTVSPost2010PropOp44
 70
     1
102
RTVSPost2010Prop45
280
     0
102
RTVSPost2010PropOp45
 70
     1
102
RTVSPost2010Prop46
 90
       50
102
RTVSPost2010PropOp46
 70
     1
102
RTVSPost2010Prop47
 90
       50
102
RTVSPost2010PropOp47
 70
     1
102
RTVSPost2010Prop48
 90
       50
102
RTVSPost2010PropOp48
 70
     1
102
RTVSPost2010Prop49
280
     0
102
RTVSPost2010PropOp49
 70
     1
102
RTVSPost2010Prop50
 90
       50
102
RTVSPost2010PropOp50
 70
     1
102
RTVSPost2010Prop51ColorIndex
 90
      256
102
RTVSPost2010Prop51ColorRGB
 90
-16777216
102
RTVSPost2010PropOp51
 70
     0
102
RTVSPost2010Prop52
140
1.0
102
RTVSPost2010PropOp52
 70
     0
102
RTVSPost2010Prop53
 90
        2
102
RTVSPost2010PropOp53
 70
     1
102
RTVSPost2010Prop54
  1
strokes_ogs.tif
102
RTVSPost2010PropOp54
 70
     1
102
RTVSPost2010Prop55
280
     0
102
RTVSPost2010PropOp55
 70
     1
102
RTVSPost2010Prop56
140
1.0
102
RTVSPost2010PropOp56
 70
     1
102
RTVSPost2010Prop57
140
1.0
102
RTVSPost2010PropOp57
 70
     1
  0
XRECORD
  5
178
102
{ACAD_REACTORS
330
177
102
}
330
177
100
AcDbXrecord
280
     1
102
RTVSPost2010Prop28
280
     0
102
RTVSPost2010PropOp28
 70
     1
102
RTVSPost2010Prop29
280
     1
102
RTVSPost2010PropOp29
 70
     1
102
RTVSPost2010Prop30
280
     1
102
RTVSPost2010PropOp30
 70
     1
102
RTVSPost2010Prop31
280
     0
102
RTVSPost2010PropOp31
 70
     1
102
RTVSPost2010Prop32
280
     0
102
RTVSPost2010PropOp32
 70
     1
102
RTVSPost2010Prop33
280
     0
102
RTVSPost2010PropOp33
 70
     1
102
RTVSPost2010Prop34
280
     0
102
RTVSPost2010PropOp34
 70
     1
102
RTVSPost2010Prop35
280
     0
102
RTVSPost2010PropOp35
 70
     1
102
RTVSPost2010Prop36
280
     0
102
RTVSPost2010PropOp36
 70
     1
102
RTVSPost2010Prop37
 90
       50
102
RTVSPost2010PropOp37
 70
     1
102
RTVSPost2010Prop38
140
0.0
102
RTVSPost2010PropOp38
 70
     1
102
RTVSPost2010Prop39
140
1.0
102
RTVSPost2010PropOp39
 70
     1
102
RTVSPost2010Prop40
 90
        0
102
RTVSPost2010PropOp40
 70
     1
102
RTVSPost2010Prop41ColorIndex
 90
       18
102
RTVSPost2010Prop41ColorRGB
 90
        0
102
RTVSPost2010PropOp41
 70
     1
102
RTVSPost2010Prop42
 90
       50
102
RTVSPost2010PropOp42
 70
     1
102
RTVSPost2010Prop43
 90
        3
102
RTVSPost2010PropOp43
 70
     1
102
RTVSPost2010Prop44ColorIndex
 90
        5
102
RTVSPost2010Prop44ColorRGB
 90
      255
102
RTVSPost2010PropOp44
 70
     1
102
RTVSPost2010Prop45
280
     0
102
RTVSPost2010PropOp45
 70
     1
102
RTVSPost2010Prop46
 90
       50
102
RTVSPost2010PropOp46
 70
     1
102
RTVSPost2010Prop47
 90
       50
102
RTVSPost2010PropOp47
 70
     1
102
RTVSPost2010Prop48
 90
       50
102
RTVSPost2010PropOp48
 70
     1
102
RTVSPost2010Prop49
280
     0
102
RTVSPost2010PropOp49
 70
     1
102
RTVSPost2010Prop50
 90
       50
102
RTVSPost2010PropOp50
 70
     1
102
RTVSPost2010Prop51ColorIndex
 90
      256
102
RTVSPost2010Prop51ColorRGB
 90
-16777216
102
RTVSPost2010PropOp51
 70
     0
102
RTVSPost2010Prop52
140
1.0
102
RTVSPost2010PropOp52
 70
     0
102
RTVSPost2010Prop53
 90
        2
102
RTVSPost2010PropOp53
 70
     1
102
RTVSPost2010Prop54
  1
strokes_ogs.tif
102
RTVSPost2010PropOp54
 70
     1
102
RTVSPost2010Prop55
280
     0
102
RTVSPost2010PropOp55
 70
     1
102
RTVSPost2010Prop56
140
1.0
102
RTVSPost2010PropOp56
 70
     1
102
RTVSPost2010Prop57
140
1.0
102
RTVSPost2010PropOp57
 70
     1
  0
XRECORD
  5
190
102
{ACAD_REACTORS
330
18F
102
}
330
18F
100
AcDbXrecord
280
     1
102
RTVSPost2010Prop28
280
     0
102
RTVSPost2010PropOp28
 70
     1
102
RTVSPost2010Prop29
280
     1
102
RTVSPost2010PropOp29
 70
     1
102
RTVSPost2010Prop30
280
     1
102
RTVSPost2010PropOp30
 70
     1
102
RTVSPost2010Prop31
280
     0
102
RTVSPost2010PropOp31
 70
     1
102
RTVSPost2010Prop32
280
     0
102
RTVSPost2010PropOp32
 70
     1
102
RTVSPost2010Prop33
280
     0
102
RTVSPost2010PropOp33
 70
     1
102
RTVSPost2010Prop34
280
     0
102
RTVSPost2010PropOp34
 70
     1
102
RTVSPost2010Prop35
280
     0
102
RTVSPost2010PropOp35
 70
     1
102
RTVSPost2010Prop36
280
     0
102
RTVSPost2010PropOp36
 70
     1
102
RTVSPost2010Prop37
 90
       50
102
RTVSPost2010PropOp37
 70
     1
102
RTVSPost2010Prop38
140
0.0
102
RTVSPost2010PropOp38
 70
     1
102
RTVSPost2010Prop39
140
1.0
102
RTVSPost2010PropOp39
 70
     1
102
RTVSPost2010Prop40
 90
        0
102
RTVSPost2010PropOp40
 70
     1
102
RTVSPost2010Prop41ColorIndex
 90
       18
102
RTVSPost2010Prop41ColorRGB
 90
        0
102
RTVSPost2010PropOp41
 70
     1
102
RTVSPost2010Prop42
 90
       50
102
RTVSPost2010PropOp42
 70
     1
102
RTVSPost2010Prop43
 90
        3
102
RTVSPost2010PropOp43
 70
     1
102
RTVSPost2010Prop44ColorIndex
 90
        5
102
RTVSPost2010Prop44ColorRGB
 90
      255
102
RTVSPost2010PropOp44
 70
     1
102
RTVSPost2010Prop45
280
     0
102
RTVSPost2010PropOp45
 70
     1
102
RTVSPost2010Prop46
 90
       50
102
RTVSPost2010PropOp46
 70
     1
102
RTVSPost2010Prop47
 90
       50
102
RTVSPost2010PropOp47
 70
     1
102
RTVSPost2010Prop48
 90
       50
102
RTVSPost2010PropOp48
 70
     1
102
RTVSPost2010Prop49
280
     0
102
RTVSPost2010PropOp49
 70
     1
102
RTVSPost2010Prop50
 90
       50
102
RTVSPost2010PropOp50
 70
     1
102
RTVSPost2010Prop51ColorIndex
 90
      256
102
RTVSPost2010Prop51ColorRGB
 90
-16777216
102
RTVSPost2010PropOp51
 70
     0
102
RTVSPost2010Prop52
140
1.0
102
RTVSPost2010PropOp52
 70
     0
102
RTVSPost2010Prop53
 90
        2
102
RTVSPost2010PropOp53
 70
     1
102
RTVSPost2010Prop54
  1
strokes_ogs.tif
102
RTVSPost2010PropOp54
 70
     1
102
RTVSPost2010Prop55
280
     0
102
RTVSPost2010PropOp55
 70
     1
102
RTVSPost2010Prop56
140
1.0
102
RTVSPost2010PropOp56
 70
     1
102
RTVSPost2010Prop57
140
1.0
102
RTVSPost2010PropOp57
 70
     1
  0
ENDSEC
  0
EOF
