  0
SECTION
  2
HEADER
  9
$ACADVER
  1
AC1024
  9
$ACADMAINTVER
 70
     6
  9
$DWGCODEPAGE
  3
UNDEFINED
  9
$INSBASE
 10
0.0
 20
0.0
 30
0.0
  9
$EXTMIN
 10
1.000000000000000E+20
 20
1.000000000000000E+20
 30
1.000000000000000E+20
  9
$EXTMAX
 10
-1.000000000000000E+20
 20
-1.000000000000000E+20
 30
-1.000000000000000E+20
  9
$LIMMIN
 10
0.0
 20
0.0
  9
$LIMMAX
 10
12.0
 20
9.0
  9
$ORTHOMODE
 70
     0
  9
$REGENMODE
 70
     1
  9
$FILLMODE
 70
     1
  9
$QTEXTMODE
 70
     0
  9
$MIRRTEXT
 70
     1
  9
$LTSCALE
 40
1.0
  9
$ATTMODE
 70
     1
  9
$TEXTSIZE
 40
0.2
  9
$TRACEWID
 40
0.05
  9
$TEXTSTYLE
  7
Standard
  9
$CLAYER
  8
0
  9
$CELTYPE
  6
ByLayer
  9
$CECOLOR
 62
   256
  9
$CELTSCALE
 40
1.0
  9
$DISPSILH
 70
     0
  9
$DIMSCALE
 40
1.0
  9
$DIMASZ
 40
0.18
  9
$DIMEXO
 40
0.0625
  9
$DIMDLI
 40
0.38
  9
$DIMRND
 40
0.0
  9
$DIMDLE
 40
0.0
  9
$DIMEXE
 40
0.18
  9
$DIMTP
 40
0.0
  9
$DIMTM
 40
0.0
  9
$DIMTXT
 40
0.18
  9
$DIMCEN
 40
0.09
  9
$DIMTSZ
 40
0.0
  9
$DIMTOL
 70
     0
  9
$DIMLIM
 70
     0
  9
$DIMTIH
 70
     1
  9
$DIMTOH
 70
     1
  9
$DIMSE1
 70
     0
  9
$DIMSE2
 70
     0
  9
$DIMTAD
 70
     0
  9
$DIMZIN
 70
     0
  9
$DIMBLK
  1

  9
$DIMASO
 70
     1
  9
$DIMSHO
 70
     1
  9
$DIMPOST
  1

  9
$DIMAPOST
  1

  9
$DIMALT
 70
     0
  9
$DIMALTD
 70
     2
  9
$DIMALTF
 40
25.4
  9
$DIMLFAC
 40
1.0
  9
$DIMTOFL
 70
     0
  9
$DIMTVP
 40
0.0
  9
$DIMTIX
 70
     0
  9
$DIMSOXD
 70
     0
  9
$DIMSAH
 70
     0
  9
$DIMBLK1
  1

  9
$DIMBLK2
  1

  9
$DIMSTYLE
  2
Standard
  9
$DIMCLRD
 70
     0
  9
$DIMCLRE
 70
     0
  9
$DIMCLRT
 70
     0
  9
$DIMTFAC
 40
1.0
  9
$DIMGAP
 40
0.09
  9
$DIMJUST
 70
     0
  9
$DIMSD1
 70
     0
  9
$DIMSD2
 70
     0
  9
$DIMTOLJ
 70
     1
  9
$DIMTZIN
 70
     0
  9
$DIMALTZ
 70
     0
  9
$DIMALTTZ
 70
     0
  9
$DIMUPT
 70
     0
  9
$DIMDEC
 70
     4
  9
$DIMTDEC
 70
     4
  9
$DIMALTU
 70
     2
  9
$DIMALTTD
 70
     2
  9
$DIMTXSTY
  7
Standard
  9
$DIMAUNIT
 70
     0
  9
$DIMADEC
 70
     0
  9
$DIMALTRND
 40
0.0
  9
$DIMAZIN
 70
     0
  9
$DIMDSEP
 70
    46
  9
$DIMATFIT
 70
     3
  9
$DIMFRAC
 70
     0
  9
$DIMLDRBLK
  1

  9
$DIMLUNIT
 70
     2
  9
$DIMLWD
 70
    -2
  9
$DIMLWE
 70
    -2
  9
$DIMTMOVE
 70
     0
  9
$DIMFXL
 40
1.0
  9
$DIMFXLON
 70
     0
  9
$DIMJOGANG
 40
0.7853981633974483
  9
$DIMTFILL
 70
     0
  9
$DIMTFILLCLR
 70
     0
  9
$DIMARCSYM
 70
     0
  9
$DIMLTYPE
  6

  9
$DIMLTEX1
  6

  9
$DIMLTEX2
  6

  9
$DIMTXTDIRECTION
 70
     0
  9
$LUNITS
 70
     2
  9
$LUPREC
 70
     4
  9
$SKETCHINC
 40
0.1
  9
$FILLETRAD
 40
0.5
  9
$AUNITS
 70
     0
  9
$AUPREC
 70
     0
  9
$MENU
  1
.
  9
$ELEVATION
 40
0.0
  9
$PELEVATION
 40
0.0
  9
$THICKNESS
 40
0.0
  9
$LIMCHECK
 70
     0
  9
$CHAMFERA
 40
0.5
  9
$CHAMFERB
 40
0.5
  9
$CHAMFERC
 40
1.0
  9
$CHAMFERD
 40
0.0
  9
$SKPOLY
 70
     0
  9
$TDCREATE
 40
2457917.59587963
  9
$TDUCREATE
 40
2457917.22087963
  9
$TDUPDATE
 40
2457917.59587963
  9
$TDUUPDATE
 40
2457917.22087963
  9
$TDINDWG
 40
0.0000000116
  9
$TDUSRTIMER
 40
0.0000000116
  9
$USRTIMER
 70
     1
  9
$ANGBASE
 50
0.0
  9
$ANGDIR
 70
     0
  9
$PDMODE
 70
     0
  9
$PDSIZE
 40
0.0
  9
$PLINEWID
 40
0.0
  9
$SPLFRAME
 70
     0
  9
$SPLINETYPE
 70
     6
  9
$SPLINESEGS
 70
     8
  9
$HANDSEED
  5
AB
  9
$SURFTAB1
 70
     6
  9
$SURFTAB2
 70
     6
  9
$SURFTYPE
 70
     6
  9
$SURFU
 70
     6
  9
$SURFV
 70
     6
  9
$UCSBASE
  2

  9
$UCSNAME
  2

  9
$UCSORG
 10
0.0
 20
0.0
 30
0.0
  9
$UCSXDIR
 10
1.0
 20
0.0
 30
0.0
  9
$UCSYDIR
 10
0.0
 20
1.0
 30
0.0
  9
$UCSORTHOREF
  2

  9
$UCSORTHOVIEW
 70
     0
  9
$UCSORGTOP
 10
0.0
 20
0.0
 30
0.0
  9
$UCSORGBOTTOM
 10
0.0
 20
0.0
 30
0.0
  9
$UCSORGLEFT
 10
0.0
 20
0.0
 30
0.0
  9
$UCSORGRIGHT
 10
0.0
 20
0.0
 30
0.0
  9
$UCSORGFRONT
 10
0.0
 20
0.0
 30
0.0
  9
$UCSORGBACK
 10
0.0
 20
0.0
 30
0.0
  9
$PUCSBASE
  2

  9
$PUCSNAME
  2

  9
$PUCSORG
 10
0.0
 20
0.0
 30
0.0
  9
$PUCSXDIR
 10
1.0
 20
0.0
 30
0.0
  9
$PUCSYDIR
 10
0.0
 20
1.0
 30
0.0
  9
$PUCSORTHOREF
  2

  9
$PUCSORTHOVIEW
 70
     0
  9
$PUCSORGTOP
 10
0.0
 20
0.0
 30
0.0
  9
$PUCSORGBOTTOM
 10
0.0
 20
0.0
 30
0.0
  9
$PUCSORGLEFT
 10
0.0
 20
0.0
 30
0.0
  9
$PUCSORGRIGHT
 10
0.0
 20
0.0
 30
0.0
  9
$PUCSORGFRONT
 10
0.0
 20
0.0
 30
0.0
  9
$PUCSORGBACK
 10
0.0
 20
0.0
 30
0.0
  9
$USERI1
 70
     0
  9
$USERI2
 70
     0
  9
$USERI3
 70
     0
  9
$USERI4
 70
     0
  9
$USERI5
 70
     0
  9
$USERR1
 40
0.0
  9
$USERR2
 40
0.0
  9
$USERR3
 40
0.0
  9
$USERR4
 40
0.0
  9
$USERR5
 40
0.0
  9
$WORLDVIEW
 70
     1
  9
$SHADEDGE
 70
     3
  9
$SHADEDIF
 70
    70
  9
$TILEMODE
 70
     1
  9
$MAXACTVP
 70
    64
  9
$PINSBASE
 10
0.0
 20
0.0
 30
0.0
  9
$PLIMCHECK
 70
     0
  9
$PEXTMIN
 10
1.000000000000000E+20
 20
1.000000000000000E+20
 30
1.000000000000000E+20
  9
$PEXTMAX
 10
-1.000000000000000E+20
 20
-1.000000000000000E+20
 30
-1.000000000000000E+20
  9
$PLIMMIN
 10
0.0
 20
0.0
  9
$PLIMMAX
 10
12.0
 20
9.0
  9
$UNITMODE
 70
     0
  9
$VISRETAIN
 70
     1
  9
$PLINEGEN
 70
     0
  9
$PSLTSCALE
 70
     1
  9
$TREEDEPTH
 70
  3020
  9
$CMLSTYLE
  2
Standard
  9
$CMLJUST
 70
     0
  9
$CMLSCALE
 40
1.0
  9
$PROXYGRAPHICS
 70
     1
  9
$MEASUREMENT
 70
     0
  9
$CELWEIGHT
370
    -1
  9
$ENDCAPS
280
     0
  9
$JOINSTYLE
280
     0
  9
$LWDISPLAY
290
     1
  9
$INSUNITS
 70
     1
  9
$HYPERLINKBASE
  1

  9
$STYLESHEET
  1

  9
$XEDIT
290
     1
  9
$CEPSNTYPE
380
     0
  9
$PSTYLEMODE
290
     1
  9
$FINGERPRINTGUID
  2
{4ACEF6F3-E964-6D3D-FBB5-93E9B606D1A0}
  9
$VERSIONGUID
  2
{FAEB1C32-E019-11D5-929B-00C0DF256EC4}
  9
$EXTNAMES
290
     1
  9
$PSVPSCALE
 40
0.0
  9
$OLESTARTUP
290
     0
  9
$SORTENTS
280
   127
  9
$INDEXCTL
280
     0
  9
$HIDETEXT
280
     1
  9
$XCLIPFRAME
280
     2
  9
$HALOGAP
280
     0
  9
$OBSCOLOR
 70
   257
  9
$OBSLTYPE
280
     0
  9
$INTERSECTIONDISPLAY
280
     0
  9
$INTERSECTIONCOLOR
 70
   257
  9
$DIMASSOC
280
     2
  9
$PROJECTNAME
  1

  9
$CAMERADISPLAY
290
     0
  9
$LENSLENGTH
 40
50.0
  9
$CAMERAHEIGHT
 40
0.0
  9
$STEPSPERSEC
 40
2.0
  9
$STEPSIZE
 40
6.0
  9
$3DDWFPREC
 40
2.0
  9
$PSOLWIDTH
 40
0.25
  9
$PSOLHEIGHT
 40
4.0
  9
$LOFTANG1
 40
1.570796326794897
  9
$LOFTANG2
 40
1.570796326794897
  9
$LOFTMAG1
 40
0.0
  9
$LOFTMAG2
 40
0.0
  9
$LOFTPARAM
 70
     7
  9
$LOFTNORMALS
280
     1
  9
$LATITUDE
 40
37.795
  9
$LONGITUDE
 40
-122.394
  9
$NORTHDIRECTION
 40
0.0
  9
$TIMEZONE
 70
 -8000
  9
$LIGHTGLYPHDISPLAY
280
     1
  9
$TILEMODELIGHTSYNCH
280
     1
  9
$CMATERIAL
347
3C
  9
$SOLIDHIST
280
     1
  9
$SHOWHIST
280
     1
  9
$DWFFRAME
280
     2
  9
$DGNFRAME
280
     2
  9
$REALWORLDSCALE
290
     1
  9
$INTERFERECOLOR
 62
   256
  9
$CSHADOW
280
     0
  9
$SHADOWPLANELOCATION
 40
0.0
  0
ENDSEC
  0
SECTION
  2
CLASSES
  0
CLASS
  1
ACDBDICTIONARYWDFLT
  2
AcDbDictionaryWithDefault
  3
ObjectDBX Classes
 90
        0
 91
        4
280
     0
281
     0
  0
CLASS
  1
VISUALSTYLE
  2
AcDbVisualStyle
  3
ObjectDBX Classes
 90
     4095
 91
        4
280
     0
281
     0
  0
CLASS
  1
MATERIAL
  2
AcDbMaterial
  3
ObjectDBX Classes
 90
     1153
 91
        4
280
     0
281
     0
  0
CLASS
  1
SUN
  2
AcDbSun
  3
SCENEOE
 90
     1024
 91
        4
280
     0
281
     0
  0
ENDSEC
  0
SECTION
  2
TABLES
  0
TABLE
  2
VPORT
  5
8
330
0
100
AcDbSymbolTable
 70
     1
  0
VPORT
  5
29
330
8
100
AcDbSymbolTableRecord
100
AcDbViewportTableRecord
  2
*Active
 70
     0
 10
0.0
 20
0.0
 11
1.0
 21
1.0
 12
0.0
 22
0.0
 13
0.0
 23
0.0
 14
0.5
 24
0.5
 15
0.5
 25
0.5
 16
0.0
 26
0.0
 36
1.0
 17
91.00082462281999
 27
-128.4993055234307
 37
0.0
 40
256.9986110468615
 41
0.7081814508812795
 42
50.0
 43
0.0
 44
0.0
 50
0.0
 51
0.0
 71
     0
 72
   100
 73
     1
 74
     3
 75
     0
 76
     0
 77
     0
 78
     0
281
     0
 65
     1
110
0.0
120
0.0
130
0.0
111
1.0
121
0.0
131
0.0
112
0.0
122
1.0
132
0.0
 79
     0
146
0.0
 60
     3
 61
     5
292
     1
282
     1
141
0.0
142
0.0
 63
   250
361
3F
  0
ENDTAB
  0
TABLE
  2
LTYPE
  5
5
330
0
100
AcDbSymbolTable
 70
     1
  0
LTYPE
  5
14
330
5
100
AcDbSymbolTableRecord
100
AcDbLinetypeTableRecord
  2
ByBlock
 70
     0
  3

 72
    65
 73
     0
 40
0.0
  0
LTYPE
  5
15
330
5
100
AcDbSymbolTableRecord
100
AcDbLinetypeTableRecord
  2
ByLayer
 70
     0
  3

 72
    65
 73
     0
 40
0.0
  0
LTYPE
  5
16
330
5
100
AcDbSymbolTableRecord
100
AcDbLinetypeTableRecord
  2
Continuous
 70
     0
  3
Solid line
 72
    65
 73
     0
 40
0.0
  0
ENDTAB
  0
TABLE
  2
LAYER
  5
2
330
0
100
AcDbSymbolTable
 70
     2
  0
LAYER
  5
10
330
2
100
AcDbSymbolTableRecord
100
AcDbLayerTableRecord
  2
0
 70
     0
 62
     7
  6
Continuous
370
    -3
390
F
347
3E
  0
LAYER
  5
40
330
2
100
AcDbSymbolTableRecord
100
AcDbLayerTableRecord
  2
_U+30EC_U+30A4_U+30E4_U+30FC 1
 70
     0
 62
     7
  6
Continuous
370
    -3
390
F
347
3E
  0
ENDTAB
  0
TABLE
  2
STYLE
  5
3
330
0
100
AcDbSymbolTable
 70
     1
  0
STYLE
  5
11
330
3
100
AcDbSymbolTableRecord
100
AcDbTextStyleTableRecord
  2
Standard
 70
     0
 40
0.0
 41
1.0
 50
0.0
 71
     0
 42
0.2
  3
txt
  4

  0
ENDTAB
  0
TABLE
  2
VIEW
  5
6
330
0
100
AcDbSymbolTable
 70
     0
  0
ENDTAB
  0
TABLE
  2
UCS
  5
7
330
0
100
AcDbSymbolTable
 70
     0
  0
ENDTAB
  0
TABLE
  2
APPID
  5
9
330
0
100
AcDbSymbolTable
 70
     1
  0
APPID
  5
12
330
9
100
AcDbSymbolTableRecord
100
AcDbRegAppTableRecord
  2
ACAD
 70
     0
  0
ENDTAB
  0
TABLE
  2
DIMSTYLE
  5
A
330
0
100
AcDbSymbolTable
 70
     1
100
AcDbDimStyleTable
  0
DIMSTYLE
105
27
330
A
100
AcDbSymbolTableRecord
100
AcDbDimStyleTableRecord
  2
Standard
 70
     0
178
     0
340
11
  0
ENDTAB
  0
TABLE
  2
BLOCK_RECORD
  5
1
330
0
100
AcDbSymbolTable
 70
     4
  0
BLOCK_RECORD
  5
1F
330
1
100
AcDbSymbolTableRecord
100
AcDbBlockTableRecord
  2
*Model_Space
340
22
 70
     0
280
     1
281
     0
  0
BLOCK_RECORD
  5
1B
330
1
100
AcDbSymbolTableRecord
100
AcDbBlockTableRecord
  2
*Paper_Space
340
1E
 70
     0
280
     1
281
     0
  0
BLOCK_RECORD
  5
23
330
1
100
AcDbSymbolTableRecord
100
AcDbBlockTableRecord
  2
*Paper_Space0
340
26
 70
     0
280
     1
281
     0
  0
BLOCK_RECORD
  5
6F
330
1
100
AcDbSymbolTableRecord
100
AcDbBlockTableRecord
  2
block 2
340
0
102
{BLKREFS
331
70
102
}
 70
     0
280
     1
281
     0
  0
BLOCK_RECORD
  5
8B
330
1
100
AcDbSymbolTableRecord
100
AcDbBlockTableRecord
  2
block 3
340
0
102
{BLKREFS
331
8C
102
}
 70
     0
280
     1
281
     0
  0
BLOCK_RECORD
  5
A0
330
1
100
AcDbSymbolTableRecord
100
AcDbBlockTableRecord
  2
block 4
340
0
102
{BLKREFS
331
A1
102
}
 70
     0
280
     1
281
     0
  0
ENDTAB
  0
ENDSEC
  0
SECTION
  2
BLOCKS
  0
BLOCK
  5
20
330
1F
100
AcDbEntity
  8
0
100
AcDbBlockBegin
  2
*Model_Space
 70
     0
 10
0.0
 20
0.0
 30
0.0
  3
*Model_Space
  1

  0
ENDBLK
  5
21
330
1F
100
AcDbEntity
  8
0
100
AcDbBlockEnd
  0
BLOCK
  5
1C
330
1B
100
AcDbEntity
 67
     1
  8
0
100
AcDbBlockBegin
  2
*Paper_Space
 70
     0
 10
0.0
 20
0.0
 30
0.0
  3
*Paper_Space
  1

  0
ENDBLK
  5
1D
330
1B
100
AcDbEntity
 67
     1
  8
0
100
AcDbBlockEnd
  0
BLOCK
  5
24
330
23
100
AcDbEntity
  8
0
100
AcDbBlockBegin
  2
*Paper_Space0
 70
     0
 10
0.0
 20
0.0
 30
0.0
  3
*Paper_Space0
  1

  0
ENDBLK
  5
25
330
23
100
AcDbEntity
  8
0
100
AcDbBlockEnd
  0
BLOCK
  5
71
330
6F
100
AcDbEntity
  8
0
100
AcDbBlockBegin
  2
block 2
 70
     0
 10
0.0
 20
0.0
 30
0.0
  3
block 2
  1

  0
SPLINE
  5
73
330
6F
100
AcDbEntity
  8
_U+30EC_U+30A4_U+30E4_U+30FC 1
370
     0
100
AcDbSpline
210
0.0
220
0.0
230
1.0
 70
    11
 71
     3
 72
    26
 73
    22
 74
     0
 42
0.0000000001
 43
0.0000000001
 12
1.0
 22
0.0
 32
0.0
 13
1.0
 23
0.0
 33
0.0
 40
0.0
 40
0.0
 40
0.0
 40
0.0
 40
1.0
 40
1.0
 40
1.0
 40
2.0
 40
2.0
 40
2.0
 40
3.0
 40
3.0
 40
3.0
 40
4.0
 40
4.0
 40
4.0
 40
5.0
 40
5.0
 40
5.0
 40
6.0
 40
6.0
 40
6.0
 40
7.0
 40
7.0
 40
7.0
 40
7.0
 10
110.2213514264377
 20
-127.4606092346279
 30
0.0
 10
110.2213514264377
 20
-127.4606092346279
 30
0.0
 10
109.1171983234152
 20
-127.4606092346279
 30
0.0
 10
109.1171983234152
 20
-127.4606092346279
 30
0.0
 10
109.1171983234152
 20
-127.4606092346279
 30
0.0
 10
109.1171983234152
 20
-127.7462076503551
 30
0.0
 10
109.1171983234152
 20
-127.7462076503551
 30
0.0
 10
109.1171983234152
 20
-127.7462076503551
 30
0.0
 10
108.9690592175494
 20
-127.7462076503551
 30
0.0
 10
108.9690592175494
 20
-127.7462076503551
 30
0.0
 10
108.9542453069628
 20
-127.4588866868853
 30
0.0
 10
108.7912922905105
 20
-127.4185790697079
 30
0.0
 10
108.6769151204002
 20
-127.393085363117
 30
0.0
 10
108.6769151204002
 20
-127.393085363117
 30
0.0
 10
108.6769151204002
 20
-127.2666503588083
 30
0.0
 10
108.6769151204002
 20
-127.2666503588083
 30
0.0
 10
108.6769151204002
 20
-127.2666503588083
 30
0.0
 10
110.2213514264377
 20
-127.2666503588083
 30
0.0
 10
110.2213514264377
 20
-127.2666503588083
 30
0.0
 10
110.2213514264377
 20
-127.2666503588083
 30
0.0
 10
110.2213514264377
 20
-127.4606092346279
 30
0.0
 10
110.2213514264377
 20
-127.4606092346279
 30
0.0
  0
HATCH
  5
74
330
6F
100
AcDbEntity
  8
_U+30EC_U+30A4_U+30E4_U+30FC 1
 62
   179
420
  2234388
100
AcDbHatch
 10
0.0
 20
0.0
 30
0.0
210
0.0
220
0.0
230
1.0
  2
SOLID
 70
     1
 71
     0
 91
        1
 92
        1
 93
        1
 72
     4
 94
        3
 73
     0
 74
     1
 95
       26
 96
       22
 40
0.0
 40
0.0
 40
0.0
 40
0.0
 40
1.0
 40
1.0
 40
1.0
 40
2.0
 40
2.0
 40
2.0
 40
3.0
 40
3.0
 40
3.0
 40
4.0
 40
4.0
 40
4.0
 40
5.0
 40
5.0
 40
5.0
 40
6.0
 40
6.0
 40
6.0
 40
7.0
 40
7.0
 40
7.0
 40
7.0
 10
110.2213514264377
 20
-127.4606092346279
 10
110.2213514264377
 20
-127.4606092346279
 10
109.1171983234152
 20
-127.4606092346279
 10
109.1171983234152
 20
-127.4606092346279
 10
109.1171983234152
 20
-127.4606092346279
 10
109.1171983234152
 20
-127.7462076503551
 10
109.1171983234152
 20
-127.7462076503551
 10
109.1171983234152
 20
-127.7462076503551
 10
108.9690592175494
 20
-127.7462076503551
 10
108.9690592175494
 20
-127.7462076503551
 10
108.9542453069628
 20
-127.4588866868853
 10
108.7912922905105
 20
-127.4185790697079
 10
108.6769151204002
 20
-127.393085363117
 10
108.6769151204002
 20
-127.393085363117
 10
108.6769151204002
 20
-127.2666503588083
 10
108.6769151204002
 20
-127.2666503588083
 10
108.6769151204002
 20
-127.2666503588083
 10
110.2213514264377
 20
-127.2666503588083
 10
110.2213514264377
 20
-127.2666503588083
 10
110.2213514264377
 20
-127.2666503588083
 10
110.2213514264377
 20
-127.4606092346279
 10
110.2213514264377
 20
-127.4606092346279
 97
        0
 97
        0
 75
     2
 76
     1
 98
        0
  0
POLYLINE
  5
75
330
6F
100
AcDbEntity
  8
_U+30EC_U+30A4_U+30E4_U+30FC 1
370
     0
100
AcDb2dPolyline
 66
     1
 10
0.0
 20
0.0
 30
0.0
  0
VERTEX
  5
76
330
75
100
AcDbEntity
  8
_U+30EC_U+30A4_U+30E4_U+30FC 1
370
     0
100
AcDbVertex
100
AcDb2dVertex
 10
110.2213514264377
 20
-126.7819254240337
 30
0.0
  0
VERTEX
  5
77
330
75
100
AcDbEntity
  8
_U+30EC_U+30A4_U+30E4_U+30FC 1
370
     0
100
AcDbVertex
100
AcDb2dVertex
 10
109.969514946466
 20
-126.7819254240337
 30
0.0
  0
VERTEX
  5
78
330
75
100
AcDbEntity
  8
_U+30EC_U+30A4_U+30E4_U+30FC 1
370
     0
100
AcDbVertex
100
AcDb2dVertex
 10
109.969514946466
 20
-126.5641953893659
 30
0.0
  0
VERTEX
  5
79
330
75
100
AcDbEntity
  8
_U+30EC_U+30A4_U+30E4_U+30FC 1
370
     0
100
AcDbVertex
100
AcDb2dVertex
 10
110.2213514264377
 20
-126.5641953893659
 30
0.0
  0
VERTEX
  5
7A
330
75
100
AcDbEntity
  8
_U+30EC_U+30A4_U+30E4_U+30FC 1
370
     0
100
AcDbVertex
100
AcDb2dVertex
 10
110.2213514264377
 20
-126.7819254240337
 30
0.0
  0
SEQEND
  5
7B
330
75
100
AcDbEntity
  8
_U+30EC_U+30A4_U+30E4_U+30FC 1
370
     0
  0
HATCH
  5
7C
330
6F
100
AcDbEntity
  8
_U+30EC_U+30A4_U+30E4_U+30FC 1
 62
   179
420
  2234388
100
AcDbHatch
 10
0.0
 20
0.0
 30
0.0
210
0.0
220
0.0
230
1.0
  2
SOLID
 70
     1
 71
     0
 91
        1
 92
        1
 93
        4
 72
     1
 10
110.2213514264377
 20
-126.7819254240337
 11
109.969514946466
 21
-126.7819254240337
 72
     1
 10
109.969514946466
 20
-126.7819254240337
 11
109.969514946466
 21
-126.5641953893659
 72
     1
 10
109.969514946466
 20
-126.5641953893659
 11
110.2213514264377
 21
-126.5641953893659
 72
     1
 10
110.2213514264377
 20
-126.5641953893659
 11
110.2213514264377
 21
-126.7819254240337
 97
        0
 75
     2
 76
     1
 98
        0
  0
SPLINE
  5
7D
330
6F
100
AcDbEntity
  8
_U+30EC_U+30A4_U+30E4_U+30FC 1
370
     0
100
AcDbSpline
210
0.0
220
0.0
230
1.0
 70
    11
 71
     3
 72
    53
 73
    49
 74
     0
 42
0.0000000001
 43
0.0000000001
 12
1.0
 22
0.0
 32
0.0
 13
1.0
 23
0.0
 33
0.0
 40
0.0
 40
0.0
 40
0.0
 40
0.0
 40
1.0
 40
1.0
 40
1.0
 40
2.0
 40
2.0
 40
2.0
 40
3.0
 40
3.0
 40
3.0
 40
4.0
 40
4.0
 40
4.0
 40
5.0
 40
5.0
 40
5.0
 40
6.0
 40
6.0
 40
6.0
 40
7.0
 40
7.0
 40
7.0
 40
8.0
 40
8.0
 40
8.0
 40
9.0
 40
9.0
 40
9.0
 40
10.0
 40
10.0
 40
10.0
 40
11.0
 40
11.0
 40
11.0
 40
12.0
 40
12.0
 40
12.0
 40
13.0
 40
13.0
 40
13.0
 40
14.0
 40
14.0
 40
14.0
 40
15.0
 40
15.0
 40
15.0
 40
16.0
 40
16.0
 40
16.0
 40
16.0
 10
110.2719943300709
 20
-125.9440782020209
 30
0.0
 10
110.2719943300709
 20
-126.0119465830804
 30
0.0
 10
110.2551133621932
 20
-126.0994520084057
 30
0.0
 10
110.1917236052646
 20
-126.1876464528281
 30
0.0
 10
110.0818250592851
 20
-126.3375081064365
 30
0.0
 10
109.9505669212971
 20
-126.3557671125083
 30
0.0
 10
109.8427354326088
 20
-126.3723035708375
 30
0.0
 10
109.8427354326088
 20
-126.3723035708375
 30
0.0
 10
109.8427354326088
 20
-126.1800672427605
 30
0.0
 10
109.8427354326088
 20
-126.1800672427605
 30
0.0
 10
110.0415174421077
 20
-126.1325249250641
 30
0.0
 10
110.0711452632808
 20
-126.0226263790846
 30
0.0
 10
110.0711452632808
 20
-125.9423556542783
 30
0.0
 10
110.0711452632808
 20
-125.821432802746
 30
0.0
 10
109.9715820037571
 20
-125.689485645661
 30
0.0
 10
109.7390380585027
 20
-125.689485645661
 30
0.0
 10
109.4830674639487
 20
-125.689485645661
 30
0.0
 10
109.4131320255981
 20
-125.8452039615943
 30
0.0
 10
109.4131320255981
 20
-125.9495903547973
 30
0.0
 10
109.4131320255981
 20
-125.9771511186793
 30
0.0
 10
109.4131320255981
 20
-126.0994520084057
 30
0.0
 10
109.542323106295
 20
-126.1766221472753
 30
0.0
 10
109.542323106295
 20
-126.1766221472753
 30
0.0
 10
109.5233750811261
 20
-126.3285508581748
 30
0.0
 10
109.5233750811261
 20
-126.3285508581748
 30
0.0
 10
109.5233750811261
 20
-126.3285508581748
 30
0.0
 10
108.6769151204002
 20
-126.2241644649717
 30
0.0
 10
108.6769151204002
 20
-126.2241644649717
 30
0.0
 10
108.6769151204002
 20
-126.2241644649717
 30
0.0
 10
108.6769151204002
 20
-125.5506482976054
 30
0.0
 10
108.6769151204002
 20
-125.5506482976054
 30
0.0
 10
108.6769151204002
 20
-125.5506482976054
 30
0.0
 10
108.8715630153168
 20
-125.5506482976054
 30
0.0
 10
108.8715630153168
 20
-125.5506482976054
 30
0.0
 10
108.8715630153168
 20
-125.5506482976054
 30
0.0
 10
108.8715630153168
 20
-126.083260059625
 30
0.0
 10
108.8715630153168
 20
-126.083260059625
 30
0.0
 10
108.8715630153168
 20
-126.083260059625
 30
0.0
 10
109.2946207409055
 20
-126.1397596255831
 30
0.0
 10
109.2946207409055
 20
-126.1397596255831
 30
0.0
 10
109.2608588051501
 20
-126.0867051551103
 30
0.0
 10
109.2205511879726
 20
-126.0153916785656
 30
0.0
 10
109.2205511879726
 20
-125.9130723426537
 30
0.0
 10
109.2205511879726
 20
-125.6932752506947
 30
0.0
 10
109.4069308537247
 20
-125.4882920693224
 30
0.0
 10
109.7200900333339
 20
-125.4882920693224
 30
0.0
 10
110.0373833275254
 20
-125.4882920693224
 30
0.0
 10
110.2719943300709
 20
-125.6822509451419
 30
0.0
 10
110.2719943300709
 20
-125.9440782020209
 30
0.0
  0
HATCH
  5
7E
330
6F
100
AcDbEntity
  8
_U+30EC_U+30A4_U+30E4_U+30FC 1
 62
   179
420
  2234388
100
AcDbHatch
 10
0.0
 20
0.0
 30
0.0
210
0.0
220
0.0
230
1.0
  2
SOLID
 70
     1
 71
     0
 91
        1
 92
        1
 93
        1
 72
     4
 94
        3
 73
     0
 74
     1
 95
       53
 96
       49
 40
0.0
 40
0.0
 40
0.0
 40
0.0
 40
1.0
 40
1.0
 40
1.0
 40
2.0
 40
2.0
 40
2.0
 40
3.0
 40
3.0
 40
3.0
 40
4.0
 40
4.0
 40
4.0
 40
5.0
 40
5.0
 40
5.0
 40
6.0
 40
6.0
 40
6.0
 40
7.0
 40
7.0
 40
7.0
 40
8.0
 40
8.0
 40
8.0
 40
9.0
 40
9.0
 40
9.0
 40
10.0
 40
10.0
 40
10.0
 40
11.0
 40
11.0
 40
11.0
 40
12.0
 40
12.0
 40
12.0
 40
13.0
 40
13.0
 40
13.0
 40
14.0
 40
14.0
 40
14.0
 40
15.0
 40
15.0
 40
15.0
 40
16.0
 40
16.0
 40
16.0
 40
16.0
 10
110.2719943300709
 20
-125.9440782020209
 10
110.2719943300709
 20
-126.0119465830804
 10
110.2551133621932
 20
-126.0994520084057
 10
110.1917236052646
 20
-126.1876464528281
 10
110.0818250592851
 20
-126.3375081064365
 10
109.9505669212971
 20
-126.3557671125083
 10
109.8427354326088
 20
-126.3723035708375
 10
109.8427354326088
 20
-126.3723035708375
 10
109.8427354326088
 20
-126.1800672427605
 10
109.8427354326088
 20
-126.1800672427605
 10
110.0415174421077
 20
-126.1325249250641
 10
110.0711452632808
 20
-126.0226263790846
 10
110.0711452632808
 20
-125.9423556542783
 10
110.0711452632808
 20
-125.821432802746
 10
109.9715820037571
 20
-125.689485645661
 10
109.7390380585027
 20
-125.689485645661
 10
109.4830674639487
 20
-125.689485645661
 10
109.4131320255981
 20
-125.8452039615943
 10
109.4131320255981
 20
-125.9495903547973
 10
109.4131320255981
 20
-125.9771511186793
 10
109.4131320255981
 20
-126.0994520084057
 10
109.542323106295
 20
-126.1766221472753
 10
109.542323106295
 20
-126.1766221472753
 10
109.5233750811261
 20
-126.3285508581748
 10
109.5233750811261
 20
-126.3285508581748
 10
109.5233750811261
 20
-126.3285508581748
 10
108.6769151204002
 20
-126.2241644649717
 10
108.6769151204002
 20
-126.2241644649717
 10
108.6769151204002
 20
-126.2241644649717
 10
108.6769151204002
 20
-125.5506482976054
 10
108.6769151204002
 20
-125.5506482976054
 10
108.6769151204002
 20
-125.5506482976054
 10
108.8715630153168
 20
-125.5506482976054
 10
108.8715630153168
 20
-125.5506482976054
 10
108.8715630153168
 20
-125.5506482976054
 10
108.8715630153168
 20
-126.083260059625
 10
108.8715630153168
 20
-126.083260059625
 10
108.8715630153168
 20
-126.083260059625
 10
109.2946207409055
 20
-126.1397596255831
 10
109.2946207409055
 20
-126.1397596255831
 10
109.2608588051501
 20
-126.0867051551103
 10
109.2205511879726
 20
-126.0153916785656
 10
109.2205511879726
 20
-125.9130723426537
 10
109.2205511879726
 20
-125.6932752506947
 10
109.4069308537247
 20
-125.4882920693224
 10
109.7200900333339
 20
-125.4882920693224
 10
110.0373833275254
 20
-125.4882920693224
 10
110.2719943300709
 20
-125.6822509451419
 10
110.2719943300709
 20
-125.9440782020209
 97
        0
 97
        0
 75
     2
 76
     1
 98
        0
  0
ENDBLK
  5
72
330
6F
100
AcDbEntity
  8
0
100
AcDbBlockEnd
  0
BLOCK
  5
8D
330
8B
100
AcDbEntity
  8
0
100
AcDbBlockBegin
  2
block 3
 70
     0
 10
0.0
 20
0.0
 30
0.0
  3
block 3
  1

  0
SPLINE
  5
8F
330
8B
100
AcDbEntity
  8
_U+30EC_U+30A4_U+30E4_U+30FC 1
370
     0
100
AcDbSpline
210
0.0
220
0.0
230
1.0
 70
    11
 71
     3
 72
    26
 73
    22
 74
     0
 42
0.0000000001
 43
0.0000000001
 12
1.0
 22
0.0
 32
0.0
 13
1.0
 23
0.0
 33
0.0
 40
0.0
 40
0.0
 40
0.0
 40
0.0
 40
1.0
 40
1.0
 40
1.0
 40
2.0
 40
2.0
 40
2.0
 40
3.0
 40
3.0
 40
3.0
 40
4.0
 40
4.0
 40
4.0
 40
5.0
 40
5.0
 40
5.0
 40
6.0
 40
6.0
 40
6.0
 40
7.0
 40
7.0
 40
7.0
 40
7.0
 10
72.2210869502607
 20
-126.8101752070127
 30
0.0
 10
72.2210869502607
 20
-126.8101752070127
 30
0.0
 10
71.11676159246387
 20
-126.8101752070127
 30
0.0
 10
71.11676159246387
 20
-126.8101752070127
 30
0.0
 10
71.11676159246387
 20
-126.8101752070127
 30
0.0
 10
71.11676159246387
 20
-127.09577362274
 30
0.0
 10
71.11676159246387
 20
-127.09577362274
 30
0.0
 10
71.11676159246387
 20
-127.09577362274
 30
0.0
 10
70.96879474137239
 20
-127.09577362274
 30
0.0
 10
70.96879474137239
 20
-127.09577362274
 30
0.0
 10
70.95398083078581
 20
-126.8084526592701
 30
0.0
 10
70.79102781433349
 20
-126.7681450420927
 30
0.0
 10
70.67682289899746
 20
-126.7426513355018
 30
0.0
 10
70.67682289899746
 20
-126.7426513355018
 30
0.0
 10
70.67682289899746
 20
-126.6162163311932
 30
0.0
 10
70.67682289899746
 20
-126.6162163311932
 30
0.0
 10
70.67682289899746
 20
-126.6162163311932
 30
0.0
 10
72.2210869502607
 20
-126.6162163311932
 30
0.0
 10
72.2210869502607
 20
-126.6162163311932
 30
0.0
 10
72.2210869502607
 20
-126.6162163311932
 30
0.0
 10
72.2210869502607
 20
-126.8101752070127
 30
0.0
 10
72.2210869502607
 20
-126.8101752070127
 30
0.0
  0
HATCH
  5
90
330
8B
100
AcDbEntity
  8
_U+30EC_U+30A4_U+30E4_U+30FC 1
 62
   179
420
  2234388
100
AcDbHatch
 10
0.0
 20
0.0
 30
0.0
210
0.0
220
0.0
230
1.0
  2
SOLID
 70
     1
 71
     0
 91
        1
 92
        1
 93
        1
 72
     4
 94
        3
 73
     0
 74
     1
 95
       26
 96
       22
 40
0.0
 40
0.0
 40
0.0
 40
0.0
 40
1.0
 40
1.0
 40
1.0
 40
2.0
 40
2.0
 40
2.0
 40
3.0
 40
3.0
 40
3.0
 40
4.0
 40
4.0
 40
4.0
 40
5.0
 40
5.0
 40
5.0
 40
6.0
 40
6.0
 40
6.0
 40
7.0
 40
7.0
 40
7.0
 40
7.0
 10
72.2210869502607
 20
-126.8101752070127
 10
72.2210869502607
 20
-126.8101752070127
 10
71.11676159246387
 20
-126.8101752070127
 10
71.11676159246387
 20
-126.8101752070127
 10
71.11676159246387
 20
-126.8101752070127
 10
71.11676159246387
 20
-127.09577362274
 10
71.11676159246387
 20
-127.09577362274
 10
71.11676159246387
 20
-127.09577362274
 10
70.96879474137239
 20
-127.09577362274
 10
70.96879474137239
 20
-127.09577362274
 10
70.95398083078581
 20
-126.8084526592701
 10
70.79102781433349
 20
-126.7681450420927
 10
70.67682289899746
 20
-126.7426513355018
 10
70.67682289899746
 20
-126.7426513355018
 10
70.67682289899746
 20
-126.6162163311932
 10
70.67682289899746
 20
-126.6162163311932
 10
70.67682289899746
 20
-126.6162163311932
 10
72.2210869502607
 20
-126.6162163311932
 10
72.2210869502607
 20
-126.6162163311932
 10
72.2210869502607
 20
-126.6162163311932
 10
72.2210869502607
 20
-126.8101752070127
 10
72.2210869502607
 20
-126.8101752070127
 97
        0
 97
        0
 75
     2
 76
     1
 98
        0
  0
SPLINE
  5
91
330
8B
100
AcDbEntity
  8
_U+30EC_U+30A4_U+30E4_U+30FC 1
370
     0
100
AcDbSpline
210
0.0
220
0.0
230
1.0
 70
    11
 71
     3
 72
    29
 73
    25
 74
     0
 42
0.0000000001
 43
0.0000000001
 12
1.0
 22
0.0
 32
0.0
 13
1.0
 23
0.0
 33
0.0
 40
0.0
 40
0.0
 40
0.0
 40
0.0
 40
1.0
 40
1.0
 40
1.0
 40
2.0
 40
2.0
 40
2.0
 40
3.0
 40
3.0
 40
3.0
 40
4.0
 40
4.0
 40
4.0
 40
5.0
 40
5.0
 40
5.0
 40
6.0
 40
6.0
 40
6.0
 40
7.0
 40
7.0
 40
7.0
 40
8.0
 40
8.0
 40
8.0
 40
8.0
 10
72.04332002322181
 20
-125.406643306322
 30
0.0
 10
72.252781828725
 20
-125.5000053939722
 30
0.0
 10
72.27190210866814
 20
-125.6502115571291
 30
0.0
 10
72.27190210866814
 20
-125.7508083452984
 30
0.0
 10
72.27190210866814
 20
-125.8899902029025
 30
0.0
 10
72.22539331961727
 20
-126.0126356021774
 30
0.0
 10
72.04332002322181
 20
-126.0949733842749
 30
0.0
 10
71.8486721283052
 20
-126.1845458668914
 30
0.0
 10
71.61182181369426
 20
-126.2010823252206
 30
0.0
 10
71.44886879724196
 20
-126.2010823252206
 30
0.0
 10
71.30503606073277
 20
-126.2010823252206
 30
0.0
 10
71.05337183553527
 20
-126.186268414634
 30
0.0
 10
70.85441757126209
 20
-126.0949733842749
 30
0.0
 10
70.65132919240662
 20
-126.0016112966246
 30
0.0
 10
70.62807479788118
 20
-125.8624294390205
 30
0.0
 10
70.62807479788118
 20
-125.7508083452984
 30
0.0
 10
70.62807479788118
 20
-125.6136935449855
 30
0.0
 10
70.6725165296409
 20
-125.4889810884194
 30
0.0
 10
70.85441757126209
 20
-125.406643306322
 30
0.0
 10
71.04699840888756
 20
-125.3208604287392
 30
0.0
 10
71.27540823955962
 20
-125.3005343653763
 30
0.0
 10
71.44886879724196
 20
-125.3005343653763
 30
0.0
 10
71.62026229763313
 20
-125.3005343653763
 30
0.0
 10
71.85091144037061
 20
-125.3187933714481
 30
0.0
 10
72.04332002322181
 20
-125.406643306322
 30
0.0
  0
SPLINE
  5
92
330
8B
100
AcDbEntity
  8
_U+30EC_U+30A4_U+30E4_U+30FC 1
370
     0
100
AcDbSpline
210
0.0
220
0.0
230
1.0
 70
    11
 71
     3
 72
    17
 73
    13
 74
     0
 42
0.0000000001
 43
0.0000000001
 12
1.0
 22
0.0
 32
0.0
 13
1.0
 23
0.0
 33
0.0
 40
0.0
 40
0.0
 40
0.0
 40
0.0
 40
1.0
 40
1.0
 40
1.0
 40
2.0
 40
2.0
 40
2.0
 40
3.0
 40
3.0
 40
3.0
 40
4.0
 40
4.0
 40
4.0
 40
4.0
 10
70.82065563550664
 20
-125.7508083452984
 30
0.0
 10
70.82065563550664
 20
-125.9668158322236
 30
0.0
 10
71.1041869939427
 20
-126.007123449401
 30
0.0
 10
71.44886879724196
 20
-126.007123449401
 30
0.0
 10
71.76840140349887
 20
-126.007123449401
 30
0.0
 10
72.07725421375152
 20
-125.9761175900338
 30
0.0
 10
72.07725421375152
 20
-125.7508083452984
 30
0.0
 10
72.07725421375152
 20
-125.5368679156644
 30
0.0
 10
71.79578991260661
 20
-125.4944932411958
 30
0.0
 10
71.44886879724196
 20
-125.4944932411958
 30
0.0
 10
71.1295084457593
 20
-125.4944932411958
 30
0.0
 10
70.82065563550664
 20
-125.5275661578542
 30
0.0
 10
70.82065563550664
 20
-125.7508083452984
 30
0.0
  0
HATCH
  5
93
330
8B
100
AcDbEntity
  8
_U+30EC_U+30A4_U+30E4_U+30FC 1
 62
   179
420
  2234388
100
AcDbHatch
 10
0.0
 20
0.0
 30
0.0
210
0.0
220
0.0
230
1.0
  2
SOLID
 70
     1
 71
     0
 91
        2
 92
        1
 93
        1
 72
     4
 94
        3
 73
     0
 74
     1
 95
       29
 96
       25
 40
0.0
 40
0.0
 40
0.0
 40
0.0
 40
1.0
 40
1.0
 40
1.0
 40
2.0
 40
2.0
 40
2.0
 40
3.0
 40
3.0
 40
3.0
 40
4.0
 40
4.0
 40
4.0
 40
5.0
 40
5.0
 40
5.0
 40
6.0
 40
6.0
 40
6.0
 40
7.0
 40
7.0
 40
7.0
 40
8.0
 40
8.0
 40
8.0
 40
8.0
 10
72.04332002322181
 20
-125.406643306322
 10
72.252781828725
 20
-125.5000053939722
 10
72.27190210866814
 20
-125.6502115571291
 10
72.27190210866814
 20
-125.7508083452984
 10
72.27190210866814
 20
-125.8899902029025
 10
72.22539331961727
 20
-126.0126356021774
 10
72.04332002322181
 20
-126.0949733842749
 10
71.8486721283052
 20
-126.1845458668914
 10
71.61182181369426
 20
-126.2010823252206
 10
71.44886879724196
 20
-126.2010823252206
 10
71.30503606073277
 20
-126.2010823252206
 10
71.05337183553527
 20
-126.186268414634
 10
70.85441757126209
 20
-126.0949733842749
 10
70.65132919240662
 20
-126.0016112966246
 10
70.62807479788118
 20
-125.8624294390205
 10
70.62807479788118
 20
-125.7508083452984
 10
70.62807479788118
 20
-125.6136935449855
 10
70.6725165296409
 20
-125.4889810884194
 10
70.85441757126209
 20
-125.406643306322
 10
71.04699840888756
 20
-125.3208604287392
 10
71.27540823955962
 20
-125.3005343653763
 10
71.44886879724196
 20
-125.3005343653763
 10
71.62026229763313
 20
-125.3005343653763
 10
71.85091144037061
 20
-125.3187933714481
 10
72.04332002322181
 20
-125.406643306322
 97
        0
 97
        0
 92
        1
 93
        1
 72
     4
 94
        3
 73
     0
 74
     1
 95
       17
 96
       13
 40
0.0
 40
0.0
 40
0.0
 40
0.0
 40
1.0
 40
1.0
 40
1.0
 40
2.0
 40
2.0
 40
2.0
 40
3.0
 40
3.0
 40
3.0
 40
4.0
 40
4.0
 40
4.0
 40
4.0
 10
70.82065563550664
 20
-125.7508083452984
 10
70.82065563550664
 20
-125.9668158322236
 10
71.1041869939427
 20
-126.007123449401
 10
71.44886879724196
 20
-126.007123449401
 10
71.76840140349887
 20
-126.007123449401
 10
72.07725421375152
 20
-125.9761175900338
 10
72.07725421375152
 20
-125.7508083452984
 10
72.07725421375152
 20
-125.5368679156644
 10
71.79578991260661
 20
-125.4944932411958
 10
71.44886879724196
 20
-125.4944932411958
 10
71.1295084457593
 20
-125.4944932411958
 10
70.82065563550664
 20
-125.5275661578542
 10
70.82065563550664
 20
-125.7508083452984
 97
        0
 97
        0
 75
     2
 76
     1
 98
        0
  0
ENDBLK
  5
8E
330
8B
100
AcDbEntity
  8
0
100
AcDbBlockEnd
  0
BLOCK
  5
A2
330
A0
100
AcDbEntity
  8
0
100
AcDbBlockBegin
  2
block 4
 70
     0
 10
0.0
 20
0.0
 30
0.0
  3
block 4
  1

  0
SPLINE
  5
A4
330
A0
100
AcDbEntity
  8
_U+30EC_U+30A4_U+30E4_U+30FC 1
370
     0
100
AcDbSpline
210
0.0
220
0.0
230
1.0
 70
    11
 71
     3
 72
    62
 73
    58
 74
     0
 42
0.0000000001
 43
0.0000000001
 12
1.0
 22
0.0
 32
0.0
 13
1.0
 23
0.0
 33
0.0
 40
0.0
 40
0.0
 40
0.0
 40
0.0
 40
1.0
 40
1.0
 40
1.0
 40
2.0
 40
2.0
 40
2.0
 40
3.0
 40
3.0
 40
3.0
 40
4.0
 40
4.0
 40
4.0
 40
5.0
 40
5.0
 40
5.0
 40
6.0
 40
6.0
 40
6.0
 40
7.0
 40
7.0
 40
7.0
 40
8.0
 40
8.0
 40
8.0
 40
9.0
 40
9.0
 40
9.0
 40
10.0
 40
10.0
 40
10.0
 40
11.0
 40
11.0
 40
11.0
 40
12.0
 40
12.0
 40
12.0
 40
13.0
 40
13.0
 40
13.0
 40
14.0
 40
14.0
 40
14.0
 40
15.0
 40
15.0
 40
15.0
 40
16.0
 40
16.0
 40
16.0
 40
17.0
 40
17.0
 40
17.0
 40
18.0
 40
18.0
 40
18.0
 40
19.0
 40
19.0
 40
19.0
 40
19.0
 10
91.06662052844862
 20
-134.4789577571789
 30
0.0
 10
90.98428274635116
 20
-134.4789577571789
 30
0.0
 10
90.79549151375946
 20
-134.4579426747189
 30
0.0
 10
90.68766002507114
 20
-134.2719075185153
 30
0.0
 10
90.6235812490455
 20
-134.1595974056962
 30
0.0
 10
90.61979164401173
 20
-134.060378655721
 30
0.0
 10
90.61634654852648
 20
-133.9756293067839
 30
0.0
 10
90.61634654852648
 20
-133.9756293067839
 30
0.0
 10
90.80651581931227
 20
-133.9756293067839
 30
0.0
 10
90.80651581931227
 20
-133.9756293067839
 30
0.0
 10
90.80858287660341
 20
-134.0496988597168
 30
0.0
 10
90.81754012486506
 20
-134.2843098622623
 30
0.0
 10
91.06283092341485
 20
-134.2843098622623
 30
0.0
 10
91.18168671765598
 20
-134.2843098622623
 30
0.0
 10
91.31363387474104
 20
-134.2147189334602
 30
0.0
 10
91.31363387474104
 20
-133.9863091027881
 30
0.0
 10
91.31363387474104
 20
-133.8698648753867
 30
0.0
 10
91.28056095808265
 20
-133.8212890290447
 30
0.0
 10
91.25300019420064
 20
-133.7895941505804
 30
0.0
 10
91.18926592772353
 20
-133.7155245976475
 30
0.0
 10
91.0883246300057
 20
-133.7027777443521
 30
0.0
 10
91.04078231230925
 20
-133.7027777443521
 30
0.0
 10
91.02424585398005
 20
-133.7027777443521
 30
0.0
 10
90.99323999461281
 20
-133.7048448016432
 30
0.0
 10
90.96946883576459
 20
-133.7089789162255
 30
0.0
 10
90.96946883576459
 20
-133.7089789162255
 30
0.0
 10
90.96946883576459
 20
-133.5143310213089
 30
0.0
 10
90.96946883576459
 20
-133.5143310213089
 30
0.0
 10
91.00254175242299
 20
-133.5208767027309
 30
0.0
 10
91.03905976456663
 20
-133.5229437600221
 30
0.0
 10
91.04457191734303
 20
-133.5229437600221
 30
0.0
 10
91.10141599284965
 20
-133.5229437600221
 30
0.0
 10
91.27332625756361
 20
-133.5015841680135
 30
0.0
 10
91.27332625756361
 20
-133.2649061081768
 30
0.0
 10
91.27332625756361
 20
-133.087139181138
 30
0.0
 10
91.1599826160989
 20
-133.0320176533739
 30
0.0
 10
91.06455347115748
 20
-133.0320176533739
 30
0.0
 10
90.83579913093689
 20
-133.0320176533739
 30
0.0
 10
90.82856443041786
 20
-133.2649061081768
 30
0.0
 10
90.82477482538408
 20
-133.33656409427
 30
0.0
 10
90.82477482538408
 20
-133.33656409427
 30
0.0
 10
90.64907495563635
 20
-133.33656409427
 30
0.0
 10
90.64907495563635
 20
-133.33656409427
 30
0.0
 10
90.6566541657039
 20
-133.211851637704
 30
0.0
 10
90.68042532455212
 20
-132.8353027011662
 30
0.0
 10
91.07557777671028
 20
-132.8353027011662
 30
0.0
 10
91.26953665252984
 20
-132.8353027011662
 30
0.0
 10
91.47830943893598
 20
-132.9624267245719
 30
0.0
 10
91.47830943893598
 20
-133.2583604267548
 30
0.0
 10
91.47830943893598
 20
-133.4447400925069
 30
0.0
 10
91.39597165683851
 20
-133.5270778746043
 30
0.0
 10
91.30984426970727
 20
-133.5884005742418
 30
0.0
 10
91.36289874018011
 20
-133.6159613381238
 30
0.0
 10
91.52033960385603
 20
-133.6962320629301
 30
0.0
 10
91.52033960385603
 20
-133.9735622494927
 30
0.0
 10
91.52033960385603
 20
-134.3118706261443
 30
0.0
 10
91.30639917422202
 20
-134.4789577571789
 30
0.0
 10
91.06662052844862
 20
-134.4789577571789
 30
0.0
  0
HATCH
  5
A5
330
A0
100
AcDbEntity
  8
_U+30EC_U+30A4_U+30E4_U+30FC 1
 62
   179
420
  2234388
100
AcDbHatch
 10
0.0
 20
0.0
 30
0.0
210
0.0
220
0.0
230
1.0
  2
SOLID
 70
     1
 71
     0
 91
        1
 92
        1
 93
        1
 72
     4
 94
        3
 73
     0
 74
     1
 95
       62
 96
       58
 40
0.0
 40
0.0
 40
0.0
 40
0.0
 40
1.0
 40
1.0
 40
1.0
 40
2.0
 40
2.0
 40
2.0
 40
3.0
 40
3.0
 40
3.0
 40
4.0
 40
4.0
 40
4.0
 40
5.0
 40
5.0
 40
5.0
 40
6.0
 40
6.0
 40
6.0
 40
7.0
 40
7.0
 40
7.0
 40
8.0
 40
8.0
 40
8.0
 40
9.0
 40
9.0
 40
9.0
 40
10.0
 40
10.0
 40
10.0
 40
11.0
 40
11.0
 40
11.0
 40
12.0
 40
12.0
 40
12.0
 40
13.0
 40
13.0
 40
13.0
 40
14.0
 40
14.0
 40
14.0
 40
15.0
 40
15.0
 40
15.0
 40
16.0
 40
16.0
 40
16.0
 40
17.0
 40
17.0
 40
17.0
 40
18.0
 40
18.0
 40
18.0
 40
19.0
 40
19.0
 40
19.0
 40
19.0
 10
91.06662052844862
 20
-134.4789577571789
 10
90.98428274635116
 20
-134.4789577571789
 10
90.79549151375946
 20
-134.4579426747189
 10
90.68766002507114
 20
-134.2719075185153
 10
90.6235812490455
 20
-134.1595974056962
 10
90.61979164401173
 20
-134.060378655721
 10
90.61634654852648
 20
-133.9756293067839
 10
90.61634654852648
 20
-133.9756293067839
 10
90.80651581931227
 20
-133.9756293067839
 10
90.80651581931227
 20
-133.9756293067839
 10
90.80858287660341
 20
-134.0496988597168
 10
90.81754012486506
 20
-134.2843098622623
 10
91.06283092341485
 20
-134.2843098622623
 10
91.18168671765598
 20
-134.2843098622623
 10
91.31363387474104
 20
-134.2147189334602
 10
91.31363387474104
 20
-133.9863091027881
 10
91.31363387474104
 20
-133.8698648753867
 10
91.28056095808265
 20
-133.8212890290447
 10
91.25300019420064
 20
-133.7895941505804
 10
91.18926592772353
 20
-133.7155245976475
 10
91.0883246300057
 20
-133.7027777443521
 10
91.04078231230925
 20
-133.7027777443521
 10
91.02424585398005
 20
-133.7027777443521
 10
90.99323999461281
 20
-133.7048448016432
 10
90.96946883576459
 20
-133.7089789162255
 10
90.96946883576459
 20
-133.7089789162255
 10
90.96946883576459
 20
-133.5143310213089
 10
90.96946883576459
 20
-133.5143310213089
 10
91.00254175242299
 20
-133.5208767027309
 10
91.03905976456663
 20
-133.5229437600221
 10
91.04457191734303
 20
-133.5229437600221
 10
91.10141599284965
 20
-133.5229437600221
 10
91.27332625756361
 20
-133.5015841680135
 10
91.27332625756361
 20
-133.2649061081768
 10
91.27332625756361
 20
-133.087139181138
 10
91.1599826160989
 20
-133.0320176533739
 10
91.06455347115748
 20
-133.0320176533739
 10
90.83579913093689
 20
-133.0320176533739
 10
90.82856443041786
 20
-133.2649061081768
 10
90.82477482538408
 20
-133.33656409427
 10
90.82477482538408
 20
-133.33656409427
 10
90.64907495563635
 20
-133.33656409427
 10
90.64907495563635
 20
-133.33656409427
 10
90.6566541657039
 20
-133.211851637704
 10
90.68042532455212
 20
-132.8353027011662
 10
91.07557777671028
 20
-132.8353027011662
 10
91.26953665252984
 20
-132.8353027011662
 10
91.47830943893598
 20
-132.9624267245719
 10
91.47830943893598
 20
-133.2583604267548
 10
91.47830943893598
 20
-133.4447400925069
 10
91.39597165683851
 20
-133.5270778746043
 10
91.30984426970727
 20
-133.5884005742418
 10
91.36289874018011
 20
-133.6159613381238
 10
91.52033960385603
 20
-133.6962320629301
 10
91.52033960385603
 20
-133.9735622494927
 10
91.52033960385603
 20
-134.3118706261443
 10
91.30639917422202
 20
-134.4789577571789
 10
91.06662052844862
 20
-134.4789577571789
 97
        0
 97
        0
 75
     2
 76
     1
 98
        0
  0
SPLINE
  5
A6
330
A0
100
AcDbEntity
  8
_U+30EC_U+30A4_U+30E4_U+30FC 1
370
     0
100
AcDbSpline
210
0.0
220
0.0
230
1.0
 70
    11
 71
     3
 72
    29
 73
    25
 74
     0
 42
0.0000000001
 43
0.0000000001
 12
1.0
 22
0.0
 32
0.0
 13
1.0
 23
0.0
 33
0.0
 40
0.0
 40
0.0
 40
0.0
 40
0.0
 40
1.0
 40
1.0
 40
1.0
 40
2.0
 40
2.0
 40
2.0
 40
3.0
 40
3.0
 40
3.0
 40
4.0
 40
4.0
 40
4.0
 40
5.0
 40
5.0
 40
5.0
 40
6.0
 40
6.0
 40
6.0
 40
7.0
 40
7.0
 40
7.0
 40
8.0
 40
8.0
 40
8.0
 40
8.0
 10
92.43535696473839
 20
-134.2505479265068
 30
0.0
 10
92.34199487708811
 20
-134.46000973201
 30
0.0
 10
92.19178871393122
 20
-134.4789577571789
 30
0.0
 10
92.09119192576193
 20
-134.4789577571789
 30
0.0
 10
91.95201006815783
 20
-134.4789577571789
 30
0.0
 10
91.82936466888295
 20
-134.432448968128
 30
0.0
 10
91.74702688678546
 20
-134.2505479265068
 30
0.0
 10
91.65745440416897
 20
-134.0559000315902
 30
0.0
 10
91.64091794583977
 20
-133.8192219717535
 30
0.0
 10
91.64091794583977
 20
-133.6562689553012
 30
0.0
 10
91.64091794583977
 20
-133.5122639640178
 30
0.0
 10
91.65538734687783
 20
-133.260427484046
 30
0.0
 10
91.74702688678546
 20
-133.0616454745471
 30
0.0
 10
91.84038897443574
 20
-132.8587293504659
 30
0.0
 10
91.97957083203984
 20
-132.8353027011662
 30
0.0
 10
92.09119192576193
 20
-132.8353027011662
 30
0.0
 10
92.22830672607488
 20
-132.8353027011662
 30
0.0
 10
92.35301918264092
 20
-132.8797444329259
 30
0.0
 10
92.43535696473839
 20
-133.0616454745471
 30
0.0
 10
92.5211398423211
 20
-133.2542263121726
 30
0.0
 10
92.54146590568408
 20
-133.4826361428446
 30
0.0
 10
92.54146590568408
 20
-133.6562689553012
 30
0.0
 10
92.54146590568408
 20
-133.8274902009181
 30
0.0
 10
92.52320689961226
 20
-134.0579670888814
 30
0.0
 10
92.43535696473839
 20
-134.2505479265068
 30
0.0
  0
SPLINE
  5
A7
330
A0
100
AcDbEntity
  8
_U+30EC_U+30A4_U+30E4_U+30FC 1
370
     0
100
AcDbSpline
210
0.0
220
0.0
230
1.0
 70
    11
 71
     3
 72
    17
 73
    13
 74
     0
 42
0.0000000001
 43
0.0000000001
 12
1.0
 22
0.0
 32
0.0
 13
1.0
 23
0.0
 33
0.0
 40
0.0
 40
0.0
 40
0.0
 40
0.0
 40
1.0
 40
1.0
 40
1.0
 40
2.0
 40
2.0
 40
2.0
 40
3.0
 40
3.0
 40
3.0
 40
4.0
 40
4.0
 40
4.0
 40
4.0
 10
92.09119192576193
 20
-133.0278835387917
 30
0.0
 10
91.87518443883677
 20
-133.0278835387917
 30
0.0
 10
91.83487682165934
 20
-133.3114148972277
 30
0.0
 10
91.83487682165934
 20
-133.6562689553012
 30
0.0
 10
91.83487682165934
 20
-133.9756293067839
 30
0.0
 10
91.86588268102659
 20
-134.2843098622623
 30
0.0
 10
92.09119192576193
 20
-134.2843098622623
 30
0.0
 10
92.30513235539594
 20
-134.2843098622623
 30
0.0
 10
92.34750702986452
 20
-134.0031900706659
 30
0.0
 10
92.34750702986452
 20
-133.6562689553012
 30
0.0
 10
92.34750702986452
 20
-133.33656409427
 30
0.0
 10
92.31443411320612
 20
-133.0278835387917
 30
0.0
 10
92.09119192576193
 20
-133.0278835387917
 30
0.0
  0
HATCH
  5
A8
330
A0
100
AcDbEntity
  8
_U+30EC_U+30A4_U+30E4_U+30FC 1
 62
   179
420
  2234388
100
AcDbHatch
 10
0.0
 20
0.0
 30
0.0
210
0.0
220
0.0
230
1.0
  2
SOLID
 70
     1
 71
     0
 91
        2
 92
        1
 93
        1
 72
     4
 94
        3
 73
     0
 74
     1
 95
       29
 96
       25
 40
0.0
 40
0.0
 40
0.0
 40
0.0
 40
1.0
 40
1.0
 40
1.0
 40
2.0
 40
2.0
 40
2.0
 40
3.0
 40
3.0
 40
3.0
 40
4.0
 40
4.0
 40
4.0
 40
5.0
 40
5.0
 40
5.0
 40
6.0
 40
6.0
 40
6.0
 40
7.0
 40
7.0
 40
7.0
 40
8.0
 40
8.0
 40
8.0
 40
8.0
 10
92.43535696473839
 20
-134.2505479265068
 10
92.34199487708811
 20
-134.46000973201
 10
92.19178871393122
 20
-134.4789577571789
 10
92.09119192576193
 20
-134.4789577571789
 10
91.95201006815783
 20
-134.4789577571789
 10
91.82936466888295
 20
-134.432448968128
 10
91.74702688678546
 20
-134.2505479265068
 10
91.65745440416897
 20
-134.0559000315902
 10
91.64091794583977
 20
-133.8192219717535
 10
91.64091794583977
 20
-133.6562689553012
 10
91.64091794583977
 20
-133.5122639640178
 10
91.65538734687783
 20
-133.260427484046
 10
91.74702688678546
 20
-133.0616454745471
 10
91.84038897443574
 20
-132.8587293504659
 10
91.97957083203984
 20
-132.8353027011662
 10
92.09119192576193
 20
-132.8353027011662
 10
92.22830672607488
 20
-132.8353027011662
 10
92.35301918264092
 20
-132.8797444329259
 10
92.43535696473839
 20
-133.0616454745471
 10
92.5211398423211
 20
-133.2542263121726
 10
92.54146590568408
 20
-133.4826361428446
 10
92.54146590568408
 20
-133.6562689553012
 10
92.54146590568408
 20
-133.8274902009181
 10
92.52320689961226
 20
-134.0579670888814
 10
92.43535696473839
 20
-134.2505479265068
 97
        0
 97
        0
 92
        1
 93
        1
 72
     4
 94
        3
 73
     0
 74
     1
 95
       17
 96
       13
 40
0.0
 40
0.0
 40
0.0
 40
0.0
 40
1.0
 40
1.0
 40
1.0
 40
2.0
 40
2.0
 40
2.0
 40
3.0
 40
3.0
 40
3.0
 40
4.0
 40
4.0
 40
4.0
 40
4.0
 10
92.09119192576193
 20
-133.0278835387917
 10
91.87518443883677
 20
-133.0278835387917
 10
91.83487682165934
 20
-133.3114148972277
 10
91.83487682165934
 20
-133.6562689553012
 10
91.83487682165934
 20
-133.9756293067839
 10
91.86588268102659
 20
-134.2843098622623
 10
92.09119192576193
 20
-134.2843098622623
 10
92.30513235539594
 20
-134.2843098622623
 10
92.34750702986452
 20
-134.0031900706659
 10
92.34750702986452
 20
-133.6562689553012
 10
92.34750702986452
 20
-133.33656409427
 10
92.31443411320612
 20
-133.0278835387917
 10
92.09119192576193
 20
-133.0278835387917
 97
        0
 97
        0
 75
     2
 76
     1
 98
        0
  0
ENDBLK
  5
A3
330
A0
100
AcDbEntity
  8
0
100
AcDbBlockEnd
  0
ENDSEC
  0
SECTION
  2
ENTITIES
  0
POLYLINE
  5
41
330
1F
100
AcDbEntity
  8
_U+30EC_U+30A4_U+30E4_U+30FC 1
 62
   179
420
  2234388
370
    25
100
AcDb2dPolyline
 66
     1
 10
0.0
 20
0.0
 30
0.0
  0
VERTEX
  5
42
330
41
100
AcDbEntity
  8
_U+30EC_U+30A4_U+30E4_U+30FC 1
 62
   179
420
  2234388
370
    25
100
AcDbVertex
100
AcDb2dVertex
 10
106.8179360844064
 20
-129.5245835787302
 30
0.0
  0
VERTEX
  5
43
330
41
100
AcDbEntity
  8
_U+30EC_U+30A4_U+30E4_U+30FC 1
 62
   179
420
  2234388
370
    25
100
AcDbVertex
100
AcDb2dVertex
 10
106.8179360844064
 20
-131.0245594116882
 30
0.0
  0
SEQEND
  5
44
330
41
100
AcDbEntity
  8
_U+30EC_U+30A4_U+30E4_U+30FC 1
 62
   179
420
  2234388
370
    25
  0
POLYLINE
  5
45
330
1F
100
AcDbEntity
  8
_U+30EC_U+30A4_U+30E4_U+30FC 1
 62
   179
420
  2234388
370
    25
100
AcDb2dPolyline
 66
     1
 10
0.0
 20
0.0
 30
0.0
  0
VERTEX
  5
46
330
45
100
AcDbEntity
  8
_U+30EC_U+30A4_U+30E4_U+30FC 1
 62
   179
420
  2234388
370
    25
100
AcDbVertex
100
AcDb2dVertex
 10
76.81788831799018
 20
-131.0245594116882
 30
0.0
  0
VERTEX
  5
47
330
45
100
AcDbEntity
  8
_U+30EC_U+30A4_U+30E4_U+30FC 1
 62
   179
420
  2234388
370
    25
100
AcDbVertex
100
AcDb2dVertex
 10
106.8179360844064
 20
-131.0245594116882
 30
0.0
  0
SEQEND
  5
48
330
45
100
AcDbEntity
  8
_U+30EC_U+30A4_U+30E4_U+30FC 1
 62
   179
420
  2234388
370
    25
  0
POLYLINE
  5
49
330
1F
100
AcDbEntity
  8
_U+30EC_U+30A4_U+30E4_U+30FC 1
 62
   179
420
  2234388
370
    25
100
AcDb2dPolyline
 66
     1
 10
0.0
 20
0.0
 30
0.0
  0
VERTEX
  5
4A
330
49
100
AcDbEntity
  8
_U+30EC_U+30A4_U+30E4_U+30FC 1
 62
   179
420
  2234388
370
    25
100
AcDbVertex
100
AcDb2dVertex
 10
76.81788831799018
 20
-121.0246499697438
 30
0.0
  0
VERTEX
  5
4B
330
49
100
AcDbEntity
  8
_U+30EC_U+30A4_U+30E4_U+30FC 1
 62
   179
420
  2234388
370
    25
100
AcDbVertex
100
AcDb2dVertex
 10
76.81788831799018
 20
-131.0245594116882
 30
0.0
  0
SEQEND
  5
4C
330
49
100
AcDbEntity
  8
_U+30EC_U+30A4_U+30E4_U+30FC 1
 62
   179
420
  2234388
370
    25
  0
POLYLINE
  5
4D
330
1F
100
AcDbEntity
  8
_U+30EC_U+30A4_U+30E4_U+30FC 1
 62
   179
420
  2234388
370
    25
100
AcDb2dPolyline
 66
     1
 10
0.0
 20
0.0
 30
0.0
  0
VERTEX
  5
4E
330
4D
100
AcDbEntity
  8
_U+30EC_U+30A4_U+30E4_U+30FC 1
 62
   179
420
  2234388
370
    25
100
AcDbVertex
100
AcDb2dVertex
 10
76.81788831799018
 20
-121.0246499697438
 30
0.0
  0
VERTEX
  5
4F
330
4D
100
AcDbEntity
  8
_U+30EC_U+30A4_U+30E4_U+30FC 1
 62
   179
420
  2234388
370
    25
100
AcDbVertex
100
AcDb2dVertex
 10
78.31786411305593
 20
-121.0246499697438
 30
0.0
  0
SEQEND
  5
50
330
4D
100
AcDbEntity
  8
_U+30EC_U+30A4_U+30E4_U+30FC 1
 62
   179
420
  2234388
370
    25
  0
POLYLINE
  5
51
330
1F
100
AcDbEntity
  8
_U+30EC_U+30A4_U+30E4_U+30FC 1
 62
   179
420
  2234388
370
    25
100
AcDb2dPolyline
 66
     1
 10
0.0
 20
0.0
 30
0.0
  0
VERTEX
  5
52
330
51
100
AcDbEntity
  8
_U+30EC_U+30A4_U+30E4_U+30FC 1
 62
   179
420
  2234388
370
    25
100
AcDbVertex
100
AcDb2dVertex
 10
78.31786411305593
 20
-129.5245835787302
 30
0.0
  0
VERTEX
  5
53
330
51
100
AcDbEntity
  8
_U+30EC_U+30A4_U+30E4_U+30FC 1
 62
   179
420
  2234388
370
    25
100
AcDbVertex
100
AcDb2dVertex
 10
106.8179360844064
 20
-129.5245835787302
 30
0.0
  0
SEQEND
  5
54
330
51
100
AcDbEntity
  8
_U+30EC_U+30A4_U+30E4_U+30FC 1
 62
   179
420
  2234388
370
    25
  0
POLYLINE
  5
55
330
1F
100
AcDbEntity
  8
_U+30EC_U+30A4_U+30E4_U+30FC 1
 62
   179
420
  2234388
370
    25
100
AcDb2dPolyline
 66
     1
 10
0.0
 20
0.0
 30
0.0
  0
VERTEX
  5
56
330
55
100
AcDbEntity
  8
_U+30EC_U+30A4_U+30E4_U+30FC 1
 62
   179
420
  2234388
370
    25
100
AcDbVertex
100
AcDb2dVertex
 10
78.31786411305593
 20
-121.0246499697438
 30
0.0
  0
VERTEX
  5
57
330
55
100
AcDbEntity
  8
_U+30EC_U+30A4_U+30E4_U+30FC 1
 62
   179
420
  2234388
370
    25
100
AcDbVertex
100
AcDb2dVertex
 10
78.31786411305593
 20
-129.5245835787302
 30
0.0
  0
SEQEND
  5
58
330
55
100
AcDbEntity
  8
_U+30EC_U+30A4_U+30E4_U+30FC 1
 62
   179
420
  2234388
370
    25
  0
SPLINE
  5
59
330
1F
100
AcDbEntity
  8
_U+30EC_U+30A4_U+30E4_U+30FC 1
 62
   179
420
  2234388
370
     9
100
AcDbSpline
210
0.0
220
0.0
230
1.0
 70
    11
 71
     3
 72
    17
 73
    13
 74
     0
 42
0.0000000001
 43
0.0000000001
 12
1.0
 22
0.0
 32
0.0
 13
1.0
 23
0.0
 33
0.0
 40
0.0
 40
0.0
 40
0.0
 40
0.0
 40
1.0
 40
1.0
 40
1.0
 40
2.0
 40
2.0
 40
2.0
 40
3.0
 40
3.0
 40
3.0
 40
4.0
 40
4.0
 40
4.0
 40
4.0
 10
110.9175991147007
 20
-131.0245594116882
 30
0.0
 10
110.9175991147007
 20
-130.9694555228133
 30
0.0
 10
110.8728316158429
 20
-130.9246527450466
 30
0.0
 10
110.8176924505829
 20
-130.9246527450466
 30
0.0
 10
110.7625885630998
 20
-130.9246527450466
 30
0.0
 10
110.7177857864651
 20
-130.9694555228133
 30
0.0
 10
110.7177857864651
 20
-131.0245594116882
 30
0.0
 10
110.7177857864651
 20
-131.0796985783413
 30
0.0
 10
110.7625885630998
 20
-131.1244660783299
 30
0.0
 10
110.8176924505829
 20
-131.1244660783299
 30
0.0
 10
110.8728316158429
 20
-131.1244660783299
 30
0.0
 10
110.9175991147007
 20
-131.0796985783413
 30
0.0
 10
110.9175991147007
 20
-131.0245594116882
 30
0.0
  0
SPLINE
  5
5A
330
1F
100
AcDbEntity
  8
_U+30EC_U+30A4_U+30E4_U+30FC 1
 62
   179
420
  2234388
370
     9
100
AcDbSpline
210
0.0
220
0.0
230
1.0
 70
    11
 71
     3
 72
    17
 73
    13
 74
     0
 42
0.0000000001
 43
0.0000000001
 12
1.0
 22
0.0
 32
0.0
 13
1.0
 23
0.0
 33
0.0
 40
0.0
 40
0.0
 40
0.0
 40
0.0
 40
1.0
 40
1.0
 40
1.0
 40
2.0
 40
2.0
 40
2.0
 40
3.0
 40
3.0
 40
3.0
 40
4.0
 40
4.0
 40
4.0
 40
4.0
 10
106.9178400500764
 20
-135.0243185773551
 30
0.0
 10
106.9178400500764
 20
-134.9691794107021
 30
0.0
 10
106.8730725512185
 20
-134.9244119107135
 30
0.0
 10
106.8179360844064
 20
-134.9244119107135
 30
0.0
 10
106.7628294984755
 20
-134.9244119107135
 30
0.0
 10
106.7180267218408
 20
-134.9691794107021
 30
0.0
 10
106.7180267218408
 20
-135.0243185773551
 30
0.0
 10
106.7180267218408
 20
-135.0794224662301
 30
0.0
 10
106.7628294984755
 20
-135.1242252439968
 30
0.0
 10
106.8179360844064
 20
-135.1242252439968
 30
0.0
 10
106.8730725512185
 20
-135.1242252439968
 30
0.0
 10
106.9178400500764
 20
-135.0794224662301
 30
0.0
 10
106.9178400500764
 20
-135.0243185773551
 30
0.0
  0
SPLINE
  5
5B
330
1F
100
AcDbEntity
  8
_U+30EC_U+30A4_U+30E4_U+30FC 1
 62
   179
420
  2234388
370
     9
100
AcDbSpline
210
0.0
220
0.0
230
1.0
 70
    11
 71
     3
 72
    17
 73
    13
 74
     0
 42
0.0000000001
 43
0.0000000001
 12
1.0
 22
0.0
 32
0.0
 13
1.0
 23
0.0
 33
0.0
 40
0.0
 40
0.0
 40
0.0
 40
0.0
 40
1.0
 40
1.0
 40
1.0
 40
2.0
 40
2.0
 40
2.0
 40
3.0
 40
3.0
 40
3.0
 40
4.0
 40
4.0
 40
4.0
 40
4.0
 10
110.9175991147007
 20
-129.5245835787302
 30
0.0
 10
110.9175991147007
 20
-129.4694444120771
 30
0.0
 10
110.8728316158429
 20
-129.4246416343104
 30
0.0
 10
110.8176924505829
 20
-129.4246416343104
 30
0.0
 10
110.7625885630998
 20
-129.4246416343104
 30
0.0
 10
110.7177857864651
 20
-129.4694444120771
 30
0.0
 10
110.7177857864651
 20
-129.5245835787302
 30
0.0
 10
110.7177857864651
 20
-129.5796874676051
 30
0.0
 10
110.7625885630998
 20
-129.6244902453718
 30
0.0
 10
110.8176924505829
 20
-129.6244902453718
 30
0.0
 10
110.8728316158429
 20
-129.6244902453718
 30
0.0
 10
110.9175991147007
 20
-129.5796874676051
 30
0.0
 10
110.9175991147007
 20
-129.5245835787302
 30
0.0
  0
SPLINE
  5
5C
330
1F
100
AcDbEntity
  8
_U+30EC_U+30A4_U+30E4_U+30FC 1
 62
   179
420
  2234388
370
     9
100
AcDbSpline
210
0.0
220
0.0
230
1.0
 70
    11
 71
     3
 72
    17
 73
    13
 74
     0
 42
0.0000000001
 43
0.0000000001
 12
1.0
 22
0.0
 32
0.0
 13
1.0
 23
0.0
 33
0.0
 40
0.0
 40
0.0
 40
0.0
 40
0.0
 40
1.0
 40
1.0
 40
1.0
 40
2.0
 40
2.0
 40
2.0
 40
3.0
 40
3.0
 40
3.0
 40
4.0
 40
4.0
 40
4.0
 40
4.0
 10
72.91803591748369
 20
-121.0246499697438
 30
0.0
 10
72.91803591748369
 20
-120.9691933030911
 30
0.0
 10
72.87323314084894
 20
-120.9243905253244
 30
0.0
 10
72.81777647559709
 20
-120.9243905253244
 30
0.0
 10
72.76263731033714
 20
-120.9243905253244
 30
0.0
 10
72.71786981147925
 20
-120.9691933030911
 30
0.0
 10
72.71786981147925
 20
-121.0246499697438
 30
0.0
 10
72.71786981147925
 20
-121.0797891363969
 30
0.0
 10
72.76263731033714
 20
-121.1245566363854
 30
0.0
 10
72.81777647559709
 20
-121.1245566363854
 30
0.0
 10
72.87323314084894
 20
-121.1245566363854
 30
0.0
 10
72.91803591748369
 20
-121.0797891363969
 30
0.0
 10
72.91803591748369
 20
-121.0246499697438
 30
0.0
  0
SPLINE
  5
5D
330
1F
100
AcDbEntity
  8
_U+30EC_U+30A4_U+30E4_U+30FC 1
 62
   179
420
  2234388
370
     9
100
AcDbSpline
210
0.0
220
0.0
230
1.0
 70
    11
 71
     3
 72
    17
 73
    13
 74
     0
 42
0.0000000001
 43
0.0000000001
 12
1.0
 22
0.0
 32
0.0
 13
1.0
 23
0.0
 33
0.0
 40
0.0
 40
0.0
 40
0.0
 40
0.0
 40
1.0
 40
1.0
 40
1.0
 40
2.0
 40
2.0
 40
2.0
 40
3.0
 40
3.0
 40
3.0
 40
4.0
 40
4.0
 40
4.0
 40
4.0
 10
72.91803591748369
 20
-131.0245594116882
 30
0.0
 10
72.91803591748369
 20
-130.9694555228133
 30
0.0
 10
72.87323314084894
 20
-130.9246527450466
 30
0.0
 10
72.81777647559709
 20
-130.9246527450466
 30
0.0
 10
72.76263731033714
 20
-130.9246527450466
 30
0.0
 10
72.71786981147925
 20
-130.9694555228133
 30
0.0
 10
72.71786981147925
 20
-131.0245594116882
 30
0.0
 10
72.71786981147925
 20
-131.0796985783413
 30
0.0
 10
72.76263731033714
 20
-131.1244660783299
 30
0.0
 10
72.81777647559709
 20
-131.1244660783299
 30
0.0
 10
72.87323314084894
 20
-131.1244660783299
 30
0.0
 10
72.91803591748369
 20
-131.0796985783413
 30
0.0
 10
72.91803591748369
 20
-131.0245594116882
 30
0.0
  0
SPLINE
  5
5E
330
1F
100
AcDbEntity
  8
_U+30EC_U+30A4_U+30E4_U+30FC 1
 62
   179
420
  2234388
370
     9
100
AcDbSpline
210
0.0
220
0.0
230
1.0
 70
    11
 71
     3
 72
    17
 73
    13
 74
     0
 42
0.0000000001
 43
0.0000000001
 12
1.0
 22
0.0
 32
0.0
 13
1.0
 23
0.0
 33
0.0
 40
0.0
 40
0.0
 40
0.0
 40
0.0
 40
1.0
 40
1.0
 40
1.0
 40
2.0
 40
2.0
 40
2.0
 40
3.0
 40
3.0
 40
3.0
 40
4.0
 40
4.0
 40
4.0
 40
4.0
 10
76.917794982108
 20
-135.0243185773551
 30
0.0
 10
76.917794982108
 20
-134.9691794107021
 30
0.0
 10
76.87299220547325
 20
-134.9244119107135
 30
0.0
 10
76.81788831799018
 20
-134.9244119107135
 30
0.0
 10
76.76274915273022
 20
-134.9244119107135
 30
0.0
 10
76.71798165387234
 20
-134.9691794107021
 30
0.0
 10
76.71798165387234
 20
-135.0243185773551
 30
0.0
 10
76.71798165387234
 20
-135.0794224662301
 30
0.0
 10
76.76274915273022
 20
-135.1242252439968
 30
0.0
 10
76.81788831799018
 20
-135.1242252439968
 30
0.0
 10
76.87299220547325
 20
-135.1242252439968
 30
0.0
 10
76.917794982108
 20
-135.0794224662301
 30
0.0
 10
76.917794982108
 20
-135.0243185773551
 30
0.0
  0
POLYLINE
  5
5F
330
1F
100
AcDbEntity
  8
_U+30EC_U+30A4_U+30E4_U+30FC 1
 62
   179
420
  2234388
370
     9
100
AcDb2dPolyline
 66
     1
 10
0.0
 20
0.0
 30
0.0
  0
VERTEX
  5
60
330
5F
100
AcDbEntity
  8
_U+30EC_U+30A4_U+30E4_U+30FC 1
 62
   179
420
  2234388
370
     9
100
AcDbVertex
100
AcDb2dVertex
 10
110.8176924505829
 20
-129.5245835787302
 30
0.0
  0
VERTEX
  5
61
330
5F
100
AcDbEntity
  8
_U+30EC_U+30A4_U+30E4_U+30FC 1
 62
   179
420
  2234388
370
     9
100
AcDbVertex
100
AcDb2dVertex
 10
110.8176924505829
 20
-124.2665013578224
 30
0.0
  0
SEQEND
  5
62
330
5F
100
AcDbEntity
  8
_U+30EC_U+30A4_U+30E4_U+30FC 1
 62
   179
420
  2234388
370
     9
  0
POLYLINE
  5
63
330
1F
100
AcDbEntity
  8
_U+30EC_U+30A4_U+30E4_U+30FC 1
 62
   179
420
  2234388
370
     9
100
AcDb2dPolyline
 66
     1
 10
0.0
 20
0.0
 30
0.0
  0
VERTEX
  5
64
330
63
100
AcDbEntity
  8
_U+30EC_U+30A4_U+30E4_U+30FC 1
 62
   179
420
  2234388
370
     9
100
AcDbVertex
100
AcDb2dVertex
 10
110.8176924505829
 20
-129.5245835787302
 30
0.0
  0
VERTEX
  5
65
330
63
100
AcDbEntity
  8
_U+30EC_U+30A4_U+30E4_U+30FC 1
 62
   179
420
  2234388
370
     9
100
AcDbVertex
100
AcDb2dVertex
 10
110.8176924505829
 20
-132.0243316336608
 30
0.0
  0
SEQEND
  5
66
330
63
100
AcDbEntity
  8
_U+30EC_U+30A4_U+30E4_U+30FC 1
 62
   179
420
  2234388
370
     9
  0
POLYLINE
  5
67
330
1F
100
AcDbEntity
  8
_U+30EC_U+30A4_U+30E4_U+30FC 1
 62
   179
420
  2234388
370
     9
100
AcDb2dPolyline
 66
     1
 10
0.0
 20
0.0
 30
0.0
  0
VERTEX
  5
68
330
67
100
AcDbEntity
  8
_U+30EC_U+30A4_U+30E4_U+30FC 1
 62
   179
420
  2234388
370
     9
100
AcDbVertex
100
AcDb2dVertex
 10
109.3576510989428
 20
-129.5245835787302
 30
0.0
  0
VERTEX
  5
69
330
67
100
AcDbEntity
  8
_U+30EC_U+30A4_U+30E4_U+30FC 1
 62
   179
420
  2234388
370
     9
100
AcDbVertex
100
AcDb2dVertex
 10
111.8178174250676
 20
-129.5245835787302
 30
0.0
  0
SEQEND
  5
6A
330
67
100
AcDbEntity
  8
_U+30EC_U+30A4_U+30E4_U+30FC 1
 62
   179
420
  2234388
370
     9
  0
POLYLINE
  5
6B
330
1F
100
AcDbEntity
  8
_U+30EC_U+30A4_U+30E4_U+30FC 1
 62
   179
420
  2234388
370
     9
100
AcDb2dPolyline
 66
     1
 10
0.0
 20
0.0
 30
0.0
  0
VERTEX
  5
6C
330
6B
100
AcDbEntity
  8
_U+30EC_U+30A4_U+30E4_U+30FC 1
 62
   179
420
  2234388
370
     9
100
AcDbVertex
100
AcDb2dVertex
 10
109.3576510989428
 20
-131.0245594116882
 30
0.0
  0
VERTEX
  5
6D
330
6B
100
AcDbEntity
  8
_U+30EC_U+30A4_U+30E4_U+30FC 1
 62
   179
420
  2234388
370
     9
100
AcDbVertex
100
AcDb2dVertex
 10
111.8178174250676
 20
-131.0245594116882
 30
0.0
  0
SEQEND
  5
6E
330
6B
100
AcDbEntity
  8
_U+30EC_U+30A4_U+30E4_U+30FC 1
 62
   179
420
  2234388
370
     9
  0
INSERT
  5
70
330
1F
100
AcDbEntity
  8
_U+30EC_U+30A4_U+30E4_U+30FC 1
100
AcDbBlockReference
  2
block 2
 10
0.0
 20
0.0
 30
0.0
  0
POLYLINE
  5
7F
330
1F
100
AcDbEntity
  8
_U+30EC_U+30A4_U+30E4_U+30FC 1
 62
   179
420
  2234388
370
     9
100
AcDb2dPolyline
 66
     1
 10
0.0
 20
0.0
 30
0.0
  0
VERTEX
  5
80
330
7F
100
AcDbEntity
  8
_U+30EC_U+30A4_U+30E4_U+30FC 1
 62
   179
420
  2234388
370
     9
100
AcDbVertex
100
AcDb2dVertex
 10
72.81777647559709
 20
-121.0246499697438
 30
0.0
  0
VERTEX
  5
81
330
7F
100
AcDbEntity
  8
_U+30EC_U+30A4_U+30E4_U+30FC 1
 62
   179
420
  2234388
370
     9
100
AcDbVertex
100
AcDb2dVertex
 10
72.81777647559709
 20
-131.0245594116882
 30
0.0
  0
SEQEND
  5
82
330
7F
100
AcDbEntity
  8
_U+30EC_U+30A4_U+30E4_U+30FC 1
 62
   179
420
  2234388
370
     9
  0
POLYLINE
  5
83
330
1F
100
AcDbEntity
  8
_U+30EC_U+30A4_U+30E4_U+30FC 1
 62
   179
420
  2234388
370
     9
100
AcDb2dPolyline
 66
     1
 10
0.0
 20
0.0
 30
0.0
  0
VERTEX
  5
84
330
83
100
AcDbEntity
  8
_U+30EC_U+30A4_U+30E4_U+30FC 1
 62
   179
420
  2234388
370
     9
100
AcDbVertex
100
AcDb2dVertex
 10
74.27781782723721
 20
-121.0246499697438
 30
0.0
  0
VERTEX
  5
85
330
83
100
AcDbEntity
  8
_U+30EC_U+30A4_U+30E4_U+30FC 1
 62
   179
420
  2234388
370
     9
100
AcDbVertex
100
AcDb2dVertex
 10
71.8176515011124
 20
-121.0246499697438
 30
0.0
  0
SEQEND
  5
86
330
83
100
AcDbEntity
  8
_U+30EC_U+30A4_U+30E4_U+30FC 1
 62
   179
420
  2234388
370
     9
  0
POLYLINE
  5
87
330
1F
100
AcDbEntity
  8
_U+30EC_U+30A4_U+30E4_U+30FC 1
 62
   179
420
  2234388
370
     9
100
AcDb2dPolyline
 66
     1
 10
0.0
 20
0.0
 30
0.0
  0
VERTEX
  5
88
330
87
100
AcDbEntity
  8
_U+30EC_U+30A4_U+30E4_U+30FC 1
 62
   179
420
  2234388
370
     9
100
AcDbVertex
100
AcDb2dVertex
 10
74.27781782723721
 20
-131.0245594116882
 30
0.0
  0
VERTEX
  5
89
330
87
100
AcDbEntity
  8
_U+30EC_U+30A4_U+30E4_U+30FC 1
 62
   179
420
  2234388
370
     9
100
AcDbVertex
100
AcDb2dVertex
 10
71.8176515011124
 20
-131.0245594116882
 30
0.0
  0
SEQEND
  5
8A
330
87
100
AcDbEntity
  8
_U+30EC_U+30A4_U+30E4_U+30FC 1
 62
   179
420
  2234388
370
     9
  0
INSERT
  5
8C
330
1F
100
AcDbEntity
  8
_U+30EC_U+30A4_U+30E4_U+30FC 1
100
AcDbBlockReference
  2
block 3
 10
0.0
 20
0.0
 30
0.0
  0
POLYLINE
  5
94
330
1F
100
AcDbEntity
  8
_U+30EC_U+30A4_U+30E4_U+30FC 1
 62
   179
420
  2234388
370
     9
100
AcDb2dPolyline
 66
     1
 10
0.0
 20
0.0
 30
0.0
  0
VERTEX
  5
95
330
94
100
AcDbEntity
  8
_U+30EC_U+30A4_U+30E4_U+30FC 1
 62
   179
420
  2234388
370
     9
100
AcDbVertex
100
AcDb2dVertex
 10
76.81788831799018
 20
-135.0243185773551
 30
0.0
  0
VERTEX
  5
96
330
94
100
AcDbEntity
  8
_U+30EC_U+30A4_U+30E4_U+30FC 1
 62
   179
420
  2234388
370
     9
100
AcDbVertex
100
AcDb2dVertex
 10
106.8179360844064
 20
-135.0243185773551
 30
0.0
  0
SEQEND
  5
97
330
94
100
AcDbEntity
  8
_U+30EC_U+30A4_U+30E4_U+30FC 1
 62
   179
420
  2234388
370
     9
  0
POLYLINE
  5
98
330
1F
100
AcDbEntity
  8
_U+30EC_U+30A4_U+30E4_U+30FC 1
 62
   179
420
  2234388
370
     9
100
AcDb2dPolyline
 66
     1
 10
0.0
 20
0.0
 30
0.0
  0
VERTEX
  5
99
330
98
100
AcDbEntity
  8
_U+30EC_U+30A4_U+30E4_U+30FC 1
 62
   179
420
  2234388
370
     9
100
AcDbVertex
100
AcDb2dVertex
 10
76.81788831799018
 20
-133.5642771888314
 30
0.0
  0
VERTEX
  5
9A
330
98
100
AcDbEntity
  8
_U+30EC_U+30A4_U+30E4_U+30FC 1
 62
   179
420
  2234388
370
     9
100
AcDbVertex
100
AcDb2dVertex
 10
76.81788831799018
 20
-136.024761077105
 30
0.0
  0
SEQEND
  5
9B
330
98
100
AcDbEntity
  8
_U+30EC_U+30A4_U+30E4_U+30FC 1
 62
   179
420
  2234388
370
     9
  0
POLYLINE
  5
9C
330
1F
100
AcDbEntity
  8
_U+30EC_U+30A4_U+30E4_U+30FC 1
 62
   179
420
  2234388
370
     9
100
AcDb2dPolyline
 66
     1
 10
0.0
 20
0.0
 30
0.0
  0
VERTEX
  5
9D
330
9C
100
AcDbEntity
  8
_U+30EC_U+30A4_U+30E4_U+30FC 1
 62
   179
420
  2234388
370
     9
100
AcDbVertex
100
AcDb2dVertex
 10
106.8179360844064
 20
-133.5642771888314
 30
0.0
  0
VERTEX
  5
9E
330
9C
100
AcDbEntity
  8
_U+30EC_U+30A4_U+30E4_U+30FC 1
 62
   179
420
  2234388
370
     9
100
AcDbVertex
100
AcDb2dVertex
 10
106.8179360844064
 20
-136.024761077105
 30
0.0
  0
SEQEND
  5
9F
330
9C
100
AcDbEntity
  8
_U+30EC_U+30A4_U+30E4_U+30FC 1
 62
   179
420
  2234388
370
     9
  0
INSERT
  5
A1
330
1F
100
AcDbEntity
  8
_U+30EC_U+30A4_U+30E4_U+30FC 1
100
AcDbBlockReference
  2
block 4
 10
0.0
 20
0.0
 30
0.0
  0
ENDSEC
  0
SECTION
  2
OBJECTS
  0
DICTIONARY
  5
C
330
0
100
AcDbDictionary
281
     1
  3
ACAD_GROUP
350
D
  3
ACAD_LAYOUT
350
1A
  3
ACAD_MATERIAL
350
3B
  3
ACAD_MLEADERSTYLE
350
AA
  3
ACAD_MLINESTYLE
350
17
  3
ACAD_PLOTSETTINGS
350
19
  3
ACAD_PLOTSTYLENAME
350
E
  3
ACAD_TABLESTYLE
350
A9
  3
ACAD_VISUALSTYLE
350
2A
  0
SUN
  5
3F
330
29
100
AcDbSun
 90
        1
290
     0
 63
     7
421
 16777215
 40
1.0
291
     1
 91
  2455826
 92
 54000000
292
     0
 70
     2
 71
   256
280
     1
  0
DICTIONARY
  5
D
102
{ACAD_REACTORS
330
C
102
}
330
C
100
AcDbDictionary
281
     1
  0
DICTIONARY
  5
1A
102
{ACAD_REACTORS
330
C
102
}
330
C
100
AcDbDictionary
281
     1
  3
Layout1
350
1E
  3
Layout2
350
26
  3
Model
350
22
  0
DICTIONARY
  5
3B
102
{ACAD_REACTORS
330
C
102
}
330
C
100
AcDbDictionary
281
     1
  3
ByBlock
350
3D
  3
ByLayer
350
3C
  3
Global
350
3E
  0
DICTIONARY
  5
AA
102
{ACAD_REACTORS
330
C
102
}
330
C
100
AcDbDictionary
281
     1
  0
DICTIONARY
  5
17
102
{ACAD_REACTORS
330
C
102
}
330
C
100
AcDbDictionary
281
     1
  3
Standard
350
18
  0
DICTIONARY
  5
19
102
{ACAD_REACTORS
330
C
102
}
330
C
100
AcDbDictionary
281
     1
  0
ACDBDICTIONARYWDFLT
  5
E
102
{ACAD_REACTORS
330
C
102
}
330
C
100
AcDbDictionary
281
     1
  3
Normal
350
F
100
AcDbDictionaryWithDefault
340
F
  0
DICTIONARY
  5
A9
102
{ACAD_REACTORS
330
C
102
}
330
C
100
AcDbDictionary
281
     1
  0
DICTIONARY
  5
2A
102
{ACAD_REACTORS
330
C
102
}
330
C
100
AcDbDictionary
281
     1
  3
2dWireframe
350
2F
  3
3D Hidden
350
31
  3
3dWireframe
350
30
  3
Basic
350
32
  3
Brighten
350
36
  3
ColorChange
350
3A
  3
Conceptual
350
34
  3
Dim
350
35
  3
Facepattern
350
39
  3
Flat
350
2B
  3
FlatWithEdges
350
2C
  3
Gouraud
350
2D
  3
GouraudWithEdges
350
2E
  3
Linepattern
350
38
  3
Realistic
350
33
  3
Thicken
350
37
  0
LAYOUT
  5
1E
102
{ACAD_REACTORS
330
1A
102
}
330
1A
100
AcDbPlotSettings
  1

  2
none_device
  4

  6

 40
0.0
 41
0.0
 42
0.0
 43
0.0
 44
0.0
 45
0.0
 46
0.0
 47
0.0
 48
0.0
 49
0.0
140
0.0
141
0.0
142
1.0
143
1.0
 70
   688
 72
     0
 73
     0
 74
     5
  7

 75
    16
 76
     0
 77
     2
 78
   300
147
1.0
148
0.0
149
0.0
100
AcDbLayout
  1
Layout1
 70
     1
 71
     1
 10
0.0
 20
0.0
 11
12.0
 21
9.0
 12
0.0
 22
0.0
 32
0.0
 14
1.000000000000000E+20
 24
1.000000000000000E+20
 34
1.000000000000000E+20
 15
-1.000000000000000E+20
 25
-1.000000000000000E+20
 35
-1.000000000000000E+20
146
0.0
 13
0.0
 23
0.0
 33
0.0
 16
1.0
 26
0.0
 36
0.0
 17
0.0
 27
1.0
 37
0.0
 76
     0
330
1B
  0
LAYOUT
  5
26
102
{ACAD_REACTORS
330
1A
102
}
330
1A
100
AcDbPlotSettings
  1

  2
none_device
  4

  6

 40
0.0
 41
0.0
 42
0.0
 43
0.0
 44
0.0
 45
0.0
 46
0.0
 47
0.0
 48
0.0
 49
0.0
140
0.0
141
0.0
142
1.0
143
1.0
 70
   688
 72
     0
 73
     0
 74
     5
  7

 75
    16
 76
     0
 77
     2
 78
   300
147
1.0
148
0.0
149
0.0
100
AcDbLayout
  1
Layout2
 70
     1
 71
     2
 10
0.0
 20
0.0
 11
0.0
 21
0.0
 12
0.0
 22
0.0
 32
0.0
 14
0.0
 24
0.0
 34
0.0
 15
0.0
 25
0.0
 35
0.0
146
0.0
 13
0.0
 23
0.0
 33
0.0
 16
1.0
 26
0.0
 36
0.0
 17
0.0
 27
1.0
 37
0.0
 76
     0
330
23
  0
LAYOUT
  5
22
102
{ACAD_REACTORS
330
1A
102
}
330
1A
100
AcDbPlotSettings
  1

  2
none_device
  4

  6

 40
0.0
 41
0.0
 42
0.0
 43
0.0
 44
0.0
 45
0.0
 46
0.0
 47
0.0
 48
0.0
 49
0.0
140
0.0
141
0.0
142
1.0
143
1.0
 70
  1712
 72
     0
 73
     0
 74
     0
  7

 75
     0
 76
     0
 77
     2
 78
   300
147
1.0
148
0.0
149
0.0
100
AcDbLayout
  1
Model
 70
     1
 71
     0
 10
0.0
 20
0.0
 11
12.0
 21
9.0
 12
0.0
 22
0.0
 32
0.0
 14
1.000000000000000E+20
 24
1.000000000000000E+20
 34
1.000000000000000E+20
 15
-1.000000000000000E+20
 25
-1.000000000000000E+20
 35
-1.000000000000000E+20
146
0.0
 13
0.0
 23
0.0
 33
0.0
 16
1.0
 26
0.0
 36
0.0
 17
0.0
 27
1.0
 37
0.0
 76
     0
330
1F
331
29
  0
MATERIAL
  5
3D
102
{ACAD_REACTORS
330
3B
102
}
330
3B
100
AcDbMaterial
  1
ByBlock
 72
     1
 94
      127
  0
MATERIAL
  5
3C
102
{ACAD_REACTORS
330
3B
102
}
330
3B
100
AcDbMaterial
  1
ByLayer
 72
     1
 94
      127
  0
MATERIAL
  5
3E
102
{ACAD_REACTORS
330
3B
102
}
330
3B
100
AcDbMaterial
  1
Global
 72
     1
 94
      127
  0
MLINESTYLE
  5
18
102
{ACAD_REACTORS
330
17
102
}
330
17
100
AcDbMlineStyle
  2
Standard
 70
     0
  3

 62
   256
 51
90.0
 52
90.0
 71
     2
 49
0.5
 62
   256
  6
BYLAYER
 49
-0.5
 62
   256
  6
BYLAYER
  0
ACDBPLACEHOLDER
  5
F
102
{ACAD_REACTORS
330
E
102
}
330
E
  0
VISUALSTYLE
  5
2F
102
{ACAD_REACTORS
330
2A
102
}
330
2A
100
AcDbVisualStyle
  2
2dWireframe
 70
     4
177
     2
291
     0
 71
     0
176
     1
 72
     2
176
     1
 73
     0
176
     1
 90
        0
176
     1
 40
-0.6
176
     1
 41
-30.0
176
     1
 62
     5
 63
     7
421
 16777215
176
     1
 74
     1
176
     1
 91
        4
176
     1
 64
     7
176
     1
 65
   257
176
     1
 75
     1
176
     1
175
     1
176
     1
 42
1.0
176
     1
 92
        0
176
     1
 66
   257
176
     1
 43
1.0
176
     1
 76
     1
176
     1
 77
     6
176
     1
 78
     2
176
     1
 67
     7
176
     1
 79
     5
176
     1
170
     0
176
     1
171
     0
176
     1
290
     0
176
     1
 93
        1
176
     1
 44
0.0
176
     1
173
     0
176
     1
  0
VISUALSTYLE
  5
31
102
{ACAD_REACTORS
330
2A
102
}
330
2A
100
AcDbVisualStyle
  2
3D Hidden
 70
     6
177
     2
291
     0
 71
     1
176
     1
 72
     2
176
     1
 73
     2
176
     1
 90
        0
176
     1
 40
-0.6
176
     1
 41
-30.0
176
     1
 62
     5
 63
     7
421
 16777215
176
     1
 74
     2
176
     1
 91
        2
176
     1
 64
     7
176
     1
 65
   257
176
     1
 75
     2
176
     1
175
     1
176
     1
 42
40.0
176
     1
 92
        0
176
     1
 66
   257
176
     1
 43
1.0
176
     1
 76
     1
176
     1
 77
     6
176
     1
 78
     2
176
     1
 67
     7
176
     1
 79
     3
176
     1
170
     0
176
     1
171
     0
176
     1
290
     0
176
     1
 93
        1
176
     1
 44
0.0
176
     1
173
     0
176
     1
  0
VISUALSTYLE
  5
30
102
{ACAD_REACTORS
330
2A
102
}
330
2A
100
AcDbVisualStyle
  2
3dWireframe
 70
     5
177
     2
291
     0
 71
     0
176
     1
 72
     2
176
     1
 73
     0
176
     1
 90
        0
176
     1
 40
-0.6
176
     1
 41
-30.0
176
     1
 62
     5
 63
     7
421
 16777215
176
     1
 74
     1
176
     1
 91
        4
176
     1
 64
     7
176
     1
 65
   257
176
     1
 75
     1
176
     1
175
     1
176
     1
 42
1.0
176
     1
 92
        0
176
     1
 66
   257
176
     1
 43
1.0
176
     1
 76
     1
176
     1
 77
     6
176
     1
 78
     2
176
     1
 67
     7
176
     1
 79
     5
176
     1
170
     0
176
     1
171
     0
176
     1
290
     0
176
     1
 93
        1
176
     1
 44
0.0
176
     1
173
     0
176
     1
  0
VISUALSTYLE
  5
32
102
{ACAD_REACTORS
330
2A
102
}
330
2A
100
AcDbVisualStyle
  2
Basic
 70
     7
177
     2
291
     1
 71
     1
176
     1
 72
     0
176
     1
 73
     1
176
     1
 90
        0
176
     1
 40
-0.6
176
     1
 41
-30.0
176
     1
 62
     5
 63
     7
421
 16777215
176
     1
 74
     0
176
     1
 91
        4
176
     1
 64
     7
176
     1
 65
   257
176
     1
 75
     1
176
     1
175
     1
176
     1
 42
1.0
176
     1
 92
        8
176
     1
 66
     7
176
     1
 43
1.0
176
     1
 76
     1
176
     1
 77
     6
176
     1
 78
     2
176
     1
 67
     7
176
     1
 79
     5
176
     1
170
     0
176
     1
171
     0
176
     1
290
     0
176
     1
 93
        1
176
     1
 44
0.0
176
     1
173
     0
176
     1
  0
VISUALSTYLE
  5
36
102
{ACAD_REACTORS
330
2A
102
}
330
2A
100
AcDbVisualStyle
  2
Brighten
 70
    12
177
     2
291
     1
 71
     2
176
     1
 72
     2
176
     1
 73
     0
176
     1
 90
        0
176
     1
 40
-0.6
176
     1
 41
-30.0
176
     1
 62
     5
 63
     7
421
 16777215
176
     1
 74
     1
176
     1
 91
        4
176
     1
 64
     7
176
     1
 65
   257
176
     1
 75
     1
176
     1
175
     1
176
     1
 42
1.0
176
     1
 92
        8
176
     1
 66
     7
176
     1
 43
1.0
176
     1
 76
     1
176
     1
 77
     6
176
     1
 78
     2
176
     1
 67
     7
176
     1
 79
     5
176
     1
170
     0
176
     1
171
     0
176
     1
290
     0
176
     1
 93
        1
176
     1
 44
50.0
176
     1
173
     0
176
     1
  0
VISUALSTYLE
  5
3A
102
{ACAD_REACTORS
330
2A
102
}
330
2A
100
AcDbVisualStyle
  2
ColorChange
 70
    16
177
     2
291
     1
 71
     2
176
     1
 72
     2
176
     1
 73
     3
176
     1
 90
        0
176
     1
 40
-0.6
176
     1
 41
-30.0
176
     1
 62
     5
 63
     8
421
  8421504
176
     1
 74
     1
176
     1
 91
        4
176
     1
 64
     7
176
     1
 65
   257
176
     1
 75
     1
176
     1
175
     1
176
     1
 42
1.0
176
     1
 92
        8
176
     1
 66
     8
424
  8421504
176
     1
 43
1.0
176
     1
 76
     1
176
     1
 77
     6
176
     1
 78
     2
176
     1
 67
     7
176
     1
 79
     5
176
     1
170
     0
176
     1
171
     0
176
     1
290
     0
176
     1
 93
        1
176
     1
 44
0.0
176
     1
173
     0
176
     1
  0
VISUALSTYLE
  5
34
102
{ACAD_REACTORS
330
2A
102
}
330
2A
100
AcDbVisualStyle
  2
Conceptual
 70
     9
177
     2
291
     0
 71
     3
176
     1
 72
     2
176
     1
 73
     0
176
     1
 90
        0
176
     1
 40
-0.6
176
     1
 41
-30.0
176
     1
 62
     5
 63
     7
421
 16777215
176
     1
 74
     2
176
     1
 91
        2
176
     1
 64
     7
176
     1
 65
   257
176
     1
 75
     1
176
     1
175
     1
176
     1
 42
40.0
176
     1
 92
        8
176
     1
 66
     7
176
     1
 43
1.0
176
     1
 76
     1
176
     1
 77
     6
176
     1
 78
     2
176
     1
 67
     7
176
     1
 79
     3
176
     1
170
     0
176
     1
171
     0
176
     1
290
     0
176
     1
 93
        1
176
     1
 44
0.0
176
     1
173
     0
176
     1
  0
VISUALSTYLE
  5
35
102
{ACAD_REACTORS
330
2A
102
}
330
2A
100
AcDbVisualStyle
  2
Dim
 70
    11
177
     2
291
     1
 71
     2
176
     1
 72
     2
176
     1
 73
     0
176
     1
 90
        0
176
     1
 40
-0.6
176
     1
 41
-30.0
176
     1
 62
     5
 63
     7
421
 16777215
176
     1
 74
     1
176
     1
 91
        4
176
     1
 64
     7
176
     1
 65
   257
176
     1
 75
     1
176
     1
175
     1
176
     1
 42
1.0
176
     1
 92
        8
176
     1
 66
     7
176
     1
 43
1.0
176
     1
 76
     1
176
     1
 77
     6
176
     1
 78
     2
176
     1
 67
     7
176
     1
 79
     5
176
     1
170
     0
176
     1
171
     0
176
     1
290
     0
176
     1
 93
        1
176
     1
 44
-50.0
176
     1
173
     0
176
     1
  0
VISUALSTYLE
  5
39
102
{ACAD_REACTORS
330
2A
102
}
330
2A
100
AcDbVisualStyle
  2
Facepattern
 70
    15
177
     2
291
     1
 71
     2
176
     1
 72
     2
176
     1
 73
     0
176
     1
 90
        0
176
     1
 40
-0.6
176
     1
 41
-30.0
176
     1
 62
     5
 63
     7
421
 16777215
176
     1
 74
     1
176
     1
 91
        4
176
     1
 64
     7
176
     1
 65
   257
176
     1
 75
     1
176
     1
175
     1
176
     1
 42
1.0
176
     1
 92
        8
176
     1
 66
     7
176
     1
 43
1.0
176
     1
 76
     1
176
     1
 77
     6
176
     1
 78
     2
176
     1
 67
     7
176
     1
 79
     5
176
     1
170
     0
176
     1
171
     0
176
     1
290
     0
176
     1
 93
        1
176
     1
 44
0.0
176
     1
173
     0
176
     1
  0
VISUALSTYLE
  5
2B
102
{ACAD_REACTORS
330
2A
102
}
330
2A
100
AcDbVisualStyle
  2
Flat
 70
     0
177
     2
291
     1
 71
     2
176
     1
 72
     1
176
     1
 73
     1
176
     1
 90
        2
176
     1
 40
-0.6
176
     1
 41
30.0
176
     1
 62
     5
 63
     7
421
 16777215
176
     1
 74
     0
176
     1
 91
        4
176
     1
 64
     7
176
     1
 65
   257
176
     1
 75
     1
176
     1
175
     1
176
     1
 42
1.0
176
     1
 92
        8
176
     1
 66
     7
176
     1
 43
1.0
176
     1
 76
     1
176
     1
 77
     6
176
     1
 78
     2
176
     1
 67
     7
176
     1
 79
     5
176
     1
170
     0
176
     1
171
     0
176
     1
290
     0
176
     1
 93
       13
176
     1
 44
0.0
176
     1
173
     0
176
     1
  0
VISUALSTYLE
  5
2C
102
{ACAD_REACTORS
330
2A
102
}
330
2A
100
AcDbVisualStyle
  2
FlatWithEdges
 70
     1
177
     2
291
     1
 71
     2
176
     1
 72
     1
176
     1
 73
     1
176
     1
 90
        2
176
     1
 40
-0.6
176
     1
 41
30.0
176
     1
 62
     5
 63
     7
421
 16777215
176
     1
 74
     1
176
     1
 91
        4
176
     1
 64
     7
176
     1
 65
   257
176
     1
 75
     1
176
     1
175
     1
176
     1
 42
1.0
176
     1
 92
        0
176
     1
 66
   257
176
     1
 43
1.0
176
     1
 76
     1
176
     1
 77
     6
176
     1
 78
     2
176
     1
 67
     7
176
     1
 79
     5
176
     1
170
     0
176
     1
171
     0
176
     1
290
     0
176
     1
 93
       13
176
     1
 44
0.0
176
     1
173
     0
176
     1
  0
VISUALSTYLE
  5
2D
102
{ACAD_REACTORS
330
2A
102
}
330
2A
100
AcDbVisualStyle
  2
Gouraud
 70
     2
177
     2
291
     1
 71
     2
176
     1
 72
     2
176
     1
 73
     1
176
     1
 90
        2
176
     1
 40
-0.6
176
     1
 41
30.0
176
     1
 62
     5
 63
     7
421
 16777215
176
     1
 74
     0
176
     1
 91
        4
176
     1
 64
     7
176
     1
 65
   257
176
     1
 75
     1
176
     1
175
     1
176
     1
 42
1.0
176
     1
 92
        0
176
     1
 66
     7
176
     1
 43
1.0
176
     1
 76
     1
176
     1
 77
     6
176
     1
 78
     2
176
     1
 67
     7
176
     1
 79
     5
176
     1
170
     0
176
     1
171
     0
176
     1
290
     0
176
     1
 93
       13
176
     1
 44
0.0
176
     1
173
     0
176
     1
  0
VISUALSTYLE
  5
2E
102
{ACAD_REACTORS
330
2A
102
}
330
2A
100
AcDbVisualStyle
  2
GouraudWithEdges
 70
     3
177
     2
291
     1
 71
     2
176
     1
 72
     2
176
     1
 73
     1
176
     1
 90
        2
176
     1
 40
-0.6
176
     1
 41
30.0
176
     1
 62
     5
 63
     7
421
 16777215
176
     1
 74
     1
176
     1
 91
        4
176
     1
 64
     7
176
     1
 65
   257
176
     1
 75
     1
176
     1
175
     1
176
     1
 42
1.0
176
     1
 92
        0
176
     1
 66
   257
176
     1
 43
1.0
176
     1
 76
     1
176
     1
 77
     6
176
     1
 78
     2
176
     1
 67
     7
176
     1
 79
     5
176
     1
170
     0
176
     1
171
     0
176
     1
290
     0
176
     1
 93
       13
176
     1
 44
0.0
176
     1
173
     0
176
     1
  0
VISUALSTYLE
  5
38
102
{ACAD_REACTORS
330
2A
102
}
330
2A
100
AcDbVisualStyle
  2
Linepattern
 70
    14
177
     2
291
     1
 71
     2
176
     1
 72
     2
176
     1
 73
     0
176
     1
 90
        0
176
     1
 40
-0.6
176
     1
 41
-30.0
176
     1
 62
     5
 63
     7
421
 16777215
176
     1
 74
     1
176
     1
 91
        4
176
     1
 64
     7
176
     1
 65
   257
176
     1
 75
     7
176
     1
175
     7
176
     1
 42
1.0
176
     1
 92
        8
176
     1
 66
     7
176
     1
 43
1.0
176
     1
 76
     1
176
     1
 77
     6
176
     1
 78
     2
176
     1
 67
     7
176
     1
 79
     5
176
     1
170
     0
176
     1
171
     0
176
     1
290
     0
176
     1
 93
        1
176
     1
 44
0.0
176
     1
173
     0
176
     1
  0
VISUALSTYLE
  5
33
102
{ACAD_REACTORS
330
2A
102
}
330
2A
100
AcDbVisualStyle
  2
Realistic
 70
     8
177
     2
291
     0
 71
     2
176
     1
 72
     2
176
     1
 73
     0
176
     1
 90
        0
176
     1
 40
-0.6
176
     1
 41
-30.0
176
     1
 62
     5
 63
     7
421
 16777215
176
     1
 74
     1
176
     1
 91
        0
176
     1
 64
     7
176
     1
 65
   257
176
     1
 75
     1
176
     1
175
     1
176
     1
 42
1.0
176
     1
 92
        8
176
     1
 66
     8
424
  7895160
176
     1
 43
1.0
176
     1
 76
     1
176
     1
 77
     6
176
     1
 78
     2
176
     1
 67
     7
176
     1
 79
     5
176
     1
170
     0
176
     1
171
     0
176
     1
290
     0
176
     1
 93
       13
176
     1
 44
0.0
176
     1
173
     0
176
     1
  0
VISUALSTYLE
  5
37
102
{ACAD_REACTORS
330
2A
102
}
330
2A
100
AcDbVisualStyle
  2
Thicken
 70
    13
177
     2
291
     1
 71
     2
176
     1
 72
     2
176
     1
 73
     0
176
     1
 90
        0
176
     1
 40
-0.6
176
     1
 41
-30.0
176
     1
 62
     5
 63
     7
421
 16777215
176
     1
 74
     1
176
     1
 91
        4
176
     1
 64
     7
176
     1
 65
   257
176
     1
 75
     1
176
     1
175
     1
176
     1
 42
1.0
176
     1
 92
       12
176
     1
 66
     7
176
     1
 43
1.0
176
     1
 76
     1
176
     1
 77
     6
176
     1
 78
     2
176
     1
 67
     7
176
     1
 79
     5
176
     1
170
     0
176
     1
171
     0
176
     1
290
     0
176
     1
 93
        1
176
     1
 44
0.0
176
     1
173
     0
176
     1
  0
ENDSEC
  0
EOF
