  0
SECTION
  2
HEADER
  9
$ACADVER
  1
AC1024
  9
$ACADMAINTVER
 70
     6
  9
$DWGCODEPAGE
  3
UNDEFINED
  9
$INSBASE
 10
0.0
 20
0.0
 30
0.0
  9
$EXTMIN
 10
1.000000000000000E+20
 20
1.000000000000000E+20
 30
1.000000000000000E+20
  9
$EXTMAX
 10
-1.000000000000000E+20
 20
-1.000000000000000E+20
 30
-1.000000000000000E+20
  9
$LIMMIN
 10
0.0
 20
0.0
  9
$LIMMAX
 10
12.0
 20
9.0
  9
$ORTHOMODE
 70
     0
  9
$REGENMODE
 70
     1
  9
$FILLMODE
 70
     1
  9
$QTEXTMODE
 70
     0
  9
$MIRRTEXT
 70
     1
  9
$LTSCALE
 40
1.0
  9
$ATTMODE
 70
     1
  9
$TEXTSIZE
 40
0.2
  9
$TRACEWID
 40
0.05
  9
$TEXTSTYLE
  7
Standard
  9
$CLAYER
  8
0
  9
$CELTYPE
  6
ByLayer
  9
$CECOLOR
 62
   256
  9
$CELTSCALE
 40
1.0
  9
$DISPSILH
 70
     0
  9
$DIMSCALE
 40
1.0
  9
$DIMASZ
 40
0.18
  9
$DIMEXO
 40
0.0625
  9
$DIMDLI
 40
0.38
  9
$DIMRND
 40
0.0
  9
$DIMDLE
 40
0.0
  9
$DIMEXE
 40
0.18
  9
$DIMTP
 40
0.0
  9
$DIMTM
 40
0.0
  9
$DIMTXT
 40
0.18
  9
$DIMCEN
 40
0.09
  9
$DIMTSZ
 40
0.0
  9
$DIMTOL
 70
     0
  9
$DIMLIM
 70
     0
  9
$DIMTIH
 70
     1
  9
$DIMTOH
 70
     1
  9
$DIMSE1
 70
     0
  9
$DIMSE2
 70
     0
  9
$DIMTAD
 70
     0
  9
$DIMZIN
 70
     0
  9
$DIMBLK
  1

  9
$DIMASO
 70
     1
  9
$DIMSHO
 70
     1
  9
$DIMPOST
  1

  9
$DIMAPOST
  1

  9
$DIMALT
 70
     0
  9
$DIMALTD
 70
     2
  9
$DIMALTF
 40
25.4
  9
$DIMLFAC
 40
1.0
  9
$DIMTOFL
 70
     0
  9
$DIMTVP
 40
0.0
  9
$DIMTIX
 70
     0
  9
$DIMSOXD
 70
     0
  9
$DIMSAH
 70
     0
  9
$DIMBLK1
  1

  9
$DIMBLK2
  1

  9
$DIMSTYLE
  2
Standard
  9
$DIMCLRD
 70
     0
  9
$DIMCLRE
 70
     0
  9
$DIMCLRT
 70
     0
  9
$DIMTFAC
 40
1.0
  9
$DIMGAP
 40
0.09
  9
$DIMJUST
 70
     0
  9
$DIMSD1
 70
     0
  9
$DIMSD2
 70
     0
  9
$DIMTOLJ
 70
     1
  9
$DIMTZIN
 70
     0
  9
$DIMALTZ
 70
     0
  9
$DIMALTTZ
 70
     0
  9
$DIMUPT
 70
     0
  9
$DIMDEC
 70
     4
  9
$DIMTDEC
 70
     4
  9
$DIMALTU
 70
     2
  9
$DIMALTTD
 70
     2
  9
$DIMTXSTY
  7
Standard
  9
$DIMAUNIT
 70
     0
  9
$DIMADEC
 70
     0
  9
$DIMALTRND
 40
0.0
  9
$DIMAZIN
 70
     0
  9
$DIMDSEP
 70
    46
  9
$DIMATFIT
 70
     3
  9
$DIMFRAC
 70
     0
  9
$DIMLDRBLK
  1

  9
$DIMLUNIT
 70
     2
  9
$DIMLWD
 70
    -2
  9
$DIMLWE
 70
    -2
  9
$DIMTMOVE
 70
     0
  9
$DIMFXL
 40
1.0
  9
$DIMFXLON
 70
     0
  9
$DIMJOGANG
 40
0.7853981633974483
  9
$DIMTFILL
 70
     0
  9
$DIMTFILLCLR
 70
     0
  9
$DIMARCSYM
 70
     0
  9
$DIMLTYPE
  6

  9
$DIMLTEX1
  6

  9
$DIMLTEX2
  6

  9
$DIMTXTDIRECTION
 70
     0
  9
$LUNITS
 70
     2
  9
$LUPREC
 70
     4
  9
$SKETCHINC
 40
0.1
  9
$FILLETRAD
 40
0.5
  9
$AUNITS
 70
     0
  9
$AUPREC
 70
     0
  9
$MENU
  1
.
  9
$ELEVATION
 40
0.0
  9
$PELEVATION
 40
0.0
  9
$THICKNESS
 40
0.0
  9
$LIMCHECK
 70
     0
  9
$CHAMFERA
 40
0.5
  9
$CHAMFERB
 40
0.5
  9
$CHAMFERC
 40
1.0
  9
$CHAMFERD
 40
0.0
  9
$SKPOLY
 70
     0
  9
$TDCREATE
 40
2457917.595775463
  9
$TDUCREATE
 40
2457917.220775463
  9
$TDUPDATE
 40
2457917.595775463
  9
$TDUUPDATE
 40
2457917.220775463
  9
$TDINDWG
 40
0.0000000116
  9
$TDUSRTIMER
 40
0.0000000116
  9
$USRTIMER
 70
     1
  9
$ANGBASE
 50
0.0
  9
$ANGDIR
 70
     0
  9
$PDMODE
 70
     0
  9
$PDSIZE
 40
0.0
  9
$PLINEWID
 40
0.0
  9
$SPLFRAME
 70
     0
  9
$SPLINETYPE
 70
     6
  9
$SPLINESEGS
 70
     8
  9
$HANDSEED
  5
AB
  9
$SURFTAB1
 70
     6
  9
$SURFTAB2
 70
     6
  9
$SURFTYPE
 70
     6
  9
$SURFU
 70
     6
  9
$SURFV
 70
     6
  9
$UCSBASE
  2

  9
$UCSNAME
  2

  9
$UCSORG
 10
0.0
 20
0.0
 30
0.0
  9
$UCSXDIR
 10
1.0
 20
0.0
 30
0.0
  9
$UCSYDIR
 10
0.0
 20
1.0
 30
0.0
  9
$UCSORTHOREF
  2

  9
$UCSORTHOVIEW
 70
     0
  9
$UCSORGTOP
 10
0.0
 20
0.0
 30
0.0
  9
$UCSORGBOTTOM
 10
0.0
 20
0.0
 30
0.0
  9
$UCSORGLEFT
 10
0.0
 20
0.0
 30
0.0
  9
$UCSORGRIGHT
 10
0.0
 20
0.0
 30
0.0
  9
$UCSORGFRONT
 10
0.0
 20
0.0
 30
0.0
  9
$UCSORGBACK
 10
0.0
 20
0.0
 30
0.0
  9
$PUCSBASE
  2

  9
$PUCSNAME
  2

  9
$PUCSORG
 10
0.0
 20
0.0
 30
0.0
  9
$PUCSXDIR
 10
1.0
 20
0.0
 30
0.0
  9
$PUCSYDIR
 10
0.0
 20
1.0
 30
0.0
  9
$PUCSORTHOREF
  2

  9
$PUCSORTHOVIEW
 70
     0
  9
$PUCSORGTOP
 10
0.0
 20
0.0
 30
0.0
  9
$PUCSORGBOTTOM
 10
0.0
 20
0.0
 30
0.0
  9
$PUCSORGLEFT
 10
0.0
 20
0.0
 30
0.0
  9
$PUCSORGRIGHT
 10
0.0
 20
0.0
 30
0.0
  9
$PUCSORGFRONT
 10
0.0
 20
0.0
 30
0.0
  9
$PUCSORGBACK
 10
0.0
 20
0.0
 30
0.0
  9
$USERI1
 70
     0
  9
$USERI2
 70
     0
  9
$USERI3
 70
     0
  9
$USERI4
 70
     0
  9
$USERI5
 70
     0
  9
$USERR1
 40
0.0
  9
$USERR2
 40
0.0
  9
$USERR3
 40
0.0
  9
$USERR4
 40
0.0
  9
$USERR5
 40
0.0
  9
$WORLDVIEW
 70
     1
  9
$SHADEDGE
 70
     3
  9
$SHADEDIF
 70
    70
  9
$TILEMODE
 70
     1
  9
$MAXACTVP
 70
    64
  9
$PINSBASE
 10
0.0
 20
0.0
 30
0.0
  9
$PLIMCHECK
 70
     0
  9
$PEXTMIN
 10
1.000000000000000E+20
 20
1.000000000000000E+20
 30
1.000000000000000E+20
  9
$PEXTMAX
 10
-1.000000000000000E+20
 20
-1.000000000000000E+20
 30
-1.000000000000000E+20
  9
$PLIMMIN
 10
0.0
 20
0.0
  9
$PLIMMAX
 10
12.0
 20
9.0
  9
$UNITMODE
 70
     0
  9
$VISRETAIN
 70
     1
  9
$PLINEGEN
 70
     0
  9
$PSLTSCALE
 70
     1
  9
$TREEDEPTH
 70
  3020
  9
$CMLSTYLE
  2
Standard
  9
$CMLJUST
 70
     0
  9
$CMLSCALE
 40
1.0
  9
$PROXYGRAPHICS
 70
     1
  9
$MEASUREMENT
 70
     0
  9
$CELWEIGHT
370
    -1
  9
$ENDCAPS
280
     0
  9
$JOINSTYLE
280
     0
  9
$LWDISPLAY
290
     1
  9
$INSUNITS
 70
     1
  9
$HYPERLINKBASE
  1

  9
$STYLESHEET
  1

  9
$XEDIT
290
     1
  9
$CEPSNTYPE
380
     0
  9
$PSTYLEMODE
290
     1
  9
$FINGERPRINTGUID
  2
{FA2C3DE2-B328-A2D9-F892-A8B8F29E6310}
  9
$VERSIONGUID
  2
{FAEB1C32-E019-11D5-929B-00C0DF256EC4}
  9
$EXTNAMES
290
     1
  9
$PSVPSCALE
 40
0.0
  9
$OLESTARTUP
290
     0
  9
$SORTENTS
280
   127
  9
$INDEXCTL
280
     0
  9
$HIDETEXT
280
     1
  9
$XCLIPFRAME
280
     2
  9
$HALOGAP
280
     0
  9
$OBSCOLOR
 70
   257
  9
$OBSLTYPE
280
     0
  9
$INTERSECTIONDISPLAY
280
     0
  9
$INTERSECTIONCOLOR
 70
   257
  9
$DIMASSOC
280
     2
  9
$PROJECTNAME
  1

  9
$CAMERADISPLAY
290
     0
  9
$LENSLENGTH
 40
50.0
  9
$CAMERAHEIGHT
 40
0.0
  9
$STEPSPERSEC
 40
2.0
  9
$STEPSIZE
 40
6.0
  9
$3DDWFPREC
 40
2.0
  9
$PSOLWIDTH
 40
0.25
  9
$PSOLHEIGHT
 40
4.0
  9
$LOFTANG1
 40
1.570796326794897
  9
$LOFTANG2
 40
1.570796326794897
  9
$LOFTMAG1
 40
0.0
  9
$LOFTMAG2
 40
0.0
  9
$LOFTPARAM
 70
     7
  9
$LOFTNORMALS
280
     1
  9
$LATITUDE
 40
37.795
  9
$LONGITUDE
 40
-122.394
  9
$NORTHDIRECTION
 40
0.0
  9
$TIMEZONE
 70
 -8000
  9
$LIGHTGLYPHDISPLAY
280
     1
  9
$TILEMODELIGHTSYNCH
280
     1
  9
$CMATERIAL
347
3C
  9
$SOLIDHIST
280
     1
  9
$SHOWHIST
280
     1
  9
$DWFFRAME
280
     2
  9
$DGNFRAME
280
     2
  9
$REALWORLDSCALE
290
     1
  9
$INTERFERECOLOR
 62
   256
  9
$CSHADOW
280
     0
  9
$SHADOWPLANELOCATION
 40
0.0
  0
ENDSEC
  0
SECTION
  2
CLASSES
  0
CLASS
  1
ACDBDICTIONARYWDFLT
  2
AcDbDictionaryWithDefault
  3
ObjectDBX Classes
 90
        0
 91
        4
280
     0
281
     0
  0
CLASS
  1
VISUALSTYLE
  2
AcDbVisualStyle
  3
ObjectDBX Classes
 90
     4095
 91
        4
280
     0
281
     0
  0
CLASS
  1
MATERIAL
  2
AcDbMaterial
  3
ObjectDBX Classes
 90
     1153
 91
        4
280
     0
281
     0
  0
CLASS
  1
SUN
  2
AcDbSun
  3
SCENEOE
 90
     1024
 91
        4
280
     0
281
     0
  0
ENDSEC
  0
SECTION
  2
TABLES
  0
TABLE
  2
VPORT
  5
8
330
0
100
AcDbSymbolTable
 70
     1
  0
VPORT
  5
29
330
8
100
AcDbSymbolTableRecord
100
AcDbViewportTableRecord
  2
*Active
 70
     0
 10
0.0
 20
0.0
 11
1.0
 21
1.0
 12
0.0
 22
0.0
 13
0.0
 23
0.0
 14
0.5
 24
0.5
 15
0.5
 25
0.5
 16
0.0
 26
0.0
 36
1.0
 17
91.00082462281999
 27
-128.4993055234307
 37
0.0
 40
256.9986110468615
 41
0.7081814508812795
 42
50.0
 43
0.0
 44
0.0
 50
0.0
 51
0.0
 71
     0
 72
   100
 73
     1
 74
     3
 75
     0
 76
     0
 77
     0
 78
     0
281
     0
 65
     1
110
0.0
120
0.0
130
0.0
111
1.0
121
0.0
131
0.0
112
0.0
122
1.0
132
0.0
 79
     0
146
0.0
 60
     3
 61
     5
292
     1
282
     1
141
0.0
142
0.0
 63
   250
361
3F
  0
ENDTAB
  0
TABLE
  2
LTYPE
  5
5
330
0
100
AcDbSymbolTable
 70
     1
  0
LTYPE
  5
14
330
5
100
AcDbSymbolTableRecord
100
AcDbLinetypeTableRecord
  2
ByBlock
 70
     0
  3

 72
    65
 73
     0
 40
0.0
  0
LTYPE
  5
15
330
5
100
AcDbSymbolTableRecord
100
AcDbLinetypeTableRecord
  2
ByLayer
 70
     0
  3

 72
    65
 73
     0
 40
0.0
  0
LTYPE
  5
16
330
5
100
AcDbSymbolTableRecord
100
AcDbLinetypeTableRecord
  2
Continuous
 70
     0
  3
Solid line
 72
    65
 73
     0
 40
0.0
  0
ENDTAB
  0
TABLE
  2
LAYER
  5
2
330
0
100
AcDbSymbolTable
 70
     2
  0
LAYER
  5
10
330
2
100
AcDbSymbolTableRecord
100
AcDbLayerTableRecord
  2
0
 70
     0
 62
     7
  6
Continuous
370
    -3
390
F
347
3E
  0
LAYER
  5
40
330
2
100
AcDbSymbolTableRecord
100
AcDbLayerTableRecord
  2
_U+30EC_U+30A4_U+30E4_U+30FC 1
 70
     0
 62
     7
  6
Continuous
370
    -3
390
F
347
3E
  0
ENDTAB
  0
TABLE
  2
STYLE
  5
3
330
0
100
AcDbSymbolTable
 70
     1
  0
STYLE
  5
11
330
3
100
AcDbSymbolTableRecord
100
AcDbTextStyleTableRecord
  2
Standard
 70
     0
 40
0.0
 41
1.0
 50
0.0
 71
     0
 42
0.2
  3
txt
  4

  0
ENDTAB
  0
TABLE
  2
VIEW
  5
6
330
0
100
AcDbSymbolTable
 70
     0
  0
ENDTAB
  0
TABLE
  2
UCS
  5
7
330
0
100
AcDbSymbolTable
 70
     0
  0
ENDTAB
  0
TABLE
  2
APPID
  5
9
330
0
100
AcDbSymbolTable
 70
     1
  0
APPID
  5
12
330
9
100
AcDbSymbolTableRecord
100
AcDbRegAppTableRecord
  2
ACAD
 70
     0
  0
ENDTAB
  0
TABLE
  2
DIMSTYLE
  5
A
330
0
100
AcDbSymbolTable
 70
     1
100
AcDbDimStyleTable
  0
DIMSTYLE
105
27
330
A
100
AcDbSymbolTableRecord
100
AcDbDimStyleTableRecord
  2
Standard
 70
     0
178
     0
340
11
  0
ENDTAB
  0
TABLE
  2
BLOCK_RECORD
  5
1
330
0
100
AcDbSymbolTable
 70
     4
  0
BLOCK_RECORD
  5
1F
330
1
100
AcDbSymbolTableRecord
100
AcDbBlockTableRecord
  2
*Model_Space
340
22
 70
     0
280
     1
281
     0
  0
BLOCK_RECORD
  5
1B
330
1
100
AcDbSymbolTableRecord
100
AcDbBlockTableRecord
  2
*Paper_Space
340
1E
 70
     0
280
     1
281
     0
  0
BLOCK_RECORD
  5
23
330
1
100
AcDbSymbolTableRecord
100
AcDbBlockTableRecord
  2
*Paper_Space0
340
26
 70
     0
280
     1
281
     0
  0
BLOCK_RECORD
  5
71
330
1
100
AcDbSymbolTableRecord
100
AcDbBlockTableRecord
  2
block 2
340
0
102
{BLKREFS
331
72
102
}
 70
     0
280
     1
281
     0
  0
BLOCK_RECORD
  5
8D
330
1
100
AcDbSymbolTableRecord
100
AcDbBlockTableRecord
  2
block 3
340
0
102
{BLKREFS
331
8E
102
}
 70
     0
280
     1
281
     0
  0
BLOCK_RECORD
  5
A1
330
1
100
AcDbSymbolTableRecord
100
AcDbBlockTableRecord
  2
block 4
340
0
102
{BLKREFS
331
A2
102
}
 70
     0
280
     1
281
     0
  0
ENDTAB
  0
ENDSEC
  0
SECTION
  2
BLOCKS
  0
BLOCK
  5
20
330
1F
100
AcDbEntity
  8
0
100
AcDbBlockBegin
  2
*Model_Space
 70
     0
 10
0.0
 20
0.0
 30
0.0
  3
*Model_Space
  1

  0
ENDBLK
  5
21
330
1F
100
AcDbEntity
  8
0
100
AcDbBlockEnd
  0
BLOCK
  5
1C
330
1B
100
AcDbEntity
 67
     1
  8
0
100
AcDbBlockBegin
  2
*Paper_Space
 70
     0
 10
0.0
 20
0.0
 30
0.0
  3
*Paper_Space
  1

  0
ENDBLK
  5
1D
330
1B
100
AcDbEntity
 67
     1
  8
0
100
AcDbBlockEnd
  0
BLOCK
  5
24
330
23
100
AcDbEntity
  8
0
100
AcDbBlockBegin
  2
*Paper_Space0
 70
     0
 10
0.0
 20
0.0
 30
0.0
  3
*Paper_Space0
  1

  0
ENDBLK
  5
25
330
23
100
AcDbEntity
  8
0
100
AcDbBlockEnd
  0
BLOCK
  5
73
330
71
100
AcDbEntity
  8
0
100
AcDbBlockBegin
  2
block 2
 70
     0
 10
0.0
 20
0.0
 30
0.0
  3
block 2
  1

  0
SPLINE
  5
75
330
71
100
AcDbEntity
  8
_U+30EC_U+30A4_U+30E4_U+30FC 1
370
     0
100
AcDbSpline
210
0.0
220
0.0
230
1.0
 70
    11
 71
     3
 72
    26
 73
    22
 74
     0
 42
0.0000000001
 43
0.0000000001
 12
1.0
 22
0.0
 32
0.0
 13
1.0
 23
0.0
 33
0.0
 40
0.0
 40
0.0
 40
0.0
 40
0.0
 40
1.0
 40
1.0
 40
1.0
 40
2.0
 40
2.0
 40
2.0
 40
3.0
 40
3.0
 40
3.0
 40
4.0
 40
4.0
 40
4.0
 40
5.0
 40
5.0
 40
5.0
 40
6.0
 40
6.0
 40
6.0
 40
7.0
 40
7.0
 40
7.0
 40
7.0
 10
106.9233615184081
 20
-134.4582871842674
 30
0.0
 10
106.9233615184081
 20
-134.4582871842674
 30
0.0
 10
105.8192084153855
 20
-134.4582871842674
 30
0.0
 10
105.8192084153855
 20
-134.4582871842674
 30
0.0
 10
105.8192084153855
 20
-134.4582871842674
 30
0.0
 10
105.8192084153855
 20
-134.7438855999946
 30
0.0
 10
105.8192084153855
 20
-134.7438855999946
 30
0.0
 10
105.8192084153855
 20
-134.7438855999946
 30
0.0
 10
105.6710693095197
 20
-134.7438855999946
 30
0.0
 10
105.6710693095197
 20
-134.7438855999946
 30
0.0
 10
105.6562553989332
 20
-134.4565646365247
 30
0.0
 10
105.4933023824808
 20
-134.4162570193473
 30
0.0
 10
105.3789252123705
 20
-134.3907633127565
 30
0.0
 10
105.3789252123705
 20
-134.3907633127565
 30
0.0
 10
105.3789252123705
 20
-134.2643283084478
 30
0.0
 10
105.3789252123705
 20
-134.2643283084478
 30
0.0
 10
105.3789252123705
 20
-134.2643283084478
 30
0.0
 10
106.9233615184081
 20
-134.2643283084478
 30
0.0
 10
106.9233615184081
 20
-134.2643283084478
 30
0.0
 10
106.9233615184081
 20
-134.2643283084478
 30
0.0
 10
106.9233615184081
 20
-134.4582871842674
 30
0.0
 10
106.9233615184081
 20
-134.4582871842674
 30
0.0
  0
HATCH
  5
76
330
71
100
AcDbEntity
  8
_U+30EC_U+30A4_U+30E4_U+30FC 1
 62
   179
420
  2234388
100
AcDbHatch
 10
0.0
 20
0.0
 30
0.0
210
0.0
220
0.0
230
1.0
  2
SOLID
 70
     1
 71
     0
 91
        1
 92
        1
 93
        1
 72
     4
 94
        3
 73
     0
 74
     1
 95
       26
 96
       22
 40
0.0
 40
0.0
 40
0.0
 40
0.0
 40
1.0
 40
1.0
 40
1.0
 40
2.0
 40
2.0
 40
2.0
 40
3.0
 40
3.0
 40
3.0
 40
4.0
 40
4.0
 40
4.0
 40
5.0
 40
5.0
 40
5.0
 40
6.0
 40
6.0
 40
6.0
 40
7.0
 40
7.0
 40
7.0
 40
7.0
 10
106.9233615184081
 20
-134.4582871842674
 10
106.9233615184081
 20
-134.4582871842674
 10
105.8192084153855
 20
-134.4582871842674
 10
105.8192084153855
 20
-134.4582871842674
 10
105.8192084153855
 20
-134.4582871842674
 10
105.8192084153855
 20
-134.7438855999946
 10
105.8192084153855
 20
-134.7438855999946
 10
105.8192084153855
 20
-134.7438855999946
 10
105.6710693095197
 20
-134.7438855999946
 10
105.6710693095197
 20
-134.7438855999946
 10
105.6562553989332
 20
-134.4565646365247
 10
105.4933023824808
 20
-134.4162570193473
 10
105.3789252123705
 20
-134.3907633127565
 10
105.3789252123705
 20
-134.3907633127565
 10
105.3789252123705
 20
-134.2643283084478
 10
105.3789252123705
 20
-134.2643283084478
 10
105.3789252123705
 20
-134.2643283084478
 10
106.9233615184081
 20
-134.2643283084478
 10
106.9233615184081
 20
-134.2643283084478
 10
106.9233615184081
 20
-134.2643283084478
 10
106.9233615184081
 20
-134.4582871842674
 10
106.9233615184081
 20
-134.4582871842674
 97
        0
 97
        0
 75
     2
 76
     1
 98
        0
  0
POLYLINE
  5
77
330
71
100
AcDbEntity
  8
_U+30EC_U+30A4_U+30E4_U+30FC 1
370
     0
100
AcDb2dPolyline
 66
     1
 10
0.0
 20
0.0
 30
0.0
  0
VERTEX
  5
78
330
77
100
AcDbEntity
  8
_U+30EC_U+30A4_U+30E4_U+30FC 1
370
     0
100
AcDbVertex
100
AcDb2dVertex
 10
106.9233615184081
 20
-133.7796033736732
 30
0.0
  0
VERTEX
  5
79
330
77
100
AcDbEntity
  8
_U+30EC_U+30A4_U+30E4_U+30FC 1
370
     0
100
AcDbVertex
100
AcDb2dVertex
 10
106.6715250384363
 20
-133.7796033736732
 30
0.0
  0
VERTEX
  5
7A
330
77
100
AcDbEntity
  8
_U+30EC_U+30A4_U+30E4_U+30FC 1
370
     0
100
AcDbVertex
100
AcDb2dVertex
 10
106.6715250384363
 20
-133.5618733390054
 30
0.0
  0
VERTEX
  5
7B
330
77
100
AcDbEntity
  8
_U+30EC_U+30A4_U+30E4_U+30FC 1
370
     0
100
AcDbVertex
100
AcDb2dVertex
 10
106.9233615184081
 20
-133.5618733390054
 30
0.0
  0
VERTEX
  5
7C
330
77
100
AcDbEntity
  8
_U+30EC_U+30A4_U+30E4_U+30FC 1
370
     0
100
AcDbVertex
100
AcDb2dVertex
 10
106.9233615184081
 20
-133.7796033736732
 30
0.0
  0
SEQEND
  5
7D
330
77
100
AcDbEntity
  8
_U+30EC_U+30A4_U+30E4_U+30FC 1
370
     0
  0
HATCH
  5
7E
330
71
100
AcDbEntity
  8
_U+30EC_U+30A4_U+30E4_U+30FC 1
 62
   179
420
  2234388
100
AcDbHatch
 10
0.0
 20
0.0
 30
0.0
210
0.0
220
0.0
230
1.0
  2
SOLID
 70
     1
 71
     0
 91
        1
 92
        1
 93
        4
 72
     1
 10
106.9233615184081
 20
-133.7796033736732
 11
106.6715250384363
 21
-133.7796033736732
 72
     1
 10
106.6715250384363
 20
-133.7796033736732
 11
106.6715250384363
 21
-133.5618733390054
 72
     1
 10
106.6715250384363
 20
-133.5618733390054
 11
106.9233615184081
 21
-133.5618733390054
 72
     1
 10
106.9233615184081
 20
-133.5618733390054
 11
106.9233615184081
 21
-133.7796033736732
 97
        0
 75
     2
 76
     1
 98
        0
  0
SPLINE
  5
7F
330
71
100
AcDbEntity
  8
_U+30EC_U+30A4_U+30E4_U+30FC 1
370
     0
100
AcDbSpline
210
0.0
220
0.0
230
1.0
 70
    11
 71
     3
 72
    53
 73
    49
 74
     0
 42
0.0000000001
 43
0.0000000001
 12
1.0
 22
0.0
 32
0.0
 13
1.0
 23
0.0
 33
0.0
 40
0.0
 40
0.0
 40
0.0
 40
0.0
 40
1.0
 40
1.0
 40
1.0
 40
2.0
 40
2.0
 40
2.0
 40
3.0
 40
3.0
 40
3.0
 40
4.0
 40
4.0
 40
4.0
 40
5.0
 40
5.0
 40
5.0
 40
6.0
 40
6.0
 40
6.0
 40
7.0
 40
7.0
 40
7.0
 40
8.0
 40
8.0
 40
8.0
 40
9.0
 40
9.0
 40
9.0
 40
10.0
 40
10.0
 40
10.0
 40
11.0
 40
11.0
 40
11.0
 40
12.0
 40
12.0
 40
12.0
 40
13.0
 40
13.0
 40
13.0
 40
14.0
 40
14.0
 40
14.0
 40
15.0
 40
15.0
 40
15.0
 40
16.0
 40
16.0
 40
16.0
 40
16.0
 10
106.9740044220412
 20
-132.9417561516604
 30
0.0
 10
106.9740044220412
 20
-133.0092800231713
 30
0.0
 10
106.9571234541635
 20
-133.0974744675937
 30
0.0
 10
106.8937336972349
 20
-133.184979892919
 30
0.0
 10
106.7838351512554
 20
-133.3351860560759
 30
0.0
 10
106.6525770132674
 20
-133.3534450621478
 30
0.0
 10
106.5447455245791
 20
-133.369981520477
 30
0.0
 10
106.5447455245791
 20
-133.369981520477
 30
0.0
 10
106.5447455245791
 20
-133.1777451924
 30
0.0
 10
106.5447455245791
 20
-133.1777451924
 30
0.0
 10
106.743527534078
 20
-133.1302028747036
 30
0.0
 10
106.7731553552512
 20
-133.0203043287241
 30
0.0
 10
106.7731553552512
 20
-132.9400336039178
 30
0.0
 10
106.7731553552512
 20
-132.8191107523855
 30
0.0
 10
106.6735920957274
 20
-132.687508104849
 30
0.0
 10
106.4410481504731
 20
-132.687508104849
 30
0.0
 10
106.185077555919
 20
-132.687508104849
 30
0.0
 10
106.1151421175684
 20
-132.8428819112337
 30
0.0
 10
106.1151421175684
 20
-132.9472683044368
 30
0.0
 10
106.1151421175684
 20
-132.9748290683188
 30
0.0
 10
106.1151421175684
 20
-133.0974744675937
 30
0.0
 10
106.2443331982653
 20
-133.1743000969148
 30
0.0
 10
106.2443331982653
 20
-133.1743000969148
 30
0.0
 10
106.2253851730964
 20
-133.3262288078143
 30
0.0
 10
106.2253851730964
 20
-133.3262288078143
 30
0.0
 10
106.2253851730964
 20
-133.3262288078143
 30
0.0
 10
105.3789252123705
 20
-133.2218424146112
 30
0.0
 10
105.3789252123705
 20
-133.2218424146112
 30
0.0
 10
105.3789252123705
 20
-133.2218424146112
 30
0.0
 10
105.3789252123705
 20
-132.5483262472449
 30
0.0
 10
105.3789252123705
 20
-132.5483262472449
 30
0.0
 10
105.3789252123705
 20
-132.5483262472449
 30
0.0
 10
105.5735731072872
 20
-132.5483262472449
 30
0.0
 10
105.5735731072872
 20
-132.5483262472449
 30
0.0
 10
105.5735731072872
 20
-132.5483262472449
 30
0.0
 10
105.5735731072872
 20
-133.0809380092645
 30
0.0
 10
105.5735731072872
 20
-133.0809380092645
 30
0.0
 10
105.5735731072872
 20
-133.0809380092645
 30
0.0
 10
105.9966308328759
 20
-133.1374375752226
 30
0.0
 10
105.9966308328759
 20
-133.1374375752226
 30
0.0
 10
105.9628688971204
 20
-133.0843831047497
 30
0.0
 10
105.922561279943
 20
-133.0130696282051
 30
0.0
 10
105.922561279943
 20
-132.9107502922932
 30
0.0
 10
105.922561279943
 20
-132.6909532003342
 30
0.0
 10
106.108940945695
 20
-132.4859700189618
 30
0.0
 10
106.4221001253042
 20
-132.4859700189618
 30
0.0
 10
106.7393934194957
 20
-132.4859700189618
 30
0.0
 10
106.9740044220412
 20
-132.6799288947814
 30
0.0
 10
106.9740044220412
 20
-132.9417561516604
 30
0.0
  0
HATCH
  5
80
330
71
100
AcDbEntity
  8
_U+30EC_U+30A4_U+30E4_U+30FC 1
 62
   179
420
  2234388
100
AcDbHatch
 10
0.0
 20
0.0
 30
0.0
210
0.0
220
0.0
230
1.0
  2
SOLID
 70
     1
 71
     0
 91
        1
 92
        1
 93
        1
 72
     4
 94
        3
 73
     0
 74
     1
 95
       53
 96
       49
 40
0.0
 40
0.0
 40
0.0
 40
0.0
 40
1.0
 40
1.0
 40
1.0
 40
2.0
 40
2.0
 40
2.0
 40
3.0
 40
3.0
 40
3.0
 40
4.0
 40
4.0
 40
4.0
 40
5.0
 40
5.0
 40
5.0
 40
6.0
 40
6.0
 40
6.0
 40
7.0
 40
7.0
 40
7.0
 40
8.0
 40
8.0
 40
8.0
 40
9.0
 40
9.0
 40
9.0
 40
10.0
 40
10.0
 40
10.0
 40
11.0
 40
11.0
 40
11.0
 40
12.0
 40
12.0
 40
12.0
 40
13.0
 40
13.0
 40
13.0
 40
14.0
 40
14.0
 40
14.0
 40
15.0
 40
15.0
 40
15.0
 40
16.0
 40
16.0
 40
16.0
 40
16.0
 10
106.9740044220412
 20
-132.9417561516604
 10
106.9740044220412
 20
-133.0092800231713
 10
106.9571234541635
 20
-133.0974744675937
 10
106.8937336972349
 20
-133.184979892919
 10
106.7838351512554
 20
-133.3351860560759
 10
106.6525770132674
 20
-133.3534450621478
 10
106.5447455245791
 20
-133.369981520477
 10
106.5447455245791
 20
-133.369981520477
 10
106.5447455245791
 20
-133.1777451924
 10
106.5447455245791
 20
-133.1777451924
 10
106.743527534078
 20
-133.1302028747036
 10
106.7731553552512
 20
-133.0203043287241
 10
106.7731553552512
 20
-132.9400336039178
 10
106.7731553552512
 20
-132.8191107523855
 10
106.6735920957274
 20
-132.687508104849
 10
106.4410481504731
 20
-132.687508104849
 10
106.185077555919
 20
-132.687508104849
 10
106.1151421175684
 20
-132.8428819112337
 10
106.1151421175684
 20
-132.9472683044368
 10
106.1151421175684
 20
-132.9748290683188
 10
106.1151421175684
 20
-133.0974744675937
 10
106.2443331982653
 20
-133.1743000969148
 10
106.2443331982653
 20
-133.1743000969148
 10
106.2253851730964
 20
-133.3262288078143
 10
106.2253851730964
 20
-133.3262288078143
 10
106.2253851730964
 20
-133.3262288078143
 10
105.3789252123705
 20
-133.2218424146112
 10
105.3789252123705
 20
-133.2218424146112
 10
105.3789252123705
 20
-133.2218424146112
 10
105.3789252123705
 20
-132.5483262472449
 10
105.3789252123705
 20
-132.5483262472449
 10
105.3789252123705
 20
-132.5483262472449
 10
105.5735731072872
 20
-132.5483262472449
 10
105.5735731072872
 20
-132.5483262472449
 10
105.5735731072872
 20
-132.5483262472449
 10
105.5735731072872
 20
-133.0809380092645
 10
105.5735731072872
 20
-133.0809380092645
 10
105.5735731072872
 20
-133.0809380092645
 10
105.9966308328759
 20
-133.1374375752226
 10
105.9966308328759
 20
-133.1374375752226
 10
105.9628688971204
 20
-133.0843831047497
 10
105.922561279943
 20
-133.0130696282051
 10
105.922561279943
 20
-132.9107502922932
 10
105.922561279943
 20
-132.6909532003342
 10
106.108940945695
 20
-132.4859700189618
 10
106.4221001253042
 20
-132.4859700189618
 10
106.7393934194957
 20
-132.4859700189618
 10
106.9740044220412
 20
-132.6799288947814
 10
106.9740044220412
 20
-132.9417561516604
 97
        0
 97
        0
 75
     2
 76
     1
 98
        0
  0
ENDBLK
  5
74
330
71
100
AcDbEntity
  8
0
100
AcDbBlockEnd
  0
BLOCK
  5
8F
330
8D
100
AcDbEntity
  8
0
100
AcDbBlockBegin
  2
block 3
 70
     0
 10
0.0
 20
0.0
 30
0.0
  3
block 3
  1

  0
SPLINE
  5
91
330
8D
100
AcDbEntity
  8
_U+30EC_U+30A4_U+30E4_U+30FC 1
370
     0
100
AcDbSpline
210
0.0
220
0.0
230
1.0
 70
    11
 71
     3
 72
    44
 73
    40
 74
     0
 42
0.0000000001
 43
0.0000000001
 12
1.0
 22
0.0
 32
0.0
 13
1.0
 23
0.0
 33
0.0
 40
0.0
 40
0.0
 40
0.0
 40
0.0
 40
1.0
 40
1.0
 40
1.0
 40
2.0
 40
2.0
 40
2.0
 40
3.0
 40
3.0
 40
3.0
 40
4.0
 40
4.0
 40
4.0
 40
5.0
 40
5.0
 40
5.0
 40
6.0
 40
6.0
 40
6.0
 40
7.0
 40
7.0
 40
7.0
 40
8.0
 40
8.0
 40
8.0
 40
9.0
 40
9.0
 40
9.0
 40
10.0
 40
10.0
 40
10.0
 40
11.0
 40
11.0
 40
11.0
 40
12.0
 40
12.0
 40
12.0
 40
13.0
 40
13.0
 40
13.0
 40
13.0
 10
91.59130857085218
 20
-141.2520154811801
 30
0.0
 10
91.40251733826048
 20
-141.4108343830501
 30
0.0
 10
91.3220743586799
 20
-141.4849039359829
 30
0.0
 10
91.28004419375985
 20
-141.6285644177179
 30
0.0
 10
91.28004419375985
 20
-141.6285644177179
 30
0.0
 10
91.95338810635194
 20
-141.6285644177179
 30
0.0
 10
91.95338810635194
 20
-141.6285644177179
 30
0.0
 10
91.95338810635194
 20
-141.6285644177179
 30
0.0
 10
91.95338810635194
 20
-141.8338921086388
 30
0.0
 10
91.95338810635194
 20
-141.8338921086388
 30
0.0
 10
91.95338810635194
 20
-141.8338921086388
 30
0.0
 10
91.06403670683468
 20
-141.8338921086388
 30
0.0
 10
91.06403670683468
 20
-141.8338921086388
 30
0.0
 10
91.09125296116817
 20
-141.4762911972698
 30
0.0
 10
91.14809703667478
 20
-141.3980875297547
 30
0.0
 10
91.4814100248727
 20
-141.099742260732
 30
0.0
 10
91.70292966457427
 20
-140.9009602512331
 30
0.0
 10
91.75942923053238
 20
-140.8330918701737
 30
0.0
 10
91.75942923053238
 20
-140.6956325603122
 30
0.0
 10
91.75942923053238
 20
-140.5771212756196
 30
0.0
 10
91.69741751179787
 20
-140.4462076471801
 30
0.0
 10
91.52722979482652
 20
-140.4462076471801
 30
0.0
 10
91.30174829531693
 20
-140.4462076471801
 30
0.0
 10
91.2945135947979
 20
-140.6766845351433
 30
0.0
 10
91.29072398976413
 20
-140.7931287625448
 30
0.0
 10
91.29072398976413
 20
-140.7931287625448
 30
0.0
 10
91.09676511394456
 20
-140.7931287625448
 30
0.0
 10
91.09676511394456
 20
-140.7931287625448
 30
0.0
 10
91.10434432401212
 20
-140.6660047391391
 30
0.0
 10
91.11330157227376
 20
-140.5540391358684
 30
0.0
 10
91.18289250107581
 20
-140.4355278511758
 30
0.0
 10
91.2779771364687
 20
-140.2746418920147
 30
0.0
 10
91.43937985995267
 20
-140.2408799562592
 30
0.0
 10
91.53997664812195
 20
-140.2408799562592
 30
0.0
 10
91.77975529389535
 20
-140.2408799562592
 30
0.0
 10
91.95890025912834
 20
-140.4248480551716
 30
0.0
 10
91.95890025912834
 20
-140.6976996176033
 30
0.0
 10
91.95890025912834
 20
-140.926453957824
 30
0.0
 10
91.85830347095904
 20
-141.0256727077991
 30
0.0
 10
91.59130857085218
 20
-141.2520154811801
 30
0.0
  0
HATCH
  5
92
330
8D
100
AcDbEntity
  8
_U+30EC_U+30A4_U+30E4_U+30FC 1
 62
   179
420
  2234388
100
AcDbHatch
 10
0.0
 20
0.0
 30
0.0
210
0.0
220
0.0
230
1.0
  2
SOLID
 70
     1
 71
     0
 91
        1
 92
        1
 93
        1
 72
     4
 94
        3
 73
     0
 74
     1
 95
       44
 96
       40
 40
0.0
 40
0.0
 40
0.0
 40
0.0
 40
1.0
 40
1.0
 40
1.0
 40
2.0
 40
2.0
 40
2.0
 40
3.0
 40
3.0
 40
3.0
 40
4.0
 40
4.0
 40
4.0
 40
5.0
 40
5.0
 40
5.0
 40
6.0
 40
6.0
 40
6.0
 40
7.0
 40
7.0
 40
7.0
 40
8.0
 40
8.0
 40
8.0
 40
9.0
 40
9.0
 40
9.0
 40
10.0
 40
10.0
 40
10.0
 40
11.0
 40
11.0
 40
11.0
 40
12.0
 40
12.0
 40
12.0
 40
13.0
 40
13.0
 40
13.0
 40
13.0
 10
91.59130857085218
 20
-141.2520154811801
 10
91.40251733826048
 20
-141.4108343830501
 10
91.3220743586799
 20
-141.4849039359829
 10
91.28004419375985
 20
-141.6285644177179
 10
91.28004419375985
 20
-141.6285644177179
 10
91.95338810635194
 20
-141.6285644177179
 10
91.95338810635194
 20
-141.6285644177179
 10
91.95338810635194
 20
-141.6285644177179
 10
91.95338810635194
 20
-141.8338921086388
 10
91.95338810635194
 20
-141.8338921086388
 10
91.95338810635194
 20
-141.8338921086388
 10
91.06403670683468
 20
-141.8338921086388
 10
91.06403670683468
 20
-141.8338921086388
 10
91.09125296116817
 20
-141.4762911972698
 10
91.14809703667478
 20
-141.3980875297547
 10
91.4814100248727
 20
-141.099742260732
 10
91.70292966457427
 20
-140.9009602512331
 10
91.75942923053238
 20
-140.8330918701737
 10
91.75942923053238
 20
-140.6956325603122
 10
91.75942923053238
 20
-140.5771212756196
 10
91.69741751179787
 20
-140.4462076471801
 10
91.52722979482652
 20
-140.4462076471801
 10
91.30174829531693
 20
-140.4462076471801
 10
91.2945135947979
 20
-140.6766845351433
 10
91.29072398976413
 20
-140.7931287625448
 10
91.29072398976413
 20
-140.7931287625448
 10
91.09676511394456
 20
-140.7931287625448
 10
91.09676511394456
 20
-140.7931287625448
 10
91.10434432401212
 20
-140.6660047391391
 10
91.11330157227376
 20
-140.5540391358684
 10
91.18289250107581
 20
-140.4355278511758
 10
91.2779771364687
 20
-140.2746418920147
 10
91.43937985995267
 20
-140.2408799562592
 10
91.53997664812195
 20
-140.2408799562592
 10
91.77975529389535
 20
-140.2408799562592
 10
91.95890025912834
 20
-140.4248480551716
 10
91.95890025912834
 20
-140.6976996176033
 10
91.95890025912834
 20
-140.926453957824
 10
91.85830347095904
 20
-141.0256727077991
 10
91.59130857085218
 20
-141.2520154811801
 97
        0
 97
        0
 75
     2
 76
     1
 98
        0
  0
SPLINE
  5
93
330
8D
100
AcDbEntity
  8
_U+30EC_U+30A4_U+30E4_U+30FC 1
370
     0
100
AcDbSpline
210
0.0
220
0.0
230
1.0
 70
    11
 71
     3
 72
    53
 73
    49
 74
     0
 42
0.0000000001
 43
0.0000000001
 12
1.0
 22
0.0
 32
0.0
 13
1.0
 23
0.0
 33
0.0
 40
0.0
 40
0.0
 40
0.0
 40
0.0
 40
1.0
 40
1.0
 40
1.0
 40
2.0
 40
2.0
 40
2.0
 40
3.0
 40
3.0
 40
3.0
 40
4.0
 40
4.0
 40
4.0
 40
5.0
 40
5.0
 40
5.0
 40
6.0
 40
6.0
 40
6.0
 40
7.0
 40
7.0
 40
7.0
 40
8.0
 40
8.0
 40
8.0
 40
9.0
 40
9.0
 40
9.0
 40
10.0
 40
10.0
 40
10.0
 40
11.0
 40
11.0
 40
11.0
 40
12.0
 40
12.0
 40
12.0
 40
13.0
 40
13.0
 40
13.0
 40
14.0
 40
14.0
 40
14.0
 40
15.0
 40
15.0
 40
15.0
 40
16.0
 40
16.0
 40
16.0
 40
16.0
 10
92.51149357496242
 20
-141.8845350122719
 30
0.0
 10
92.44396970345151
 20
-141.8845350122719
 30
0.0
 10
92.35577525902912
 20
-141.8676540443942
 30
0.0
 10
92.26826983370377
 20
-141.8042642874656
 30
0.0
 10
92.11806367054687
 20
-141.6943657414861
 30
0.0
 10
92.09980466447506
 20
-141.5631076034981
 30
0.0
 10
92.08326820614586
 20
-141.4552761148098
 30
0.0
 10
92.08326820614586
 20
-141.4552761148098
 30
0.0
 10
92.27550453422279
 20
-141.4552761148098
 30
0.0
 10
92.27550453422279
 20
-141.4552761148098
 30
0.0
 10
92.32304685191924
 20
-141.6540581243087
 30
0.0
 10
92.4329453978987
 20
-141.6836859454819
 30
0.0
 10
92.51321612270503
 20
-141.6836859454819
 30
0.0
 10
92.6341389742373
 20
-141.6836859454819
 30
0.0
 10
92.76574162177384
 20
-141.5841226859581
 30
0.0
 10
92.76574162177384
 20
-141.3515787407038
 30
0.0
 10
92.76574162177384
 20
-141.0956081461497
 30
0.0
 10
92.61036781538908
 20
-141.0256727077991
 30
0.0
 10
92.50598142218601
 20
-141.0256727077991
 30
0.0
 10
92.478420658304
 20
-141.0256727077991
 30
0.0
 10
92.35577525902912
 20
-141.0256727077991
 30
0.0
 10
92.27894962970804
 20
-141.154863788496
 30
0.0
 10
92.27894962970804
 20
-141.154863788496
 30
0.0
 10
92.12702091880853
 20
-141.1359157633271
 30
0.0
 10
92.12702091880853
 20
-141.1359157633271
 30
0.0
 10
92.12702091880853
 20
-141.1359157633271
 30
0.0
 10
92.2314073120116
 20
-140.2894558026013
 30
0.0
 10
92.2314073120116
 20
-140.2894558026013
 30
0.0
 10
92.2314073120116
 20
-140.2894558026013
 30
0.0
 10
92.90492347937794
 20
-140.2894558026013
 30
0.0
 10
92.90492347937794
 20
-140.2894558026013
 30
0.0
 10
92.90492347937794
 20
-140.2894558026013
 30
0.0
 10
92.90492347937794
 20
-140.4841036975179
 30
0.0
 10
92.90492347937794
 20
-140.4841036975179
 30
0.0
 10
92.90492347937794
 20
-140.4841036975179
 30
0.0
 10
92.37231171735831
 20
-140.4841036975179
 30
0.0
 10
92.37231171735831
 20
-140.4841036975179
 30
0.0
 10
92.37231171735831
 20
-140.4841036975179
 30
0.0
 10
92.31581215140022
 20
-140.9071614231065
 30
0.0
 10
92.31581215140022
 20
-140.9071614231065
 30
0.0
 10
92.36886662187307
 20
-140.8733994873511
 30
0.0
 10
92.44018009841774
 20
-140.8330918701737
 30
0.0
 10
92.54249943432966
 20
-140.8330918701737
 30
0.0
 10
92.7622965262886
 20
-140.8330918701737
 30
0.0
 10
92.96727970766096
 20
-141.0194715359257
 30
0.0
 10
92.96727970766096
 20
-141.3326307155349
 30
0.0
 10
92.96727970766096
 20
-141.6499240097264
 30
0.0
 10
92.7733208318414
 20
-141.8845350122719
 30
0.0
 10
92.51149357496242
 20
-141.8845350122719
 30
0.0
  0
HATCH
  5
94
330
8D
100
AcDbEntity
  8
_U+30EC_U+30A4_U+30E4_U+30FC 1
 62
   179
420
  2234388
100
AcDbHatch
 10
0.0
 20
0.0
 30
0.0
210
0.0
220
0.0
230
1.0
  2
SOLID
 70
     1
 71
     0
 91
        1
 92
        1
 93
        1
 72
     4
 94
        3
 73
     0
 74
     1
 95
       53
 96
       49
 40
0.0
 40
0.0
 40
0.0
 40
0.0
 40
1.0
 40
1.0
 40
1.0
 40
2.0
 40
2.0
 40
2.0
 40
3.0
 40
3.0
 40
3.0
 40
4.0
 40
4.0
 40
4.0
 40
5.0
 40
5.0
 40
5.0
 40
6.0
 40
6.0
 40
6.0
 40
7.0
 40
7.0
 40
7.0
 40
8.0
 40
8.0
 40
8.0
 40
9.0
 40
9.0
 40
9.0
 40
10.0
 40
10.0
 40
10.0
 40
11.0
 40
11.0
 40
11.0
 40
12.0
 40
12.0
 40
12.0
 40
13.0
 40
13.0
 40
13.0
 40
14.0
 40
14.0
 40
14.0
 40
15.0
 40
15.0
 40
15.0
 40
16.0
 40
16.0
 40
16.0
 40
16.0
 10
92.51149357496242
 20
-141.8845350122719
 10
92.44396970345151
 20
-141.8845350122719
 10
92.35577525902912
 20
-141.8676540443942
 10
92.26826983370377
 20
-141.8042642874656
 10
92.11806367054687
 20
-141.6943657414861
 10
92.09980466447506
 20
-141.5631076034981
 10
92.08326820614586
 20
-141.4552761148098
 10
92.08326820614586
 20
-141.4552761148098
 10
92.27550453422279
 20
-141.4552761148098
 10
92.27550453422279
 20
-141.4552761148098
 10
92.32304685191924
 20
-141.6540581243087
 10
92.4329453978987
 20
-141.6836859454819
 10
92.51321612270503
 20
-141.6836859454819
 10
92.6341389742373
 20
-141.6836859454819
 10
92.76574162177384
 20
-141.5841226859581
 10
92.76574162177384
 20
-141.3515787407038
 10
92.76574162177384
 20
-141.0956081461497
 10
92.61036781538908
 20
-141.0256727077991
 10
92.50598142218601
 20
-141.0256727077991
 10
92.478420658304
 20
-141.0256727077991
 10
92.35577525902912
 20
-141.0256727077991
 10
92.27894962970804
 20
-141.154863788496
 10
92.27894962970804
 20
-141.154863788496
 10
92.12702091880853
 20
-141.1359157633271
 10
92.12702091880853
 20
-141.1359157633271
 10
92.12702091880853
 20
-141.1359157633271
 10
92.2314073120116
 20
-140.2894558026013
 10
92.2314073120116
 20
-140.2894558026013
 10
92.2314073120116
 20
-140.2894558026013
 10
92.90492347937794
 20
-140.2894558026013
 10
92.90492347937794
 20
-140.2894558026013
 10
92.90492347937794
 20
-140.2894558026013
 10
92.90492347937794
 20
-140.4841036975179
 10
92.90492347937794
 20
-140.4841036975179
 10
92.90492347937794
 20
-140.4841036975179
 10
92.37231171735831
 20
-140.4841036975179
 10
92.37231171735831
 20
-140.4841036975179
 10
92.37231171735831
 20
-140.4841036975179
 10
92.31581215140022
 20
-140.9071614231065
 10
92.31581215140022
 20
-140.9071614231065
 10
92.36886662187307
 20
-140.8733994873511
 10
92.44018009841774
 20
-140.8330918701737
 10
92.54249943432966
 20
-140.8330918701737
 10
92.7622965262886
 20
-140.8330918701737
 10
92.96727970766096
 20
-141.0194715359257
 10
92.96727970766096
 20
-141.3326307155349
 10
92.96727970766096
 20
-141.6499240097264
 10
92.7733208318414
 20
-141.8845350122719
 10
92.51149357496242
 20
-141.8845350122719
 97
        0
 97
        0
 75
     2
 76
     1
 98
        0
  0
ENDBLK
  5
90
330
8D
100
AcDbEntity
  8
0
100
AcDbBlockEnd
  0
BLOCK
  5
A3
330
A1
100
AcDbEntity
  8
0
100
AcDbBlockBegin
  2
block 4
 70
     0
 10
0.0
 20
0.0
 30
0.0
  3
block 4
  1

  0
SPLINE
  5
A5
330
A1
100
AcDbEntity
  8
_U+30EC_U+30A4_U+30E4_U+30FC 1
370
     0
100
AcDbSpline
210
0.0
220
0.0
230
1.0
 70
    11
 71
     3
 72
    44
 73
    40
 74
     0
 42
0.0000000001
 43
0.0000000001
 12
1.0
 22
0.0
 32
0.0
 13
1.0
 23
0.0
 33
0.0
 40
0.0
 40
0.0
 40
0.0
 40
0.0
 40
1.0
 40
1.0
 40
1.0
 40
2.0
 40
2.0
 40
2.0
 40
3.0
 40
3.0
 40
3.0
 40
4.0
 40
4.0
 40
4.0
 40
5.0
 40
5.0
 40
5.0
 40
6.0
 40
6.0
 40
6.0
 40
7.0
 40
7.0
 40
7.0
 40
8.0
 40
8.0
 40
8.0
 40
9.0
 40
9.0
 40
9.0
 40
10.0
 40
10.0
 40
10.0
 40
11.0
 40
11.0
 40
11.0
 40
12.0
 40
12.0
 40
12.0
 40
13.0
 40
13.0
 40
13.0
 40
13.0
 10
74.57580971442897
 20
-126.5934787009905
 30
0.0
 10
74.73445636152472
 20
-126.7822699335822
 30
0.0
 10
74.80852591445759
 20
-126.8625406583885
 30
0.0
 10
74.95235865096677
 20
-126.9045708233086
 30
0.0
 10
74.95235865096677
 20
-126.9045708233086
 30
0.0
 10
74.95235865096677
 20
-126.2313991654908
 30
0.0
 10
74.95235865096677
 20
-126.2313991654908
 30
0.0
 10
74.95235865096677
 20
-126.2313991654908
 30
0.0
 10
75.1575140871134
 20
-126.2313991654908
 30
0.0
 10
75.1575140871134
 20
-126.2313991654908
 30
0.0
 10
75.1575140871134
 20
-126.2313991654908
 30
0.0
 10
75.1575140871134
 20
-127.1205783102338
 30
0.0
 10
75.1575140871134
 20
-127.1205783102338
 30
0.0
 10
74.79991317574446
 20
-127.0933620559003
 30
0.0
 10
74.7217095082293
 20
-127.0365179803937
 30
0.0
 10
74.42336423920666
 20
-126.70337724697
 30
0.0
 10
74.22458222970775
 20
-126.4818576072684
 30
0.0
 10
74.1568861034226
 20
-126.4253580413103
 30
0.0
 10
74.01942679356112
 20
-126.4253580413103
 30
0.0
 10
73.90091550886852
 20
-126.4253580413103
 30
0.0
 10
73.76982962565476
 20
-126.4873697600448
 30
0.0
 10
73.76982962565476
 20
-126.6575574770162
 30
0.0
 10
73.76982962565476
 20
-126.8828667217515
 30
0.0
 10
74.00030651361799
 20
-126.8901014222705
 30
0.0
 10
74.11675074101943
 20
-126.8938910273043
 30
0.0
 10
74.11675074101943
 20
-126.8938910273043
 30
0.0
 10
74.11675074101943
 20
-127.0878499031239
 30
0.0
 10
74.11675074101943
 20
-127.0878499031239
 30
0.0
 10
73.98979897238797
 20
-127.0802706930563
 30
0.0
 10
73.87766111434308
 20
-127.0713134447947
 30
0.0
 10
73.7591498296505
 20
-127.0017225159926
 30
0.0
 10
73.59843612526359
 20
-126.9066378805997
 30
0.0
 10
73.56450193473388
 20
-126.74540741189
 30
0.0
 10
73.56450193473388
 20
-126.6448106237207
 30
0.0
 10
73.56450193473388
 20
-126.4050319779474
 30
0.0
 10
73.74864228842048
 20
-126.2258870127144
 30
0.0
 10
74.02149385085227
 20
-126.2258870127144
 30
0.0
 10
74.24990368152433
 20
-126.2258870127144
 30
0.0
 10
74.34946694104805
 20
-126.3264838008837
 30
0.0
 10
74.57580971442897
 20
-126.5934787009905
 30
0.0
  0
HATCH
  5
A6
330
A1
100
AcDbEntity
  8
_U+30EC_U+30A4_U+30E4_U+30FC 1
 62
   179
420
  2234388
100
AcDbHatch
 10
0.0
 20
0.0
 30
0.0
210
0.0
220
0.0
230
1.0
  2
SOLID
 70
     1
 71
     0
 91
        1
 92
        1
 93
        1
 72
     4
 94
        3
 73
     0
 74
     1
 95
       44
 96
       40
 40
0.0
 40
0.0
 40
0.0
 40
0.0
 40
1.0
 40
1.0
 40
1.0
 40
2.0
 40
2.0
 40
2.0
 40
3.0
 40
3.0
 40
3.0
 40
4.0
 40
4.0
 40
4.0
 40
5.0
 40
5.0
 40
5.0
 40
6.0
 40
6.0
 40
6.0
 40
7.0
 40
7.0
 40
7.0
 40
8.0
 40
8.0
 40
8.0
 40
9.0
 40
9.0
 40
9.0
 40
10.0
 40
10.0
 40
10.0
 40
11.0
 40
11.0
 40
11.0
 40
12.0
 40
12.0
 40
12.0
 40
13.0
 40
13.0
 40
13.0
 40
13.0
 10
74.57580971442897
 20
-126.5934787009905
 10
74.73445636152472
 20
-126.7822699335822
 10
74.80852591445759
 20
-126.8625406583885
 10
74.95235865096677
 20
-126.9045708233086
 10
74.95235865096677
 20
-126.9045708233086
 10
74.95235865096677
 20
-126.2313991654908
 10
74.95235865096677
 20
-126.2313991654908
 10
74.95235865096677
 20
-126.2313991654908
 10
75.1575140871134
 20
-126.2313991654908
 10
75.1575140871134
 20
-126.2313991654908
 10
75.1575140871134
 20
-126.2313991654908
 10
75.1575140871134
 20
-127.1205783102338
 10
75.1575140871134
 20
-127.1205783102338
 10
74.79991317574446
 20
-127.0933620559003
 10
74.7217095082293
 20
-127.0365179803937
 10
74.42336423920666
 20
-126.70337724697
 10
74.22458222970775
 20
-126.4818576072684
 10
74.1568861034226
 20
-126.4253580413103
 10
74.01942679356112
 20
-126.4253580413103
 10
73.90091550886852
 20
-126.4253580413103
 10
73.76982962565476
 20
-126.4873697600448
 10
73.76982962565476
 20
-126.6575574770162
 10
73.76982962565476
 20
-126.8828667217515
 10
74.00030651361799
 20
-126.8901014222705
 10
74.11675074101943
 20
-126.8938910273043
 10
74.11675074101943
 20
-126.8938910273043
 10
74.11675074101943
 20
-127.0878499031239
 10
74.11675074101943
 20
-127.0878499031239
 10
73.98979897238797
 20
-127.0802706930563
 10
73.87766111434308
 20
-127.0713134447947
 10
73.7591498296505
 20
-127.0017225159926
 10
73.59843612526359
 20
-126.9066378805997
 10
73.56450193473388
 20
-126.74540741189
 10
73.56450193473388
 20
-126.6448106237207
 10
73.56450193473388
 20
-126.4050319779474
 10
73.74864228842048
 20
-126.2258870127144
 10
74.02149385085227
 20
-126.2258870127144
 10
74.24990368152433
 20
-126.2258870127144
 10
74.34946694104805
 20
-126.3264838008837
 10
74.57580971442897
 20
-126.5934787009905
 97
        0
 97
        0
 75
     2
 76
     1
 98
        0
  0
SPLINE
  5
A7
330
A1
100
AcDbEntity
  8
_U+30EC_U+30A4_U+30E4_U+30FC 1
370
     0
100
AcDbSpline
210
0.0
220
0.0
230
1.0
 70
    11
 71
     3
 72
    53
 73
    49
 74
     0
 42
0.0000000001
 43
0.0000000001
 12
1.0
 22
0.0
 32
0.0
 13
1.0
 23
0.0
 33
0.0
 40
0.0
 40
0.0
 40
0.0
 40
0.0
 40
1.0
 40
1.0
 40
1.0
 40
2.0
 40
2.0
 40
2.0
 40
3.0
 40
3.0
 40
3.0
 40
4.0
 40
4.0
 40
4.0
 40
5.0
 40
5.0
 40
5.0
 40
6.0
 40
6.0
 40
6.0
 40
7.0
 40
7.0
 40
7.0
 40
8.0
 40
8.0
 40
8.0
 40
9.0
 40
9.0
 40
9.0
 40
10.0
 40
10.0
 40
10.0
 40
11.0
 40
11.0
 40
11.0
 40
12.0
 40
12.0
 40
12.0
 40
13.0
 40
13.0
 40
13.0
 40
14.0
 40
14.0
 40
14.0
 40
15.0
 40
15.0
 40
15.0
 40
16.0
 40
16.0
 40
16.0
 40
16.0
 10
75.20832924552084
 20
-125.6732936968803
 30
0.0
 10
75.20832924552084
 20
-125.7408175683912
 30
0.0
 10
75.19127602286885
 20
-125.8290120128136
 30
0.0
 10
75.12788626594025
 20
-125.9165174381389
 30
0.0
 10
75.01781546518652
 20
-126.0667236012958
 30
0.0
 10
74.88672958197276
 20
-126.0849826073676
 30
0.0
 10
74.77889809328444
 20
-126.1015190656968
 30
0.0
 10
74.77889809328444
 20
-126.1015190656968
 30
0.0
 10
74.77889809328444
 20
-125.9092827376199
 30
0.0
 10
74.77889809328444
 20
-125.9092827376199
 30
0.0
 10
74.97768010278337
 20
-125.8617404199235
 30
0.0
 10
75.0073079239565
 20
-125.751841873944
 30
0.0
 10
75.0073079239565
 20
-125.6715711491377
 30
0.0
 10
75.0073079239565
 20
-125.5506482976054
 30
0.0
 10
74.90791691920705
 20
-125.4190456500689
 30
0.0
 10
74.67520071917842
 20
-125.4190456500689
 30
0.0
 10
74.41923012462436
 20
-125.4190456500689
 30
0.0
 10
74.34946694104805
 20
-125.5744194564536
 30
0.0
 10
74.34946694104805
 20
-125.6788058496567
 30
0.0
 10
74.34946694104805
 20
-125.7063666135387
 30
0.0
 10
74.34946694104805
 20
-125.8290120128136
 30
0.0
 10
74.47848576697066
 20
-125.9058376421347
 30
0.0
 10
74.47848576697066
 20
-125.9058376421347
 30
0.0
 10
74.45936548702753
 20
-126.0577663530342
 30
0.0
 10
74.45936548702753
 20
-126.0577663530342
 30
0.0
 10
74.45936548702753
 20
-126.0577663530342
 30
0.0
 10
73.61325003585016
 20
-125.9533799598311
 30
0.0
 10
73.61325003585016
 20
-125.9533799598311
 30
0.0
 10
73.61325003585016
 20
-125.9533799598311
 30
0.0
 10
73.61325003585016
 20
-125.2798637924648
 30
0.0
 10
73.61325003585016
 20
-125.2798637924648
 30
0.0
 10
73.61325003585016
 20
-125.2798637924648
 30
0.0
 10
73.80789793076679
 20
-125.2798637924648
 30
0.0
 10
73.80789793076679
 20
-125.2798637924648
 30
0.0
 10
73.80789793076679
 20
-125.2798637924648
 30
0.0
 10
73.80789793076679
 20
-125.8124755544844
 30
0.0
 10
73.80789793076679
 20
-125.8124755544844
 30
0.0
 10
73.80789793076679
 20
-125.8124755544844
 30
0.0
 10
74.23095565635546
 20
-125.8689751204425
 30
0.0
 10
74.23095565635546
 20
-125.8689751204425
 30
0.0
 10
74.19702146582574
 20
-125.8159206499696
 30
0.0
 10
74.1568861034226
 20
-125.744607173425
 30
0.0
 10
74.1568861034226
 20
-125.642287837513
 30
0.0
 10
74.1568861034226
 20
-125.4224907455541
 30
0.0
 10
74.34309351440034
 20
-125.2175075641817
 30
0.0
 10
74.65608043923528
 20
-125.2175075641817
 30
0.0
 10
74.97354598820107
 20
-125.2175075641817
 30
0.0
 10
75.20832924552084
 20
-125.4114664400013
 30
0.0
 10
75.20832924552084
 20
-125.6732936968803
 30
0.0
  0
HATCH
  5
A8
330
A1
100
AcDbEntity
  8
_U+30EC_U+30A4_U+30E4_U+30FC 1
 62
   179
420
  2234388
100
AcDbHatch
 10
0.0
 20
0.0
 30
0.0
210
0.0
220
0.0
230
1.0
  2
SOLID
 70
     1
 71
     0
 91
        1
 92
        1
 93
        1
 72
     4
 94
        3
 73
     0
 74
     1
 95
       53
 96
       49
 40
0.0
 40
0.0
 40
0.0
 40
0.0
 40
1.0
 40
1.0
 40
1.0
 40
2.0
 40
2.0
 40
2.0
 40
3.0
 40
3.0
 40
3.0
 40
4.0
 40
4.0
 40
4.0
 40
5.0
 40
5.0
 40
5.0
 40
6.0
 40
6.0
 40
6.0
 40
7.0
 40
7.0
 40
7.0
 40
8.0
 40
8.0
 40
8.0
 40
9.0
 40
9.0
 40
9.0
 40
10.0
 40
10.0
 40
10.0
 40
11.0
 40
11.0
 40
11.0
 40
12.0
 40
12.0
 40
12.0
 40
13.0
 40
13.0
 40
13.0
 40
14.0
 40
14.0
 40
14.0
 40
15.0
 40
15.0
 40
15.0
 40
16.0
 40
16.0
 40
16.0
 40
16.0
 10
75.20832924552084
 20
-125.6732936968803
 10
75.20832924552084
 20
-125.7408175683912
 10
75.19127602286885
 20
-125.8290120128136
 10
75.12788626594025
 20
-125.9165174381389
 10
75.01781546518652
 20
-126.0667236012958
 10
74.88672958197276
 20
-126.0849826073676
 10
74.77889809328444
 20
-126.1015190656968
 10
74.77889809328444
 20
-126.1015190656968
 10
74.77889809328444
 20
-125.9092827376199
 10
74.77889809328444
 20
-125.9092827376199
 10
74.97768010278337
 20
-125.8617404199235
 10
75.0073079239565
 20
-125.751841873944
 10
75.0073079239565
 20
-125.6715711491377
 10
75.0073079239565
 20
-125.5506482976054
 10
74.90791691920705
 20
-125.4190456500689
 10
74.67520071917842
 20
-125.4190456500689
 10
74.41923012462436
 20
-125.4190456500689
 10
74.34946694104805
 20
-125.5744194564536
 10
74.34946694104805
 20
-125.6788058496567
 10
74.34946694104805
 20
-125.7063666135387
 10
74.34946694104805
 20
-125.8290120128136
 10
74.47848576697066
 20
-125.9058376421347
 10
74.47848576697066
 20
-125.9058376421347
 10
74.45936548702753
 20
-126.0577663530342
 10
74.45936548702753
 20
-126.0577663530342
 10
74.45936548702753
 20
-126.0577663530342
 10
73.61325003585016
 20
-125.9533799598311
 10
73.61325003585016
 20
-125.9533799598311
 10
73.61325003585016
 20
-125.9533799598311
 10
73.61325003585016
 20
-125.2798637924648
 10
73.61325003585016
 20
-125.2798637924648
 10
73.61325003585016
 20
-125.2798637924648
 10
73.80789793076679
 20
-125.2798637924648
 10
73.80789793076679
 20
-125.2798637924648
 10
73.80789793076679
 20
-125.2798637924648
 10
73.80789793076679
 20
-125.8124755544844
 10
73.80789793076679
 20
-125.8124755544844
 10
73.80789793076679
 20
-125.8124755544844
 10
74.23095565635546
 20
-125.8689751204425
 10
74.23095565635546
 20
-125.8689751204425
 10
74.19702146582574
 20
-125.8159206499696
 10
74.1568861034226
 20
-125.744607173425
 10
74.1568861034226
 20
-125.642287837513
 10
74.1568861034226
 20
-125.4224907455541
 10
74.34309351440034
 20
-125.2175075641817
 10
74.65608043923528
 20
-125.2175075641817
 10
74.97354598820107
 20
-125.2175075641817
 10
75.20832924552084
 20
-125.4114664400013
 10
75.20832924552084
 20
-125.6732936968803
 97
        0
 97
        0
 75
     2
 76
     1
 98
        0
  0
ENDBLK
  5
A4
330
A1
100
AcDbEntity
  8
0
100
AcDbBlockEnd
  0
ENDSEC
  0
SECTION
  2
ENTITIES
  0
SPLINE
  5
41
330
1F
100
AcDbEntity
  8
_U+30EC_U+30A4_U+30E4_U+30FC 1
 62
   254
420
 16050385
370
     9
100
AcDbSpline
210
0.0
220
0.0
230
1.0
 70
    11
 71
     3
 72
    38
 73
    34
 74
     0
 42
0.0000000001
 43
0.0000000001
 12
1.0
 22
0.0
 32
0.0
 13
1.0
 23
0.0
 33
0.0
 40
0.0
 40
0.0
 40
0.0
 40
0.0
 40
1.0
 40
1.0
 40
1.0
 40
2.0
 40
2.0
 40
2.0
 40
3.0
 40
3.0
 40
3.0
 40
4.0
 40
4.0
 40
4.0
 40
5.0
 40
5.0
 40
5.0
 40
6.0
 40
6.0
 40
6.0
 40
7.0
 40
7.0
 40
7.0
 40
8.0
 40
8.0
 40
8.0
 40
9.0
 40
9.0
 40
9.0
 40
10.0
 40
10.0
 40
10.0
 40
11.0
 40
11.0
 40
11.0
 40
11.0
 10
104.7543245497168
 20
-136.7985438546894
 30
0.0
 10
104.7543245497168
 20
-136.7985438546894
 30
0.0
 10
81.38643097921472
 20
-136.7985438546894
 30
0.0
 10
81.38643097921472
 20
-136.7985438546894
 30
0.0
 10
81.38643097921472
 20
-136.7985438546894
 30
0.0
 10
81.38643097921472
 20
-113.4307908049757
 30
0.0
 10
81.38643097921472
 20
-113.4307908049757
 30
0.0
 10
81.38643097921472
 20
-113.3577658049939
 30
0.0
 10
81.32716431406007
 20
-113.2984991383421
 30
0.0
 10
81.2541393159231
 20
-113.2984991383421
 30
0.0
 10
81.2541393159231
 20
-113.2984991383421
 30
0.0
 10
79.75412824308046
 20
-113.2984991383421
 30
0.0
 10
79.75412824308046
 20
-113.2984991383421
 30
0.0
 10
79.68110324494347
 20
-113.2984991383421
 30
0.0
 10
79.62183657978883
 20
-113.3577658049939
 30
0.0
 10
79.62183657978883
 20
-113.4307908049757
 30
0.0
 10
79.62183657978883
 20
-113.4307908049757
 30
0.0
 10
79.62183657978883
 20
-138.4308113542811
 30
0.0
 10
79.62183657978883
 20
-138.4308113542811
 30
0.0
 10
79.62183657978883
 20
-138.5038716320405
 30
0.0
 10
79.68110324494347
 20
-138.5631030209147
 30
0.0
 10
79.75412824308046
 20
-138.5631030209147
 30
0.0
 10
79.75412824308046
 20
-138.5631030209147
 30
0.0
 10
104.7543245497168
 20
-138.5631030209147
 30
0.0
 10
104.7543245497168
 20
-138.5631030209147
 30
0.0
 10
104.8273495478537
 20
-138.5631030209147
 30
0.0
 10
104.8866162130084
 20
-138.5038716320405
 30
0.0
 10
104.8866162130084
 20
-138.4308113542811
 30
0.0
 10
104.8866162130084
 20
-138.4308113542811
 30
0.0
 10
104.8866162130084
 20
-136.930835521323
 30
0.0
 10
104.8866162130084
 20
-136.930835521323
 30
0.0
 10
104.8866162130084
 20
-136.8578105213412
 30
0.0
 10
104.8273495478537
 20
-136.7985438546894
 30
0.0
 10
104.7543245497168
 20
-136.7985438546894
 30
0.0
  0
HATCH
  5
42
330
1F
100
AcDbEntity
  8
_U+30EC_U+30A4_U+30E4_U+30FC 1
 62
   254
420
 16050385
100
AcDbHatch
 10
0.0
 20
0.0
 30
0.0
210
0.0
220
0.0
230
1.0
  2
SOLID
 70
     1
 71
     0
 91
        1
 92
        1
 93
        1
 72
     4
 94
        3
 73
     0
 74
     1
 95
       38
 96
       34
 40
0.0
 40
0.0
 40
0.0
 40
0.0
 40
1.0
 40
1.0
 40
1.0
 40
2.0
 40
2.0
 40
2.0
 40
3.0
 40
3.0
 40
3.0
 40
4.0
 40
4.0
 40
4.0
 40
5.0
 40
5.0
 40
5.0
 40
6.0
 40
6.0
 40
6.0
 40
7.0
 40
7.0
 40
7.0
 40
8.0
 40
8.0
 40
8.0
 40
9.0
 40
9.0
 40
9.0
 40
10.0
 40
10.0
 40
10.0
 40
11.0
 40
11.0
 40
11.0
 40
11.0
 10
104.7543245497168
 20
-136.7985438546894
 10
104.7543245497168
 20
-136.7985438546894
 10
81.38643097921472
 20
-136.7985438546894
 10
81.38643097921472
 20
-136.7985438546894
 10
81.38643097921472
 20
-136.7985438546894
 10
81.38643097921472
 20
-113.4307908049757
 10
81.38643097921472
 20
-113.4307908049757
 10
81.38643097921472
 20
-113.3577658049939
 10
81.32716431406007
 20
-113.2984991383421
 10
81.2541393159231
 20
-113.2984991383421
 10
81.2541393159231
 20
-113.2984991383421
 10
79.75412824308046
 20
-113.2984991383421
 10
79.75412824308046
 20
-113.2984991383421
 10
79.68110324494347
 20
-113.2984991383421
 10
79.62183657978883
 20
-113.3577658049939
 10
79.62183657978883
 20
-113.4307908049757
 10
79.62183657978883
 20
-113.4307908049757
 10
79.62183657978883
 20
-138.4308113542811
 10
79.62183657978883
 20
-138.4308113542811
 10
79.62183657978883
 20
-138.5038716320405
 10
79.68110324494347
 20
-138.5631030209147
 10
79.75412824308046
 20
-138.5631030209147
 10
79.75412824308046
 20
-138.5631030209147
 10
104.7543245497168
 20
-138.5631030209147
 10
104.7543245497168
 20
-138.5631030209147
 10
104.8273495478537
 20
-138.5631030209147
 10
104.8866162130084
 20
-138.5038716320405
 10
104.8866162130084
 20
-138.4308113542811
 10
104.8866162130084
 20
-138.4308113542811
 10
104.8866162130084
 20
-136.930835521323
 10
104.8866162130084
 20
-136.930835521323
 10
104.8866162130084
 20
-136.8578105213412
 10
104.8273495478537
 20
-136.7985438546894
 10
104.7543245497168
 20
-136.7985438546894
 97
        0
 97
        0
 75
     2
 76
     1
 98
        0
  0
POLYLINE
  5
43
330
1F
100
AcDbEntity
  8
_U+30EC_U+30A4_U+30E4_U+30FC 1
 62
   179
420
  2234388
370
    25
100
AcDb2dPolyline
 66
     1
 10
0.0
 20
0.0
 30
0.0
  0
VERTEX
  5
44
330
43
100
AcDbEntity
  8
_U+30EC_U+30A4_U+30E4_U+30FC 1
 62
   179
420
  2234388
370
    25
100
AcDbVertex
100
AcDb2dVertex
 10
104.7543245497168
 20
-136.930835521323
 30
0.0
  0
VERTEX
  5
45
330
43
100
AcDbEntity
  8
_U+30EC_U+30A4_U+30E4_U+30FC 1
 62
   179
420
  2234388
370
    25
100
AcDbVertex
100
AcDb2dVertex
 10
104.7543245497168
 20
-138.4308113542811
 30
0.0
  0
SEQEND
  5
46
330
43
100
AcDbEntity
  8
_U+30EC_U+30A4_U+30E4_U+30FC 1
 62
   179
420
  2234388
370
    25
  0
POLYLINE
  5
47
330
1F
100
AcDbEntity
  8
_U+30EC_U+30A4_U+30E4_U+30FC 1
 62
   179
420
  2234388
370
    25
100
AcDb2dPolyline
 66
     1
 10
0.0
 20
0.0
 30
0.0
  0
VERTEX
  5
48
330
47
100
AcDbEntity
  8
_U+30EC_U+30A4_U+30E4_U+30FC 1
 62
   179
420
  2234388
370
    25
100
AcDbVertex
100
AcDb2dVertex
 10
79.75412824308046
 20
-138.4308113542811
 30
0.0
  0
VERTEX
  5
49
330
47
100
AcDbEntity
  8
_U+30EC_U+30A4_U+30E4_U+30FC 1
 62
   179
420
  2234388
370
    25
100
AcDbVertex
100
AcDb2dVertex
 10
104.7543245497168
 20
-138.4308113542811
 30
0.0
  0
SEQEND
  5
4A
330
47
100
AcDbEntity
  8
_U+30EC_U+30A4_U+30E4_U+30FC 1
 62
   179
420
  2234388
370
    25
  0
POLYLINE
  5
4B
330
1F
100
AcDbEntity
  8
_U+30EC_U+30A4_U+30E4_U+30FC 1
 62
   179
420
  2234388
370
    25
100
AcDb2dPolyline
 66
     1
 10
0.0
 20
0.0
 30
0.0
  0
VERTEX
  5
4C
330
4B
100
AcDbEntity
  8
_U+30EC_U+30A4_U+30E4_U+30FC 1
 62
   179
420
  2234388
370
    25
100
AcDbVertex
100
AcDb2dVertex
 10
81.2541393159231
 20
-136.930835521323
 30
0.0
  0
VERTEX
  5
4D
330
4B
100
AcDbEntity
  8
_U+30EC_U+30A4_U+30E4_U+30FC 1
 62
   179
420
  2234388
370
    25
100
AcDbVertex
100
AcDb2dVertex
 10
104.7543245497168
 20
-136.930835521323
 30
0.0
  0
SEQEND
  5
4E
330
4B
100
AcDbEntity
  8
_U+30EC_U+30A4_U+30E4_U+30FC 1
 62
   179
420
  2234388
370
    25
  0
POLYLINE
  5
4F
330
1F
100
AcDbEntity
  8
_U+30EC_U+30A4_U+30E4_U+30FC 1
 62
   179
420
  2234388
370
    25
100
AcDb2dPolyline
 66
     1
 10
0.0
 20
0.0
 30
0.0
  0
VERTEX
  5
50
330
4F
100
AcDbEntity
  8
_U+30EC_U+30A4_U+30E4_U+30FC 1
 62
   179
420
  2234388
370
    25
100
AcDbVertex
100
AcDb2dVertex
 10
79.75412824308046
 20
-113.4307908049757
 30
0.0
  0
VERTEX
  5
51
330
4F
100
AcDbEntity
  8
_U+30EC_U+30A4_U+30E4_U+30FC 1
 62
   179
420
  2234388
370
    25
100
AcDbVertex
100
AcDb2dVertex
 10
79.75412824308046
 20
-138.4308113542811
 30
0.0
  0
SEQEND
  5
52
330
4F
100
AcDbEntity
  8
_U+30EC_U+30A4_U+30E4_U+30FC 1
 62
   179
420
  2234388
370
    25
  0
POLYLINE
  5
53
330
1F
100
AcDbEntity
  8
_U+30EC_U+30A4_U+30E4_U+30FC 1
 62
   179
420
  2234388
370
    25
100
AcDb2dPolyline
 66
     1
 10
0.0
 20
0.0
 30
0.0
  0
VERTEX
  5
54
330
53
100
AcDbEntity
  8
_U+30EC_U+30A4_U+30E4_U+30FC 1
 62
   179
420
  2234388
370
    25
100
AcDbVertex
100
AcDb2dVertex
 10
79.75412824308046
 20
-113.4307908049757
 30
0.0
  0
VERTEX
  5
55
330
53
100
AcDbEntity
  8
_U+30EC_U+30A4_U+30E4_U+30FC 1
 62
   179
420
  2234388
370
    25
100
AcDbVertex
100
AcDb2dVertex
 10
81.2541393159231
 20
-113.4307908049757
 30
0.0
  0
SEQEND
  5
56
330
53
100
AcDbEntity
  8
_U+30EC_U+30A4_U+30E4_U+30FC 1
 62
   179
420
  2234388
370
    25
  0
POLYLINE
  5
57
330
1F
100
AcDbEntity
  8
_U+30EC_U+30A4_U+30E4_U+30FC 1
 62
   179
420
  2234388
370
    25
100
AcDb2dPolyline
 66
     1
 10
0.0
 20
0.0
 30
0.0
  0
VERTEX
  5
58
330
57
100
AcDbEntity
  8
_U+30EC_U+30A4_U+30E4_U+30FC 1
 62
   179
420
  2234388
370
    25
100
AcDbVertex
100
AcDb2dVertex
 10
81.2541393159231
 20
-113.4307908049757
 30
0.0
  0
VERTEX
  5
59
330
57
100
AcDbEntity
  8
_U+30EC_U+30A4_U+30E4_U+30FC 1
 62
   179
420
  2234388
370
    25
100
AcDbVertex
100
AcDb2dVertex
 10
81.2541393159231
 20
-136.930835521323
 30
0.0
  0
SEQEND
  5
5A
330
57
100
AcDbEntity
  8
_U+30EC_U+30A4_U+30E4_U+30FC 1
 62
   179
420
  2234388
370
    25
  0
SPLINE
  5
5B
330
1F
100
AcDbEntity
  8
_U+30EC_U+30A4_U+30E4_U+30FC 1
 62
   179
420
  2234388
370
     9
100
AcDbSpline
210
0.0
220
0.0
230
1.0
 70
    11
 71
     3
 72
    17
 73
    13
 74
     0
 42
0.0000000001
 43
0.0000000001
 12
1.0
 22
0.0
 32
0.0
 13
1.0
 23
0.0
 33
0.0
 40
0.0
 40
0.0
 40
0.0
 40
0.0
 40
1.0
 40
1.0
 40
1.0
 40
2.0
 40
2.0
 40
2.0
 40
3.0
 40
3.0
 40
3.0
 40
4.0
 40
4.0
 40
4.0
 40
4.0
 10
107.6192680877371
 20
-138.4308113542811
 30
0.0
 10
107.6192680877371
 20
-138.3753546876284
 30
0.0
 10
107.5744653111023
 20
-138.3305871876398
 30
0.0
 10
107.5193614236192
 20
-138.3305871876398
 30
0.0
 10
107.4642249731338
 20
-138.3305871876398
 30
0.0
 10
107.4194547595014
 20
-138.3753546876284
 30
0.0
 10
107.4194547595014
 20
-138.4308113542811
 30
0.0
 10
107.4194547595014
 20
-138.4859505209342
 30
0.0
 10
107.4642249731338
 20
-138.5307180209227
 30
0.0
 10
107.5193614236192
 20
-138.5307180209227
 30
0.0
 10
107.5744653111023
 20
-138.5307180209227
 30
0.0
 10
107.6192680877371
 20
-138.4859505209342
 30
0.0
 10
107.6192680877371
 20
-138.4308113542811
 30
0.0
  0
SPLINE
  5
5C
330
1F
100
AcDbEntity
  8
_U+30EC_U+30A4_U+30E4_U+30FC 1
 62
   179
420
  2234388
370
     9
100
AcDbSpline
210
0.0
220
0.0
230
1.0
 70
    11
 71
     3
 72
    17
 73
    13
 74
     0
 42
0.0000000001
 43
0.0000000001
 12
1.0
 22
0.0
 32
0.0
 13
1.0
 23
0.0
 33
0.0
 40
0.0
 40
0.0
 40
0.0
 40
0.0
 40
1.0
 40
1.0
 40
1.0
 40
2.0
 40
2.0
 40
2.0
 40
3.0
 40
3.0
 40
3.0
 40
4.0
 40
4.0
 40
4.0
 40
4.0
 10
104.8542312138346
 20
-142.430570519948
 30
0.0
 10
104.8542312138346
 20
-142.3754666310731
 30
0.0
 10
104.8094637149767
 20
-142.3306638533063
 30
0.0
 10
104.7543245497168
 20
-142.3306638533063
 30
0.0
 10
104.6992206622337
 20
-142.3306638533063
 30
0.0
 10
104.6544178855989
 20
-142.3754666310731
 30
0.0
 10
104.6544178855989
 20
-142.430570519948
 30
0.0
 10
104.6544178855989
 20
-142.4860624643782
 30
0.0
 10
104.6992206622337
 20
-142.5304771865896
 30
0.0
 10
104.7543245497168
 20
-142.5304771865896
 30
0.0
 10
104.8094637149767
 20
-142.5304771865896
 30
0.0
 10
104.8542312138346
 20
-142.4860624643782
 30
0.0
 10
104.8542312138346
 20
-142.430570519948
 30
0.0
  0
SPLINE
  5
5D
330
1F
100
AcDbEntity
  8
_U+30EC_U+30A4_U+30E4_U+30FC 1
 62
   179
420
  2234388
370
     9
100
AcDbSpline
210
0.0
220
0.0
230
1.0
 70
    11
 71
     3
 72
    17
 73
    13
 74
     0
 42
0.0000000001
 43
0.0000000001
 12
1.0
 22
0.0
 32
0.0
 13
1.0
 23
0.0
 33
0.0
 40
0.0
 40
0.0
 40
0.0
 40
0.0
 40
1.0
 40
1.0
 40
1.0
 40
2.0
 40
2.0
 40
2.0
 40
3.0
 40
3.0
 40
3.0
 40
4.0
 40
4.0
 40
4.0
 40
4.0
 10
107.6192680877371
 20
-136.930835521323
 30
0.0
 10
107.6192680877371
 20
-136.8753788546703
 30
0.0
 10
107.5744653111023
 20
-136.8305760769036
 30
0.0
 10
107.5193614236192
 20
-136.8305760769036
 30
0.0
 10
107.4642249731338
 20
-136.8305760769036
 30
0.0
 10
107.4194547595014
 20
-136.8753788546703
 30
0.0
 10
107.4194547595014
 20
-136.930835521323
 30
0.0
 10
107.4194547595014
 20
-136.9859394101979
 30
0.0
 10
107.4642249731338
 20
-137.0307421879646
 30
0.0
 10
107.5193614236192
 20
-137.0307421879646
 30
0.0
 10
107.5744653111023
 20
-137.0307421879646
 30
0.0
 10
107.6192680877371
 20
-136.9859394101979
 30
0.0
 10
107.6192680877371
 20
-136.930835521323
 30
0.0
  0
SPLINE
  5
5E
330
1F
100
AcDbEntity
  8
_U+30EC_U+30A4_U+30E4_U+30FC 1
 62
   179
420
  2234388
370
     9
100
AcDbSpline
210
0.0
220
0.0
230
1.0
 70
    11
 71
     3
 72
    17
 73
    13
 74
     0
 42
0.0000000001
 43
0.0000000001
 12
1.0
 22
0.0
 32
0.0
 13
1.0
 23
0.0
 33
0.0
 40
0.0
 40
0.0
 40
0.0
 40
0.0
 40
1.0
 40
1.0
 40
1.0
 40
2.0
 40
2.0
 40
2.0
 40
3.0
 40
3.0
 40
3.0
 40
4.0
 40
4.0
 40
4.0
 40
4.0
 10
75.85427775881436
 20
-113.4307908049757
 30
0.0
 10
75.85427775881436
 20
-113.3756869161005
 30
0.0
 10
75.80950834371609
 20
-113.3308841383341
 30
0.0
 10
75.75419278957176
 20
-113.3308841383341
 30
0.0
 10
75.69891251320429
 20
-113.3308841383341
 30
0.0
 10
75.65428612545392
 20
-113.3756869161005
 30
0.0
 10
75.65428612545392
 20
-113.4307908049757
 30
0.0
 10
75.65428612545392
 20
-113.4859299716285
 30
0.0
 10
75.69891251320429
 20
-113.5306974716174
 30
0.0
 10
75.75419278957176
 20
-113.5306974716174
 30
0.0
 10
75.80950834371609
 20
-113.5306974716174
 30
0.0
 10
75.85427775881436
 20
-113.4859299716285
 30
0.0
 10
75.85427775881436
 20
-113.4307908049757
 30
0.0
  0
SPLINE
  5
5F
330
1F
100
AcDbEntity
  8
_U+30EC_U+30A4_U+30E4_U+30FC 1
 62
   179
420
  2234388
370
     9
100
AcDbSpline
210
0.0
220
0.0
230
1.0
 70
    11
 71
     3
 72
    17
 73
    13
 74
     0
 42
0.0000000001
 43
0.0000000001
 12
1.0
 22
0.0
 32
0.0
 13
1.0
 23
0.0
 33
0.0
 40
0.0
 40
0.0
 40
0.0
 40
0.0
 40
1.0
 40
1.0
 40
1.0
 40
2.0
 40
2.0
 40
2.0
 40
3.0
 40
3.0
 40
3.0
 40
4.0
 40
4.0
 40
4.0
 40
4.0
 10
75.85427775881436
 20
-138.4308113542811
 30
0.0
 10
75.85427775881436
 20
-138.3753546876284
 30
0.0
 10
75.80950834371609
 20
-138.3305871876398
 30
0.0
 10
75.75419278957176
 20
-138.3305871876398
 30
0.0
 10
75.69891251320429
 20
-138.3305871876398
 30
0.0
 10
75.65428612545392
 20
-138.3753546876284
 30
0.0
 10
75.65428612545392
 20
-138.4308113542811
 30
0.0
 10
75.65428612545392
 20
-138.4859505209342
 30
0.0
 10
75.69891251320429
 20
-138.5307180209227
 30
0.0
 10
75.75419278957176
 20
-138.5307180209227
 30
0.0
 10
75.80950834371609
 20
-138.5307180209227
 30
0.0
 10
75.85427775881436
 20
-138.4859505209342
 30
0.0
 10
75.85427775881436
 20
-138.4308113542811
 30
0.0
  0
SPLINE
  5
60
330
1F
100
AcDbEntity
  8
_U+30EC_U+30A4_U+30E4_U+30FC 1
 62
   179
420
  2234388
370
     9
100
AcDbSpline
210
0.0
220
0.0
230
1.0
 70
    11
 71
     3
 72
    17
 73
    13
 74
     0
 42
0.0000000001
 43
0.0000000001
 12
1.0
 22
0.0
 32
0.0
 13
1.0
 23
0.0
 33
0.0
 40
0.0
 40
0.0
 40
0.0
 40
0.0
 40
1.0
 40
1.0
 40
1.0
 40
2.0
 40
2.0
 40
2.0
 40
3.0
 40
3.0
 40
3.0
 40
4.0
 40
4.0
 40
4.0
 40
4.0
 10
79.85421129608268
 20
-142.430570519948
 30
0.0
 10
79.85421129608268
 20
-142.3754666310731
 30
0.0
 10
79.80940851944791
 20
-142.3306638533063
 30
0.0
 10
79.75412824308046
 20
-142.3306638533063
 30
0.0
 10
79.69902435559739
 20
-142.3306638533063
 30
0.0
 10
79.65422157896262
 20
-142.3754666310731
 30
0.0
 10
79.65422157896262
 20
-142.430570519948
 30
0.0
 10
79.65422157896262
 20
-142.4860624643782
 30
0.0
 10
79.69902435559739
 20
-142.5304771865896
 30
0.0
 10
79.75412824308046
 20
-142.5304771865896
 30
0.0
 10
79.80940851944791
 20
-142.5304771865896
 30
0.0
 10
79.85421129608268
 20
-142.4860624643782
 30
0.0
 10
79.85421129608268
 20
-142.430570519948
 30
0.0
  0
POLYLINE
  5
61
330
1F
100
AcDbEntity
  8
_U+30EC_U+30A4_U+30E4_U+30FC 1
 62
   179
420
  2234388
370
     9
100
AcDb2dPolyline
 66
     1
 10
0.0
 20
0.0
 30
0.0
  0
VERTEX
  5
62
330
61
100
AcDbEntity
  8
_U+30EC_U+30A4_U+30E4_U+30FC 1
 62
   179
420
  2234388
370
     9
100
AcDbVertex
100
AcDb2dVertex
 10
107.5193614236192
 20
-136.930835521323
 30
0.0
  0
VERTEX
  5
63
330
61
100
AcDbEntity
  8
_U+30EC_U+30A4_U+30E4_U+30FC 1
 62
   179
420
  2234388
370
     9
100
AcDbVertex
100
AcDb2dVertex
 10
107.5193614236192
 20
-131.2643424671841
 30
0.0
  0
SEQEND
  5
64
330
61
100
AcDbEntity
  8
_U+30EC_U+30A4_U+30E4_U+30FC 1
 62
   179
420
  2234388
370
     9
  0
POLYLINE
  5
65
330
1F
100
AcDbEntity
  8
_U+30EC_U+30A4_U+30E4_U+30FC 1
 62
   179
420
  2234388
370
     9
100
AcDb2dPolyline
 66
     1
 10
0.0
 20
0.0
 30
0.0
  0
VERTEX
  5
66
330
65
100
AcDbEntity
  8
_U+30EC_U+30A4_U+30E4_U+30FC 1
 62
   179
420
  2234388
370
     9
100
AcDbVertex
100
AcDb2dVertex
 10
107.5193614236192
 20
-136.930835521323
 30
0.0
  0
VERTEX
  5
67
330
65
100
AcDbEntity
  8
_U+30EC_U+30A4_U+30E4_U+30FC 1
 62
   179
420
  2234388
370
     9
100
AcDbVertex
100
AcDb2dVertex
 10
107.5193614236192
 20
-139.4305835762536
 30
0.0
  0
SEQEND
  5
68
330
65
100
AcDbEntity
  8
_U+30EC_U+30A4_U+30E4_U+30FC 1
 62
   179
420
  2234388
370
     9
  0
POLYLINE
  5
69
330
1F
100
AcDbEntity
  8
_U+30EC_U+30A4_U+30E4_U+30FC 1
 62
   179
420
  2234388
370
     9
100
AcDb2dPolyline
 66
     1
 10
0.0
 20
0.0
 30
0.0
  0
VERTEX
  5
6A
330
69
100
AcDbEntity
  8
_U+30EC_U+30A4_U+30E4_U+30FC 1
 62
   179
420
  2234388
370
     9
100
AcDbVertex
100
AcDb2dVertex
 10
106.0593200719791
 20
-136.930835521323
 30
0.0
  0
VERTEX
  5
6B
330
69
100
AcDbEntity
  8
_U+30EC_U+30A4_U+30E4_U+30FC 1
 62
   179
420
  2234388
370
     9
100
AcDbVertex
100
AcDb2dVertex
 10
108.5198038980958
 20
-136.930835521323
 30
0.0
  0
SEQEND
  5
6C
330
69
100
AcDbEntity
  8
_U+30EC_U+30A4_U+30E4_U+30FC 1
 62
   179
420
  2234388
370
     9
  0
POLYLINE
  5
6D
330
1F
100
AcDbEntity
  8
_U+30EC_U+30A4_U+30E4_U+30FC 1
 62
   179
420
  2234388
370
     9
100
AcDb2dPolyline
 66
     1
 10
0.0
 20
0.0
 30
0.0
  0
VERTEX
  5
6E
330
6D
100
AcDbEntity
  8
_U+30EC_U+30A4_U+30E4_U+30FC 1
 62
   179
420
  2234388
370
     9
100
AcDbVertex
100
AcDb2dVertex
 10
106.0593200719791
 20
-138.4308113542811
 30
0.0
  0
VERTEX
  5
6F
330
6D
100
AcDbEntity
  8
_U+30EC_U+30A4_U+30E4_U+30FC 1
 62
   179
420
  2234388
370
     9
100
AcDbVertex
100
AcDb2dVertex
 10
108.5198038980958
 20
-138.4308113542811
 30
0.0
  0
SEQEND
  5
70
330
6D
100
AcDbEntity
  8
_U+30EC_U+30A4_U+30E4_U+30FC 1
 62
   179
420
  2234388
370
     9
  0
INSERT
  5
72
330
1F
100
AcDbEntity
  8
_U+30EC_U+30A4_U+30E4_U+30FC 1
100
AcDbBlockReference
  2
block 2
 10
0.0
 20
0.0
 30
0.0
  0
POLYLINE
  5
81
330
1F
100
AcDbEntity
  8
_U+30EC_U+30A4_U+30E4_U+30FC 1
 62
   179
420
  2234388
370
     9
100
AcDb2dPolyline
 66
     1
 10
0.0
 20
0.0
 30
0.0
  0
VERTEX
  5
82
330
81
100
AcDbEntity
  8
_U+30EC_U+30A4_U+30E4_U+30FC 1
 62
   179
420
  2234388
370
     9
100
AcDbVertex
100
AcDb2dVertex
 10
79.75412824308046
 20
-142.430570519948
 30
0.0
  0
VERTEX
  5
83
330
81
100
AcDbEntity
  8
_U+30EC_U+30A4_U+30E4_U+30FC 1
 62
   179
420
  2234388
370
     9
100
AcDbVertex
100
AcDb2dVertex
 10
104.7543245497168
 20
-142.430570519948
 30
0.0
  0
SEQEND
  5
84
330
81
100
AcDbEntity
  8
_U+30EC_U+30A4_U+30E4_U+30FC 1
 62
   179
420
  2234388
370
     9
  0
POLYLINE
  5
85
330
1F
100
AcDbEntity
  8
_U+30EC_U+30A4_U+30E4_U+30FC 1
 62
   179
420
  2234388
370
     9
100
AcDb2dPolyline
 66
     1
 10
0.0
 20
0.0
 30
0.0
  0
VERTEX
  5
86
330
85
100
AcDbEntity
  8
_U+30EC_U+30A4_U+30E4_U+30FC 1
 62
   179
420
  2234388
370
     9
100
AcDbVertex
100
AcDb2dVertex
 10
79.75412824308046
 20
-140.9705644092018
 30
0.0
  0
VERTEX
  5
87
330
85
100
AcDbEntity
  8
_U+30EC_U+30A4_U+30E4_U+30FC 1
 62
   179
420
  2234388
370
     9
100
AcDbVertex
100
AcDb2dVertex
 10
79.75412824308046
 20
-143.4306955196977
 30
0.0
  0
SEQEND
  5
88
330
85
100
AcDbEntity
  8
_U+30EC_U+30A4_U+30E4_U+30FC 1
 62
   179
420
  2234388
370
     9
  0
POLYLINE
  5
89
330
1F
100
AcDbEntity
  8
_U+30EC_U+30A4_U+30E4_U+30FC 1
 62
   179
420
  2234388
370
     9
100
AcDb2dPolyline
 66
     1
 10
0.0
 20
0.0
 30
0.0
  0
VERTEX
  5
8A
330
89
100
AcDbEntity
  8
_U+30EC_U+30A4_U+30E4_U+30FC 1
 62
   179
420
  2234388
370
     9
100
AcDbVertex
100
AcDb2dVertex
 10
104.7543245497168
 20
-140.9705644092018
 30
0.0
  0
VERTEX
  5
8B
330
89
100
AcDbEntity
  8
_U+30EC_U+30A4_U+30E4_U+30FC 1
 62
   179
420
  2234388
370
     9
100
AcDbVertex
100
AcDb2dVertex
 10
104.7543245497168
 20
-143.4306955196977
 30
0.0
  0
SEQEND
  5
8C
330
89
100
AcDbEntity
  8
_U+30EC_U+30A4_U+30E4_U+30FC 1
 62
   179
420
  2234388
370
     9
  0
INSERT
  5
8E
330
1F
100
AcDbEntity
  8
_U+30EC_U+30A4_U+30E4_U+30FC 1
100
AcDbBlockReference
  2
block 3
 10
0.0
 20
0.0
 30
0.0
  0
POLYLINE
  5
95
330
1F
100
AcDbEntity
  8
_U+30EC_U+30A4_U+30E4_U+30FC 1
 62
   179
420
  2234388
370
     9
100
AcDb2dPolyline
 66
     1
 10
0.0
 20
0.0
 30
0.0
  0
VERTEX
  5
96
330
95
100
AcDbEntity
  8
_U+30EC_U+30A4_U+30E4_U+30FC 1
 62
   179
420
  2234388
370
     9
100
AcDbVertex
100
AcDb2dVertex
 10
75.75419278957176
 20
-113.4307908049757
 30
0.0
  0
VERTEX
  5
97
330
95
100
AcDbEntity
  8
_U+30EC_U+30A4_U+30E4_U+30FC 1
 62
   179
420
  2234388
370
     9
100
AcDbVertex
100
AcDb2dVertex
 10
75.75419278957176
 20
-138.4308113542811
 30
0.0
  0
SEQEND
  5
98
330
95
100
AcDbEntity
  8
_U+30EC_U+30A4_U+30E4_U+30FC 1
 62
   179
420
  2234388
370
     9
  0
POLYLINE
  5
99
330
1F
100
AcDbEntity
  8
_U+30EC_U+30A4_U+30E4_U+30FC 1
 62
   179
420
  2234388
370
     9
100
AcDb2dPolyline
 66
     1
 10
0.0
 20
0.0
 30
0.0
  0
VERTEX
  5
9A
330
99
100
AcDbEntity
  8
_U+30EC_U+30A4_U+30E4_U+30FC 1
 62
   179
420
  2234388
370
     9
100
AcDbVertex
100
AcDb2dVertex
 10
77.21423609180755
 20
-113.4307908049757
 30
0.0
  0
VERTEX
  5
9B
330
99
100
AcDbEntity
  8
_U+30EC_U+30A4_U+30E4_U+30FC 1
 62
   179
420
  2234388
370
     9
100
AcDbVertex
100
AcDb2dVertex
 10
74.75427948174833
 20
-113.4307908049757
 30
0.0
  0
SEQEND
  5
9C
330
99
100
AcDbEntity
  8
_U+30EC_U+30A4_U+30E4_U+30FC 1
 62
   179
420
  2234388
370
     9
  0
POLYLINE
  5
9D
330
1F
100
AcDbEntity
  8
_U+30EC_U+30A4_U+30E4_U+30FC 1
 62
   179
420
  2234388
370
     9
100
AcDb2dPolyline
 66
     1
 10
0.0
 20
0.0
 30
0.0
  0
VERTEX
  5
9E
330
9D
100
AcDbEntity
  8
_U+30EC_U+30A4_U+30E4_U+30FC 1
 62
   179
420
  2234388
370
     9
100
AcDbVertex
100
AcDb2dVertex
 10
77.21423609180755
 20
-138.4308113542811
 30
0.0
  0
VERTEX
  5
9F
330
9D
100
AcDbEntity
  8
_U+30EC_U+30A4_U+30E4_U+30FC 1
 62
   179
420
  2234388
370
     9
100
AcDbVertex
100
AcDb2dVertex
 10
74.75427948174833
 20
-138.4308113542811
 30
0.0
  0
SEQEND
  5
A0
330
9D
100
AcDbEntity
  8
_U+30EC_U+30A4_U+30E4_U+30FC 1
 62
   179
420
  2234388
370
     9
  0
INSERT
  5
A2
330
1F
100
AcDbEntity
  8
_U+30EC_U+30A4_U+30E4_U+30FC 1
100
AcDbBlockReference
  2
block 4
 10
0.0
 20
0.0
 30
0.0
  0
ENDSEC
  0
SECTION
  2
OBJECTS
  0
DICTIONARY
  5
C
330
0
100
AcDbDictionary
281
     1
  3
ACAD_GROUP
350
D
  3
ACAD_LAYOUT
350
1A
  3
ACAD_MATERIAL
350
3B
  3
ACAD_MLEADERSTYLE
350
AA
  3
ACAD_MLINESTYLE
350
17
  3
ACAD_PLOTSETTINGS
350
19
  3
ACAD_PLOTSTYLENAME
350
E
  3
ACAD_TABLESTYLE
350
A9
  3
ACAD_VISUALSTYLE
350
2A
  0
SUN
  5
3F
330
29
100
AcDbSun
 90
        1
290
     0
 63
     7
421
 16777215
 40
1.0
291
     1
 91
  2455826
 92
 54000000
292
     0
 70
     2
 71
   256
280
     1
  0
DICTIONARY
  5
D
102
{ACAD_REACTORS
330
C
102
}
330
C
100
AcDbDictionary
281
     1
  0
DICTIONARY
  5
1A
102
{ACAD_REACTORS
330
C
102
}
330
C
100
AcDbDictionary
281
     1
  3
Layout1
350
1E
  3
Layout2
350
26
  3
Model
350
22
  0
DICTIONARY
  5
3B
102
{ACAD_REACTORS
330
C
102
}
330
C
100
AcDbDictionary
281
     1
  3
ByBlock
350
3D
  3
ByLayer
350
3C
  3
Global
350
3E
  0
DICTIONARY
  5
AA
102
{ACAD_REACTORS
330
C
102
}
330
C
100
AcDbDictionary
281
     1
  0
DICTIONARY
  5
17
102
{ACAD_REACTORS
330
C
102
}
330
C
100
AcDbDictionary
281
     1
  3
Standard
350
18
  0
DICTIONARY
  5
19
102
{ACAD_REACTORS
330
C
102
}
330
C
100
AcDbDictionary
281
     1
  0
ACDBDICTIONARYWDFLT
  5
E
102
{ACAD_REACTORS
330
C
102
}
330
C
100
AcDbDictionary
281
     1
  3
Normal
350
F
100
AcDbDictionaryWithDefault
340
F
  0
DICTIONARY
  5
A9
102
{ACAD_REACTORS
330
C
102
}
330
C
100
AcDbDictionary
281
     1
  0
DICTIONARY
  5
2A
102
{ACAD_REACTORS
330
C
102
}
330
C
100
AcDbDictionary
281
     1
  3
2dWireframe
350
2F
  3
3D Hidden
350
31
  3
3dWireframe
350
30
  3
Basic
350
32
  3
Brighten
350
36
  3
ColorChange
350
3A
  3
Conceptual
350
34
  3
Dim
350
35
  3
Facepattern
350
39
  3
Flat
350
2B
  3
FlatWithEdges
350
2C
  3
Gouraud
350
2D
  3
GouraudWithEdges
350
2E
  3
Linepattern
350
38
  3
Realistic
350
33
  3
Thicken
350
37
  0
LAYOUT
  5
1E
102
{ACAD_REACTORS
330
1A
102
}
330
1A
100
AcDbPlotSettings
  1

  2
none_device
  4

  6

 40
0.0
 41
0.0
 42
0.0
 43
0.0
 44
0.0
 45
0.0
 46
0.0
 47
0.0
 48
0.0
 49
0.0
140
0.0
141
0.0
142
1.0
143
1.0
 70
   688
 72
     0
 73
     0
 74
     5
  7

 75
    16
 76
     0
 77
     2
 78
   300
147
1.0
148
0.0
149
0.0
100
AcDbLayout
  1
Layout1
 70
     1
 71
     1
 10
0.0
 20
0.0
 11
12.0
 21
9.0
 12
0.0
 22
0.0
 32
0.0
 14
1.000000000000000E+20
 24
1.000000000000000E+20
 34
1.000000000000000E+20
 15
-1.000000000000000E+20
 25
-1.000000000000000E+20
 35
-1.000000000000000E+20
146
0.0
 13
0.0
 23
0.0
 33
0.0
 16
1.0
 26
0.0
 36
0.0
 17
0.0
 27
1.0
 37
0.0
 76
     0
330
1B
  0
LAYOUT
  5
26
102
{ACAD_REACTORS
330
1A
102
}
330
1A
100
AcDbPlotSettings
  1

  2
none_device
  4

  6

 40
0.0
 41
0.0
 42
0.0
 43
0.0
 44
0.0
 45
0.0
 46
0.0
 47
0.0
 48
0.0
 49
0.0
140
0.0
141
0.0
142
1.0
143
1.0
 70
   688
 72
     0
 73
     0
 74
     5
  7

 75
    16
 76
     0
 77
     2
 78
   300
147
1.0
148
0.0
149
0.0
100
AcDbLayout
  1
Layout2
 70
     1
 71
     2
 10
0.0
 20
0.0
 11
0.0
 21
0.0
 12
0.0
 22
0.0
 32
0.0
 14
0.0
 24
0.0
 34
0.0
 15
0.0
 25
0.0
 35
0.0
146
0.0
 13
0.0
 23
0.0
 33
0.0
 16
1.0
 26
0.0
 36
0.0
 17
0.0
 27
1.0
 37
0.0
 76
     0
330
23
  0
LAYOUT
  5
22
102
{ACAD_REACTORS
330
1A
102
}
330
1A
100
AcDbPlotSettings
  1

  2
none_device
  4

  6

 40
0.0
 41
0.0
 42
0.0
 43
0.0
 44
0.0
 45
0.0
 46
0.0
 47
0.0
 48
0.0
 49
0.0
140
0.0
141
0.0
142
1.0
143
1.0
 70
  1712
 72
     0
 73
     0
 74
     0
  7

 75
     0
 76
     0
 77
     2
 78
   300
147
1.0
148
0.0
149
0.0
100
AcDbLayout
  1
Model
 70
     1
 71
     0
 10
0.0
 20
0.0
 11
12.0
 21
9.0
 12
0.0
 22
0.0
 32
0.0
 14
1.000000000000000E+20
 24
1.000000000000000E+20
 34
1.000000000000000E+20
 15
-1.000000000000000E+20
 25
-1.000000000000000E+20
 35
-1.000000000000000E+20
146
0.0
 13
0.0
 23
0.0
 33
0.0
 16
1.0
 26
0.0
 36
0.0
 17
0.0
 27
1.0
 37
0.0
 76
     0
330
1F
331
29
  0
MATERIAL
  5
3D
102
{ACAD_REACTORS
330
3B
102
}
330
3B
100
AcDbMaterial
  1
ByBlock
 72
     1
 94
      127
  0
MATERIAL
  5
3C
102
{ACAD_REACTORS
330
3B
102
}
330
3B
100
AcDbMaterial
  1
ByLayer
 72
     1
 94
      127
  0
MATERIAL
  5
3E
102
{ACAD_REACTORS
330
3B
102
}
330
3B
100
AcDbMaterial
  1
Global
 72
     1
 94
      127
  0
MLINESTYLE
  5
18
102
{ACAD_REACTORS
330
17
102
}
330
17
100
AcDbMlineStyle
  2
Standard
 70
     0
  3

 62
   256
 51
90.0
 52
90.0
 71
     2
 49
0.5
 62
   256
  6
BYLAYER
 49
-0.5
 62
   256
  6
BYLAYER
  0
ACDBPLACEHOLDER
  5
F
102
{ACAD_REACTORS
330
E
102
}
330
E
  0
VISUALSTYLE
  5
2F
102
{ACAD_REACTORS
330
2A
102
}
330
2A
100
AcDbVisualStyle
  2
2dWireframe
 70
     4
177
     2
291
     0
 71
     0
176
     1
 72
     2
176
     1
 73
     0
176
     1
 90
        0
176
     1
 40
-0.6
176
     1
 41
-30.0
176
     1
 62
     5
 63
     7
421
 16777215
176
     1
 74
     1
176
     1
 91
        4
176
     1
 64
     7
176
     1
 65
   257
176
     1
 75
     1
176
     1
175
     1
176
     1
 42
1.0
176
     1
 92
        0
176
     1
 66
   257
176
     1
 43
1.0
176
     1
 76
     1
176
     1
 77
     6
176
     1
 78
     2
176
     1
 67
     7
176
     1
 79
     5
176
     1
170
     0
176
     1
171
     0
176
     1
290
     0
176
     1
 93
        1
176
     1
 44
0.0
176
     1
173
     0
176
     1
  0
VISUALSTYLE
  5
31
102
{ACAD_REACTORS
330
2A
102
}
330
2A
100
AcDbVisualStyle
  2
3D Hidden
 70
     6
177
     2
291
     0
 71
     1
176
     1
 72
     2
176
     1
 73
     2
176
     1
 90
        0
176
     1
 40
-0.6
176
     1
 41
-30.0
176
     1
 62
     5
 63
     7
421
 16777215
176
     1
 74
     2
176
     1
 91
        2
176
     1
 64
     7
176
     1
 65
   257
176
     1
 75
     2
176
     1
175
     1
176
     1
 42
40.0
176
     1
 92
        0
176
     1
 66
   257
176
     1
 43
1.0
176
     1
 76
     1
176
     1
 77
     6
176
     1
 78
     2
176
     1
 67
     7
176
     1
 79
     3
176
     1
170
     0
176
     1
171
     0
176
     1
290
     0
176
     1
 93
        1
176
     1
 44
0.0
176
     1
173
     0
176
     1
  0
VISUALSTYLE
  5
30
102
{ACAD_REACTORS
330
2A
102
}
330
2A
100
AcDbVisualStyle
  2
3dWireframe
 70
     5
177
     2
291
     0
 71
     0
176
     1
 72
     2
176
     1
 73
     0
176
     1
 90
        0
176
     1
 40
-0.6
176
     1
 41
-30.0
176
     1
 62
     5
 63
     7
421
 16777215
176
     1
 74
     1
176
     1
 91
        4
176
     1
 64
     7
176
     1
 65
   257
176
     1
 75
     1
176
     1
175
     1
176
     1
 42
1.0
176
     1
 92
        0
176
     1
 66
   257
176
     1
 43
1.0
176
     1
 76
     1
176
     1
 77
     6
176
     1
 78
     2
176
     1
 67
     7
176
     1
 79
     5
176
     1
170
     0
176
     1
171
     0
176
     1
290
     0
176
     1
 93
        1
176
     1
 44
0.0
176
     1
173
     0
176
     1
  0
VISUALSTYLE
  5
32
102
{ACAD_REACTORS
330
2A
102
}
330
2A
100
AcDbVisualStyle
  2
Basic
 70
     7
177
     2
291
     1
 71
     1
176
     1
 72
     0
176
     1
 73
     1
176
     1
 90
        0
176
     1
 40
-0.6
176
     1
 41
-30.0
176
     1
 62
     5
 63
     7
421
 16777215
176
     1
 74
     0
176
     1
 91
        4
176
     1
 64
     7
176
     1
 65
   257
176
     1
 75
     1
176
     1
175
     1
176
     1
 42
1.0
176
     1
 92
        8
176
     1
 66
     7
176
     1
 43
1.0
176
     1
 76
     1
176
     1
 77
     6
176
     1
 78
     2
176
     1
 67
     7
176
     1
 79
     5
176
     1
170
     0
176
     1
171
     0
176
     1
290
     0
176
     1
 93
        1
176
     1
 44
0.0
176
     1
173
     0
176
     1
  0
VISUALSTYLE
  5
36
102
{ACAD_REACTORS
330
2A
102
}
330
2A
100
AcDbVisualStyle
  2
Brighten
 70
    12
177
     2
291
     1
 71
     2
176
     1
 72
     2
176
     1
 73
     0
176
     1
 90
        0
176
     1
 40
-0.6
176
     1
 41
-30.0
176
     1
 62
     5
 63
     7
421
 16777215
176
     1
 74
     1
176
     1
 91
        4
176
     1
 64
     7
176
     1
 65
   257
176
     1
 75
     1
176
     1
175
     1
176
     1
 42
1.0
176
     1
 92
        8
176
     1
 66
     7
176
     1
 43
1.0
176
     1
 76
     1
176
     1
 77
     6
176
     1
 78
     2
176
     1
 67
     7
176
     1
 79
     5
176
     1
170
     0
176
     1
171
     0
176
     1
290
     0
176
     1
 93
        1
176
     1
 44
50.0
176
     1
173
     0
176
     1
  0
VISUALSTYLE
  5
3A
102
{ACAD_REACTORS
330
2A
102
}
330
2A
100
AcDbVisualStyle
  2
ColorChange
 70
    16
177
     2
291
     1
 71
     2
176
     1
 72
     2
176
     1
 73
     3
176
     1
 90
        0
176
     1
 40
-0.6
176
     1
 41
-30.0
176
     1
 62
     5
 63
     8
421
  8421504
176
     1
 74
     1
176
     1
 91
        4
176
     1
 64
     7
176
     1
 65
   257
176
     1
 75
     1
176
     1
175
     1
176
     1
 42
1.0
176
     1
 92
        8
176
     1
 66
     8
424
  8421504
176
     1
 43
1.0
176
     1
 76
     1
176
     1
 77
     6
176
     1
 78
     2
176
     1
 67
     7
176
     1
 79
     5
176
     1
170
     0
176
     1
171
     0
176
     1
290
     0
176
     1
 93
        1
176
     1
 44
0.0
176
     1
173
     0
176
     1
  0
VISUALSTYLE
  5
34
102
{ACAD_REACTORS
330
2A
102
}
330
2A
100
AcDbVisualStyle
  2
Conceptual
 70
     9
177
     2
291
     0
 71
     3
176
     1
 72
     2
176
     1
 73
     0
176
     1
 90
        0
176
     1
 40
-0.6
176
     1
 41
-30.0
176
     1
 62
     5
 63
     7
421
 16777215
176
     1
 74
     2
176
     1
 91
        2
176
     1
 64
     7
176
     1
 65
   257
176
     1
 75
     1
176
     1
175
     1
176
     1
 42
40.0
176
     1
 92
        8
176
     1
 66
     7
176
     1
 43
1.0
176
     1
 76
     1
176
     1
 77
     6
176
     1
 78
     2
176
     1
 67
     7
176
     1
 79
     3
176
     1
170
     0
176
     1
171
     0
176
     1
290
     0
176
     1
 93
        1
176
     1
 44
0.0
176
     1
173
     0
176
     1
  0
VISUALSTYLE
  5
35
102
{ACAD_REACTORS
330
2A
102
}
330
2A
100
AcDbVisualStyle
  2
Dim
 70
    11
177
     2
291
     1
 71
     2
176
     1
 72
     2
176
     1
 73
     0
176
     1
 90
        0
176
     1
 40
-0.6
176
     1
 41
-30.0
176
     1
 62
     5
 63
     7
421
 16777215
176
     1
 74
     1
176
     1
 91
        4
176
     1
 64
     7
176
     1
 65
   257
176
     1
 75
     1
176
     1
175
     1
176
     1
 42
1.0
176
     1
 92
        8
176
     1
 66
     7
176
     1
 43
1.0
176
     1
 76
     1
176
     1
 77
     6
176
     1
 78
     2
176
     1
 67
     7
176
     1
 79
     5
176
     1
170
     0
176
     1
171
     0
176
     1
290
     0
176
     1
 93
        1
176
     1
 44
-50.0
176
     1
173
     0
176
     1
  0
VISUALSTYLE
  5
39
102
{ACAD_REACTORS
330
2A
102
}
330
2A
100
AcDbVisualStyle
  2
Facepattern
 70
    15
177
     2
291
     1
 71
     2
176
     1
 72
     2
176
     1
 73
     0
176
     1
 90
        0
176
     1
 40
-0.6
176
     1
 41
-30.0
176
     1
 62
     5
 63
     7
421
 16777215
176
     1
 74
     1
176
     1
 91
        4
176
     1
 64
     7
176
     1
 65
   257
176
     1
 75
     1
176
     1
175
     1
176
     1
 42
1.0
176
     1
 92
        8
176
     1
 66
     7
176
     1
 43
1.0
176
     1
 76
     1
176
     1
 77
     6
176
     1
 78
     2
176
     1
 67
     7
176
     1
 79
     5
176
     1
170
     0
176
     1
171
     0
176
     1
290
     0
176
     1
 93
        1
176
     1
 44
0.0
176
     1
173
     0
176
     1
  0
VISUALSTYLE
  5
2B
102
{ACAD_REACTORS
330
2A
102
}
330
2A
100
AcDbVisualStyle
  2
Flat
 70
     0
177
     2
291
     1
 71
     2
176
     1
 72
     1
176
     1
 73
     1
176
     1
 90
        2
176
     1
 40
-0.6
176
     1
 41
30.0
176
     1
 62
     5
 63
     7
421
 16777215
176
     1
 74
     0
176
     1
 91
        4
176
     1
 64
     7
176
     1
 65
   257
176
     1
 75
     1
176
     1
175
     1
176
     1
 42
1.0
176
     1
 92
        8
176
     1
 66
     7
176
     1
 43
1.0
176
     1
 76
     1
176
     1
 77
     6
176
     1
 78
     2
176
     1
 67
     7
176
     1
 79
     5
176
     1
170
     0
176
     1
171
     0
176
     1
290
     0
176
     1
 93
       13
176
     1
 44
0.0
176
     1
173
     0
176
     1
  0
VISUALSTYLE
  5
2C
102
{ACAD_REACTORS
330
2A
102
}
330
2A
100
AcDbVisualStyle
  2
FlatWithEdges
 70
     1
177
     2
291
     1
 71
     2
176
     1
 72
     1
176
     1
 73
     1
176
     1
 90
        2
176
     1
 40
-0.6
176
     1
 41
30.0
176
     1
 62
     5
 63
     7
421
 16777215
176
     1
 74
     1
176
     1
 91
        4
176
     1
 64
     7
176
     1
 65
   257
176
     1
 75
     1
176
     1
175
     1
176
     1
 42
1.0
176
     1
 92
        0
176
     1
 66
   257
176
     1
 43
1.0
176
     1
 76
     1
176
     1
 77
     6
176
     1
 78
     2
176
     1
 67
     7
176
     1
 79
     5
176
     1
170
     0
176
     1
171
     0
176
     1
290
     0
176
     1
 93
       13
176
     1
 44
0.0
176
     1
173
     0
176
     1
  0
VISUALSTYLE
  5
2D
102
{ACAD_REACTORS
330
2A
102
}
330
2A
100
AcDbVisualStyle
  2
Gouraud
 70
     2
177
     2
291
     1
 71
     2
176
     1
 72
     2
176
     1
 73
     1
176
     1
 90
        2
176
     1
 40
-0.6
176
     1
 41
30.0
176
     1
 62
     5
 63
     7
421
 16777215
176
     1
 74
     0
176
     1
 91
        4
176
     1
 64
     7
176
     1
 65
   257
176
     1
 75
     1
176
     1
175
     1
176
     1
 42
1.0
176
     1
 92
        0
176
     1
 66
     7
176
     1
 43
1.0
176
     1
 76
     1
176
     1
 77
     6
176
     1
 78
     2
176
     1
 67
     7
176
     1
 79
     5
176
     1
170
     0
176
     1
171
     0
176
     1
290
     0
176
     1
 93
       13
176
     1
 44
0.0
176
     1
173
     0
176
     1
  0
VISUALSTYLE
  5
2E
102
{ACAD_REACTORS
330
2A
102
}
330
2A
100
AcDbVisualStyle
  2
GouraudWithEdges
 70
     3
177
     2
291
     1
 71
     2
176
     1
 72
     2
176
     1
 73
     1
176
     1
 90
        2
176
     1
 40
-0.6
176
     1
 41
30.0
176
     1
 62
     5
 63
     7
421
 16777215
176
     1
 74
     1
176
     1
 91
        4
176
     1
 64
     7
176
     1
 65
   257
176
     1
 75
     1
176
     1
175
     1
176
     1
 42
1.0
176
     1
 92
        0
176
     1
 66
   257
176
     1
 43
1.0
176
     1
 76
     1
176
     1
 77
     6
176
     1
 78
     2
176
     1
 67
     7
176
     1
 79
     5
176
     1
170
     0
176
     1
171
     0
176
     1
290
     0
176
     1
 93
       13
176
     1
 44
0.0
176
     1
173
     0
176
     1
  0
VISUALSTYLE
  5
38
102
{ACAD_REACTORS
330
2A
102
}
330
2A
100
AcDbVisualStyle
  2
Linepattern
 70
    14
177
     2
291
     1
 71
     2
176
     1
 72
     2
176
     1
 73
     0
176
     1
 90
        0
176
     1
 40
-0.6
176
     1
 41
-30.0
176
     1
 62
     5
 63
     7
421
 16777215
176
     1
 74
     1
176
     1
 91
        4
176
     1
 64
     7
176
     1
 65
   257
176
     1
 75
     7
176
     1
175
     7
176
     1
 42
1.0
176
     1
 92
        8
176
     1
 66
     7
176
     1
 43
1.0
176
     1
 76
     1
176
     1
 77
     6
176
     1
 78
     2
176
     1
 67
     7
176
     1
 79
     5
176
     1
170
     0
176
     1
171
     0
176
     1
290
     0
176
     1
 93
        1
176
     1
 44
0.0
176
     1
173
     0
176
     1
  0
VISUALSTYLE
  5
33
102
{ACAD_REACTORS
330
2A
102
}
330
2A
100
AcDbVisualStyle
  2
Realistic
 70
     8
177
     2
291
     0
 71
     2
176
     1
 72
     2
176
     1
 73
     0
176
     1
 90
        0
176
     1
 40
-0.6
176
     1
 41
-30.0
176
     1
 62
     5
 63
     7
421
 16777215
176
     1
 74
     1
176
     1
 91
        0
176
     1
 64
     7
176
     1
 65
   257
176
     1
 75
     1
176
     1
175
     1
176
     1
 42
1.0
176
     1
 92
        8
176
     1
 66
     8
424
  7895160
176
     1
 43
1.0
176
     1
 76
     1
176
     1
 77
     6
176
     1
 78
     2
176
     1
 67
     7
176
     1
 79
     5
176
     1
170
     0
176
     1
171
     0
176
     1
290
     0
176
     1
 93
       13
176
     1
 44
0.0
176
     1
173
     0
176
     1
  0
VISUALSTYLE
  5
37
102
{ACAD_REACTORS
330
2A
102
}
330
2A
100
AcDbVisualStyle
  2
Thicken
 70
    13
177
     2
291
     1
 71
     2
176
     1
 72
     2
176
     1
 73
     0
176
     1
 90
        0
176
     1
 40
-0.6
176
     1
 41
-30.0
176
     1
 62
     5
 63
     7
421
 16777215
176
     1
 74
     1
176
     1
 91
        4
176
     1
 64
     7
176
     1
 65
   257
176
     1
 75
     1
176
     1
175
     1
176
     1
 42
1.0
176
     1
 92
       12
176
     1
 66
     7
176
     1
 43
1.0
176
     1
 76
     1
176
     1
 77
     6
176
     1
 78
     2
176
     1
 67
     7
176
     1
 79
     5
176
     1
170
     0
176
     1
171
     0
176
     1
290
     0
176
     1
 93
        1
176
     1
 44
0.0
176
     1
173
     0
176
     1
  0
ENDSEC
  0
EOF
