  0
SECTION
  2
HEADER
  9
$ACADVER
  1
AC1024
  9
$ACADMAINTVER
 70
     6
  9
$DWGCODEPAGE
  3
UNDEFINED
  9
$INSBASE
 10
0.0
 20
0.0
 30
0.0
  9
$EXTMIN
 10
1.000000000000000E+20
 20
1.000000000000000E+20
 30
1.000000000000000E+20
  9
$EXTMAX
 10
-1.000000000000000E+20
 20
-1.000000000000000E+20
 30
-1.000000000000000E+20
  9
$LIMMIN
 10
0.0
 20
0.0
  9
$LIMMAX
 10
12.0
 20
9.0
  9
$ORTHOMODE
 70
     0
  9
$REGENMODE
 70
     1
  9
$FILLMODE
 70
     1
  9
$QTEXTMODE
 70
     0
  9
$MIRRTEXT
 70
     1
  9
$LTSCALE
 40
1.0
  9
$ATTMODE
 70
     1
  9
$TEXTSIZE
 40
0.2
  9
$TRACEWID
 40
0.05
  9
$TEXTSTYLE
  7
Standard
  9
$CLAYER
  8
0
  9
$CELTYPE
  6
ByLayer
  9
$CECOLOR
 62
   256
  9
$CELTSCALE
 40
1.0
  9
$DISPSILH
 70
     0
  9
$DIMSCALE
 40
1.0
  9
$DIMASZ
 40
0.18
  9
$DIMEXO
 40
0.0625
  9
$DIMDLI
 40
0.38
  9
$DIMRND
 40
0.0
  9
$DIMDLE
 40
0.0
  9
$DIMEXE
 40
0.18
  9
$DIMTP
 40
0.0
  9
$DIMTM
 40
0.0
  9
$DIMTXT
 40
0.18
  9
$DIMCEN
 40
0.09
  9
$DIMTSZ
 40
0.0
  9
$DIMTOL
 70
     0
  9
$DIMLIM
 70
     0
  9
$DIMTIH
 70
     1
  9
$DIMTOH
 70
     1
  9
$DIMSE1
 70
     0
  9
$DIMSE2
 70
     0
  9
$DIMTAD
 70
     0
  9
$DIMZIN
 70
     0
  9
$DIMBLK
  1

  9
$DIMASO
 70
     1
  9
$DIMSHO
 70
     1
  9
$DIMPOST
  1

  9
$DIMAPOST
  1

  9
$DIMALT
 70
     0
  9
$DIMALTD
 70
     2
  9
$DIMALTF
 40
25.4
  9
$DIMLFAC
 40
1.0
  9
$DIMTOFL
 70
     0
  9
$DIMTVP
 40
0.0
  9
$DIMTIX
 70
     0
  9
$DIMSOXD
 70
     0
  9
$DIMSAH
 70
     0
  9
$DIMBLK1
  1

  9
$DIMBLK2
  1

  9
$DIMSTYLE
  2
Standard
  9
$DIMCLRD
 70
     0
  9
$DIMCLRE
 70
     0
  9
$DIMCLRT
 70
     0
  9
$DIMTFAC
 40
1.0
  9
$DIMGAP
 40
0.09
  9
$DIMJUST
 70
     0
  9
$DIMSD1
 70
     0
  9
$DIMSD2
 70
     0
  9
$DIMTOLJ
 70
     1
  9
$DIMTZIN
 70
     0
  9
$DIMALTZ
 70
     0
  9
$DIMALTTZ
 70
     0
  9
$DIMUPT
 70
     0
  9
$DIMDEC
 70
     4
  9
$DIMTDEC
 70
     4
  9
$DIMALTU
 70
     2
  9
$DIMALTTD
 70
     2
  9
$DIMTXSTY
  7
Standard
  9
$DIMAUNIT
 70
     0
  9
$DIMADEC
 70
     0
  9
$DIMALTRND
 40
0.0
  9
$DIMAZIN
 70
     0
  9
$DIMDSEP
 70
    46
  9
$DIMATFIT
 70
     3
  9
$DIMFRAC
 70
     0
  9
$DIMLDRBLK
  1

  9
$DIMLUNIT
 70
     2
  9
$DIMLWD
 70
    -2
  9
$DIMLWE
 70
    -2
  9
$DIMTMOVE
 70
     0
  9
$DIMFXL
 40
1.0
  9
$DIMFXLON
 70
     0
  9
$DIMJOGANG
 40
0.7853981633974483
  9
$DIMTFILL
 70
     0
  9
$DIMTFILLCLR
 70
     0
  9
$DIMARCSYM
 70
     0
  9
$DIMLTYPE
  6

  9
$DIMLTEX1
  6

  9
$DIMLTEX2
  6

  9
$DIMTXTDIRECTION
 70
     0
  9
$LUNITS
 70
     2
  9
$LUPREC
 70
     4
  9
$SKETCHINC
 40
0.1
  9
$FILLETRAD
 40
0.5
  9
$AUNITS
 70
     0
  9
$AUPREC
 70
     0
  9
$MENU
  1
.
  9
$ELEVATION
 40
0.0
  9
$PELEVATION
 40
0.0
  9
$THICKNESS
 40
0.0
  9
$LIMCHECK
 70
     0
  9
$CHAMFERA
 40
0.5
  9
$CHAMFERB
 40
0.5
  9
$CHAMFERC
 40
1.0
  9
$CHAMFERD
 40
0.0
  9
$SKPOLY
 70
     0
  9
$TDCREATE
 40
2457917.596921296
  9
$TDUCREATE
 40
2457917.221921296
  9
$TDUPDATE
 40
2457917.596921296
  9
$TDUUPDATE
 40
2457917.221921296
  9
$TDINDWG
 40
0.0000000116
  9
$TDUSRTIMER
 40
0.0000000116
  9
$USRTIMER
 70
     1
  9
$ANGBASE
 50
0.0
  9
$ANGDIR
 70
     0
  9
$PDMODE
 70
     0
  9
$PDSIZE
 40
0.0
  9
$PLINEWID
 40
0.0
  9
$SPLFRAME
 70
     0
  9
$SPLINETYPE
 70
     6
  9
$SPLINESEGS
 70
     8
  9
$HANDSEED
  5
F3
  9
$SURFTAB1
 70
     6
  9
$SURFTAB2
 70
     6
  9
$SURFTYPE
 70
     6
  9
$SURFU
 70
     6
  9
$SURFV
 70
     6
  9
$UCSBASE
  2

  9
$UCSNAME
  2

  9
$UCSORG
 10
0.0
 20
0.0
 30
0.0
  9
$UCSXDIR
 10
1.0
 20
0.0
 30
0.0
  9
$UCSYDIR
 10
0.0
 20
1.0
 30
0.0
  9
$UCSORTHOREF
  2

  9
$UCSORTHOVIEW
 70
     0
  9
$UCSORGTOP
 10
0.0
 20
0.0
 30
0.0
  9
$UCSORGBOTTOM
 10
0.0
 20
0.0
 30
0.0
  9
$UCSORGLEFT
 10
0.0
 20
0.0
 30
0.0
  9
$UCSORGRIGHT
 10
0.0
 20
0.0
 30
0.0
  9
$UCSORGFRONT
 10
0.0
 20
0.0
 30
0.0
  9
$UCSORGBACK
 10
0.0
 20
0.0
 30
0.0
  9
$PUCSBASE
  2

  9
$PUCSNAME
  2

  9
$PUCSORG
 10
0.0
 20
0.0
 30
0.0
  9
$PUCSXDIR
 10
1.0
 20
0.0
 30
0.0
  9
$PUCSYDIR
 10
0.0
 20
1.0
 30
0.0
  9
$PUCSORTHOREF
  2

  9
$PUCSORTHOVIEW
 70
     0
  9
$PUCSORGTOP
 10
0.0
 20
0.0
 30
0.0
  9
$PUCSORGBOTTOM
 10
0.0
 20
0.0
 30
0.0
  9
$PUCSORGLEFT
 10
0.0
 20
0.0
 30
0.0
  9
$PUCSORGRIGHT
 10
0.0
 20
0.0
 30
0.0
  9
$PUCSORGFRONT
 10
0.0
 20
0.0
 30
0.0
  9
$PUCSORGBACK
 10
0.0
 20
0.0
 30
0.0
  9
$USERI1
 70
     0
  9
$USERI2
 70
     0
  9
$USERI3
 70
     0
  9
$USERI4
 70
     0
  9
$USERI5
 70
     0
  9
$USERR1
 40
0.0
  9
$USERR2
 40
0.0
  9
$USERR3
 40
0.0
  9
$USERR4
 40
0.0
  9
$USERR5
 40
0.0
  9
$WORLDVIEW
 70
     1
  9
$SHADEDGE
 70
     3
  9
$SHADEDIF
 70
    70
  9
$TILEMODE
 70
     1
  9
$MAXACTVP
 70
    64
  9
$PINSBASE
 10
0.0
 20
0.0
 30
0.0
  9
$PLIMCHECK
 70
     0
  9
$PEXTMIN
 10
1.000000000000000E+20
 20
1.000000000000000E+20
 30
1.000000000000000E+20
  9
$PEXTMAX
 10
-1.000000000000000E+20
 20
-1.000000000000000E+20
 30
-1.000000000000000E+20
  9
$PLIMMIN
 10
0.0
 20
0.0
  9
$PLIMMAX
 10
12.0
 20
9.0
  9
$UNITMODE
 70
     0
  9
$VISRETAIN
 70
     1
  9
$PLINEGEN
 70
     0
  9
$PSLTSCALE
 70
     1
  9
$TREEDEPTH
 70
  3020
  9
$CMLSTYLE
  2
Standard
  9
$CMLJUST
 70
     0
  9
$CMLSCALE
 40
1.0
  9
$PROXYGRAPHICS
 70
     1
  9
$MEASUREMENT
 70
     0
  9
$CELWEIGHT
370
    -1
  9
$ENDCAPS
280
     0
  9
$JOINSTYLE
280
     0
  9
$LWDISPLAY
290
     1
  9
$INSUNITS
 70
     1
  9
$HYPERLINKBASE
  1

  9
$STYLESHEET
  1

  9
$XEDIT
290
     1
  9
$CEPSNTYPE
380
     0
  9
$PSTYLEMODE
290
     1
  9
$FINGERPRINTGUID
  2
{06032786-0874-B06D-5C63-A7D706064DBA}
  9
$VERSIONGUID
  2
{FAEB1C32-E019-11D5-929B-00C0DF256EC4}
  9
$EXTNAMES
290
     1
  9
$PSVPSCALE
 40
0.0
  9
$OLESTARTUP
290
     0
  9
$SORTENTS
280
   127
  9
$INDEXCTL
280
     0
  9
$HIDETEXT
280
     1
  9
$XCLIPFRAME
280
     2
  9
$HALOGAP
280
     0
  9
$OBSCOLOR
 70
   257
  9
$OBSLTYPE
280
     0
  9
$INTERSECTIONDISPLAY
280
     0
  9
$INTERSECTIONCOLOR
 70
   257
  9
$DIMASSOC
280
     2
  9
$PROJECTNAME
  1

  9
$CAMERADISPLAY
290
     0
  9
$LENSLENGTH
 40
50.0
  9
$CAMERAHEIGHT
 40
0.0
  9
$STEPSPERSEC
 40
2.0
  9
$STEPSIZE
 40
6.0
  9
$3DDWFPREC
 40
2.0
  9
$PSOLWIDTH
 40
0.25
  9
$PSOLHEIGHT
 40
4.0
  9
$LOFTANG1
 40
1.570796326794897
  9
$LOFTANG2
 40
1.570796326794897
  9
$LOFTMAG1
 40
0.0
  9
$LOFTMAG2
 40
0.0
  9
$LOFTPARAM
 70
     7
  9
$LOFTNORMALS
280
     1
  9
$LATITUDE
 40
37.795
  9
$LONGITUDE
 40
-122.394
  9
$NORTHDIRECTION
 40
0.0
  9
$TIMEZONE
 70
 -8000
  9
$LIGHTGLYPHDISPLAY
280
     1
  9
$TILEMODELIGHTSYNCH
280
     1
  9
$CMATERIAL
347
3C
  9
$SOLIDHIST
280
     1
  9
$SHOWHIST
280
     1
  9
$DWFFRAME
280
     2
  9
$DGNFRAME
280
     2
  9
$REALWORLDSCALE
290
     1
  9
$INTERFERECOLOR
 62
   256
  9
$CSHADOW
280
     0
  9
$SHADOWPLANELOCATION
 40
0.0
  0
ENDSEC
  0
SECTION
  2
CLASSES
  0
CLASS
  1
ACDBDICTIONARYWDFLT
  2
AcDbDictionaryWithDefault
  3
ObjectDBX Classes
 90
        0
 91
        4
280
     0
281
     0
  0
CLASS
  1
VISUALSTYLE
  2
AcDbVisualStyle
  3
ObjectDBX Classes
 90
     4095
 91
        4
280
     0
281
     0
  0
CLASS
  1
MATERIAL
  2
AcDbMaterial
  3
ObjectDBX Classes
 90
     1153
 91
        4
280
     0
281
     0
  0
CLASS
  1
SUN
  2
AcDbSun
  3
SCENEOE
 90
     1024
 91
        4
280
     0
281
     0
  0
ENDSEC
  0
SECTION
  2
TABLES
  0
TABLE
  2
VPORT
  5
8
330
0
100
AcDbSymbolTable
 70
     1
  0
VPORT
  5
29
330
8
100
AcDbSymbolTableRecord
100
AcDbViewportTableRecord
  2
*Active
 70
     0
 10
0.0
 20
0.0
 11
1.0
 21
1.0
 12
0.0
 22
0.0
 13
0.0
 23
0.0
 14
0.5
 24
0.5
 15
0.5
 25
0.5
 16
0.0
 26
0.0
 36
1.0
 17
91.00082462281999
 27
-128.4993055234307
 37
0.0
 40
256.9986110468615
 41
0.7081814508812795
 42
50.0
 43
0.0
 44
0.0
 50
0.0
 51
0.0
 71
     0
 72
   100
 73
     1
 74
     3
 75
     0
 76
     0
 77
     0
 78
     0
281
     0
 65
     1
110
0.0
120
0.0
130
0.0
111
1.0
121
0.0
131
0.0
112
0.0
122
1.0
132
0.0
 79
     0
146
0.0
 60
     3
 61
     5
292
     1
282
     1
141
0.0
142
0.0
 63
   250
361
3F
  0
ENDTAB
  0
TABLE
  2
LTYPE
  5
5
330
0
100
AcDbSymbolTable
 70
     3
  0
LTYPE
  5
14
330
5
100
AcDbSymbolTableRecord
100
AcDbLinetypeTableRecord
  2
ByBlock
 70
     0
  3

 72
    65
 73
     0
 40
0.0
  0
LTYPE
  5
15
330
5
100
AcDbSymbolTableRecord
100
AcDbLinetypeTableRecord
  2
ByLayer
 70
     0
  3

 72
    65
 73
     0
 40
0.0
  0
LTYPE
  5
16
330
5
100
AcDbSymbolTableRecord
100
AcDbLinetypeTableRecord
  2
Continuous
 70
     0
  3
Solid line
 72
    65
 73
     0
 40
0.0
  0
LTYPE
  5
AA
330
5
100
AcDbSymbolTableRecord
100
AcDbLinetypeTableRecord
  2
AI-Linetype-1
 70
     0
  3
Adobe Illustrator Linetype No. 1
 72
    65
 73
     2
 40
1.411111110758333
 49
0.7055555553791667
 74
     0
 49
-0.7055555553791667
 74
     0
  0
LTYPE
  5
AF
330
5
100
AcDbSymbolTableRecord
100
AcDbLinetypeTableRecord
  2
AI-Linetype-2
 70
     0
  3
Adobe Illustrator Linetype No. 2
 72
    65
 73
     2
 40
1.411111110758333
 49
0.7055555553791667
 74
     0
 49
-0.7055555553791667
 74
     0
  0
ENDTAB
  0
TABLE
  2
LAYER
  5
2
330
0
100
AcDbSymbolTable
 70
     2
  0
LAYER
  5
10
330
2
100
AcDbSymbolTableRecord
100
AcDbLayerTableRecord
  2
0
 70
     0
 62
     7
  6
Continuous
370
    -3
390
F
347
3E
  0
LAYER
  5
40
330
2
100
AcDbSymbolTableRecord
100
AcDbLayerTableRecord
  2
_U+30EC_U+30A4_U+30E4_U+30FC 1
 70
     0
 62
     7
  6
Continuous
370
    -3
390
F
347
3E
  0
ENDTAB
  0
TABLE
  2
STYLE
  5
3
330
0
100
AcDbSymbolTable
 70
     1
  0
STYLE
  5
11
330
3
100
AcDbSymbolTableRecord
100
AcDbTextStyleTableRecord
  2
Standard
 70
     0
 40
0.0
 41
1.0
 50
0.0
 71
     0
 42
0.2
  3
txt
  4

  0
ENDTAB
  0
TABLE
  2
VIEW
  5
6
330
0
100
AcDbSymbolTable
 70
     0
  0
ENDTAB
  0
TABLE
  2
UCS
  5
7
330
0
100
AcDbSymbolTable
 70
     0
  0
ENDTAB
  0
TABLE
  2
APPID
  5
9
330
0
100
AcDbSymbolTable
 70
     1
  0
APPID
  5
12
330
9
100
AcDbSymbolTableRecord
100
AcDbRegAppTableRecord
  2
ACAD
 70
     0
  0
ENDTAB
  0
TABLE
  2
DIMSTYLE
  5
A
330
0
100
AcDbSymbolTable
 70
     1
100
AcDbDimStyleTable
  0
DIMSTYLE
105
27
330
A
100
AcDbSymbolTableRecord
100
AcDbDimStyleTableRecord
  2
Standard
 70
     0
178
     0
340
11
  0
ENDTAB
  0
TABLE
  2
BLOCK_RECORD
  5
1
330
0
100
AcDbSymbolTable
 70
     5
  0
BLOCK_RECORD
  5
1F
330
1
100
AcDbSymbolTableRecord
100
AcDbBlockTableRecord
  2
*Model_Space
340
22
 70
     0
280
     1
281
     0
  0
BLOCK_RECORD
  5
1B
330
1
100
AcDbSymbolTableRecord
100
AcDbBlockTableRecord
  2
*Paper_Space
340
1E
 70
     0
280
     1
281
     0
  0
BLOCK_RECORD
  5
23
330
1
100
AcDbSymbolTableRecord
100
AcDbBlockTableRecord
  2
*Paper_Space0
340
26
 70
     0
280
     1
281
     0
  0
BLOCK_RECORD
  5
6F
330
1
100
AcDbSymbolTableRecord
100
AcDbBlockTableRecord
  2
block 2
340
0
102
{BLKREFS
331
70
102
}
 70
     0
280
     1
281
     0
  0
BLOCK_RECORD
  5
8B
330
1
100
AcDbSymbolTableRecord
100
AcDbBlockTableRecord
  2
block 3
340
0
102
{BLKREFS
331
8C
102
}
 70
     0
280
     1
281
     0
  0
BLOCK_RECORD
  5
9F
330
1
100
AcDbSymbolTableRecord
100
AcDbBlockTableRecord
  2
block 4
340
0
102
{BLKREFS
331
A0
102
}
 70
     0
280
     1
281
     0
  0
BLOCK_RECORD
  5
C9
330
1
100
AcDbSymbolTableRecord
100
AcDbBlockTableRecord
  2
block 5
340
0
102
{BLKREFS
331
CA
102
}
 70
     0
280
     1
281
     0
  0
ENDTAB
  0
ENDSEC
  0
SECTION
  2
BLOCKS
  0
BLOCK
  5
20
330
1F
100
AcDbEntity
  8
0
100
AcDbBlockBegin
  2
*Model_Space
 70
     0
 10
0.0
 20
0.0
 30
0.0
  3
*Model_Space
  1

  0
ENDBLK
  5
21
330
1F
100
AcDbEntity
  8
0
100
AcDbBlockEnd
  0
BLOCK
  5
1C
330
1B
100
AcDbEntity
 67
     1
  8
0
100
AcDbBlockBegin
  2
*Paper_Space
 70
     0
 10
0.0
 20
0.0
 30
0.0
  3
*Paper_Space
  1

  0
ENDBLK
  5
1D
330
1B
100
AcDbEntity
 67
     1
  8
0
100
AcDbBlockEnd
  0
BLOCK
  5
24
330
23
100
AcDbEntity
  8
0
100
AcDbBlockBegin
  2
*Paper_Space0
 70
     0
 10
0.0
 20
0.0
 30
0.0
  3
*Paper_Space0
  1

  0
ENDBLK
  5
25
330
23
100
AcDbEntity
  8
0
100
AcDbBlockEnd
  0
BLOCK
  5
71
330
6F
100
AcDbEntity
  8
0
100
AcDbBlockBegin
  2
block 2
 70
     0
 10
0.0
 20
0.0
 30
0.0
  3
block 2
  1

  0
SPLINE
  5
73
330
6F
100
AcDbEntity
  8
_U+30EC_U+30A4_U+30E4_U+30FC 1
370
     0
100
AcDbSpline
210
0.0
220
0.0
230
1.0
 70
    11
 71
     3
 72
    26
 73
    22
 74
     0
 42
0.0000000001
 43
0.0000000001
 12
1.0
 22
0.0
 32
0.0
 13
1.0
 23
0.0
 33
0.0
 40
0.0
 40
0.0
 40
0.0
 40
0.0
 40
1.0
 40
1.0
 40
1.0
 40
2.0
 40
2.0
 40
2.0
 40
3.0
 40
3.0
 40
3.0
 40
4.0
 40
4.0
 40
4.0
 40
5.0
 40
5.0
 40
5.0
 40
6.0
 40
6.0
 40
6.0
 40
7.0
 40
7.0
 40
7.0
 40
7.0
 10
107.8593939617504
 20
-134.4634548274952
 30
0.0
 10
107.8593939617504
 20
-134.4634548274952
 30
0.0
 10
106.7552408587279
 20
-134.4634548274952
 30
0.0
 10
106.7552408587279
 20
-134.4634548274952
 30
0.0
 10
106.7552408587279
 20
-134.4634548274952
 30
0.0
 10
106.7552408587279
 20
-134.7490532432225
 30
0.0
 10
106.7552408587279
 20
-134.7490532432225
 30
0.0
 10
106.7552408587279
 20
-134.7490532432225
 30
0.0
 10
106.6071017528621
 20
-134.7490532432225
 30
0.0
 10
106.6071017528621
 20
-134.7490532432225
 30
0.0
 10
106.5922878422755
 20
-134.4617322797526
 30
0.0
 10
106.4293348258232
 20
-134.4214246625752
 30
0.0
 10
106.3149576557129
 20
-134.3959309559844
 30
0.0
 10
106.3149576557129
 20
-134.3959309559844
 30
0.0
 10
106.3149576557129
 20
-134.2694959516757
 30
0.0
 10
106.3149576557129
 20
-134.2694959516757
 30
0.0
 10
106.3149576557129
 20
-134.2694959516757
 30
0.0
 10
107.8593939617504
 20
-134.2694959516757
 30
0.0
 10
107.8593939617504
 20
-134.2694959516757
 30
0.0
 10
107.8593939617504
 20
-134.2694959516757
 30
0.0
 10
107.8593939617504
 20
-134.4634548274952
 30
0.0
 10
107.8593939617504
 20
-134.4634548274952
 30
0.0
  0
HATCH
  5
74
330
6F
100
AcDbEntity
  8
_U+30EC_U+30A4_U+30E4_U+30FC 1
 62
   179
420
  2234388
100
AcDbHatch
 10
0.0
 20
0.0
 30
0.0
210
0.0
220
0.0
230
1.0
  2
SOLID
 70
     1
 71
     0
 91
        1
 92
        1
 93
        1
 72
     4
 94
        3
 73
     0
 74
     1
 95
       26
 96
       22
 40
0.0
 40
0.0
 40
0.0
 40
0.0
 40
1.0
 40
1.0
 40
1.0
 40
2.0
 40
2.0
 40
2.0
 40
3.0
 40
3.0
 40
3.0
 40
4.0
 40
4.0
 40
4.0
 40
5.0
 40
5.0
 40
5.0
 40
6.0
 40
6.0
 40
6.0
 40
7.0
 40
7.0
 40
7.0
 40
7.0
 10
107.8593939617504
 20
-134.4634548274952
 10
107.8593939617504
 20
-134.4634548274952
 10
106.7552408587279
 20
-134.4634548274952
 10
106.7552408587279
 20
-134.4634548274952
 10
106.7552408587279
 20
-134.4634548274952
 10
106.7552408587279
 20
-134.7490532432225
 10
106.7552408587279
 20
-134.7490532432225
 10
106.7552408587279
 20
-134.7490532432225
 10
106.6071017528621
 20
-134.7490532432225
 10
106.6071017528621
 20
-134.7490532432225
 10
106.5922878422755
 20
-134.4617322797526
 10
106.4293348258232
 20
-134.4214246625752
 10
106.3149576557129
 20
-134.3959309559844
 10
106.3149576557129
 20
-134.3959309559844
 10
106.3149576557129
 20
-134.2694959516757
 10
106.3149576557129
 20
-134.2694959516757
 10
106.3149576557129
 20
-134.2694959516757
 10
107.8593939617504
 20
-134.2694959516757
 10
107.8593939617504
 20
-134.2694959516757
 10
107.8593939617504
 20
-134.2694959516757
 10
107.8593939617504
 20
-134.4634548274952
 10
107.8593939617504
 20
-134.4634548274952
 97
        0
 97
        0
 75
     2
 76
     1
 98
        0
  0
POLYLINE
  5
75
330
6F
100
AcDbEntity
  8
_U+30EC_U+30A4_U+30E4_U+30FC 1
370
     0
100
AcDb2dPolyline
 66
     1
 10
0.0
 20
0.0
 30
0.0
  0
VERTEX
  5
76
330
75
100
AcDbEntity
  8
_U+30EC_U+30A4_U+30E4_U+30FC 1
370
     0
100
AcDbVertex
100
AcDb2dVertex
 10
107.8593939617504
 20
-133.784771016901
 30
0.0
  0
VERTEX
  5
77
330
75
100
AcDbEntity
  8
_U+30EC_U+30A4_U+30E4_U+30FC 1
370
     0
100
AcDbVertex
100
AcDb2dVertex
 10
107.6075574817787
 20
-133.784771016901
 30
0.0
  0
VERTEX
  5
78
330
75
100
AcDbEntity
  8
_U+30EC_U+30A4_U+30E4_U+30FC 1
370
     0
100
AcDbVertex
100
AcDb2dVertex
 10
107.6075574817787
 20
-133.5670409822332
 30
0.0
  0
VERTEX
  5
79
330
75
100
AcDbEntity
  8
_U+30EC_U+30A4_U+30E4_U+30FC 1
370
     0
100
AcDbVertex
100
AcDb2dVertex
 10
107.8593939617504
 20
-133.5670409822332
 30
0.0
  0
VERTEX
  5
7A
330
75
100
AcDbEntity
  8
_U+30EC_U+30A4_U+30E4_U+30FC 1
370
     0
100
AcDbVertex
100
AcDb2dVertex
 10
107.8593939617504
 20
-133.784771016901
 30
0.0
  0
SEQEND
  5
7B
330
75
100
AcDbEntity
  8
_U+30EC_U+30A4_U+30E4_U+30FC 1
370
     0
  0
HATCH
  5
7C
330
6F
100
AcDbEntity
  8
_U+30EC_U+30A4_U+30E4_U+30FC 1
 62
   179
420
  2234388
100
AcDbHatch
 10
0.0
 20
0.0
 30
0.0
210
0.0
220
0.0
230
1.0
  2
SOLID
 70
     1
 71
     0
 91
        1
 92
        1
 93
        4
 72
     1
 10
107.8593939617504
 20
-133.784771016901
 11
107.6075574817787
 21
-133.784771016901
 72
     1
 10
107.6075574817787
 20
-133.784771016901
 11
107.6075574817787
 21
-133.5670409822332
 72
     1
 10
107.6075574817787
 20
-133.5670409822332
 11
107.8593939617504
 21
-133.5670409822332
 72
     1
 10
107.8593939617504
 20
-133.5670409822332
 11
107.8593939617504
 21
-133.784771016901
 97
        0
 75
     2
 76
     1
 98
        0
  0
SPLINE
  5
7D
330
6F
100
AcDbEntity
  8
_U+30EC_U+30A4_U+30E4_U+30FC 1
370
     0
100
AcDbSpline
210
0.0
220
0.0
230
1.0
 70
    11
 71
     3
 72
    53
 73
    49
 74
     0
 42
0.0000000001
 43
0.0000000001
 12
1.0
 22
0.0
 32
0.0
 13
1.0
 23
0.0
 33
0.0
 40
0.0
 40
0.0
 40
0.0
 40
0.0
 40
1.0
 40
1.0
 40
1.0
 40
2.0
 40
2.0
 40
2.0
 40
3.0
 40
3.0
 40
3.0
 40
4.0
 40
4.0
 40
4.0
 40
5.0
 40
5.0
 40
5.0
 40
6.0
 40
6.0
 40
6.0
 40
7.0
 40
7.0
 40
7.0
 40
8.0
 40
8.0
 40
8.0
 40
9.0
 40
9.0
 40
9.0
 40
10.0
 40
10.0
 40
10.0
 40
11.0
 40
11.0
 40
11.0
 40
12.0
 40
12.0
 40
12.0
 40
13.0
 40
13.0
 40
13.0
 40
14.0
 40
14.0
 40
14.0
 40
15.0
 40
15.0
 40
15.0
 40
16.0
 40
16.0
 40
16.0
 40
16.0
 10
107.9100368653836
 20
-132.9469237948883
 30
0.0
 10
107.9100368653836
 20
-133.0144476663992
 30
0.0
 10
107.8931558975059
 20
-133.1026421108216
 30
0.0
 10
107.8297661405773
 20
-133.1901475361469
 30
0.0
 10
107.7198675945978
 20
-133.3403536993038
 30
0.0
 10
107.5886094566098
 20
-133.3586127053756
 30
0.0
 10
107.4807779679215
 20
-133.3751491637048
 30
0.0
 10
107.4807779679215
 20
-133.3751491637048
 30
0.0
 10
107.4807779679215
 20
-133.1829128356279
 30
0.0
 10
107.4807779679215
 20
-133.1829128356279
 30
0.0
 10
107.6795599774204
 20
-133.1353705179314
 30
0.0
 10
107.7091877985935
 20
-133.025471971952
 30
0.0
 10
107.7091877985935
 20
-132.9452012471457
 30
0.0
 10
107.7091877985935
 20
-132.8242783956134
 30
0.0
 10
107.6096245390698
 20
-132.6926757480768
 30
0.0
 10
107.3770805938155
 20
-132.6926757480768
 30
0.0
 10
107.1211099992614
 20
-132.6926757480768
 30
0.0
 10
107.0511745609108
 20
-132.8480495544616
 30
0.0
 10
107.0511745609108
 20
-132.9524359476647
 30
0.0
 10
107.0511745609108
 20
-132.9799967115467
 30
0.0
 10
107.0511745609108
 20
-133.1026421108216
 30
0.0
 10
107.1803656416077
 20
-133.1794677401426
 30
0.0
 10
107.1803656416077
 20
-133.1794677401426
 30
0.0
 10
107.1614176164388
 20
-133.3313964510422
 30
0.0
 10
107.1614176164388
 20
-133.3313964510422
 30
0.0
 10
107.1614176164388
 20
-133.3313964510422
 30
0.0
 10
106.3149576557129
 20
-133.2270100578391
 30
0.0
 10
106.3149576557129
 20
-133.2270100578391
 30
0.0
 10
106.3149576557129
 20
-133.2270100578391
 30
0.0
 10
106.3149576557129
 20
-132.5534938904727
 30
0.0
 10
106.3149576557129
 20
-132.5534938904727
 30
0.0
 10
106.3149576557129
 20
-132.5534938904727
 30
0.0
 10
106.5096055506295
 20
-132.5534938904727
 30
0.0
 10
106.5096055506295
 20
-132.5534938904727
 30
0.0
 10
106.5096055506295
 20
-132.5534938904727
 30
0.0
 10
106.5096055506295
 20
-133.0861056524924
 30
0.0
 10
106.5096055506295
 20
-133.0861056524924
 30
0.0
 10
106.5096055506295
 20
-133.0861056524924
 30
0.0
 10
106.9326632762182
 20
-133.1426052184505
 30
0.0
 10
106.9326632762182
 20
-133.1426052184505
 30
0.0
 10
106.8989013404628
 20
-133.0895507479776
 30
0.0
 10
106.8585937232854
 20
-133.018237271433
 30
0.0
 10
106.8585937232854
 20
-132.915917935521
 30
0.0
 10
106.8585937232854
 20
-132.6961208435621
 30
0.0
 10
107.0449733890374
 20
-132.4911376621897
 30
0.0
 10
107.3581325686466
 20
-132.4911376621897
 30
0.0
 10
107.6754258628381
 20
-132.4911376621897
 30
0.0
 10
107.9100368653836
 20
-132.6850965380093
 30
0.0
 10
107.9100368653836
 20
-132.9469237948883
 30
0.0
  0
HATCH
  5
7E
330
6F
100
AcDbEntity
  8
_U+30EC_U+30A4_U+30E4_U+30FC 1
 62
   179
420
  2234388
100
AcDbHatch
 10
0.0
 20
0.0
 30
0.0
210
0.0
220
0.0
230
1.0
  2
SOLID
 70
     1
 71
     0
 91
        1
 92
        1
 93
        1
 72
     4
 94
        3
 73
     0
 74
     1
 95
       53
 96
       49
 40
0.0
 40
0.0
 40
0.0
 40
0.0
 40
1.0
 40
1.0
 40
1.0
 40
2.0
 40
2.0
 40
2.0
 40
3.0
 40
3.0
 40
3.0
 40
4.0
 40
4.0
 40
4.0
 40
5.0
 40
5.0
 40
5.0
 40
6.0
 40
6.0
 40
6.0
 40
7.0
 40
7.0
 40
7.0
 40
8.0
 40
8.0
 40
8.0
 40
9.0
 40
9.0
 40
9.0
 40
10.0
 40
10.0
 40
10.0
 40
11.0
 40
11.0
 40
11.0
 40
12.0
 40
12.0
 40
12.0
 40
13.0
 40
13.0
 40
13.0
 40
14.0
 40
14.0
 40
14.0
 40
15.0
 40
15.0
 40
15.0
 40
16.0
 40
16.0
 40
16.0
 40
16.0
 10
107.9100368653836
 20
-132.9469237948883
 10
107.9100368653836
 20
-133.0144476663992
 10
107.8931558975059
 20
-133.1026421108216
 10
107.8297661405773
 20
-133.1901475361469
 10
107.7198675945978
 20
-133.3403536993038
 10
107.5886094566098
 20
-133.3586127053756
 10
107.4807779679215
 20
-133.3751491637048
 10
107.4807779679215
 20
-133.3751491637048
 10
107.4807779679215
 20
-133.1829128356279
 10
107.4807779679215
 20
-133.1829128356279
 10
107.6795599774204
 20
-133.1353705179314
 10
107.7091877985935
 20
-133.025471971952
 10
107.7091877985935
 20
-132.9452012471457
 10
107.7091877985935
 20
-132.8242783956134
 10
107.6096245390698
 20
-132.6926757480768
 10
107.3770805938155
 20
-132.6926757480768
 10
107.1211099992614
 20
-132.6926757480768
 10
107.0511745609108
 20
-132.8480495544616
 10
107.0511745609108
 20
-132.9524359476647
 10
107.0511745609108
 20
-132.9799967115467
 10
107.0511745609108
 20
-133.1026421108216
 10
107.1803656416077
 20
-133.1794677401426
 10
107.1803656416077
 20
-133.1794677401426
 10
107.1614176164388
 20
-133.3313964510422
 10
107.1614176164388
 20
-133.3313964510422
 10
107.1614176164388
 20
-133.3313964510422
 10
106.3149576557129
 20
-133.2270100578391
 10
106.3149576557129
 20
-133.2270100578391
 10
106.3149576557129
 20
-133.2270100578391
 10
106.3149576557129
 20
-132.5534938904727
 10
106.3149576557129
 20
-132.5534938904727
 10
106.3149576557129
 20
-132.5534938904727
 10
106.5096055506295
 20
-132.5534938904727
 10
106.5096055506295
 20
-132.5534938904727
 10
106.5096055506295
 20
-132.5534938904727
 10
106.5096055506295
 20
-133.0861056524924
 10
106.5096055506295
 20
-133.0861056524924
 10
106.5096055506295
 20
-133.0861056524924
 10
106.9326632762182
 20
-133.1426052184505
 10
106.9326632762182
 20
-133.1426052184505
 10
106.8989013404628
 20
-133.0895507479776
 10
106.8585937232854
 20
-133.018237271433
 10
106.8585937232854
 20
-132.915917935521
 10
106.8585937232854
 20
-132.6961208435621
 10
107.0449733890374
 20
-132.4911376621897
 10
107.3581325686466
 20
-132.4911376621897
 10
107.6754258628381
 20
-132.4911376621897
 10
107.9100368653836
 20
-132.6850965380093
 10
107.9100368653836
 20
-132.9469237948883
 97
        0
 97
        0
 75
     2
 76
     1
 98
        0
  0
ENDBLK
  5
72
330
6F
100
AcDbEntity
  8
0
100
AcDbBlockEnd
  0
BLOCK
  5
8D
330
8B
100
AcDbEntity
  8
0
100
AcDbBlockBegin
  2
block 3
 70
     0
 10
0.0
 20
0.0
 30
0.0
  3
block 3
  1

  0
SPLINE
  5
8F
330
8B
100
AcDbEntity
  8
_U+30EC_U+30A4_U+30E4_U+30FC 1
370
     0
100
AcDbSpline
210
0.0
220
0.0
230
1.0
 70
    11
 71
     3
 72
    44
 73
    40
 74
     0
 42
0.0000000001
 43
0.0000000001
 12
1.0
 22
0.0
 32
0.0
 13
1.0
 23
0.0
 33
0.0
 40
0.0
 40
0.0
 40
0.0
 40
0.0
 40
1.0
 40
1.0
 40
1.0
 40
2.0
 40
2.0
 40
2.0
 40
3.0
 40
3.0
 40
3.0
 40
4.0
 40
4.0
 40
4.0
 40
5.0
 40
5.0
 40
5.0
 40
6.0
 40
6.0
 40
6.0
 40
7.0
 40
7.0
 40
7.0
 40
8.0
 40
8.0
 40
8.0
 40
9.0
 40
9.0
 40
9.0
 40
10.0
 40
10.0
 40
10.0
 40
11.0
 40
11.0
 40
11.0
 40
12.0
 40
12.0
 40
12.0
 40
13.0
 40
13.0
 40
13.0
 40
13.0
 10
90.8270141374495
 20
-141.2571831244079
 30
0.0
 10
90.63822290485781
 20
-141.4160020262779
 30
0.0
 10
90.55795218005149
 20
-141.4900715792108
 30
0.0
 10
90.51592201513144
 20
-141.6337320609457
 30
0.0
 10
90.51592201513144
 20
-141.6337320609457
 30
0.0
 10
91.18909367294926
 20
-141.6337320609457
 30
0.0
 10
91.18909367294926
 20
-141.6337320609457
 30
0.0
 10
91.18909367294926
 20
-141.6337320609457
 30
0.0
 10
91.18909367294926
 20
-141.8390597518666
 30
0.0
 10
91.18909367294926
 20
-141.8390597518666
 30
0.0
 10
91.18909367294926
 20
-141.8390597518666
 30
0.0
 10
90.29991452820627
 20
-141.8390597518666
 30
0.0
 10
90.29991452820627
 20
-141.8390597518666
 30
0.0
 10
90.32713078253975
 20
-141.4814588404977
 30
0.0
 10
90.38397485804637
 20
-141.4032551729825
 30
0.0
 10
90.71711559147003
 20
-141.1049099039599
 30
0.0
 10
90.9386352311716
 20
-140.906127894461
 30
0.0
 10
90.9951347971297
 20
-140.8382595134015
 30
0.0
 10
90.9951347971297
 20
-140.7008002035401
 30
0.0
 10
90.9951347971297
 20
-140.5822889188475
 30
0.0
 10
90.9331230783952
 20
-140.451375290408
 30
0.0
 10
90.76293536142386
 20
-140.451375290408
 30
0.0
 10
90.53762611668851
 20
-140.451375290408
 30
0.0
 10
90.5303914161695
 20
-140.6818521783712
 30
0.0
 10
90.52660181113572
 20
-140.7982964057726
 30
0.0
 10
90.52660181113572
 20
-140.7982964057726
 30
0.0
 10
90.33264293531614
 20
-140.7982964057726
 30
0.0
 10
90.33264293531614
 20
-140.7982964057726
 30
0.0
 10
90.34022214538369
 20
-140.6711723823669
 30
0.0
 10
90.34917939364534
 20
-140.5592067790963
 30
0.0
 10
90.4187703224474
 20
-140.4406954944037
 30
0.0
 10
90.5138549578403
 20
-140.2798095352425
 30
0.0
 10
90.67508542654998
 20
-140.2460475994871
 30
0.0
 10
90.77568221471928
 20
-140.2460475994871
 30
0.0
 10
91.01546086049267
 20
-140.2460475994871
 30
0.0
 10
91.19460582572566
 20
-140.4300156983994
 30
0.0
 10
91.19460582572566
 20
-140.7028672608312
 30
0.0
 10
91.19460582572566
 20
-140.9316216010518
 30
0.0
 10
91.09400903755636
 20
-141.030840351027
 30
0.0
 10
90.8270141374495
 20
-141.2571831244079
 30
0.0
  0
HATCH
  5
90
330
8B
100
AcDbEntity
  8
_U+30EC_U+30A4_U+30E4_U+30FC 1
 62
   179
420
  2234388
100
AcDbHatch
 10
0.0
 20
0.0
 30
0.0
210
0.0
220
0.0
230
1.0
  2
SOLID
 70
     1
 71
     0
 91
        1
 92
        1
 93
        1
 72
     4
 94
        3
 73
     0
 74
     1
 95
       44
 96
       40
 40
0.0
 40
0.0
 40
0.0
 40
0.0
 40
1.0
 40
1.0
 40
1.0
 40
2.0
 40
2.0
 40
2.0
 40
3.0
 40
3.0
 40
3.0
 40
4.0
 40
4.0
 40
4.0
 40
5.0
 40
5.0
 40
5.0
 40
6.0
 40
6.0
 40
6.0
 40
7.0
 40
7.0
 40
7.0
 40
8.0
 40
8.0
 40
8.0
 40
9.0
 40
9.0
 40
9.0
 40
10.0
 40
10.0
 40
10.0
 40
11.0
 40
11.0
 40
11.0
 40
12.0
 40
12.0
 40
12.0
 40
13.0
 40
13.0
 40
13.0
 40
13.0
 10
90.8270141374495
 20
-141.2571831244079
 10
90.63822290485781
 20
-141.4160020262779
 10
90.55795218005149
 20
-141.4900715792108
 10
90.51592201513144
 20
-141.6337320609457
 10
90.51592201513144
 20
-141.6337320609457
 10
91.18909367294926
 20
-141.6337320609457
 10
91.18909367294926
 20
-141.6337320609457
 10
91.18909367294926
 20
-141.6337320609457
 10
91.18909367294926
 20
-141.8390597518666
 10
91.18909367294926
 20
-141.8390597518666
 10
91.18909367294926
 20
-141.8390597518666
 10
90.29991452820627
 20
-141.8390597518666
 10
90.29991452820627
 20
-141.8390597518666
 10
90.32713078253975
 20
-141.4814588404977
 10
90.38397485804637
 20
-141.4032551729825
 10
90.71711559147003
 20
-141.1049099039599
 10
90.9386352311716
 20
-140.906127894461
 10
90.9951347971297
 20
-140.8382595134015
 10
90.9951347971297
 20
-140.7008002035401
 10
90.9951347971297
 20
-140.5822889188475
 10
90.9331230783952
 20
-140.451375290408
 10
90.76293536142386
 20
-140.451375290408
 10
90.53762611668851
 20
-140.451375290408
 10
90.5303914161695
 20
-140.6818521783712
 10
90.52660181113572
 20
-140.7982964057726
 10
90.52660181113572
 20
-140.7982964057726
 10
90.33264293531614
 20
-140.7982964057726
 10
90.33264293531614
 20
-140.7982964057726
 10
90.34022214538369
 20
-140.6711723823669
 10
90.34917939364534
 20
-140.5592067790963
 10
90.4187703224474
 20
-140.4406954944037
 10
90.5138549578403
 20
-140.2798095352425
 10
90.67508542654998
 20
-140.2460475994871
 10
90.77568221471928
 20
-140.2460475994871
 10
91.01546086049267
 20
-140.2460475994871
 10
91.19460582572566
 20
-140.4300156983994
 10
91.19460582572566
 20
-140.7028672608312
 10
91.19460582572566
 20
-140.9316216010518
 10
91.09400903755636
 20
-141.030840351027
 10
90.8270141374495
 20
-141.2571831244079
 97
        0
 97
        0
 75
     2
 76
     1
 98
        0
  0
SPLINE
  5
91
330
8B
100
AcDbEntity
  8
_U+30EC_U+30A4_U+30E4_U+30FC 1
370
     0
100
AcDbSpline
210
0.0
220
0.0
230
1.0
 70
    11
 71
     3
 72
    53
 73
    49
 74
     0
 42
0.0000000001
 43
0.0000000001
 12
1.0
 22
0.0
 32
0.0
 13
1.0
 23
0.0
 33
0.0
 40
0.0
 40
0.0
 40
0.0
 40
0.0
 40
1.0
 40
1.0
 40
1.0
 40
2.0
 40
2.0
 40
2.0
 40
3.0
 40
3.0
 40
3.0
 40
4.0
 40
4.0
 40
4.0
 40
5.0
 40
5.0
 40
5.0
 40
6.0
 40
6.0
 40
6.0
 40
7.0
 40
7.0
 40
7.0
 40
8.0
 40
8.0
 40
8.0
 40
9.0
 40
9.0
 40
9.0
 40
10.0
 40
10.0
 40
10.0
 40
11.0
 40
11.0
 40
11.0
 40
12.0
 40
12.0
 40
12.0
 40
13.0
 40
13.0
 40
13.0
 40
14.0
 40
14.0
 40
14.0
 40
15.0
 40
15.0
 40
15.0
 40
16.0
 40
16.0
 40
16.0
 40
16.0
 10
91.74702688678546
 20
-141.8897026554998
 30
0.0
 10
91.67950301527458
 20
-141.8897026554998
 30
0.0
 10
91.59130857085218
 20
-141.8728216876221
 30
0.0
 10
91.50380314552683
 20
-141.8094319306935
 30
0.0
 10
91.3537692371442
 20
-141.699533384714
 30
0.0
 10
91.33551023107238
 20
-141.568275246726
 30
0.0
 10
91.31897377274318
 20
-141.4604437580377
 30
0.0
 10
91.31897377274318
 20
-141.4604437580377
 30
0.0
 10
91.51103784604585
 20
-141.4604437580377
 30
0.0
 10
91.51103784604585
 20
-141.4604437580377
 30
0.0
 10
91.5585801637423
 20
-141.6592257675366
 30
0.0
 10
91.66847870972177
 20
-141.6888535887097
 30
0.0
 10
91.7487494345281
 20
-141.6888535887097
 30
0.0
 10
91.86967228606036
 20
-141.6888535887097
 30
0.0
 10
92.0012749335969
 20
-141.589290329186
 30
0.0
 10
92.0012749335969
 20
-141.3567463839317
 30
0.0
 10
92.0012749335969
 20
-141.1007757893776
 30
0.0
 10
91.84590112721214
 20
-141.030840351027
 30
0.0
 10
91.74151473400907
 20
-141.030840351027
 30
0.0
 10
91.71395397012706
 20
-141.030840351027
 30
0.0
 10
91.59130857085218
 20
-141.030840351027
 30
0.0
 10
91.5144829415311
 20
-141.1600314317239
 30
0.0
 10
91.5144829415311
 20
-141.1600314317239
 30
0.0
 10
91.36272648540584
 20
-141.141083406555
 30
0.0
 10
91.36272648540584
 20
-141.141083406555
 30
0.0
 10
91.36272648540584
 20
-141.141083406555
 30
0.0
 10
91.46694062383466
 20
-140.2946234458291
 30
0.0
 10
91.46694062383466
 20
-140.2946234458291
 30
0.0
 10
91.46694062383466
 20
-140.2946234458291
 30
0.0
 10
92.140456791201
 20
-140.2946234458291
 30
0.0
 10
92.140456791201
 20
-140.2946234458291
 30
0.0
 10
92.140456791201
 20
-140.2946234458291
 30
0.0
 10
92.140456791201
 20
-140.4892713407457
 30
0.0
 10
92.140456791201
 20
-140.4892713407457
 30
0.0
 10
92.140456791201
 20
-140.4892713407457
 30
0.0
 10
91.60784502918138
 20
-140.4892713407457
 30
0.0
 10
91.60784502918138
 20
-140.4892713407457
 30
0.0
 10
91.60784502918138
 20
-140.4892713407457
 30
0.0
 10
91.55134546322329
 20
-140.9123290663344
 30
0.0
 10
91.55134546322329
 20
-140.9123290663344
 30
0.0
 10
91.60439993369613
 20
-140.878567130579
 30
0.0
 10
91.6757134102408
 20
-140.8382595134015
 30
0.0
 10
91.77803274615272
 20
-140.8382595134015
 30
0.0
 10
91.99782983811166
 20
-140.8382595134015
 30
0.0
 10
92.20281301948403
 20
-141.0246391791536
 30
0.0
 10
92.20281301948403
 20
-141.3377983587628
 30
0.0
 10
92.20281301948403
 20
-141.6550916529543
 30
0.0
 10
92.00885414366445
 20
-141.8897026554998
 30
0.0
 10
91.74702688678546
 20
-141.8897026554998
 30
0.0
  0
HATCH
  5
92
330
8B
100
AcDbEntity
  8
_U+30EC_U+30A4_U+30E4_U+30FC 1
 62
   179
420
  2234388
100
AcDbHatch
 10
0.0
 20
0.0
 30
0.0
210
0.0
220
0.0
230
1.0
  2
SOLID
 70
     1
 71
     0
 91
        1
 92
        1
 93
        1
 72
     4
 94
        3
 73
     0
 74
     1
 95
       53
 96
       49
 40
0.0
 40
0.0
 40
0.0
 40
0.0
 40
1.0
 40
1.0
 40
1.0
 40
2.0
 40
2.0
 40
2.0
 40
3.0
 40
3.0
 40
3.0
 40
4.0
 40
4.0
 40
4.0
 40
5.0
 40
5.0
 40
5.0
 40
6.0
 40
6.0
 40
6.0
 40
7.0
 40
7.0
 40
7.0
 40
8.0
 40
8.0
 40
8.0
 40
9.0
 40
9.0
 40
9.0
 40
10.0
 40
10.0
 40
10.0
 40
11.0
 40
11.0
 40
11.0
 40
12.0
 40
12.0
 40
12.0
 40
13.0
 40
13.0
 40
13.0
 40
14.0
 40
14.0
 40
14.0
 40
15.0
 40
15.0
 40
15.0
 40
16.0
 40
16.0
 40
16.0
 40
16.0
 10
91.74702688678546
 20
-141.8897026554998
 10
91.67950301527458
 20
-141.8897026554998
 10
91.59130857085218
 20
-141.8728216876221
 10
91.50380314552683
 20
-141.8094319306935
 10
91.3537692371442
 20
-141.699533384714
 10
91.33551023107238
 20
-141.568275246726
 10
91.31897377274318
 20
-141.4604437580377
 10
91.31897377274318
 20
-141.4604437580377
 10
91.51103784604585
 20
-141.4604437580377
 10
91.51103784604585
 20
-141.4604437580377
 10
91.5585801637423
 20
-141.6592257675366
 10
91.66847870972177
 20
-141.6888535887097
 10
91.7487494345281
 20
-141.6888535887097
 10
91.86967228606036
 20
-141.6888535887097
 10
92.0012749335969
 20
-141.589290329186
 10
92.0012749335969
 20
-141.3567463839317
 10
92.0012749335969
 20
-141.1007757893776
 10
91.84590112721214
 20
-141.030840351027
 10
91.74151473400907
 20
-141.030840351027
 10
91.71395397012706
 20
-141.030840351027
 10
91.59130857085218
 20
-141.030840351027
 10
91.5144829415311
 20
-141.1600314317239
 10
91.5144829415311
 20
-141.1600314317239
 10
91.36272648540584
 20
-141.141083406555
 10
91.36272648540584
 20
-141.141083406555
 10
91.36272648540584
 20
-141.141083406555
 10
91.46694062383466
 20
-140.2946234458291
 10
91.46694062383466
 20
-140.2946234458291
 10
91.46694062383466
 20
-140.2946234458291
 10
92.140456791201
 20
-140.2946234458291
 10
92.140456791201
 20
-140.2946234458291
 10
92.140456791201
 20
-140.2946234458291
 10
92.140456791201
 20
-140.4892713407457
 10
92.140456791201
 20
-140.4892713407457
 10
92.140456791201
 20
-140.4892713407457
 10
91.60784502918138
 20
-140.4892713407457
 10
91.60784502918138
 20
-140.4892713407457
 10
91.60784502918138
 20
-140.4892713407457
 10
91.55134546322329
 20
-140.9123290663344
 10
91.55134546322329
 20
-140.9123290663344
 10
91.60439993369613
 20
-140.878567130579
 10
91.6757134102408
 20
-140.8382595134015
 10
91.77803274615272
 20
-140.8382595134015
 10
91.99782983811166
 20
-140.8382595134015
 10
92.20281301948403
 20
-141.0246391791536
 10
92.20281301948403
 20
-141.3377983587628
 10
92.20281301948403
 20
-141.6550916529543
 10
92.00885414366445
 20
-141.8897026554998
 10
91.74702688678546
 20
-141.8897026554998
 97
        0
 97
        0
 75
     2
 76
     1
 98
        0
  0
ENDBLK
  5
8E
330
8B
100
AcDbEntity
  8
0
100
AcDbBlockEnd
  0
BLOCK
  5
A1
330
9F
100
AcDbEntity
  8
0
100
AcDbBlockBegin
  2
block 4
 70
     0
 10
0.0
 20
0.0
 30
0.0
  3
block 4
  1

  0
SPLINE
  5
A3
330
9F
100
AcDbEntity
  8
_U+30EC_U+30A4_U+30E4_U+30FC 1
370
     0
100
AcDbSpline
210
0.0
220
0.0
230
1.0
 70
    11
 71
     3
 72
    44
 73
    40
 74
     0
 42
0.0000000001
 43
0.0000000001
 12
1.0
 22
0.0
 32
0.0
 13
1.0
 23
0.0
 33
0.0
 40
0.0
 40
0.0
 40
0.0
 40
0.0
 40
1.0
 40
1.0
 40
1.0
 40
2.0
 40
2.0
 40
2.0
 40
3.0
 40
3.0
 40
3.0
 40
4.0
 40
4.0
 40
4.0
 40
5.0
 40
5.0
 40
5.0
 40
6.0
 40
6.0
 40
6.0
 40
7.0
 40
7.0
 40
7.0
 40
8.0
 40
8.0
 40
8.0
 40
9.0
 40
9.0
 40
9.0
 40
10.0
 40
10.0
 40
10.0
 40
11.0
 40
11.0
 40
11.0
 40
12.0
 40
12.0
 40
12.0
 40
13.0
 40
13.0
 40
13.0
 40
13.0
 10
73.81168753580056
 20
-126.5988185989927
 30
0.0
 10
73.97033418289631
 20
-126.7876098315843
 30
0.0
 10
74.04440373582918
 20
-126.8678805563907
 30
0.0
 10
74.18823647233836
 20
-126.9099107213107
 30
0.0
 10
74.18823647233836
 20
-126.9099107213107
 30
0.0
 10
74.18823647233836
 20
-126.2367390634929
 30
0.0
 10
74.18823647233836
 20
-126.2367390634929
 30
0.0
 10
74.18823647233836
 20
-126.2367390634929
 30
0.0
 10
74.39339190848499
 20
-126.2367390634929
 30
0.0
 10
74.39339190848499
 20
-126.2367390634929
 30
0.0
 10
74.39339190848499
 20
-126.2367390634929
 30
0.0
 10
74.39339190848499
 20
-127.1259182082359
 30
0.0
 10
74.39339190848499
 20
-127.1259182082359
 30
0.0
 10
74.03579099711605
 20
-127.0987019539024
 30
0.0
 10
73.95758732960088
 20
-127.0418578783958
 30
0.0
 10
73.65924206057825
 20
-126.7087171449721
 30
0.0
 10
73.46046005107934
 20
-126.4871975052706
 30
0.0
 10
73.39276392479417
 20
-126.4306979393125
 30
0.0
 10
73.25530461493271
 20
-126.4306979393125
 30
0.0
 10
73.13679333024011
 20
-126.4306979393125
 30
0.0
 10
73.00570744702635
 20
-126.492709658047
 30
0.0
 10
73.00570744702635
 20
-126.6628973750183
 30
0.0
 10
73.00570744702635
 20
-126.8882066197536
 30
0.0
 10
73.23618433498957
 20
-126.8954413202727
 30
0.0
 10
73.35262856239102
 20
-126.8992309253065
 30
0.0
 10
73.35262856239102
 20
-126.8992309253065
 30
0.0
 10
73.35262856239102
 20
-127.093189801126
 30
0.0
 10
73.35262856239102
 20
-127.093189801126
 30
0.0
 10
73.22567679375956
 20
-127.0856105910585
 30
0.0
 10
73.11353893571467
 20
-127.0766533427968
 30
0.0
 10
72.99502765102208
 20
-127.0070624139948
 30
0.0
 10
72.83431394663518
 20
-126.9119777786019
 30
0.0
 10
72.80037975610546
 20
-126.7507473098922
 30
0.0
 10
72.80037975610546
 20
-126.6501505217229
 30
0.0
 10
72.80037975610546
 20
-126.4103718759495
 30
0.0
 10
72.98452010979207
 20
-126.2312269107165
 30
0.0
 10
73.25737167222385
 20
-126.2312269107165
 30
0.0
 10
73.48578150289592
 20
-126.2312269107165
 30
0.0
 10
73.58534476241964
 20
-126.3318236988858
 30
0.0
 10
73.81168753580056
 20
-126.5988185989927
 30
0.0
  0
HATCH
  5
A4
330
9F
100
AcDbEntity
  8
_U+30EC_U+30A4_U+30E4_U+30FC 1
 62
   179
420
  2234388
100
AcDbHatch
 10
0.0
 20
0.0
 30
0.0
210
0.0
220
0.0
230
1.0
  2
SOLID
 70
     1
 71
     0
 91
        1
 92
        1
 93
        1
 72
     4
 94
        3
 73
     0
 74
     1
 95
       44
 96
       40
 40
0.0
 40
0.0
 40
0.0
 40
0.0
 40
1.0
 40
1.0
 40
1.0
 40
2.0
 40
2.0
 40
2.0
 40
3.0
 40
3.0
 40
3.0
 40
4.0
 40
4.0
 40
4.0
 40
5.0
 40
5.0
 40
5.0
 40
6.0
 40
6.0
 40
6.0
 40
7.0
 40
7.0
 40
7.0
 40
8.0
 40
8.0
 40
8.0
 40
9.0
 40
9.0
 40
9.0
 40
10.0
 40
10.0
 40
10.0
 40
11.0
 40
11.0
 40
11.0
 40
12.0
 40
12.0
 40
12.0
 40
13.0
 40
13.0
 40
13.0
 40
13.0
 10
73.81168753580056
 20
-126.5988185989927
 10
73.97033418289631
 20
-126.7876098315843
 10
74.04440373582918
 20
-126.8678805563907
 10
74.18823647233836
 20
-126.9099107213107
 10
74.18823647233836
 20
-126.9099107213107
 10
74.18823647233836
 20
-126.2367390634929
 10
74.18823647233836
 20
-126.2367390634929
 10
74.18823647233836
 20
-126.2367390634929
 10
74.39339190848499
 20
-126.2367390634929
 10
74.39339190848499
 20
-126.2367390634929
 10
74.39339190848499
 20
-126.2367390634929
 10
74.39339190848499
 20
-127.1259182082359
 10
74.39339190848499
 20
-127.1259182082359
 10
74.03579099711605
 20
-127.0987019539024
 10
73.95758732960088
 20
-127.0418578783958
 10
73.65924206057825
 20
-126.7087171449721
 10
73.46046005107934
 20
-126.4871975052706
 10
73.39276392479417
 20
-126.4306979393125
 10
73.25530461493271
 20
-126.4306979393125
 10
73.13679333024011
 20
-126.4306979393125
 10
73.00570744702635
 20
-126.492709658047
 10
73.00570744702635
 20
-126.6628973750183
 10
73.00570744702635
 20
-126.8882066197536
 10
73.23618433498957
 20
-126.8954413202727
 10
73.35262856239102
 20
-126.8992309253065
 10
73.35262856239102
 20
-126.8992309253065
 10
73.35262856239102
 20
-127.093189801126
 10
73.35262856239102
 20
-127.093189801126
 10
73.22567679375956
 20
-127.0856105910585
 10
73.11353893571467
 20
-127.0766533427968
 10
72.99502765102208
 20
-127.0070624139948
 10
72.83431394663518
 20
-126.9119777786019
 10
72.80037975610546
 20
-126.7507473098922
 10
72.80037975610546
 20
-126.6501505217229
 10
72.80037975610546
 20
-126.4103718759495
 10
72.98452010979207
 20
-126.2312269107165
 10
73.25737167222385
 20
-126.2312269107165
 10
73.48578150289592
 20
-126.2312269107165
 10
73.58534476241964
 20
-126.3318236988858
 10
73.81168753580056
 20
-126.5988185989927
 97
        0
 97
        0
 75
     2
 76
     1
 98
        0
  0
SPLINE
  5
A5
330
9F
100
AcDbEntity
  8
_U+30EC_U+30A4_U+30E4_U+30FC 1
370
     0
100
AcDbSpline
210
0.0
220
0.0
230
1.0
 70
    11
 71
     3
 72
    53
 73
    49
 74
     0
 42
0.0000000001
 43
0.0000000001
 12
1.0
 22
0.0
 32
0.0
 13
1.0
 23
0.0
 33
0.0
 40
0.0
 40
0.0
 40
0.0
 40
0.0
 40
1.0
 40
1.0
 40
1.0
 40
2.0
 40
2.0
 40
2.0
 40
3.0
 40
3.0
 40
3.0
 40
4.0
 40
4.0
 40
4.0
 40
5.0
 40
5.0
 40
5.0
 40
6.0
 40
6.0
 40
6.0
 40
7.0
 40
7.0
 40
7.0
 40
8.0
 40
8.0
 40
8.0
 40
9.0
 40
9.0
 40
9.0
 40
10.0
 40
10.0
 40
10.0
 40
11.0
 40
11.0
 40
11.0
 40
12.0
 40
12.0
 40
12.0
 40
13.0
 40
13.0
 40
13.0
 40
14.0
 40
14.0
 40
14.0
 40
15.0
 40
15.0
 40
15.0
 40
16.0
 40
16.0
 40
16.0
 40
16.0
 10
74.44420706689242
 20
-125.6786335948824
 30
0.0
 10
74.44420706689242
 20
-125.7461574663933
 30
0.0
 10
74.42715384424044
 20
-125.8343519108157
 30
0.0
 10
74.36376408731184
 20
-125.9218573361411
 30
0.0
 10
74.2536932865581
 20
-126.072063499298
 30
0.0
 10
74.12260740334435
 20
-126.0903225053698
 30
0.0
 10
74.01477591465603
 20
-126.106858963699
 30
0.0
 10
74.01477591465603
 20
-126.106858963699
 30
0.0
 10
74.01477591465603
 20
-125.914622635622
 30
0.0
 10
74.01477591465603
 20
-125.914622635622
 30
0.0
 10
74.21355792415494
 20
-125.8670803179256
 30
0.0
 10
74.24318574532809
 20
-125.7571817719461
 30
0.0
 10
74.24318574532809
 20
-125.6769110471398
 30
0.0
 10
74.24318574532809
 20
-125.5559881956075
 30
0.0
 10
74.14379474057864
 20
-125.424385548071
 30
0.0
 10
73.91107854055001
 20
-125.424385548071
 30
0.0
 10
73.65510794599595
 20
-125.424385548071
 30
0.0
 10
73.58534476241964
 20
-125.5797593544558
 30
0.0
 10
73.58534476241964
 20
-125.6841457476588
 30
0.0
 10
73.58534476241964
 20
-125.7117065115408
 30
0.0
 10
73.58534476241964
 20
-125.8343519108157
 30
0.0
 10
73.71436358834225
 20
-125.9111775401368
 30
0.0
 10
73.71436358834225
 20
-125.9111775401368
 30
0.0
 10
73.69524330839911
 20
-126.0631062510363
 30
0.0
 10
73.69524330839911
 20
-126.0631062510363
 30
0.0
 10
73.69524330839911
 20
-126.0631062510363
 30
0.0
 10
72.84912785722175
 20
-125.9587198578332
 30
0.0
 10
72.84912785722175
 20
-125.9587198578332
 30
0.0
 10
72.84912785722175
 20
-125.9587198578332
 30
0.0
 10
72.84912785722175
 20
-125.2852036904669
 30
0.0
 10
72.84912785722175
 20
-125.2852036904669
 30
0.0
 10
72.84912785722175
 20
-125.2852036904669
 30
0.0
 10
73.04377575213836
 20
-125.2852036904669
 30
0.0
 10
73.04377575213836
 20
-125.2852036904669
 30
0.0
 10
73.04377575213836
 20
-125.2852036904669
 30
0.0
 10
73.04377575213836
 20
-125.8178154524865
 30
0.0
 10
73.04377575213836
 20
-125.8178154524865
 30
0.0
 10
73.04377575213836
 20
-125.8178154524865
 30
0.0
 10
73.46683347772705
 20
-125.8743150184446
 30
0.0
 10
73.46683347772705
 20
-125.8743150184446
 30
0.0
 10
73.43289928719733
 20
-125.8212605479718
 30
0.0
 10
73.39276392479417
 20
-125.7499470714271
 30
0.0
 10
73.39276392479417
 20
-125.6476277355152
 30
0.0
 10
73.39276392479417
 20
-125.4278306435562
 30
0.0
 10
73.57897133577193
 20
-125.2228474621839
 30
0.0
 10
73.89195826060687
 20
-125.2228474621839
 30
0.0
 10
74.20942380957264
 20
-125.2228474621839
 30
0.0
 10
74.44420706689242
 20
-125.4168063380034
 30
0.0
 10
74.44420706689242
 20
-125.6786335948824
 30
0.0
  0
HATCH
  5
A6
330
9F
100
AcDbEntity
  8
_U+30EC_U+30A4_U+30E4_U+30FC 1
 62
   179
420
  2234388
100
AcDbHatch
 10
0.0
 20
0.0
 30
0.0
210
0.0
220
0.0
230
1.0
  2
SOLID
 70
     1
 71
     0
 91
        1
 92
        1
 93
        1
 72
     4
 94
        3
 73
     0
 74
     1
 95
       53
 96
       49
 40
0.0
 40
0.0
 40
0.0
 40
0.0
 40
1.0
 40
1.0
 40
1.0
 40
2.0
 40
2.0
 40
2.0
 40
3.0
 40
3.0
 40
3.0
 40
4.0
 40
4.0
 40
4.0
 40
5.0
 40
5.0
 40
5.0
 40
6.0
 40
6.0
 40
6.0
 40
7.0
 40
7.0
 40
7.0
 40
8.0
 40
8.0
 40
8.0
 40
9.0
 40
9.0
 40
9.0
 40
10.0
 40
10.0
 40
10.0
 40
11.0
 40
11.0
 40
11.0
 40
12.0
 40
12.0
 40
12.0
 40
13.0
 40
13.0
 40
13.0
 40
14.0
 40
14.0
 40
14.0
 40
15.0
 40
15.0
 40
15.0
 40
16.0
 40
16.0
 40
16.0
 40
16.0
 10
74.44420706689242
 20
-125.6786335948824
 10
74.44420706689242
 20
-125.7461574663933
 10
74.42715384424044
 20
-125.8343519108157
 10
74.36376408731184
 20
-125.9218573361411
 10
74.2536932865581
 20
-126.072063499298
 10
74.12260740334435
 20
-126.0903225053698
 10
74.01477591465603
 20
-126.106858963699
 10
74.01477591465603
 20
-126.106858963699
 10
74.01477591465603
 20
-125.914622635622
 10
74.01477591465603
 20
-125.914622635622
 10
74.21355792415494
 20
-125.8670803179256
 10
74.24318574532809
 20
-125.7571817719461
 10
74.24318574532809
 20
-125.6769110471398
 10
74.24318574532809
 20
-125.5559881956075
 10
74.14379474057864
 20
-125.424385548071
 10
73.91107854055001
 20
-125.424385548071
 10
73.65510794599595
 20
-125.424385548071
 10
73.58534476241964
 20
-125.5797593544558
 10
73.58534476241964
 20
-125.6841457476588
 10
73.58534476241964
 20
-125.7117065115408
 10
73.58534476241964
 20
-125.8343519108157
 10
73.71436358834225
 20
-125.9111775401368
 10
73.71436358834225
 20
-125.9111775401368
 10
73.69524330839911
 20
-126.0631062510363
 10
73.69524330839911
 20
-126.0631062510363
 10
73.69524330839911
 20
-126.0631062510363
 10
72.84912785722175
 20
-125.9587198578332
 10
72.84912785722175
 20
-125.9587198578332
 10
72.84912785722175
 20
-125.9587198578332
 10
72.84912785722175
 20
-125.2852036904669
 10
72.84912785722175
 20
-125.2852036904669
 10
72.84912785722175
 20
-125.2852036904669
 10
73.04377575213836
 20
-125.2852036904669
 10
73.04377575213836
 20
-125.2852036904669
 10
73.04377575213836
 20
-125.2852036904669
 10
73.04377575213836
 20
-125.8178154524865
 10
73.04377575213836
 20
-125.8178154524865
 10
73.04377575213836
 20
-125.8178154524865
 10
73.46683347772705
 20
-125.8743150184446
 10
73.46683347772705
 20
-125.8743150184446
 10
73.43289928719733
 20
-125.8212605479718
 10
73.39276392479417
 20
-125.7499470714271
 10
73.39276392479417
 20
-125.6476277355152
 10
73.39276392479417
 20
-125.4278306435562
 10
73.57897133577193
 20
-125.2228474621839
 10
73.89195826060687
 20
-125.2228474621839
 10
74.20942380957264
 20
-125.2228474621839
 10
74.44420706689242
 20
-125.4168063380034
 10
74.44420706689242
 20
-125.6786335948824
 97
        0
 97
        0
 75
     2
 76
     1
 98
        0
  0
ENDBLK
  5
A2
330
9F
100
AcDbEntity
  8
0
100
AcDbBlockEnd
  0
BLOCK
  5
CB
330
C9
100
AcDbEntity
  8
0
100
AcDbBlockBegin
  2
block 5
 70
     0
 10
0.0
 20
0.0
 30
0.0
  3
block 5
  1

  0
SPLINE
  5
CD
330
C9
100
AcDbEntity
  8
_U+30EC_U+30A4_U+30E4_U+30FC 1
370
     0
100
AcDbSpline
210
0.0
220
0.0
230
1.0
 70
    11
 71
     3
 72
   242
 73
   238
 74
     0
 42
0.0000000001
 43
0.0000000001
 12
1.0
 22
0.0
 32
0.0
 13
1.0
 23
0.0
 33
0.0
 40
0.0
 40
0.0
 40
0.0
 40
0.0
 40
1.0
 40
1.0
 40
1.0
 40
2.0
 40
2.0
 40
2.0
 40
3.0
 40
3.0
 40
3.0
 40
4.0
 40
4.0
 40
4.0
 40
5.0
 40
5.0
 40
5.0
 40
6.0
 40
6.0
 40
6.0
 40
7.0
 40
7.0
 40
7.0
 40
8.0
 40
8.0
 40
8.0
 40
9.0
 40
9.0
 40
9.0
 40
10.0
 40
10.0
 40
10.0
 40
11.0
 40
11.0
 40
11.0
 40
12.0
 40
12.0
 40
12.0
 40
13.0
 40
13.0
 40
13.0
 40
14.0
 40
14.0
 40
14.0
 40
15.0
 40
15.0
 40
15.0
 40
16.0
 40
16.0
 40
16.0
 40
17.0
 40
17.0
 40
17.0
 40
18.0
 40
18.0
 40
18.0
 40
19.0
 40
19.0
 40
19.0
 40
20.0
 40
20.0
 40
20.0
 40
21.0
 40
21.0
 40
21.0
 40
22.0
 40
22.0
 40
22.0
 40
23.0
 40
23.0
 40
23.0
 40
24.0
 40
24.0
 40
24.0
 40
25.0
 40
25.0
 40
25.0
 40
26.0
 40
26.0
 40
26.0
 40
27.0
 40
27.0
 40
27.0
 40
28.0
 40
28.0
 40
28.0
 40
29.0
 40
29.0
 40
29.0
 40
30.0
 40
30.0
 40
30.0
 40
31.0
 40
31.0
 40
31.0
 40
32.0
 40
32.0
 40
32.0
 40
33.0
 40
33.0
 40
33.0
 40
34.0
 40
34.0
 40
34.0
 40
35.0
 40
35.0
 40
35.0
 40
36.0
 40
36.0
 40
36.0
 40
37.0
 40
37.0
 40
37.0
 40
38.0
 40
38.0
 40
38.0
 40
39.0
 40
39.0
 40
39.0
 40
40.0
 40
40.0
 40
40.0
 40
41.0
 40
41.0
 40
41.0
 40
42.0
 40
42.0
 40
42.0
 40
43.0
 40
43.0
 40
43.0
 40
44.0
 40
44.0
 40
44.0
 40
45.0
 40
45.0
 40
45.0
 40
46.0
 40
46.0
 40
46.0
 40
47.0
 40
47.0
 40
47.0
 40
48.0
 40
48.0
 40
48.0
 40
49.0
 40
49.0
 40
49.0
 40
50.0
 40
50.0
 40
50.0
 40
51.0
 40
51.0
 40
51.0
 40
52.0
 40
52.0
 40
52.0
 40
53.0
 40
53.0
 40
53.0
 40
54.0
 40
54.0
 40
54.0
 40
55.0
 40
55.0
 40
55.0
 40
56.0
 40
56.0
 40
56.0
 40
57.0
 40
57.0
 40
57.0
 40
58.0
 40
58.0
 40
58.0
 40
59.0
 40
59.0
 40
59.0
 40
60.0
 40
60.0
 40
60.0
 40
61.0
 40
61.0
 40
61.0
 40
62.0
 40
62.0
 40
62.0
 40
63.0
 40
63.0
 40
63.0
 40
64.0
 40
64.0
 40
64.0
 40
65.0
 40
65.0
 40
65.0
 40
66.0
 40
66.0
 40
66.0
 40
67.0
 40
67.0
 40
67.0
 40
68.0
 40
68.0
 40
68.0
 40
69.0
 40
69.0
 40
69.0
 40
70.0
 40
70.0
 40
70.0
 40
71.0
 40
71.0
 40
71.0
 40
72.0
 40
72.0
 40
72.0
 40
73.0
 40
73.0
 40
73.0
 40
74.0
 40
74.0
 40
74.0
 40
75.0
 40
75.0
 40
75.0
 40
76.0
 40
76.0
 40
76.0
 40
77.0
 40
77.0
 40
77.0
 40
78.0
 40
78.0
 40
78.0
 40
79.0
 40
79.0
 40
79.0
 40
79.0
 10
96.14916989783771
 20
-121.4444389887361
 30
0.0
 10
96.14916989783771
 20
-121.4444389887361
 30
0.0
 10
95.92730574858763
 20
-121.4444389887361
 30
0.0
 10
95.92730574858763
 20
-121.4444389887361
 30
0.0
 10
95.92730574858763
 20
-121.4444389887361
 30
0.0
 10
95.68442651687751
 20
-121.4444389887361
 30
0.0
 10
95.68442651687751
 20
-121.4444389887361
 30
0.0
 10
95.68442651687751
 20
-121.4444389887361
 30
0.0
 10
95.79570310105107
 20
-121.4868136632047
 30
0.0
 10
95.79570310105107
 20
-121.4868136632047
 30
0.0
 10
95.80500485886125
 20
-121.4911200325613
 30
0.0
 10
95.81602916441405
 20
-121.4973212044347
 30
0.0
 10
95.81602916441405
 20
-121.5100680577301
 30
0.0
 10
95.81602916441405
 20
-121.5312553949644
 30
0.0
 10
95.78812389098353
 20
-121.5376288216121
 30
0.0
 10
95.7698648849117
 20
-121.5417629361944
 30
0.0
 10
95.76056312710153
 20
-121.5650173307199
 30
0.0
 10
95.73438040141363
 20
-121.6306463997139
 30
0.0
 10
95.71784394308443
 20
-121.6750881314736
 30
0.0
 10
95.71784394308443
 20
-121.6750881314736
 30
0.0
 10
95.95486651246962
 20
-121.6750881314736
 30
0.0
 10
95.95486651246962
 20
-121.6750881314736
 30
0.0
 10
96.0344482181789
 20
-121.6750881314736
 30
0.0
 10
96.20670299244138
 20
-121.670781762117
 30
0.0
 10
96.33072642991038
 20
-121.6623412781782
 30
0.0
 10
96.33072642991038
 20
-121.6623412781782
 30
0.0
 10
96.33072642991038
 20
-121.8401082052171
 30
0.0
 10
96.33072642991038
 20
-121.8401082052171
 30
0.0
 10
96.25872393426866
 20
-121.8358018358605
 30
0.0
 10
96.2401204186483
 20
-121.8358018358605
 30
0.0
 10
96.08267955497239
 20
-121.8316677212782
 30
0.0
 10
96.05477428154187
 20
-121.9860079990174
 30
0.0
 10
96.01618921210707
 20
-122.066450978598
 30
0.0
 10
95.97725963312375
 20
-122.1362141621743
 30
0.0
 10
96.08267955497239
 20
-122.1954698045206
 30
0.0
 10
96.17535262352561
 20
-122.2631659308057
 30
0.0
 10
96.26595863478768
 20
-122.3456759676775
 30
0.0
 10
96.26595863478768
 20
-122.3456759676775
 30
0.0
 10
96.16226126068166
 20
-122.5127630987121
 30
0.0
 10
96.16226126068166
 20
-122.5127630987121
 30
0.0
 10
96.14193519731869
 20
-122.4938150735432
 30
0.0
 10
96.1309108917659
 20
-122.4853745896044
 30
0.0
 10
96.03272567043626
 20
-122.4006252406672
 30
0.0
 10
95.99000648641918
 20
-122.3625569355552
 30
0.0
 10
95.93833005414042
 20
-122.3267279425086
 30
0.0
 10
95.86805010624133
 20
-122.2822862107489
 30
0.0
 10
95.68270396913488
 20
-122.4684936217266
 30
0.0
 10
95.50321449435337
 20
-122.4917480162521
 30
0.0
 10
95.24931095709046
 20
-122.5213758374252
 30
0.0
 10
95.24931095709046
 20
-122.5213758374252
 30
0.0
 10
95.15870494582839
 20
-122.3415418530952
 30
0.0
 10
95.15870494582839
 20
-122.3415418530952
 30
0.0
 10
95.43637964193952
 20
-122.3372354837386
 30
0.0
 10
95.59003090058167
 20
-122.311914031922
 30
0.0
 10
95.72335609586084
 20
-122.2018432311683
 30
0.0
 10
95.61965872175482
 20
-122.1510280727609
 30
0.0
 10
95.54214407333669
 20
-122.1236395636531
 30
0.0
 10
95.5104491948724
 20
-122.1108927103577
 30
0.0
 10
95.4939127365432
 20
-122.1384534742397
 30
0.0
 10
95.48082137369924
 20
-122.1574014994086
 30
0.0
 10
95.4567057053025
 20
-122.1913356899383
 30
0.0
 10
95.4567057053025
 20
-122.1913356899383
 30
0.0
 10
95.28445093104
 20
-122.1088256530665
 30
0.0
 10
95.28445093104
 20
-122.1088256530665
 30
0.0
 10
95.35679793623025
 20
-122.028382673486
 30
0.0
 10
95.41054142580015
 20
-121.9331257833188
 30
0.0
 10
95.46049531033627
 20
-121.8316677212782
 30
0.0
 10
95.29375268885018
 20
-121.8358018358605
 30
0.0
 10
95.27549368277835
 20
-121.8358018358605
 30
0.0
 10
95.20314667758811
 20
-121.8401082052171
 30
0.0
 10
95.20314667758811
 20
-121.8401082052171
 30
0.0
 10
95.20314667758811
 20
-121.6623412781782
 30
0.0
 10
95.20314667758811
 20
-121.6623412781782
 30
0.0
 10
95.32544756731447
 20
-121.6687147048259
 30
0.0
 10
95.50872664712976
 20
-121.6730210741824
 30
0.0
 10
95.53077525823537
 20
-121.6730210741824
 30
0.0
 10
95.54558916882193
 20
-121.6390868836527
 30
0.0
 10
95.59382050561544
 20
-121.518508541669
 30
0.0
 10
95.61035696394464
 20
-121.4444389887361
 30
0.0
 10
95.59382050561544
 20
-121.4444389887361
 30
0.0
 10
95.43810218968214
 20
-121.4508124153838
 30
0.0
 10
95.2679144727108
 20
-121.4635592686792
 30
0.0
 10
95.2679144727108
 20
-121.4635592686792
 30
0.0
 10
95.2679144727108
 20
-121.5968844639584
 30
0.0
 10
95.2679144727108
 20
-121.5968844639584
 30
0.0
 10
95.22519528869371
 20
-121.622205915775
 30
0.0
 10
95.17351885641496
 20
-121.6539007942393
 30
0.0
 10
95.05673011946499
 20
-121.7195298632333
 30
0.0
 10
95.05673011946499
 20
-121.7195298632333
 30
0.0
 10
95.05673011946499
 20
-121.8654296570336
 30
0.0
 10
95.05673011946499
 20
-121.8654296570336
 30
0.0
 10
95.05673011946499
 20
-121.8654296570336
 30
0.0
 10
95.05673011946499
 20
-122.3331013691563
 30
0.0
 10
95.05673011946499
 20
-122.3331013691563
 30
0.0
 10
95.05673011946499
 20
-122.4598808830135
 30
0.0
 10
95.02537975054922
 20
-122.5191365253598
 30
0.0
 10
94.77733287561122
 20
-122.5106960414209
 30
0.0
 10
94.77733287561122
 20
-122.5106960414209
 30
0.0
 10
94.68638235480063
 20
-122.3034735479832
 30
0.0
 10
94.68638235480063
 20
-122.3034735479832
 30
0.0
 10
94.74219290166168
 20
-122.3160481465043
 30
0.0
 10
94.78456757613026
 20
-122.3203545158609
 30
0.0
 10
94.8197075500798
 20
-122.3203545158609
 30
0.0
 10
94.88654240249365
 20
-122.3203545158609
 30
0.0
 10
94.89584416030382
 20
-122.2971001213354
 30
0.0
 10
94.89584416030382
 20
-122.2314710523414
 30
0.0
 10
94.89584416030382
 20
-122.2314710523414
 30
0.0
 10
94.89584416030382
 20
-121.8020399001051
 30
0.0
 10
94.89584416030382
 20
-121.8020399001051
 30
0.0
 10
94.81040579226962
 20
-121.8421752625082
 30
0.0
 10
94.79559188168305
 20
-121.8485486891559
 30
0.0
 10
94.7549397549571
 20
-121.8676689690991
 30
0.0
 10
94.75115014992333
 20
-121.8886840515591
 30
0.0
 10
94.74770505443807
 20
-121.9183118727322
 30
0.0
 10
94.73082408656036
 20
-121.9183118727322
 30
0.0
 10
94.72358938604133
 20
-121.9183118727322
 30
0.0
 10
94.71428762823115
 20
-121.9141777581499
 30
0.0
 10
94.70877547545476
 20
-121.8909233636245
 30
0.0
 10
94.70877547545476
 20
-121.8909233636245
 30
0.0
 10
94.66226668640388
 20
-121.698342525999
 30
0.0
 10
94.66226668640388
 20
-121.698342525999
 30
0.0
 10
94.79007972890665
 20
-121.6518337369482
 30
0.0
 10
94.84761282351032
 20
-121.6285793424227
 30
0.0
 10
94.89584416030382
 20
-121.6073920051884
 30
0.0
 10
94.89584416030382
 20
-121.6073920051884
 30
0.0
 10
94.89584416030382
 20
-121.1948418208298
 30
0.0
 10
94.89584416030382
 20
-121.1948418208298
 30
0.0
 10
94.89584416030382
 20
-121.1948418208298
 30
0.0
 10
94.84933537125295
 20
-121.1948418208298
 30
0.0
 10
94.84933537125295
 20
-121.1948418208298
 30
0.0
 10
94.84933537125295
 20
-121.1948418208298
 30
0.0
 10
94.78077797109647
 20
-121.1948418208298
 30
0.0
 10
94.78077797109647
 20
-121.1948418208298
 30
0.0
 10
94.72152232875018
 20
-121.1948418208298
 30
0.0
 10
94.71428762823115
 20
-121.1948418208298
 30
0.0
 10
94.68293725931538
 20
-121.2012152474775
 30
0.0
 10
94.68293725931538
 20
-121.2012152474775
 30
0.0
 10
94.68293725931538
 20
-121.0065673525609
 30
0.0
 10
94.68293725931538
 20
-121.0065673525609
 30
0.0
 10
94.7067084181636
 20
-121.0129407792086
 30
0.0
 10
94.71428762823115
 20
-121.0129407792086
 30
0.0
 10
94.77526581832008
 20
-121.0129407792086
 30
0.0
 10
94.77526581832008
 20
-121.0129407792086
 30
0.0
 10
94.89205455527005
 20
-121.0129407792086
 30
0.0
 10
94.89205455527005
 20
-121.0129407792086
 30
0.0
 10
94.89205455527005
 20
-120.9431775956323
 30
0.0
 10
94.89205455527005
 20
-120.8606675587605
 30
0.0
 10
94.89033200752742
 20
-120.856361189404
 30
0.0
 10
94.88275279745987
 20
-120.6765272050739
 30
0.0
 10
94.88275279745987
 20
-120.6575791799051
 30
0.0
 10
94.88103024971724
 20
-120.6110703908542
 30
0.0
 10
94.88103024971724
 20
-120.6110703908542
 30
0.0
 10
95.06982148230894
 20
-120.6195108747931
 30
0.0
 10
95.06982148230894
 20
-120.6195108747931
 30
0.0
 10
95.07912324011912
 20
-120.6195108747931
 30
0.0
 10
95.09772675573946
 20
-120.6215779320842
 30
0.0
 10
95.09772675573946
 20
-120.6384588999619
 30
0.0
 10
95.09772675573946
 20
-120.6575791799051
 30
0.0
 10
95.0846353928955
 20
-120.6680867211351
 30
0.0
 10
95.06224227224139
 20
-120.6872070010782
 30
0.0
 10
95.06224227224139
 20
-120.7378499047114
 30
0.0
 10
95.05673011946499
 20
-120.9664319901577
 30
0.0
 10
95.05879717675614
 20
-121.0129407792086
 30
0.0
 10
95.1714517991238
 20
-121.0129407792086
 30
0.0
 10
95.18282061422514
 20
-121.0129407792086
 30
0.0
 10
95.2679144727108
 20
-121.0045002952697
 30
0.0
 10
95.2679144727108
 20
-121.0045002952697
 30
0.0
 10
95.2679144727108
 20
-121.1991481901863
 30
0.0
 10
95.2679144727108
 20
-121.1991481901863
 30
0.0
 10
95.23449704650388
 20
-121.1969088781209
 30
0.0
 10
95.17524140415759
 20
-121.1927747635386
 30
0.0
 10
95.05673011946499
 20
-121.1948418208298
 30
0.0
 10
95.05673011946499
 20
-121.1948418208298
 30
0.0
 10
95.05673011946499
 20
-121.5333224522556
 30
0.0
 10
95.05673011946499
 20
-121.5333224522556
 30
0.0
 10
95.10496145625848
 20
-121.5100680577301
 30
0.0
 10
95.16249455086216
 20
-121.4825072938481
 30
0.0
 10
95.20486922533073
 20
-121.4592528993227
 30
0.0
 10
95.20486922533073
 20
-121.4592528993227
 30
0.0
 10
95.20486922533073
 20
-121.2816582270581
 30
0.0
 10
95.20486922533073
 20
-121.2816582270581
 30
0.0
 10
95.3051215039515
 20
-121.2942328255792
 30
0.0
 10
95.40847436850899
 20
-121.2942328255792
 30
0.0
 10
95.5104491948724
 20
-121.2942328255792
 30
0.0
 10
95.49012313150942
 20
-121.1991481901863
 30
0.0
 10
95.46600746311267
 20
-121.1166381533146
 30
0.0
 10
95.41054142580015
 20
-120.9833129580354
 30
0.0
 10
95.37161184681682
 20
-120.9853800153266
 30
0.0
 10
95.29926484162658
 20
-120.9896863846831
 30
0.0
 10
95.26619192496818
 20
-120.9917534419743
 30
0.0
 10
95.26619192496818
 20
-120.9917534419743
 30
0.0
 10
95.26619192496818
 20
-120.8119194576443
 30
0.0
 10
95.26619192496818
 20
-120.8119194576443
 30
0.0
 10
95.37540145185059
 20
-120.8203599415831
 30
0.0
 10
95.52698565320159
 20
-120.8246663109397
 30
0.0
 10
95.59933265839184
 20
-120.8246663109397
 30
0.0
 10
95.59933265839184
 20
-120.8246663109397
 30
0.0
 10
95.67167966358208
 20
-120.8246663109397
 30
0.0
 10
95.67167966358208
 20
-120.8246663109397
 30
0.0
 10
95.67167966358208
 20
-120.6617132944874
 30
0.0
 10
95.67167966358208
 20
-120.6512057532573
 30
0.0
 10
95.66961260629094
 20
-120.5962564802676
 30
0.0
 10
95.66961260629094
 20
-120.5962564802676
 30
0.0
 10
95.86598304895017
 20
-120.6215779320842
 30
0.0
 10
95.86598304895017
 20
-120.6215779320842
 30
0.0
 10
95.86977265398394
 20
-120.6215779320842
 30
0.0
 10
95.8883761696043
 20
-120.6236449893754
 30
0.0
 10
95.8883761696043
 20
-120.6405259572531
 30
0.0
 10
95.8883761696043
 20
-120.6553398678396
 30
0.0
 10
95.87907441179412
 20
-120.6639526065528
 30
0.0
 10
95.85495874339738
 20
-120.6787665171393
 30
0.0
 10
95.84944659062097
 20
-120.7442233313591
 30
0.0
 10
95.84737953332983
 20
-120.7654106685934
 30
0.0
 10
95.84737953332983
 20
-120.8246663109397
 30
0.0
 10
95.84737953332983
 20
-120.8246663109397
 30
0.0
 10
95.93075084407288
 20
-120.8246663109397
 30
0.0
 10
95.93075084407288
 20
-120.8246663109397
 30
0.0
 10
96.00309784926311
 20
-120.8246663109397
 30
0.0
 10
96.15502656016264
 20
-120.8203599415831
 30
0.0
 10
96.26423608704506
 20
-120.8119194576443
 30
0.0
 10
96.26423608704506
 20
-120.8119194576443
 30
0.0
 10
96.26423608704506
 20
-120.9917534419743
 30
0.0
 10
96.26423608704506
 20
-120.9917534419743
 30
0.0
 10
96.23805336135716
 20
-120.9896863846831
 30
0.0
 10
96.13470049679967
 20
-120.9853800153266
 30
0.0
 10
96.09921601330159
 20
-120.9833129580354
 30
0.0
 10
96.08646916000616
 20
-121.0341281164429
 30
0.0
 10
96.05684133883301
 20
-121.1462659744877
 30
0.0
 10
95.99930824422934
 20
-121.2857923416404
 30
0.0
 10
96.03651527547004
 20
-121.2857923416404
 30
0.0
 10
96.27904999763163
 20
-121.2668443164715
 30
0.0
 10
96.33279348720153
 20
-121.2646050044061
 30
0.0
 10
96.33279348720153
 20
-121.2646050044061
 30
0.0
 10
96.33279348720153
 20
-121.4487453580927
 30
0.0
 10
96.33279348720153
 20
-121.4487453580927
 30
0.0
 10
96.30661076151362
 20
-121.4487453580927
 30
0.0
 10
96.29179685092706
 20
-121.4444389887361
 30
0.0
 10
96.14916989783771
 20
-121.4444389887361
 30
0.0
  0
SPLINE
  5
CE
330
C9
100
AcDbEntity
  8
_U+30EC_U+30A4_U+30E4_U+30FC 1
370
     0
100
AcDbSpline
210
0.0
220
0.0
230
1.0
 70
    11
 71
     3
 72
    20
 73
    16
 74
     0
 42
0.0000000001
 43
0.0000000001
 12
1.0
 22
0.0
 32
0.0
 13
1.0
 23
0.0
 33
0.0
 40
0.0
 40
0.0
 40
0.0
 40
0.0
 40
1.0
 40
1.0
 40
1.0
 40
2.0
 40
2.0
 40
2.0
 40
3.0
 40
3.0
 40
3.0
 40
4.0
 40
4.0
 40
4.0
 40
5.0
 40
5.0
 40
5.0
 40
5.0
 10
95.59933265839184
 20
-120.9791788434531
 30
0.0
 10
95.59933265839184
 20
-120.9791788434531
 30
0.0
 10
95.57177189450984
 20
-120.9791788434531
 30
0.0
 10
95.57177189450984
 20
-120.9791788434531
 30
0.0
 10
95.61242402123578
 20
-121.0785698482026
 30
0.0
 10
95.63998478511779
 20
-121.1588405730089
 30
0.0
 10
95.66961260629094
 20
-121.2857923416404
 30
0.0
 10
95.66961260629094
 20
-121.2857923416404
 30
0.0
 10
95.8511691383636
 20
-121.2857923416404
 30
0.0
 10
95.8511691383636
 20
-121.2857923416404
 30
0.0
 10
95.87907441179412
 20
-121.1927747635386
 30
0.0
 10
95.8994004751571
 20
-121.1081976693757
 30
0.0
 10
95.91972653852007
 20
-120.9791788434531
 30
0.0
 10
95.91972653852007
 20
-120.9791788434531
 30
0.0
 10
95.59933265839184
 20
-120.9791788434531
 30
0.0
 10
95.59933265839184
 20
-120.9791788434531
 30
0.0
  0
SPLINE
  5
CF
330
C9
100
AcDbEntity
  8
_U+30EC_U+30A4_U+30E4_U+30FC 1
370
     0
100
AcDbSpline
210
0.0
220
0.0
230
1.0
 70
    11
 71
     3
 72
    17
 73
    13
 74
     0
 42
0.0000000001
 43
0.0000000001
 12
1.0
 22
0.0
 32
0.0
 13
1.0
 23
0.0
 33
0.0
 40
0.0
 40
0.0
 40
0.0
 40
0.0
 40
1.0
 40
1.0
 40
1.0
 40
2.0
 40
2.0
 40
2.0
 40
3.0
 40
3.0
 40
3.0
 40
4.0
 40
4.0
 40
4.0
 40
4.0
 10
95.65479869570436
 20
-121.8296006639871
 30
0.0
 10
95.63998478511779
 20
-121.8590562303859
 30
0.0
 10
95.59554305335806
 20
-121.9522460632619
 30
0.0
 10
95.5862412955479
 20
-121.9711940884308
 30
0.0
 10
95.75298391703399
 20
-122.0304497307771
 30
0.0
 10
95.77158743265433
 20
-122.0368231574248
 30
0.0
 10
95.8346326800344
 20
-122.0643839213068
 30
0.0
 10
95.88251950727937
 20
-121.9775675150785
 30
0.0
 10
95.90319008019087
 20
-121.9034979621457
 30
0.0
 10
95.9159369334863
 20
-121.8296006639871
 30
0.0
 10
95.9159369334863
 20
-121.8296006639871
 30
0.0
 10
95.65479869570436
 20
-121.8296006639871
 30
0.0
 10
95.65479869570436
 20
-121.8296006639871
 30
0.0
  0
HATCH
  5
D0
330
C9
100
AcDbEntity
  8
_U+30EC_U+30A4_U+30E4_U+30FC 1
 62
   179
420
  2234388
100
AcDbHatch
 10
0.0
 20
0.0
 30
0.0
210
0.0
220
0.0
230
1.0
  2
SOLID
 70
     1
 71
     0
 91
        3
 92
        1
 93
        1
 72
     4
 94
        3
 73
     0
 74
     1
 95
      242
 96
      238
 40
0.0
 40
0.0
 40
0.0
 40
0.0
 40
1.0
 40
1.0
 40
1.0
 40
2.0
 40
2.0
 40
2.0
 40
3.0
 40
3.0
 40
3.0
 40
4.0
 40
4.0
 40
4.0
 40
5.0
 40
5.0
 40
5.0
 40
6.0
 40
6.0
 40
6.0
 40
7.0
 40
7.0
 40
7.0
 40
8.0
 40
8.0
 40
8.0
 40
9.0
 40
9.0
 40
9.0
 40
10.0
 40
10.0
 40
10.0
 40
11.0
 40
11.0
 40
11.0
 40
12.0
 40
12.0
 40
12.0
 40
13.0
 40
13.0
 40
13.0
 40
14.0
 40
14.0
 40
14.0
 40
15.0
 40
15.0
 40
15.0
 40
16.0
 40
16.0
 40
16.0
 40
17.0
 40
17.0
 40
17.0
 40
18.0
 40
18.0
 40
18.0
 40
19.0
 40
19.0
 40
19.0
 40
20.0
 40
20.0
 40
20.0
 40
21.0
 40
21.0
 40
21.0
 40
22.0
 40
22.0
 40
22.0
 40
23.0
 40
23.0
 40
23.0
 40
24.0
 40
24.0
 40
24.0
 40
25.0
 40
25.0
 40
25.0
 40
26.0
 40
26.0
 40
26.0
 40
27.0
 40
27.0
 40
27.0
 40
28.0
 40
28.0
 40
28.0
 40
29.0
 40
29.0
 40
29.0
 40
30.0
 40
30.0
 40
30.0
 40
31.0
 40
31.0
 40
31.0
 40
32.0
 40
32.0
 40
32.0
 40
33.0
 40
33.0
 40
33.0
 40
34.0
 40
34.0
 40
34.0
 40
35.0
 40
35.0
 40
35.0
 40
36.0
 40
36.0
 40
36.0
 40
37.0
 40
37.0
 40
37.0
 40
38.0
 40
38.0
 40
38.0
 40
39.0
 40
39.0
 40
39.0
 40
40.0
 40
40.0
 40
40.0
 40
41.0
 40
41.0
 40
41.0
 40
42.0
 40
42.0
 40
42.0
 40
43.0
 40
43.0
 40
43.0
 40
44.0
 40
44.0
 40
44.0
 40
45.0
 40
45.0
 40
45.0
 40
46.0
 40
46.0
 40
46.0
 40
47.0
 40
47.0
 40
47.0
 40
48.0
 40
48.0
 40
48.0
 40
49.0
 40
49.0
 40
49.0
 40
50.0
 40
50.0
 40
50.0
 40
51.0
 40
51.0
 40
51.0
 40
52.0
 40
52.0
 40
52.0
 40
53.0
 40
53.0
 40
53.0
 40
54.0
 40
54.0
 40
54.0
 40
55.0
 40
55.0
 40
55.0
 40
56.0
 40
56.0
 40
56.0
 40
57.0
 40
57.0
 40
57.0
 40
58.0
 40
58.0
 40
58.0
 40
59.0
 40
59.0
 40
59.0
 40
60.0
 40
60.0
 40
60.0
 40
61.0
 40
61.0
 40
61.0
 40
62.0
 40
62.0
 40
62.0
 40
63.0
 40
63.0
 40
63.0
 40
64.0
 40
64.0
 40
64.0
 40
65.0
 40
65.0
 40
65.0
 40
66.0
 40
66.0
 40
66.0
 40
67.0
 40
67.0
 40
67.0
 40
68.0
 40
68.0
 40
68.0
 40
69.0
 40
69.0
 40
69.0
 40
70.0
 40
70.0
 40
70.0
 40
71.0
 40
71.0
 40
71.0
 40
72.0
 40
72.0
 40
72.0
 40
73.0
 40
73.0
 40
73.0
 40
74.0
 40
74.0
 40
74.0
 40
75.0
 40
75.0
 40
75.0
 40
76.0
 40
76.0
 40
76.0
 40
77.0
 40
77.0
 40
77.0
 40
78.0
 40
78.0
 40
78.0
 40
79.0
 40
79.0
 40
79.0
 40
79.0
 10
96.14916989783771
 20
-121.4444389887361
 10
96.14916989783771
 20
-121.4444389887361
 10
95.92730574858763
 20
-121.4444389887361
 10
95.92730574858763
 20
-121.4444389887361
 10
95.92730574858763
 20
-121.4444389887361
 10
95.68442651687751
 20
-121.4444389887361
 10
95.68442651687751
 20
-121.4444389887361
 10
95.68442651687751
 20
-121.4444389887361
 10
95.79570310105107
 20
-121.4868136632047
 10
95.79570310105107
 20
-121.4868136632047
 10
95.80500485886125
 20
-121.4911200325613
 10
95.81602916441405
 20
-121.4973212044347
 10
95.81602916441405
 20
-121.5100680577301
 10
95.81602916441405
 20
-121.5312553949644
 10
95.78812389098353
 20
-121.5376288216121
 10
95.7698648849117
 20
-121.5417629361944
 10
95.76056312710153
 20
-121.5650173307199
 10
95.73438040141363
 20
-121.6306463997139
 10
95.71784394308443
 20
-121.6750881314736
 10
95.71784394308443
 20
-121.6750881314736
 10
95.95486651246962
 20
-121.6750881314736
 10
95.95486651246962
 20
-121.6750881314736
 10
96.0344482181789
 20
-121.6750881314736
 10
96.20670299244138
 20
-121.670781762117
 10
96.33072642991038
 20
-121.6623412781782
 10
96.33072642991038
 20
-121.6623412781782
 10
96.33072642991038
 20
-121.8401082052171
 10
96.33072642991038
 20
-121.8401082052171
 10
96.25872393426866
 20
-121.8358018358605
 10
96.2401204186483
 20
-121.8358018358605
 10
96.08267955497239
 20
-121.8316677212782
 10
96.05477428154187
 20
-121.9860079990174
 10
96.01618921210707
 20
-122.066450978598
 10
95.97725963312375
 20
-122.1362141621743
 10
96.08267955497239
 20
-122.1954698045206
 10
96.17535262352561
 20
-122.2631659308057
 10
96.26595863478768
 20
-122.3456759676775
 10
96.26595863478768
 20
-122.3456759676775
 10
96.16226126068166
 20
-122.5127630987121
 10
96.16226126068166
 20
-122.5127630987121
 10
96.14193519731869
 20
-122.4938150735432
 10
96.1309108917659
 20
-122.4853745896044
 10
96.03272567043626
 20
-122.4006252406672
 10
95.99000648641918
 20
-122.3625569355552
 10
95.93833005414042
 20
-122.3267279425086
 10
95.86805010624133
 20
-122.2822862107489
 10
95.68270396913488
 20
-122.4684936217266
 10
95.50321449435337
 20
-122.4917480162521
 10
95.24931095709046
 20
-122.5213758374252
 10
95.24931095709046
 20
-122.5213758374252
 10
95.15870494582839
 20
-122.3415418530952
 10
95.15870494582839
 20
-122.3415418530952
 10
95.43637964193952
 20
-122.3372354837386
 10
95.59003090058167
 20
-122.311914031922
 10
95.72335609586084
 20
-122.2018432311683
 10
95.61965872175482
 20
-122.1510280727609
 10
95.54214407333669
 20
-122.1236395636531
 10
95.5104491948724
 20
-122.1108927103577
 10
95.4939127365432
 20
-122.1384534742397
 10
95.48082137369924
 20
-122.1574014994086
 10
95.4567057053025
 20
-122.1913356899383
 10
95.4567057053025
 20
-122.1913356899383
 10
95.28445093104
 20
-122.1088256530665
 10
95.28445093104
 20
-122.1088256530665
 10
95.35679793623025
 20
-122.028382673486
 10
95.41054142580015
 20
-121.9331257833188
 10
95.46049531033627
 20
-121.8316677212782
 10
95.29375268885018
 20
-121.8358018358605
 10
95.27549368277835
 20
-121.8358018358605
 10
95.20314667758811
 20
-121.8401082052171
 10
95.20314667758811
 20
-121.8401082052171
 10
95.20314667758811
 20
-121.6623412781782
 10
95.20314667758811
 20
-121.6623412781782
 10
95.32544756731447
 20
-121.6687147048259
 10
95.50872664712976
 20
-121.6730210741824
 10
95.53077525823537
 20
-121.6730210741824
 10
95.54558916882193
 20
-121.6390868836527
 10
95.59382050561544
 20
-121.518508541669
 10
95.61035696394464
 20
-121.4444389887361
 10
95.59382050561544
 20
-121.4444389887361
 10
95.43810218968214
 20
-121.4508124153838
 10
95.2679144727108
 20
-121.4635592686792
 10
95.2679144727108
 20
-121.4635592686792
 10
95.2679144727108
 20
-121.5968844639584
 10
95.2679144727108
 20
-121.5968844639584
 10
95.22519528869371
 20
-121.622205915775
 10
95.17351885641496
 20
-121.6539007942393
 10
95.05673011946499
 20
-121.7195298632333
 10
95.05673011946499
 20
-121.7195298632333
 10
95.05673011946499
 20
-121.8654296570336
 10
95.05673011946499
 20
-121.8654296570336
 10
95.05673011946499
 20
-121.8654296570336
 10
95.05673011946499
 20
-122.3331013691563
 10
95.05673011946499
 20
-122.3331013691563
 10
95.05673011946499
 20
-122.4598808830135
 10
95.02537975054922
 20
-122.5191365253598
 10
94.77733287561122
 20
-122.5106960414209
 10
94.77733287561122
 20
-122.5106960414209
 10
94.68638235480063
 20
-122.3034735479832
 10
94.68638235480063
 20
-122.3034735479832
 10
94.74219290166168
 20
-122.3160481465043
 10
94.78456757613026
 20
-122.3203545158609
 10
94.8197075500798
 20
-122.3203545158609
 10
94.88654240249365
 20
-122.3203545158609
 10
94.89584416030382
 20
-122.2971001213354
 10
94.89584416030382
 20
-122.2314710523414
 10
94.89584416030382
 20
-122.2314710523414
 10
94.89584416030382
 20
-121.8020399001051
 10
94.89584416030382
 20
-121.8020399001051
 10
94.81040579226962
 20
-121.8421752625082
 10
94.79559188168305
 20
-121.8485486891559
 10
94.7549397549571
 20
-121.8676689690991
 10
94.75115014992333
 20
-121.8886840515591
 10
94.74770505443807
 20
-121.9183118727322
 10
94.73082408656036
 20
-121.9183118727322
 10
94.72358938604133
 20
-121.9183118727322
 10
94.71428762823115
 20
-121.9141777581499
 10
94.70877547545476
 20
-121.8909233636245
 10
94.70877547545476
 20
-121.8909233636245
 10
94.66226668640388
 20
-121.698342525999
 10
94.66226668640388
 20
-121.698342525999
 10
94.79007972890665
 20
-121.6518337369482
 10
94.84761282351032
 20
-121.6285793424227
 10
94.89584416030382
 20
-121.6073920051884
 10
94.89584416030382
 20
-121.6073920051884
 10
94.89584416030382
 20
-121.1948418208298
 10
94.89584416030382
 20
-121.1948418208298
 10
94.89584416030382
 20
-121.1948418208298
 10
94.84933537125295
 20
-121.1948418208298
 10
94.84933537125295
 20
-121.1948418208298
 10
94.84933537125295
 20
-121.1948418208298
 10
94.78077797109647
 20
-121.1948418208298
 10
94.78077797109647
 20
-121.1948418208298
 10
94.72152232875018
 20
-121.1948418208298
 10
94.71428762823115
 20
-121.1948418208298
 10
94.68293725931538
 20
-121.2012152474775
 10
94.68293725931538
 20
-121.2012152474775
 10
94.68293725931538
 20
-121.0065673525609
 10
94.68293725931538
 20
-121.0065673525609
 10
94.7067084181636
 20
-121.0129407792086
 10
94.71428762823115
 20
-121.0129407792086
 10
94.77526581832008
 20
-121.0129407792086
 10
94.77526581832008
 20
-121.0129407792086
 10
94.89205455527005
 20
-121.0129407792086
 10
94.89205455527005
 20
-121.0129407792086
 10
94.89205455527005
 20
-120.9431775956323
 10
94.89205455527005
 20
-120.8606675587605
 10
94.89033200752742
 20
-120.856361189404
 10
94.88275279745987
 20
-120.6765272050739
 10
94.88275279745987
 20
-120.6575791799051
 10
94.88103024971724
 20
-120.6110703908542
 10
94.88103024971724
 20
-120.6110703908542
 10
95.06982148230894
 20
-120.6195108747931
 10
95.06982148230894
 20
-120.6195108747931
 10
95.07912324011912
 20
-120.6195108747931
 10
95.09772675573946
 20
-120.6215779320842
 10
95.09772675573946
 20
-120.6384588999619
 10
95.09772675573946
 20
-120.6575791799051
 10
95.0846353928955
 20
-120.6680867211351
 10
95.06224227224139
 20
-120.6872070010782
 10
95.06224227224139
 20
-120.7378499047114
 10
95.05673011946499
 20
-120.9664319901577
 10
95.05879717675614
 20
-121.0129407792086
 10
95.1714517991238
 20
-121.0129407792086
 10
95.18282061422514
 20
-121.0129407792086
 10
95.2679144727108
 20
-121.0045002952697
 10
95.2679144727108
 20
-121.0045002952697
 10
95.2679144727108
 20
-121.1991481901863
 10
95.2679144727108
 20
-121.1991481901863
 10
95.23449704650388
 20
-121.1969088781209
 10
95.17524140415759
 20
-121.1927747635386
 10
95.05673011946499
 20
-121.1948418208298
 10
95.05673011946499
 20
-121.1948418208298
 10
95.05673011946499
 20
-121.5333224522556
 10
95.05673011946499
 20
-121.5333224522556
 10
95.10496145625848
 20
-121.5100680577301
 10
95.16249455086216
 20
-121.4825072938481
 10
95.20486922533073
 20
-121.4592528993227
 10
95.20486922533073
 20
-121.4592528993227
 10
95.20486922533073
 20
-121.2816582270581
 10
95.20486922533073
 20
-121.2816582270581
 10
95.3051215039515
 20
-121.2942328255792
 10
95.40847436850899
 20
-121.2942328255792
 10
95.5104491948724
 20
-121.2942328255792
 10
95.49012313150942
 20
-121.1991481901863
 10
95.46600746311267
 20
-121.1166381533146
 10
95.41054142580015
 20
-120.9833129580354
 10
95.37161184681682
 20
-120.9853800153266
 10
95.29926484162658
 20
-120.9896863846831
 10
95.26619192496818
 20
-120.9917534419743
 10
95.26619192496818
 20
-120.9917534419743
 10
95.26619192496818
 20
-120.8119194576443
 10
95.26619192496818
 20
-120.8119194576443
 10
95.37540145185059
 20
-120.8203599415831
 10
95.52698565320159
 20
-120.8246663109397
 10
95.59933265839184
 20
-120.8246663109397
 10
95.59933265839184
 20
-120.8246663109397
 10
95.67167966358208
 20
-120.8246663109397
 10
95.67167966358208
 20
-120.8246663109397
 10
95.67167966358208
 20
-120.6617132944874
 10
95.67167966358208
 20
-120.6512057532573
 10
95.66961260629094
 20
-120.5962564802676
 10
95.66961260629094
 20
-120.5962564802676
 10
95.86598304895017
 20
-120.6215779320842
 10
95.86598304895017
 20
-120.6215779320842
 10
95.86977265398394
 20
-120.6215779320842
 10
95.8883761696043
 20
-120.6236449893754
 10
95.8883761696043
 20
-120.6405259572531
 10
95.8883761696043
 20
-120.6553398678396
 10
95.87907441179412
 20
-120.6639526065528
 10
95.85495874339738
 20
-120.6787665171393
 10
95.84944659062097
 20
-120.7442233313591
 10
95.84737953332983
 20
-120.7654106685934
 10
95.84737953332983
 20
-120.8246663109397
 10
95.84737953332983
 20
-120.8246663109397
 10
95.93075084407288
 20
-120.8246663109397
 10
95.93075084407288
 20
-120.8246663109397
 10
96.00309784926311
 20
-120.8246663109397
 10
96.15502656016264
 20
-120.8203599415831
 10
96.26423608704506
 20
-120.8119194576443
 10
96.26423608704506
 20
-120.8119194576443
 10
96.26423608704506
 20
-120.9917534419743
 10
96.26423608704506
 20
-120.9917534419743
 10
96.23805336135716
 20
-120.9896863846831
 10
96.13470049679967
 20
-120.9853800153266
 10
96.09921601330159
 20
-120.9833129580354
 10
96.08646916000616
 20
-121.0341281164429
 10
96.05684133883301
 20
-121.1462659744877
 10
95.99930824422934
 20
-121.2857923416404
 10
96.03651527547004
 20
-121.2857923416404
 10
96.27904999763163
 20
-121.2668443164715
 10
96.33279348720153
 20
-121.2646050044061
 10
96.33279348720153
 20
-121.2646050044061
 10
96.33279348720153
 20
-121.4487453580927
 10
96.33279348720153
 20
-121.4487453580927
 10
96.30661076151362
 20
-121.4487453580927
 10
96.29179685092706
 20
-121.4444389887361
 10
96.14916989783771
 20
-121.4444389887361
 97
        0
 97
        0
 92
        1
 93
        1
 72
     4
 94
        3
 73
     0
 74
     1
 95
       20
 96
       16
 40
0.0
 40
0.0
 40
0.0
 40
0.0
 40
1.0
 40
1.0
 40
1.0
 40
2.0
 40
2.0
 40
2.0
 40
3.0
 40
3.0
 40
3.0
 40
4.0
 40
4.0
 40
4.0
 40
5.0
 40
5.0
 40
5.0
 40
5.0
 10
95.59933265839184
 20
-120.9791788434531
 10
95.59933265839184
 20
-120.9791788434531
 10
95.57177189450984
 20
-120.9791788434531
 10
95.57177189450984
 20
-120.9791788434531
 10
95.61242402123578
 20
-121.0785698482026
 10
95.63998478511779
 20
-121.1588405730089
 10
95.66961260629094
 20
-121.2857923416404
 10
95.66961260629094
 20
-121.2857923416404
 10
95.8511691383636
 20
-121.2857923416404
 10
95.8511691383636
 20
-121.2857923416404
 10
95.87907441179412
 20
-121.1927747635386
 10
95.8994004751571
 20
-121.1081976693757
 10
95.91972653852007
 20
-120.9791788434531
 10
95.91972653852007
 20
-120.9791788434531
 10
95.59933265839184
 20
-120.9791788434531
 10
95.59933265839184
 20
-120.9791788434531
 97
        0
 97
        0
 92
        1
 93
        1
 72
     4
 94
        3
 73
     0
 74
     1
 95
       17
 96
       13
 40
0.0
 40
0.0
 40
0.0
 40
0.0
 40
1.0
 40
1.0
 40
1.0
 40
2.0
 40
2.0
 40
2.0
 40
3.0
 40
3.0
 40
3.0
 40
4.0
 40
4.0
 40
4.0
 40
4.0
 10
95.65479869570436
 20
-121.8296006639871
 10
95.63998478511779
 20
-121.8590562303859
 10
95.59554305335806
 20
-121.9522460632619
 10
95.5862412955479
 20
-121.9711940884308
 10
95.75298391703399
 20
-122.0304497307771
 10
95.77158743265433
 20
-122.0368231574248
 10
95.8346326800344
 20
-122.0643839213068
 10
95.88251950727937
 20
-121.9775675150785
 10
95.90319008019087
 20
-121.9034979621457
 10
95.9159369334863
 20
-121.8296006639871
 10
95.9159369334863
 20
-121.8296006639871
 10
95.65479869570436
 20
-121.8296006639871
 10
95.65479869570436
 20
-121.8296006639871
 97
        0
 97
        0
 75
     2
 76
     1
 98
        0
  0
SPLINE
  5
D1
330
C9
100
AcDbEntity
  8
_U+30EC_U+30A4_U+30E4_U+30FC 1
370
     0
100
AcDbSpline
210
0.0
220
0.0
230
1.0
 70
    11
 71
     3
 72
   203
 73
   199
 74
     0
 42
0.0000000001
 43
0.0000000001
 12
1.0
 22
0.0
 32
0.0
 13
1.0
 23
0.0
 33
0.0
 40
0.0
 40
0.0
 40
0.0
 40
0.0
 40
1.0
 40
1.0
 40
1.0
 40
2.0
 40
2.0
 40
2.0
 40
3.0
 40
3.0
 40
3.0
 40
4.0
 40
4.0
 40
4.0
 40
5.0
 40
5.0
 40
5.0
 40
6.0
 40
6.0
 40
6.0
 40
7.0
 40
7.0
 40
7.0
 40
8.0
 40
8.0
 40
8.0
 40
9.0
 40
9.0
 40
9.0
 40
10.0
 40
10.0
 40
10.0
 40
11.0
 40
11.0
 40
11.0
 40
12.0
 40
12.0
 40
12.0
 40
13.0
 40
13.0
 40
13.0
 40
14.0
 40
14.0
 40
14.0
 40
15.0
 40
15.0
 40
15.0
 40
16.0
 40
16.0
 40
16.0
 40
17.0
 40
17.0
 40
17.0
 40
18.0
 40
18.0
 40
18.0
 40
19.0
 40
19.0
 40
19.0
 40
20.0
 40
20.0
 40
20.0
 40
21.0
 40
21.0
 40
21.0
 40
22.0
 40
22.0
 40
22.0
 40
23.0
 40
23.0
 40
23.0
 40
24.0
 40
24.0
 40
24.0
 40
25.0
 40
25.0
 40
25.0
 40
26.0
 40
26.0
 40
26.0
 40
27.0
 40
27.0
 40
27.0
 40
28.0
 40
28.0
 40
28.0
 40
29.0
 40
29.0
 40
29.0
 40
30.0
 40
30.0
 40
30.0
 40
31.0
 40
31.0
 40
31.0
 40
32.0
 40
32.0
 40
32.0
 40
33.0
 40
33.0
 40
33.0
 40
34.0
 40
34.0
 40
34.0
 40
35.0
 40
35.0
 40
35.0
 40
36.0
 40
36.0
 40
36.0
 40
37.0
 40
37.0
 40
37.0
 40
38.0
 40
38.0
 40
38.0
 40
39.0
 40
39.0
 40
39.0
 40
40.0
 40
40.0
 40
40.0
 40
41.0
 40
41.0
 40
41.0
 40
42.0
 40
42.0
 40
42.0
 40
43.0
 40
43.0
 40
43.0
 40
44.0
 40
44.0
 40
44.0
 40
45.0
 40
45.0
 40
45.0
 40
46.0
 40
46.0
 40
46.0
 40
47.0
 40
47.0
 40
47.0
 40
48.0
 40
48.0
 40
48.0
 40
49.0
 40
49.0
 40
49.0
 40
50.0
 40
50.0
 40
50.0
 40
51.0
 40
51.0
 40
51.0
 40
52.0
 40
52.0
 40
52.0
 40
53.0
 40
53.0
 40
53.0
 40
54.0
 40
54.0
 40
54.0
 40
55.0
 40
55.0
 40
55.0
 40
56.0
 40
56.0
 40
56.0
 40
57.0
 40
57.0
 40
57.0
 40
58.0
 40
58.0
 40
58.0
 40
59.0
 40
59.0
 40
59.0
 40
60.0
 40
60.0
 40
60.0
 40
61.0
 40
61.0
 40
61.0
 40
62.0
 40
62.0
 40
62.0
 40
63.0
 40
63.0
 40
63.0
 40
64.0
 40
64.0
 40
64.0
 40
65.0
 40
65.0
 40
65.0
 40
66.0
 40
66.0
 40
66.0
 40
66.0
 10
97.6312499755922
 20
-121.5121351150213
 30
0.0
 10
97.6312499755922
 20
-121.5121351150213
 30
0.0
 10
97.14239092623524
 20
-121.5121351150213
 30
0.0
 10
97.14239092623524
 20
-121.5121351150213
 30
0.0
 10
97.13308916842506
 20
-121.556576846781
 30
0.0
 10
97.12585446790604
 20
-121.5882717252453
 30
0.0
 10
97.11448565280472
 20
-121.6265122851316
 30
0.0
 10
97.13687877345885
 20
-121.6265122851316
 30
0.0
 10
97.14997013630278
 20
-121.6285793424227
 30
0.0
 10
97.15548228907919
 20
-121.6285793424227
 30
0.0
 10
97.15548228907919
 20
-121.6285793424227
 30
0.0
 10
97.32015785327413
 20
-121.6285793424227
 30
0.0
 10
97.32015785327413
 20
-121.6285793424227
 30
0.0
 10
97.32015785327413
 20
-121.6285793424227
 30
0.0
 10
97.6477864339214
 20
-121.6285793424227
 30
0.0
 10
97.6477864339214
 20
-121.6285793424227
 30
0.0
 10
97.69257267522964
 20
-121.6285793424227
 30
0.0
 10
97.94061955016763
 20
-121.6158324891273
 30
0.0
 10
97.96818031404963
 20
-121.6158324891273
 30
0.0
 10
97.966457766307
 20
-121.6433932530093
 30
0.0
 10
97.96473521856437
 20
-121.6623412781782
 30
0.0
 10
97.96473521856437
 20
-121.6919690993513
 30
0.0
 10
97.96266816127323
 20
-121.7236639778156
 30
0.0
 10
97.96266816127323
 20
-121.8590562303859
 30
0.0
 10
97.96266816127323
 20
-121.8866169942679
 30
0.0
 10
97.96266816127323
 20
-121.8866169942679
 30
0.0
 10
97.96266816127323
 20
-122.132080047592
 30
0.0
 10
97.96266816127323
 20
-122.132080047592
 30
0.0
 10
97.96266816127323
 20
-122.1765217793517
 30
0.0
 10
97.966457766307
 20
-122.3732367315595
 30
0.0
 10
97.97024737134078
 20
-122.5255099520075
 30
0.0
 10
97.97024737134078
 20
-122.5255099520075
 30
0.0
 10
97.77215438093891
 20
-122.5255099520075
 30
0.0
 10
97.77215438093891
 20
-122.5255099520075
 30
0.0
 10
97.77215438093891
 20
-122.5255099520075
 30
0.0
 10
97.77387692868153
 20
-122.4917480162521
 30
0.0
 10
97.77387692868153
 20
-122.4917480162521
 30
0.0
 10
97.77387692868153
 20
-122.4917480162521
 30
0.0
 10
97.15927189411296
 20
-122.4917480162521
 30
0.0
 10
97.15927189411296
 20
-122.4917480162521
 30
0.0
 10
97.15927189411296
 20
-122.4917480162521
 30
0.0
 10
97.16099444185559
 20
-122.5255099520075
 30
0.0
 10
97.16099444185559
 20
-122.5255099520075
 30
0.0
 10
97.16099444185559
 20
-122.5255099520075
 30
0.0
 10
96.97013615197275
 20
-122.5255099520075
 30
0.0
 10
96.97013615197275
 20
-122.5255099520075
 30
0.0
 10
96.97392575700653
 20
-122.4705606790178
 30
0.0
 10
96.97392575700653
 20
-122.4578138257224
 30
0.0
 10
96.97943790978292
 20
-122.3436089103863
 30
0.0
 10
96.98150496707407
 20
-122.3160481465043
 30
0.0
 10
96.9832275148167
 20
-122.1828952059994
 30
0.0
 10
96.9832275148167
 20
-122.1637749260563
 30
0.0
 10
96.9832275148167
 20
-122.1637749260563
 30
0.0
 10
96.9832275148167
 20
-121.9606865472008
 30
0.0
 10
96.9832275148167
 20
-121.9606865472008
 30
0.0
 10
96.86092662509033
 20
-122.2102837151072
 30
0.0
 10
96.71278751922459
 20
-122.3415418530952
 30
0.0
 10
96.62011445067137
 20
-122.4069986673149
 30
0.0
 10
96.62011445067137
 20
-122.4069986673149
 30
0.0
 10
96.46853024932037
 20
-122.2674723001623
 30
0.0
 10
96.46853024932037
 20
-122.2674723001623
 30
0.0
 10
96.5460448977385
 20
-122.2166571417549
 30
0.0
 10
96.67213539249863
 20
-122.1298407355266
 30
0.0
 10
96.79236922493385
 20
-121.9353650953842
 30
0.0
 10
96.87195093064312
 20
-121.8084133267528
 30
0.0
 10
96.9294840252468
 20
-121.6645805902436
 30
0.0
 10
96.95911184641994
 20
-121.5121351150213
 30
0.0
 10
96.75895179872693
 20
-121.5143744270867
 30
0.0
 10
96.60185544459954
 20
-121.5207478537344
 30
0.0
 10
96.51848413385649
 20
-121.5228149110255
 30
0.0
 10
96.51848413385649
 20
-121.5228149110255
 30
0.0
 10
96.51848413385649
 20
-121.3450479839867
 30
0.0
 10
96.51848413385649
 20
-121.3450479839867
 30
0.0
 10
96.69073890811899
 20
-121.3514214106344
 30
0.0
 10
96.93878578305697
 20
-121.3557277799909
 30
0.0
 10
97.07038843059352
 20
-121.3557277799909
 30
0.0
 10
97.07038843059352
 20
-121.3557277799909
 30
0.0
 10
97.25711260589406
 20
-121.3557277799909
 30
0.0
 10
97.25711260589406
 20
-121.3557277799909
 30
0.0
 10
97.25711260589406
 20
-121.3557277799909
 30
0.0
 10
97.25711260589406
 20
-121.2477240365284
 30
0.0
 10
97.25711260589406
 20
-121.2477240365284
 30
0.0
 10
97.25711260589406
 20
-121.2477240365284
 30
0.0
 10
97.12964407293981
 20
-121.2477240365284
 30
0.0
 10
97.12964407293981
 20
-121.2477240365284
 30
0.0
 10
96.98150496707407
 20
-121.2477240365284
 30
0.0
 10
96.83336586120834
 20
-121.2520304058849
 30
0.0
 10
96.68694930308521
 20
-121.2584038325326
 30
0.0
 10
96.68694930308521
 20
-121.2584038325326
 30
0.0
 10
96.68694930308521
 20
-121.0870103321414
 30
0.0
 10
96.68694930308521
 20
-121.0870103321414
 30
0.0
 10
96.821997046107
 20
-121.0975178733715
 30
0.0
 10
96.98495006255932
 20
-121.0975178733715
 30
0.0
 10
97.12964407293981
 20
-121.0975178733715
 30
0.0
 10
97.12964407293981
 20
-121.0975178733715
 30
0.0
 10
97.25711260589406
 20
-121.0975178733715
 30
0.0
 10
97.25711260589406
 20
-121.0975178733715
 30
0.0
 10
97.25711260589406
 20
-121.0975178733715
 30
0.0
 10
97.25711260589406
 20
-120.9791788434531
 30
0.0
 10
97.25711260589406
 20
-120.9791788434531
 30
0.0
 10
97.25711260589406
 20
-120.9791788434531
 30
0.0
 10
97.14239092623524
 20
-120.9791788434531
 30
0.0
 10
97.14239092623524
 20
-120.9791788434531
 30
0.0
 10
97.10173879950929
 20
-120.9791788434531
 30
0.0
 10
96.9239718724704
 20
-120.987619327392
 30
0.0
 10
96.8867648412297
 20
-120.987619327392
 30
0.0
 10
96.70899791419082
 20
-120.9917534419743
 30
0.0
 10
96.6425075713255
 20
-120.9938204992654
 30
0.0
 10
96.57395017116902
 20
-120.9960598113309
 30
0.0
 10
96.57395017116902
 20
-120.9960598113309
 30
0.0
 10
96.57395017116902
 20
-120.8119194576443
 30
0.0
 10
96.57395017116902
 20
-120.8119194576443
 30
0.0
 10
96.67385794024126
 20
-120.8203599415831
 30
0.0
 10
96.71278751922459
 20
-120.8203599415831
 30
0.0
 10
97.0479953099394
 20
-120.8289726802962
 30
0.0
 10
96.99252927262687
 20
-120.7337157901291
 30
0.0
 10
96.96841360423012
 20
-120.7061550262471
 30
0.0
 10
96.93671872576583
 20
-120.6701537784262
 30
0.0
 10
96.93671872576583
 20
-120.6701537784262
 30
0.0
 10
97.0907144939565
 20
-120.5876437415545
 30
0.0
 10
97.0907144939565
 20
-120.5876437415545
 30
0.0
 10
97.12585446790604
 20
-120.6236449893754
 30
0.0
 10
97.16478404688937
 20
-120.6660196638439
 30
0.0
 10
97.22955184201206
 20
-120.7759182098234
 30
0.0
 10
97.22955184201206
 20
-120.7759182098234
 30
0.0
 10
97.12964407293981
 20
-120.8310397375874
 30
0.0
 10
97.12964407293981
 20
-120.8310397375874
 30
0.0
 10
97.12964407293981
 20
-120.8310397375874
 30
0.0
 10
97.13860132120146
 20
-120.8310397375874
 30
0.0
 10
97.13860132120146
 20
-120.8310397375874
 30
0.0
 10
97.13860132120146
 20
-120.8310397375874
 30
0.0
 10
97.59611000164264
 20
-120.8310397375874
 30
0.0
 10
97.59611000164264
 20
-120.8310397375874
 30
0.0
 10
97.59611000164264
 20
-120.8310397375874
 30
0.0
 10
97.5127386908996
 20
-120.7865980058277
 30
0.0
 10
97.5127386908996
 20
-120.7865980058277
 30
0.0
 10
97.53685435929634
 20
-120.7485297007157
 30
0.0
 10
97.58680824383246
 20
-120.6680867211351
 30
0.0
 10
97.59989960667642
 20
-120.5940171682022
 30
0.0
 10
97.59989960667642
 20
-120.5940171682022
 30
0.0
 10
97.78696829152548
 20
-120.6575791799051
 30
0.0
 10
97.78696829152548
 20
-120.6575791799051
 30
0.0
 10
97.7942029920445
 20
-120.6596462371962
 30
0.0
 10
97.81280650766486
 20
-120.6701537784262
 30
0.0
 10
97.81280650766486
 20
-120.6913411156605
 30
0.0
 10
97.81280650766486
 20
-120.7294094207725
 30
0.0
 10
97.75527341306119
 20
-120.7294094207725
 30
0.0
 10
97.73873695473199
 20
-120.7294094207725
 30
0.0
 10
97.72943519692181
 20
-120.7485297007157
 30
0.0
 10
97.70910913355884
 20
-120.7886650631188
 30
0.0
 10
97.68327091741946
 20
-120.8289726802962
 30
0.0
 10
98.03294810917232
 20
-120.8225992536485
 30
0.0
 10
98.05913083486023
 20
-120.8203599415831
 30
0.0
 10
98.12562117772555
 20
-120.8141587697097
 30
0.0
 10
98.12562117772555
 20
-120.8141587697097
 30
0.0
 10
98.12562117772555
 20
-120.9960598113309
 30
0.0
 10
98.12562117772555
 20
-120.9960598113309
 30
0.0
 10
98.10908471939635
 20
-120.9960598113309
 30
0.0
 10
98.08669159874222
 20
-120.9938204992654
 30
0.0
 10
97.89411076111675
 20
-120.9853800153266
 30
0.0
 10
97.84966902935703
 20
-120.9833129580354
 30
0.0
 10
97.65708819173156
 20
-120.9791788434531
 30
0.0
 10
97.61815861274825
 20
-120.9791788434531
 30
0.0
 10
97.61815861274825
 20
-120.9791788434531
 30
0.0
 10
97.42936738015655
 20
-120.9791788434531
 30
0.0
 10
97.42936738015655
 20
-120.9791788434531
 30
0.0
 10
97.42936738015655
 20
-120.9791788434531
 30
0.0
 10
97.42936738015655
 20
-121.0975178733715
 30
0.0
 10
97.42936738015655
 20
-121.0975178733715
 30
0.0
 10
97.42936738015655
 20
-121.0975178733715
 30
0.0
 10
97.58129609105607
 20
-121.0975178733715
 30
0.0
 10
97.58129609105607
 20
-121.0975178733715
 30
0.0
 10
97.72392304414541
 20
-121.0975178733715
 30
0.0
 10
97.8906656656315
 20
-121.0975178733715
 30
0.0
 10
98.02743595639592
 20
-121.0870103321414
 30
0.0
 10
98.02743595639592
 20
-121.0870103321414
 30
0.0
 10
98.02743595639592
 20
-121.2584038325326
 30
0.0
 10
98.02743595639592
 20
-121.2584038325326
 30
0.0
 10
97.84415687658063
 20
-121.2499633485938
 30
0.0
 10
97.67190210231814
 20
-121.2477240365284
 30
0.0
 10
97.58129609105607
 20
-121.2477240365284
 30
0.0
 10
97.58129609105607
 20
-121.2477240365284
 30
0.0
 10
97.42936738015655
 20
-121.2477240365284
 30
0.0
 10
97.42936738015655
 20
-121.2477240365284
 30
0.0
 10
97.42936738015655
 20
-121.2477240365284
 30
0.0
 10
97.42936738015655
 20
-121.3557277799909
 30
0.0
 10
97.42936738015655
 20
-121.3557277799909
 30
0.0
 10
97.42936738015655
 20
-121.3557277799909
 30
0.0
 10
97.6312499755922
 20
-121.3557277799909
 30
0.0
 10
97.6312499755922
 20
-121.3557277799909
 30
0.0
 10
97.74803871254215
 20
-121.3557277799909
 30
0.0
 10
97.99987519251393
 20
-121.3514214106344
 30
0.0
 10
98.18315427232922
 20
-121.3450479839867
 30
0.0
 10
98.18315427232922
 20
-121.3450479839867
 30
0.0
 10
98.18315427232922
 20
-121.5228149110255
 30
0.0
 10
98.18315427232922
 20
-121.5228149110255
 30
0.0
 10
98.0146891031005
 20
-121.5164414843778
 30
0.0
 10
97.74045950247461
 20
-121.5121351150213
 30
0.0
 10
97.6312499755922
 20
-121.5121351150213
 30
0.0
  0
POLYLINE
  5
D2
330
C9
100
AcDbEntity
  8
_U+30EC_U+30A4_U+30E4_U+30FC 1
370
     0
100
AcDb2dPolyline
 66
     1
 10
0.0
 20
0.0
 30
0.0
  0
VERTEX
  5
D3
330
D2
100
AcDbEntity
  8
_U+30EC_U+30A4_U+30E4_U+30FC 1
370
     0
100
AcDbVertex
100
AcDb2dVertex
 10
97.77559947642416
 20
-121.7681057095753
 30
0.0
  0
VERTEX
  5
D4
330
D2
100
AcDbEntity
  8
_U+30EC_U+30A4_U+30E4_U+30FC 1
370
     0
100
AcDbVertex
100
AcDb2dVertex
 10
97.15720483682182
 20
-121.7681057095753
 30
0.0
  0
VERTEX
  5
D5
330
D2
100
AcDbEntity
  8
_U+30EC_U+30A4_U+30E4_U+30FC 1
370
     0
100
AcDbVertex
100
AcDb2dVertex
 10
97.15720483682182
 20
-121.8761094530379
 30
0.0
  0
VERTEX
  5
D6
330
D2
100
AcDbEntity
  8
_U+30EC_U+30A4_U+30E4_U+30FC 1
370
     0
100
AcDbVertex
100
AcDb2dVertex
 10
97.77559947642416
 20
-121.8761094530379
 30
0.0
  0
VERTEX
  5
D7
330
D2
100
AcDbEntity
  8
_U+30EC_U+30A4_U+30E4_U+30FC 1
370
     0
100
AcDbVertex
100
AcDb2dVertex
 10
97.77559947642416
 20
-121.7681057095753
 30
0.0
  0
SEQEND
  5
D8
330
D2
100
AcDbEntity
  8
_U+30EC_U+30A4_U+30E4_U+30FC 1
370
     0
  0
POLYLINE
  5
D9
330
C9
100
AcDbEntity
  8
_U+30EC_U+30A4_U+30E4_U+30FC 1
370
     0
100
AcDb2dPolyline
 66
     1
 10
0.0
 20
0.0
 30
0.0
  0
VERTEX
  5
DA
330
D9
100
AcDbEntity
  8
_U+30EC_U+30A4_U+30E4_U+30FC 1
370
     0
100
AcDbVertex
100
AcDb2dVertex
 10
97.77559947642416
 20
-122.000821909604
 30
0.0
  0
VERTEX
  5
DB
330
D9
100
AcDbEntity
  8
_U+30EC_U+30A4_U+30E4_U+30FC 1
370
     0
100
AcDbVertex
100
AcDb2dVertex
 10
97.15720483682182
 20
-122.000821909604
 30
0.0
  0
VERTEX
  5
DC
330
D9
100
AcDbEntity
  8
_U+30EC_U+30A4_U+30E4_U+30FC 1
370
     0
100
AcDbVertex
100
AcDb2dVertex
 10
97.15720483682182
 20
-122.1151990797143
 30
0.0
  0
VERTEX
  5
DD
330
D9
100
AcDbEntity
  8
_U+30EC_U+30A4_U+30E4_U+30FC 1
370
     0
100
AcDbVertex
100
AcDb2dVertex
 10
97.77559947642416
 20
-122.1151990797143
 30
0.0
  0
VERTEX
  5
DE
330
D9
100
AcDbEntity
  8
_U+30EC_U+30A4_U+30E4_U+30FC 1
370
     0
100
AcDbVertex
100
AcDb2dVertex
 10
97.77559947642416
 20
-122.000821909604
 30
0.0
  0
SEQEND
  5
DF
330
D9
100
AcDbEntity
  8
_U+30EC_U+30A4_U+30E4_U+30FC 1
370
     0
  0
POLYLINE
  5
E0
330
C9
100
AcDbEntity
  8
_U+30EC_U+30A4_U+30E4_U+30FC 1
370
     0
100
AcDb2dPolyline
 66
     1
 10
0.0
 20
0.0
 30
0.0
  0
VERTEX
  5
E1
330
E0
100
AcDbEntity
  8
_U+30EC_U+30A4_U+30E4_U+30FC 1
370
     0
100
AcDbVertex
100
AcDb2dVertex
 10
97.77559947642416
 20
-122.2442179056369
 30
0.0
  0
VERTEX
  5
E2
330
E0
100
AcDbEntity
  8
_U+30EC_U+30A4_U+30E4_U+30FC 1
370
     0
100
AcDbVertex
100
AcDb2dVertex
 10
97.15720483682182
 20
-122.2442179056369
 30
0.0
  0
VERTEX
  5
E3
330
E0
100
AcDbEntity
  8
_U+30EC_U+30A4_U+30E4_U+30FC 1
370
     0
100
AcDbVertex
100
AcDb2dVertex
 10
97.15720483682182
 20
-122.3584228209729
 30
0.0
  0
VERTEX
  5
E4
330
E0
100
AcDbEntity
  8
_U+30EC_U+30A4_U+30E4_U+30FC 1
370
     0
100
AcDbVertex
100
AcDb2dVertex
 10
97.77559947642416
 20
-122.3584228209729
 30
0.0
  0
VERTEX
  5
E5
330
E0
100
AcDbEntity
  8
_U+30EC_U+30A4_U+30E4_U+30FC 1
370
     0
100
AcDbVertex
100
AcDb2dVertex
 10
97.77559947642416
 20
-122.2442179056369
 30
0.0
  0
SEQEND
  5
E6
330
E0
100
AcDbEntity
  8
_U+30EC_U+30A4_U+30E4_U+30FC 1
370
     0
  0
HATCH
  5
E7
330
C9
100
AcDbEntity
  8
_U+30EC_U+30A4_U+30E4_U+30FC 1
 62
   179
420
  2234388
100
AcDbHatch
 10
0.0
 20
0.0
 30
0.0
210
0.0
220
0.0
230
1.0
  2
SOLID
 70
     1
 71
     0
 91
        4
 92
        1
 93
        1
 72
     4
 94
        3
 73
     0
 74
     1
 95
      203
 96
      199
 40
0.0
 40
0.0
 40
0.0
 40
0.0
 40
1.0
 40
1.0
 40
1.0
 40
2.0
 40
2.0
 40
2.0
 40
3.0
 40
3.0
 40
3.0
 40
4.0
 40
4.0
 40
4.0
 40
5.0
 40
5.0
 40
5.0
 40
6.0
 40
6.0
 40
6.0
 40
7.0
 40
7.0
 40
7.0
 40
8.0
 40
8.0
 40
8.0
 40
9.0
 40
9.0
 40
9.0
 40
10.0
 40
10.0
 40
10.0
 40
11.0
 40
11.0
 40
11.0
 40
12.0
 40
12.0
 40
12.0
 40
13.0
 40
13.0
 40
13.0
 40
14.0
 40
14.0
 40
14.0
 40
15.0
 40
15.0
 40
15.0
 40
16.0
 40
16.0
 40
16.0
 40
17.0
 40
17.0
 40
17.0
 40
18.0
 40
18.0
 40
18.0
 40
19.0
 40
19.0
 40
19.0
 40
20.0
 40
20.0
 40
20.0
 40
21.0
 40
21.0
 40
21.0
 40
22.0
 40
22.0
 40
22.0
 40
23.0
 40
23.0
 40
23.0
 40
24.0
 40
24.0
 40
24.0
 40
25.0
 40
25.0
 40
25.0
 40
26.0
 40
26.0
 40
26.0
 40
27.0
 40
27.0
 40
27.0
 40
28.0
 40
28.0
 40
28.0
 40
29.0
 40
29.0
 40
29.0
 40
30.0
 40
30.0
 40
30.0
 40
31.0
 40
31.0
 40
31.0
 40
32.0
 40
32.0
 40
32.0
 40
33.0
 40
33.0
 40
33.0
 40
34.0
 40
34.0
 40
34.0
 40
35.0
 40
35.0
 40
35.0
 40
36.0
 40
36.0
 40
36.0
 40
37.0
 40
37.0
 40
37.0
 40
38.0
 40
38.0
 40
38.0
 40
39.0
 40
39.0
 40
39.0
 40
40.0
 40
40.0
 40
40.0
 40
41.0
 40
41.0
 40
41.0
 40
42.0
 40
42.0
 40
42.0
 40
43.0
 40
43.0
 40
43.0
 40
44.0
 40
44.0
 40
44.0
 40
45.0
 40
45.0
 40
45.0
 40
46.0
 40
46.0
 40
46.0
 40
47.0
 40
47.0
 40
47.0
 40
48.0
 40
48.0
 40
48.0
 40
49.0
 40
49.0
 40
49.0
 40
50.0
 40
50.0
 40
50.0
 40
51.0
 40
51.0
 40
51.0
 40
52.0
 40
52.0
 40
52.0
 40
53.0
 40
53.0
 40
53.0
 40
54.0
 40
54.0
 40
54.0
 40
55.0
 40
55.0
 40
55.0
 40
56.0
 40
56.0
 40
56.0
 40
57.0
 40
57.0
 40
57.0
 40
58.0
 40
58.0
 40
58.0
 40
59.0
 40
59.0
 40
59.0
 40
60.0
 40
60.0
 40
60.0
 40
61.0
 40
61.0
 40
61.0
 40
62.0
 40
62.0
 40
62.0
 40
63.0
 40
63.0
 40
63.0
 40
64.0
 40
64.0
 40
64.0
 40
65.0
 40
65.0
 40
65.0
 40
66.0
 40
66.0
 40
66.0
 40
66.0
 10
97.6312499755922
 20
-121.5121351150213
 10
97.6312499755922
 20
-121.5121351150213
 10
97.14239092623524
 20
-121.5121351150213
 10
97.14239092623524
 20
-121.5121351150213
 10
97.13308916842506
 20
-121.556576846781
 10
97.12585446790604
 20
-121.5882717252453
 10
97.11448565280472
 20
-121.6265122851316
 10
97.13687877345885
 20
-121.6265122851316
 10
97.14997013630278
 20
-121.6285793424227
 10
97.15548228907919
 20
-121.6285793424227
 10
97.15548228907919
 20
-121.6285793424227
 10
97.32015785327413
 20
-121.6285793424227
 10
97.32015785327413
 20
-121.6285793424227
 10
97.32015785327413
 20
-121.6285793424227
 10
97.6477864339214
 20
-121.6285793424227
 10
97.6477864339214
 20
-121.6285793424227
 10
97.69257267522964
 20
-121.6285793424227
 10
97.94061955016763
 20
-121.6158324891273
 10
97.96818031404963
 20
-121.6158324891273
 10
97.966457766307
 20
-121.6433932530093
 10
97.96473521856437
 20
-121.6623412781782
 10
97.96473521856437
 20
-121.6919690993513
 10
97.96266816127323
 20
-121.7236639778156
 10
97.96266816127323
 20
-121.8590562303859
 10
97.96266816127323
 20
-121.8866169942679
 10
97.96266816127323
 20
-121.8866169942679
 10
97.96266816127323
 20
-122.132080047592
 10
97.96266816127323
 20
-122.132080047592
 10
97.96266816127323
 20
-122.1765217793517
 10
97.966457766307
 20
-122.3732367315595
 10
97.97024737134078
 20
-122.5255099520075
 10
97.97024737134078
 20
-122.5255099520075
 10
97.77215438093891
 20
-122.5255099520075
 10
97.77215438093891
 20
-122.5255099520075
 10
97.77215438093891
 20
-122.5255099520075
 10
97.77387692868153
 20
-122.4917480162521
 10
97.77387692868153
 20
-122.4917480162521
 10
97.77387692868153
 20
-122.4917480162521
 10
97.15927189411296
 20
-122.4917480162521
 10
97.15927189411296
 20
-122.4917480162521
 10
97.15927189411296
 20
-122.4917480162521
 10
97.16099444185559
 20
-122.5255099520075
 10
97.16099444185559
 20
-122.5255099520075
 10
97.16099444185559
 20
-122.5255099520075
 10
96.97013615197275
 20
-122.5255099520075
 10
96.97013615197275
 20
-122.5255099520075
 10
96.97392575700653
 20
-122.4705606790178
 10
96.97392575700653
 20
-122.4578138257224
 10
96.97943790978292
 20
-122.3436089103863
 10
96.98150496707407
 20
-122.3160481465043
 10
96.9832275148167
 20
-122.1828952059994
 10
96.9832275148167
 20
-122.1637749260563
 10
96.9832275148167
 20
-122.1637749260563
 10
96.9832275148167
 20
-121.9606865472008
 10
96.9832275148167
 20
-121.9606865472008
 10
96.86092662509033
 20
-122.2102837151072
 10
96.71278751922459
 20
-122.3415418530952
 10
96.62011445067137
 20
-122.4069986673149
 10
96.62011445067137
 20
-122.4069986673149
 10
96.46853024932037
 20
-122.2674723001623
 10
96.46853024932037
 20
-122.2674723001623
 10
96.5460448977385
 20
-122.2166571417549
 10
96.67213539249863
 20
-122.1298407355266
 10
96.79236922493385
 20
-121.9353650953842
 10
96.87195093064312
 20
-121.8084133267528
 10
96.9294840252468
 20
-121.6645805902436
 10
96.95911184641994
 20
-121.5121351150213
 10
96.75895179872693
 20
-121.5143744270867
 10
96.60185544459954
 20
-121.5207478537344
 10
96.51848413385649
 20
-121.5228149110255
 10
96.51848413385649
 20
-121.5228149110255
 10
96.51848413385649
 20
-121.3450479839867
 10
96.51848413385649
 20
-121.3450479839867
 10
96.69073890811899
 20
-121.3514214106344
 10
96.93878578305697
 20
-121.3557277799909
 10
97.07038843059352
 20
-121.3557277799909
 10
97.07038843059352
 20
-121.3557277799909
 10
97.25711260589406
 20
-121.3557277799909
 10
97.25711260589406
 20
-121.3557277799909
 10
97.25711260589406
 20
-121.3557277799909
 10
97.25711260589406
 20
-121.2477240365284
 10
97.25711260589406
 20
-121.2477240365284
 10
97.25711260589406
 20
-121.2477240365284
 10
97.12964407293981
 20
-121.2477240365284
 10
97.12964407293981
 20
-121.2477240365284
 10
96.98150496707407
 20
-121.2477240365284
 10
96.83336586120834
 20
-121.2520304058849
 10
96.68694930308521
 20
-121.2584038325326
 10
96.68694930308521
 20
-121.2584038325326
 10
96.68694930308521
 20
-121.0870103321414
 10
96.68694930308521
 20
-121.0870103321414
 10
96.821997046107
 20
-121.0975178733715
 10
96.98495006255932
 20
-121.0975178733715
 10
97.12964407293981
 20
-121.0975178733715
 10
97.12964407293981
 20
-121.0975178733715
 10
97.25711260589406
 20
-121.0975178733715
 10
97.25711260589406
 20
-121.0975178733715
 10
97.25711260589406
 20
-121.0975178733715
 10
97.25711260589406
 20
-120.9791788434531
 10
97.25711260589406
 20
-120.9791788434531
 10
97.25711260589406
 20
-120.9791788434531
 10
97.14239092623524
 20
-120.9791788434531
 10
97.14239092623524
 20
-120.9791788434531
 10
97.10173879950929
 20
-120.9791788434531
 10
96.9239718724704
 20
-120.987619327392
 10
96.8867648412297
 20
-120.987619327392
 10
96.70899791419082
 20
-120.9917534419743
 10
96.6425075713255
 20
-120.9938204992654
 10
96.57395017116902
 20
-120.9960598113309
 10
96.57395017116902
 20
-120.9960598113309
 10
96.57395017116902
 20
-120.8119194576443
 10
96.57395017116902
 20
-120.8119194576443
 10
96.67385794024126
 20
-120.8203599415831
 10
96.71278751922459
 20
-120.8203599415831
 10
97.0479953099394
 20
-120.8289726802962
 10
96.99252927262687
 20
-120.7337157901291
 10
96.96841360423012
 20
-120.7061550262471
 10
96.93671872576583
 20
-120.6701537784262
 10
96.93671872576583
 20
-120.6701537784262
 10
97.0907144939565
 20
-120.5876437415545
 10
97.0907144939565
 20
-120.5876437415545
 10
97.12585446790604
 20
-120.6236449893754
 10
97.16478404688937
 20
-120.6660196638439
 10
97.22955184201206
 20
-120.7759182098234
 10
97.22955184201206
 20
-120.7759182098234
 10
97.12964407293981
 20
-120.8310397375874
 10
97.12964407293981
 20
-120.8310397375874
 10
97.12964407293981
 20
-120.8310397375874
 10
97.13860132120146
 20
-120.8310397375874
 10
97.13860132120146
 20
-120.8310397375874
 10
97.13860132120146
 20
-120.8310397375874
 10
97.59611000164264
 20
-120.8310397375874
 10
97.59611000164264
 20
-120.8310397375874
 10
97.59611000164264
 20
-120.8310397375874
 10
97.5127386908996
 20
-120.7865980058277
 10
97.5127386908996
 20
-120.7865980058277
 10
97.53685435929634
 20
-120.7485297007157
 10
97.58680824383246
 20
-120.6680867211351
 10
97.59989960667642
 20
-120.5940171682022
 10
97.59989960667642
 20
-120.5940171682022
 10
97.78696829152548
 20
-120.6575791799051
 10
97.78696829152548
 20
-120.6575791799051
 10
97.7942029920445
 20
-120.6596462371962
 10
97.81280650766486
 20
-120.6701537784262
 10
97.81280650766486
 20
-120.6913411156605
 10
97.81280650766486
 20
-120.7294094207725
 10
97.75527341306119
 20
-120.7294094207725
 10
97.73873695473199
 20
-120.7294094207725
 10
97.72943519692181
 20
-120.7485297007157
 10
97.70910913355884
 20
-120.7886650631188
 10
97.68327091741946
 20
-120.8289726802962
 10
98.03294810917232
 20
-120.8225992536485
 10
98.05913083486023
 20
-120.8203599415831
 10
98.12562117772555
 20
-120.8141587697097
 10
98.12562117772555
 20
-120.8141587697097
 10
98.12562117772555
 20
-120.9960598113309
 10
98.12562117772555
 20
-120.9960598113309
 10
98.10908471939635
 20
-120.9960598113309
 10
98.08669159874222
 20
-120.9938204992654
 10
97.89411076111675
 20
-120.9853800153266
 10
97.84966902935703
 20
-120.9833129580354
 10
97.65708819173156
 20
-120.9791788434531
 10
97.61815861274825
 20
-120.9791788434531
 10
97.61815861274825
 20
-120.9791788434531
 10
97.42936738015655
 20
-120.9791788434531
 10
97.42936738015655
 20
-120.9791788434531
 10
97.42936738015655
 20
-120.9791788434531
 10
97.42936738015655
 20
-121.0975178733715
 10
97.42936738015655
 20
-121.0975178733715
 10
97.42936738015655
 20
-121.0975178733715
 10
97.58129609105607
 20
-121.0975178733715
 10
97.58129609105607
 20
-121.0975178733715
 10
97.72392304414541
 20
-121.0975178733715
 10
97.8906656656315
 20
-121.0975178733715
 10
98.02743595639592
 20
-121.0870103321414
 10
98.02743595639592
 20
-121.0870103321414
 10
98.02743595639592
 20
-121.2584038325326
 10
98.02743595639592
 20
-121.2584038325326
 10
97.84415687658063
 20
-121.2499633485938
 10
97.67190210231814
 20
-121.2477240365284
 10
97.58129609105607
 20
-121.2477240365284
 10
97.58129609105607
 20
-121.2477240365284
 10
97.42936738015655
 20
-121.2477240365284
 10
97.42936738015655
 20
-121.2477240365284
 10
97.42936738015655
 20
-121.2477240365284
 10
97.42936738015655
 20
-121.3557277799909
 10
97.42936738015655
 20
-121.3557277799909
 10
97.42936738015655
 20
-121.3557277799909
 10
97.6312499755922
 20
-121.3557277799909
 10
97.6312499755922
 20
-121.3557277799909
 10
97.74803871254215
 20
-121.3557277799909
 10
97.99987519251393
 20
-121.3514214106344
 10
98.18315427232922
 20
-121.3450479839867
 10
98.18315427232922
 20
-121.3450479839867
 10
98.18315427232922
 20
-121.5228149110255
 10
98.18315427232922
 20
-121.5228149110255
 10
98.0146891031005
 20
-121.5164414843778
 10
97.74045950247461
 20
-121.5121351150213
 10
97.6312499755922
 20
-121.5121351150213
 97
        0
 97
        0
 92
        1
 93
        4
 72
     1
 10
97.77559947642416
 20
-121.7681057095753
 11
97.15720483682182
 21
-121.7681057095753
 72
     1
 10
97.15720483682182
 20
-121.7681057095753
 11
97.15720483682182
 21
-121.8761094530379
 72
     1
 10
97.15720483682182
 20
-121.8761094530379
 11
97.77559947642416
 21
-121.8761094530379
 72
     1
 10
97.77559947642416
 20
-121.8761094530379
 11
97.77559947642416
 21
-121.7681057095753
 97
        0
 92
        1
 93
        4
 72
     1
 10
97.77559947642416
 20
-122.000821909604
 11
97.15720483682182
 21
-122.000821909604
 72
     1
 10
97.15720483682182
 20
-122.000821909604
 11
97.15720483682182
 21
-122.1151990797143
 72
     1
 10
97.15720483682182
 20
-122.1151990797143
 11
97.77559947642416
 21
-122.1151990797143
 72
     1
 10
97.77559947642416
 20
-122.1151990797143
 11
97.77559947642416
 21
-122.000821909604
 97
        0
 92
        1
 93
        4
 72
     1
 10
97.77559947642416
 20
-122.2442179056369
 11
97.15720483682182
 21
-122.2442179056369
 72
     1
 10
97.15720483682182
 20
-122.2442179056369
 11
97.15720483682182
 21
-122.3584228209729
 72
     1
 10
97.15720483682182
 20
-122.3584228209729
 11
97.77559947642416
 21
-122.3584228209729
 72
     1
 10
97.77559947642416
 20
-122.3584228209729
 11
97.77559947642416
 21
-122.2442179056369
 97
        0
 75
     2
 76
     1
 98
        0
  0
SPLINE
  5
E8
330
C9
100
AcDbEntity
  8
_U+30EC_U+30A4_U+30E4_U+30FC 1
370
     0
100
AcDbSpline
210
0.0
220
0.0
230
1.0
 70
    11
 71
     3
 72
    47
 73
    43
 74
     0
 42
0.0000000001
 43
0.0000000001
 12
1.0
 22
0.0
 32
0.0
 13
1.0
 23
0.0
 33
0.0
 40
0.0
 40
0.0
 40
0.0
 40
0.0
 40
1.0
 40
1.0
 40
1.0
 40
2.0
 40
2.0
 40
2.0
 40
3.0
 40
3.0
 40
3.0
 40
4.0
 40
4.0
 40
4.0
 40
5.0
 40
5.0
 40
5.0
 40
6.0
 40
6.0
 40
6.0
 40
7.0
 40
7.0
 40
7.0
 40
8.0
 40
8.0
 40
8.0
 40
9.0
 40
9.0
 40
9.0
 40
10.0
 40
10.0
 40
10.0
 40
11.0
 40
11.0
 40
11.0
 40
12.0
 40
12.0
 40
12.0
 40
13.0
 40
13.0
 40
13.0
 40
14.0
 40
14.0
 40
14.0
 40
14.0
 10
99.36309947602729
 20
-121.4888807204958
 30
0.0
 10
99.36309947602729
 20
-121.4888807204958
 30
0.0
 10
99.27421601250784
 20
-121.4888807204958
 30
0.0
 10
99.27421601250784
 20
-121.4888807204958
 30
0.0
 10
99.27421601250784
 20
-121.5756971267241
 30
0.0
 10
99.2556124968875
 20
-121.9649929165574
 30
0.0
 10
99.083357722625
 20
-122.1849622632906
 30
0.0
 10
98.95003252734583
 20
-122.3541164516163
 30
0.0
 10
98.76847599527316
 20
-122.4240518899669
 30
0.0
 10
98.6944064423403
 20
-122.4514403990746
 30
0.0
 10
98.6944064423403
 20
-122.4514403990746
 30
0.0
 10
98.52421872536895
 20
-122.28435326804
 30
0.0
 10
98.52421872536895
 20
-122.28435326804
 30
0.0
 10
98.60931258385462
 20
-122.2716064147446
 30
0.0
 10
98.76296384249676
 20
-122.2483520202192
 30
0.0
 10
98.92798391624024
 20
-122.0600775519503
 30
0.0
 10
98.99275171136293
 20
-121.9882473110828
 30
0.0
 10
99.083357722625
 20
-121.8485486891559
 30
0.0
 10
99.083357722625
 20
-121.4888807204958
 30
0.0
 10
99.083357722625
 20
-121.4888807204958
 30
0.0
 10
98.88147512718936
 20
-121.4888807204958
 30
0.0
 10
98.88147512718936
 20
-121.4888807204958
 30
0.0
 10
98.71852211073704
 20
-121.4888807204958
 30
0.0
 10
98.55556909428472
 20
-121.4931870898524
 30
0.0
 10
98.3926160778324
 20
-121.508001000439
 30
0.0
 10
98.3926160778324
 20
-121.508001000439
 30
0.0
 10
98.3926160778324
 20
-121.2880316537058
 30
0.0
 10
98.3926160778324
 20
-121.2880316537058
 30
0.0
 10
98.55729164202735
 20
-121.3028455642924
 30
0.0
 10
98.80740557425649
 20
-121.3069796788747
 30
0.0
 10
98.88147512718936
 20
-121.3069796788747
 30
0.0
 10
98.88147512718936
 20
-121.3069796788747
 30
0.0
 10
99.36309947602729
 20
-121.3069796788747
 30
0.0
 10
99.36309947602729
 20
-121.3069796788747
 30
0.0
 10
99.37963593435649
 20
-121.3069796788747
 30
0.0
 10
99.65731063046762
 20
-121.3069796788747
 30
0.0
 10
99.85747067816064
 20
-121.2880316537058
 30
0.0
 10
99.85747067816064
 20
-121.2880316537058
 30
0.0
 10
99.85747067816064
 20
-121.508001000439
 30
0.0
 10
99.85747067816064
 20
-121.508001000439
 30
0.0
 10
99.69245060441717
 20
-121.4931870898524
 30
0.0
 10
99.52777504022222
 20
-121.4888807204958
 30
0.0
 10
99.36309947602729
 20
-121.4888807204958
 30
0.0
  0
SPLINE
  5
E9
330
C9
100
AcDbEntity
  8
_U+30EC_U+30A4_U+30E4_U+30FC 1
370
     0
100
AcDbSpline
210
0.0
220
0.0
230
1.0
 70
    11
 71
     3
 72
    29
 73
    25
 74
     0
 42
0.0000000001
 43
0.0000000001
 12
1.0
 22
0.0
 32
0.0
 13
1.0
 23
0.0
 33
0.0
 40
0.0
 40
0.0
 40
0.0
 40
0.0
 40
1.0
 40
1.0
 40
1.0
 40
2.0
 40
2.0
 40
2.0
 40
3.0
 40
3.0
 40
3.0
 40
4.0
 40
4.0
 40
4.0
 40
5.0
 40
5.0
 40
5.0
 40
6.0
 40
6.0
 40
6.0
 40
7.0
 40
7.0
 40
7.0
 40
8.0
 40
8.0
 40
8.0
 40
8.0
 10
99.27421601250784
 20
-120.96005856351
 30
0.0
 10
99.27421601250784
 20
-120.96005856351
 30
0.0
 10
98.96484643793241
 20
-120.96005856351
 30
0.0
 10
98.96484643793241
 20
-120.96005856351
 30
0.0
 10
98.86666121660278
 20
-120.96005856351
 30
0.0
 10
98.74436032687642
 20
-120.9664319901577
 30
0.0
 10
98.64996471058056
 20
-120.9791788434531
 30
0.0
 10
98.64996471058056
 20
-120.9791788434531
 30
0.0
 10
98.64996471058056
 20
-120.7442233313591
 30
0.0
 10
98.64996471058056
 20
-120.7442233313591
 30
0.0
 10
98.7536620846866
 20
-120.7590372419457
 30
0.0
 10
98.91489255339629
 20
-120.7633436113022
 30
0.0
 10
98.96484643793241
 20
-120.7633436113022
 30
0.0
 10
98.96484643793241
 20
-120.7633436113022
 30
0.0
 10
99.27421601250784
 20
-120.7633436113022
 30
0.0
 10
99.27421601250784
 20
-120.7633436113022
 30
0.0
 10
99.29075247083703
 20
-120.7633436113022
 30
0.0
 10
99.46851939787594
 20
-120.7633436113022
 30
0.0
 10
99.59254283534493
 20
-120.7442233313591
 30
0.0
 10
99.59254283534493
 20
-120.7442233313591
 30
0.0
 10
99.59254283534493
 20
-120.9791788434531
 30
0.0
 10
99.59254283534493
 20
-120.9791788434531
 30
0.0
 10
99.45542803503199
 20
-120.96005856351
 30
0.0
 10
99.28902992309442
 20
-120.96005856351
 30
0.0
 10
99.27421601250784
 20
-120.96005856351
 30
0.0
  0
HATCH
  5
EA
330
C9
100
AcDbEntity
  8
_U+30EC_U+30A4_U+30E4_U+30FC 1
 62
   179
420
  2234388
100
AcDbHatch
 10
0.0
 20
0.0
 30
0.0
210
0.0
220
0.0
230
1.0
  2
SOLID
 70
     1
 71
     0
 91
        2
 92
        1
 93
        1
 72
     4
 94
        3
 73
     0
 74
     1
 95
       47
 96
       43
 40
0.0
 40
0.0
 40
0.0
 40
0.0
 40
1.0
 40
1.0
 40
1.0
 40
2.0
 40
2.0
 40
2.0
 40
3.0
 40
3.0
 40
3.0
 40
4.0
 40
4.0
 40
4.0
 40
5.0
 40
5.0
 40
5.0
 40
6.0
 40
6.0
 40
6.0
 40
7.0
 40
7.0
 40
7.0
 40
8.0
 40
8.0
 40
8.0
 40
9.0
 40
9.0
 40
9.0
 40
10.0
 40
10.0
 40
10.0
 40
11.0
 40
11.0
 40
11.0
 40
12.0
 40
12.0
 40
12.0
 40
13.0
 40
13.0
 40
13.0
 40
14.0
 40
14.0
 40
14.0
 40
14.0
 10
99.36309947602729
 20
-121.4888807204958
 10
99.36309947602729
 20
-121.4888807204958
 10
99.27421601250784
 20
-121.4888807204958
 10
99.27421601250784
 20
-121.4888807204958
 10
99.27421601250784
 20
-121.5756971267241
 10
99.2556124968875
 20
-121.9649929165574
 10
99.083357722625
 20
-122.1849622632906
 10
98.95003252734583
 20
-122.3541164516163
 10
98.76847599527316
 20
-122.4240518899669
 10
98.6944064423403
 20
-122.4514403990746
 10
98.6944064423403
 20
-122.4514403990746
 10
98.52421872536895
 20
-122.28435326804
 10
98.52421872536895
 20
-122.28435326804
 10
98.60931258385462
 20
-122.2716064147446
 10
98.76296384249676
 20
-122.2483520202192
 10
98.92798391624024
 20
-122.0600775519503
 10
98.99275171136293
 20
-121.9882473110828
 10
99.083357722625
 20
-121.8485486891559
 10
99.083357722625
 20
-121.4888807204958
 10
99.083357722625
 20
-121.4888807204958
 10
98.88147512718936
 20
-121.4888807204958
 10
98.88147512718936
 20
-121.4888807204958
 10
98.71852211073704
 20
-121.4888807204958
 10
98.55556909428472
 20
-121.4931870898524
 10
98.3926160778324
 20
-121.508001000439
 10
98.3926160778324
 20
-121.508001000439
 10
98.3926160778324
 20
-121.2880316537058
 10
98.3926160778324
 20
-121.2880316537058
 10
98.55729164202735
 20
-121.3028455642924
 10
98.80740557425649
 20
-121.3069796788747
 10
98.88147512718936
 20
-121.3069796788747
 10
98.88147512718936
 20
-121.3069796788747
 10
99.36309947602729
 20
-121.3069796788747
 10
99.36309947602729
 20
-121.3069796788747
 10
99.37963593435649
 20
-121.3069796788747
 10
99.65731063046762
 20
-121.3069796788747
 10
99.85747067816064
 20
-121.2880316537058
 10
99.85747067816064
 20
-121.2880316537058
 10
99.85747067816064
 20
-121.508001000439
 10
99.85747067816064
 20
-121.508001000439
 10
99.69245060441717
 20
-121.4931870898524
 10
99.52777504022222
 20
-121.4888807204958
 10
99.36309947602729
 20
-121.4888807204958
 97
        0
 97
        0
 92
        1
 93
        1
 72
     4
 94
        3
 73
     0
 74
     1
 95
       29
 96
       25
 40
0.0
 40
0.0
 40
0.0
 40
0.0
 40
1.0
 40
1.0
 40
1.0
 40
2.0
 40
2.0
 40
2.0
 40
3.0
 40
3.0
 40
3.0
 40
4.0
 40
4.0
 40
4.0
 40
5.0
 40
5.0
 40
5.0
 40
6.0
 40
6.0
 40
6.0
 40
7.0
 40
7.0
 40
7.0
 40
8.0
 40
8.0
 40
8.0
 40
8.0
 10
99.27421601250784
 20
-120.96005856351
 10
99.27421601250784
 20
-120.96005856351
 10
98.96484643793241
 20
-120.96005856351
 10
98.96484643793241
 20
-120.96005856351
 10
98.86666121660278
 20
-120.96005856351
 10
98.74436032687642
 20
-120.9664319901577
 10
98.64996471058056
 20
-120.9791788434531
 10
98.64996471058056
 20
-120.9791788434531
 10
98.64996471058056
 20
-120.7442233313591
 10
98.64996471058056
 20
-120.7442233313591
 10
98.7536620846866
 20
-120.7590372419457
 10
98.91489255339629
 20
-120.7633436113022
 10
98.96484643793241
 20
-120.7633436113022
 10
98.96484643793241
 20
-120.7633436113022
 10
99.27421601250784
 20
-120.7633436113022
 10
99.27421601250784
 20
-120.7633436113022
 10
99.29075247083703
 20
-120.7633436113022
 10
99.46851939787594
 20
-120.7633436113022
 10
99.59254283534493
 20
-120.7442233313591
 10
99.59254283534493
 20
-120.7442233313591
 10
99.59254283534493
 20
-120.9791788434531
 10
99.59254283534493
 20
-120.9791788434531
 10
99.45542803503199
 20
-120.96005856351
 10
99.28902992309442
 20
-120.96005856351
 10
99.27421601250784
 20
-120.96005856351
 97
        0
 97
        0
 75
     2
 76
     1
 98
        0
  0
SPLINE
  5
EB
330
C9
100
AcDbEntity
  8
_U+30EC_U+30A4_U+30E4_U+30FC 1
370
     0
100
AcDbSpline
210
0.0
220
0.0
230
1.0
 70
    11
 71
     3
 72
    29
 73
    25
 74
     0
 42
0.0000000001
 43
0.0000000001
 12
1.0
 22
0.0
 32
0.0
 13
1.0
 23
0.0
 33
0.0
 40
0.0
 40
0.0
 40
0.0
 40
0.0
 40
1.0
 40
1.0
 40
1.0
 40
2.0
 40
2.0
 40
2.0
 40
3.0
 40
3.0
 40
3.0
 40
4.0
 40
4.0
 40
4.0
 40
5.0
 40
5.0
 40
5.0
 40
6.0
 40
6.0
 40
6.0
 40
7.0
 40
7.0
 40
7.0
 40
8.0
 40
8.0
 40
8.0
 40
8.0
 10
100.979882787255
 20
-121.6518337369482
 30
0.0
 10
100.979882787255
 20
-121.6518337369482
 30
0.0
 10
100.5557915330208
 20
-121.6518337369482
 30
0.0
 10
100.5557915330208
 20
-121.6518337369482
 30
0.0
 10
100.531675864624
 20
-121.6518337369482
 30
0.0
 10
100.2536566589644
 20
-121.6518337369482
 30
0.0
 10
100.0686550314065
 20
-121.6771551887647
 30
0.0
 10
100.0686550314065
 20
-121.6771551887647
 30
0.0
 10
100.0686550314065
 20
-121.4466783008015
 30
0.0
 10
100.0686550314065
 20
-121.4466783008015
 30
0.0
 10
100.207492379462
 20
-121.469932695327
 30
0.0
 10
100.3742350009481
 20
-121.4719997526181
 30
0.0
 10
100.5557915330208
 20
-121.4719997526181
 30
0.0
 10
100.5557915330208
 20
-121.4719997526181
 30
0.0
 10
100.979882787255
 20
-121.4719997526181
 30
0.0
 10
100.979882787255
 20
-121.4719997526181
 30
0.0
 10
101.1424912941588
 20
-121.4719997526181
 30
0.0
 10
101.3057888201597
 20
-121.469932695327
 30
0.0
 10
101.4666747793208
 20
-121.4466783008015
 30
0.0
 10
101.4666747793208
 20
-121.4466783008015
 30
0.0
 10
101.4666747793208
 20
-121.6771551887647
 30
0.0
 10
101.4666747793208
 20
-121.6771551887647
 30
0.0
 10
101.3057888201597
 20
-121.6539007942393
 30
0.0
 10
101.0890923141375
 20
-121.6518337369482
 30
0.0
 10
100.979882787255
 20
-121.6518337369482
 30
0.0
  0
HATCH
  5
EC
330
C9
100
AcDbEntity
  8
_U+30EC_U+30A4_U+30E4_U+30FC 1
 62
   179
420
  2234388
100
AcDbHatch
 10
0.0
 20
0.0
 30
0.0
210
0.0
220
0.0
230
1.0
  2
SOLID
 70
     1
 71
     0
 91
        1
 92
        1
 93
        1
 72
     4
 94
        3
 73
     0
 74
     1
 95
       29
 96
       25
 40
0.0
 40
0.0
 40
0.0
 40
0.0
 40
1.0
 40
1.0
 40
1.0
 40
2.0
 40
2.0
 40
2.0
 40
3.0
 40
3.0
 40
3.0
 40
4.0
 40
4.0
 40
4.0
 40
5.0
 40
5.0
 40
5.0
 40
6.0
 40
6.0
 40
6.0
 40
7.0
 40
7.0
 40
7.0
 40
8.0
 40
8.0
 40
8.0
 40
8.0
 10
100.979882787255
 20
-121.6518337369482
 10
100.979882787255
 20
-121.6518337369482
 10
100.5557915330208
 20
-121.6518337369482
 10
100.5557915330208
 20
-121.6518337369482
 10
100.531675864624
 20
-121.6518337369482
 10
100.2536566589644
 20
-121.6518337369482
 10
100.0686550314065
 20
-121.6771551887647
 10
100.0686550314065
 20
-121.6771551887647
 10
100.0686550314065
 20
-121.4466783008015
 10
100.0686550314065
 20
-121.4466783008015
 10
100.207492379462
 20
-121.469932695327
 10
100.3742350009481
 20
-121.4719997526181
 10
100.5557915330208
 20
-121.4719997526181
 10
100.5557915330208
 20
-121.4719997526181
 10
100.979882787255
 20
-121.4719997526181
 10
100.979882787255
 20
-121.4719997526181
 10
101.1424912941588
 20
-121.4719997526181
 10
101.3057888201597
 20
-121.469932695327
 10
101.4666747793208
 20
-121.4466783008015
 10
101.4666747793208
 20
-121.4466783008015
 10
101.4666747793208
 20
-121.6771551887647
 10
101.4666747793208
 20
-121.6771551887647
 10
101.3057888201597
 20
-121.6539007942393
 10
101.0890923141375
 20
-121.6518337369482
 10
100.979882787255
 20
-121.6518337369482
 97
        0
 97
        0
 75
     2
 76
     1
 98
        0
  0
SPLINE
  5
ED
330
C9
100
AcDbEntity
  8
_U+30EC_U+30A4_U+30E4_U+30FC 1
370
     0
100
AcDbSpline
210
0.0
220
0.0
230
1.0
 70
    11
 71
     3
 72
    44
 73
    40
 74
     0
 42
0.0000000001
 43
0.0000000001
 12
1.0
 22
0.0
 32
0.0
 13
1.0
 23
0.0
 33
0.0
 40
0.0
 40
0.0
 40
0.0
 40
0.0
 40
1.0
 40
1.0
 40
1.0
 40
2.0
 40
2.0
 40
2.0
 40
3.0
 40
3.0
 40
3.0
 40
4.0
 40
4.0
 40
4.0
 40
5.0
 40
5.0
 40
5.0
 40
6.0
 40
6.0
 40
6.0
 40
7.0
 40
7.0
 40
7.0
 40
8.0
 40
8.0
 40
8.0
 40
9.0
 40
9.0
 40
9.0
 40
10.0
 40
10.0
 40
10.0
 40
11.0
 40
11.0
 40
11.0
 40
12.0
 40
12.0
 40
12.0
 40
13.0
 40
13.0
 40
13.0
 40
13.0
 10
102.9167154690625
 20
-121.2139621007729
 30
0.0
 10
102.8185302477329
 20
-121.5820705533718
 30
0.0
 10
102.7740885159731
 20
-121.7407172004676
 30
0.0
 10
102.6018337417107
 20
-121.990314368374
 30
0.0
 10
102.4409477825495
 20
-122.2209635111114
 30
0.0
 10
102.2335530343374
 20
-122.4069986673149
 30
0.0
 10
101.9889512548847
 20
-122.5001885001909
 30
0.0
 10
101.9889512548847
 20
-122.5001885001909
 30
0.0
 10
101.820486085656
 20
-122.3203545158609
 30
0.0
 10
101.820486085656
 20
-122.3203545158609
 30
0.0
 10
102.3816921402032
 20
-122.1680812954128
 30
0.0
 10
102.6703911418671
 20
-121.611698374545
 30
0.0
 10
102.7258571791797
 20
-121.1715874263043
 30
0.0
 10
102.7258571791797
 20
-121.1715874263043
 30
0.0
 10
102.0557861072986
 20
-121.1715874263043
 30
0.0
 10
102.0557861072986
 20
-121.1715874263043
 30
0.0
 10
101.9741373442981
 20
-121.1715874263043
 30
0.0
 10
101.813251385137
 20
-121.1758937956609
 30
0.0
 10
101.676136584824
 20
-121.1948418208298
 30
0.0
 10
101.676136584824
 20
-121.1948418208298
 30
0.0
 10
101.676136584824
 20
-120.9748724740966
 30
0.0
 10
101.676136584824
 20
-120.9748724740966
 30
0.0
 10
101.7519286854995
 20
-120.9960598113309
 30
0.0
 10
101.9724147965555
 20
-120.9960598113309
 30
0.0
 10
102.0595757123323
 20
-120.9960598113309
 30
0.0
 10
102.0595757123323
 20
-120.9960598113309
 30
0.0
 10
102.4371581775157
 20
-120.9960598113309
 30
0.0
 10
102.4371581775157
 20
-120.9960598113309
 30
0.0
 10
102.4743652087564
 20
-120.9960598113309
 30
0.0
 10
102.6796928996773
 20
-120.9938204992654
 30
0.0
 10
102.7131103258842
 20
-120.987619327392
 30
0.0
 10
102.7499728475764
 20
-120.9812459007443
 30
0.0
 10
102.7520399048675
 20
-120.9791788434531
 30
0.0
 10
102.8057833944374
 20
-120.9388712262757
 30
0.0
 10
102.8057833944374
 20
-120.9388712262757
 30
0.0
 10
102.9704589586324
 20
-121.0933837587892
 30
0.0
 10
102.9704589586324
 20
-121.0933837587892
 30
0.0
 10
102.944620742493
 20
-121.1230115799623
 30
0.0
 10
102.9315293796491
 20
-121.1547064584266
 30
0.0
 10
102.9167154690625
 20
-121.2139621007729
 30
0.0
  0
SPLINE
  5
EE
330
C9
100
AcDbEntity
  8
_U+30EC_U+30A4_U+30E4_U+30FC 1
370
     0
100
AcDbSpline
210
0.0
220
0.0
230
1.0
 70
    11
 71
     3
 72
    17
 73
    13
 74
     0
 42
0.0000000001
 43
0.0000000001
 12
1.0
 22
0.0
 32
0.0
 13
1.0
 23
0.0
 33
0.0
 40
0.0
 40
0.0
 40
0.0
 40
0.0
 40
1.0
 40
1.0
 40
1.0
 40
2.0
 40
2.0
 40
2.0
 40
3.0
 40
3.0
 40
3.0
 40
4.0
 40
4.0
 40
4.0
 40
4.0
 10
103.0999945488778
 20
-121.0150078364997
 30
0.0
 10
102.9890624742527
 20
-121.0150078364997
 30
0.0
 10
102.9001790107333
 20
-120.9135497744591
 30
0.0
 10
102.9001790107333
 20
-120.7865980058277
 30
0.0
 10
102.9001790107333
 20
-120.6596462371962
 30
0.0
 10
102.9890624742527
 20
-120.5559488630902
 30
0.0
 10
103.0999945488778
 20
-120.5559488630902
 30
0.0
 10
103.2112711330514
 20
-120.5559488630902
 30
0.0
 10
103.3018771443134
 20
-120.6596462371962
 30
0.0
 10
103.3018771443134
 20
-120.7865980058277
 30
0.0
 10
103.3018771443134
 20
-120.9135497744591
 30
0.0
 10
103.2112711330514
 20
-121.0150078364997
 30
0.0
 10
103.0999945488778
 20
-121.0150078364997
 30
0.0
  0
SPLINE
  5
EF
330
C9
100
AcDbEntity
  8
_U+30EC_U+30A4_U+30E4_U+30FC 1
370
     0
100
AcDbSpline
210
0.0
220
0.0
230
1.0
 70
    11
 71
     3
 72
    17
 73
    13
 74
     0
 42
0.0000000001
 43
0.0000000001
 12
1.0
 22
0.0
 32
0.0
 13
1.0
 23
0.0
 33
0.0
 40
0.0
 40
0.0
 40
0.0
 40
0.0
 40
1.0
 40
1.0
 40
1.0
 40
2.0
 40
2.0
 40
2.0
 40
3.0
 40
3.0
 40
3.0
 40
4.0
 40
4.0
 40
4.0
 40
4.0
 10
103.0982720011352
 20
-120.6849676890128
 30
0.0
 10
103.0500406643417
 20
-120.6849676890128
 30
0.0
 10
103.0111110853583
 20
-120.7294094207725
 30
0.0
 10
103.0111110853583
 20
-120.7845309485365
 30
0.0
 10
103.0111110853583
 20
-120.8415472788174
 30
0.0
 10
103.0500406643417
 20
-120.8902953799337
 30
0.0
 10
103.1020616061689
 20
-120.8902953799337
 30
0.0
 10
103.1537380384477
 20
-120.8902953799337
 30
0.0
 10
103.1888780123972
 20
-120.8394802215262
 30
0.0
 10
103.1888780123972
 20
-120.7865980058277
 30
0.0
 10
103.1888780123972
 20
-120.7294094207725
 30
0.0
 10
103.1482258856713
 20
-120.6849676890128
 30
0.0
 10
103.0982720011352
 20
-120.6849676890128
 30
0.0
  0
HATCH
  5
F0
330
C9
100
AcDbEntity
  8
_U+30EC_U+30A4_U+30E4_U+30FC 1
 62
   179
420
  2234388
100
AcDbHatch
 10
0.0
 20
0.0
 30
0.0
210
0.0
220
0.0
230
1.0
  2
SOLID
 70
     1
 71
     0
 91
        3
 92
        1
 93
        1
 72
     4
 94
        3
 73
     0
 74
     1
 95
       44
 96
       40
 40
0.0
 40
0.0
 40
0.0
 40
0.0
 40
1.0
 40
1.0
 40
1.0
 40
2.0
 40
2.0
 40
2.0
 40
3.0
 40
3.0
 40
3.0
 40
4.0
 40
4.0
 40
4.0
 40
5.0
 40
5.0
 40
5.0
 40
6.0
 40
6.0
 40
6.0
 40
7.0
 40
7.0
 40
7.0
 40
8.0
 40
8.0
 40
8.0
 40
9.0
 40
9.0
 40
9.0
 40
10.0
 40
10.0
 40
10.0
 40
11.0
 40
11.0
 40
11.0
 40
12.0
 40
12.0
 40
12.0
 40
13.0
 40
13.0
 40
13.0
 40
13.0
 10
102.9167154690625
 20
-121.2139621007729
 10
102.8185302477329
 20
-121.5820705533718
 10
102.7740885159731
 20
-121.7407172004676
 10
102.6018337417107
 20
-121.990314368374
 10
102.4409477825495
 20
-122.2209635111114
 10
102.2335530343374
 20
-122.4069986673149
 10
101.9889512548847
 20
-122.5001885001909
 10
101.9889512548847
 20
-122.5001885001909
 10
101.820486085656
 20
-122.3203545158609
 10
101.820486085656
 20
-122.3203545158609
 10
102.3816921402032
 20
-122.1680812954128
 10
102.6703911418671
 20
-121.611698374545
 10
102.7258571791797
 20
-121.1715874263043
 10
102.7258571791797
 20
-121.1715874263043
 10
102.0557861072986
 20
-121.1715874263043
 10
102.0557861072986
 20
-121.1715874263043
 10
101.9741373442981
 20
-121.1715874263043
 10
101.813251385137
 20
-121.1758937956609
 10
101.676136584824
 20
-121.1948418208298
 10
101.676136584824
 20
-121.1948418208298
 10
101.676136584824
 20
-120.9748724740966
 10
101.676136584824
 20
-120.9748724740966
 10
101.7519286854995
 20
-120.9960598113309
 10
101.9724147965555
 20
-120.9960598113309
 10
102.0595757123323
 20
-120.9960598113309
 10
102.0595757123323
 20
-120.9960598113309
 10
102.4371581775157
 20
-120.9960598113309
 10
102.4371581775157
 20
-120.9960598113309
 10
102.4743652087564
 20
-120.9960598113309
 10
102.6796928996773
 20
-120.9938204992654
 10
102.7131103258842
 20
-120.987619327392
 10
102.7499728475764
 20
-120.9812459007443
 10
102.7520399048675
 20
-120.9791788434531
 10
102.8057833944374
 20
-120.9388712262757
 10
102.8057833944374
 20
-120.9388712262757
 10
102.9704589586324
 20
-121.0933837587892
 10
102.9704589586324
 20
-121.0933837587892
 10
102.944620742493
 20
-121.1230115799623
 10
102.9315293796491
 20
-121.1547064584266
 10
102.9167154690625
 20
-121.2139621007729
 97
        0
 97
        0
 92
        1
 93
        1
 72
     4
 94
        3
 73
     0
 74
     1
 95
       17
 96
       13
 40
0.0
 40
0.0
 40
0.0
 40
0.0
 40
1.0
 40
1.0
 40
1.0
 40
2.0
 40
2.0
 40
2.0
 40
3.0
 40
3.0
 40
3.0
 40
4.0
 40
4.0
 40
4.0
 40
4.0
 10
103.0999945488778
 20
-121.0150078364997
 10
102.9890624742527
 20
-121.0150078364997
 10
102.9001790107333
 20
-120.9135497744591
 10
102.9001790107333
 20
-120.7865980058277
 10
102.9001790107333
 20
-120.6596462371962
 10
102.9890624742527
 20
-120.5559488630902
 10
103.0999945488778
 20
-120.5559488630902
 10
103.2112711330514
 20
-120.5559488630902
 10
103.3018771443134
 20
-120.6596462371962
 10
103.3018771443134
 20
-120.7865980058277
 10
103.3018771443134
 20
-120.9135497744591
 10
103.2112711330514
 20
-121.0150078364997
 10
103.0999945488778
 20
-121.0150078364997
 97
        0
 97
        0
 92
        1
 93
        1
 72
     4
 94
        3
 73
     0
 74
     1
 95
       17
 96
       13
 40
0.0
 40
0.0
 40
0.0
 40
0.0
 40
1.0
 40
1.0
 40
1.0
 40
2.0
 40
2.0
 40
2.0
 40
3.0
 40
3.0
 40
3.0
 40
4.0
 40
4.0
 40
4.0
 40
4.0
 10
103.0982720011352
 20
-120.6849676890128
 10
103.0500406643417
 20
-120.6849676890128
 10
103.0111110853583
 20
-120.7294094207725
 10
103.0111110853583
 20
-120.7845309485365
 10
103.0111110853583
 20
-120.8415472788174
 10
103.0500406643417
 20
-120.8902953799337
 10
103.1020616061689
 20
-120.8902953799337
 10
103.1537380384477
 20
-120.8902953799337
 10
103.1888780123972
 20
-120.8394802215262
 10
103.1888780123972
 20
-120.7865980058277
 10
103.1888780123972
 20
-120.7294094207725
 10
103.1482258856713
 20
-120.6849676890128
 10
103.0982720011352
 20
-120.6849676890128
 97
        0
 97
        0
 75
     2
 76
     1
 98
        0
  0
ENDBLK
  5
CC
330
C9
100
AcDbEntity
  8
0
100
AcDbBlockEnd
  0
ENDSEC
  0
SECTION
  2
ENTITIES
  0
POLYLINE
  5
41
330
1F
100
AcDbEntity
  8
_U+30EC_U+30A4_U+30E4_U+30FC 1
 62
   179
420
  2234388
370
    25
100
AcDb2dPolyline
 66
     1
 10
0.0
 20
0.0
 30
0.0
  0
VERTEX
  5
42
330
41
100
AcDbEntity
  8
_U+30EC_U+30A4_U+30E4_U+30FC 1
 62
   179
420
  2234388
370
    25
100
AcDbVertex
100
AcDb2dVertex
 10
103.9898551247755
 20
-136.9363388546545
 30
0.0
  0
VERTEX
  5
43
330
41
100
AcDbEntity
  8
_U+30EC_U+30A4_U+30E4_U+30FC 1
 62
   179
420
  2234388
370
    25
100
AcDbVertex
100
AcDb2dVertex
 10
103.9898551247755
 20
-138.4363499653908
 30
0.0
  0
SEQEND
  5
44
330
41
100
AcDbEntity
  8
_U+30EC_U+30A4_U+30E4_U+30FC 1
 62
   179
420
  2234388
370
    25
  0
POLYLINE
  5
45
330
1F
100
AcDbEntity
  8
_U+30EC_U+30A4_U+30E4_U+30FC 1
 62
   179
420
  2234388
370
    25
100
AcDb2dPolyline
 66
     1
 10
0.0
 20
0.0
 30
0.0
  0
VERTEX
  5
46
330
45
100
AcDbEntity
  8
_U+30EC_U+30A4_U+30E4_U+30FC 1
 62
   179
420
  2234388
370
    25
100
AcDbVertex
100
AcDb2dVertex
 10
78.98983520702363
 20
-138.4363499653908
 30
0.0
  0
VERTEX
  5
47
330
45
100
AcDbEntity
  8
_U+30EC_U+30A4_U+30E4_U+30FC 1
 62
   179
420
  2234388
370
    25
100
AcDbVertex
100
AcDb2dVertex
 10
103.9898551247755
 20
-138.4363499653908
 30
0.0
  0
SEQEND
  5
48
330
45
100
AcDbEntity
  8
_U+30EC_U+30A4_U+30E4_U+30FC 1
 62
   179
420
  2234388
370
    25
  0
POLYLINE
  5
49
330
1F
100
AcDbEntity
  8
_U+30EC_U+30A4_U+30E4_U+30FC 1
 62
   179
420
  2234388
370
    25
100
AcDb2dPolyline
 66
     1
 10
0.0
 20
0.0
 30
0.0
  0
VERTEX
  5
4A
330
49
100
AcDbEntity
  8
_U+30EC_U+30A4_U+30E4_U+30FC 1
 62
   179
420
  2234388
370
    25
100
AcDbVertex
100
AcDb2dVertex
 10
80.48984627986628
 20
-136.9363388546545
 30
0.0
  0
VERTEX
  5
4B
330
49
100
AcDbEntity
  8
_U+30EC_U+30A4_U+30E4_U+30FC 1
 62
   179
420
  2234388
370
    25
100
AcDbVertex
100
AcDb2dVertex
 10
103.9898551247755
 20
-136.9363388546545
 30
0.0
  0
SEQEND
  5
4C
330
49
100
AcDbEntity
  8
_U+30EC_U+30A4_U+30E4_U+30FC 1
 62
   179
420
  2234388
370
    25
  0
POLYLINE
  5
4D
330
1F
100
AcDbEntity
  8
_U+30EC_U+30A4_U+30E4_U+30FC 1
 62
   179
420
  2234388
370
    25
100
AcDb2dPolyline
 66
     1
 10
0.0
 20
0.0
 30
0.0
  0
VERTEX
  5
4E
330
4D
100
AcDbEntity
  8
_U+30EC_U+30A4_U+30E4_U+30FC 1
 62
   179
420
  2234388
370
    25
100
AcDbVertex
100
AcDb2dVertex
 10
78.98983520702363
 20
-113.4363294160854
 30
0.0
  0
VERTEX
  5
4F
330
4D
100
AcDbEntity
  8
_U+30EC_U+30A4_U+30E4_U+30FC 1
 62
   179
420
  2234388
370
    25
100
AcDbVertex
100
AcDb2dVertex
 10
78.98983520702363
 20
-138.4363499653908
 30
0.0
  0
SEQEND
  5
50
330
4D
100
AcDbEntity
  8
_U+30EC_U+30A4_U+30E4_U+30FC 1
 62
   179
420
  2234388
370
    25
  0
POLYLINE
  5
51
330
1F
100
AcDbEntity
  8
_U+30EC_U+30A4_U+30E4_U+30FC 1
 62
   179
420
  2234388
370
    25
100
AcDb2dPolyline
 66
     1
 10
0.0
 20
0.0
 30
0.0
  0
VERTEX
  5
52
330
51
100
AcDbEntity
  8
_U+30EC_U+30A4_U+30E4_U+30FC 1
 62
   179
420
  2234388
370
    25
100
AcDbVertex
100
AcDb2dVertex
 10
78.98983520702363
 20
-113.4363294160854
 30
0.0
  0
VERTEX
  5
53
330
51
100
AcDbEntity
  8
_U+30EC_U+30A4_U+30E4_U+30FC 1
 62
   179
420
  2234388
370
    25
100
AcDbVertex
100
AcDb2dVertex
 10
80.48984627986628
 20
-113.4363294160854
 30
0.0
  0
SEQEND
  5
54
330
51
100
AcDbEntity
  8
_U+30EC_U+30A4_U+30E4_U+30FC 1
 62
   179
420
  2234388
370
    25
  0
POLYLINE
  5
55
330
1F
100
AcDbEntity
  8
_U+30EC_U+30A4_U+30E4_U+30FC 1
 62
   179
420
  2234388
370
    25
100
AcDb2dPolyline
 66
     1
 10
0.0
 20
0.0
 30
0.0
  0
VERTEX
  5
56
330
55
100
AcDbEntity
  8
_U+30EC_U+30A4_U+30E4_U+30FC 1
 62
   179
420
  2234388
370
    25
100
AcDbVertex
100
AcDb2dVertex
 10
80.48984627986628
 20
-113.4363294160854
 30
0.0
  0
VERTEX
  5
57
330
55
100
AcDbEntity
  8
_U+30EC_U+30A4_U+30E4_U+30FC 1
 62
   179
420
  2234388
370
    25
100
AcDbVertex
100
AcDb2dVertex
 10
80.48984627986628
 20
-136.9363388546545
 30
0.0
  0
SEQEND
  5
58
330
55
100
AcDbEntity
  8
_U+30EC_U+30A4_U+30E4_U+30FC 1
 62
   179
420
  2234388
370
    25
  0
SPLINE
  5
59
330
1F
100
AcDbEntity
  8
_U+30EC_U+30A4_U+30E4_U+30FC 1
 62
   179
420
  2234388
370
     9
100
AcDbSpline
210
0.0
220
0.0
230
1.0
 70
    11
 71
     3
 72
    17
 73
    13
 74
     0
 42
0.0000000001
 43
0.0000000001
 12
1.0
 22
0.0
 32
0.0
 13
1.0
 23
0.0
 33
0.0
 40
0.0
 40
0.0
 40
0.0
 40
0.0
 40
1.0
 40
1.0
 40
1.0
 40
2.0
 40
2.0
 40
2.0
 40
3.0
 40
3.0
 40
3.0
 40
4.0
 40
4.0
 40
4.0
 40
4.0
 10
108.5552933416349
 20
-138.4363499653908
 30
0.0
 10
108.5552933416349
 20
-138.3808580209606
 30
0.0
 10
108.510525842777
 20
-138.3360905209714
 30
0.0
 10
108.455386677517
 20
-138.3360905209714
 30
0.0
 10
108.4002827900339
 20
-138.3360905209714
 30
0.0
 10
108.3554800133992
 20
-138.3808580209606
 30
0.0
 10
108.3554800133992
 20
-138.4363499653908
 30
0.0
 10
108.3554800133992
 20
-138.4914538542657
 30
0.0
 10
108.4002827900339
 20
-138.5362566320324
 30
0.0
 10
108.455386677517
 20
-138.5362566320324
 30
0.0
 10
108.510525842777
 20
-138.5362566320324
 30
0.0
 10
108.5552933416349
 20
-138.4914538542657
 30
0.0
 10
108.5552933416349
 20
-138.4363499653908
 30
0.0
  0
SPLINE
  5
5A
330
1F
100
AcDbEntity
  8
_U+30EC_U+30A4_U+30E4_U+30FC 1
 62
   179
420
  2234388
370
     9
100
AcDbSpline
210
0.0
220
0.0
230
1.0
 70
    11
 71
     3
 72
    17
 73
    13
 74
     0
 42
0.0000000001
 43
0.0000000001
 12
1.0
 22
0.0
 32
0.0
 13
1.0
 23
0.0
 33
0.0
 40
0.0
 40
0.0
 40
0.0
 40
0.0
 40
1.0
 40
1.0
 40
1.0
 40
2.0
 40
2.0
 40
2.0
 40
3.0
 40
3.0
 40
3.0
 40
4.0
 40
4.0
 40
4.0
 40
4.0
 10
104.0897617888934
 20
-142.4361091310577
 30
0.0
 10
104.0897617888934
 20
-142.3809699644046
 30
0.0
 10
104.0449942900355
 20
-142.3362024644161
 30
0.0
 10
103.9898551247755
 20
-142.3362024644161
 30
0.0
 10
103.9347512372925
 20
-142.3362024644161
 30
0.0
 10
103.8899484606577
 20
-142.3809699644046
 30
0.0
 10
103.8899484606577
 20
-142.4361091310577
 30
0.0
 10
103.8899484606577
 20
-142.4915657977104
 30
0.0
 10
103.9347512372925
 20
-142.5360157976993
 30
0.0
 10
103.9898551247755
 20
-142.5360157976993
 30
0.0
 10
104.0449942900355
 20
-142.5360157976993
 30
0.0
 10
104.0897617888934
 20
-142.4915657977104
 30
0.0
 10
104.0897617888934
 20
-142.4361091310577
 30
0.0
  0
SPLINE
  5
5B
330
1F
100
AcDbEntity
  8
_U+30EC_U+30A4_U+30E4_U+30FC 1
 62
   179
420
  2234388
370
     9
100
AcDbSpline
210
0.0
220
0.0
230
1.0
 70
    11
 71
     3
 72
    17
 73
    13
 74
     0
 42
0.0000000001
 43
0.0000000001
 12
1.0
 22
0.0
 32
0.0
 13
1.0
 23
0.0
 33
0.0
 40
0.0
 40
0.0
 40
0.0
 40
0.0
 40
1.0
 40
1.0
 40
1.0
 40
2.0
 40
2.0
 40
2.0
 40
3.0
 40
3.0
 40
3.0
 40
4.0
 40
4.0
 40
4.0
 40
4.0
 10
108.5552933416349
 20
-136.9363388546545
 30
0.0
 10
108.5552933416349
 20
-136.8808821880019
 30
0.0
 10
108.510525842777
 20
-136.8360794102352
 30
0.0
 10
108.455386677517
 20
-136.8360794102352
 30
0.0
 10
108.4002827900339
 20
-136.8360794102352
 30
0.0
 10
108.3554800133992
 20
-136.8808821880019
 30
0.0
 10
108.3554800133992
 20
-136.9363388546545
 30
0.0
 10
108.3554800133992
 20
-136.9914780213076
 30
0.0
 10
108.4002827900339
 20
-137.0362455212962
 30
0.0
 10
108.455386677517
 20
-137.0362455212962
 30
0.0
 10
108.510525842777
 20
-137.0362455212962
 30
0.0
 10
108.5552933416349
 20
-136.9914780213076
 30
0.0
 10
108.5552933416349
 20
-136.9363388546545
 30
0.0
  0
SPLINE
  5
5C
330
1F
100
AcDbEntity
  8
_U+30EC_U+30A4_U+30E4_U+30FC 1
 62
   179
420
  2234388
370
     9
100
AcDbSpline
210
0.0
220
0.0
230
1.0
 70
    11
 71
     3
 72
    17
 73
    13
 74
     0
 42
0.0000000001
 43
0.0000000001
 12
1.0
 22
0.0
 32
0.0
 13
1.0
 23
0.0
 33
0.0
 40
0.0
 40
0.0
 40
0.0
 40
0.0
 40
1.0
 40
1.0
 40
1.0
 40
2.0
 40
2.0
 40
2.0
 40
3.0
 40
3.0
 40
3.0
 40
4.0
 40
4.0
 40
4.0
 40
4.0
 10
75.08998280651716
 20
-113.4363294160854
 30
0.0
 10
75.08998280651716
 20
-113.3811902494324
 30
0.0
 10
75.04521530765928
 20
-113.3364227494438
 30
0.0
 10
74.99007614239933
 20
-113.3364227494438
 30
0.0
 10
74.93497225491626
 20
-113.3364227494438
 30
0.0
 10
74.89016947828149
 20
-113.3811902494324
 30
0.0
 10
74.89016947828149
 20
-113.4363294160854
 30
0.0
 10
74.89016947828149
 20
-113.4914333049604
 30
0.0
 10
74.93497225491626
 20
-113.5362360827271
 30
0.0
 10
74.99007614239933
 20
-113.5362360827271
 30
0.0
 10
75.04521530765928
 20
-113.5362360827271
 30
0.0
 10
75.08998280651716
 20
-113.4914333049604
 30
0.0
 10
75.08998280651716
 20
-113.4363294160854
 30
0.0
  0
SPLINE
  5
5D
330
1F
100
AcDbEntity
  8
_U+30EC_U+30A4_U+30E4_U+30FC 1
 62
   179
420
  2234388
370
     9
100
AcDbSpline
210
0.0
220
0.0
230
1.0
 70
    11
 71
     3
 72
    17
 73
    13
 74
     0
 42
0.0000000001
 43
0.0000000001
 12
1.0
 22
0.0
 32
0.0
 13
1.0
 23
0.0
 33
0.0
 40
0.0
 40
0.0
 40
0.0
 40
0.0
 40
1.0
 40
1.0
 40
1.0
 40
2.0
 40
2.0
 40
2.0
 40
3.0
 40
3.0
 40
3.0
 40
4.0
 40
4.0
 40
4.0
 40
4.0
 10
75.08998280651716
 20
-138.4363499653908
 30
0.0
 10
75.08998280651716
 20
-138.3808580209606
 30
0.0
 10
75.04521530765928
 20
-138.3360905209714
 30
0.0
 10
74.99007614239933
 20
-138.3360905209714
 30
0.0
 10
74.93497225491626
 20
-138.3360905209714
 30
0.0
 10
74.89016947828149
 20
-138.3808580209606
 30
0.0
 10
74.89016947828149
 20
-138.4363499653908
 30
0.0
 10
74.89016947828149
 20
-138.4914538542657
 30
0.0
 10
74.93497225491626
 20
-138.5362566320324
 30
0.0
 10
74.99007614239933
 20
-138.5362566320324
 30
0.0
 10
75.04521530765928
 20
-138.5362566320324
 30
0.0
 10
75.08998280651716
 20
-138.4914538542657
 30
0.0
 10
75.08998280651716
 20
-138.4363499653908
 30
0.0
  0
SPLINE
  5
5E
330
1F
100
AcDbEntity
  8
_U+30EC_U+30A4_U+30E4_U+30FC 1
 62
   179
420
  2234388
370
     9
100
AcDbSpline
210
0.0
220
0.0
230
1.0
 70
    11
 71
     3
 72
    17
 73
    13
 74
     0
 42
0.0000000001
 43
0.0000000001
 12
1.0
 22
0.0
 32
0.0
 13
1.0
 23
0.0
 33
0.0
 40
0.0
 40
0.0
 40
0.0
 40
0.0
 40
1.0
 40
1.0
 40
1.0
 40
2.0
 40
2.0
 40
2.0
 40
3.0
 40
3.0
 40
3.0
 40
4.0
 40
4.0
 40
4.0
 40
4.0
 10
79.09009464891025
 20
-142.4361091310577
 30
0.0
 10
79.09009464891025
 20
-142.3809699644046
 30
0.0
 10
79.04529187227548
 20
-142.3362024644161
 30
0.0
 10
78.98983520702363
 20
-142.3362024644161
 30
0.0
 10
78.93473331359979
 20
-142.3362024644161
 30
0.0
 10
78.88993053583307
 20
-142.3809699644046
 30
0.0
 10
78.88993053583307
 20
-142.4361091310577
 30
0.0
 10
78.88993053583307
 20
-142.4915657977104
 30
0.0
 10
78.93473331359979
 20
-142.5360157976993
 30
0.0
 10
78.98983520702363
 20
-142.5360157976993
 30
0.0
 10
79.04529187227548
 20
-142.5360157976993
 30
0.0
 10
79.09009464891025
 20
-142.4915657977104
 30
0.0
 10
79.09009464891025
 20
-142.4361091310577
 30
0.0
  0
POLYLINE
  5
5F
330
1F
100
AcDbEntity
  8
_U+30EC_U+30A4_U+30E4_U+30FC 1
 62
   179
420
  2234388
370
     9
100
AcDb2dPolyline
 66
     1
 10
0.0
 20
0.0
 30
0.0
  0
VERTEX
  5
60
330
5F
100
AcDbEntity
  8
_U+30EC_U+30A4_U+30E4_U+30FC 1
 62
   179
420
  2234388
370
     9
100
AcDbVertex
100
AcDb2dVertex
 10
108.455386677517
 20
-136.9363388546545
 30
0.0
  0
VERTEX
  5
61
330
5F
100
AcDbEntity
  8
_U+30EC_U+30A4_U+30E4_U+30FC 1
 62
   179
420
  2234388
370
     9
100
AcDbVertex
100
AcDb2dVertex
 10
108.455386677517
 20
-131.2698458005156
 30
0.0
  0
SEQEND
  5
62
330
5F
100
AcDbEntity
  8
_U+30EC_U+30A4_U+30E4_U+30FC 1
 62
   179
420
  2234388
370
     9
  0
POLYLINE
  5
63
330
1F
100
AcDbEntity
  8
_U+30EC_U+30A4_U+30E4_U+30FC 1
 62
   179
420
  2234388
370
     9
100
AcDb2dPolyline
 66
     1
 10
0.0
 20
0.0
 30
0.0
  0
VERTEX
  5
64
330
63
100
AcDbEntity
  8
_U+30EC_U+30A4_U+30E4_U+30FC 1
 62
   179
420
  2234388
370
     9
100
AcDbVertex
100
AcDb2dVertex
 10
108.455386677517
 20
-136.9363388546545
 30
0.0
  0
VERTEX
  5
65
330
63
100
AcDbEntity
  8
_U+30EC_U+30A4_U+30E4_U+30FC 1
 62
   179
420
  2234388
370
     9
100
AcDbVertex
100
AcDb2dVertex
 10
108.455386677517
 20
-139.4361221873633
 30
0.0
  0
SEQEND
  5
66
330
63
100
AcDbEntity
  8
_U+30EC_U+30A4_U+30E4_U+30FC 1
 62
   179
420
  2234388
370
     9
  0
POLYLINE
  5
67
330
1F
100
AcDbEntity
  8
_U+30EC_U+30A4_U+30E4_U+30FC 1
 62
   179
420
  2234388
370
     9
100
AcDb2dPolyline
 66
     1
 10
0.0
 20
0.0
 30
0.0
  0
VERTEX
  5
68
330
67
100
AcDbEntity
  8
_U+30EC_U+30A4_U+30E4_U+30FC 1
 62
   179
420
  2234388
370
     9
100
AcDbVertex
100
AcDb2dVertex
 10
106.1823336799519
 20
-136.9363388546545
 30
0.0
  0
VERTEX
  5
69
330
67
100
AcDbEntity
  8
_U+30EC_U+30A4_U+30E4_U+30FC 1
 62
   179
420
  2234388
370
     9
100
AcDbVertex
100
AcDb2dVertex
 10
109.4558644297705
 20
-136.9363388546545
 30
0.0
  0
SEQEND
  5
6A
330
67
100
AcDbEntity
  8
_U+30EC_U+30A4_U+30E4_U+30FC 1
 62
   179
420
  2234388
370
     9
  0
POLYLINE
  5
6B
330
1F
100
AcDbEntity
  8
_U+30EC_U+30A4_U+30E4_U+30FC 1
 62
   179
420
  2234388
370
     9
100
AcDb2dPolyline
 66
     1
 10
0.0
 20
0.0
 30
0.0
  0
VERTEX
  5
6C
330
6B
100
AcDbEntity
  8
_U+30EC_U+30A4_U+30E4_U+30FC 1
 62
   179
420
  2234388
370
     9
100
AcDbVertex
100
AcDb2dVertex
 10
106.1823336799519
 20
-138.4363499653908
 30
0.0
  0
VERTEX
  5
6D
330
6B
100
AcDbEntity
  8
_U+30EC_U+30A4_U+30E4_U+30FC 1
 62
   179
420
  2234388
370
     9
100
AcDbVertex
100
AcDb2dVertex
 10
109.4558644297705
 20
-138.4363499653908
 30
0.0
  0
SEQEND
  5
6E
330
6B
100
AcDbEntity
  8
_U+30EC_U+30A4_U+30E4_U+30FC 1
 62
   179
420
  2234388
370
     9
  0
INSERT
  5
70
330
1F
100
AcDbEntity
  8
_U+30EC_U+30A4_U+30E4_U+30FC 1
100
AcDbBlockReference
  2
block 2
 10
0.0
 20
0.0
 30
0.0
  0
POLYLINE
  5
7F
330
1F
100
AcDbEntity
  8
_U+30EC_U+30A4_U+30E4_U+30FC 1
 62
   179
420
  2234388
370
     9
100
AcDb2dPolyline
 66
     1
 10
0.0
 20
0.0
 30
0.0
  0
VERTEX
  5
80
330
7F
100
AcDbEntity
  8
_U+30EC_U+30A4_U+30E4_U+30FC 1
 62
   179
420
  2234388
370
     9
100
AcDbVertex
100
AcDb2dVertex
 10
78.98983520702363
 20
-142.4361091310577
 30
0.0
  0
VERTEX
  5
81
330
7F
100
AcDbEntity
  8
_U+30EC_U+30A4_U+30E4_U+30FC 1
 62
   179
420
  2234388
370
     9
100
AcDbVertex
100
AcDb2dVertex
 10
103.9898551247755
 20
-142.4361091310577
 30
0.0
  0
SEQEND
  5
82
330
7F
100
AcDbEntity
  8
_U+30EC_U+30A4_U+30E4_U+30FC 1
 62
   179
420
  2234388
370
     9
  0
POLYLINE
  5
83
330
1F
100
AcDbEntity
  8
_U+30EC_U+30A4_U+30E4_U+30FC 1
 62
   179
420
  2234388
370
     9
100
AcDb2dPolyline
 66
     1
 10
0.0
 20
0.0
 30
0.0
  0
VERTEX
  5
84
330
83
100
AcDbEntity
  8
_U+30EC_U+30A4_U+30E4_U+30FC 1
 62
   179
420
  2234388
370
     9
100
AcDbVertex
100
AcDb2dVertex
 10
78.98983520702363
 20
-140.976067742534
 30
0.0
  0
VERTEX
  5
85
330
83
100
AcDbEntity
  8
_U+30EC_U+30A4_U+30E4_U+30FC 1
 62
   179
420
  2234388
370
     9
100
AcDbVertex
100
AcDb2dVertex
 10
78.98983520702363
 20
-143.4361988530298
 30
0.0
  0
SEQEND
  5
86
330
83
100
AcDbEntity
  8
_U+30EC_U+30A4_U+30E4_U+30FC 1
 62
   179
420
  2234388
370
     9
  0
POLYLINE
  5
87
330
1F
100
AcDbEntity
  8
_U+30EC_U+30A4_U+30E4_U+30FC 1
 62
   179
420
  2234388
370
     9
100
AcDb2dPolyline
 66
     1
 10
0.0
 20
0.0
 30
0.0
  0
VERTEX
  5
88
330
87
100
AcDbEntity
  8
_U+30EC_U+30A4_U+30E4_U+30FC 1
 62
   179
420
  2234388
370
     9
100
AcDbVertex
100
AcDb2dVertex
 10
103.9898551247755
 20
-140.976067742534
 30
0.0
  0
VERTEX
  5
89
330
87
100
AcDbEntity
  8
_U+30EC_U+30A4_U+30E4_U+30FC 1
 62
   179
420
  2234388
370
     9
100
AcDbVertex
100
AcDb2dVertex
 10
103.9898551247755
 20
-143.4361988530298
 30
0.0
  0
SEQEND
  5
8A
330
87
100
AcDbEntity
  8
_U+30EC_U+30A4_U+30E4_U+30FC 1
 62
   179
420
  2234388
370
     9
  0
INSERT
  5
8C
330
1F
100
AcDbEntity
  8
_U+30EC_U+30A4_U+30E4_U+30FC 1
100
AcDbBlockReference
  2
block 3
 10
0.0
 20
0.0
 30
0.0
  0
POLYLINE
  5
93
330
1F
100
AcDbEntity
  8
_U+30EC_U+30A4_U+30E4_U+30FC 1
 62
   179
420
  2234388
370
     9
100
AcDb2dPolyline
 66
     1
 10
0.0
 20
0.0
 30
0.0
  0
VERTEX
  5
94
330
93
100
AcDbEntity
  8
_U+30EC_U+30A4_U+30E4_U+30FC 1
 62
   179
420
  2234388
370
     9
100
AcDbVertex
100
AcDb2dVertex
 10
74.99007614239933
 20
-113.4363294160854
 30
0.0
  0
VERTEX
  5
95
330
93
100
AcDbEntity
  8
_U+30EC_U+30A4_U+30E4_U+30FC 1
 62
   179
420
  2234388
370
     9
100
AcDbVertex
100
AcDb2dVertex
 10
74.99007614239933
 20
-138.4363499653908
 30
0.0
  0
SEQEND
  5
96
330
93
100
AcDbEntity
  8
_U+30EC_U+30A4_U+30E4_U+30FC 1
 62
   179
420
  2234388
370
     9
  0
POLYLINE
  5
97
330
1F
100
AcDbEntity
  8
_U+30EC_U+30A4_U+30E4_U+30FC 1
 62
   179
420
  2234388
370
     9
100
AcDb2dPolyline
 66
     1
 10
0.0
 20
0.0
 30
0.0
  0
VERTEX
  5
98
330
97
100
AcDbEntity
  8
_U+30EC_U+30A4_U+30E4_U+30FC 1
 62
   179
420
  2234388
370
     9
100
AcDbVertex
100
AcDb2dVertex
 10
76.45011942533186
 20
-113.4363294160854
 30
0.0
  0
VERTEX
  5
99
330
97
100
AcDbEntity
  8
_U+30EC_U+30A4_U+30E4_U+30FC 1
 62
   179
420
  2234388
370
     9
100
AcDbVertex
100
AcDb2dVertex
 10
73.99030394568342
 20
-113.4363294160854
 30
0.0
  0
SEQEND
  5
9A
330
97
100
AcDbEntity
  8
_U+30EC_U+30A4_U+30E4_U+30FC 1
 62
   179
420
  2234388
370
     9
  0
POLYLINE
  5
9B
330
1F
100
AcDbEntity
  8
_U+30EC_U+30A4_U+30E4_U+30FC 1
 62
   179
420
  2234388
370
     9
100
AcDb2dPolyline
 66
     1
 10
0.0
 20
0.0
 30
0.0
  0
VERTEX
  5
9C
330
9B
100
AcDbEntity
  8
_U+30EC_U+30A4_U+30E4_U+30FC 1
 62
   179
420
  2234388
370
     9
100
AcDbVertex
100
AcDb2dVertex
 10
76.45011942533186
 20
-138.4363499653908
 30
0.0
  0
VERTEX
  5
9D
330
9B
100
AcDbEntity
  8
_U+30EC_U+30A4_U+30E4_U+30FC 1
 62
   179
420
  2234388
370
     9
100
AcDbVertex
100
AcDb2dVertex
 10
73.99030394568342
 20
-138.4363499653908
 30
0.0
  0
SEQEND
  5
9E
330
9B
100
AcDbEntity
  8
_U+30EC_U+30A4_U+30E4_U+30FC 1
 62
   179
420
  2234388
370
     9
  0
INSERT
  5
A0
330
1F
100
AcDbEntity
  8
_U+30EC_U+30A4_U+30E4_U+30FC 1
100
AcDbBlockReference
  2
block 4
 10
0.0
 20
0.0
 30
0.0
  0
POLYLINE
  5
A7
330
1F
100
AcDbEntity
  8
_U+30EC_U+30A4_U+30E4_U+30FC 1
  6
AI-Linetype-1
 62
   154
420
    23468
370
    25
100
AcDb2dPolyline
 66
     1
 10
0.0
 20
0.0
 30
0.0
  0
VERTEX
  5
A8
330
A7
100
AcDbEntity
  8
_U+30EC_U+30A4_U+30E4_U+30FC 1
  6
AI-Linetype-1
 62
   154
420
    23468
370
    25
100
AcDbVertex
100
AcDb2dVertex
 10
81.13888886860417
 20
-113.4363294160854
 30
0.0
  0
VERTEX
  5
A9
330
A7
100
AcDbEntity
  8
_U+30EC_U+30A4_U+30E4_U+30FC 1
  6
AI-Linetype-1
 62
   154
420
    23468
370
    25
100
AcDbVertex
100
AcDb2dVertex
 10
81.13888886860417
 20
-123.436062469141
 30
0.0
  0
SEQEND
  5
AB
330
A7
100
AcDbEntity
  8
_U+30EC_U+30A4_U+30E4_U+30FC 1
  6
AI-Linetype-1
 62
   154
420
    23468
370
    25
  0
POLYLINE
  5
AC
330
1F
100
AcDbEntity
  8
_U+30EC_U+30A4_U+30E4_U+30FC 1
  6
AI-Linetype-2
 62
   154
420
    23468
370
    25
100
AcDb2dPolyline
 66
     1
 10
0.0
 20
0.0
 30
0.0
  0
VERTEX
  5
AD
330
AC
100
AcDbEntity
  8
_U+30EC_U+30A4_U+30E4_U+30FC 1
  6
AI-Linetype-2
 62
   154
420
    23468
370
    25
100
AcDbVertex
100
AcDb2dVertex
 10
93.78995621832998
 20
-136.2786905214856
 30
0.0
  0
VERTEX
  5
AE
330
AC
100
AcDbEntity
  8
_U+30EC_U+30A4_U+30E4_U+30FC 1
  6
AI-Linetype-2
 62
   154
420
    23468
370
    25
100
AcDbVertex
100
AcDb2dVertex
 10
103.7900444184971
 20
-136.2786905214856
 30
0.0
  0
SEQEND
  5
B0
330
AC
100
AcDbEntity
  8
_U+30EC_U+30A4_U+30E4_U+30FC 1
  6
AI-Linetype-2
 62
   154
420
    23468
370
    25
  0
POLYLINE
  5
B1
330
1F
100
AcDbEntity
  8
_U+30EC_U+30A4_U+30E4_U+30FC 1
 62
   179
420
  2234388
370
     9
100
AcDb2dPolyline
 66
     1
 10
0.0
 20
0.0
 30
0.0
  0
VERTEX
  5
B2
330
B1
100
AcDbEntity
  8
_U+30EC_U+30A4_U+30E4_U+30FC 1
 62
   179
420
  2234388
370
     9
100
AcDbVertex
100
AcDb2dVertex
 10
81.69595819354025
 20
-121.58225052516
 30
0.0
  0
VERTEX
  5
B3
330
B1
100
AcDbEntity
  8
_U+30EC_U+30A4_U+30E4_U+30FC 1
 62
   179
420
  2234388
370
     9
100
AcDbVertex
100
AcDb2dVertex
 10
93.96394621389113
 20
-121.58225052516
 30
0.0
  0
SEQEND
  5
B4
330
B1
100
AcDbEntity
  8
_U+30EC_U+30A4_U+30E4_U+30FC 1
 62
   179
420
  2234388
370
     9
  0
POLYLINE
  5
B5
330
1F
100
AcDbEntity
  8
_U+30EC_U+30A4_U+30E4_U+30FC 1
 62
   179
420
  2234388
370
     9
100
AcDb2dPolyline
 66
     1
 10
0.0
 20
0.0
 30
0.0
  0
VERTEX
  5
B6
330
B5
100
AcDbEntity
  8
_U+30EC_U+30A4_U+30E4_U+30FC 1
 62
   179
420
  2234388
370
     9
100
AcDbVertex
100
AcDb2dVertex
 10
81.69595819354025
 20
-121.58225052516
 30
0.0
  0
VERTEX
  5
B7
330
B5
100
AcDbEntity
  8
_U+30EC_U+30A4_U+30E4_U+30FC 1
 62
   179
420
  2234388
370
     9
100
AcDbVertex
100
AcDb2dVertex
 10
82.66196955778413
 20
-121.3235233030025
 30
0.0
  0
SEQEND
  5
B8
330
B5
100
AcDbEntity
  8
_U+30EC_U+30A4_U+30E4_U+30FC 1
 62
   179
420
  2234388
370
     9
  0
POLYLINE
  5
B9
330
1F
100
AcDbEntity
  8
_U+30EC_U+30A4_U+30E4_U+30FC 1
 62
   179
420
  2234388
370
     9
100
AcDb2dPolyline
 66
     1
 10
0.0
 20
0.0
 30
0.0
  0
VERTEX
  5
BA
330
B9
100
AcDbEntity
  8
_U+30EC_U+30A4_U+30E4_U+30FC 1
 62
   179
420
  2234388
370
     9
100
AcDbVertex
100
AcDb2dVertex
 10
81.69595819354025
 20
-121.58225052516
 30
0.0
  0
VERTEX
  5
BB
330
B9
100
AcDbEntity
  8
_U+30EC_U+30A4_U+30E4_U+30FC 1
 62
   179
420
  2234388
370
     9
100
AcDbVertex
100
AcDb2dVertex
 10
82.66196955778413
 20
-121.8409777473176
 30
0.0
  0
SEQEND
  5
BC
330
B9
100
AcDbEntity
  8
_U+30EC_U+30A4_U+30E4_U+30FC 1
 62
   179
420
  2234388
370
     9
  0
POLYLINE
  5
BD
330
1F
100
AcDbEntity
  8
_U+30EC_U+30A4_U+30E4_U+30FC 1
 62
   179
420
  2234388
370
     9
100
AcDb2dPolyline
 66
     1
 10
0.0
 20
0.0
 30
0.0
  0
VERTEX
  5
BE
330
BD
100
AcDbEntity
  8
_U+30EC_U+30A4_U+30E4_U+30FC 1
 62
   179
420
  2234388
370
     9
100
AcDbVertex
100
AcDb2dVertex
 10
95.65237589303793
 20
-135.7784516327219
 30
0.0
  0
VERTEX
  5
BF
330
BD
100
AcDbEntity
  8
_U+30EC_U+30A4_U+30E4_U+30FC 1
 62
   179
420
  2234388
370
     9
100
AcDbVertex
100
AcDb2dVertex
 10
95.91145830935547
 20
-134.8124402440748
 30
0.0
  0
SEQEND
  5
C0
330
BD
100
AcDbEntity
  8
_U+30EC_U+30A4_U+30E4_U+30FC 1
 62
   179
420
  2234388
370
     9
  0
POLYLINE
  5
C1
330
1F
100
AcDbEntity
  8
_U+30EC_U+30A4_U+30E4_U+30FC 1
 62
   179
420
  2234388
370
     9
100
AcDb2dPolyline
 66
     1
 10
0.0
 20
0.0
 30
0.0
  0
VERTEX
  5
C2
330
C1
100
AcDbEntity
  8
_U+30EC_U+30A4_U+30E4_U+30FC 1
 62
   179
420
  2234388
370
     9
100
AcDbVertex
100
AcDb2dVertex
 10
95.65237589303793
 20
-135.7784516327219
 30
0.0
  0
VERTEX
  5
C3
330
C1
100
AcDbEntity
  8
_U+30EC_U+30A4_U+30E4_U+30FC 1
 62
   179
420
  2234388
370
     9
100
AcDbVertex
100
AcDb2dVertex
 10
95.65237589303793
 20
-123.3547471913837
 30
0.0
  0
SEQEND
  5
C4
330
C1
100
AcDbEntity
  8
_U+30EC_U+30A4_U+30E4_U+30FC 1
 62
   179
420
  2234388
370
     9
  0
POLYLINE
  5
C5
330
1F
100
AcDbEntity
  8
_U+30EC_U+30A4_U+30E4_U+30FC 1
 62
   179
420
  2234388
370
     9
100
AcDb2dPolyline
 66
     1
 10
0.0
 20
0.0
 30
0.0
  0
VERTEX
  5
C6
330
C5
100
AcDbEntity
  8
_U+30EC_U+30A4_U+30E4_U+30FC 1
 62
   179
420
  2234388
370
     9
100
AcDbVertex
100
AcDb2dVertex
 10
95.65237589303793
 20
-135.7784516327219
 30
0.0
  0
VERTEX
  5
C7
330
C5
100
AcDbEntity
  8
_U+30EC_U+30A4_U+30E4_U+30FC 1
 62
   179
420
  2234388
370
     9
100
AcDbVertex
100
AcDb2dVertex
 10
95.39333117742449
 20
-134.8124402440748
 30
0.0
  0
SEQEND
  5
C8
330
C5
100
AcDbEntity
  8
_U+30EC_U+30A4_U+30E4_U+30FC 1
 62
   179
420
  2234388
370
     9
  0
INSERT
  5
CA
330
1F
100
AcDbEntity
  8
_U+30EC_U+30A4_U+30E4_U+30FC 1
100
AcDbBlockReference
  2
block 5
 10
0.0
 20
0.0
 30
0.0
  0
ENDSEC
  0
SECTION
  2
OBJECTS
  0
DICTIONARY
  5
C
330
0
100
AcDbDictionary
281
     1
  3
ACAD_GROUP
350
D
  3
ACAD_LAYOUT
350
1A
  3
ACAD_MATERIAL
350
3B
  3
ACAD_MLEADERSTYLE
350
F2
  3
ACAD_MLINESTYLE
350
17
  3
ACAD_PLOTSETTINGS
350
19
  3
ACAD_PLOTSTYLENAME
350
E
  3
ACAD_TABLESTYLE
350
F1
  3
ACAD_VISUALSTYLE
350
2A
  0
SUN
  5
3F
330
29
100
AcDbSun
 90
        1
290
     0
 63
     7
421
 16777215
 40
1.0
291
     1
 91
  2455826
 92
 54000000
292
     0
 70
     2
 71
   256
280
     1
  0
DICTIONARY
  5
D
102
{ACAD_REACTORS
330
C
102
}
330
C
100
AcDbDictionary
281
     1
  0
DICTIONARY
  5
1A
102
{ACAD_REACTORS
330
C
102
}
330
C
100
AcDbDictionary
281
     1
  3
Layout1
350
1E
  3
Layout2
350
26
  3
Model
350
22
  0
DICTIONARY
  5
3B
102
{ACAD_REACTORS
330
C
102
}
330
C
100
AcDbDictionary
281
     1
  3
ByBlock
350
3D
  3
ByLayer
350
3C
  3
Global
350
3E
  0
DICTIONARY
  5
F2
102
{ACAD_REACTORS
330
C
102
}
330
C
100
AcDbDictionary
281
     1
  0
DICTIONARY
  5
17
102
{ACAD_REACTORS
330
C
102
}
330
C
100
AcDbDictionary
281
     1
  3
Standard
350
18
  0
DICTIONARY
  5
19
102
{ACAD_REACTORS
330
C
102
}
330
C
100
AcDbDictionary
281
     1
  0
ACDBDICTIONARYWDFLT
  5
E
102
{ACAD_REACTORS
330
C
102
}
330
C
100
AcDbDictionary
281
     1
  3
Normal
350
F
100
AcDbDictionaryWithDefault
340
F
  0
DICTIONARY
  5
F1
102
{ACAD_REACTORS
330
C
102
}
330
C
100
AcDbDictionary
281
     1
  0
DICTIONARY
  5
2A
102
{ACAD_REACTORS
330
C
102
}
330
C
100
AcDbDictionary
281
     1
  3
2dWireframe
350
2F
  3
3D Hidden
350
31
  3
3dWireframe
350
30
  3
Basic
350
32
  3
Brighten
350
36
  3
ColorChange
350
3A
  3
Conceptual
350
34
  3
Dim
350
35
  3
Facepattern
350
39
  3
Flat
350
2B
  3
FlatWithEdges
350
2C
  3
Gouraud
350
2D
  3
GouraudWithEdges
350
2E
  3
Linepattern
350
38
  3
Realistic
350
33
  3
Thicken
350
37
  0
LAYOUT
  5
1E
102
{ACAD_REACTORS
330
1A
102
}
330
1A
100
AcDbPlotSettings
  1

  2
none_device
  4

  6

 40
0.0
 41
0.0
 42
0.0
 43
0.0
 44
0.0
 45
0.0
 46
0.0
 47
0.0
 48
0.0
 49
0.0
140
0.0
141
0.0
142
1.0
143
1.0
 70
   688
 72
     0
 73
     0
 74
     5
  7

 75
    16
 76
     0
 77
     2
 78
   300
147
1.0
148
0.0
149
0.0
100
AcDbLayout
  1
Layout1
 70
     1
 71
     1
 10
0.0
 20
0.0
 11
12.0
 21
9.0
 12
0.0
 22
0.0
 32
0.0
 14
1.000000000000000E+20
 24
1.000000000000000E+20
 34
1.000000000000000E+20
 15
-1.000000000000000E+20
 25
-1.000000000000000E+20
 35
-1.000000000000000E+20
146
0.0
 13
0.0
 23
0.0
 33
0.0
 16
1.0
 26
0.0
 36
0.0
 17
0.0
 27
1.0
 37
0.0
 76
     0
330
1B
  0
LAYOUT
  5
26
102
{ACAD_REACTORS
330
1A
102
}
330
1A
100
AcDbPlotSettings
  1

  2
none_device
  4

  6

 40
0.0
 41
0.0
 42
0.0
 43
0.0
 44
0.0
 45
0.0
 46
0.0
 47
0.0
 48
0.0
 49
0.0
140
0.0
141
0.0
142
1.0
143
1.0
 70
   688
 72
     0
 73
     0
 74
     5
  7

 75
    16
 76
     0
 77
     2
 78
   300
147
1.0
148
0.0
149
0.0
100
AcDbLayout
  1
Layout2
 70
     1
 71
     2
 10
0.0
 20
0.0
 11
0.0
 21
0.0
 12
0.0
 22
0.0
 32
0.0
 14
0.0
 24
0.0
 34
0.0
 15
0.0
 25
0.0
 35
0.0
146
0.0
 13
0.0
 23
0.0
 33
0.0
 16
1.0
 26
0.0
 36
0.0
 17
0.0
 27
1.0
 37
0.0
 76
     0
330
23
  0
LAYOUT
  5
22
102
{ACAD_REACTORS
330
1A
102
}
330
1A
100
AcDbPlotSettings
  1

  2
none_device
  4

  6

 40
0.0
 41
0.0
 42
0.0
 43
0.0
 44
0.0
 45
0.0
 46
0.0
 47
0.0
 48
0.0
 49
0.0
140
0.0
141
0.0
142
1.0
143
1.0
 70
  1712
 72
     0
 73
     0
 74
     0
  7

 75
     0
 76
     0
 77
     2
 78
   300
147
1.0
148
0.0
149
0.0
100
AcDbLayout
  1
Model
 70
     1
 71
     0
 10
0.0
 20
0.0
 11
12.0
 21
9.0
 12
0.0
 22
0.0
 32
0.0
 14
1.000000000000000E+20
 24
1.000000000000000E+20
 34
1.000000000000000E+20
 15
-1.000000000000000E+20
 25
-1.000000000000000E+20
 35
-1.000000000000000E+20
146
0.0
 13
0.0
 23
0.0
 33
0.0
 16
1.0
 26
0.0
 36
0.0
 17
0.0
 27
1.0
 37
0.0
 76
     0
330
1F
331
29
  0
MATERIAL
  5
3D
102
{ACAD_REACTORS
330
3B
102
}
330
3B
100
AcDbMaterial
  1
ByBlock
 72
     1
 94
      127
  0
MATERIAL
  5
3C
102
{ACAD_REACTORS
330
3B
102
}
330
3B
100
AcDbMaterial
  1
ByLayer
 72
     1
 94
      127
  0
MATERIAL
  5
3E
102
{ACAD_REACTORS
330
3B
102
}
330
3B
100
AcDbMaterial
  1
Global
 72
     1
 94
      127
  0
MLINESTYLE
  5
18
102
{ACAD_REACTORS
330
17
102
}
330
17
100
AcDbMlineStyle
  2
Standard
 70
     0
  3

 62
   256
 51
90.0
 52
90.0
 71
     2
 49
0.5
 62
   256
  6
BYLAYER
 49
-0.5
 62
   256
  6
BYLAYER
  0
ACDBPLACEHOLDER
  5
F
102
{ACAD_REACTORS
330
E
102
}
330
E
  0
VISUALSTYLE
  5
2F
102
{ACAD_REACTORS
330
2A
102
}
330
2A
100
AcDbVisualStyle
  2
2dWireframe
 70
     4
177
     2
291
     0
 71
     0
176
     1
 72
     2
176
     1
 73
     0
176
     1
 90
        0
176
     1
 40
-0.6
176
     1
 41
-30.0
176
     1
 62
     5
 63
     7
421
 16777215
176
     1
 74
     1
176
     1
 91
        4
176
     1
 64
     7
176
     1
 65
   257
176
     1
 75
     1
176
     1
175
     1
176
     1
 42
1.0
176
     1
 92
        0
176
     1
 66
   257
176
     1
 43
1.0
176
     1
 76
     1
176
     1
 77
     6
176
     1
 78
     2
176
     1
 67
     7
176
     1
 79
     5
176
     1
170
     0
176
     1
171
     0
176
     1
290
     0
176
     1
 93
        1
176
     1
 44
0.0
176
     1
173
     0
176
     1
  0
VISUALSTYLE
  5
31
102
{ACAD_REACTORS
330
2A
102
}
330
2A
100
AcDbVisualStyle
  2
3D Hidden
 70
     6
177
     2
291
     0
 71
     1
176
     1
 72
     2
176
     1
 73
     2
176
     1
 90
        0
176
     1
 40
-0.6
176
     1
 41
-30.0
176
     1
 62
     5
 63
     7
421
 16777215
176
     1
 74
     2
176
     1
 91
        2
176
     1
 64
     7
176
     1
 65
   257
176
     1
 75
     2
176
     1
175
     1
176
     1
 42
40.0
176
     1
 92
        0
176
     1
 66
   257
176
     1
 43
1.0
176
     1
 76
     1
176
     1
 77
     6
176
     1
 78
     2
176
     1
 67
     7
176
     1
 79
     3
176
     1
170
     0
176
     1
171
     0
176
     1
290
     0
176
     1
 93
        1
176
     1
 44
0.0
176
     1
173
     0
176
     1
  0
VISUALSTYLE
  5
30
102
{ACAD_REACTORS
330
2A
102
}
330
2A
100
AcDbVisualStyle
  2
3dWireframe
 70
     5
177
     2
291
     0
 71
     0
176
     1
 72
     2
176
     1
 73
     0
176
     1
 90
        0
176
     1
 40
-0.6
176
     1
 41
-30.0
176
     1
 62
     5
 63
     7
421
 16777215
176
     1
 74
     1
176
     1
 91
        4
176
     1
 64
     7
176
     1
 65
   257
176
     1
 75
     1
176
     1
175
     1
176
     1
 42
1.0
176
     1
 92
        0
176
     1
 66
   257
176
     1
 43
1.0
176
     1
 76
     1
176
     1
 77
     6
176
     1
 78
     2
176
     1
 67
     7
176
     1
 79
     5
176
     1
170
     0
176
     1
171
     0
176
     1
290
     0
176
     1
 93
        1
176
     1
 44
0.0
176
     1
173
     0
176
     1
  0
VISUALSTYLE
  5
32
102
{ACAD_REACTORS
330
2A
102
}
330
2A
100
AcDbVisualStyle
  2
Basic
 70
     7
177
     2
291
     1
 71
     1
176
     1
 72
     0
176
     1
 73
     1
176
     1
 90
        0
176
     1
 40
-0.6
176
     1
 41
-30.0
176
     1
 62
     5
 63
     7
421
 16777215
176
     1
 74
     0
176
     1
 91
        4
176
     1
 64
     7
176
     1
 65
   257
176
     1
 75
     1
176
     1
175
     1
176
     1
 42
1.0
176
     1
 92
        8
176
     1
 66
     7
176
     1
 43
1.0
176
     1
 76
     1
176
     1
 77
     6
176
     1
 78
     2
176
     1
 67
     7
176
     1
 79
     5
176
     1
170
     0
176
     1
171
     0
176
     1
290
     0
176
     1
 93
        1
176
     1
 44
0.0
176
     1
173
     0
176
     1
  0
VISUALSTYLE
  5
36
102
{ACAD_REACTORS
330
2A
102
}
330
2A
100
AcDbVisualStyle
  2
Brighten
 70
    12
177
     2
291
     1
 71
     2
176
     1
 72
     2
176
     1
 73
     0
176
     1
 90
        0
176
     1
 40
-0.6
176
     1
 41
-30.0
176
     1
 62
     5
 63
     7
421
 16777215
176
     1
 74
     1
176
     1
 91
        4
176
     1
 64
     7
176
     1
 65
   257
176
     1
 75
     1
176
     1
175
     1
176
     1
 42
1.0
176
     1
 92
        8
176
     1
 66
     7
176
     1
 43
1.0
176
     1
 76
     1
176
     1
 77
     6
176
     1
 78
     2
176
     1
 67
     7
176
     1
 79
     5
176
     1
170
     0
176
     1
171
     0
176
     1
290
     0
176
     1
 93
        1
176
     1
 44
50.0
176
     1
173
     0
176
     1
  0
VISUALSTYLE
  5
3A
102
{ACAD_REACTORS
330
2A
102
}
330
2A
100
AcDbVisualStyle
  2
ColorChange
 70
    16
177
     2
291
     1
 71
     2
176
     1
 72
     2
176
     1
 73
     3
176
     1
 90
        0
176
     1
 40
-0.6
176
     1
 41
-30.0
176
     1
 62
     5
 63
     8
421
  8421504
176
     1
 74
     1
176
     1
 91
        4
176
     1
 64
     7
176
     1
 65
   257
176
     1
 75
     1
176
     1
175
     1
176
     1
 42
1.0
176
     1
 92
        8
176
     1
 66
     8
424
  8421504
176
     1
 43
1.0
176
     1
 76
     1
176
     1
 77
     6
176
     1
 78
     2
176
     1
 67
     7
176
     1
 79
     5
176
     1
170
     0
176
     1
171
     0
176
     1
290
     0
176
     1
 93
        1
176
     1
 44
0.0
176
     1
173
     0
176
     1
  0
VISUALSTYLE
  5
34
102
{ACAD_REACTORS
330
2A
102
}
330
2A
100
AcDbVisualStyle
  2
Conceptual
 70
     9
177
     2
291
     0
 71
     3
176
     1
 72
     2
176
     1
 73
     0
176
     1
 90
        0
176
     1
 40
-0.6
176
     1
 41
-30.0
176
     1
 62
     5
 63
     7
421
 16777215
176
     1
 74
     2
176
     1
 91
        2
176
     1
 64
     7
176
     1
 65
   257
176
     1
 75
     1
176
     1
175
     1
176
     1
 42
40.0
176
     1
 92
        8
176
     1
 66
     7
176
     1
 43
1.0
176
     1
 76
     1
176
     1
 77
     6
176
     1
 78
     2
176
     1
 67
     7
176
     1
 79
     3
176
     1
170
     0
176
     1
171
     0
176
     1
290
     0
176
     1
 93
        1
176
     1
 44
0.0
176
     1
173
     0
176
     1
  0
VISUALSTYLE
  5
35
102
{ACAD_REACTORS
330
2A
102
}
330
2A
100
AcDbVisualStyle
  2
Dim
 70
    11
177
     2
291
     1
 71
     2
176
     1
 72
     2
176
     1
 73
     0
176
     1
 90
        0
176
     1
 40
-0.6
176
     1
 41
-30.0
176
     1
 62
     5
 63
     7
421
 16777215
176
     1
 74
     1
176
     1
 91
        4
176
     1
 64
     7
176
     1
 65
   257
176
     1
 75
     1
176
     1
175
     1
176
     1
 42
1.0
176
     1
 92
        8
176
     1
 66
     7
176
     1
 43
1.0
176
     1
 76
     1
176
     1
 77
     6
176
     1
 78
     2
176
     1
 67
     7
176
     1
 79
     5
176
     1
170
     0
176
     1
171
     0
176
     1
290
     0
176
     1
 93
        1
176
     1
 44
-50.0
176
     1
173
     0
176
     1
  0
VISUALSTYLE
  5
39
102
{ACAD_REACTORS
330
2A
102
}
330
2A
100
AcDbVisualStyle
  2
Facepattern
 70
    15
177
     2
291
     1
 71
     2
176
     1
 72
     2
176
     1
 73
     0
176
     1
 90
        0
176
     1
 40
-0.6
176
     1
 41
-30.0
176
     1
 62
     5
 63
     7
421
 16777215
176
     1
 74
     1
176
     1
 91
        4
176
     1
 64
     7
176
     1
 65
   257
176
     1
 75
     1
176
     1
175
     1
176
     1
 42
1.0
176
     1
 92
        8
176
     1
 66
     7
176
     1
 43
1.0
176
     1
 76
     1
176
     1
 77
     6
176
     1
 78
     2
176
     1
 67
     7
176
     1
 79
     5
176
     1
170
     0
176
     1
171
     0
176
     1
290
     0
176
     1
 93
        1
176
     1
 44
0.0
176
     1
173
     0
176
     1
  0
VISUALSTYLE
  5
2B
102
{ACAD_REACTORS
330
2A
102
}
330
2A
100
AcDbVisualStyle
  2
Flat
 70
     0
177
     2
291
     1
 71
     2
176
     1
 72
     1
176
     1
 73
     1
176
     1
 90
        2
176
     1
 40
-0.6
176
     1
 41
30.0
176
     1
 62
     5
 63
     7
421
 16777215
176
     1
 74
     0
176
     1
 91
        4
176
     1
 64
     7
176
     1
 65
   257
176
     1
 75
     1
176
     1
175
     1
176
     1
 42
1.0
176
     1
 92
        8
176
     1
 66
     7
176
     1
 43
1.0
176
     1
 76
     1
176
     1
 77
     6
176
     1
 78
     2
176
     1
 67
     7
176
     1
 79
     5
176
     1
170
     0
176
     1
171
     0
176
     1
290
     0
176
     1
 93
       13
176
     1
 44
0.0
176
     1
173
     0
176
     1
  0
VISUALSTYLE
  5
2C
102
{ACAD_REACTORS
330
2A
102
}
330
2A
100
AcDbVisualStyle
  2
FlatWithEdges
 70
     1
177
     2
291
     1
 71
     2
176
     1
 72
     1
176
     1
 73
     1
176
     1
 90
        2
176
     1
 40
-0.6
176
     1
 41
30.0
176
     1
 62
     5
 63
     7
421
 16777215
176
     1
 74
     1
176
     1
 91
        4
176
     1
 64
     7
176
     1
 65
   257
176
     1
 75
     1
176
     1
175
     1
176
     1
 42
1.0
176
     1
 92
        0
176
     1
 66
   257
176
     1
 43
1.0
176
     1
 76
     1
176
     1
 77
     6
176
     1
 78
     2
176
     1
 67
     7
176
     1
 79
     5
176
     1
170
     0
176
     1
171
     0
176
     1
290
     0
176
     1
 93
       13
176
     1
 44
0.0
176
     1
173
     0
176
     1
  0
VISUALSTYLE
  5
2D
102
{ACAD_REACTORS
330
2A
102
}
330
2A
100
AcDbVisualStyle
  2
Gouraud
 70
     2
177
     2
291
     1
 71
     2
176
     1
 72
     2
176
     1
 73
     1
176
     1
 90
        2
176
     1
 40
-0.6
176
     1
 41
30.0
176
     1
 62
     5
 63
     7
421
 16777215
176
     1
 74
     0
176
     1
 91
        4
176
     1
 64
     7
176
     1
 65
   257
176
     1
 75
     1
176
     1
175
     1
176
     1
 42
1.0
176
     1
 92
        0
176
     1
 66
     7
176
     1
 43
1.0
176
     1
 76
     1
176
     1
 77
     6
176
     1
 78
     2
176
     1
 67
     7
176
     1
 79
     5
176
     1
170
     0
176
     1
171
     0
176
     1
290
     0
176
     1
 93
       13
176
     1
 44
0.0
176
     1
173
     0
176
     1
  0
VISUALSTYLE
  5
2E
102
{ACAD_REACTORS
330
2A
102
}
330
2A
100
AcDbVisualStyle
  2
GouraudWithEdges
 70
     3
177
     2
291
     1
 71
     2
176
     1
 72
     2
176
     1
 73
     1
176
     1
 90
        2
176
     1
 40
-0.6
176
     1
 41
30.0
176
     1
 62
     5
 63
     7
421
 16777215
176
     1
 74
     1
176
     1
 91
        4
176
     1
 64
     7
176
     1
 65
   257
176
     1
 75
     1
176
     1
175
     1
176
     1
 42
1.0
176
     1
 92
        0
176
     1
 66
   257
176
     1
 43
1.0
176
     1
 76
     1
176
     1
 77
     6
176
     1
 78
     2
176
     1
 67
     7
176
     1
 79
     5
176
     1
170
     0
176
     1
171
     0
176
     1
290
     0
176
     1
 93
       13
176
     1
 44
0.0
176
     1
173
     0
176
     1
  0
VISUALSTYLE
  5
38
102
{ACAD_REACTORS
330
2A
102
}
330
2A
100
AcDbVisualStyle
  2
Linepattern
 70
    14
177
     2
291
     1
 71
     2
176
     1
 72
     2
176
     1
 73
     0
176
     1
 90
        0
176
     1
 40
-0.6
176
     1
 41
-30.0
176
     1
 62
     5
 63
     7
421
 16777215
176
     1
 74
     1
176
     1
 91
        4
176
     1
 64
     7
176
     1
 65
   257
176
     1
 75
     7
176
     1
175
     7
176
     1
 42
1.0
176
     1
 92
        8
176
     1
 66
     7
176
     1
 43
1.0
176
     1
 76
     1
176
     1
 77
     6
176
     1
 78
     2
176
     1
 67
     7
176
     1
 79
     5
176
     1
170
     0
176
     1
171
     0
176
     1
290
     0
176
     1
 93
        1
176
     1
 44
0.0
176
     1
173
     0
176
     1
  0
VISUALSTYLE
  5
33
102
{ACAD_REACTORS
330
2A
102
}
330
2A
100
AcDbVisualStyle
  2
Realistic
 70
     8
177
     2
291
     0
 71
     2
176
     1
 72
     2
176
     1
 73
     0
176
     1
 90
        0
176
     1
 40
-0.6
176
     1
 41
-30.0
176
     1
 62
     5
 63
     7
421
 16777215
176
     1
 74
     1
176
     1
 91
        0
176
     1
 64
     7
176
     1
 65
   257
176
     1
 75
     1
176
     1
175
     1
176
     1
 42
1.0
176
     1
 92
        8
176
     1
 66
     8
424
  7895160
176
     1
 43
1.0
176
     1
 76
     1
176
     1
 77
     6
176
     1
 78
     2
176
     1
 67
     7
176
     1
 79
     5
176
     1
170
     0
176
     1
171
     0
176
     1
290
     0
176
     1
 93
       13
176
     1
 44
0.0
176
     1
173
     0
176
     1
  0
VISUALSTYLE
  5
37
102
{ACAD_REACTORS
330
2A
102
}
330
2A
100
AcDbVisualStyle
  2
Thicken
 70
    13
177
     2
291
     1
 71
     2
176
     1
 72
     2
176
     1
 73
     0
176
     1
 90
        0
176
     1
 40
-0.6
176
     1
 41
-30.0
176
     1
 62
     5
 63
     7
421
 16777215
176
     1
 74
     1
176
     1
 91
        4
176
     1
 64
     7
176
     1
 65
   257
176
     1
 75
     1
176
     1
175
     1
176
     1
 42
1.0
176
     1
 92
       12
176
     1
 66
     7
176
     1
 43
1.0
176
     1
 76
     1
176
     1
 77
     6
176
     1
 78
     2
176
     1
 67
     7
176
     1
 79
     5
176
     1
170
     0
176
     1
171
     0
176
     1
290
     0
176
     1
 93
        1
176
     1
 44
0.0
176
     1
173
     0
176
     1
  0
ENDSEC
  0
EOF
