  0
SECTION
  2
HEADER
  9
$ACADVER
  1
AC1024
  9
$ACADMAINTVER
 70
     6
  9
$DWGCODEPAGE
  3
UNDEFINED
  9
$INSBASE
 10
0.0
 20
0.0
 30
0.0
  9
$EXTMIN
 10
1.000000000000000E+20
 20
1.000000000000000E+20
 30
1.000000000000000E+20
  9
$EXTMAX
 10
-1.000000000000000E+20
 20
-1.000000000000000E+20
 30
-1.000000000000000E+20
  9
$LIMMIN
 10
0.0
 20
0.0
  9
$LIMMAX
 10
12.0
 20
9.0
  9
$ORTHOMODE
 70
     0
  9
$REGENMODE
 70
     1
  9
$FILLMODE
 70
     1
  9
$QTEXTMODE
 70
     0
  9
$MIRRTEXT
 70
     1
  9
$LTSCALE
 40
1.0
  9
$ATTMODE
 70
     1
  9
$TEXTSIZE
 40
0.2
  9
$TRACEWID
 40
0.05
  9
$TEXTSTYLE
  7
Standard
  9
$CLAYER
  8
0
  9
$CELTYPE
  6
ByLayer
  9
$CECOLOR
 62
   256
  9
$CELTSCALE
 40
1.0
  9
$DISPSILH
 70
     0
  9
$DIMSCALE
 40
1.0
  9
$DIMASZ
 40
0.18
  9
$DIMEXO
 40
0.0625
  9
$DIMDLI
 40
0.38
  9
$DIMRND
 40
0.0
  9
$DIMDLE
 40
0.0
  9
$DIMEXE
 40
0.18
  9
$DIMTP
 40
0.0
  9
$DIMTM
 40
0.0
  9
$DIMTXT
 40
0.18
  9
$DIMCEN
 40
0.09
  9
$DIMTSZ
 40
0.0
  9
$DIMTOL
 70
     0
  9
$DIMLIM
 70
     0
  9
$DIMTIH
 70
     1
  9
$DIMTOH
 70
     1
  9
$DIMSE1
 70
     0
  9
$DIMSE2
 70
     0
  9
$DIMTAD
 70
     0
  9
$DIMZIN
 70
     0
  9
$DIMBLK
  1

  9
$DIMASO
 70
     1
  9
$DIMSHO
 70
     1
  9
$DIMPOST
  1

  9
$DIMAPOST
  1

  9
$DIMALT
 70
     0
  9
$DIMALTD
 70
     2
  9
$DIMALTF
 40
25.4
  9
$DIMLFAC
 40
1.0
  9
$DIMTOFL
 70
     0
  9
$DIMTVP
 40
0.0
  9
$DIMTIX
 70
     0
  9
$DIMSOXD
 70
     0
  9
$DIMSAH
 70
     0
  9
$DIMBLK1
  1

  9
$DIMBLK2
  1

  9
$DIMSTYLE
  2
Standard
  9
$DIMCLRD
 70
     0
  9
$DIMCLRE
 70
     0
  9
$DIMCLRT
 70
     0
  9
$DIMTFAC
 40
1.0
  9
$DIMGAP
 40
0.09
  9
$DIMJUST
 70
     0
  9
$DIMSD1
 70
     0
  9
$DIMSD2
 70
     0
  9
$DIMTOLJ
 70
     1
  9
$DIMTZIN
 70
     0
  9
$DIMALTZ
 70
     0
  9
$DIMALTTZ
 70
     0
  9
$DIMUPT
 70
     0
  9
$DIMDEC
 70
     4
  9
$DIMTDEC
 70
     4
  9
$DIMALTU
 70
     2
  9
$DIMALTTD
 70
     2
  9
$DIMTXSTY
  7
Standard
  9
$DIMAUNIT
 70
     0
  9
$DIMADEC
 70
     0
  9
$DIMALTRND
 40
0.0
  9
$DIMAZIN
 70
     0
  9
$DIMDSEP
 70
    46
  9
$DIMATFIT
 70
     3
  9
$DIMFRAC
 70
     0
  9
$DIMLDRBLK
  1

  9
$DIMLUNIT
 70
     2
  9
$DIMLWD
 70
    -2
  9
$DIMLWE
 70
    -2
  9
$DIMTMOVE
 70
     0
  9
$DIMFXL
 40
1.0
  9
$DIMFXLON
 70
     0
  9
$DIMJOGANG
 40
0.7853981633974483
  9
$DIMTFILL
 70
     0
  9
$DIMTFILLCLR
 70
     0
  9
$DIMARCSYM
 70
     0
  9
$DIMLTYPE
  6

  9
$DIMLTEX1
  6

  9
$DIMLTEX2
  6

  9
$DIMTXTDIRECTION
 70
     0
  9
$LUNITS
 70
     2
  9
$LUPREC
 70
     4
  9
$SKETCHINC
 40
0.1
  9
$FILLETRAD
 40
0.5
  9
$AUNITS
 70
     0
  9
$AUPREC
 70
     0
  9
$MENU
  1
.
  9
$ELEVATION
 40
0.0
  9
$PELEVATION
 40
0.0
  9
$THICKNESS
 40
0.0
  9
$LIMCHECK
 70
     0
  9
$CHAMFERA
 40
0.5
  9
$CHAMFERB
 40
0.5
  9
$CHAMFERC
 40
1.0
  9
$CHAMFERD
 40
0.0
  9
$SKPOLY
 70
     0
  9
$TDCREATE
 40
2457917.595752303
  9
$TDUCREATE
 40
2457917.220752315
  9
$TDUPDATE
 40
2457917.595752303
  9
$TDUUPDATE
 40
2457917.220752315
  9
$TDINDWG
 40
0.0000000116
  9
$TDUSRTIMER
 40
0.0000000116
  9
$USRTIMER
 70
     1
  9
$ANGBASE
 50
0.0
  9
$ANGDIR
 70
     0
  9
$PDMODE
 70
     0
  9
$PDSIZE
 40
0.0
  9
$PLINEWID
 40
0.0
  9
$SPLFRAME
 70
     0
  9
$SPLINETYPE
 70
     6
  9
$SPLINESEGS
 70
     8
  9
$HANDSEED
  5
A9
  9
$SURFTAB1
 70
     6
  9
$SURFTAB2
 70
     6
  9
$SURFTYPE
 70
     6
  9
$SURFU
 70
     6
  9
$SURFV
 70
     6
  9
$UCSBASE
  2

  9
$UCSNAME
  2

  9
$UCSORG
 10
0.0
 20
0.0
 30
0.0
  9
$UCSXDIR
 10
1.0
 20
0.0
 30
0.0
  9
$UCSYDIR
 10
0.0
 20
1.0
 30
0.0
  9
$UCSORTHOREF
  2

  9
$UCSORTHOVIEW
 70
     0
  9
$UCSORGTOP
 10
0.0
 20
0.0
 30
0.0
  9
$UCSORGBOTTOM
 10
0.0
 20
0.0
 30
0.0
  9
$UCSORGLEFT
 10
0.0
 20
0.0
 30
0.0
  9
$UCSORGRIGHT
 10
0.0
 20
0.0
 30
0.0
  9
$UCSORGFRONT
 10
0.0
 20
0.0
 30
0.0
  9
$UCSORGBACK
 10
0.0
 20
0.0
 30
0.0
  9
$PUCSBASE
  2

  9
$PUCSNAME
  2

  9
$PUCSORG
 10
0.0
 20
0.0
 30
0.0
  9
$PUCSXDIR
 10
1.0
 20
0.0
 30
0.0
  9
$PUCSYDIR
 10
0.0
 20
1.0
 30
0.0
  9
$PUCSORTHOREF
  2

  9
$PUCSORTHOVIEW
 70
     0
  9
$PUCSORGTOP
 10
0.0
 20
0.0
 30
0.0
  9
$PUCSORGBOTTOM
 10
0.0
 20
0.0
 30
0.0
  9
$PUCSORGLEFT
 10
0.0
 20
0.0
 30
0.0
  9
$PUCSORGRIGHT
 10
0.0
 20
0.0
 30
0.0
  9
$PUCSORGFRONT
 10
0.0
 20
0.0
 30
0.0
  9
$PUCSORGBACK
 10
0.0
 20
0.0
 30
0.0
  9
$USERI1
 70
     0
  9
$USERI2
 70
     0
  9
$USERI3
 70
     0
  9
$USERI4
 70
     0
  9
$USERI5
 70
     0
  9
$USERR1
 40
0.0
  9
$USERR2
 40
0.0
  9
$USERR3
 40
0.0
  9
$USERR4
 40
0.0
  9
$USERR5
 40
0.0
  9
$WORLDVIEW
 70
     1
  9
$SHADEDGE
 70
     3
  9
$SHADEDIF
 70
    70
  9
$TILEMODE
 70
     1
  9
$MAXACTVP
 70
    64
  9
$PINSBASE
 10
0.0
 20
0.0
 30
0.0
  9
$PLIMCHECK
 70
     0
  9
$PEXTMIN
 10
1.000000000000000E+20
 20
1.000000000000000E+20
 30
1.000000000000000E+20
  9
$PEXTMAX
 10
-1.000000000000000E+20
 20
-1.000000000000000E+20
 30
-1.000000000000000E+20
  9
$PLIMMIN
 10
0.0
 20
0.0
  9
$PLIMMAX
 10
12.0
 20
9.0
  9
$UNITMODE
 70
     0
  9
$VISRETAIN
 70
     1
  9
$PLINEGEN
 70
     0
  9
$PSLTSCALE
 70
     1
  9
$TREEDEPTH
 70
  3020
  9
$CMLSTYLE
  2
Standard
  9
$CMLJUST
 70
     0
  9
$CMLSCALE
 40
1.0
  9
$PROXYGRAPHICS
 70
     1
  9
$MEASUREMENT
 70
     0
  9
$CELWEIGHT
370
    -1
  9
$ENDCAPS
280
     0
  9
$JOINSTYLE
280
     0
  9
$LWDISPLAY
290
     1
  9
$INSUNITS
 70
     1
  9
$HYPERLINKBASE
  1

  9
$STYLESHEET
  1

  9
$XEDIT
290
     1
  9
$CEPSNTYPE
380
     0
  9
$PSTYLEMODE
290
     1
  9
$FINGERPRINTGUID
  2
{4D3FB473-681E-3EDD-B0D3-9524F3FC5364}
  9
$VERSIONGUID
  2
{FAEB1C32-E019-11D5-929B-00C0DF256EC4}
  9
$EXTNAMES
290
     1
  9
$PSVPSCALE
 40
0.0
  9
$OLESTARTUP
290
     0
  9
$SORTENTS
280
   127
  9
$INDEXCTL
280
     0
  9
$HIDETEXT
280
     1
  9
$XCLIPFRAME
280
     2
  9
$HALOGAP
280
     0
  9
$OBSCOLOR
 70
   257
  9
$OBSLTYPE
280
     0
  9
$INTERSECTIONDISPLAY
280
     0
  9
$INTERSECTIONCOLOR
 70
   257
  9
$DIMASSOC
280
     2
  9
$PROJECTNAME
  1

  9
$CAMERADISPLAY
290
     0
  9
$LENSLENGTH
 40
50.0
  9
$CAMERAHEIGHT
 40
0.0
  9
$STEPSPERSEC
 40
2.0
  9
$STEPSIZE
 40
6.0
  9
$3DDWFPREC
 40
2.0
  9
$PSOLWIDTH
 40
0.25
  9
$PSOLHEIGHT
 40
4.0
  9
$LOFTANG1
 40
1.570796326794897
  9
$LOFTANG2
 40
1.570796326794897
  9
$LOFTMAG1
 40
0.0
  9
$LOFTMAG2
 40
0.0
  9
$LOFTPARAM
 70
     7
  9
$LOFTNORMALS
280
     1
  9
$LATITUDE
 40
37.795
  9
$LONGITUDE
 40
-122.394
  9
$NORTHDIRECTION
 40
0.0
  9
$TIMEZONE
 70
 -8000
  9
$LIGHTGLYPHDISPLAY
280
     1
  9
$TILEMODELIGHTSYNCH
280
     1
  9
$CMATERIAL
347
3C
  9
$SOLIDHIST
280
     1
  9
$SHOWHIST
280
     1
  9
$DWFFRAME
280
     2
  9
$DGNFRAME
280
     2
  9
$REALWORLDSCALE
290
     1
  9
$INTERFERECOLOR
 62
   256
  9
$CSHADOW
280
     0
  9
$SHADOWPLANELOCATION
 40
0.0
  0
ENDSEC
  0
SECTION
  2
CLASSES
  0
CLASS
  1
ACDBDICTIONARYWDFLT
  2
AcDbDictionaryWithDefault
  3
ObjectDBX Classes
 90
        0
 91
        4
280
     0
281
     0
  0
CLASS
  1
VISUALSTYLE
  2
AcDbVisualStyle
  3
ObjectDBX Classes
 90
     4095
 91
        4
280
     0
281
     0
  0
CLASS
  1
MATERIAL
  2
AcDbMaterial
  3
ObjectDBX Classes
 90
     1153
 91
        4
280
     0
281
     0
  0
CLASS
  1
SUN
  2
AcDbSun
  3
SCENEOE
 90
     1024
 91
        4
280
     0
281
     0
  0
ENDSEC
  0
SECTION
  2
TABLES
  0
TABLE
  2
VPORT
  5
8
330
0
100
AcDbSymbolTable
 70
     1
  0
VPORT
  5
29
330
8
100
AcDbSymbolTableRecord
100
AcDbViewportTableRecord
  2
*Active
 70
     0
 10
0.0
 20
0.0
 11
1.0
 21
1.0
 12
0.0
 22
0.0
 13
0.0
 23
0.0
 14
0.5
 24
0.5
 15
0.5
 25
0.5
 16
0.0
 26
0.0
 36
1.0
 17
91.00082462281999
 27
-128.4993055234307
 37
0.0
 40
256.9986110468615
 41
0.7081814508812795
 42
50.0
 43
0.0
 44
0.0
 50
0.0
 51
0.0
 71
     0
 72
   100
 73
     1
 74
     3
 75
     0
 76
     0
 77
     0
 78
     0
281
     0
 65
     1
110
0.0
120
0.0
130
0.0
111
1.0
121
0.0
131
0.0
112
0.0
122
1.0
132
0.0
 79
     0
146
0.0
 60
     3
 61
     5
292
     1
282
     1
141
0.0
142
0.0
 63
   250
361
3F
  0
ENDTAB
  0
TABLE
  2
LTYPE
  5
5
330
0
100
AcDbSymbolTable
 70
     1
  0
LTYPE
  5
14
330
5
100
AcDbSymbolTableRecord
100
AcDbLinetypeTableRecord
  2
ByBlock
 70
     0
  3

 72
    65
 73
     0
 40
0.0
  0
LTYPE
  5
15
330
5
100
AcDbSymbolTableRecord
100
AcDbLinetypeTableRecord
  2
ByLayer
 70
     0
  3

 72
    65
 73
     0
 40
0.0
  0
LTYPE
  5
16
330
5
100
AcDbSymbolTableRecord
100
AcDbLinetypeTableRecord
  2
Continuous
 70
     0
  3
Solid line
 72
    65
 73
     0
 40
0.0
  0
ENDTAB
  0
TABLE
  2
LAYER
  5
2
330
0
100
AcDbSymbolTable
 70
     2
  0
LAYER
  5
10
330
2
100
AcDbSymbolTableRecord
100
AcDbLayerTableRecord
  2
0
 70
     0
 62
     7
  6
Continuous
370
    -3
390
F
347
3E
  0
LAYER
  5
40
330
2
100
AcDbSymbolTableRecord
100
AcDbLayerTableRecord
  2
_U+30EC_U+30A4_U+30E4_U+30FC 1
 70
     0
 62
     7
  6
Continuous
370
    -3
390
F
347
3E
  0
ENDTAB
  0
TABLE
  2
STYLE
  5
3
330
0
100
AcDbSymbolTable
 70
     1
  0
STYLE
  5
11
330
3
100
AcDbSymbolTableRecord
100
AcDbTextStyleTableRecord
  2
Standard
 70
     0
 40
0.0
 41
1.0
 50
0.0
 71
     0
 42
0.2
  3
txt
  4

  0
ENDTAB
  0
TABLE
  2
VIEW
  5
6
330
0
100
AcDbSymbolTable
 70
     0
  0
ENDTAB
  0
TABLE
  2
UCS
  5
7
330
0
100
AcDbSymbolTable
 70
     0
  0
ENDTAB
  0
TABLE
  2
APPID
  5
9
330
0
100
AcDbSymbolTable
 70
     1
  0
APPID
  5
12
330
9
100
AcDbSymbolTableRecord
100
AcDbRegAppTableRecord
  2
ACAD
 70
     0
  0
ENDTAB
  0
TABLE
  2
DIMSTYLE
  5
A
330
0
100
AcDbSymbolTable
 70
     1
100
AcDbDimStyleTable
  0
DIMSTYLE
105
27
330
A
100
AcDbSymbolTableRecord
100
AcDbDimStyleTableRecord
  2
Standard
 70
     0
178
     0
340
11
  0
ENDTAB
  0
TABLE
  2
BLOCK_RECORD
  5
1
330
0
100
AcDbSymbolTable
 70
     4
  0
BLOCK_RECORD
  5
1F
330
1
100
AcDbSymbolTableRecord
100
AcDbBlockTableRecord
  2
*Model_Space
340
22
 70
     0
280
     1
281
     0
  0
BLOCK_RECORD
  5
1B
330
1
100
AcDbSymbolTableRecord
100
AcDbBlockTableRecord
  2
*Paper_Space
340
1E
 70
     0
280
     1
281
     0
  0
BLOCK_RECORD
  5
23
330
1
100
AcDbSymbolTableRecord
100
AcDbBlockTableRecord
  2
*Paper_Space0
340
26
 70
     0
280
     1
281
     0
  0
BLOCK_RECORD
  5
6F
330
1
100
AcDbSymbolTableRecord
100
AcDbBlockTableRecord
  2
block 2
340
0
102
{BLKREFS
331
70
102
}
 70
     0
280
     1
281
     0
  0
BLOCK_RECORD
  5
8B
330
1
100
AcDbSymbolTableRecord
100
AcDbBlockTableRecord
  2
block 3
340
0
102
{BLKREFS
331
8C
102
}
 70
     0
280
     1
281
     0
  0
BLOCK_RECORD
  5
9F
330
1
100
AcDbSymbolTableRecord
100
AcDbBlockTableRecord
  2
block 4
340
0
102
{BLKREFS
331
A0
102
}
 70
     0
280
     1
281
     0
  0
ENDTAB
  0
ENDSEC
  0
SECTION
  2
BLOCKS
  0
BLOCK
  5
20
330
1F
100
AcDbEntity
  8
0
100
AcDbBlockBegin
  2
*Model_Space
 70
     0
 10
0.0
 20
0.0
 30
0.0
  3
*Model_Space
  1

  0
ENDBLK
  5
21
330
1F
100
AcDbEntity
  8
0
100
AcDbBlockEnd
  0
BLOCK
  5
1C
330
1B
100
AcDbEntity
 67
     1
  8
0
100
AcDbBlockBegin
  2
*Paper_Space
 70
     0
 10
0.0
 20
0.0
 30
0.0
  3
*Paper_Space
  1

  0
ENDBLK
  5
1D
330
1B
100
AcDbEntity
 67
     1
  8
0
100
AcDbBlockEnd
  0
BLOCK
  5
24
330
23
100
AcDbEntity
  8
0
100
AcDbBlockBegin
  2
*Paper_Space0
 70
     0
 10
0.0
 20
0.0
 30
0.0
  3
*Paper_Space0
  1

  0
ENDBLK
  5
25
330
23
100
AcDbEntity
  8
0
100
AcDbBlockEnd
  0
BLOCK
  5
71
330
6F
100
AcDbEntity
  8
0
100
AcDbBlockBegin
  2
block 2
 70
     0
 10
0.0
 20
0.0
 30
0.0
  3
block 2
  1

  0
SPLINE
  5
73
330
6F
100
AcDbEntity
  8
_U+30EC_U+30A4_U+30E4_U+30FC 1
370
     0
100
AcDbSpline
210
0.0
220
0.0
230
1.0
 70
    11
 71
     3
 72
    26
 73
    22
 74
     0
 42
0.0000000001
 43
0.0000000001
 12
1.0
 22
0.0
 32
0.0
 13
1.0
 23
0.0
 33
0.0
 40
0.0
 40
0.0
 40
0.0
 40
0.0
 40
1.0
 40
1.0
 40
1.0
 40
2.0
 40
2.0
 40
2.0
 40
3.0
 40
3.0
 40
3.0
 40
4.0
 40
4.0
 40
4.0
 40
5.0
 40
5.0
 40
5.0
 40
6.0
 40
6.0
 40
6.0
 40
7.0
 40
7.0
 40
7.0
 40
7.0
 10
106.8492919654752
 20
-134.4634548274952
 30
0.0
 10
106.8492919654752
 20
-134.4634548274952
 30
0.0
 10
105.7451388624526
 20
-134.4634548274952
 30
0.0
 10
105.7451388624526
 20
-134.4634548274952
 30
0.0
 10
105.7451388624526
 20
-134.4634548274952
 30
0.0
 10
105.7451388624526
 20
-134.7490532432225
 30
0.0
 10
105.7451388624526
 20
-134.7490532432225
 30
0.0
 10
105.7451388624526
 20
-134.7490532432225
 30
0.0
 10
105.5969997565869
 20
-134.7490532432225
 30
0.0
 10
105.5969997565869
 20
-134.7490532432225
 30
0.0
 10
105.5821858460003
 20
-134.4617322797526
 30
0.0
 10
105.419232829548
 20
-134.4214246625752
 30
0.0
 10
105.3048556594377
 20
-134.3959309559844
 30
0.0
 10
105.3048556594377
 20
-134.3959309559844
 30
0.0
 10
105.3048556594377
 20
-134.2694959516757
 30
0.0
 10
105.3048556594377
 20
-134.2694959516757
 30
0.0
 10
105.3048556594377
 20
-134.2694959516757
 30
0.0
 10
106.8492919654752
 20
-134.2694959516757
 30
0.0
 10
106.8492919654752
 20
-134.2694959516757
 30
0.0
 10
106.8492919654752
 20
-134.2694959516757
 30
0.0
 10
106.8492919654752
 20
-134.4634548274952
 30
0.0
 10
106.8492919654752
 20
-134.4634548274952
 30
0.0
  0
HATCH
  5
74
330
6F
100
AcDbEntity
  8
_U+30EC_U+30A4_U+30E4_U+30FC 1
 62
   179
420
  2234388
100
AcDbHatch
 10
0.0
 20
0.0
 30
0.0
210
0.0
220
0.0
230
1.0
  2
SOLID
 70
     1
 71
     0
 91
        1
 92
        1
 93
        1
 72
     4
 94
        3
 73
     0
 74
     1
 95
       26
 96
       22
 40
0.0
 40
0.0
 40
0.0
 40
0.0
 40
1.0
 40
1.0
 40
1.0
 40
2.0
 40
2.0
 40
2.0
 40
3.0
 40
3.0
 40
3.0
 40
4.0
 40
4.0
 40
4.0
 40
5.0
 40
5.0
 40
5.0
 40
6.0
 40
6.0
 40
6.0
 40
7.0
 40
7.0
 40
7.0
 40
7.0
 10
106.8492919654752
 20
-134.4634548274952
 10
106.8492919654752
 20
-134.4634548274952
 10
105.7451388624526
 20
-134.4634548274952
 10
105.7451388624526
 20
-134.4634548274952
 10
105.7451388624526
 20
-134.4634548274952
 10
105.7451388624526
 20
-134.7490532432225
 10
105.7451388624526
 20
-134.7490532432225
 10
105.7451388624526
 20
-134.7490532432225
 10
105.5969997565869
 20
-134.7490532432225
 10
105.5969997565869
 20
-134.7490532432225
 10
105.5821858460003
 20
-134.4617322797526
 10
105.419232829548
 20
-134.4214246625752
 10
105.3048556594377
 20
-134.3959309559844
 10
105.3048556594377
 20
-134.3959309559844
 10
105.3048556594377
 20
-134.2694959516757
 10
105.3048556594377
 20
-134.2694959516757
 10
105.3048556594377
 20
-134.2694959516757
 10
106.8492919654752
 20
-134.2694959516757
 10
106.8492919654752
 20
-134.2694959516757
 10
106.8492919654752
 20
-134.2694959516757
 10
106.8492919654752
 20
-134.4634548274952
 10
106.8492919654752
 20
-134.4634548274952
 97
        0
 97
        0
 75
     2
 76
     1
 98
        0
  0
POLYLINE
  5
75
330
6F
100
AcDbEntity
  8
_U+30EC_U+30A4_U+30E4_U+30FC 1
370
     0
100
AcDb2dPolyline
 66
     1
 10
0.0
 20
0.0
 30
0.0
  0
VERTEX
  5
76
330
75
100
AcDbEntity
  8
_U+30EC_U+30A4_U+30E4_U+30FC 1
370
     0
100
AcDbVertex
100
AcDb2dVertex
 10
106.8492919654752
 20
-133.784771016901
 30
0.0
  0
VERTEX
  5
77
330
75
100
AcDbEntity
  8
_U+30EC_U+30A4_U+30E4_U+30FC 1
370
     0
100
AcDbVertex
100
AcDb2dVertex
 10
106.5974554855034
 20
-133.784771016901
 30
0.0
  0
VERTEX
  5
78
330
75
100
AcDbEntity
  8
_U+30EC_U+30A4_U+30E4_U+30FC 1
370
     0
100
AcDbVertex
100
AcDb2dVertex
 10
106.5974554855034
 20
-133.5670409822332
 30
0.0
  0
VERTEX
  5
79
330
75
100
AcDbEntity
  8
_U+30EC_U+30A4_U+30E4_U+30FC 1
370
     0
100
AcDbVertex
100
AcDb2dVertex
 10
106.8492919654752
 20
-133.5670409822332
 30
0.0
  0
VERTEX
  5
7A
330
75
100
AcDbEntity
  8
_U+30EC_U+30A4_U+30E4_U+30FC 1
370
     0
100
AcDbVertex
100
AcDb2dVertex
 10
106.8492919654752
 20
-133.784771016901
 30
0.0
  0
SEQEND
  5
7B
330
75
100
AcDbEntity
  8
_U+30EC_U+30A4_U+30E4_U+30FC 1
370
     0
  0
HATCH
  5
7C
330
6F
100
AcDbEntity
  8
_U+30EC_U+30A4_U+30E4_U+30FC 1
 62
   179
420
  2234388
100
AcDbHatch
 10
0.0
 20
0.0
 30
0.0
210
0.0
220
0.0
230
1.0
  2
SOLID
 70
     1
 71
     0
 91
        1
 92
        1
 93
        4
 72
     1
 10
106.8492919654752
 20
-133.784771016901
 11
106.5974554855034
 21
-133.784771016901
 72
     1
 10
106.5974554855034
 20
-133.784771016901
 11
106.5974554855034
 21
-133.5670409822332
 72
     1
 10
106.5974554855034
 20
-133.5670409822332
 11
106.8492919654752
 21
-133.5670409822332
 72
     1
 10
106.8492919654752
 20
-133.5670409822332
 11
106.8492919654752
 21
-133.784771016901
 97
        0
 75
     2
 76
     1
 98
        0
  0
SPLINE
  5
7D
330
6F
100
AcDbEntity
  8
_U+30EC_U+30A4_U+30E4_U+30FC 1
370
     0
100
AcDbSpline
210
0.0
220
0.0
230
1.0
 70
    11
 71
     3
 72
    53
 73
    49
 74
     0
 42
0.0000000001
 43
0.0000000001
 12
1.0
 22
0.0
 32
0.0
 13
1.0
 23
0.0
 33
0.0
 40
0.0
 40
0.0
 40
0.0
 40
0.0
 40
1.0
 40
1.0
 40
1.0
 40
2.0
 40
2.0
 40
2.0
 40
3.0
 40
3.0
 40
3.0
 40
4.0
 40
4.0
 40
4.0
 40
5.0
 40
5.0
 40
5.0
 40
6.0
 40
6.0
 40
6.0
 40
7.0
 40
7.0
 40
7.0
 40
8.0
 40
8.0
 40
8.0
 40
9.0
 40
9.0
 40
9.0
 40
10.0
 40
10.0
 40
10.0
 40
11.0
 40
11.0
 40
11.0
 40
12.0
 40
12.0
 40
12.0
 40
13.0
 40
13.0
 40
13.0
 40
14.0
 40
14.0
 40
14.0
 40
15.0
 40
15.0
 40
15.0
 40
16.0
 40
16.0
 40
16.0
 40
16.0
 10
106.8999348691083
 20
-132.9469237948883
 30
0.0
 10
106.8999348691083
 20
-133.0144476663992
 30
0.0
 10
106.8830539012306
 20
-133.1026421108216
 30
0.0
 10
106.819664144302
 20
-133.1901475361469
 30
0.0
 10
106.7097655983226
 20
-133.3403536993038
 30
0.0
 10
106.5785074603345
 20
-133.3586127053756
 30
0.0
 10
106.4706759716462
 20
-133.3751491637048
 30
0.0
 10
106.4706759716462
 20
-133.3751491637048
 30
0.0
 10
106.4706759716462
 20
-133.1829128356279
 30
0.0
 10
106.4706759716462
 20
-133.1829128356279
 30
0.0
 10
106.6694579811451
 20
-133.1353705179314
 30
0.0
 10
106.6990858023183
 20
-133.025471971952
 30
0.0
 10
106.6990858023183
 20
-132.9452012471457
 30
0.0
 10
106.6990858023183
 20
-132.8242783956134
 30
0.0
 10
106.5995225427946
 20
-132.6926757480768
 30
0.0
 10
106.3669785975402
 20
-132.6926757480768
 30
0.0
 10
106.1110080029861
 20
-132.6926757480768
 30
0.0
 10
106.0410725646356
 20
-132.8480495544616
 30
0.0
 10
106.0410725646356
 20
-132.9524359476647
 30
0.0
 10
106.0410725646356
 20
-132.9799967115467
 30
0.0
 10
106.0410725646356
 20
-133.1026421108216
 30
0.0
 10
106.1702636453324
 20
-133.1794677401426
 30
0.0
 10
106.1702636453324
 20
-133.1794677401426
 30
0.0
 10
106.1513156201636
 20
-133.3313964510422
 30
0.0
 10
106.1513156201636
 20
-133.3313964510422
 30
0.0
 10
106.1513156201636
 20
-133.3313964510422
 30
0.0
 10
105.3048556594377
 20
-133.2270100578391
 30
0.0
 10
105.3048556594377
 20
-133.2270100578391
 30
0.0
 10
105.3048556594377
 20
-133.2270100578391
 30
0.0
 10
105.3048556594377
 20
-132.5534938904727
 30
0.0
 10
105.3048556594377
 20
-132.5534938904727
 30
0.0
 10
105.3048556594377
 20
-132.5534938904727
 30
0.0
 10
105.4995035543543
 20
-132.5534938904727
 30
0.0
 10
105.4995035543543
 20
-132.5534938904727
 30
0.0
 10
105.4995035543543
 20
-132.5534938904727
 30
0.0
 10
105.4995035543543
 20
-133.0861056524924
 30
0.0
 10
105.4995035543543
 20
-133.0861056524924
 30
0.0
 10
105.4995035543543
 20
-133.0861056524924
 30
0.0
 10
105.922561279943
 20
-133.1426052184505
 30
0.0
 10
105.922561279943
 20
-133.1426052184505
 30
0.0
 10
105.8887993441875
 20
-133.0895507479776
 30
0.0
 10
105.8484917270101
 20
-133.018237271433
 30
0.0
 10
105.8484917270101
 20
-132.915917935521
 30
0.0
 10
105.8484917270101
 20
-132.6961208435621
 30
0.0
 10
106.0348713927621
 20
-132.4911376621897
 30
0.0
 10
106.3480305723713
 20
-132.4911376621897
 30
0.0
 10
106.6653238665628
 20
-132.4911376621897
 30
0.0
 10
106.8999348691083
 20
-132.6850965380093
 30
0.0
 10
106.8999348691083
 20
-132.9469237948883
 30
0.0
  0
HATCH
  5
7E
330
6F
100
AcDbEntity
  8
_U+30EC_U+30A4_U+30E4_U+30FC 1
 62
   179
420
  2234388
100
AcDbHatch
 10
0.0
 20
0.0
 30
0.0
210
0.0
220
0.0
230
1.0
  2
SOLID
 70
     1
 71
     0
 91
        1
 92
        1
 93
        1
 72
     4
 94
        3
 73
     0
 74
     1
 95
       53
 96
       49
 40
0.0
 40
0.0
 40
0.0
 40
0.0
 40
1.0
 40
1.0
 40
1.0
 40
2.0
 40
2.0
 40
2.0
 40
3.0
 40
3.0
 40
3.0
 40
4.0
 40
4.0
 40
4.0
 40
5.0
 40
5.0
 40
5.0
 40
6.0
 40
6.0
 40
6.0
 40
7.0
 40
7.0
 40
7.0
 40
8.0
 40
8.0
 40
8.0
 40
9.0
 40
9.0
 40
9.0
 40
10.0
 40
10.0
 40
10.0
 40
11.0
 40
11.0
 40
11.0
 40
12.0
 40
12.0
 40
12.0
 40
13.0
 40
13.0
 40
13.0
 40
14.0
 40
14.0
 40
14.0
 40
15.0
 40
15.0
 40
15.0
 40
16.0
 40
16.0
 40
16.0
 40
16.0
 10
106.8999348691083
 20
-132.9469237948883
 10
106.8999348691083
 20
-133.0144476663992
 10
106.8830539012306
 20
-133.1026421108216
 10
106.819664144302
 20
-133.1901475361469
 10
106.7097655983226
 20
-133.3403536993038
 10
106.5785074603345
 20
-133.3586127053756
 10
106.4706759716462
 20
-133.3751491637048
 10
106.4706759716462
 20
-133.3751491637048
 10
106.4706759716462
 20
-133.1829128356279
 10
106.4706759716462
 20
-133.1829128356279
 10
106.6694579811451
 20
-133.1353705179314
 10
106.6990858023183
 20
-133.025471971952
 10
106.6990858023183
 20
-132.9452012471457
 10
106.6990858023183
 20
-132.8242783956134
 10
106.5995225427946
 20
-132.6926757480768
 10
106.3669785975402
 20
-132.6926757480768
 10
106.1110080029861
 20
-132.6926757480768
 10
106.0410725646356
 20
-132.8480495544616
 10
106.0410725646356
 20
-132.9524359476647
 10
106.0410725646356
 20
-132.9799967115467
 10
106.0410725646356
 20
-133.1026421108216
 10
106.1702636453324
 20
-133.1794677401426
 10
106.1702636453324
 20
-133.1794677401426
 10
106.1513156201636
 20
-133.3313964510422
 10
106.1513156201636
 20
-133.3313964510422
 10
106.1513156201636
 20
-133.3313964510422
 10
105.3048556594377
 20
-133.2270100578391
 10
105.3048556594377
 20
-133.2270100578391
 10
105.3048556594377
 20
-133.2270100578391
 10
105.3048556594377
 20
-132.5534938904727
 10
105.3048556594377
 20
-132.5534938904727
 10
105.3048556594377
 20
-132.5534938904727
 10
105.4995035543543
 20
-132.5534938904727
 10
105.4995035543543
 20
-132.5534938904727
 10
105.4995035543543
 20
-132.5534938904727
 10
105.4995035543543
 20
-133.0861056524924
 10
105.4995035543543
 20
-133.0861056524924
 10
105.4995035543543
 20
-133.0861056524924
 10
105.922561279943
 20
-133.1426052184505
 10
105.922561279943
 20
-133.1426052184505
 10
105.8887993441875
 20
-133.0895507479776
 10
105.8484917270101
 20
-133.018237271433
 10
105.8484917270101
 20
-132.915917935521
 10
105.8484917270101
 20
-132.6961208435621
 10
106.0348713927621
 20
-132.4911376621897
 10
106.3480305723713
 20
-132.4911376621897
 10
106.6653238665628
 20
-132.4911376621897
 10
106.8999348691083
 20
-132.6850965380093
 10
106.8999348691083
 20
-132.9469237948883
 97
        0
 97
        0
 75
     2
 76
     1
 98
        0
  0
ENDBLK
  5
72
330
6F
100
AcDbEntity
  8
0
100
AcDbBlockEnd
  0
BLOCK
  5
8D
330
8B
100
AcDbEntity
  8
0
100
AcDbBlockBegin
  2
block 3
 70
     0
 10
0.0
 20
0.0
 30
0.0
  3
block 3
  1

  0
SPLINE
  5
8F
330
8B
100
AcDbEntity
  8
_U+30EC_U+30A4_U+30E4_U+30FC 1
370
     0
100
AcDbSpline
210
0.0
220
0.0
230
1.0
 70
    11
 71
     3
 72
    44
 73
    40
 74
     0
 42
0.0000000001
 43
0.0000000001
 12
1.0
 22
0.0
 32
0.0
 13
1.0
 23
0.0
 33
0.0
 40
0.0
 40
0.0
 40
0.0
 40
0.0
 40
1.0
 40
1.0
 40
1.0
 40
2.0
 40
2.0
 40
2.0
 40
3.0
 40
3.0
 40
3.0
 40
4.0
 40
4.0
 40
4.0
 40
5.0
 40
5.0
 40
5.0
 40
6.0
 40
6.0
 40
6.0
 40
7.0
 40
7.0
 40
7.0
 40
8.0
 40
8.0
 40
8.0
 40
9.0
 40
9.0
 40
9.0
 40
10.0
 40
10.0
 40
10.0
 40
11.0
 40
11.0
 40
11.0
 40
12.0
 40
12.0
 40
12.0
 40
13.0
 40
13.0
 40
13.0
 40
13.0
 10
91.51723901791931
 20
-141.2571831244079
 30
0.0
 10
91.32862004010188
 20
-141.4160020262779
 30
0.0
 10
91.24834931529556
 20
-141.4900715792108
 30
0.0
 10
91.2063191503755
 20
-141.6337320609457
 30
0.0
 10
91.2063191503755
 20
-141.6337320609457
 30
0.0
 10
91.87931855341907
 20
-141.6337320609457
 30
0.0
 10
91.87931855341907
 20
-141.6337320609457
 30
0.0
 10
91.87931855341907
 20
-141.6337320609457
 30
0.0
 10
91.87931855341907
 20
-141.8390597518666
 30
0.0
 10
91.87931855341907
 20
-141.8390597518666
 30
0.0
 10
91.87931855341907
 20
-141.8390597518666
 30
0.0
 10
90.99031166345034
 20
-141.8390597518666
 30
0.0
 10
90.99031166345034
 20
-141.8390597518666
 30
0.0
 10
91.01752791778382
 20
-141.4814588404977
 30
0.0
 10
91.07437199329044
 20
-141.4032551729825
 30
0.0
 10
91.40734047193983
 20
-141.1049099039599
 30
0.0
 10
91.6288601116414
 20
-140.906127894461
 30
0.0
 10
91.6853596775995
 20
-140.8382595134015
 30
0.0
 10
91.6853596775995
 20
-140.7008002035401
 30
0.0
 10
91.6853596775995
 20
-140.5822889188475
 30
0.0
 10
91.623347958865
 20
-140.451375290408
 30
0.0
 10
91.45316024189366
 20
-140.451375290408
 30
0.0
 10
91.22802325193258
 20
-140.451375290408
 30
0.0
 10
91.22078855141356
 20
-140.6818521783712
 30
0.0
 10
91.21699894637979
 20
-140.7982964057726
 30
0.0
 10
91.21699894637979
 20
-140.7982964057726
 30
0.0
 10
91.02304007056021
 20
-140.7982964057726
 30
0.0
 10
91.02304007056021
 20
-140.7982964057726
 30
0.0
 10
91.03061928062776
 20
-140.6711723823669
 30
0.0
 10
91.03957652888941
 20
-140.5592067790963
 30
0.0
 10
91.10916745769146
 20
-140.4406954944037
 30
0.0
 10
91.20425209308436
 20
-140.2798095352425
 30
0.0
 10
91.36548256179405
 20
-140.2460475994871
 30
0.0
 10
91.46590709518908
 20
-140.2460475994871
 30
0.0
 10
91.70568574096247
 20
-140.2460475994871
 30
0.0
 10
91.88483070619546
 20
-140.4300156983994
 30
0.0
 10
91.88483070619546
 20
-140.7028672608312
 30
0.0
 10
91.88483070619546
 20
-140.9316216010518
 30
0.0
 10
91.78423391802617
 20
-141.030840351027
 30
0.0
 10
91.51723901791931
 20
-141.2571831244079
 30
0.0
  0
HATCH
  5
90
330
8B
100
AcDbEntity
  8
_U+30EC_U+30A4_U+30E4_U+30FC 1
 62
   179
420
  2234388
100
AcDbHatch
 10
0.0
 20
0.0
 30
0.0
210
0.0
220
0.0
230
1.0
  2
SOLID
 70
     1
 71
     0
 91
        1
 92
        1
 93
        1
 72
     4
 94
        3
 73
     0
 74
     1
 95
       44
 96
       40
 40
0.0
 40
0.0
 40
0.0
 40
0.0
 40
1.0
 40
1.0
 40
1.0
 40
2.0
 40
2.0
 40
2.0
 40
3.0
 40
3.0
 40
3.0
 40
4.0
 40
4.0
 40
4.0
 40
5.0
 40
5.0
 40
5.0
 40
6.0
 40
6.0
 40
6.0
 40
7.0
 40
7.0
 40
7.0
 40
8.0
 40
8.0
 40
8.0
 40
9.0
 40
9.0
 40
9.0
 40
10.0
 40
10.0
 40
10.0
 40
11.0
 40
11.0
 40
11.0
 40
12.0
 40
12.0
 40
12.0
 40
13.0
 40
13.0
 40
13.0
 40
13.0
 10
91.51723901791931
 20
-141.2571831244079
 10
91.32862004010188
 20
-141.4160020262779
 10
91.24834931529556
 20
-141.4900715792108
 10
91.2063191503755
 20
-141.6337320609457
 10
91.2063191503755
 20
-141.6337320609457
 10
91.87931855341907
 20
-141.6337320609457
 10
91.87931855341907
 20
-141.6337320609457
 10
91.87931855341907
 20
-141.6337320609457
 10
91.87931855341907
 20
-141.8390597518666
 10
91.87931855341907
 20
-141.8390597518666
 10
91.87931855341907
 20
-141.8390597518666
 10
90.99031166345034
 20
-141.8390597518666
 10
90.99031166345034
 20
-141.8390597518666
 10
91.01752791778382
 20
-141.4814588404977
 10
91.07437199329044
 20
-141.4032551729825
 10
91.40734047193983
 20
-141.1049099039599
 10
91.6288601116414
 20
-140.906127894461
 10
91.6853596775995
 20
-140.8382595134015
 10
91.6853596775995
 20
-140.7008002035401
 10
91.6853596775995
 20
-140.5822889188475
 10
91.623347958865
 20
-140.451375290408
 10
91.45316024189366
 20
-140.451375290408
 10
91.22802325193258
 20
-140.451375290408
 10
91.22078855141356
 20
-140.6818521783712
 10
91.21699894637979
 20
-140.7982964057726
 10
91.21699894637979
 20
-140.7982964057726
 10
91.02304007056021
 20
-140.7982964057726
 10
91.02304007056021
 20
-140.7982964057726
 10
91.03061928062776
 20
-140.6711723823669
 10
91.03957652888941
 20
-140.5592067790963
 10
91.10916745769146
 20
-140.4406954944037
 10
91.20425209308436
 20
-140.2798095352425
 10
91.36548256179405
 20
-140.2460475994871
 10
91.46590709518908
 20
-140.2460475994871
 10
91.70568574096247
 20
-140.2460475994871
 10
91.88483070619546
 20
-140.4300156983994
 10
91.88483070619546
 20
-140.7028672608312
 10
91.88483070619546
 20
-140.9316216010518
 10
91.78423391802617
 20
-141.030840351027
 10
91.51723901791931
 20
-141.2571831244079
 97
        0
 97
        0
 75
     2
 76
     1
 98
        0
  0
SPLINE
  5
91
330
8B
100
AcDbEntity
  8
_U+30EC_U+30A4_U+30E4_U+30FC 1
370
     0
100
AcDbSpline
210
0.0
220
0.0
230
1.0
 70
    11
 71
     3
 72
    53
 73
    49
 74
     0
 42
0.0000000001
 43
0.0000000001
 12
1.0
 22
0.0
 32
0.0
 13
1.0
 23
0.0
 33
0.0
 40
0.0
 40
0.0
 40
0.0
 40
0.0
 40
1.0
 40
1.0
 40
1.0
 40
2.0
 40
2.0
 40
2.0
 40
3.0
 40
3.0
 40
3.0
 40
4.0
 40
4.0
 40
4.0
 40
5.0
 40
5.0
 40
5.0
 40
6.0
 40
6.0
 40
6.0
 40
7.0
 40
7.0
 40
7.0
 40
8.0
 40
8.0
 40
8.0
 40
9.0
 40
9.0
 40
9.0
 40
10.0
 40
10.0
 40
10.0
 40
11.0
 40
11.0
 40
11.0
 40
12.0
 40
12.0
 40
12.0
 40
13.0
 40
13.0
 40
13.0
 40
14.0
 40
14.0
 40
14.0
 40
15.0
 40
15.0
 40
15.0
 40
16.0
 40
16.0
 40
16.0
 40
16.0
 10
92.43742402202953
 20
-141.8897026554998
 30
0.0
 10
92.36990015051865
 20
-141.8897026554998
 30
0.0
 10
92.28170570609625
 20
-141.8728216876221
 30
0.0
 10
92.1942002807709
 20
-141.8094319306935
 30
0.0
 10
92.043994117614
 20
-141.699533384714
 30
0.0
 10
92.02573511154218
 20
-141.568275246726
 30
0.0
 10
92.00919865321298
 20
-141.4604437580377
 30
0.0
 10
92.00919865321298
 20
-141.4604437580377
 30
0.0
 10
92.20143498128992
 20
-141.4604437580377
 30
0.0
 10
92.20143498128992
 20
-141.4604437580377
 30
0.0
 10
92.24897729898638
 20
-141.6592257675366
 30
0.0
 10
92.35887584496584
 20
-141.6888535887097
 30
0.0
 10
92.43914656977216
 20
-141.6888535887097
 30
0.0
 10
92.56006942130443
 20
-141.6888535887097
 30
0.0
 10
92.69167206884097
 20
-141.589290329186
 30
0.0
 10
92.69167206884097
 20
-141.3567463839317
 30
0.0
 10
92.69167206884097
 20
-141.1007757893776
 30
0.0
 10
92.53629826245621
 20
-141.030840351027
 30
0.0
 10
92.43191186925314
 20
-141.030840351027
 30
0.0
 10
92.40435110537113
 20
-141.030840351027
 30
0.0
 10
92.28170570609625
 20
-141.030840351027
 30
0.0
 10
92.20488007677517
 20
-141.1600314317239
 30
0.0
 10
92.20488007677517
 20
-141.1600314317239
 30
0.0
 10
92.05295136587566
 20
-141.141083406555
 30
0.0
 10
92.05295136587566
 20
-141.141083406555
 30
0.0
 10
92.05295136587566
 20
-141.141083406555
 30
0.0
 10
92.15733775907873
 20
-140.2946234458291
 30
0.0
 10
92.15733775907873
 20
-140.2946234458291
 30
0.0
 10
92.15733775907873
 20
-140.2946234458291
 30
0.0
 10
92.83085392644507
 20
-140.2946234458291
 30
0.0
 10
92.83085392644507
 20
-140.2946234458291
 30
0.0
 10
92.83085392644507
 20
-140.2946234458291
 30
0.0
 10
92.83085392644507
 20
-140.4892713407457
 30
0.0
 10
92.83085392644507
 20
-140.4892713407457
 30
0.0
 10
92.83085392644507
 20
-140.4892713407457
 30
0.0
 10
92.29824216442545
 20
-140.4892713407457
 30
0.0
 10
92.29824216442545
 20
-140.4892713407457
 30
0.0
 10
92.29824216442545
 20
-140.4892713407457
 30
0.0
 10
92.24174259846734
 20
-140.9123290663344
 30
0.0
 10
92.24174259846734
 20
-140.9123290663344
 30
0.0
 10
92.2947970689402
 20
-140.878567130579
 30
0.0
 10
92.36611054548487
 20
-140.8382595134015
 30
0.0
 10
92.46842988139679
 20
-140.8382595134015
 30
0.0
 10
92.68822697335573
 20
-140.8382595134015
 30
0.0
 10
92.8932101547281
 20
-141.0246391791536
 30
0.0
 10
92.8932101547281
 20
-141.3377983587628
 30
0.0
 10
92.8932101547281
 20
-141.6550916529543
 30
0.0
 10
92.69925127890852
 20
-141.8897026554998
 30
0.0
 10
92.43742402202953
 20
-141.8897026554998
 30
0.0
  0
HATCH
  5
92
330
8B
100
AcDbEntity
  8
_U+30EC_U+30A4_U+30E4_U+30FC 1
 62
   179
420
  2234388
100
AcDbHatch
 10
0.0
 20
0.0
 30
0.0
210
0.0
220
0.0
230
1.0
  2
SOLID
 70
     1
 71
     0
 91
        1
 92
        1
 93
        1
 72
     4
 94
        3
 73
     0
 74
     1
 95
       53
 96
       49
 40
0.0
 40
0.0
 40
0.0
 40
0.0
 40
1.0
 40
1.0
 40
1.0
 40
2.0
 40
2.0
 40
2.0
 40
3.0
 40
3.0
 40
3.0
 40
4.0
 40
4.0
 40
4.0
 40
5.0
 40
5.0
 40
5.0
 40
6.0
 40
6.0
 40
6.0
 40
7.0
 40
7.0
 40
7.0
 40
8.0
 40
8.0
 40
8.0
 40
9.0
 40
9.0
 40
9.0
 40
10.0
 40
10.0
 40
10.0
 40
11.0
 40
11.0
 40
11.0
 40
12.0
 40
12.0
 40
12.0
 40
13.0
 40
13.0
 40
13.0
 40
14.0
 40
14.0
 40
14.0
 40
15.0
 40
15.0
 40
15.0
 40
16.0
 40
16.0
 40
16.0
 40
16.0
 10
92.43742402202953
 20
-141.8897026554998
 10
92.36990015051865
 20
-141.8897026554998
 10
92.28170570609625
 20
-141.8728216876221
 10
92.1942002807709
 20
-141.8094319306935
 10
92.043994117614
 20
-141.699533384714
 10
92.02573511154218
 20
-141.568275246726
 10
92.00919865321298
 20
-141.4604437580377
 10
92.00919865321298
 20
-141.4604437580377
 10
92.20143498128992
 20
-141.4604437580377
 10
92.20143498128992
 20
-141.4604437580377
 10
92.24897729898638
 20
-141.6592257675366
 10
92.35887584496584
 20
-141.6888535887097
 10
92.43914656977216
 20
-141.6888535887097
 10
92.56006942130443
 20
-141.6888535887097
 10
92.69167206884097
 20
-141.589290329186
 10
92.69167206884097
 20
-141.3567463839317
 10
92.69167206884097
 20
-141.1007757893776
 10
92.53629826245621
 20
-141.030840351027
 10
92.43191186925314
 20
-141.030840351027
 10
92.40435110537113
 20
-141.030840351027
 10
92.28170570609625
 20
-141.030840351027
 10
92.20488007677517
 20
-141.1600314317239
 10
92.20488007677517
 20
-141.1600314317239
 10
92.05295136587566
 20
-141.141083406555
 10
92.05295136587566
 20
-141.141083406555
 10
92.05295136587566
 20
-141.141083406555
 10
92.15733775907873
 20
-140.2946234458291
 10
92.15733775907873
 20
-140.2946234458291
 10
92.15733775907873
 20
-140.2946234458291
 10
92.83085392644507
 20
-140.2946234458291
 10
92.83085392644507
 20
-140.2946234458291
 10
92.83085392644507
 20
-140.2946234458291
 10
92.83085392644507
 20
-140.4892713407457
 10
92.83085392644507
 20
-140.4892713407457
 10
92.83085392644507
 20
-140.4892713407457
 10
92.29824216442545
 20
-140.4892713407457
 10
92.29824216442545
 20
-140.4892713407457
 10
92.29824216442545
 20
-140.4892713407457
 10
92.24174259846734
 20
-140.9123290663344
 10
92.24174259846734
 20
-140.9123290663344
 10
92.2947970689402
 20
-140.878567130579
 10
92.36611054548487
 20
-140.8382595134015
 10
92.46842988139679
 20
-140.8382595134015
 10
92.68822697335573
 20
-140.8382595134015
 10
92.8932101547281
 20
-141.0246391791536
 10
92.8932101547281
 20
-141.3377983587628
 10
92.8932101547281
 20
-141.6550916529543
 10
92.69925127890852
 20
-141.8897026554998
 10
92.43742402202953
 20
-141.8897026554998
 97
        0
 97
        0
 75
     2
 76
     1
 98
        0
  0
ENDBLK
  5
8E
330
8B
100
AcDbEntity
  8
0
100
AcDbBlockEnd
  0
BLOCK
  5
A1
330
9F
100
AcDbEntity
  8
0
100
AcDbBlockBegin
  2
block 4
 70
     0
 10
0.0
 20
0.0
 30
0.0
  3
block 4
  1

  0
SPLINE
  5
A3
330
9F
100
AcDbEntity
  8
_U+30EC_U+30A4_U+30E4_U+30FC 1
370
     0
100
AcDbSpline
210
0.0
220
0.0
230
1.0
 70
    11
 71
     3
 72
    44
 73
    40
 74
     0
 42
0.0000000001
 43
0.0000000001
 12
1.0
 22
0.0
 32
0.0
 13
1.0
 23
0.0
 33
0.0
 40
0.0
 40
0.0
 40
0.0
 40
0.0
 40
1.0
 40
1.0
 40
1.0
 40
2.0
 40
2.0
 40
2.0
 40
3.0
 40
3.0
 40
3.0
 40
4.0
 40
4.0
 40
4.0
 40
5.0
 40
5.0
 40
5.0
 40
6.0
 40
6.0
 40
6.0
 40
7.0
 40
7.0
 40
7.0
 40
8.0
 40
8.0
 40
8.0
 40
9.0
 40
9.0
 40
9.0
 40
10.0
 40
10.0
 40
10.0
 40
11.0
 40
11.0
 40
11.0
 40
12.0
 40
12.0
 40
12.0
 40
13.0
 40
13.0
 40
13.0
 40
13.0
 10
74.50208467104463
 20
-126.5988185989927
 30
0.0
 10
74.66073131814038
 20
-126.7876098315843
 30
0.0
 10
74.73480087107325
 20
-126.8678805563907
 30
0.0
 10
74.87863360758243
 20
-126.9099107213107
 30
0.0
 10
74.87863360758243
 20
-126.9099107213107
 30
0.0
 10
74.87863360758243
 20
-126.2367390634929
 30
0.0
 10
74.87863360758243
 20
-126.2367390634929
 30
0.0
 10
74.87863360758243
 20
-126.2367390634929
 30
0.0
 10
75.08378904372906
 20
-126.2367390634929
 30
0.0
 10
75.08378904372906
 20
-126.2367390634929
 30
0.0
 10
75.08378904372906
 20
-126.2367390634929
 30
0.0
 10
75.08378904372906
 20
-127.1259182082359
 30
0.0
 10
75.08378904372906
 20
-127.1259182082359
 30
0.0
 10
74.72618813236012
 20
-127.0987019539024
 30
0.0
 10
74.64798446484495
 20
-127.0418578783958
 30
0.0
 10
74.34963919582232
 20
-126.7087171449721
 30
0.0
 10
74.1508571863234
 20
-126.4871975052706
 30
0.0
 10
74.08316106003824
 20
-126.4306979393125
 30
0.0
 10
73.94570175017677
 20
-126.4306979393125
 30
0.0
 10
73.82719046548418
 20
-126.4306979393125
 30
0.0
 10
73.69610458227042
 20
-126.492709658047
 30
0.0
 10
73.69610458227042
 20
-126.6628973750183
 30
0.0
 10
73.69610458227042
 20
-126.8882066197536
 30
0.0
 10
73.92658147023364
 20
-126.8954413202727
 30
0.0
 10
74.04302569763507
 20
-126.8992309253065
 30
0.0
 10
74.04302569763507
 20
-126.8992309253065
 30
0.0
 10
74.04302569763507
 20
-127.093189801126
 30
0.0
 10
74.04302569763507
 20
-127.093189801126
 30
0.0
 10
73.91607392900363
 20
-127.0856105910585
 30
0.0
 10
73.80393607095874
 20
-127.0766533427968
 30
0.0
 10
73.68542478626615
 20
-127.0070624139948
 30
0.0
 10
73.52471108187925
 20
-126.9119777786019
 30
0.0
 10
73.49077689134953
 20
-126.7507473098922
 30
0.0
 10
73.49077689134953
 20
-126.6501505217229
 30
0.0
 10
73.49077689134953
 20
-126.4103718759495
 30
0.0
 10
73.67491724503614
 20
-126.2312269107165
 30
0.0
 10
73.94776880746792
 20
-126.2312269107165
 30
0.0
 10
74.17617863813999
 20
-126.2312269107165
 30
0.0
 10
74.2757418976637
 20
-126.3318236988858
 30
0.0
 10
74.50208467104463
 20
-126.5988185989927
 30
0.0
  0
HATCH
  5
A4
330
9F
100
AcDbEntity
  8
_U+30EC_U+30A4_U+30E4_U+30FC 1
 62
   179
420
  2234388
100
AcDbHatch
 10
0.0
 20
0.0
 30
0.0
210
0.0
220
0.0
230
1.0
  2
SOLID
 70
     1
 71
     0
 91
        1
 92
        1
 93
        1
 72
     4
 94
        3
 73
     0
 74
     1
 95
       44
 96
       40
 40
0.0
 40
0.0
 40
0.0
 40
0.0
 40
1.0
 40
1.0
 40
1.0
 40
2.0
 40
2.0
 40
2.0
 40
3.0
 40
3.0
 40
3.0
 40
4.0
 40
4.0
 40
4.0
 40
5.0
 40
5.0
 40
5.0
 40
6.0
 40
6.0
 40
6.0
 40
7.0
 40
7.0
 40
7.0
 40
8.0
 40
8.0
 40
8.0
 40
9.0
 40
9.0
 40
9.0
 40
10.0
 40
10.0
 40
10.0
 40
11.0
 40
11.0
 40
11.0
 40
12.0
 40
12.0
 40
12.0
 40
13.0
 40
13.0
 40
13.0
 40
13.0
 10
74.50208467104463
 20
-126.5988185989927
 10
74.66073131814038
 20
-126.7876098315843
 10
74.73480087107325
 20
-126.8678805563907
 10
74.87863360758243
 20
-126.9099107213107
 10
74.87863360758243
 20
-126.9099107213107
 10
74.87863360758243
 20
-126.2367390634929
 10
74.87863360758243
 20
-126.2367390634929
 10
74.87863360758243
 20
-126.2367390634929
 10
75.08378904372906
 20
-126.2367390634929
 10
75.08378904372906
 20
-126.2367390634929
 10
75.08378904372906
 20
-126.2367390634929
 10
75.08378904372906
 20
-127.1259182082359
 10
75.08378904372906
 20
-127.1259182082359
 10
74.72618813236012
 20
-127.0987019539024
 10
74.64798446484495
 20
-127.0418578783958
 10
74.34963919582232
 20
-126.7087171449721
 10
74.1508571863234
 20
-126.4871975052706
 10
74.08316106003824
 20
-126.4306979393125
 10
73.94570175017677
 20
-126.4306979393125
 10
73.82719046548418
 20
-126.4306979393125
 10
73.69610458227042
 20
-126.492709658047
 10
73.69610458227042
 20
-126.6628973750183
 10
73.69610458227042
 20
-126.8882066197536
 10
73.92658147023364
 20
-126.8954413202727
 10
74.04302569763507
 20
-126.8992309253065
 10
74.04302569763507
 20
-126.8992309253065
 10
74.04302569763507
 20
-127.093189801126
 10
74.04302569763507
 20
-127.093189801126
 10
73.91607392900363
 20
-127.0856105910585
 10
73.80393607095874
 20
-127.0766533427968
 10
73.68542478626615
 20
-127.0070624139948
 10
73.52471108187925
 20
-126.9119777786019
 10
73.49077689134953
 20
-126.7507473098922
 10
73.49077689134953
 20
-126.6501505217229
 10
73.49077689134953
 20
-126.4103718759495
 10
73.67491724503614
 20
-126.2312269107165
 10
73.94776880746792
 20
-126.2312269107165
 10
74.17617863813999
 20
-126.2312269107165
 10
74.2757418976637
 20
-126.3318236988858
 10
74.50208467104463
 20
-126.5988185989927
 97
        0
 97
        0
 75
     2
 76
     1
 98
        0
  0
SPLINE
  5
A5
330
9F
100
AcDbEntity
  8
_U+30EC_U+30A4_U+30E4_U+30FC 1
370
     0
100
AcDbSpline
210
0.0
220
0.0
230
1.0
 70
    11
 71
     3
 72
    53
 73
    49
 74
     0
 42
0.0000000001
 43
0.0000000001
 12
1.0
 22
0.0
 32
0.0
 13
1.0
 23
0.0
 33
0.0
 40
0.0
 40
0.0
 40
0.0
 40
0.0
 40
1.0
 40
1.0
 40
1.0
 40
2.0
 40
2.0
 40
2.0
 40
3.0
 40
3.0
 40
3.0
 40
4.0
 40
4.0
 40
4.0
 40
5.0
 40
5.0
 40
5.0
 40
6.0
 40
6.0
 40
6.0
 40
7.0
 40
7.0
 40
7.0
 40
8.0
 40
8.0
 40
8.0
 40
9.0
 40
9.0
 40
9.0
 40
10.0
 40
10.0
 40
10.0
 40
11.0
 40
11.0
 40
11.0
 40
12.0
 40
12.0
 40
12.0
 40
13.0
 40
13.0
 40
13.0
 40
14.0
 40
14.0
 40
14.0
 40
15.0
 40
15.0
 40
15.0
 40
16.0
 40
16.0
 40
16.0
 40
16.0
 10
75.13460420213649
 20
-125.6786335948824
 30
0.0
 10
75.13460420213649
 20
-125.7461574663933
 30
0.0
 10
75.1175509794845
 20
-125.8343519108157
 30
0.0
 10
75.0541612225559
 20
-125.9218573361411
 30
0.0
 10
74.94409042180217
 20
-126.072063499298
 30
0.0
 10
74.81300453858842
 20
-126.0903225053698
 30
0.0
 10
74.7051730499001
 20
-126.106858963699
 30
0.0
 10
74.7051730499001
 20
-126.106858963699
 30
0.0
 10
74.7051730499001
 20
-125.914622635622
 30
0.0
 10
74.7051730499001
 20
-125.914622635622
 30
0.0
 10
74.90395505939901
 20
-125.8670803179256
 30
0.0
 10
74.93358288057216
 20
-125.7571817719461
 30
0.0
 10
74.93358288057216
 20
-125.6769110471398
 30
0.0
 10
74.93358288057216
 20
-125.5559881956075
 30
0.0
 10
74.83419187582271
 20
-125.424385548071
 30
0.0
 10
74.60147567579408
 20
-125.424385548071
 30
0.0
 10
74.34550508124002
 20
-125.424385548071
 30
0.0
 10
74.2757418976637
 20
-125.5797593544558
 30
0.0
 10
74.2757418976637
 20
-125.6841457476588
 30
0.0
 10
74.2757418976637
 20
-125.7117065115408
 30
0.0
 10
74.2757418976637
 20
-125.8343519108157
 30
0.0
 10
74.4047607235863
 20
-125.9111775401368
 30
0.0
 10
74.4047607235863
 20
-125.9111775401368
 30
0.0
 10
74.38564044364318
 20
-126.0631062510363
 30
0.0
 10
74.38564044364318
 20
-126.0631062510363
 30
0.0
 10
74.38564044364318
 20
-126.0631062510363
 30
0.0
 10
73.53952499246581
 20
-125.9587198578332
 30
0.0
 10
73.53952499246581
 20
-125.9587198578332
 30
0.0
 10
73.53952499246581
 20
-125.9587198578332
 30
0.0
 10
73.53952499246581
 20
-125.2852036904669
 30
0.0
 10
73.53952499246581
 20
-125.2852036904669
 30
0.0
 10
73.53952499246581
 20
-125.2852036904669
 30
0.0
 10
73.73417288738243
 20
-125.2852036904669
 30
0.0
 10
73.73417288738243
 20
-125.2852036904669
 30
0.0
 10
73.73417288738243
 20
-125.2852036904669
 30
0.0
 10
73.73417288738243
 20
-125.8178154524865
 30
0.0
 10
73.73417288738243
 20
-125.8178154524865
 30
0.0
 10
73.73417288738243
 20
-125.8178154524865
 30
0.0
 10
74.15723061297112
 20
-125.8743150184446
 30
0.0
 10
74.15723061297112
 20
-125.8743150184446
 30
0.0
 10
74.1232964224414
 20
-125.8212605479718
 30
0.0
 10
74.08316106003824
 20
-125.7499470714271
 30
0.0
 10
74.08316106003824
 20
-125.6476277355152
 30
0.0
 10
74.08316106003824
 20
-125.4278306435562
 30
0.0
 10
74.269368471016
 20
-125.2228474621839
 30
0.0
 10
74.58235539585094
 20
-125.2228474621839
 30
0.0
 10
74.89982094481671
 20
-125.2228474621839
 30
0.0
 10
75.13460420213649
 20
-125.4168063380034
 30
0.0
 10
75.13460420213649
 20
-125.6786335948824
 30
0.0
  0
HATCH
  5
A6
330
9F
100
AcDbEntity
  8
_U+30EC_U+30A4_U+30E4_U+30FC 1
 62
   179
420
  2234388
100
AcDbHatch
 10
0.0
 20
0.0
 30
0.0
210
0.0
220
0.0
230
1.0
  2
SOLID
 70
     1
 71
     0
 91
        1
 92
        1
 93
        1
 72
     4
 94
        3
 73
     0
 74
     1
 95
       53
 96
       49
 40
0.0
 40
0.0
 40
0.0
 40
0.0
 40
1.0
 40
1.0
 40
1.0
 40
2.0
 40
2.0
 40
2.0
 40
3.0
 40
3.0
 40
3.0
 40
4.0
 40
4.0
 40
4.0
 40
5.0
 40
5.0
 40
5.0
 40
6.0
 40
6.0
 40
6.0
 40
7.0
 40
7.0
 40
7.0
 40
8.0
 40
8.0
 40
8.0
 40
9.0
 40
9.0
 40
9.0
 40
10.0
 40
10.0
 40
10.0
 40
11.0
 40
11.0
 40
11.0
 40
12.0
 40
12.0
 40
12.0
 40
13.0
 40
13.0
 40
13.0
 40
14.0
 40
14.0
 40
14.0
 40
15.0
 40
15.0
 40
15.0
 40
16.0
 40
16.0
 40
16.0
 40
16.0
 10
75.13460420213649
 20
-125.6786335948824
 10
75.13460420213649
 20
-125.7461574663933
 10
75.1175509794845
 20
-125.8343519108157
 10
75.0541612225559
 20
-125.9218573361411
 10
74.94409042180217
 20
-126.072063499298
 10
74.81300453858842
 20
-126.0903225053698
 10
74.7051730499001
 20
-126.106858963699
 10
74.7051730499001
 20
-126.106858963699
 10
74.7051730499001
 20
-125.914622635622
 10
74.7051730499001
 20
-125.914622635622
 10
74.90395505939901
 20
-125.8670803179256
 10
74.93358288057216
 20
-125.7571817719461
 10
74.93358288057216
 20
-125.6769110471398
 10
74.93358288057216
 20
-125.5559881956075
 10
74.83419187582271
 20
-125.424385548071
 10
74.60147567579408
 20
-125.424385548071
 10
74.34550508124002
 20
-125.424385548071
 10
74.2757418976637
 20
-125.5797593544558
 10
74.2757418976637
 20
-125.6841457476588
 10
74.2757418976637
 20
-125.7117065115408
 10
74.2757418976637
 20
-125.8343519108157
 10
74.4047607235863
 20
-125.9111775401368
 10
74.4047607235863
 20
-125.9111775401368
 10
74.38564044364318
 20
-126.0631062510363
 10
74.38564044364318
 20
-126.0631062510363
 10
74.38564044364318
 20
-126.0631062510363
 10
73.53952499246581
 20
-125.9587198578332
 10
73.53952499246581
 20
-125.9587198578332
 10
73.53952499246581
 20
-125.9587198578332
 10
73.53952499246581
 20
-125.2852036904669
 10
73.53952499246581
 20
-125.2852036904669
 10
73.53952499246581
 20
-125.2852036904669
 10
73.73417288738243
 20
-125.2852036904669
 10
73.73417288738243
 20
-125.2852036904669
 10
73.73417288738243
 20
-125.2852036904669
 10
73.73417288738243
 20
-125.8178154524865
 10
73.73417288738243
 20
-125.8178154524865
 10
73.73417288738243
 20
-125.8178154524865
 10
74.15723061297112
 20
-125.8743150184446
 10
74.15723061297112
 20
-125.8743150184446
 10
74.1232964224414
 20
-125.8212605479718
 10
74.08316106003824
 20
-125.7499470714271
 10
74.08316106003824
 20
-125.6476277355152
 10
74.08316106003824
 20
-125.4278306435562
 10
74.269368471016
 20
-125.2228474621839
 10
74.58235539585094
 20
-125.2228474621839
 10
74.89982094481671
 20
-125.2228474621839
 10
75.13460420213649
 20
-125.4168063380034
 10
75.13460420213649
 20
-125.6786335948824
 97
        0
 97
        0
 75
     2
 76
     1
 98
        0
  0
ENDBLK
  5
A2
330
9F
100
AcDbEntity
  8
0
100
AcDbBlockEnd
  0
ENDSEC
  0
SECTION
  2
ENTITIES
  0
POLYLINE
  5
41
330
1F
100
AcDbEntity
  8
_U+30EC_U+30A4_U+30E4_U+30FC 1
 62
   179
420
  2234388
370
    25
100
AcDb2dPolyline
 66
     1
 10
0.0
 20
0.0
 30
0.0
  0
VERTEX
  5
42
330
41
100
AcDbEntity
  8
_U+30EC_U+30A4_U+30E4_U+30FC 1
 62
   179
420
  2234388
370
    25
100
AcDbVertex
100
AcDb2dVertex
 10
104.6805939960422
 20
-136.9363388546545
 30
0.0
  0
VERTEX
  5
43
330
41
100
AcDbEntity
  8
_U+30EC_U+30A4_U+30E4_U+30FC 1
 62
   179
420
  2234388
370
    25
100
AcDbVertex
100
AcDb2dVertex
 10
104.6805939960422
 20
-138.4363499653908
 30
0.0
  0
SEQEND
  5
44
330
41
100
AcDbEntity
  8
_U+30EC_U+30A4_U+30E4_U+30FC 1
 62
   179
420
  2234388
370
    25
  0
POLYLINE
  5
45
330
1F
100
AcDbEntity
  8
_U+30EC_U+30A4_U+30E4_U+30FC 1
 62
   179
420
  2234388
370
    25
100
AcDb2dPolyline
 66
     1
 10
0.0
 20
0.0
 30
0.0
  0
VERTEX
  5
46
330
45
100
AcDbEntity
  8
_U+30EC_U+30A4_U+30E4_U+30FC 1
 62
   179
420
  2234388
370
    25
100
AcDbVertex
100
AcDb2dVertex
 10
79.68039768940592
 20
-138.4363499653908
 30
0.0
  0
VERTEX
  5
47
330
45
100
AcDbEntity
  8
_U+30EC_U+30A4_U+30E4_U+30FC 1
 62
   179
420
  2234388
370
    25
100
AcDbVertex
100
AcDb2dVertex
 10
104.6805939960422
 20
-138.4363499653908
 30
0.0
  0
SEQEND
  5
48
330
45
100
AcDbEntity
  8
_U+30EC_U+30A4_U+30E4_U+30FC 1
 62
   179
420
  2234388
370
    25
  0
POLYLINE
  5
49
330
1F
100
AcDbEntity
  8
_U+30EC_U+30A4_U+30E4_U+30FC 1
 62
   179
420
  2234388
370
    25
100
AcDb2dPolyline
 66
     1
 10
0.0
 20
0.0
 30
0.0
  0
VERTEX
  5
4A
330
49
100
AcDbEntity
  8
_U+30EC_U+30A4_U+30E4_U+30FC 1
 62
   179
420
  2234388
370
    25
100
AcDbVertex
100
AcDb2dVertex
 10
81.18040876224856
 20
-136.9363388546545
 30
0.0
  0
VERTEX
  5
4B
330
49
100
AcDbEntity
  8
_U+30EC_U+30A4_U+30E4_U+30FC 1
 62
   179
420
  2234388
370
    25
100
AcDbVertex
100
AcDb2dVertex
 10
104.6805939960422
 20
-136.9363388546545
 30
0.0
  0
SEQEND
  5
4C
330
49
100
AcDbEntity
  8
_U+30EC_U+30A4_U+30E4_U+30FC 1
 62
   179
420
  2234388
370
    25
  0
POLYLINE
  5
4D
330
1F
100
AcDbEntity
  8
_U+30EC_U+30A4_U+30E4_U+30FC 1
 62
   179
420
  2234388
370
    25
100
AcDb2dPolyline
 66
     1
 10
0.0
 20
0.0
 30
0.0
  0
VERTEX
  5
4E
330
4D
100
AcDbEntity
  8
_U+30EC_U+30A4_U+30E4_U+30FC 1
 62
   179
420
  2234388
370
    25
100
AcDbVertex
100
AcDb2dVertex
 10
79.68039768940592
 20
-113.4363294160854
 30
0.0
  0
VERTEX
  5
4F
330
4D
100
AcDbEntity
  8
_U+30EC_U+30A4_U+30E4_U+30FC 1
 62
   179
420
  2234388
370
    25
100
AcDbVertex
100
AcDb2dVertex
 10
79.68039768940592
 20
-138.4363499653908
 30
0.0
  0
SEQEND
  5
50
330
4D
100
AcDbEntity
  8
_U+30EC_U+30A4_U+30E4_U+30FC 1
 62
   179
420
  2234388
370
    25
  0
POLYLINE
  5
51
330
1F
100
AcDbEntity
  8
_U+30EC_U+30A4_U+30E4_U+30FC 1
 62
   179
420
  2234388
370
    25
100
AcDb2dPolyline
 66
     1
 10
0.0
 20
0.0
 30
0.0
  0
VERTEX
  5
52
330
51
100
AcDbEntity
  8
_U+30EC_U+30A4_U+30E4_U+30FC 1
 62
   179
420
  2234388
370
    25
100
AcDbVertex
100
AcDb2dVertex
 10
79.68039768940592
 20
-113.4363294160854
 30
0.0
  0
VERTEX
  5
53
330
51
100
AcDbEntity
  8
_U+30EC_U+30A4_U+30E4_U+30FC 1
 62
   179
420
  2234388
370
    25
100
AcDbVertex
100
AcDb2dVertex
 10
81.18040876224856
 20
-113.4363294160854
 30
0.0
  0
SEQEND
  5
54
330
51
100
AcDbEntity
  8
_U+30EC_U+30A4_U+30E4_U+30FC 1
 62
   179
420
  2234388
370
    25
  0
POLYLINE
  5
55
330
1F
100
AcDbEntity
  8
_U+30EC_U+30A4_U+30E4_U+30FC 1
 62
   179
420
  2234388
370
    25
100
AcDb2dPolyline
 66
     1
 10
0.0
 20
0.0
 30
0.0
  0
VERTEX
  5
56
330
55
100
AcDbEntity
  8
_U+30EC_U+30A4_U+30E4_U+30FC 1
 62
   179
420
  2234388
370
    25
100
AcDbVertex
100
AcDb2dVertex
 10
81.18040876224856
 20
-113.4363294160854
 30
0.0
  0
VERTEX
  5
57
330
55
100
AcDbEntity
  8
_U+30EC_U+30A4_U+30E4_U+30FC 1
 62
   179
420
  2234388
370
    25
100
AcDbVertex
100
AcDb2dVertex
 10
81.18040876224856
 20
-136.9363388546545
 30
0.0
  0
SEQEND
  5
58
330
55
100
AcDbEntity
  8
_U+30EC_U+30A4_U+30E4_U+30FC 1
 62
   179
420
  2234388
370
    25
  0
SPLINE
  5
59
330
1F
100
AcDbEntity
  8
_U+30EC_U+30A4_U+30E4_U+30FC 1
 62
   179
420
  2234388
370
     9
100
AcDbSpline
210
0.0
220
0.0
230
1.0
 70
    11
 71
     3
 72
    17
 73
    13
 74
     0
 42
0.0000000001
 43
0.0000000001
 12
1.0
 22
0.0
 32
0.0
 13
1.0
 23
0.0
 33
0.0
 40
0.0
 40
0.0
 40
0.0
 40
0.0
 40
1.0
 40
1.0
 40
1.0
 40
2.0
 40
2.0
 40
2.0
 40
3.0
 40
3.0
 40
3.0
 40
4.0
 40
4.0
 40
4.0
 40
4.0
 10
107.5455375340625
 20
-138.4363499653908
 30
0.0
 10
107.5455375340625
 20
-138.3808580209606
 30
0.0
 10
107.5007700352047
 20
-138.3360905209714
 30
0.0
 10
107.4456308699447
 20
-138.3360905209714
 30
0.0
 10
107.3905269824616
 20
-138.3360905209714
 30
0.0
 10
107.3457242058269
 20
-138.3808580209606
 30
0.0
 10
107.3457242058269
 20
-138.4363499653908
 30
0.0
 10
107.3457242058269
 20
-138.4914538542657
 30
0.0
 10
107.3905269824616
 20
-138.5362566320324
 30
0.0
 10
107.4456308699447
 20
-138.5362566320324
 30
0.0
 10
107.5007700352047
 20
-138.5362566320324
 30
0.0
 10
107.5455375340625
 20
-138.4914538542657
 30
0.0
 10
107.5455375340625
 20
-138.4363499653908
 30
0.0
  0
SPLINE
  5
5A
330
1F
100
AcDbEntity
  8
_U+30EC_U+30A4_U+30E4_U+30FC 1
 62
   179
420
  2234388
370
     9
100
AcDbSpline
210
0.0
220
0.0
230
1.0
 70
    11
 71
     3
 72
    17
 73
    13
 74
     0
 42
0.0000000001
 43
0.0000000001
 12
1.0
 22
0.0
 32
0.0
 13
1.0
 23
0.0
 33
0.0
 40
0.0
 40
0.0
 40
0.0
 40
0.0
 40
1.0
 40
1.0
 40
1.0
 40
2.0
 40
2.0
 40
2.0
 40
3.0
 40
3.0
 40
3.0
 40
4.0
 40
4.0
 40
4.0
 40
4.0
 10
104.7805006601601
 20
-142.4361091310577
 30
0.0
 10
104.7805006601601
 20
-142.3809699644046
 30
0.0
 10
104.7357331613022
 20
-142.3362024644161
 30
0.0
 10
104.6805939960422
 20
-142.3362024644161
 30
0.0
 10
104.6254901085591
 20
-142.3362024644161
 30
0.0
 10
104.5806873319244
 20
-142.3809699644046
 30
0.0
 10
104.5806873319244
 20
-142.4361091310577
 30
0.0
 10
104.5806873319244
 20
-142.4915657977104
 30
0.0
 10
104.6254901085591
 20
-142.5360157976993
 30
0.0
 10
104.6805939960422
 20
-142.5360157976993
 30
0.0
 10
104.7357331613022
 20
-142.5360157976993
 30
0.0
 10
104.7805006601601
 20
-142.4915657977104
 30
0.0
 10
104.7805006601601
 20
-142.4361091310577
 30
0.0
  0
SPLINE
  5
5B
330
1F
100
AcDbEntity
  8
_U+30EC_U+30A4_U+30E4_U+30FC 1
 62
   179
420
  2234388
370
     9
100
AcDbSpline
210
0.0
220
0.0
230
1.0
 70
    11
 71
     3
 72
    17
 73
    13
 74
     0
 42
0.0000000001
 43
0.0000000001
 12
1.0
 22
0.0
 32
0.0
 13
1.0
 23
0.0
 33
0.0
 40
0.0
 40
0.0
 40
0.0
 40
0.0
 40
1.0
 40
1.0
 40
1.0
 40
2.0
 40
2.0
 40
2.0
 40
3.0
 40
3.0
 40
3.0
 40
4.0
 40
4.0
 40
4.0
 40
4.0
 10
107.5455375340625
 20
-136.9363388546545
 30
0.0
 10
107.5455375340625
 20
-136.8808821880019
 30
0.0
 10
107.5007700352047
 20
-136.8360794102352
 30
0.0
 10
107.4456308699447
 20
-136.8360794102352
 30
0.0
 10
107.3905269824616
 20
-136.8360794102352
 30
0.0
 10
107.3457242058269
 20
-136.8808821880019
 30
0.0
 10
107.3457242058269
 20
-136.9363388546545
 30
0.0
 10
107.3457242058269
 20
-136.9914780213076
 30
0.0
 10
107.3905269824616
 20
-137.0362455212962
 30
0.0
 10
107.4456308699447
 20
-137.0362455212962
 30
0.0
 10
107.5007700352047
 20
-137.0362455212962
 30
0.0
 10
107.5455375340625
 20
-136.9914780213076
 30
0.0
 10
107.5455375340625
 20
-136.9363388546545
 30
0.0
  0
SPLINE
  5
5C
330
1F
100
AcDbEntity
  8
_U+30EC_U+30A4_U+30E4_U+30FC 1
 62
   179
420
  2234388
370
     9
100
AcDbSpline
210
0.0
220
0.0
230
1.0
 70
    11
 71
     3
 72
    17
 73
    13
 74
     0
 42
0.0000000001
 43
0.0000000001
 12
1.0
 22
0.0
 32
0.0
 13
1.0
 23
0.0
 33
0.0
 40
0.0
 40
0.0
 40
0.0
 40
0.0
 40
1.0
 40
1.0
 40
1.0
 40
2.0
 40
2.0
 40
2.0
 40
3.0
 40
3.0
 40
3.0
 40
4.0
 40
4.0
 40
4.0
 40
4.0
 10
75.78054720327698
 20
-113.4363294160854
 30
0.0
 10
75.78054720327698
 20
-113.3811902494324
 30
0.0
 10
75.73577779004155
 20
-113.3364227494438
 30
0.0
 10
75.68046223589722
 20
-113.3364227494438
 30
0.0
 10
75.62518195952975
 20
-113.3364227494438
 30
0.0
 10
75.58055557177939
 20
-113.3811902494324
 30
0.0
 10
75.58055557177939
 20
-113.4363294160854
 30
0.0
 10
75.58055557177939
 20
-113.4914333049604
 30
0.0
 10
75.62518195952975
 20
-113.5362360827271
 30
0.0
 10
75.68046223589722
 20
-113.5362360827271
 30
0.0
 10
75.73577779004155
 20
-113.5362360827271
 30
0.0
 10
75.78054720327698
 20
-113.4914333049604
 30
0.0
 10
75.78054720327698
 20
-113.4363294160854
 30
0.0
  0
SPLINE
  5
5D
330
1F
100
AcDbEntity
  8
_U+30EC_U+30A4_U+30E4_U+30FC 1
 62
   179
420
  2234388
370
     9
100
AcDbSpline
210
0.0
220
0.0
230
1.0
 70
    11
 71
     3
 72
    17
 73
    13
 74
     0
 42
0.0000000001
 43
0.0000000001
 12
1.0
 22
0.0
 32
0.0
 13
1.0
 23
0.0
 33
0.0
 40
0.0
 40
0.0
 40
0.0
 40
0.0
 40
1.0
 40
1.0
 40
1.0
 40
2.0
 40
2.0
 40
2.0
 40
3.0
 40
3.0
 40
3.0
 40
4.0
 40
4.0
 40
4.0
 40
4.0
 10
75.78054720327698
 20
-138.4363499653908
 30
0.0
 10
75.78054720327698
 20
-138.3808580209606
 30
0.0
 10
75.73577779004155
 20
-138.3360905209714
 30
0.0
 10
75.68046223589722
 20
-138.3360905209714
 30
0.0
 10
75.62518195952975
 20
-138.3360905209714
 30
0.0
 10
75.58055557177939
 20
-138.3808580209606
 30
0.0
 10
75.58055557177939
 20
-138.4363499653908
 30
0.0
 10
75.58055557177939
 20
-138.4914538542657
 30
0.0
 10
75.62518195952975
 20
-138.5362566320324
 30
0.0
 10
75.68046223589722
 20
-138.5362566320324
 30
0.0
 10
75.73577779004155
 20
-138.5362566320324
 30
0.0
 10
75.78054720327698
 20
-138.4914538542657
 30
0.0
 10
75.78054720327698
 20
-138.4363499653908
 30
0.0
  0
SPLINE
  5
5E
330
1F
100
AcDbEntity
  8
_U+30EC_U+30A4_U+30E4_U+30FC 1
 62
   179
420
  2234388
370
     9
100
AcDbSpline
210
0.0
220
0.0
230
1.0
 70
    11
 71
     3
 72
    17
 73
    13
 74
     0
 42
0.0000000001
 43
0.0000000001
 12
1.0
 22
0.0
 32
0.0
 13
1.0
 23
0.0
 33
0.0
 40
0.0
 40
0.0
 40
0.0
 40
0.0
 40
1.0
 40
1.0
 40
1.0
 40
2.0
 40
2.0
 40
2.0
 40
3.0
 40
3.0
 40
3.0
 40
4.0
 40
4.0
 40
4.0
 40
4.0
 10
79.78048074240814
 20
-142.4361091310577
 30
0.0
 10
79.78048074240814
 20
-142.3809699644046
 30
0.0
 10
79.73571324355026
 20
-142.3362024644161
 30
0.0
 10
79.68039768940592
 20
-142.3362024644161
 30
0.0
 10
79.62529380192285
 20
-142.3362024644161
 30
0.0
 10
79.58049102528808
 20
-142.3809699644046
 30
0.0
 10
79.58049102528808
 20
-142.4361091310577
 30
0.0
 10
79.58049102528808
 20
-142.4915657977104
 30
0.0
 10
79.62529380192285
 20
-142.5360157976993
 30
0.0
 10
79.68039768940592
 20
-142.5360157976993
 30
0.0
 10
79.73571324355026
 20
-142.5360157976993
 30
0.0
 10
79.78048074240814
 20
-142.4915657977104
 30
0.0
 10
79.78048074240814
 20
-142.4361091310577
 30
0.0
  0
POLYLINE
  5
5F
330
1F
100
AcDbEntity
  8
_U+30EC_U+30A4_U+30E4_U+30FC 1
 62
   179
420
  2234388
370
     9
100
AcDb2dPolyline
 66
     1
 10
0.0
 20
0.0
 30
0.0
  0
VERTEX
  5
60
330
5F
100
AcDbEntity
  8
_U+30EC_U+30A4_U+30E4_U+30FC 1
 62
   179
420
  2234388
370
     9
100
AcDbVertex
100
AcDb2dVertex
 10
107.4456308699447
 20
-136.9363388546545
 30
0.0
  0
VERTEX
  5
61
330
5F
100
AcDbEntity
  8
_U+30EC_U+30A4_U+30E4_U+30FC 1
 62
   179
420
  2234388
370
     9
100
AcDbVertex
100
AcDb2dVertex
 10
107.4456308699447
 20
-131.2698458005156
 30
0.0
  0
SEQEND
  5
62
330
5F
100
AcDbEntity
  8
_U+30EC_U+30A4_U+30E4_U+30FC 1
 62
   179
420
  2234388
370
     9
  0
POLYLINE
  5
63
330
1F
100
AcDbEntity
  8
_U+30EC_U+30A4_U+30E4_U+30FC 1
 62
   179
420
  2234388
370
     9
100
AcDb2dPolyline
 66
     1
 10
0.0
 20
0.0
 30
0.0
  0
VERTEX
  5
64
330
63
100
AcDbEntity
  8
_U+30EC_U+30A4_U+30E4_U+30FC 1
 62
   179
420
  2234388
370
     9
100
AcDbVertex
100
AcDb2dVertex
 10
107.4456308699447
 20
-136.9363388546545
 30
0.0
  0
VERTEX
  5
65
330
63
100
AcDbEntity
  8
_U+30EC_U+30A4_U+30E4_U+30FC 1
 62
   179
420
  2234388
370
     9
100
AcDbVertex
100
AcDb2dVertex
 10
107.4456308699447
 20
-139.4361221873633
 30
0.0
  0
SEQEND
  5
66
330
63
100
AcDbEntity
  8
_U+30EC_U+30A4_U+30E4_U+30FC 1
 62
   179
420
  2234388
370
     9
  0
POLYLINE
  5
67
330
1F
100
AcDbEntity
  8
_U+30EC_U+30A4_U+30E4_U+30FC 1
 62
   179
420
  2234388
370
     9
100
AcDb2dPolyline
 66
     1
 10
0.0
 20
0.0
 30
0.0
  0
VERTEX
  5
68
330
67
100
AcDbEntity
  8
_U+30EC_U+30A4_U+30E4_U+30FC 1
 62
   179
420
  2234388
370
     9
100
AcDbVertex
100
AcDb2dVertex
 10
105.9855895183046
 20
-136.9363388546545
 30
0.0
  0
VERTEX
  5
69
330
67
100
AcDbEntity
  8
_U+30EC_U+30A4_U+30E4_U+30FC 1
 62
   179
420
  2234388
370
     9
100
AcDbVertex
100
AcDb2dVertex
 10
108.4461086221982
 20
-136.9363388546545
 30
0.0
  0
SEQEND
  5
6A
330
67
100
AcDbEntity
  8
_U+30EC_U+30A4_U+30E4_U+30FC 1
 62
   179
420
  2234388
370
     9
  0
POLYLINE
  5
6B
330
1F
100
AcDbEntity
  8
_U+30EC_U+30A4_U+30E4_U+30FC 1
 62
   179
420
  2234388
370
     9
100
AcDb2dPolyline
 66
     1
 10
0.0
 20
0.0
 30
0.0
  0
VERTEX
  5
6C
330
6B
100
AcDbEntity
  8
_U+30EC_U+30A4_U+30E4_U+30FC 1
 62
   179
420
  2234388
370
     9
100
AcDbVertex
100
AcDb2dVertex
 10
105.9855895183046
 20
-138.4363499653908
 30
0.0
  0
VERTEX
  5
6D
330
6B
100
AcDbEntity
  8
_U+30EC_U+30A4_U+30E4_U+30FC 1
 62
   179
420
  2234388
370
     9
100
AcDbVertex
100
AcDb2dVertex
 10
108.4461086221982
 20
-138.4363499653908
 30
0.0
  0
SEQEND
  5
6E
330
6B
100
AcDbEntity
  8
_U+30EC_U+30A4_U+30E4_U+30FC 1
 62
   179
420
  2234388
370
     9
  0
INSERT
  5
70
330
1F
100
AcDbEntity
  8
_U+30EC_U+30A4_U+30E4_U+30FC 1
100
AcDbBlockReference
  2
block 2
 10
0.0
 20
0.0
 30
0.0
  0
POLYLINE
  5
7F
330
1F
100
AcDbEntity
  8
_U+30EC_U+30A4_U+30E4_U+30FC 1
 62
   179
420
  2234388
370
     9
100
AcDb2dPolyline
 66
     1
 10
0.0
 20
0.0
 30
0.0
  0
VERTEX
  5
80
330
7F
100
AcDbEntity
  8
_U+30EC_U+30A4_U+30E4_U+30FC 1
 62
   179
420
  2234388
370
     9
100
AcDbVertex
100
AcDb2dVertex
 10
79.68039768940592
 20
-142.4361091310577
 30
0.0
  0
VERTEX
  5
81
330
7F
100
AcDbEntity
  8
_U+30EC_U+30A4_U+30E4_U+30FC 1
 62
   179
420
  2234388
370
     9
100
AcDbVertex
100
AcDb2dVertex
 10
104.6805939960422
 20
-142.4361091310577
 30
0.0
  0
SEQEND
  5
82
330
7F
100
AcDbEntity
  8
_U+30EC_U+30A4_U+30E4_U+30FC 1
 62
   179
420
  2234388
370
     9
  0
POLYLINE
  5
83
330
1F
100
AcDbEntity
  8
_U+30EC_U+30A4_U+30E4_U+30FC 1
 62
   179
420
  2234388
370
     9
100
AcDb2dPolyline
 66
     1
 10
0.0
 20
0.0
 30
0.0
  0
VERTEX
  5
84
330
83
100
AcDbEntity
  8
_U+30EC_U+30A4_U+30E4_U+30FC 1
 62
   179
420
  2234388
370
     9
100
AcDbVertex
100
AcDb2dVertex
 10
79.68039768940592
 20
-140.976067742534
 30
0.0
  0
VERTEX
  5
85
330
83
100
AcDbEntity
  8
_U+30EC_U+30A4_U+30E4_U+30FC 1
 62
   179
420
  2234388
370
     9
100
AcDbVertex
100
AcDb2dVertex
 10
79.68039768940592
 20
-143.4361988530298
 30
0.0
  0
SEQEND
  5
86
330
83
100
AcDbEntity
  8
_U+30EC_U+30A4_U+30E4_U+30FC 1
 62
   179
420
  2234388
370
     9
  0
POLYLINE
  5
87
330
1F
100
AcDbEntity
  8
_U+30EC_U+30A4_U+30E4_U+30FC 1
 62
   179
420
  2234388
370
     9
100
AcDb2dPolyline
 66
     1
 10
0.0
 20
0.0
 30
0.0
  0
VERTEX
  5
88
330
87
100
AcDbEntity
  8
_U+30EC_U+30A4_U+30E4_U+30FC 1
 62
   179
420
  2234388
370
     9
100
AcDbVertex
100
AcDb2dVertex
 10
104.6805939960422
 20
-140.976067742534
 30
0.0
  0
VERTEX
  5
89
330
87
100
AcDbEntity
  8
_U+30EC_U+30A4_U+30E4_U+30FC 1
 62
   179
420
  2234388
370
     9
100
AcDbVertex
100
AcDb2dVertex
 10
104.6805939960422
 20
-143.4361988530298
 30
0.0
  0
SEQEND
  5
8A
330
87
100
AcDbEntity
  8
_U+30EC_U+30A4_U+30E4_U+30FC 1
 62
   179
420
  2234388
370
     9
  0
INSERT
  5
8C
330
1F
100
AcDbEntity
  8
_U+30EC_U+30A4_U+30E4_U+30FC 1
100
AcDbBlockReference
  2
block 3
 10
0.0
 20
0.0
 30
0.0
  0
POLYLINE
  5
93
330
1F
100
AcDbEntity
  8
_U+30EC_U+30A4_U+30E4_U+30FC 1
 62
   179
420
  2234388
370
     9
100
AcDb2dPolyline
 66
     1
 10
0.0
 20
0.0
 30
0.0
  0
VERTEX
  5
94
330
93
100
AcDbEntity
  8
_U+30EC_U+30A4_U+30E4_U+30FC 1
 62
   179
420
  2234388
370
     9
100
AcDbVertex
100
AcDb2dVertex
 10
75.68046223589722
 20
-113.4363294160854
 30
0.0
  0
VERTEX
  5
95
330
93
100
AcDbEntity
  8
_U+30EC_U+30A4_U+30E4_U+30FC 1
 62
   179
420
  2234388
370
     9
100
AcDbVertex
100
AcDb2dVertex
 10
75.68046223589722
 20
-138.4363499653908
 30
0.0
  0
SEQEND
  5
96
330
93
100
AcDbEntity
  8
_U+30EC_U+30A4_U+30E4_U+30FC 1
 62
   179
420
  2234388
370
     9
  0
POLYLINE
  5
97
330
1F
100
AcDbEntity
  8
_U+30EC_U+30A4_U+30E4_U+30FC 1
 62
   179
420
  2234388
370
     9
100
AcDb2dPolyline
 66
     1
 10
0.0
 20
0.0
 30
0.0
  0
VERTEX
  5
98
330
97
100
AcDbEntity
  8
_U+30EC_U+30A4_U+30E4_U+30FC 1
 62
   179
420
  2234388
370
     9
100
AcDbVertex
100
AcDb2dVertex
 10
77.1405055362705
 20
-113.4363294160854
 30
0.0
  0
VERTEX
  5
99
330
97
100
AcDbEntity
  8
_U+30EC_U+30A4_U+30E4_U+30FC 1
 62
   179
420
  2234388
370
     9
100
AcDbVertex
100
AcDb2dVertex
 10
74.6805489280738
 20
-113.4363294160854
 30
0.0
  0
SEQEND
  5
9A
330
97
100
AcDbEntity
  8
_U+30EC_U+30A4_U+30E4_U+30FC 1
 62
   179
420
  2234388
370
     9
  0
POLYLINE
  5
9B
330
1F
100
AcDbEntity
  8
_U+30EC_U+30A4_U+30E4_U+30FC 1
 62
   179
420
  2234388
370
     9
100
AcDb2dPolyline
 66
     1
 10
0.0
 20
0.0
 30
0.0
  0
VERTEX
  5
9C
330
9B
100
AcDbEntity
  8
_U+30EC_U+30A4_U+30E4_U+30FC 1
 62
   179
420
  2234388
370
     9
100
AcDbVertex
100
AcDb2dVertex
 10
77.1405055362705
 20
-138.4363499653908
 30
0.0
  0
VERTEX
  5
9D
330
9B
100
AcDbEntity
  8
_U+30EC_U+30A4_U+30E4_U+30FC 1
 62
   179
420
  2234388
370
     9
100
AcDbVertex
100
AcDb2dVertex
 10
74.6805489280738
 20
-138.4363499653908
 30
0.0
  0
SEQEND
  5
9E
330
9B
100
AcDbEntity
  8
_U+30EC_U+30A4_U+30E4_U+30FC 1
 62
   179
420
  2234388
370
     9
  0
INSERT
  5
A0
330
1F
100
AcDbEntity
  8
_U+30EC_U+30A4_U+30E4_U+30FC 1
100
AcDbBlockReference
  2
block 4
 10
0.0
 20
0.0
 30
0.0
  0
ENDSEC
  0
SECTION
  2
OBJECTS
  0
DICTIONARY
  5
C
330
0
100
AcDbDictionary
281
     1
  3
ACAD_GROUP
350
D
  3
ACAD_LAYOUT
350
1A
  3
ACAD_MATERIAL
350
3B
  3
ACAD_MLEADERSTYLE
350
A8
  3
ACAD_MLINESTYLE
350
17
  3
ACAD_PLOTSETTINGS
350
19
  3
ACAD_PLOTSTYLENAME
350
E
  3
ACAD_TABLESTYLE
350
A7
  3
ACAD_VISUALSTYLE
350
2A
  0
SUN
  5
3F
330
29
100
AcDbSun
 90
        1
290
     0
 63
     7
421
 16777215
 40
1.0
291
     1
 91
  2455826
 92
 54000000
292
     0
 70
     2
 71
   256
280
     1
  0
DICTIONARY
  5
D
102
{ACAD_REACTORS
330
C
102
}
330
C
100
AcDbDictionary
281
     1
  0
DICTIONARY
  5
1A
102
{ACAD_REACTORS
330
C
102
}
330
C
100
AcDbDictionary
281
     1
  3
Layout1
350
1E
  3
Layout2
350
26
  3
Model
350
22
  0
DICTIONARY
  5
3B
102
{ACAD_REACTORS
330
C
102
}
330
C
100
AcDbDictionary
281
     1
  3
ByBlock
350
3D
  3
ByLayer
350
3C
  3
Global
350
3E
  0
DICTIONARY
  5
A8
102
{ACAD_REACTORS
330
C
102
}
330
C
100
AcDbDictionary
281
     1
  0
DICTIONARY
  5
17
102
{ACAD_REACTORS
330
C
102
}
330
C
100
AcDbDictionary
281
     1
  3
Standard
350
18
  0
DICTIONARY
  5
19
102
{ACAD_REACTORS
330
C
102
}
330
C
100
AcDbDictionary
281
     1
  0
ACDBDICTIONARYWDFLT
  5
E
102
{ACAD_REACTORS
330
C
102
}
330
C
100
AcDbDictionary
281
     1
  3
Normal
350
F
100
AcDbDictionaryWithDefault
340
F
  0
DICTIONARY
  5
A7
102
{ACAD_REACTORS
330
C
102
}
330
C
100
AcDbDictionary
281
     1
  0
DICTIONARY
  5
2A
102
{ACAD_REACTORS
330
C
102
}
330
C
100
AcDbDictionary
281
     1
  3
2dWireframe
350
2F
  3
3D Hidden
350
31
  3
3dWireframe
350
30
  3
Basic
350
32
  3
Brighten
350
36
  3
ColorChange
350
3A
  3
Conceptual
350
34
  3
Dim
350
35
  3
Facepattern
350
39
  3
Flat
350
2B
  3
FlatWithEdges
350
2C
  3
Gouraud
350
2D
  3
GouraudWithEdges
350
2E
  3
Linepattern
350
38
  3
Realistic
350
33
  3
Thicken
350
37
  0
LAYOUT
  5
1E
102
{ACAD_REACTORS
330
1A
102
}
330
1A
100
AcDbPlotSettings
  1

  2
none_device
  4

  6

 40
0.0
 41
0.0
 42
0.0
 43
0.0
 44
0.0
 45
0.0
 46
0.0
 47
0.0
 48
0.0
 49
0.0
140
0.0
141
0.0
142
1.0
143
1.0
 70
   688
 72
     0
 73
     0
 74
     5
  7

 75
    16
 76
     0
 77
     2
 78
   300
147
1.0
148
0.0
149
0.0
100
AcDbLayout
  1
Layout1
 70
     1
 71
     1
 10
0.0
 20
0.0
 11
12.0
 21
9.0
 12
0.0
 22
0.0
 32
0.0
 14
1.000000000000000E+20
 24
1.000000000000000E+20
 34
1.000000000000000E+20
 15
-1.000000000000000E+20
 25
-1.000000000000000E+20
 35
-1.000000000000000E+20
146
0.0
 13
0.0
 23
0.0
 33
0.0
 16
1.0
 26
0.0
 36
0.0
 17
0.0
 27
1.0
 37
0.0
 76
     0
330
1B
  0
LAYOUT
  5
26
102
{ACAD_REACTORS
330
1A
102
}
330
1A
100
AcDbPlotSettings
  1

  2
none_device
  4

  6

 40
0.0
 41
0.0
 42
0.0
 43
0.0
 44
0.0
 45
0.0
 46
0.0
 47
0.0
 48
0.0
 49
0.0
140
0.0
141
0.0
142
1.0
143
1.0
 70
   688
 72
     0
 73
     0
 74
     5
  7

 75
    16
 76
     0
 77
     2
 78
   300
147
1.0
148
0.0
149
0.0
100
AcDbLayout
  1
Layout2
 70
     1
 71
     2
 10
0.0
 20
0.0
 11
0.0
 21
0.0
 12
0.0
 22
0.0
 32
0.0
 14
0.0
 24
0.0
 34
0.0
 15
0.0
 25
0.0
 35
0.0
146
0.0
 13
0.0
 23
0.0
 33
0.0
 16
1.0
 26
0.0
 36
0.0
 17
0.0
 27
1.0
 37
0.0
 76
     0
330
23
  0
LAYOUT
  5
22
102
{ACAD_REACTORS
330
1A
102
}
330
1A
100
AcDbPlotSettings
  1

  2
none_device
  4

  6

 40
0.0
 41
0.0
 42
0.0
 43
0.0
 44
0.0
 45
0.0
 46
0.0
 47
0.0
 48
0.0
 49
0.0
140
0.0
141
0.0
142
1.0
143
1.0
 70
  1712
 72
     0
 73
     0
 74
     0
  7

 75
     0
 76
     0
 77
     2
 78
   300
147
1.0
148
0.0
149
0.0
100
AcDbLayout
  1
Model
 70
     1
 71
     0
 10
0.0
 20
0.0
 11
12.0
 21
9.0
 12
0.0
 22
0.0
 32
0.0
 14
1.000000000000000E+20
 24
1.000000000000000E+20
 34
1.000000000000000E+20
 15
-1.000000000000000E+20
 25
-1.000000000000000E+20
 35
-1.000000000000000E+20
146
0.0
 13
0.0
 23
0.0
 33
0.0
 16
1.0
 26
0.0
 36
0.0
 17
0.0
 27
1.0
 37
0.0
 76
     0
330
1F
331
29
  0
MATERIAL
  5
3D
102
{ACAD_REACTORS
330
3B
102
}
330
3B
100
AcDbMaterial
  1
ByBlock
 72
     1
 94
      127
  0
MATERIAL
  5
3C
102
{ACAD_REACTORS
330
3B
102
}
330
3B
100
AcDbMaterial
  1
ByLayer
 72
     1
 94
      127
  0
MATERIAL
  5
3E
102
{ACAD_REACTORS
330
3B
102
}
330
3B
100
AcDbMaterial
  1
Global
 72
     1
 94
      127
  0
MLINESTYLE
  5
18
102
{ACAD_REACTORS
330
17
102
}
330
17
100
AcDbMlineStyle
  2
Standard
 70
     0
  3

 62
   256
 51
90.0
 52
90.0
 71
     2
 49
0.5
 62
   256
  6
BYLAYER
 49
-0.5
 62
   256
  6
BYLAYER
  0
ACDBPLACEHOLDER
  5
F
102
{ACAD_REACTORS
330
E
102
}
330
E
  0
VISUALSTYLE
  5
2F
102
{ACAD_REACTORS
330
2A
102
}
330
2A
100
AcDbVisualStyle
  2
2dWireframe
 70
     4
177
     2
291
     0
 71
     0
176
     1
 72
     2
176
     1
 73
     0
176
     1
 90
        0
176
     1
 40
-0.6
176
     1
 41
-30.0
176
     1
 62
     5
 63
     7
421
 16777215
176
     1
 74
     1
176
     1
 91
        4
176
     1
 64
     7
176
     1
 65
   257
176
     1
 75
     1
176
     1
175
     1
176
     1
 42
1.0
176
     1
 92
        0
176
     1
 66
   257
176
     1
 43
1.0
176
     1
 76
     1
176
     1
 77
     6
176
     1
 78
     2
176
     1
 67
     7
176
     1
 79
     5
176
     1
170
     0
176
     1
171
     0
176
     1
290
     0
176
     1
 93
        1
176
     1
 44
0.0
176
     1
173
     0
176
     1
  0
VISUALSTYLE
  5
31
102
{ACAD_REACTORS
330
2A
102
}
330
2A
100
AcDbVisualStyle
  2
3D Hidden
 70
     6
177
     2
291
     0
 71
     1
176
     1
 72
     2
176
     1
 73
     2
176
     1
 90
        0
176
     1
 40
-0.6
176
     1
 41
-30.0
176
     1
 62
     5
 63
     7
421
 16777215
176
     1
 74
     2
176
     1
 91
        2
176
     1
 64
     7
176
     1
 65
   257
176
     1
 75
     2
176
     1
175
     1
176
     1
 42
40.0
176
     1
 92
        0
176
     1
 66
   257
176
     1
 43
1.0
176
     1
 76
     1
176
     1
 77
     6
176
     1
 78
     2
176
     1
 67
     7
176
     1
 79
     3
176
     1
170
     0
176
     1
171
     0
176
     1
290
     0
176
     1
 93
        1
176
     1
 44
0.0
176
     1
173
     0
176
     1
  0
VISUALSTYLE
  5
30
102
{ACAD_REACTORS
330
2A
102
}
330
2A
100
AcDbVisualStyle
  2
3dWireframe
 70
     5
177
     2
291
     0
 71
     0
176
     1
 72
     2
176
     1
 73
     0
176
     1
 90
        0
176
     1
 40
-0.6
176
     1
 41
-30.0
176
     1
 62
     5
 63
     7
421
 16777215
176
     1
 74
     1
176
     1
 91
        4
176
     1
 64
     7
176
     1
 65
   257
176
     1
 75
     1
176
     1
175
     1
176
     1
 42
1.0
176
     1
 92
        0
176
     1
 66
   257
176
     1
 43
1.0
176
     1
 76
     1
176
     1
 77
     6
176
     1
 78
     2
176
     1
 67
     7
176
     1
 79
     5
176
     1
170
     0
176
     1
171
     0
176
     1
290
     0
176
     1
 93
        1
176
     1
 44
0.0
176
     1
173
     0
176
     1
  0
VISUALSTYLE
  5
32
102
{ACAD_REACTORS
330
2A
102
}
330
2A
100
AcDbVisualStyle
  2
Basic
 70
     7
177
     2
291
     1
 71
     1
176
     1
 72
     0
176
     1
 73
     1
176
     1
 90
        0
176
     1
 40
-0.6
176
     1
 41
-30.0
176
     1
 62
     5
 63
     7
421
 16777215
176
     1
 74
     0
176
     1
 91
        4
176
     1
 64
     7
176
     1
 65
   257
176
     1
 75
     1
176
     1
175
     1
176
     1
 42
1.0
176
     1
 92
        8
176
     1
 66
     7
176
     1
 43
1.0
176
     1
 76
     1
176
     1
 77
     6
176
     1
 78
     2
176
     1
 67
     7
176
     1
 79
     5
176
     1
170
     0
176
     1
171
     0
176
     1
290
     0
176
     1
 93
        1
176
     1
 44
0.0
176
     1
173
     0
176
     1
  0
VISUALSTYLE
  5
36
102
{ACAD_REACTORS
330
2A
102
}
330
2A
100
AcDbVisualStyle
  2
Brighten
 70
    12
177
     2
291
     1
 71
     2
176
     1
 72
     2
176
     1
 73
     0
176
     1
 90
        0
176
     1
 40
-0.6
176
     1
 41
-30.0
176
     1
 62
     5
 63
     7
421
 16777215
176
     1
 74
     1
176
     1
 91
        4
176
     1
 64
     7
176
     1
 65
   257
176
     1
 75
     1
176
     1
175
     1
176
     1
 42
1.0
176
     1
 92
        8
176
     1
 66
     7
176
     1
 43
1.0
176
     1
 76
     1
176
     1
 77
     6
176
     1
 78
     2
176
     1
 67
     7
176
     1
 79
     5
176
     1
170
     0
176
     1
171
     0
176
     1
290
     0
176
     1
 93
        1
176
     1
 44
50.0
176
     1
173
     0
176
     1
  0
VISUALSTYLE
  5
3A
102
{ACAD_REACTORS
330
2A
102
}
330
2A
100
AcDbVisualStyle
  2
ColorChange
 70
    16
177
     2
291
     1
 71
     2
176
     1
 72
     2
176
     1
 73
     3
176
     1
 90
        0
176
     1
 40
-0.6
176
     1
 41
-30.0
176
     1
 62
     5
 63
     8
421
  8421504
176
     1
 74
     1
176
     1
 91
        4
176
     1
 64
     7
176
     1
 65
   257
176
     1
 75
     1
176
     1
175
     1
176
     1
 42
1.0
176
     1
 92
        8
176
     1
 66
     8
424
  8421504
176
     1
 43
1.0
176
     1
 76
     1
176
     1
 77
     6
176
     1
 78
     2
176
     1
 67
     7
176
     1
 79
     5
176
     1
170
     0
176
     1
171
     0
176
     1
290
     0
176
     1
 93
        1
176
     1
 44
0.0
176
     1
173
     0
176
     1
  0
VISUALSTYLE
  5
34
102
{ACAD_REACTORS
330
2A
102
}
330
2A
100
AcDbVisualStyle
  2
Conceptual
 70
     9
177
     2
291
     0
 71
     3
176
     1
 72
     2
176
     1
 73
     0
176
     1
 90
        0
176
     1
 40
-0.6
176
     1
 41
-30.0
176
     1
 62
     5
 63
     7
421
 16777215
176
     1
 74
     2
176
     1
 91
        2
176
     1
 64
     7
176
     1
 65
   257
176
     1
 75
     1
176
     1
175
     1
176
     1
 42
40.0
176
     1
 92
        8
176
     1
 66
     7
176
     1
 43
1.0
176
     1
 76
     1
176
     1
 77
     6
176
     1
 78
     2
176
     1
 67
     7
176
     1
 79
     3
176
     1
170
     0
176
     1
171
     0
176
     1
290
     0
176
     1
 93
        1
176
     1
 44
0.0
176
     1
173
     0
176
     1
  0
VISUALSTYLE
  5
35
102
{ACAD_REACTORS
330
2A
102
}
330
2A
100
AcDbVisualStyle
  2
Dim
 70
    11
177
     2
291
     1
 71
     2
176
     1
 72
     2
176
     1
 73
     0
176
     1
 90
        0
176
     1
 40
-0.6
176
     1
 41
-30.0
176
     1
 62
     5
 63
     7
421
 16777215
176
     1
 74
     1
176
     1
 91
        4
176
     1
 64
     7
176
     1
 65
   257
176
     1
 75
     1
176
     1
175
     1
176
     1
 42
1.0
176
     1
 92
        8
176
     1
 66
     7
176
     1
 43
1.0
176
     1
 76
     1
176
     1
 77
     6
176
     1
 78
     2
176
     1
 67
     7
176
     1
 79
     5
176
     1
170
     0
176
     1
171
     0
176
     1
290
     0
176
     1
 93
        1
176
     1
 44
-50.0
176
     1
173
     0
176
     1
  0
VISUALSTYLE
  5
39
102
{ACAD_REACTORS
330
2A
102
}
330
2A
100
AcDbVisualStyle
  2
Facepattern
 70
    15
177
     2
291
     1
 71
     2
176
     1
 72
     2
176
     1
 73
     0
176
     1
 90
        0
176
     1
 40
-0.6
176
     1
 41
-30.0
176
     1
 62
     5
 63
     7
421
 16777215
176
     1
 74
     1
176
     1
 91
        4
176
     1
 64
     7
176
     1
 65
   257
176
     1
 75
     1
176
     1
175
     1
176
     1
 42
1.0
176
     1
 92
        8
176
     1
 66
     7
176
     1
 43
1.0
176
     1
 76
     1
176
     1
 77
     6
176
     1
 78
     2
176
     1
 67
     7
176
     1
 79
     5
176
     1
170
     0
176
     1
171
     0
176
     1
290
     0
176
     1
 93
        1
176
     1
 44
0.0
176
     1
173
     0
176
     1
  0
VISUALSTYLE
  5
2B
102
{ACAD_REACTORS
330
2A
102
}
330
2A
100
AcDbVisualStyle
  2
Flat
 70
     0
177
     2
291
     1
 71
     2
176
     1
 72
     1
176
     1
 73
     1
176
     1
 90
        2
176
     1
 40
-0.6
176
     1
 41
30.0
176
     1
 62
     5
 63
     7
421
 16777215
176
     1
 74
     0
176
     1
 91
        4
176
     1
 64
     7
176
     1
 65
   257
176
     1
 75
     1
176
     1
175
     1
176
     1
 42
1.0
176
     1
 92
        8
176
     1
 66
     7
176
     1
 43
1.0
176
     1
 76
     1
176
     1
 77
     6
176
     1
 78
     2
176
     1
 67
     7
176
     1
 79
     5
176
     1
170
     0
176
     1
171
     0
176
     1
290
     0
176
     1
 93
       13
176
     1
 44
0.0
176
     1
173
     0
176
     1
  0
VISUALSTYLE
  5
2C
102
{ACAD_REACTORS
330
2A
102
}
330
2A
100
AcDbVisualStyle
  2
FlatWithEdges
 70
     1
177
     2
291
     1
 71
     2
176
     1
 72
     1
176
     1
 73
     1
176
     1
 90
        2
176
     1
 40
-0.6
176
     1
 41
30.0
176
     1
 62
     5
 63
     7
421
 16777215
176
     1
 74
     1
176
     1
 91
        4
176
     1
 64
     7
176
     1
 65
   257
176
     1
 75
     1
176
     1
175
     1
176
     1
 42
1.0
176
     1
 92
        0
176
     1
 66
   257
176
     1
 43
1.0
176
     1
 76
     1
176
     1
 77
     6
176
     1
 78
     2
176
     1
 67
     7
176
     1
 79
     5
176
     1
170
     0
176
     1
171
     0
176
     1
290
     0
176
     1
 93
       13
176
     1
 44
0.0
176
     1
173
     0
176
     1
  0
VISUALSTYLE
  5
2D
102
{ACAD_REACTORS
330
2A
102
}
330
2A
100
AcDbVisualStyle
  2
Gouraud
 70
     2
177
     2
291
     1
 71
     2
176
     1
 72
     2
176
     1
 73
     1
176
     1
 90
        2
176
     1
 40
-0.6
176
     1
 41
30.0
176
     1
 62
     5
 63
     7
421
 16777215
176
     1
 74
     0
176
     1
 91
        4
176
     1
 64
     7
176
     1
 65
   257
176
     1
 75
     1
176
     1
175
     1
176
     1
 42
1.0
176
     1
 92
        0
176
     1
 66
     7
176
     1
 43
1.0
176
     1
 76
     1
176
     1
 77
     6
176
     1
 78
     2
176
     1
 67
     7
176
     1
 79
     5
176
     1
170
     0
176
     1
171
     0
176
     1
290
     0
176
     1
 93
       13
176
     1
 44
0.0
176
     1
173
     0
176
     1
  0
VISUALSTYLE
  5
2E
102
{ACAD_REACTORS
330
2A
102
}
330
2A
100
AcDbVisualStyle
  2
GouraudWithEdges
 70
     3
177
     2
291
     1
 71
     2
176
     1
 72
     2
176
     1
 73
     1
176
     1
 90
        2
176
     1
 40
-0.6
176
     1
 41
30.0
176
     1
 62
     5
 63
     7
421
 16777215
176
     1
 74
     1
176
     1
 91
        4
176
     1
 64
     7
176
     1
 65
   257
176
     1
 75
     1
176
     1
175
     1
176
     1
 42
1.0
176
     1
 92
        0
176
     1
 66
   257
176
     1
 43
1.0
176
     1
 76
     1
176
     1
 77
     6
176
     1
 78
     2
176
     1
 67
     7
176
     1
 79
     5
176
     1
170
     0
176
     1
171
     0
176
     1
290
     0
176
     1
 93
       13
176
     1
 44
0.0
176
     1
173
     0
176
     1
  0
VISUALSTYLE
  5
38
102
{ACAD_REACTORS
330
2A
102
}
330
2A
100
AcDbVisualStyle
  2
Linepattern
 70
    14
177
     2
291
     1
 71
     2
176
     1
 72
     2
176
     1
 73
     0
176
     1
 90
        0
176
     1
 40
-0.6
176
     1
 41
-30.0
176
     1
 62
     5
 63
     7
421
 16777215
176
     1
 74
     1
176
     1
 91
        4
176
     1
 64
     7
176
     1
 65
   257
176
     1
 75
     7
176
     1
175
     7
176
     1
 42
1.0
176
     1
 92
        8
176
     1
 66
     7
176
     1
 43
1.0
176
     1
 76
     1
176
     1
 77
     6
176
     1
 78
     2
176
     1
 67
     7
176
     1
 79
     5
176
     1
170
     0
176
     1
171
     0
176
     1
290
     0
176
     1
 93
        1
176
     1
 44
0.0
176
     1
173
     0
176
     1
  0
VISUALSTYLE
  5
33
102
{ACAD_REACTORS
330
2A
102
}
330
2A
100
AcDbVisualStyle
  2
Realistic
 70
     8
177
     2
291
     0
 71
     2
176
     1
 72
     2
176
     1
 73
     0
176
     1
 90
        0
176
     1
 40
-0.6
176
     1
 41
-30.0
176
     1
 62
     5
 63
     7
421
 16777215
176
     1
 74
     1
176
     1
 91
        0
176
     1
 64
     7
176
     1
 65
   257
176
     1
 75
     1
176
     1
175
     1
176
     1
 42
1.0
176
     1
 92
        8
176
     1
 66
     8
424
  7895160
176
     1
 43
1.0
176
     1
 76
     1
176
     1
 77
     6
176
     1
 78
     2
176
     1
 67
     7
176
     1
 79
     5
176
     1
170
     0
176
     1
171
     0
176
     1
290
     0
176
     1
 93
       13
176
     1
 44
0.0
176
     1
173
     0
176
     1
  0
VISUALSTYLE
  5
37
102
{ACAD_REACTORS
330
2A
102
}
330
2A
100
AcDbVisualStyle
  2
Thicken
 70
    13
177
     2
291
     1
 71
     2
176
     1
 72
     2
176
     1
 73
     0
176
     1
 90
        0
176
     1
 40
-0.6
176
     1
 41
-30.0
176
     1
 62
     5
 63
     7
421
 16777215
176
     1
 74
     1
176
     1
 91
        4
176
     1
 64
     7
176
     1
 65
   257
176
     1
 75
     1
176
     1
175
     1
176
     1
 42
1.0
176
     1
 92
       12
176
     1
 66
     7
176
     1
 43
1.0
176
     1
 76
     1
176
     1
 77
     6
176
     1
 78
     2
176
     1
 67
     7
176
     1
 79
     5
176
     1
170
     0
176
     1
171
     0
176
     1
290
     0
176
     1
 93
        1
176
     1
 44
0.0
176
     1
173
     0
176
     1
  0
ENDSEC
  0
EOF
