  0
SECTION
  2
HEADER
  9
$ACADVER
  1
AC1024
  9
$ACADMAINTVER
 70
     6
  9
$DWGCODEPAGE
  3
UNDEFINED
  9
$INSBASE
 10
0.0
 20
0.0
 30
0.0
  9
$EXTMIN
 10
1.000000000000000E+20
 20
1.000000000000000E+20
 30
1.000000000000000E+20
  9
$EXTMAX
 10
-1.000000000000000E+20
 20
-1.000000000000000E+20
 30
-1.000000000000000E+20
  9
$LIMMIN
 10
0.0
 20
0.0
  9
$LIMMAX
 10
12.0
 20
9.0
  9
$ORTHOMODE
 70
     0
  9
$REGENMODE
 70
     1
  9
$FILLMODE
 70
     1
  9
$QTEXTMODE
 70
     0
  9
$MIRRTEXT
 70
     1
  9
$LTSCALE
 40
1.0
  9
$ATTMODE
 70
     1
  9
$TEXTSIZE
 40
0.2
  9
$TRACEWID
 40
0.05
  9
$TEXTSTYLE
  7
Standard
  9
$CLAYER
  8
0
  9
$CELTYPE
  6
ByLayer
  9
$CECOLOR
 62
   256
  9
$CELTSCALE
 40
1.0
  9
$DISPSILH
 70
     0
  9
$DIMSCALE
 40
1.0
  9
$DIMASZ
 40
0.18
  9
$DIMEXO
 40
0.0625
  9
$DIMDLI
 40
0.38
  9
$DIMRND
 40
0.0
  9
$DIMDLE
 40
0.0
  9
$DIMEXE
 40
0.18
  9
$DIMTP
 40
0.0
  9
$DIMTM
 40
0.0
  9
$DIMTXT
 40
0.18
  9
$DIMCEN
 40
0.09
  9
$DIMTSZ
 40
0.0
  9
$DIMTOL
 70
     0
  9
$DIMLIM
 70
     0
  9
$DIMTIH
 70
     1
  9
$DIMTOH
 70
     1
  9
$DIMSE1
 70
     0
  9
$DIMSE2
 70
     0
  9
$DIMTAD
 70
     0
  9
$DIMZIN
 70
     0
  9
$DIMBLK
  1

  9
$DIMASO
 70
     1
  9
$DIMSHO
 70
     1
  9
$DIMPOST
  1

  9
$DIMAPOST
  1

  9
$DIMALT
 70
     0
  9
$DIMALTD
 70
     2
  9
$DIMALTF
 40
25.4
  9
$DIMLFAC
 40
1.0
  9
$DIMTOFL
 70
     0
  9
$DIMTVP
 40
0.0
  9
$DIMTIX
 70
     0
  9
$DIMSOXD
 70
     0
  9
$DIMSAH
 70
     0
  9
$DIMBLK1
  1

  9
$DIMBLK2
  1

  9
$DIMSTYLE
  2
Standard
  9
$DIMCLRD
 70
     0
  9
$DIMCLRE
 70
     0
  9
$DIMCLRT
 70
     0
  9
$DIMTFAC
 40
1.0
  9
$DIMGAP
 40
0.09
  9
$DIMJUST
 70
     0
  9
$DIMSD1
 70
     0
  9
$DIMSD2
 70
     0
  9
$DIMTOLJ
 70
     1
  9
$DIMTZIN
 70
     0
  9
$DIMALTZ
 70
     0
  9
$DIMALTTZ
 70
     0
  9
$DIMUPT
 70
     0
  9
$DIMDEC
 70
     4
  9
$DIMTDEC
 70
     4
  9
$DIMALTU
 70
     2
  9
$DIMALTTD
 70
     2
  9
$DIMTXSTY
  7
Standard
  9
$DIMAUNIT
 70
     0
  9
$DIMADEC
 70
     0
  9
$DIMALTRND
 40
0.0
  9
$DIMAZIN
 70
     0
  9
$DIMDSEP
 70
    46
  9
$DIMATFIT
 70
     3
  9
$DIMFRAC
 70
     0
  9
$DIMLDRBLK
  1

  9
$DIMLUNIT
 70
     2
  9
$DIMLWD
 70
    -2
  9
$DIMLWE
 70
    -2
  9
$DIMTMOVE
 70
     0
  9
$DIMFXL
 40
1.0
  9
$DIMFXLON
 70
     0
  9
$DIMJOGANG
 40
0.7853981633974483
  9
$DIMTFILL
 70
     0
  9
$DIMTFILLCLR
 70
     0
  9
$DIMARCSYM
 70
     0
  9
$DIMLTYPE
  6

  9
$DIMLTEX1
  6

  9
$DIMLTEX2
  6

  9
$DIMTXTDIRECTION
 70
     0
  9
$LUNITS
 70
     2
  9
$LUPREC
 70
     4
  9
$SKETCHINC
 40
0.1
  9
$FILLETRAD
 40
0.5
  9
$AUNITS
 70
     0
  9
$AUPREC
 70
     0
  9
$MENU
  1
.
  9
$ELEVATION
 40
0.0
  9
$PELEVATION
 40
0.0
  9
$THICKNESS
 40
0.0
  9
$LIMCHECK
 70
     0
  9
$CHAMFERA
 40
0.5
  9
$CHAMFERB
 40
0.5
  9
$CHAMFERC
 40
1.0
  9
$CHAMFERD
 40
0.0
  9
$SKPOLY
 70
     0
  9
$TDCREATE
 40
2457917.596898148
  9
$TDUCREATE
 40
2457917.221898148
  9
$TDUPDATE
 40
2457917.596898148
  9
$TDUUPDATE
 40
2457917.221898148
  9
$TDINDWG
 40
0.0000000116
  9
$TDUSRTIMER
 40
0.0000000116
  9
$USRTIMER
 70
     1
  9
$ANGBASE
 50
0.0
  9
$ANGDIR
 70
     0
  9
$PDMODE
 70
     0
  9
$PDSIZE
 40
0.0
  9
$PLINEWID
 40
0.0
  9
$SPLFRAME
 70
     0
  9
$SPLINETYPE
 70
     6
  9
$SPLINESEGS
 70
     8
  9
$HANDSEED
  5
EF
  9
$SURFTAB1
 70
     6
  9
$SURFTAB2
 70
     6
  9
$SURFTYPE
 70
     6
  9
$SURFU
 70
     6
  9
$SURFV
 70
     6
  9
$UCSBASE
  2

  9
$UCSNAME
  2

  9
$UCSORG
 10
0.0
 20
0.0
 30
0.0
  9
$UCSXDIR
 10
1.0
 20
0.0
 30
0.0
  9
$UCSYDIR
 10
0.0
 20
1.0
 30
0.0
  9
$UCSORTHOREF
  2

  9
$UCSORTHOVIEW
 70
     0
  9
$UCSORGTOP
 10
0.0
 20
0.0
 30
0.0
  9
$UCSORGBOTTOM
 10
0.0
 20
0.0
 30
0.0
  9
$UCSORGLEFT
 10
0.0
 20
0.0
 30
0.0
  9
$UCSORGRIGHT
 10
0.0
 20
0.0
 30
0.0
  9
$UCSORGFRONT
 10
0.0
 20
0.0
 30
0.0
  9
$UCSORGBACK
 10
0.0
 20
0.0
 30
0.0
  9
$PUCSBASE
  2

  9
$PUCSNAME
  2

  9
$PUCSORG
 10
0.0
 20
0.0
 30
0.0
  9
$PUCSXDIR
 10
1.0
 20
0.0
 30
0.0
  9
$PUCSYDIR
 10
0.0
 20
1.0
 30
0.0
  9
$PUCSORTHOREF
  2

  9
$PUCSORTHOVIEW
 70
     0
  9
$PUCSORGTOP
 10
0.0
 20
0.0
 30
0.0
  9
$PUCSORGBOTTOM
 10
0.0
 20
0.0
 30
0.0
  9
$PUCSORGLEFT
 10
0.0
 20
0.0
 30
0.0
  9
$PUCSORGRIGHT
 10
0.0
 20
0.0
 30
0.0
  9
$PUCSORGFRONT
 10
0.0
 20
0.0
 30
0.0
  9
$PUCSORGBACK
 10
0.0
 20
0.0
 30
0.0
  9
$USERI1
 70
     0
  9
$USERI2
 70
     0
  9
$USERI3
 70
     0
  9
$USERI4
 70
     0
  9
$USERI5
 70
     0
  9
$USERR1
 40
0.0
  9
$USERR2
 40
0.0
  9
$USERR3
 40
0.0
  9
$USERR4
 40
0.0
  9
$USERR5
 40
0.0
  9
$WORLDVIEW
 70
     1
  9
$SHADEDGE
 70
     3
  9
$SHADEDIF
 70
    70
  9
$TILEMODE
 70
     1
  9
$MAXACTVP
 70
    64
  9
$PINSBASE
 10
0.0
 20
0.0
 30
0.0
  9
$PLIMCHECK
 70
     0
  9
$PEXTMIN
 10
1.000000000000000E+20
 20
1.000000000000000E+20
 30
1.000000000000000E+20
  9
$PEXTMAX
 10
-1.000000000000000E+20
 20
-1.000000000000000E+20
 30
-1.000000000000000E+20
  9
$PLIMMIN
 10
0.0
 20
0.0
  9
$PLIMMAX
 10
12.0
 20
9.0
  9
$UNITMODE
 70
     0
  9
$VISRETAIN
 70
     1
  9
$PLINEGEN
 70
     0
  9
$PSLTSCALE
 70
     1
  9
$TREEDEPTH
 70
  3020
  9
$CMLSTYLE
  2
Standard
  9
$CMLJUST
 70
     0
  9
$CMLSCALE
 40
1.0
  9
$PROXYGRAPHICS
 70
     1
  9
$MEASUREMENT
 70
     0
  9
$CELWEIGHT
370
    -1
  9
$ENDCAPS
280
     0
  9
$JOINSTYLE
280
     0
  9
$LWDISPLAY
290
     1
  9
$INSUNITS
 70
     1
  9
$HYPERLINKBASE
  1

  9
$STYLESHEET
  1

  9
$XEDIT
290
     1
  9
$CEPSNTYPE
380
     0
  9
$PSTYLEMODE
290
     1
  9
$FINGERPRINTGUID
  2
{7A3D79C0-BAA3-EC02-F069-C040925B7569}
  9
$VERSIONGUID
  2
{FAEB1C32-E019-11D5-929B-00C0DF256EC4}
  9
$EXTNAMES
290
     1
  9
$PSVPSCALE
 40
0.0
  9
$OLESTARTUP
290
     0
  9
$SORTENTS
280
   127
  9
$INDEXCTL
280
     0
  9
$HIDETEXT
280
     1
  9
$XCLIPFRAME
280
     2
  9
$HALOGAP
280
     0
  9
$OBSCOLOR
 70
   257
  9
$OBSLTYPE
280
     0
  9
$INTERSECTIONDISPLAY
280
     0
  9
$INTERSECTIONCOLOR
 70
   257
  9
$DIMASSOC
280
     2
  9
$PROJECTNAME
  1

  9
$CAMERADISPLAY
290
     0
  9
$LENSLENGTH
 40
50.0
  9
$CAMERAHEIGHT
 40
0.0
  9
$STEPSPERSEC
 40
2.0
  9
$STEPSIZE
 40
6.0
  9
$3DDWFPREC
 40
2.0
  9
$PSOLWIDTH
 40
0.25
  9
$PSOLHEIGHT
 40
4.0
  9
$LOFTANG1
 40
1.570796326794897
  9
$LOFTANG2
 40
1.570796326794897
  9
$LOFTMAG1
 40
0.0
  9
$LOFTMAG2
 40
0.0
  9
$LOFTPARAM
 70
     7
  9
$LOFTNORMALS
280
     1
  9
$LATITUDE
 40
37.795
  9
$LONGITUDE
 40
-122.394
  9
$NORTHDIRECTION
 40
0.0
  9
$TIMEZONE
 70
 -8000
  9
$LIGHTGLYPHDISPLAY
280
     1
  9
$TILEMODELIGHTSYNCH
280
     1
  9
$CMATERIAL
347
3C
  9
$SOLIDHIST
280
     1
  9
$SHOWHIST
280
     1
  9
$DWFFRAME
280
     2
  9
$DGNFRAME
280
     2
  9
$REALWORLDSCALE
290
     1
  9
$INTERFERECOLOR
 62
   256
  9
$CSHADOW
280
     0
  9
$SHADOWPLANELOCATION
 40
0.0
  0
ENDSEC
  0
SECTION
  2
CLASSES
  0
CLASS
  1
ACDBDICTIONARYWDFLT
  2
AcDbDictionaryWithDefault
  3
ObjectDBX Classes
 90
        0
 91
        4
280
     0
281
     0
  0
CLASS
  1
VISUALSTYLE
  2
AcDbVisualStyle
  3
ObjectDBX Classes
 90
     4095
 91
        4
280
     0
281
     0
  0
CLASS
  1
MATERIAL
  2
AcDbMaterial
  3
ObjectDBX Classes
 90
     1153
 91
        4
280
     0
281
     0
  0
CLASS
  1
SUN
  2
AcDbSun
  3
SCENEOE
 90
     1024
 91
        4
280
     0
281
     0
  0
ENDSEC
  0
SECTION
  2
TABLES
  0
TABLE
  2
VPORT
  5
8
330
0
100
AcDbSymbolTable
 70
     1
  0
VPORT
  5
29
330
8
100
AcDbSymbolTableRecord
100
AcDbViewportTableRecord
  2
*Active
 70
     0
 10
0.0
 20
0.0
 11
1.0
 21
1.0
 12
0.0
 22
0.0
 13
0.0
 23
0.0
 14
0.5
 24
0.5
 15
0.5
 25
0.5
 16
0.0
 26
0.0
 36
1.0
 17
91.00082462281999
 27
-128.4993055234307
 37
0.0
 40
256.9986110468615
 41
0.7081814508812795
 42
50.0
 43
0.0
 44
0.0
 50
0.0
 51
0.0
 71
     0
 72
   100
 73
     1
 74
     3
 75
     0
 76
     0
 77
     0
 78
     0
281
     0
 65
     1
110
0.0
120
0.0
130
0.0
111
1.0
121
0.0
131
0.0
112
0.0
122
1.0
132
0.0
 79
     0
146
0.0
 60
     3
 61
     5
292
     1
282
     1
141
0.0
142
0.0
 63
   250
361
3F
  0
ENDTAB
  0
TABLE
  2
LTYPE
  5
5
330
0
100
AcDbSymbolTable
 70
     2
  0
LTYPE
  5
14
330
5
100
AcDbSymbolTableRecord
100
AcDbLinetypeTableRecord
  2
ByBlock
 70
     0
  3

 72
    65
 73
     0
 40
0.0
  0
LTYPE
  5
15
330
5
100
AcDbSymbolTableRecord
100
AcDbLinetypeTableRecord
  2
ByLayer
 70
     0
  3

 72
    65
 73
     0
 40
0.0
  0
LTYPE
  5
16
330
5
100
AcDbSymbolTableRecord
100
AcDbLinetypeTableRecord
  2
Continuous
 70
     0
  3
Solid line
 72
    65
 73
     0
 40
0.0
  0
LTYPE
  5
89
330
5
100
AcDbSymbolTableRecord
100
AcDbLinetypeTableRecord
  2
AI-Linetype-1
 70
     0
  3
Adobe Illustrator Linetype No. 1
 72
    65
 73
     2
 40
1.411111110758333
 49
0.7055555553791667
 74
     0
 49
-0.7055555553791667
 74
     0
  0
ENDTAB
  0
TABLE
  2
LAYER
  5
2
330
0
100
AcDbSymbolTable
 70
     2
  0
LAYER
  5
10
330
2
100
AcDbSymbolTableRecord
100
AcDbLayerTableRecord
  2
0
 70
     0
 62
     7
  6
Continuous
370
    -3
390
F
347
3E
  0
LAYER
  5
40
330
2
100
AcDbSymbolTableRecord
100
AcDbLayerTableRecord
  2
_U+30EC_U+30A4_U+30E4_U+30FC 1
 70
     0
 62
     7
  6
Continuous
370
    -3
390
F
347
3E
  0
ENDTAB
  0
TABLE
  2
STYLE
  5
3
330
0
100
AcDbSymbolTable
 70
     1
  0
STYLE
  5
11
330
3
100
AcDbSymbolTableRecord
100
AcDbTextStyleTableRecord
  2
Standard
 70
     0
 40
0.0
 41
1.0
 50
0.0
 71
     0
 42
0.2
  3
txt
  4

  0
ENDTAB
  0
TABLE
  2
VIEW
  5
6
330
0
100
AcDbSymbolTable
 70
     0
  0
ENDTAB
  0
TABLE
  2
UCS
  5
7
330
0
100
AcDbSymbolTable
 70
     0
  0
ENDTAB
  0
TABLE
  2
APPID
  5
9
330
0
100
AcDbSymbolTable
 70
     1
  0
APPID
  5
12
330
9
100
AcDbSymbolTableRecord
100
AcDbRegAppTableRecord
  2
ACAD
 70
     0
  0
ENDTAB
  0
TABLE
  2
DIMSTYLE
  5
A
330
0
100
AcDbSymbolTable
 70
     1
100
AcDbDimStyleTable
  0
DIMSTYLE
105
27
330
A
100
AcDbSymbolTableRecord
100
AcDbDimStyleTableRecord
  2
Standard
 70
     0
178
     0
340
11
  0
ENDTAB
  0
TABLE
  2
BLOCK_RECORD
  5
1
330
0
100
AcDbSymbolTable
 70
     5
  0
BLOCK_RECORD
  5
1F
330
1
100
AcDbSymbolTableRecord
100
AcDbBlockTableRecord
  2
*Model_Space
340
22
 70
     0
280
     1
281
     0
  0
BLOCK_RECORD
  5
1B
330
1
100
AcDbSymbolTableRecord
100
AcDbBlockTableRecord
  2
*Paper_Space
340
1E
 70
     0
280
     1
281
     0
  0
BLOCK_RECORD
  5
23
330
1
100
AcDbSymbolTableRecord
100
AcDbBlockTableRecord
  2
*Paper_Space0
340
26
 70
     0
280
     1
281
     0
  0
BLOCK_RECORD
  5
41
330
1
100
AcDbSymbolTableRecord
100
AcDbBlockTableRecord
  2
block 2
340
0
102
{BLKREFS
331
42
102
}
 70
     0
280
     1
281
     0
  0
BLOCK_RECORD
  5
B3
330
1
100
AcDbSymbolTableRecord
100
AcDbBlockTableRecord
  2
block 3
340
0
102
{BLKREFS
331
B4
102
}
 70
     0
280
     1
281
     0
  0
BLOCK_RECORD
  5
CF
330
1
100
AcDbSymbolTableRecord
100
AcDbBlockTableRecord
  2
block 4
340
0
102
{BLKREFS
331
D0
102
}
 70
     0
280
     1
281
     0
  0
BLOCK_RECORD
  5
E4
330
1
100
AcDbSymbolTableRecord
100
AcDbBlockTableRecord
  2
block 5
340
0
102
{BLKREFS
331
E5
102
}
 70
     0
280
     1
281
     0
  0
ENDTAB
  0
ENDSEC
  0
SECTION
  2
BLOCKS
  0
BLOCK
  5
20
330
1F
100
AcDbEntity
  8
0
100
AcDbBlockBegin
  2
*Model_Space
 70
     0
 10
0.0
 20
0.0
 30
0.0
  3
*Model_Space
  1

  0
ENDBLK
  5
21
330
1F
100
AcDbEntity
  8
0
100
AcDbBlockEnd
  0
BLOCK
  5
1C
330
1B
100
AcDbEntity
 67
     1
  8
0
100
AcDbBlockBegin
  2
*Paper_Space
 70
     0
 10
0.0
 20
0.0
 30
0.0
  3
*Paper_Space
  1

  0
ENDBLK
  5
1D
330
1B
100
AcDbEntity
 67
     1
  8
0
100
AcDbBlockEnd
  0
BLOCK
  5
24
330
23
100
AcDbEntity
  8
0
100
AcDbBlockBegin
  2
*Paper_Space0
 70
     0
 10
0.0
 20
0.0
 30
0.0
  3
*Paper_Space0
  1

  0
ENDBLK
  5
25
330
23
100
AcDbEntity
  8
0
100
AcDbBlockEnd
  0
BLOCK
  5
43
330
41
100
AcDbEntity
  8
0
100
AcDbBlockBegin
  2
block 2
 70
     0
 10
0.0
 20
0.0
 30
0.0
  3
block 2
  1

  0
SPLINE
  5
45
330
41
100
AcDbEntity
  8
_U+30EC_U+30A4_U+30E4_U+30FC 1
370
     0
100
AcDbSpline
210
0.0
220
0.0
230
1.0
 70
    11
 71
     3
 72
    17
 73
    13
 74
     0
 42
0.0000000001
 43
0.0000000001
 12
1.0
 22
0.0
 32
0.0
 13
1.0
 23
0.0
 33
0.0
 40
0.0
 40
0.0
 40
0.0
 40
0.0
 40
1.0
 40
1.0
 40
1.0
 40
2.0
 40
2.0
 40
2.0
 40
3.0
 40
3.0
 40
3.0
 40
4.0
 40
4.0
 40
4.0
 40
4.0
 10
84.73091767629991
 20
-119.1984089871275
 30
0.0
 10
84.63841686252096
 20
-119.0926445557303
 30
0.0
 10
84.56796465984759
 20
-119.0545762506183
 30
0.0
 10
84.48648815162144
 20
-119.022881372154
 30
0.0
 10
84.48648815162144
 20
-119.022881372154
 30
0.0
 10
84.58277857043417
 20
-118.8578612984105
 30
0.0
 10
84.58277857043417
 20
-118.8578612984105
 30
0.0
 10
84.6680446836941
 20
-118.9002359728791
 30
0.0
 10
84.77346460554274
 20
-118.9784396403943
 30
0.0
 10
84.81980113981936
 20
-119.033388913384
 30
0.0
 10
84.81980113981936
 20
-119.033388913384
 30
0.0
 10
84.73091767629991
 20
-119.1984089871275
 30
0.0
 10
84.73091767629991
 20
-119.1984089871275
 30
0.0
  0
SPLINE
  5
46
330
41
100
AcDbEntity
  8
_U+30EC_U+30A4_U+30E4_U+30FC 1
370
     0
100
AcDbSpline
210
0.0
220
0.0
230
1.0
 70
    11
 71
     3
 72
   182
 73
   178
 74
     0
 42
0.0000000001
 43
0.0000000001
 12
1.0
 22
0.0
 32
0.0
 13
1.0
 23
0.0
 33
0.0
 40
0.0
 40
0.0
 40
0.0
 40
0.0
 40
1.0
 40
1.0
 40
1.0
 40
2.0
 40
2.0
 40
2.0
 40
3.0
 40
3.0
 40
3.0
 40
4.0
 40
4.0
 40
4.0
 40
5.0
 40
5.0
 40
5.0
 40
6.0
 40
6.0
 40
6.0
 40
7.0
 40
7.0
 40
7.0
 40
8.0
 40
8.0
 40
8.0
 40
9.0
 40
9.0
 40
9.0
 40
10.0
 40
10.0
 40
10.0
 40
11.0
 40
11.0
 40
11.0
 40
12.0
 40
12.0
 40
12.0
 40
13.0
 40
13.0
 40
13.0
 40
14.0
 40
14.0
 40
14.0
 40
15.0
 40
15.0
 40
15.0
 40
16.0
 40
16.0
 40
16.0
 40
17.0
 40
17.0
 40
17.0
 40
18.0
 40
18.0
 40
18.0
 40
19.0
 40
19.0
 40
19.0
 40
20.0
 40
20.0
 40
20.0
 40
21.0
 40
21.0
 40
21.0
 40
22.0
 40
22.0
 40
22.0
 40
23.0
 40
23.0
 40
23.0
 40
24.0
 40
24.0
 40
24.0
 40
25.0
 40
25.0
 40
25.0
 40
26.0
 40
26.0
 40
26.0
 40
27.0
 40
27.0
 40
27.0
 40
28.0
 40
28.0
 40
28.0
 40
29.0
 40
29.0
 40
29.0
 40
30.0
 40
30.0
 40
30.0
 40
31.0
 40
31.0
 40
31.0
 40
32.0
 40
32.0
 40
32.0
 40
33.0
 40
33.0
 40
33.0
 40
34.0
 40
34.0
 40
34.0
 40
35.0
 40
35.0
 40
35.0
 40
36.0
 40
36.0
 40
36.0
 40
37.0
 40
37.0
 40
37.0
 40
38.0
 40
38.0
 40
38.0
 40
39.0
 40
39.0
 40
39.0
 40
40.0
 40
40.0
 40
40.0
 40
41.0
 40
41.0
 40
41.0
 40
42.0
 40
42.0
 40
42.0
 40
43.0
 40
43.0
 40
43.0
 40
44.0
 40
44.0
 40
44.0
 40
45.0
 40
45.0
 40
45.0
 40
46.0
 40
46.0
 40
46.0
 40
47.0
 40
47.0
 40
47.0
 40
48.0
 40
48.0
 40
48.0
 40
49.0
 40
49.0
 40
49.0
 40
50.0
 40
50.0
 40
50.0
 40
51.0
 40
51.0
 40
51.0
 40
52.0
 40
52.0
 40
52.0
 40
53.0
 40
53.0
 40
53.0
 40
54.0
 40
54.0
 40
54.0
 40
55.0
 40
55.0
 40
55.0
 40
56.0
 40
56.0
 40
56.0
 40
57.0
 40
57.0
 40
57.0
 40
58.0
 40
58.0
 40
58.0
 40
59.0
 40
59.0
 40
59.0
 40
59.0
 10
85.64576278240801
 20
-120.3768038978572
 30
0.0
 10
85.64576278240801
 20
-120.3768038978572
 30
0.0
 10
85.08834633289459
 20
-120.3768038978572
 30
0.0
 10
85.08834633289459
 20
-120.3768038978572
 30
0.0
 10
84.90127764804552
 20
-120.3768038978572
 30
0.0
 10
84.71248641545382
 20
-120.3809380124395
 30
0.0
 10
84.52541773060476
 20
-120.3936848657349
 30
0.0
 10
84.52541773060476
 20
-120.3936848657349
 30
0.0
 10
84.52541773060476
 20
-120.1864623722971
 30
0.0
 10
84.52541773060476
 20
-120.1864623722971
 30
0.0
 10
84.71989337074712
 20
-120.1990369708183
 30
0.0
 10
85.00325247440891
 20
-120.2033433401749
 30
0.0
 10
85.08834633289459
 20
-120.2033433401749
 30
0.0
 10
85.08834633289459
 20
-120.2033433401749
 30
0.0
 10
85.28092717052004
 20
-120.2033433401749
 30
0.0
 10
85.28092717052004
 20
-120.2033433401749
 30
0.0
 10
85.28092717052004
 20
-120.2033433401749
 30
0.0
 10
85.28092717052004
 20
-120.0615776609568
 30
0.0
 10
85.28092717052004
 20
-120.0615776609568
 30
0.0
 10
85.28092717052004
 20
-120.0615776609568
 30
0.0
 10
85.1401950199476
 20
-120.0615776609568
 30
0.0
 10
85.1401950199476
 20
-120.0615776609568
 30
0.0
 10
84.99567326434136
 20
-120.0615776609568
 30
0.0
 10
84.8513237635094
 20
-120.0658840303134
 30
0.0
 10
84.70697426267742
 20
-120.0806979409
 30
0.0
 10
84.70697426267742
 20
-120.0806979409
 30
0.0
 10
84.70697426267742
 20
-119.8712361353968
 30
0.0
 10
84.70697426267742
 20
-119.8712361353968
 30
0.0
 10
84.85683591628579
 20
-119.8860500459834
 30
0.0
 10
85.073532422308
 20
-119.8901841605657
 30
0.0
 10
85.1401950199476
 20
-119.8901841605657
 30
0.0
 10
85.1401950199476
 20
-119.8901841605657
 30
0.0
 10
85.28092717052004
 20
-119.8901841605657
 30
0.0
 10
85.28092717052004
 20
-119.8901841605657
 30
0.0
 10
85.27713756548627
 20
-119.8183539196982
 30
0.0
 10
85.27713756548627
 20
-119.8119804930505
 30
0.0
 10
85.27162541270988
 20
-119.7590982773519
 30
0.0
 10
85.27162541270988
 20
-119.7590982773519
 30
0.0
 10
85.39392630243624
 20
-119.7739121879385
 30
0.0
 10
85.39392630243624
 20
-119.7739121879385
 30
0.0
 10
85.39392630243624
 20
-119.7739121879385
 30
0.0
 10
85.30676538665942
 20
-119.6025186875473
 30
0.0
 10
85.30676538665942
 20
-119.6025186875473
 30
0.0
 10
85.34758976815964
 20
-119.608892114195
 30
0.0
 10
85.41235756328233
 20
-119.6173325981339
 30
0.0
 10
85.42717147386891
 20
-119.6173325981339
 30
0.0
 10
85.47161320562863
 20
-119.6173325981339
 30
0.0
 10
85.4864271162152
 20
-119.5961452608996
 30
0.0
 10
85.4864271162152
 20
-119.5391289306187
 30
0.0
 10
85.4864271162152
 20
-119.5391289306187
 30
0.0
 10
85.4864271162152
 20
-119.401497365983
 30
0.0
 10
85.4864271162152
 20
-119.401497365983
 30
0.0
 10
85.4864271162152
 20
-119.401497365983
 30
0.0
 10
85.39392630243624
 20
-119.401497365983
 30
0.0
 10
85.39392630243624
 20
-119.401497365983
 30
0.0
 10
85.27713756548627
 20
-119.401497365983
 30
0.0
 10
85.1401950199476
 20
-119.401497365983
 30
0.0
 10
85.03288029558206
 20
-119.4142442192784
 30
0.0
 10
85.03288029558206
 20
-119.4142442192784
 30
0.0
 10
85.03288029558206
 20
-119.2239026937183
 30
0.0
 10
85.03288029558206
 20
-119.2239026937183
 30
0.0
 10
85.17912459893091
 20
-119.2407836615961
 30
0.0
 10
85.38083493959229
 20
-119.2428507188872
 30
0.0
 10
85.39392630243624
 20
-119.2428507188872
 30
0.0
 10
85.39392630243624
 20
-119.2428507188872
 30
0.0
 10
85.4864271162152
 20
-119.2428507188872
 30
0.0
 10
85.4864271162152
 20
-119.2428507188872
 30
0.0
 10
85.4864271162152
 20
-119.2428507188872
 30
0.0
 10
85.4864271162152
 20
-119.1117648356735
 30
0.0
 10
85.4864271162152
 20
-119.1117648356735
 30
0.0
 10
85.4864271162152
 20
-119.1117648356735
 30
0.0
 10
85.45318194478254
 20
-119.1117648356735
 30
0.0
 10
85.45318194478254
 20
-119.1117648356735
 30
0.0
 10
85.41425236579921
 20
-119.1117648356735
 30
0.0
 10
85.3050428389168
 20
-119.1158989502558
 30
0.0
 10
85.22718368095015
 20
-119.1243394341946
 30
0.0
 10
85.22718368095015
 20
-119.1243394341946
 30
0.0
 10
85.22718368095015
 20
-119.0440687093883
 30
0.0
 10
85.22718368095015
 20
-119.0440687093883
 30
0.0
 10
85.1810194014478
 20
-119.0821370145003
 30
0.0
 10
85.15862628079368
 20
-119.0969509250869
 30
0.0
 10
85.12176375910151
 20
-119.1202053196123
 30
0.0
 10
85.12176375910151
 20
-119.1202053196123
 30
0.0
 10
84.9569159401323
 20
-118.9911864936897
 30
0.0
 10
84.9569159401323
 20
-118.9911864936897
 30
0.0
 10
85.02530108551451
 20
-118.95725230316
 30
0.0
 10
85.16241588582746
 20
-118.8938625462314
 30
0.0
 10
85.2995306861404
 20
-118.7500298097222
 30
0.0
 10
85.37170543655638
 20
-118.6716538874328
 30
0.0
 10
85.44009058193859
 20
-118.5870767932699
 30
0.0
 10
85.4864271162152
 20
-118.485446476455
 30
0.0
 10
85.4864271162152
 20
-118.485446476455
 30
0.0
 10
85.67160099854738
 20
-118.5469414308667
 30
0.0
 10
85.67160099854738
 20
-118.5469414308667
 30
0.0
 10
85.68830971165085
 20
-118.5533148575145
 30
0.0
 10
85.69761146946102
 20
-118.5617553414533
 30
0.0
 10
85.69761146946102
 20
-118.5743299399745
 30
0.0
 10
85.69761146946102
 20
-118.5913831626265
 30
0.0
 10
85.68641490913396
 20
-118.5975843344999
 30
0.0
 10
85.6641940432541
 20
-118.6103311877953
 30
0.0
 10
85.73464624592745
 20
-118.7076551352536
 30
0.0
 10
85.8772731990168
 20
-118.804979082712
 30
0.0
 10
85.90690102018995
 20
-118.8240993626551
 30
0.0
 10
86.03833141295223
 20
-118.9128105714003
 30
0.0
 10
86.13823918202448
 20
-118.9403713352823
 30
0.0
 10
86.20679658218094
 20
-118.9594916152254
 30
0.0
 10
86.20679658218094
 20
-118.9594916152254
 30
0.0
 10
86.10309920807492
 20
-119.1286458035512
 30
0.0
 10
86.10309920807492
 20
-119.1286458035512
 30
0.0
 10
86.02902965514205
 20
-119.099017982378
 30
0.0
 10
85.98458792338234
 20
-119.0800699572092
 30
0.0
 10
85.88089054927632
 20
-119.0144408882151
 30
0.0
 10
85.88089054927632
 20
-119.0144408882151
 30
0.0
 10
85.88089054927632
 20
-119.1243394341946
 30
0.0
 10
85.88089054927632
 20
-119.1243394341946
 30
0.0
 10
85.80871579886032
 20
-119.1158989502558
 30
0.0
 10
85.69761146946102
 20
-119.1117648356735
 30
0.0
 10
85.6512749351844
 20
-119.1117648356735
 30
0.0
 10
85.6512749351844
 20
-119.1117648356735
 30
0.0
 10
85.6512749351844
 20
-119.2428507188872
 30
0.0
 10
85.6512749351844
 20
-119.2428507188872
 30
0.0
 10
85.6512749351844
 20
-119.2428507188872
 30
0.0
 10
85.75686711180731
 20
-119.2428507188872
 30
0.0
 10
85.75686711180731
 20
-119.2428507188872
 30
0.0
 10
85.7587619143242
 20
-119.2428507188872
 30
0.0
 10
85.96236705750246
 20
-119.2407836615961
 30
0.0
 10
86.11791311866149
 20
-119.2239026937183
 30
0.0
 10
86.11791311866149
 20
-119.2239026937183
 30
0.0
 10
86.11791311866149
 20
-119.4142442192784
 30
0.0
 10
86.11791311866149
 20
-119.4142442192784
 30
0.0
 10
86.00491398674531
 20
-119.401497365983
 30
0.0
 10
85.86797144120662
 20
-119.401497365983
 30
0.0
 10
85.75686711180731
 20
-119.401497365983
 30
0.0
 10
85.75686711180731
 20
-119.401497365983
 30
0.0
 10
85.6512749351844
 20
-119.401497365983
 30
0.0
 10
85.6512749351844
 20
-119.401497365983
 30
0.0
 10
85.6512749351844
 20
-119.401497365983
 30
0.0
 10
85.6512749351844
 20
-119.6278401393639
 30
0.0
 10
85.6512749351844
 20
-119.6278401393639
 30
0.0
 10
85.6512749351844
 20
-119.7463514240565
 30
0.0
 10
85.62905406930454
 20
-119.7823526718773
 30
0.0
 10
85.48832191873208
 20
-119.7971665824639
 30
0.0
 10
85.49211152376587
 20
-119.8161146076328
 30
0.0
 10
85.4864271162152
 20
-119.8267944036371
 30
0.0
 10
85.45318194478254
 20
-119.8500487981625
 30
0.0
 10
85.45128714226566
 20
-119.8689968233314
 30
0.0
 10
85.45128714226566
 20
-119.8753702499791
 30
0.0
 10
85.44939233974877
 20
-119.8901841605657
 30
0.0
 10
85.44939233974877
 20
-119.8901841605657
 30
0.0
 10
85.56979842695824
 20
-119.8901841605657
 30
0.0
 10
85.56979842695824
 20
-119.8901841605657
 30
0.0
 10
85.71432018256448
 20
-119.8901841605657
 30
0.0
 10
85.86056448591333
 20
-119.8860500459834
 30
0.0
 10
86.0068087892622
 20
-119.8712361353968
 30
0.0
 10
86.0068087892622
 20
-119.8712361353968
 30
0.0
 10
86.0068087892622
 20
-120.0784586288346
 30
0.0
 10
86.0068087892622
 20
-120.0784586288346
 30
0.0
 10
85.8180175566705
 20
-120.0615776609568
 30
0.0
 10
85.58650714006171
 20
-120.0615776609568
 30
0.0
 10
85.56979842695824
 20
-120.0615776609568
 30
0.0
 10
85.56979842695824
 20
-120.0615776609568
 30
0.0
 10
85.44766979200614
 20
-120.0615776609568
 30
0.0
 10
85.44766979200614
 20
-120.0615776609568
 30
0.0
 10
85.44766979200614
 20
-120.0615776609568
 30
0.0
 10
85.44766979200614
 20
-120.2033433401749
 30
0.0
 10
85.44766979200614
 20
-120.2033433401749
 30
0.0
 10
85.44766979200614
 20
-120.2033433401749
 30
0.0
 10
85.64576278240801
 20
-120.2033433401749
 30
0.0
 10
85.64576278240801
 20
-120.2033433401749
 30
0.0
 10
85.8345540149997
 20
-120.2033433401749
 30
0.0
 10
86.02541230488254
 20
-120.1990369708183
 30
0.0
 10
86.21420353747423
 20
-120.1864623722971
 30
0.0
 10
86.21420353747423
 20
-120.1864623722971
 30
0.0
 10
86.21420353747423
 20
-120.3936848657349
 30
0.0
 10
86.21420353747423
 20
-120.3936848657349
 30
0.0
 10
85.96787921027887
 20
-120.3768038978572
 30
0.0
 10
85.66608884577099
 20
-120.3768038978572
 30
0.0
 10
85.64576278240801
 20
-120.3768038978572
 30
0.0
  0
SPLINE
  5
47
330
41
100
AcDbEntity
  8
_U+30EC_U+30A4_U+30E4_U+30FC 1
370
     0
100
AcDbSpline
210
0.0
220
0.0
230
1.0
 70
    11
 71
     3
 72
    23
 73
    19
 74
     0
 42
0.0000000001
 43
0.0000000001
 12
1.0
 22
0.0
 32
0.0
 13
1.0
 23
0.0
 33
0.0
 40
0.0
 40
0.0
 40
0.0
 40
0.0
 40
1.0
 40
1.0
 40
1.0
 40
2.0
 40
2.0
 40
2.0
 40
3.0
 40
3.0
 40
3.0
 40
4.0
 40
4.0
 40
4.0
 40
5.0
 40
5.0
 40
5.0
 40
6.0
 40
6.0
 40
6.0
 40
6.0
 10
84.66614988117722
 20
-119.7484184813476
 30
0.0
 10
84.66614988117722
 20
-119.7696058185819
 30
0.0
 10
84.6680446836941
 20
-119.8076741236939
 30
0.0
 10
84.64582381781425
 20
-119.8076741236939
 30
0.0
 10
84.63652206000407
 20
-119.8076741236939
 30
0.0
 10
84.62911510471078
 20
-119.8013006970462
 30
0.0
 10
84.6198133469006
 20
-119.7844197291685
 30
0.0
 10
84.6198133469006
 20
-119.7844197291685
 30
0.0
 10
84.52920733563853
 20
-119.6025186875473
 30
0.0
 10
84.52920733563853
 20
-119.6025186875473
 30
0.0
 10
84.71799856823023
 20
-119.4734998616247
 30
0.0
 10
84.89025334249271
 20
-119.1963419298363
 30
0.0
 10
84.93090546921867
 20
-119.1243394341946
 30
0.0
 10
84.93090546921867
 20
-119.1243394341946
 30
0.0
 10
84.99395071659873
 20
-119.3041734185247
 30
0.0
 10
84.99395071659873
 20
-119.3041734185247
 30
0.0
 10
84.87716197964878
 20
-119.5010606255067
 30
0.0
 10
84.72351072100663
 20
-119.685028724419
 30
0.0
 10
84.66614988117722
 20
-119.7484184813476
 30
0.0
  0
SPLINE
  5
48
330
41
100
AcDbEntity
  8
_U+30EC_U+30A4_U+30E4_U+30FC 1
370
     0
100
AcDbSpline
210
0.0
220
0.0
230
1.0
 70
    11
 71
     3
 72
    17
 73
    13
 74
     0
 42
0.0000000001
 43
0.0000000001
 12
1.0
 22
0.0
 32
0.0
 13
1.0
 23
0.0
 33
0.0
 40
0.0
 40
0.0
 40
0.0
 40
0.0
 40
1.0
 40
1.0
 40
1.0
 40
2.0
 40
2.0
 40
2.0
 40
3.0
 40
3.0
 40
3.0
 40
4.0
 40
4.0
 40
4.0
 40
4.0
 10
84.88835853997583
 20
-118.853554929054
 30
0.0
 10
84.83461505040593
 20
-118.77741831883
 30
0.0
 10
84.721788173264
 20
-118.7012817086059
 30
0.0
 10
84.63100990722766
 20
-118.6716538874328
 30
0.0
 10
84.63100990722766
 20
-118.6716538874328
 30
0.0
 10
84.71420896319646
 20
-118.5066338136893
 30
0.0
 10
84.71420896319646
 20
-118.5066338136893
 30
0.0
 10
84.80309242671589
 20
-118.5426350615102
 30
0.0
 10
84.89576549526912
 20
-118.5998236465653
 30
0.0
 10
84.97362465323576
 20
-118.6800943713717
 30
0.0
 10
84.97362465323576
 20
-118.6800943713717
 30
0.0
 10
84.88835853997583
 20
-118.853554929054
 30
0.0
 10
84.88835853997583
 20
-118.853554929054
 30
0.0
  0
SPLINE
  5
49
330
41
100
AcDbEntity
  8
_U+30EC_U+30A4_U+30E4_U+30FC 1
370
     0
100
AcDbSpline
210
0.0
220
0.0
230
1.0
 70
    11
 71
     3
 72
    23
 73
    19
 74
     0
 42
0.0000000001
 43
0.0000000001
 12
1.0
 22
0.0
 32
0.0
 13
1.0
 23
0.0
 33
0.0
 40
0.0
 40
0.0
 40
0.0
 40
0.0
 40
1.0
 40
1.0
 40
1.0
 40
2.0
 40
2.0
 40
2.0
 40
3.0
 40
3.0
 40
3.0
 40
4.0
 40
4.0
 40
4.0
 40
5.0
 40
5.0
 40
5.0
 40
6.0
 40
6.0
 40
6.0
 40
6.0
 10
85.28471677555382
 20
-119.5580769557876
 30
0.0
 10
85.26611325993348
 20
-119.581331350313
 30
0.0
 10
85.1810194014478
 20
-119.6934692083579
 30
0.0
 10
85.05871851172144
 20
-119.7739121879385
 30
0.0
 10
85.05871851172144
 20
-119.7739121879385
 30
0.0
 10
84.91247420837259
 20
-119.6533338459547
 30
0.0
 10
84.91247420837259
 20
-119.6533338459547
 30
0.0
 10
85.04390460113486
 20
-119.5771972357307
 30
0.0
 10
85.13089326213742
 20
-119.4819403455635
 30
0.0
 10
85.17344019138025
 20
-119.429058129865
 30
0.0
 10
85.17344019138025
 20
-119.429058129865
 30
0.0
 10
85.32536890227978
 20
-119.5115681667367
 30
0.0
 10
85.32536890227978
 20
-119.5115681667367
 30
0.0
 10
85.33277585757305
 20
-119.515702281319
 30
0.0
 10
85.34018281286635
 20
-119.5220757079667
 30
0.0
 10
85.34018281286635
 20
-119.532755503971
 30
0.0
 10
85.34018281286635
 20
-119.5580769557876
 30
0.0
 10
85.30866018917631
 20
-119.5580769557876
 30
0.0
 10
85.28471677555382
 20
-119.5580769557876
 30
0.0
  0
SPLINE
  5
4A
330
41
100
AcDbEntity
  8
_U+30EC_U+30A4_U+30E4_U+30FC 1
370
     0
100
AcDbSpline
210
0.0
220
0.0
230
1.0
 70
    11
 71
     3
 72
    20
 73
    16
 74
     0
 42
0.0000000001
 43
0.0000000001
 12
1.0
 22
0.0
 32
0.0
 13
1.0
 23
0.0
 33
0.0
 40
0.0
 40
0.0
 40
0.0
 40
0.0
 40
1.0
 40
1.0
 40
1.0
 40
2.0
 40
2.0
 40
2.0
 40
3.0
 40
3.0
 40
3.0
 40
4.0
 40
4.0
 40
4.0
 40
5.0
 40
5.0
 40
5.0
 40
5.0
 10
85.5456827585615
 20
-118.7160956191925
 30
0.0
 10
85.51243758712884
 20
-118.7648437203088
 30
0.0
 10
85.45869409755895
 20
-118.843047387824
 30
0.0
 10
85.33639320783257
 20
-118.9531181885777
 30
0.0
 10
85.40684541050594
 20
-118.95725230316
 30
0.0
 10
85.43285588141957
 20
-118.95725230316
 30
0.0
 10
85.45318194478254
 20
-118.95725230316
 30
0.0
 10
85.45318194478254
 20
-118.95725230316
 30
0.0
 10
85.65316973770129
 20
-118.95725230316
 30
0.0
 10
85.65316973770129
 20
-118.95725230316
 30
0.0
 10
85.68090275635755
 20
-118.95725230316
 30
0.0
 10
85.72344968560039
 20
-118.9551852458688
 30
0.0
 10
85.78838973549735
 20
-118.9531181885777
 30
0.0
 10
85.69020451416773
 20
-118.8790486356448
 30
0.0
 10
85.64748533015063
 20
-118.832539846594
 30
0.0
 10
85.5456827585615
 20
-118.7160956191925
 30
0.0
  0
SPLINE
  5
4B
330
41
100
AcDbEntity
  8
_U+30EC_U+30A4_U+30E4_U+30FC 1
370
     0
100
AcDbSpline
210
0.0
220
0.0
230
1.0
 70
    11
 71
     3
 72
    17
 73
    13
 74
     0
 42
0.0000000001
 43
0.0000000001
 12
1.0
 22
0.0
 32
0.0
 13
1.0
 23
0.0
 33
0.0
 40
0.0
 40
0.0
 40
0.0
 40
0.0
 40
1.0
 40
1.0
 40
1.0
 40
2.0
 40
2.0
 40
2.0
 40
3.0
 40
3.0
 40
3.0
 40
4.0
 40
4.0
 40
4.0
 40
4.0
 10
86.03643661043535
 20
-119.7718451306473
 30
0.0
 10
85.91792532574274
 20
-119.6597072726024
 30
0.0
 10
85.82525225718952
 20
-119.5961452608996
 30
0.0
 10
85.7215548830835
 20
-119.532755503971
 30
0.0
 10
85.7215548830835
 20
-119.532755503971
 30
0.0
 10
85.83283146725708
 20
-119.4206176459261
 30
0.0
 10
85.83283146725708
 20
-119.4206176459261
 30
0.0
 10
85.9475531469159
 20
-119.467126434977
 30
0.0
 10
86.04384356572862
 20
-119.5243150200321
 30
0.0
 10
86.15305309261105
 20
-119.6257730820727
 30
0.0
 10
86.15305309261105
 20
-119.6257730820727
 30
0.0
 10
86.03643661043535
 20
-119.7718451306473
 30
0.0
 10
86.03643661043535
 20
-119.7718451306473
 30
0.0
  0
HATCH
  5
4C
330
41
100
AcDbEntity
  8
_U+30EC_U+30A4_U+30E4_U+30FC 1
 62
   179
420
  2234388
100
AcDbHatch
 10
0.0
 20
0.0
 30
0.0
210
0.0
220
0.0
230
1.0
  2
SOLID
 70
     1
 71
     0
 91
        7
 92
        1
 93
        1
 72
     4
 94
        3
 73
     0
 74
     1
 95
       17
 96
       13
 40
0.0
 40
0.0
 40
0.0
 40
0.0
 40
1.0
 40
1.0
 40
1.0
 40
2.0
 40
2.0
 40
2.0
 40
3.0
 40
3.0
 40
3.0
 40
4.0
 40
4.0
 40
4.0
 40
4.0
 10
84.73091767629991
 20
-119.1984089871275
 10
84.63841686252096
 20
-119.0926445557303
 10
84.56796465984759
 20
-119.0545762506183
 10
84.48648815162144
 20
-119.022881372154
 10
84.48648815162144
 20
-119.022881372154
 10
84.58277857043417
 20
-118.8578612984105
 10
84.58277857043417
 20
-118.8578612984105
 10
84.6680446836941
 20
-118.9002359728791
 10
84.77346460554274
 20
-118.9784396403943
 10
84.81980113981936
 20
-119.033388913384
 10
84.81980113981936
 20
-119.033388913384
 10
84.73091767629991
 20
-119.1984089871275
 10
84.73091767629991
 20
-119.1984089871275
 97
        0
 97
        0
 92
        1
 93
        1
 72
     4
 94
        3
 73
     0
 74
     1
 95
      182
 96
      178
 40
0.0
 40
0.0
 40
0.0
 40
0.0
 40
1.0
 40
1.0
 40
1.0
 40
2.0
 40
2.0
 40
2.0
 40
3.0
 40
3.0
 40
3.0
 40
4.0
 40
4.0
 40
4.0
 40
5.0
 40
5.0
 40
5.0
 40
6.0
 40
6.0
 40
6.0
 40
7.0
 40
7.0
 40
7.0
 40
8.0
 40
8.0
 40
8.0
 40
9.0
 40
9.0
 40
9.0
 40
10.0
 40
10.0
 40
10.0
 40
11.0
 40
11.0
 40
11.0
 40
12.0
 40
12.0
 40
12.0
 40
13.0
 40
13.0
 40
13.0
 40
14.0
 40
14.0
 40
14.0
 40
15.0
 40
15.0
 40
15.0
 40
16.0
 40
16.0
 40
16.0
 40
17.0
 40
17.0
 40
17.0
 40
18.0
 40
18.0
 40
18.0
 40
19.0
 40
19.0
 40
19.0
 40
20.0
 40
20.0
 40
20.0
 40
21.0
 40
21.0
 40
21.0
 40
22.0
 40
22.0
 40
22.0
 40
23.0
 40
23.0
 40
23.0
 40
24.0
 40
24.0
 40
24.0
 40
25.0
 40
25.0
 40
25.0
 40
26.0
 40
26.0
 40
26.0
 40
27.0
 40
27.0
 40
27.0
 40
28.0
 40
28.0
 40
28.0
 40
29.0
 40
29.0
 40
29.0
 40
30.0
 40
30.0
 40
30.0
 40
31.0
 40
31.0
 40
31.0
 40
32.0
 40
32.0
 40
32.0
 40
33.0
 40
33.0
 40
33.0
 40
34.0
 40
34.0
 40
34.0
 40
35.0
 40
35.0
 40
35.0
 40
36.0
 40
36.0
 40
36.0
 40
37.0
 40
37.0
 40
37.0
 40
38.0
 40
38.0
 40
38.0
 40
39.0
 40
39.0
 40
39.0
 40
40.0
 40
40.0
 40
40.0
 40
41.0
 40
41.0
 40
41.0
 40
42.0
 40
42.0
 40
42.0
 40
43.0
 40
43.0
 40
43.0
 40
44.0
 40
44.0
 40
44.0
 40
45.0
 40
45.0
 40
45.0
 40
46.0
 40
46.0
 40
46.0
 40
47.0
 40
47.0
 40
47.0
 40
48.0
 40
48.0
 40
48.0
 40
49.0
 40
49.0
 40
49.0
 40
50.0
 40
50.0
 40
50.0
 40
51.0
 40
51.0
 40
51.0
 40
52.0
 40
52.0
 40
52.0
 40
53.0
 40
53.0
 40
53.0
 40
54.0
 40
54.0
 40
54.0
 40
55.0
 40
55.0
 40
55.0
 40
56.0
 40
56.0
 40
56.0
 40
57.0
 40
57.0
 40
57.0
 40
58.0
 40
58.0
 40
58.0
 40
59.0
 40
59.0
 40
59.0
 40
59.0
 10
85.64576278240801
 20
-120.3768038978572
 10
85.64576278240801
 20
-120.3768038978572
 10
85.08834633289459
 20
-120.3768038978572
 10
85.08834633289459
 20
-120.3768038978572
 10
84.90127764804552
 20
-120.3768038978572
 10
84.71248641545382
 20
-120.3809380124395
 10
84.52541773060476
 20
-120.3936848657349
 10
84.52541773060476
 20
-120.3936848657349
 10
84.52541773060476
 20
-120.1864623722971
 10
84.52541773060476
 20
-120.1864623722971
 10
84.71989337074712
 20
-120.1990369708183
 10
85.00325247440891
 20
-120.2033433401749
 10
85.08834633289459
 20
-120.2033433401749
 10
85.08834633289459
 20
-120.2033433401749
 10
85.28092717052004
 20
-120.2033433401749
 10
85.28092717052004
 20
-120.2033433401749
 10
85.28092717052004
 20
-120.2033433401749
 10
85.28092717052004
 20
-120.0615776609568
 10
85.28092717052004
 20
-120.0615776609568
 10
85.28092717052004
 20
-120.0615776609568
 10
85.1401950199476
 20
-120.0615776609568
 10
85.1401950199476
 20
-120.0615776609568
 10
84.99567326434136
 20
-120.0615776609568
 10
84.8513237635094
 20
-120.0658840303134
 10
84.70697426267742
 20
-120.0806979409
 10
84.70697426267742
 20
-120.0806979409
 10
84.70697426267742
 20
-119.8712361353968
 10
84.70697426267742
 20
-119.8712361353968
 10
84.85683591628579
 20
-119.8860500459834
 10
85.073532422308
 20
-119.8901841605657
 10
85.1401950199476
 20
-119.8901841605657
 10
85.1401950199476
 20
-119.8901841605657
 10
85.28092717052004
 20
-119.8901841605657
 10
85.28092717052004
 20
-119.8901841605657
 10
85.27713756548627
 20
-119.8183539196982
 10
85.27713756548627
 20
-119.8119804930505
 10
85.27162541270988
 20
-119.7590982773519
 10
85.27162541270988
 20
-119.7590982773519
 10
85.39392630243624
 20
-119.7739121879385
 10
85.39392630243624
 20
-119.7739121879385
 10
85.39392630243624
 20
-119.7739121879385
 10
85.30676538665942
 20
-119.6025186875473
 10
85.30676538665942
 20
-119.6025186875473
 10
85.34758976815964
 20
-119.608892114195
 10
85.41235756328233
 20
-119.6173325981339
 10
85.42717147386891
 20
-119.6173325981339
 10
85.47161320562863
 20
-119.6173325981339
 10
85.4864271162152
 20
-119.5961452608996
 10
85.4864271162152
 20
-119.5391289306187
 10
85.4864271162152
 20
-119.5391289306187
 10
85.4864271162152
 20
-119.401497365983
 10
85.4864271162152
 20
-119.401497365983
 10
85.4864271162152
 20
-119.401497365983
 10
85.39392630243624
 20
-119.401497365983
 10
85.39392630243624
 20
-119.401497365983
 10
85.27713756548627
 20
-119.401497365983
 10
85.1401950199476
 20
-119.401497365983
 10
85.03288029558206
 20
-119.4142442192784
 10
85.03288029558206
 20
-119.4142442192784
 10
85.03288029558206
 20
-119.2239026937183
 10
85.03288029558206
 20
-119.2239026937183
 10
85.17912459893091
 20
-119.2407836615961
 10
85.38083493959229
 20
-119.2428507188872
 10
85.39392630243624
 20
-119.2428507188872
 10
85.39392630243624
 20
-119.2428507188872
 10
85.4864271162152
 20
-119.2428507188872
 10
85.4864271162152
 20
-119.2428507188872
 10
85.4864271162152
 20
-119.2428507188872
 10
85.4864271162152
 20
-119.1117648356735
 10
85.4864271162152
 20
-119.1117648356735
 10
85.4864271162152
 20
-119.1117648356735
 10
85.45318194478254
 20
-119.1117648356735
 10
85.45318194478254
 20
-119.1117648356735
 10
85.41425236579921
 20
-119.1117648356735
 10
85.3050428389168
 20
-119.1158989502558
 10
85.22718368095015
 20
-119.1243394341946
 10
85.22718368095015
 20
-119.1243394341946
 10
85.22718368095015
 20
-119.0440687093883
 10
85.22718368095015
 20
-119.0440687093883
 10
85.1810194014478
 20
-119.0821370145003
 10
85.15862628079368
 20
-119.0969509250869
 10
85.12176375910151
 20
-119.1202053196123
 10
85.12176375910151
 20
-119.1202053196123
 10
84.9569159401323
 20
-118.9911864936897
 10
84.9569159401323
 20
-118.9911864936897
 10
85.02530108551451
 20
-118.95725230316
 10
85.16241588582746
 20
-118.8938625462314
 10
85.2995306861404
 20
-118.7500298097222
 10
85.37170543655638
 20
-118.6716538874328
 10
85.44009058193859
 20
-118.5870767932699
 10
85.4864271162152
 20
-118.485446476455
 10
85.4864271162152
 20
-118.485446476455
 10
85.67160099854738
 20
-118.5469414308667
 10
85.67160099854738
 20
-118.5469414308667
 10
85.68830971165085
 20
-118.5533148575145
 10
85.69761146946102
 20
-118.5617553414533
 10
85.69761146946102
 20
-118.5743299399745
 10
85.69761146946102
 20
-118.5913831626265
 10
85.68641490913396
 20
-118.5975843344999
 10
85.6641940432541
 20
-118.6103311877953
 10
85.73464624592745
 20
-118.7076551352536
 10
85.8772731990168
 20
-118.804979082712
 10
85.90690102018995
 20
-118.8240993626551
 10
86.03833141295223
 20
-118.9128105714003
 10
86.13823918202448
 20
-118.9403713352823
 10
86.20679658218094
 20
-118.9594916152254
 10
86.20679658218094
 20
-118.9594916152254
 10
86.10309920807492
 20
-119.1286458035512
 10
86.10309920807492
 20
-119.1286458035512
 10
86.02902965514205
 20
-119.099017982378
 10
85.98458792338234
 20
-119.0800699572092
 10
85.88089054927632
 20
-119.0144408882151
 10
85.88089054927632
 20
-119.0144408882151
 10
85.88089054927632
 20
-119.1243394341946
 10
85.88089054927632
 20
-119.1243394341946
 10
85.80871579886032
 20
-119.1158989502558
 10
85.69761146946102
 20
-119.1117648356735
 10
85.6512749351844
 20
-119.1117648356735
 10
85.6512749351844
 20
-119.1117648356735
 10
85.6512749351844
 20
-119.2428507188872
 10
85.6512749351844
 20
-119.2428507188872
 10
85.6512749351844
 20
-119.2428507188872
 10
85.75686711180731
 20
-119.2428507188872
 10
85.75686711180731
 20
-119.2428507188872
 10
85.7587619143242
 20
-119.2428507188872
 10
85.96236705750246
 20
-119.2407836615961
 10
86.11791311866149
 20
-119.2239026937183
 10
86.11791311866149
 20
-119.2239026937183
 10
86.11791311866149
 20
-119.4142442192784
 10
86.11791311866149
 20
-119.4142442192784
 10
86.00491398674531
 20
-119.401497365983
 10
85.86797144120662
 20
-119.401497365983
 10
85.75686711180731
 20
-119.401497365983
 10
85.75686711180731
 20
-119.401497365983
 10
85.6512749351844
 20
-119.401497365983
 10
85.6512749351844
 20
-119.401497365983
 10
85.6512749351844
 20
-119.401497365983
 10
85.6512749351844
 20
-119.6278401393639
 10
85.6512749351844
 20
-119.6278401393639
 10
85.6512749351844
 20
-119.7463514240565
 10
85.62905406930454
 20
-119.7823526718773
 10
85.48832191873208
 20
-119.7971665824639
 10
85.49211152376587
 20
-119.8161146076328
 10
85.4864271162152
 20
-119.8267944036371
 10
85.45318194478254
 20
-119.8500487981625
 10
85.45128714226566
 20
-119.8689968233314
 10
85.45128714226566
 20
-119.8753702499791
 10
85.44939233974877
 20
-119.8901841605657
 10
85.44939233974877
 20
-119.8901841605657
 10
85.56979842695824
 20
-119.8901841605657
 10
85.56979842695824
 20
-119.8901841605657
 10
85.71432018256448
 20
-119.8901841605657
 10
85.86056448591333
 20
-119.8860500459834
 10
86.0068087892622
 20
-119.8712361353968
 10
86.0068087892622
 20
-119.8712361353968
 10
86.0068087892622
 20
-120.0784586288346
 10
86.0068087892622
 20
-120.0784586288346
 10
85.8180175566705
 20
-120.0615776609568
 10
85.58650714006171
 20
-120.0615776609568
 10
85.56979842695824
 20
-120.0615776609568
 10
85.56979842695824
 20
-120.0615776609568
 10
85.44766979200614
 20
-120.0615776609568
 10
85.44766979200614
 20
-120.0615776609568
 10
85.44766979200614
 20
-120.0615776609568
 10
85.44766979200614
 20
-120.2033433401749
 10
85.44766979200614
 20
-120.2033433401749
 10
85.44766979200614
 20
-120.2033433401749
 10
85.64576278240801
 20
-120.2033433401749
 10
85.64576278240801
 20
-120.2033433401749
 10
85.8345540149997
 20
-120.2033433401749
 10
86.02541230488254
 20
-120.1990369708183
 10
86.21420353747423
 20
-120.1864623722971
 10
86.21420353747423
 20
-120.1864623722971
 10
86.21420353747423
 20
-120.3936848657349
 10
86.21420353747423
 20
-120.3936848657349
 10
85.96787921027887
 20
-120.3768038978572
 10
85.66608884577099
 20
-120.3768038978572
 10
85.64576278240801
 20
-120.3768038978572
 97
        0
 97
        0
 92
        1
 93
        1
 72
     4
 94
        3
 73
     0
 74
     1
 95
       23
 96
       19
 40
0.0
 40
0.0
 40
0.0
 40
0.0
 40
1.0
 40
1.0
 40
1.0
 40
2.0
 40
2.0
 40
2.0
 40
3.0
 40
3.0
 40
3.0
 40
4.0
 40
4.0
 40
4.0
 40
5.0
 40
5.0
 40
5.0
 40
6.0
 40
6.0
 40
6.0
 40
6.0
 10
84.66614988117722
 20
-119.7484184813476
 10
84.66614988117722
 20
-119.7696058185819
 10
84.6680446836941
 20
-119.8076741236939
 10
84.64582381781425
 20
-119.8076741236939
 10
84.63652206000407
 20
-119.8076741236939
 10
84.62911510471078
 20
-119.8013006970462
 10
84.6198133469006
 20
-119.7844197291685
 10
84.6198133469006
 20
-119.7844197291685
 10
84.52920733563853
 20
-119.6025186875473
 10
84.52920733563853
 20
-119.6025186875473
 10
84.71799856823023
 20
-119.4734998616247
 10
84.89025334249271
 20
-119.1963419298363
 10
84.93090546921867
 20
-119.1243394341946
 10
84.93090546921867
 20
-119.1243394341946
 10
84.99395071659873
 20
-119.3041734185247
 10
84.99395071659873
 20
-119.3041734185247
 10
84.87716197964878
 20
-119.5010606255067
 10
84.72351072100663
 20
-119.685028724419
 10
84.66614988117722
 20
-119.7484184813476
 97
        0
 97
        0
 92
        1
 93
        1
 72
     4
 94
        3
 73
     0
 74
     1
 95
       17
 96
       13
 40
0.0
 40
0.0
 40
0.0
 40
0.0
 40
1.0
 40
1.0
 40
1.0
 40
2.0
 40
2.0
 40
2.0
 40
3.0
 40
3.0
 40
3.0
 40
4.0
 40
4.0
 40
4.0
 40
4.0
 10
84.88835853997583
 20
-118.853554929054
 10
84.83461505040593
 20
-118.77741831883
 10
84.721788173264
 20
-118.7012817086059
 10
84.63100990722766
 20
-118.6716538874328
 10
84.63100990722766
 20
-118.6716538874328
 10
84.71420896319646
 20
-118.5066338136893
 10
84.71420896319646
 20
-118.5066338136893
 10
84.80309242671589
 20
-118.5426350615102
 10
84.89576549526912
 20
-118.5998236465653
 10
84.97362465323576
 20
-118.6800943713717
 10
84.97362465323576
 20
-118.6800943713717
 10
84.88835853997583
 20
-118.853554929054
 10
84.88835853997583
 20
-118.853554929054
 97
        0
 97
        0
 92
        1
 93
        1
 72
     4
 94
        3
 73
     0
 74
     1
 95
       23
 96
       19
 40
0.0
 40
0.0
 40
0.0
 40
0.0
 40
1.0
 40
1.0
 40
1.0
 40
2.0
 40
2.0
 40
2.0
 40
3.0
 40
3.0
 40
3.0
 40
4.0
 40
4.0
 40
4.0
 40
5.0
 40
5.0
 40
5.0
 40
6.0
 40
6.0
 40
6.0
 40
6.0
 10
85.28471677555382
 20
-119.5580769557876
 10
85.26611325993348
 20
-119.581331350313
 10
85.1810194014478
 20
-119.6934692083579
 10
85.05871851172144
 20
-119.7739121879385
 10
85.05871851172144
 20
-119.7739121879385
 10
84.91247420837259
 20
-119.6533338459547
 10
84.91247420837259
 20
-119.6533338459547
 10
85.04390460113486
 20
-119.5771972357307
 10
85.13089326213742
 20
-119.4819403455635
 10
85.17344019138025
 20
-119.429058129865
 10
85.17344019138025
 20
-119.429058129865
 10
85.32536890227978
 20
-119.5115681667367
 10
85.32536890227978
 20
-119.5115681667367
 10
85.33277585757305
 20
-119.515702281319
 10
85.34018281286635
 20
-119.5220757079667
 10
85.34018281286635
 20
-119.532755503971
 10
85.34018281286635
 20
-119.5580769557876
 10
85.30866018917631
 20
-119.5580769557876
 10
85.28471677555382
 20
-119.5580769557876
 97
        0
 97
        0
 92
        1
 93
        1
 72
     4
 94
        3
 73
     0
 74
     1
 95
       20
 96
       16
 40
0.0
 40
0.0
 40
0.0
 40
0.0
 40
1.0
 40
1.0
 40
1.0
 40
2.0
 40
2.0
 40
2.0
 40
3.0
 40
3.0
 40
3.0
 40
4.0
 40
4.0
 40
4.0
 40
5.0
 40
5.0
 40
5.0
 40
5.0
 10
85.5456827585615
 20
-118.7160956191925
 10
85.51243758712884
 20
-118.7648437203088
 10
85.45869409755895
 20
-118.843047387824
 10
85.33639320783257
 20
-118.9531181885777
 10
85.40684541050594
 20
-118.95725230316
 10
85.43285588141957
 20
-118.95725230316
 10
85.45318194478254
 20
-118.95725230316
 10
85.45318194478254
 20
-118.95725230316
 10
85.65316973770129
 20
-118.95725230316
 10
85.65316973770129
 20
-118.95725230316
 10
85.68090275635755
 20
-118.95725230316
 10
85.72344968560039
 20
-118.9551852458688
 10
85.78838973549735
 20
-118.9531181885777
 10
85.69020451416773
 20
-118.8790486356448
 10
85.64748533015063
 20
-118.832539846594
 10
85.5456827585615
 20
-118.7160956191925
 97
        0
 97
        0
 92
        1
 93
        1
 72
     4
 94
        3
 73
     0
 74
     1
 95
       17
 96
       13
 40
0.0
 40
0.0
 40
0.0
 40
0.0
 40
1.0
 40
1.0
 40
1.0
 40
2.0
 40
2.0
 40
2.0
 40
3.0
 40
3.0
 40
3.0
 40
4.0
 40
4.0
 40
4.0
 40
4.0
 10
86.03643661043535
 20
-119.7718451306473
 10
85.91792532574274
 20
-119.6597072726024
 10
85.82525225718952
 20
-119.5961452608996
 10
85.7215548830835
 20
-119.532755503971
 10
85.7215548830835
 20
-119.532755503971
 10
85.83283146725708
 20
-119.4206176459261
 10
85.83283146725708
 20
-119.4206176459261
 10
85.9475531469159
 20
-119.467126434977
 10
86.04384356572862
 20
-119.5243150200321
 10
86.15305309261105
 20
-119.6257730820727
 10
86.15305309261105
 20
-119.6257730820727
 10
86.03643661043535
 20
-119.7718451306473
 10
86.03643661043535
 20
-119.7718451306473
 97
        0
 97
        0
 75
     2
 76
     1
 98
        0
  0
SPLINE
  5
4D
330
41
100
AcDbEntity
  8
_U+30EC_U+30A4_U+30E4_U+30FC 1
370
     0
100
AcDbSpline
210
0.0
220
0.0
230
1.0
 70
    11
 71
     3
 72
   113
 73
   109
 74
     0
 42
0.0000000001
 43
0.0000000001
 12
1.0
 22
0.0
 32
0.0
 13
1.0
 23
0.0
 33
0.0
 40
0.0
 40
0.0
 40
0.0
 40
0.0
 40
1.0
 40
1.0
 40
1.0
 40
2.0
 40
2.0
 40
2.0
 40
3.0
 40
3.0
 40
3.0
 40
4.0
 40
4.0
 40
4.0
 40
5.0
 40
5.0
 40
5.0
 40
6.0
 40
6.0
 40
6.0
 40
7.0
 40
7.0
 40
7.0
 40
8.0
 40
8.0
 40
8.0
 40
9.0
 40
9.0
 40
9.0
 40
10.0
 40
10.0
 40
10.0
 40
11.0
 40
11.0
 40
11.0
 40
12.0
 40
12.0
 40
12.0
 40
13.0
 40
13.0
 40
13.0
 40
14.0
 40
14.0
 40
14.0
 40
15.0
 40
15.0
 40
15.0
 40
16.0
 40
16.0
 40
16.0
 40
17.0
 40
17.0
 40
17.0
 40
18.0
 40
18.0
 40
18.0
 40
19.0
 40
19.0
 40
19.0
 40
20.0
 40
20.0
 40
20.0
 40
21.0
 40
21.0
 40
21.0
 40
22.0
 40
22.0
 40
22.0
 40
23.0
 40
23.0
 40
23.0
 40
24.0
 40
24.0
 40
24.0
 40
25.0
 40
25.0
 40
25.0
 40
26.0
 40
26.0
 40
26.0
 40
27.0
 40
27.0
 40
27.0
 40
28.0
 40
28.0
 40
28.0
 40
29.0
 40
29.0
 40
29.0
 40
30.0
 40
30.0
 40
30.0
 40
31.0
 40
31.0
 40
31.0
 40
32.0
 40
32.0
 40
32.0
 40
33.0
 40
33.0
 40
33.0
 40
34.0
 40
34.0
 40
34.0
 40
35.0
 40
35.0
 40
35.0
 40
36.0
 40
36.0
 40
36.0
 40
36.0
 10
87.6830199976105
 20
-119.7484184813476
 30
0.0
 10
87.6830199976105
 20
-119.7484184813476
 30
0.0
 10
87.77000865861305
 20
-119.8479817408713
 30
0.0
 10
87.77000865861305
 20
-119.8479817408713
 30
0.0
 10
87.77931041642323
 20
-119.8584892821014
 30
0.0
 10
87.7886121742334
 20
-119.8712361353968
 30
0.0
 10
87.7886121742334
 20
-119.8860500459834
 30
0.0
 10
87.7886121742334
 20
-119.8881171032745
 30
0.0
 10
87.7886121742334
 20
-119.9177449244476
 30
0.0
 10
87.75519474802648
 20
-119.9177449244476
 30
0.0
 10
87.74778779273319
 20
-119.9177449244476
 30
0.0
 10
87.71264781878365
 20
-119.9134385550911
 30
0.0
 10
87.70713566600725
 20
-119.9134385550911
 30
0.0
 10
87.6719956920577
 20
-119.9453056883297
 30
0.0
 10
87.63117131055749
 20
-119.9790676240851
 30
0.0
 10
87.54418264955493
 20
-120.0362562091402
 30
0.0
 10
87.6719956920577
 20
-120.1440876978286
 30
0.0
 10
87.81083304011327
 20
-120.2012762828837
 30
0.0
 10
88.04975041201534
 20
-120.2393445879957
 30
0.0
 10
88.04975041201534
 20
-120.2393445879957
 30
0.0
 10
87.9181477644788
 20
-120.4148722029692
 30
0.0
 10
87.9181477644788
 20
-120.4148722029692
 30
0.0
 10
87.6885321503869
 20
-120.3428697073275
 30
0.0
 10
87.55158960484822
 20
-120.2541584985823
 30
0.0
 10
87.48492700720864
 20
-120.2012762828837
 30
0.0
 10
87.35349661444636
 20
-120.0996459660688
 30
0.0
 10
87.22757837446046
 20
-119.9366929496165
 30
0.0
 10
87.16091577682089
 20
-119.7718451306473
 30
0.0
 10
87.10166013447459
 20
-119.8373019448671
 30
0.0
 10
87.03672008457762
 20
-119.8901841605657
 30
0.0
 10
86.96833493919542
 20
-119.9389322616819
 30
0.0
 10
86.96833493919542
 20
-119.9389322616819
 30
0.0
 10
86.96833493919542
 20
-120.1905964868794
 30
0.0
 10
86.96833493919542
 20
-120.1905964868794
 30
0.0
 10
87.1107896375105
 20
-120.1652750350628
 30
0.0
 10
87.27374265396281
 20
-120.1208333033031
 30
0.0
 10
87.3293809460496
 20
-120.1060193927166
 30
0.0
 10
87.3293809460496
 20
-120.1060193927166
 30
0.0
 10
87.30337047513596
 20
-120.2751735810423
 30
0.0
 10
87.30337047513596
 20
-120.2751735810423
 30
0.0
 10
87.30164792739335
 20
-120.2751735810423
 30
0.0
 10
87.28493921428988
 20
-120.28154700769
 30
0.0
 10
87.28304441177299
 20
-120.28154700769
 30
0.0
 10
87.10906708976788
 20
-120.319615312802
 30
0.0
 10
86.83122013888247
 20
-120.3852443817961
 30
0.0
 10
86.65896536461999
 20
-120.4212456296169
 30
0.0
 10
86.64983586158407
 20
-120.4381265974946
 30
0.0
 10
86.62933754344684
 20
-120.4698214759589
 30
0.0
 10
86.60901148008386
 20
-120.4698214759589
 30
0.0
 10
86.58489581168712
 20
-120.4698214759589
 30
0.0
 10
86.5812784614276
 20
-120.4508734507901
 30
0.0
 10
86.57938365891071
 20
-120.4317531708469
 30
0.0
 10
86.57938365891071
 20
-120.4317531708469
 30
0.0
 10
86.55716279303086
 20
-120.2582926131646
 30
0.0
 10
86.55716279303086
 20
-120.2582926131646
 30
0.0
 10
86.62193058815355
 20
-120.2498521292257
 30
0.0
 10
86.71649845922366
 20
-120.2371052759303
 30
0.0
 10
86.8108940755195
 20
-120.2160901934703
 30
0.0
 10
86.8108940755195
 20
-120.2160901934703
 30
0.0
 10
86.8108940755195
 20
-120.0383232664314
 30
0.0
 10
86.8108940755195
 20
-120.0383232664314
 30
0.0
 10
86.68497583553362
 20
-120.1101535072989
 30
0.0
 10
86.60160452479057
 20
-120.139781328472
 30
0.0
 10
86.45725502395861
 20
-120.1694091496451
 30
0.0
 10
86.45725502395861
 20
-120.1694091496451
 30
0.0
 10
86.3516628473357
 20
-120.0002549613194
 30
0.0
 10
86.3516628473357
 20
-120.0002549613194
 30
0.0
 10
86.62933754344684
 20
-119.9726941974374
 30
0.0
 10
86.79797496744982
 20
-119.8796766193356
 30
0.0
 10
86.95352102860885
 20
-119.7463514240565
 30
0.0
 10
86.82570798610608
 20
-119.7463514240565
 30
0.0
 10
86.56267494580725
 20
-119.750657793413
 30
0.0
 10
86.39059242631902
 20
-119.7570312200608
 30
0.0
 10
86.39059242631902
 20
-119.7570312200608
 30
0.0
 10
86.39059242631902
 20
-119.5792642930219
 30
0.0
 10
86.39059242631902
 20
-119.5792642930219
 30
0.0
 10
86.52564016934082
 20
-119.5856377196696
 30
0.0
 10
86.78488360460587
 20
-119.5920111463173
 30
0.0
 10
86.94611407331556
 20
-119.5920111463173
 30
0.0
 10
86.94611407331556
 20
-119.5920111463173
 30
0.0
 10
87.13128795564774
 20
-119.5920111463173
 30
0.0
 10
87.13128795564774
 20
-119.5920111463173
 30
0.0
 10
87.13128795564774
 20
-119.4967542561501
 30
0.0
 10
87.12939315313085
 20
-119.4459390977427
 30
0.0
 10
87.12388100035444
 20
-119.3994303086918
 30
0.0
 10
87.12388100035444
 20
-119.3994303086918
 30
0.0
 10
87.31267223294614
 20
-119.4163112765695
 30
0.0
 10
87.31267223294614
 20
-119.4163112765695
 30
0.0
 10
87.35521916218897
 20
-119.4206176459261
 30
0.0
 10
87.36262611748226
 20
-119.4354315565127
 30
0.0
 10
87.36262611748226
 20
-119.4502454670993
 30
0.0
 10
87.36262611748226
 20
-119.4755669189158
 30
0.0
 10
87.3478122068957
 20
-119.4840074028547
 30
0.0
 10
87.30337047513596
 20
-119.5095011094456
 30
0.0
 10
87.30164792739335
 20
-119.5348225612621
 30
0.0
 10
87.30164792739335
 20
-119.5411959879098
 30
0.0
 10
87.29975312487646
 20
-119.5920111463173
 30
0.0
 10
87.29975312487646
 20
-119.5920111463173
 30
0.0
 10
87.5016357203121
 20
-119.5920111463173
 30
0.0
 10
87.5016357203121
 20
-119.5920111463173
 30
0.0
 10
87.64598522114406
 20
-119.5920111463173
 30
0.0
 10
87.9016113061496
 20
-119.5856377196696
 30
0.0
 10
88.05887991505125
 20
-119.5792642930219
 30
0.0
 10
88.05887991505125
 20
-119.5792642930219
 30
0.0
 10
88.05887991505125
 20
-119.7570312200608
 30
0.0
 10
88.05887991505125
 20
-119.7570312200608
 30
0.0
 10
87.94605303790932
 20
-119.7527248507042
 30
0.0
 10
87.9255547197721
 20
-119.7527248507042
 30
0.0
 10
87.6830199976105
 20
-119.7484184813476
 30
0.0
  0
SPLINE
  5
4E
330
41
100
AcDbEntity
  8
_U+30EC_U+30A4_U+30E4_U+30FC 1
370
     0
100
AcDbSpline
210
0.0
220
0.0
230
1.0
 70
    11
 71
     3
 72
    23
 73
    19
 74
     0
 42
0.0000000001
 43
0.0000000001
 12
1.0
 22
0.0
 32
0.0
 13
1.0
 23
0.0
 33
0.0
 40
0.0
 40
0.0
 40
0.0
 40
0.0
 40
1.0
 40
1.0
 40
1.0
 40
2.0
 40
2.0
 40
2.0
 40
3.0
 40
3.0
 40
3.0
 40
4.0
 40
4.0
 40
4.0
 40
5.0
 40
5.0
 40
5.0
 40
6.0
 40
6.0
 40
6.0
 40
6.0
 10
86.55905759554774
 20
-119.3973632514007
 30
0.0
 10
86.54424368496116
 20
-119.4374986138038
 30
0.0
 10
86.53873153218477
 20
-119.4543795816816
 30
0.0
 10
86.52012801656441
 20
-119.4543795816816
 30
0.0
 10
86.50720890849473
 20
-119.4543795816816
 30
0.0
 10
86.49790715068455
 20
-119.4374986138038
 30
0.0
 10
86.49239499790815
 20
-119.4247517605084
 30
0.0
 10
86.49239499790815
 20
-119.4247517605084
 30
0.0
 10
86.4054063369056
 20
-119.2597316867649
 30
0.0
 10
86.4054063369056
 20
-119.2597316867649
 30
0.0
 10
86.49428980042504
 20
-119.2280368083006
 30
0.0
 10
86.62572019318732
 20
-119.1730875353109
 30
0.0
 10
86.79969751519243
 20
-119.0101345188586
 30
0.0
 10
86.79969751519243
 20
-119.0101345188586
 30
0.0
 10
86.84982365450283
 20
-119.1835950765409
 30
0.0
 10
86.84982365450283
 20
-119.1835950765409
 30
0.0
 10
86.76834714627667
 20
-119.2661051134126
 30
0.0
 10
86.69048798831003
 20
-119.3232936984678
 30
0.0
 10
86.55905759554774
 20
-119.3973632514007
 30
0.0
  0
SPLINE
  5
4F
330
41
100
AcDbEntity
  8
_U+30EC_U+30A4_U+30E4_U+30FC 1
370
     0
100
AcDbSpline
210
0.0
220
0.0
230
1.0
 70
    11
 71
     3
 72
    17
 73
    13
 74
     0
 42
0.0000000001
 43
0.0000000001
 12
1.0
 22
0.0
 32
0.0
 13
1.0
 23
0.0
 33
0.0
 40
0.0
 40
0.0
 40
0.0
 40
0.0
 40
1.0
 40
1.0
 40
1.0
 40
2.0
 40
2.0
 40
2.0
 40
3.0
 40
3.0
 40
3.0
 40
4.0
 40
4.0
 40
4.0
 40
4.0
 10
86.69238279082691
 20
-118.9319308513434
 30
0.0
 10
86.66637231991328
 20
-118.891623234166
 30
0.0
 10
86.60711667756698
 20
-118.7944715414819
 30
0.0
 10
86.44795326614843
 20
-118.6844007407282
 30
0.0
 10
86.44795326614843
 20
-118.6844007407282
 30
0.0
 10
86.55905759554774
 20
-118.551075545449
 30
0.0
 10
86.55905759554774
 20
-118.551075545449
 30
0.0
 10
86.72201061200006
 20
-118.6527058622639
 30
0.0
 10
86.77196449653619
 20
-118.7415893257834
 30
0.0
 10
86.79608016493293
 20
-118.7837917454777
 30
0.0
 10
86.79608016493293
 20
-118.7837917454777
 30
0.0
 10
86.69238279082691
 20
-118.9319308513434
 30
0.0
 10
86.69238279082691
 20
-118.9319308513434
 30
0.0
  0
SPLINE
  5
50
330
41
100
AcDbEntity
  8
_U+30EC_U+30A4_U+30E4_U+30FC 1
370
     0
100
AcDbSpline
210
0.0
220
0.0
230
1.0
 70
    11
 71
     3
 72
    38
 73
    34
 74
     0
 42
0.0000000001
 43
0.0000000001
 12
1.0
 22
0.0
 32
0.0
 13
1.0
 23
0.0
 33
0.0
 40
0.0
 40
0.0
 40
0.0
 40
0.0
 40
1.0
 40
1.0
 40
1.0
 40
2.0
 40
2.0
 40
2.0
 40
3.0
 40
3.0
 40
3.0
 40
4.0
 40
4.0
 40
4.0
 40
5.0
 40
5.0
 40
5.0
 40
6.0
 40
6.0
 40
6.0
 40
7.0
 40
7.0
 40
7.0
 40
8.0
 40
8.0
 40
8.0
 40
9.0
 40
9.0
 40
9.0
 40
10.0
 40
10.0
 40
10.0
 40
11.0
 40
11.0
 40
11.0
 40
11.0
 10
87.01449921869776
 20
-118.6272121556731
 30
0.0
 10
87.01277667095515
 20
-118.6738931994982
 30
0.0
 10
87.01088186843826
 20
-118.7901651721254
 30
0.0
 10
87.01088186843826
 20
-118.8346069038851
 30
0.0
 10
87.01088186843826
 20
-118.8346069038851
 30
0.0
 10
87.01088186843826
 20
-119.1815280192498
 30
0.0
 10
87.01088186843826
 20
-119.1815280192498
 30
0.0
 10
87.01088186843826
 20
-119.2683444254781
 30
0.0
 10
87.01277667095515
 20
-119.4099378499218
 30
0.0
 10
87.02190617399106
 20
-119.5305161919056
 30
0.0
 10
87.02190617399106
 20
-119.5305161919056
 30
0.0
 10
86.85533580727923
 20
-119.5305161919056
 30
0.0
 10
86.85533580727923
 20
-119.5305161919056
 30
0.0
 10
86.85895315753874
 20
-119.467126434977
 30
0.0
 10
86.86274276257251
 20
-119.4142442192784
 30
0.0
 10
86.8646375650894
 20
-119.3592949462887
 30
0.0
 10
86.86636011283203
 20
-119.2364772922395
 30
0.0
 10
86.86825491534891
 20
-119.2216633816529
 30
0.0
 10
86.86825491534891
 20
-119.1772216498932
 30
0.0
 10
86.86825491534891
 20
-119.1772216498932
 30
0.0
 10
86.86825491534891
 20
-118.8557942411194
 30
0.0
 10
86.86825491534891
 20
-118.8557942411194
 30
0.0
 10
86.86825491534891
 20
-118.8006727133554
 30
0.0
 10
86.85723060979612
 20
-118.5617553414533
 30
0.0
 10
86.85533580727923
 20
-118.5109401830459
 30
0.0
 10
86.85533580727923
 20
-118.5109401830459
 30
0.0
 10
87.03120793180123
 20
-118.5385009469279
 30
0.0
 10
87.03120793180123
 20
-118.5385009469279
 30
0.0
 10
87.04981144742158
 20
-118.540568004219
 30
0.0
 10
87.07754446607784
 20
-118.5447021188013
 30
0.0
 10
87.07754446607784
 20
-118.5701958253922
 30
0.0
 10
87.07754446607784
 20
-118.5975843344999
 30
0.0
 10
87.03310273431812
 20
-118.6187716717342
 30
0.0
 10
87.01449921869776
 20
-118.6272121556731
 30
0.0
  0
SPLINE
  5
51
330
41
100
AcDbEntity
  8
_U+30EC_U+30A4_U+30E4_U+30FC 1
370
     0
100
AcDbSpline
210
0.0
220
0.0
230
1.0
 70
    11
 71
     3
 72
    83
 73
    79
 74
     0
 42
0.0000000001
 43
0.0000000001
 12
1.0
 22
0.0
 32
0.0
 13
1.0
 23
0.0
 33
0.0
 40
0.0
 40
0.0
 40
0.0
 40
0.0
 40
1.0
 40
1.0
 40
1.0
 40
2.0
 40
2.0
 40
2.0
 40
3.0
 40
3.0
 40
3.0
 40
4.0
 40
4.0
 40
4.0
 40
5.0
 40
5.0
 40
5.0
 40
6.0
 40
6.0
 40
6.0
 40
7.0
 40
7.0
 40
7.0
 40
8.0
 40
8.0
 40
8.0
 40
9.0
 40
9.0
 40
9.0
 40
10.0
 40
10.0
 40
10.0
 40
11.0
 40
11.0
 40
11.0
 40
12.0
 40
12.0
 40
12.0
 40
13.0
 40
13.0
 40
13.0
 40
14.0
 40
14.0
 40
14.0
 40
15.0
 40
15.0
 40
15.0
 40
16.0
 40
16.0
 40
16.0
 40
17.0
 40
17.0
 40
17.0
 40
18.0
 40
18.0
 40
18.0
 40
19.0
 40
19.0
 40
19.0
 40
20.0
 40
20.0
 40
20.0
 40
21.0
 40
21.0
 40
21.0
 40
22.0
 40
22.0
 40
22.0
 40
23.0
 40
23.0
 40
23.0
 40
24.0
 40
24.0
 40
24.0
 40
25.0
 40
25.0
 40
25.0
 40
26.0
 40
26.0
 40
26.0
 40
26.0
 10
87.71643742381742
 20
-118.9488118192211
 30
0.0
 10
87.71643742381742
 20
-118.9488118192211
 30
0.0
 10
87.63117131055749
 20
-118.9488118192211
 30
0.0
 10
87.63117131055749
 20
-118.9488118192211
 30
0.0
 10
87.63117131055749
 20
-118.9488118192211
 30
0.0
 10
87.63117131055749
 20
-119.1963419298363
 30
0.0
 10
87.63117131055749
 20
-119.1963419298363
 30
0.0
 10
87.63117131055749
 20
-119.1963419298363
 30
0.0
 10
87.70334606097347
 20
-119.1963419298363
 30
0.0
 10
87.70334606097347
 20
-119.1963419298363
 30
0.0
 10
87.76087915557714
 20
-119.1963419298363
 30
0.0
 10
87.88300779052925
 20
-119.1920355604798
 30
0.0
 10
87.96999645153181
 20
-119.1835950765409
 30
0.0
 10
87.96999645153181
 20
-119.1835950765409
 30
0.0
 10
87.96999645153181
 20
-119.363429060871
 30
0.0
 10
87.96999645153181
 20
-119.363429060871
 30
0.0
 10
87.88851994330565
 20
-119.3549885769321
 30
0.0
 10
87.75708955054337
 20
-119.3508544623498
 30
0.0
 10
87.70334606097347
 20
-119.3508544623498
 30
0.0
 10
87.70334606097347
 20
-119.3508544623498
 30
0.0
 10
87.43669567041513
 20
-119.3508544623498
 30
0.0
 10
87.43669567041513
 20
-119.3508544623498
 30
0.0
 10
87.39053139091278
 20
-119.3508544623498
 30
0.0
 10
87.26271834841002
 20
-119.3549885769321
 30
0.0
 10
87.1700452798568
 20
-119.363429060871
 30
0.0
 10
87.1700452798568
 20
-119.363429060871
 30
0.0
 10
87.1700452798568
 20
-119.1835950765409
 30
0.0
 10
87.1700452798568
 20
-119.1835950765409
 30
0.0
 10
87.25720619563361
 20
-119.1920355604798
 30
0.0
 10
87.37933483058572
 20
-119.1963419298363
 30
0.0
 10
87.43669567041513
 20
-119.1963419298363
 30
0.0
 10
87.43669567041513
 20
-119.1963419298363
 30
0.0
 10
87.47562524939846
 20
-119.1963419298363
 30
0.0
 10
87.47562524939846
 20
-119.1963419298363
 30
0.0
 10
87.47562524939846
 20
-119.1963419298363
 30
0.0
 10
87.47562524939846
 20
-118.9488118192211
 30
0.0
 10
87.47562524939846
 20
-118.9488118192211
 30
0.0
 10
87.47562524939846
 20
-118.9488118192211
 30
0.0
 10
87.41085745427576
 20
-118.9488118192211
 30
0.0
 10
87.41085745427576
 20
-118.9488118192211
 30
0.0
 10
87.35711396470586
 20
-118.9488118192211
 30
0.0
 10
87.21086966135701
 20
-118.9531181885777
 30
0.0
 10
87.1052774847341
 20
-118.9615586725166
 30
0.0
 10
87.1052774847341
 20
-118.9615586725166
 30
0.0
 10
87.1052774847341
 20
-118.7837917454777
 30
0.0
 10
87.1052774847341
 20
-118.7837917454777
 30
0.0
 10
87.2053575085806
 20
-118.7901651721254
 30
0.0
 10
87.34419485663618
 20
-118.7944715414819
 30
0.0
 10
87.41085745427576
 20
-118.7944715414819
 30
0.0
 10
87.41085745427576
 20
-118.7944715414819
 30
0.0
 10
87.47373044688158
 20
-118.7944715414819
 30
0.0
 10
87.47373044688158
 20
-118.7944715414819
 30
0.0
 10
87.47011309662206
 20
-118.6420260662596
 30
0.0
 10
87.46821829410517
 20
-118.6082641305042
 30
0.0
 10
87.46270614132877
 20
-118.5150742976282
 30
0.0
 10
87.46270614132877
 20
-118.5150742976282
 30
0.0
 10
87.64788002366095
 20
-118.5385009469279
 30
0.0
 10
87.64788002366095
 20
-118.5385009469279
 30
0.0
 10
87.6701008895408
 20
-118.540568004219
 30
0.0
 10
87.69042695290379
 20
-118.5447021188013
 30
0.0
 10
87.69042695290379
 20
-118.5679565133268
 30
0.0
 10
87.69042695290379
 20
-118.5998236465653
 30
0.0
 10
87.65149737392046
 20
-118.6167046144431
 30
0.0
 10
87.63117131055749
 20
-118.6251450983819
 30
0.0
 10
87.63117131055749
 20
-118.6251450983819
 30
0.0
 10
87.63117131055749
 20
-118.7944715414819
 30
0.0
 10
87.63117131055749
 20
-118.7944715414819
 30
0.0
 10
87.63117131055749
 20
-118.7944715414819
 30
0.0
 10
87.71643742381742
 20
-118.7944715414819
 30
0.0
 10
87.71643742381742
 20
-118.7944715414819
 30
0.0
 10
87.783100021457
 20
-118.7944715414819
 30
0.0
 10
87.92193736951258
 20
-118.7901651721254
 30
0.0
 10
88.02373994110171
 20
-118.7837917454777
 30
0.0
 10
88.02373994110171
 20
-118.7837917454777
 30
0.0
 10
88.02373994110171
 20
-118.9615586725166
 30
0.0
 10
88.02373994110171
 20
-118.9615586725166
 30
0.0
 10
87.92934432480587
 20
-118.9551852458688
 30
0.0
 10
87.77741561390634
 20
-118.9488118192211
 30
0.0
 10
87.71643742381742
 20
-118.9488118192211
 30
0.0
  0
SPLINE
  5
52
330
41
100
AcDbEntity
  8
_U+30EC_U+30A4_U+30E4_U+30FC 1
370
     0
100
AcDbSpline
210
0.0
220
0.0
230
1.0
 70
    11
 71
     3
 72
    17
 73
    13
 74
     0
 42
0.0000000001
 43
0.0000000001
 12
1.0
 22
0.0
 32
0.0
 13
1.0
 23
0.0
 33
0.0
 40
0.0
 40
0.0
 40
0.0
 40
0.0
 40
1.0
 40
1.0
 40
1.0
 40
2.0
 40
2.0
 40
2.0
 40
3.0
 40
3.0
 40
3.0
 40
4.0
 40
4.0
 40
4.0
 40
4.0
 10
87.5016357203121
 20
-119.7463514240565
 30
0.0
 10
87.5016357203121
 20
-119.7463514240565
 30
0.0
 10
87.3238687932732
 20
-119.7463514240565
 30
0.0
 10
87.3238687932732
 20
-119.7463514240565
 30
0.0
 10
87.3478122068957
 20
-119.8056070664028
 30
0.0
 10
87.39604354368919
 20
-119.8776095620445
 30
0.0
 10
87.42015921208593
 20
-119.9072373832176
 30
0.0
 10
87.44410262570842
 20
-119.8924234726311
 30
0.0
 10
87.54418264955493
 20
-119.8288614609282
 30
0.0
 10
87.6237643552642
 20
-119.7463514240565
 30
0.0
 10
87.6237643552642
 20
-119.7463514240565
 30
0.0
 10
87.5016357203121
 20
-119.7463514240565
 30
0.0
 10
87.5016357203121
 20
-119.7463514240565
 30
0.0
  0
HATCH
  5
53
330
41
100
AcDbEntity
  8
_U+30EC_U+30A4_U+30E4_U+30FC 1
 62
   179
420
  2234388
100
AcDbHatch
 10
0.0
 20
0.0
 30
0.0
210
0.0
220
0.0
230
1.0
  2
SOLID
 70
     1
 71
     0
 91
        6
 92
        1
 93
        1
 72
     4
 94
        3
 73
     0
 74
     1
 95
      113
 96
      109
 40
0.0
 40
0.0
 40
0.0
 40
0.0
 40
1.0
 40
1.0
 40
1.0
 40
2.0
 40
2.0
 40
2.0
 40
3.0
 40
3.0
 40
3.0
 40
4.0
 40
4.0
 40
4.0
 40
5.0
 40
5.0
 40
5.0
 40
6.0
 40
6.0
 40
6.0
 40
7.0
 40
7.0
 40
7.0
 40
8.0
 40
8.0
 40
8.0
 40
9.0
 40
9.0
 40
9.0
 40
10.0
 40
10.0
 40
10.0
 40
11.0
 40
11.0
 40
11.0
 40
12.0
 40
12.0
 40
12.0
 40
13.0
 40
13.0
 40
13.0
 40
14.0
 40
14.0
 40
14.0
 40
15.0
 40
15.0
 40
15.0
 40
16.0
 40
16.0
 40
16.0
 40
17.0
 40
17.0
 40
17.0
 40
18.0
 40
18.0
 40
18.0
 40
19.0
 40
19.0
 40
19.0
 40
20.0
 40
20.0
 40
20.0
 40
21.0
 40
21.0
 40
21.0
 40
22.0
 40
22.0
 40
22.0
 40
23.0
 40
23.0
 40
23.0
 40
24.0
 40
24.0
 40
24.0
 40
25.0
 40
25.0
 40
25.0
 40
26.0
 40
26.0
 40
26.0
 40
27.0
 40
27.0
 40
27.0
 40
28.0
 40
28.0
 40
28.0
 40
29.0
 40
29.0
 40
29.0
 40
30.0
 40
30.0
 40
30.0
 40
31.0
 40
31.0
 40
31.0
 40
32.0
 40
32.0
 40
32.0
 40
33.0
 40
33.0
 40
33.0
 40
34.0
 40
34.0
 40
34.0
 40
35.0
 40
35.0
 40
35.0
 40
36.0
 40
36.0
 40
36.0
 40
36.0
 10
87.6830199976105
 20
-119.7484184813476
 10
87.6830199976105
 20
-119.7484184813476
 10
87.77000865861305
 20
-119.8479817408713
 10
87.77000865861305
 20
-119.8479817408713
 10
87.77931041642323
 20
-119.8584892821014
 10
87.7886121742334
 20
-119.8712361353968
 10
87.7886121742334
 20
-119.8860500459834
 10
87.7886121742334
 20
-119.8881171032745
 10
87.7886121742334
 20
-119.9177449244476
 10
87.75519474802648
 20
-119.9177449244476
 10
87.74778779273319
 20
-119.9177449244476
 10
87.71264781878365
 20
-119.9134385550911
 10
87.70713566600725
 20
-119.9134385550911
 10
87.6719956920577
 20
-119.9453056883297
 10
87.63117131055749
 20
-119.9790676240851
 10
87.54418264955493
 20
-120.0362562091402
 10
87.6719956920577
 20
-120.1440876978286
 10
87.81083304011327
 20
-120.2012762828837
 10
88.04975041201534
 20
-120.2393445879957
 10
88.04975041201534
 20
-120.2393445879957
 10
87.9181477644788
 20
-120.4148722029692
 10
87.9181477644788
 20
-120.4148722029692
 10
87.6885321503869
 20
-120.3428697073275
 10
87.55158960484822
 20
-120.2541584985823
 10
87.48492700720864
 20
-120.2012762828837
 10
87.35349661444636
 20
-120.0996459660688
 10
87.22757837446046
 20
-119.9366929496165
 10
87.16091577682089
 20
-119.7718451306473
 10
87.10166013447459
 20
-119.8373019448671
 10
87.03672008457762
 20
-119.8901841605657
 10
86.96833493919542
 20
-119.9389322616819
 10
86.96833493919542
 20
-119.9389322616819
 10
86.96833493919542
 20
-120.1905964868794
 10
86.96833493919542
 20
-120.1905964868794
 10
87.1107896375105
 20
-120.1652750350628
 10
87.27374265396281
 20
-120.1208333033031
 10
87.3293809460496
 20
-120.1060193927166
 10
87.3293809460496
 20
-120.1060193927166
 10
87.30337047513596
 20
-120.2751735810423
 10
87.30337047513596
 20
-120.2751735810423
 10
87.30164792739335
 20
-120.2751735810423
 10
87.28493921428988
 20
-120.28154700769
 10
87.28304441177299
 20
-120.28154700769
 10
87.10906708976788
 20
-120.319615312802
 10
86.83122013888247
 20
-120.3852443817961
 10
86.65896536461999
 20
-120.4212456296169
 10
86.64983586158407
 20
-120.4381265974946
 10
86.62933754344684
 20
-120.4698214759589
 10
86.60901148008386
 20
-120.4698214759589
 10
86.58489581168712
 20
-120.4698214759589
 10
86.5812784614276
 20
-120.4508734507901
 10
86.57938365891071
 20
-120.4317531708469
 10
86.57938365891071
 20
-120.4317531708469
 10
86.55716279303086
 20
-120.2582926131646
 10
86.55716279303086
 20
-120.2582926131646
 10
86.62193058815355
 20
-120.2498521292257
 10
86.71649845922366
 20
-120.2371052759303
 10
86.8108940755195
 20
-120.2160901934703
 10
86.8108940755195
 20
-120.2160901934703
 10
86.8108940755195
 20
-120.0383232664314
 10
86.8108940755195
 20
-120.0383232664314
 10
86.68497583553362
 20
-120.1101535072989
 10
86.60160452479057
 20
-120.139781328472
 10
86.45725502395861
 20
-120.1694091496451
 10
86.45725502395861
 20
-120.1694091496451
 10
86.3516628473357
 20
-120.0002549613194
 10
86.3516628473357
 20
-120.0002549613194
 10
86.62933754344684
 20
-119.9726941974374
 10
86.79797496744982
 20
-119.8796766193356
 10
86.95352102860885
 20
-119.7463514240565
 10
86.82570798610608
 20
-119.7463514240565
 10
86.56267494580725
 20
-119.750657793413
 10
86.39059242631902
 20
-119.7570312200608
 10
86.39059242631902
 20
-119.7570312200608
 10
86.39059242631902
 20
-119.5792642930219
 10
86.39059242631902
 20
-119.5792642930219
 10
86.52564016934082
 20
-119.5856377196696
 10
86.78488360460587
 20
-119.5920111463173
 10
86.94611407331556
 20
-119.5920111463173
 10
86.94611407331556
 20
-119.5920111463173
 10
87.13128795564774
 20
-119.5920111463173
 10
87.13128795564774
 20
-119.5920111463173
 10
87.13128795564774
 20
-119.4967542561501
 10
87.12939315313085
 20
-119.4459390977427
 10
87.12388100035444
 20
-119.3994303086918
 10
87.12388100035444
 20
-119.3994303086918
 10
87.31267223294614
 20
-119.4163112765695
 10
87.31267223294614
 20
-119.4163112765695
 10
87.35521916218897
 20
-119.4206176459261
 10
87.36262611748226
 20
-119.4354315565127
 10
87.36262611748226
 20
-119.4502454670993
 10
87.36262611748226
 20
-119.4755669189158
 10
87.3478122068957
 20
-119.4840074028547
 10
87.30337047513596
 20
-119.5095011094456
 10
87.30164792739335
 20
-119.5348225612621
 10
87.30164792739335
 20
-119.5411959879098
 10
87.29975312487646
 20
-119.5920111463173
 10
87.29975312487646
 20
-119.5920111463173
 10
87.5016357203121
 20
-119.5920111463173
 10
87.5016357203121
 20
-119.5920111463173
 10
87.64598522114406
 20
-119.5920111463173
 10
87.9016113061496
 20
-119.5856377196696
 10
88.05887991505125
 20
-119.5792642930219
 10
88.05887991505125
 20
-119.5792642930219
 10
88.05887991505125
 20
-119.7570312200608
 10
88.05887991505125
 20
-119.7570312200608
 10
87.94605303790932
 20
-119.7527248507042
 10
87.9255547197721
 20
-119.7527248507042
 10
87.6830199976105
 20
-119.7484184813476
 97
        0
 97
        0
 92
        1
 93
        1
 72
     4
 94
        3
 73
     0
 74
     1
 95
       23
 96
       19
 40
0.0
 40
0.0
 40
0.0
 40
0.0
 40
1.0
 40
1.0
 40
1.0
 40
2.0
 40
2.0
 40
2.0
 40
3.0
 40
3.0
 40
3.0
 40
4.0
 40
4.0
 40
4.0
 40
5.0
 40
5.0
 40
5.0
 40
6.0
 40
6.0
 40
6.0
 40
6.0
 10
86.55905759554774
 20
-119.3973632514007
 10
86.54424368496116
 20
-119.4374986138038
 10
86.53873153218477
 20
-119.4543795816816
 10
86.52012801656441
 20
-119.4543795816816
 10
86.50720890849473
 20
-119.4543795816816
 10
86.49790715068455
 20
-119.4374986138038
 10
86.49239499790815
 20
-119.4247517605084
 10
86.49239499790815
 20
-119.4247517605084
 10
86.4054063369056
 20
-119.2597316867649
 10
86.4054063369056
 20
-119.2597316867649
 10
86.49428980042504
 20
-119.2280368083006
 10
86.62572019318732
 20
-119.1730875353109
 10
86.79969751519243
 20
-119.0101345188586
 10
86.79969751519243
 20
-119.0101345188586
 10
86.84982365450283
 20
-119.1835950765409
 10
86.84982365450283
 20
-119.1835950765409
 10
86.76834714627667
 20
-119.2661051134126
 10
86.69048798831003
 20
-119.3232936984678
 10
86.55905759554774
 20
-119.3973632514007
 97
        0
 97
        0
 92
        1
 93
        1
 72
     4
 94
        3
 73
     0
 74
     1
 95
       17
 96
       13
 40
0.0
 40
0.0
 40
0.0
 40
0.0
 40
1.0
 40
1.0
 40
1.0
 40
2.0
 40
2.0
 40
2.0
 40
3.0
 40
3.0
 40
3.0
 40
4.0
 40
4.0
 40
4.0
 40
4.0
 10
86.69238279082691
 20
-118.9319308513434
 10
86.66637231991328
 20
-118.891623234166
 10
86.60711667756698
 20
-118.7944715414819
 10
86.44795326614843
 20
-118.6844007407282
 10
86.44795326614843
 20
-118.6844007407282
 10
86.55905759554774
 20
-118.551075545449
 10
86.55905759554774
 20
-118.551075545449
 10
86.72201061200006
 20
-118.6527058622639
 10
86.77196449653619
 20
-118.7415893257834
 10
86.79608016493293
 20
-118.7837917454777
 10
86.79608016493293
 20
-118.7837917454777
 10
86.69238279082691
 20
-118.9319308513434
 10
86.69238279082691
 20
-118.9319308513434
 97
        0
 97
        0
 92
        1
 93
        1
 72
     4
 94
        3
 73
     0
 74
     1
 95
       38
 96
       34
 40
0.0
 40
0.0
 40
0.0
 40
0.0
 40
1.0
 40
1.0
 40
1.0
 40
2.0
 40
2.0
 40
2.0
 40
3.0
 40
3.0
 40
3.0
 40
4.0
 40
4.0
 40
4.0
 40
5.0
 40
5.0
 40
5.0
 40
6.0
 40
6.0
 40
6.0
 40
7.0
 40
7.0
 40
7.0
 40
8.0
 40
8.0
 40
8.0
 40
9.0
 40
9.0
 40
9.0
 40
10.0
 40
10.0
 40
10.0
 40
11.0
 40
11.0
 40
11.0
 40
11.0
 10
87.01449921869776
 20
-118.6272121556731
 10
87.01277667095515
 20
-118.6738931994982
 10
87.01088186843826
 20
-118.7901651721254
 10
87.01088186843826
 20
-118.8346069038851
 10
87.01088186843826
 20
-118.8346069038851
 10
87.01088186843826
 20
-119.1815280192498
 10
87.01088186843826
 20
-119.1815280192498
 10
87.01088186843826
 20
-119.2683444254781
 10
87.01277667095515
 20
-119.4099378499218
 10
87.02190617399106
 20
-119.5305161919056
 10
87.02190617399106
 20
-119.5305161919056
 10
86.85533580727923
 20
-119.5305161919056
 10
86.85533580727923
 20
-119.5305161919056
 10
86.85895315753874
 20
-119.467126434977
 10
86.86274276257251
 20
-119.4142442192784
 10
86.8646375650894
 20
-119.3592949462887
 10
86.86636011283203
 20
-119.2364772922395
 10
86.86825491534891
 20
-119.2216633816529
 10
86.86825491534891
 20
-119.1772216498932
 10
86.86825491534891
 20
-119.1772216498932
 10
86.86825491534891
 20
-118.8557942411194
 10
86.86825491534891
 20
-118.8557942411194
 10
86.86825491534891
 20
-118.8006727133554
 10
86.85723060979612
 20
-118.5617553414533
 10
86.85533580727923
 20
-118.5109401830459
 10
86.85533580727923
 20
-118.5109401830459
 10
87.03120793180123
 20
-118.5385009469279
 10
87.03120793180123
 20
-118.5385009469279
 10
87.04981144742158
 20
-118.540568004219
 10
87.07754446607784
 20
-118.5447021188013
 10
87.07754446607784
 20
-118.5701958253922
 10
87.07754446607784
 20
-118.5975843344999
 10
87.03310273431812
 20
-118.6187716717342
 10
87.01449921869776
 20
-118.6272121556731
 97
        0
 97
        0
 92
        1
 93
        1
 72
     4
 94
        3
 73
     0
 74
     1
 95
       83
 96
       79
 40
0.0
 40
0.0
 40
0.0
 40
0.0
 40
1.0
 40
1.0
 40
1.0
 40
2.0
 40
2.0
 40
2.0
 40
3.0
 40
3.0
 40
3.0
 40
4.0
 40
4.0
 40
4.0
 40
5.0
 40
5.0
 40
5.0
 40
6.0
 40
6.0
 40
6.0
 40
7.0
 40
7.0
 40
7.0
 40
8.0
 40
8.0
 40
8.0
 40
9.0
 40
9.0
 40
9.0
 40
10.0
 40
10.0
 40
10.0
 40
11.0
 40
11.0
 40
11.0
 40
12.0
 40
12.0
 40
12.0
 40
13.0
 40
13.0
 40
13.0
 40
14.0
 40
14.0
 40
14.0
 40
15.0
 40
15.0
 40
15.0
 40
16.0
 40
16.0
 40
16.0
 40
17.0
 40
17.0
 40
17.0
 40
18.0
 40
18.0
 40
18.0
 40
19.0
 40
19.0
 40
19.0
 40
20.0
 40
20.0
 40
20.0
 40
21.0
 40
21.0
 40
21.0
 40
22.0
 40
22.0
 40
22.0
 40
23.0
 40
23.0
 40
23.0
 40
24.0
 40
24.0
 40
24.0
 40
25.0
 40
25.0
 40
25.0
 40
26.0
 40
26.0
 40
26.0
 40
26.0
 10
87.71643742381742
 20
-118.9488118192211
 10
87.71643742381742
 20
-118.9488118192211
 10
87.63117131055749
 20
-118.9488118192211
 10
87.63117131055749
 20
-118.9488118192211
 10
87.63117131055749
 20
-118.9488118192211
 10
87.63117131055749
 20
-119.1963419298363
 10
87.63117131055749
 20
-119.1963419298363
 10
87.63117131055749
 20
-119.1963419298363
 10
87.70334606097347
 20
-119.1963419298363
 10
87.70334606097347
 20
-119.1963419298363
 10
87.76087915557714
 20
-119.1963419298363
 10
87.88300779052925
 20
-119.1920355604798
 10
87.96999645153181
 20
-119.1835950765409
 10
87.96999645153181
 20
-119.1835950765409
 10
87.96999645153181
 20
-119.363429060871
 10
87.96999645153181
 20
-119.363429060871
 10
87.88851994330565
 20
-119.3549885769321
 10
87.75708955054337
 20
-119.3508544623498
 10
87.70334606097347
 20
-119.3508544623498
 10
87.70334606097347
 20
-119.3508544623498
 10
87.43669567041513
 20
-119.3508544623498
 10
87.43669567041513
 20
-119.3508544623498
 10
87.39053139091278
 20
-119.3508544623498
 10
87.26271834841002
 20
-119.3549885769321
 10
87.1700452798568
 20
-119.363429060871
 10
87.1700452798568
 20
-119.363429060871
 10
87.1700452798568
 20
-119.1835950765409
 10
87.1700452798568
 20
-119.1835950765409
 10
87.25720619563361
 20
-119.1920355604798
 10
87.37933483058572
 20
-119.1963419298363
 10
87.43669567041513
 20
-119.1963419298363
 10
87.43669567041513
 20
-119.1963419298363
 10
87.47562524939846
 20
-119.1963419298363
 10
87.47562524939846
 20
-119.1963419298363
 10
87.47562524939846
 20
-119.1963419298363
 10
87.47562524939846
 20
-118.9488118192211
 10
87.47562524939846
 20
-118.9488118192211
 10
87.47562524939846
 20
-118.9488118192211
 10
87.41085745427576
 20
-118.9488118192211
 10
87.41085745427576
 20
-118.9488118192211
 10
87.35711396470586
 20
-118.9488118192211
 10
87.21086966135701
 20
-118.9531181885777
 10
87.1052774847341
 20
-118.9615586725166
 10
87.1052774847341
 20
-118.9615586725166
 10
87.1052774847341
 20
-118.7837917454777
 10
87.1052774847341
 20
-118.7837917454777
 10
87.2053575085806
 20
-118.7901651721254
 10
87.34419485663618
 20
-118.7944715414819
 10
87.41085745427576
 20
-118.7944715414819
 10
87.41085745427576
 20
-118.7944715414819
 10
87.47373044688158
 20
-118.7944715414819
 10
87.47373044688158
 20
-118.7944715414819
 10
87.47011309662206
 20
-118.6420260662596
 10
87.46821829410517
 20
-118.6082641305042
 10
87.46270614132877
 20
-118.5150742976282
 10
87.46270614132877
 20
-118.5150742976282
 10
87.64788002366095
 20
-118.5385009469279
 10
87.64788002366095
 20
-118.5385009469279
 10
87.6701008895408
 20
-118.540568004219
 10
87.69042695290379
 20
-118.5447021188013
 10
87.69042695290379
 20
-118.5679565133268
 10
87.69042695290379
 20
-118.5998236465653
 10
87.65149737392046
 20
-118.6167046144431
 10
87.63117131055749
 20
-118.6251450983819
 10
87.63117131055749
 20
-118.6251450983819
 10
87.63117131055749
 20
-118.7944715414819
 10
87.63117131055749
 20
-118.7944715414819
 10
87.63117131055749
 20
-118.7944715414819
 10
87.71643742381742
 20
-118.7944715414819
 10
87.71643742381742
 20
-118.7944715414819
 10
87.783100021457
 20
-118.7944715414819
 10
87.92193736951258
 20
-118.7901651721254
 10
88.02373994110171
 20
-118.7837917454777
 10
88.02373994110171
 20
-118.7837917454777
 10
88.02373994110171
 20
-118.9615586725166
 10
88.02373994110171
 20
-118.9615586725166
 10
87.92934432480587
 20
-118.9551852458688
 10
87.77741561390634
 20
-118.9488118192211
 10
87.71643742381742
 20
-118.9488118192211
 97
        0
 97
        0
 92
        1
 93
        1
 72
     4
 94
        3
 73
     0
 74
     1
 95
       17
 96
       13
 40
0.0
 40
0.0
 40
0.0
 40
0.0
 40
1.0
 40
1.0
 40
1.0
 40
2.0
 40
2.0
 40
2.0
 40
3.0
 40
3.0
 40
3.0
 40
4.0
 40
4.0
 40
4.0
 40
4.0
 10
87.5016357203121
 20
-119.7463514240565
 10
87.5016357203121
 20
-119.7463514240565
 10
87.3238687932732
 20
-119.7463514240565
 10
87.3238687932732
 20
-119.7463514240565
 10
87.3478122068957
 20
-119.8056070664028
 10
87.39604354368919
 20
-119.8776095620445
 10
87.42015921208593
 20
-119.9072373832176
 10
87.44410262570842
 20
-119.8924234726311
 10
87.54418264955493
 20
-119.8288614609282
 10
87.6237643552642
 20
-119.7463514240565
 10
87.6237643552642
 20
-119.7463514240565
 10
87.5016357203121
 20
-119.7463514240565
 10
87.5016357203121
 20
-119.7463514240565
 97
        0
 97
        0
 75
     2
 76
     1
 98
        0
  0
SPLINE
  5
54
330
41
100
AcDbEntity
  8
_U+30EC_U+30A4_U+30E4_U+30FC 1
370
     0
100
AcDbSpline
210
0.0
220
0.0
230
1.0
 70
    11
 71
     3
 72
    77
 73
    73
 74
     0
 42
0.0000000001
 43
0.0000000001
 12
1.0
 22
0.0
 32
0.0
 13
1.0
 23
0.0
 33
0.0
 40
0.0
 40
0.0
 40
0.0
 40
0.0
 40
1.0
 40
1.0
 40
1.0
 40
2.0
 40
2.0
 40
2.0
 40
3.0
 40
3.0
 40
3.0
 40
4.0
 40
4.0
 40
4.0
 40
5.0
 40
5.0
 40
5.0
 40
6.0
 40
6.0
 40
6.0
 40
7.0
 40
7.0
 40
7.0
 40
8.0
 40
8.0
 40
8.0
 40
9.0
 40
9.0
 40
9.0
 40
10.0
 40
10.0
 40
10.0
 40
11.0
 40
11.0
 40
11.0
 40
12.0
 40
12.0
 40
12.0
 40
13.0
 40
13.0
 40
13.0
 40
14.0
 40
14.0
 40
14.0
 40
15.0
 40
15.0
 40
15.0
 40
16.0
 40
16.0
 40
16.0
 40
17.0
 40
17.0
 40
17.0
 40
18.0
 40
18.0
 40
18.0
 40
19.0
 40
19.0
 40
19.0
 40
20.0
 40
20.0
 40
20.0
 40
21.0
 40
21.0
 40
21.0
 40
22.0
 40
22.0
 40
22.0
 40
23.0
 40
23.0
 40
23.0
 40
24.0
 40
24.0
 40
24.0
 40
24.0
 10
89.68324243634656
 20
-120.3768038978572
 30
0.0
 10
89.6425903096206
 20
-120.4021253496738
 30
0.0
 10
89.53338078273819
 20
-120.4148722029692
 30
0.0
 10
89.46482338258171
 20
-120.4148722029692
 30
0.0
 10
89.45362682225465
 20
-120.4148722029692
 30
0.0
 10
89.43140595637479
 20
-120.4148722029692
 30
0.0
 10
89.40177813520164
 20
-120.4105658336126
 30
0.0
 10
89.40177813520164
 20
-120.4105658336126
 30
0.0
 10
89.31668427671597
 20
-120.1842230602317
 30
0.0
 10
89.31668427671597
 20
-120.1842230602317
 30
0.0
 10
89.34252249285535
 20
-120.1905964868794
 30
0.0
 10
89.39264863216573
 20
-120.1990369708183
 30
0.0
 10
89.49445120375486
 20
-120.1990369708183
 30
0.0
 10
89.56300860391134
 20
-120.1990369708183
 30
0.0
 10
89.56473115165396
 20
-120.156834551124
 30
0.0
 10
89.56473115165396
 20
-120.0996459660688
 30
0.0
 10
89.56473115165396
 20
-120.0996459660688
 30
0.0
 10
89.56473115165396
 20
-119.750657793413
 30
0.0
 10
89.56473115165396
 20
-119.750657793413
 30
0.0
 10
89.56473115165396
 20
-119.750657793413
 30
0.0
 10
89.16303301807383
 20
-119.750657793413
 30
0.0
 10
89.16303301807383
 20
-119.750657793413
 30
0.0
 10
89.16475556581645
 20
-119.8881171032745
 30
0.0
 10
89.16665036833334
 20
-120.0868991127734
 30
0.0
 10
89.17216252110974
 20
-120.2202243080526
 30
0.0
 10
89.17405732362663
 20
-120.2477850719346
 30
0.0
 10
89.17405732362663
 20
-120.2922268036943
 30
0.0
 10
89.18525388395369
 20
-120.3535495033318
 30
0.0
 10
89.18525388395369
 20
-120.3535495033318
 30
0.0
 10
88.97406953070788
 20
-120.3535495033318
 30
0.0
 10
88.97406953070788
 20
-120.3535495033318
 30
0.0
 10
88.99629039658774
 20
-120.2286647919914
 30
0.0
 10
88.99629039658774
 20
-119.8881171032745
 30
0.0
 10
88.99629039658774
 20
-119.750657793413
 30
0.0
 10
88.99629039658774
 20
-119.750657793413
 30
0.0
 10
88.60923391881992
 20
-119.750657793413
 30
0.0
 10
88.60923391881992
 20
-119.750657793413
 30
0.0
 10
88.58890785545694
 20
-119.9578802868508
 30
0.0
 10
88.53154701562754
 20
-120.2265977347003
 30
0.0
 10
88.35929224136504
 20
-120.4105658336126
 30
0.0
 10
88.35929224136504
 20
-120.4105658336126
 30
0.0
 10
88.19444442239583
 20
-120.2879204343377
 30
0.0
 10
88.19444442239583
 20
-120.2879204343377
 30
0.0
 10
88.41665308119445
 20
-120.0679510876045
 30
0.0
 10
88.44455835462497
 20
-119.7358438828265
 30
0.0
 10
88.44455835462497
 20
-119.4037366780484
 30
0.0
 10
88.44455835462497
 20
-119.4037366780484
 30
0.0
 10
88.44455835462497
 20
-118.9679320991643
 30
0.0
 10
88.44455835462497
 20
-118.9679320991643
 30
0.0
 10
88.44455835462497
 20
-118.9319308513434
 30
0.0
 10
88.44266355210809
 20
-118.6992146513148
 30
0.0
 10
88.4352565968148
 20
-118.5975843344999
 30
0.0
 10
88.5573852317669
 20
-118.6082641305042
 30
0.0
 10
88.76856958501273
 20
-118.6082641305042
 30
0.0
 10
88.8944878249986
 20
-118.6082641305042
 30
0.0
 10
88.8944878249986
 20
-118.6082641305042
 30
0.0
 10
89.296358213353
 20
-118.6082641305042
 30
0.0
 10
89.296358213353
 20
-118.6082641305042
 30
0.0
 10
89.30927732142268
 20
-118.6082641305042
 30
0.0
 10
89.61485729096435
 20
-118.6082641305042
 30
0.0
 10
89.75369463901991
 20
-118.5975843344999
 30
0.0
 10
89.75179983650303
 20
-118.6504665501985
 30
0.0
 10
89.74628768372662
 20
-118.8113525093597
 30
0.0
 10
89.74628768372662
 20
-118.8621676677671
 30
0.0
 10
89.74628768372662
 20
-118.8621676677671
 30
0.0
 10
89.74628768372662
 20
-119.4691934922681
 30
0.0
 10
89.74628768372662
 20
-119.4691934922681
 30
0.0
 10
89.74628768372662
 20
-119.4883137722113
 30
0.0
 10
89.7555894415368
 20
-120.0595106036657
 30
0.0
 10
89.7555894415368
 20
-120.1716484617106
 30
0.0
 10
89.7555894415368
 20
-120.2286647919914
 30
0.0
 10
89.7555894415368
 20
-120.3302951088063
 30
0.0
 10
89.68324243634656
 20
-120.3768038978572
 30
0.0
  0
POLYLINE
  5
55
330
41
100
AcDbEntity
  8
_U+30EC_U+30A4_U+30E4_U+30FC 1
370
     0
100
AcDb2dPolyline
 66
     1
 10
0.0
 20
0.0
 30
0.0
  0
VERTEX
  5
56
330
55
100
AcDbEntity
  8
_U+30EC_U+30A4_U+30E4_U+30FC 1
370
     0
100
AcDbVertex
100
AcDb2dVertex
 10
88.99629039658774
 20
-118.7901651721254
 30
0.0
  0
VERTEX
  5
57
330
55
100
AcDbEntity
  8
_U+30EC_U+30A4_U+30E4_U+30FC 1
370
     0
100
AcDbVertex
100
AcDb2dVertex
 10
88.6130235238537
 20
-118.7901651721254
 30
0.0
  0
VERTEX
  5
58
330
55
100
AcDbEntity
  8
_U+30EC_U+30A4_U+30E4_U+30FC 1
370
     0
100
AcDbVertex
100
AcDb2dVertex
 10
88.6130235238537
 20
-119.0948838677957
 30
0.0
  0
VERTEX
  5
59
330
55
100
AcDbEntity
  8
_U+30EC_U+30A4_U+30E4_U+30FC 1
370
     0
100
AcDbVertex
100
AcDb2dVertex
 10
88.99629039658774
 20
-119.0948838677957
 30
0.0
  0
VERTEX
  5
5A
330
55
100
AcDbEntity
  8
_U+30EC_U+30A4_U+30E4_U+30FC 1
370
     0
100
AcDbVertex
100
AcDb2dVertex
 10
88.99629039658774
 20
-118.7901651721254
 30
0.0
  0
SEQEND
  5
5B
330
55
100
AcDbEntity
  8
_U+30EC_U+30A4_U+30E4_U+30FC 1
370
     0
  0
POLYLINE
  5
5C
330
41
100
AcDbEntity
  8
_U+30EC_U+30A4_U+30E4_U+30FC 1
370
     0
100
AcDb2dPolyline
 66
     1
 10
0.0
 20
0.0
 30
0.0
  0
VERTEX
  5
5D
330
5C
100
AcDbEntity
  8
_U+30EC_U+30A4_U+30E4_U+30FC 1
370
     0
100
AcDbVertex
100
AcDb2dVertex
 10
88.99629039658774
 20
-119.2619709988303
 30
0.0
  0
VERTEX
  5
5E
330
5C
100
AcDbEntity
  8
_U+30EC_U+30A4_U+30E4_U+30FC 1
370
     0
100
AcDbVertex
100
AcDb2dVertex
 10
88.6130235238537
 20
-119.2619709988303
 30
0.0
  0
VERTEX
  5
5F
330
5C
100
AcDbEntity
  8
_U+30EC_U+30A4_U+30E4_U+30FC 1
370
     0
100
AcDbVertex
100
AcDb2dVertex
 10
88.6130235238537
 20
-119.570823809083
 30
0.0
  0
VERTEX
  5
60
330
5C
100
AcDbEntity
  8
_U+30EC_U+30A4_U+30E4_U+30FC 1
370
     0
100
AcDbVertex
100
AcDb2dVertex
 10
88.99629039658774
 20
-119.570823809083
 30
0.0
  0
VERTEX
  5
61
330
5C
100
AcDbEntity
  8
_U+30EC_U+30A4_U+30E4_U+30FC 1
370
     0
100
AcDbVertex
100
AcDb2dVertex
 10
88.99629039658774
 20
-119.2619709988303
 30
0.0
  0
SEQEND
  5
62
330
5C
100
AcDbEntity
  8
_U+30EC_U+30A4_U+30E4_U+30FC 1
370
     0
  0
POLYLINE
  5
63
330
41
100
AcDbEntity
  8
_U+30EC_U+30A4_U+30E4_U+30FC 1
370
     0
100
AcDb2dPolyline
 66
     1
 10
0.0
 20
0.0
 30
0.0
  0
VERTEX
  5
64
330
63
100
AcDbEntity
  8
_U+30EC_U+30A4_U+30E4_U+30FC 1
370
     0
100
AcDbVertex
100
AcDb2dVertex
 10
89.56473115165396
 20
-118.7901651721254
 30
0.0
  0
VERTEX
  5
65
330
63
100
AcDbEntity
  8
_U+30EC_U+30A4_U+30E4_U+30FC 1
370
     0
100
AcDbVertex
100
AcDb2dVertex
 10
89.16303301807383
 20
-118.7901651721254
 30
0.0
  0
VERTEX
  5
66
330
63
100
AcDbEntity
  8
_U+30EC_U+30A4_U+30E4_U+30FC 1
370
     0
100
AcDbVertex
100
AcDb2dVertex
 10
89.16303301807383
 20
-119.0948838677957
 30
0.0
  0
VERTEX
  5
67
330
63
100
AcDbEntity
  8
_U+30EC_U+30A4_U+30E4_U+30FC 1
370
     0
100
AcDbVertex
100
AcDb2dVertex
 10
89.56473115165396
 20
-119.0948838677957
 30
0.0
  0
VERTEX
  5
68
330
63
100
AcDbEntity
  8
_U+30EC_U+30A4_U+30E4_U+30FC 1
370
     0
100
AcDbVertex
100
AcDb2dVertex
 10
89.56473115165396
 20
-118.7901651721254
 30
0.0
  0
SEQEND
  5
69
330
63
100
AcDbEntity
  8
_U+30EC_U+30A4_U+30E4_U+30FC 1
370
     0
  0
POLYLINE
  5
6A
330
41
100
AcDbEntity
  8
_U+30EC_U+30A4_U+30E4_U+30FC 1
370
     0
100
AcDb2dPolyline
 66
     1
 10
0.0
 20
0.0
 30
0.0
  0
VERTEX
  5
6B
330
6A
100
AcDbEntity
  8
_U+30EC_U+30A4_U+30E4_U+30FC 1
370
     0
100
AcDbVertex
100
AcDb2dVertex
 10
89.56473115165396
 20
-119.2619709988303
 30
0.0
  0
VERTEX
  5
6C
330
6A
100
AcDbEntity
  8
_U+30EC_U+30A4_U+30E4_U+30FC 1
370
     0
100
AcDbVertex
100
AcDb2dVertex
 10
89.16303301807383
 20
-119.2619709988303
 30
0.0
  0
VERTEX
  5
6D
330
6A
100
AcDbEntity
  8
_U+30EC_U+30A4_U+30E4_U+30FC 1
370
     0
100
AcDbVertex
100
AcDb2dVertex
 10
89.16303301807383
 20
-119.570823809083
 30
0.0
  0
VERTEX
  5
6E
330
6A
100
AcDbEntity
  8
_U+30EC_U+30A4_U+30E4_U+30FC 1
370
     0
100
AcDbVertex
100
AcDb2dVertex
 10
89.56473115165396
 20
-119.570823809083
 30
0.0
  0
VERTEX
  5
6F
330
6A
100
AcDbEntity
  8
_U+30EC_U+30A4_U+30E4_U+30FC 1
370
     0
100
AcDbVertex
100
AcDb2dVertex
 10
89.56473115165396
 20
-119.2619709988303
 30
0.0
  0
SEQEND
  5
70
330
6A
100
AcDbEntity
  8
_U+30EC_U+30A4_U+30E4_U+30FC 1
370
     0
  0
HATCH
  5
71
330
41
100
AcDbEntity
  8
_U+30EC_U+30A4_U+30E4_U+30FC 1
 62
   179
420
  2234388
100
AcDbHatch
 10
0.0
 20
0.0
 30
0.0
210
0.0
220
0.0
230
1.0
  2
SOLID
 70
     1
 71
     0
 91
        5
 92
        1
 93
        1
 72
     4
 94
        3
 73
     0
 74
     1
 95
       77
 96
       73
 40
0.0
 40
0.0
 40
0.0
 40
0.0
 40
1.0
 40
1.0
 40
1.0
 40
2.0
 40
2.0
 40
2.0
 40
3.0
 40
3.0
 40
3.0
 40
4.0
 40
4.0
 40
4.0
 40
5.0
 40
5.0
 40
5.0
 40
6.0
 40
6.0
 40
6.0
 40
7.0
 40
7.0
 40
7.0
 40
8.0
 40
8.0
 40
8.0
 40
9.0
 40
9.0
 40
9.0
 40
10.0
 40
10.0
 40
10.0
 40
11.0
 40
11.0
 40
11.0
 40
12.0
 40
12.0
 40
12.0
 40
13.0
 40
13.0
 40
13.0
 40
14.0
 40
14.0
 40
14.0
 40
15.0
 40
15.0
 40
15.0
 40
16.0
 40
16.0
 40
16.0
 40
17.0
 40
17.0
 40
17.0
 40
18.0
 40
18.0
 40
18.0
 40
19.0
 40
19.0
 40
19.0
 40
20.0
 40
20.0
 40
20.0
 40
21.0
 40
21.0
 40
21.0
 40
22.0
 40
22.0
 40
22.0
 40
23.0
 40
23.0
 40
23.0
 40
24.0
 40
24.0
 40
24.0
 40
24.0
 10
89.68324243634656
 20
-120.3768038978572
 10
89.6425903096206
 20
-120.4021253496738
 10
89.53338078273819
 20
-120.4148722029692
 10
89.46482338258171
 20
-120.4148722029692
 10
89.45362682225465
 20
-120.4148722029692
 10
89.43140595637479
 20
-120.4148722029692
 10
89.40177813520164
 20
-120.4105658336126
 10
89.40177813520164
 20
-120.4105658336126
 10
89.31668427671597
 20
-120.1842230602317
 10
89.31668427671597
 20
-120.1842230602317
 10
89.34252249285535
 20
-120.1905964868794
 10
89.39264863216573
 20
-120.1990369708183
 10
89.49445120375486
 20
-120.1990369708183
 10
89.56300860391134
 20
-120.1990369708183
 10
89.56473115165396
 20
-120.156834551124
 10
89.56473115165396
 20
-120.0996459660688
 10
89.56473115165396
 20
-120.0996459660688
 10
89.56473115165396
 20
-119.750657793413
 10
89.56473115165396
 20
-119.750657793413
 10
89.56473115165396
 20
-119.750657793413
 10
89.16303301807383
 20
-119.750657793413
 10
89.16303301807383
 20
-119.750657793413
 10
89.16475556581645
 20
-119.8881171032745
 10
89.16665036833334
 20
-120.0868991127734
 10
89.17216252110974
 20
-120.2202243080526
 10
89.17405732362663
 20
-120.2477850719346
 10
89.17405732362663
 20
-120.2922268036943
 10
89.18525388395369
 20
-120.3535495033318
 10
89.18525388395369
 20
-120.3535495033318
 10
88.97406953070788
 20
-120.3535495033318
 10
88.97406953070788
 20
-120.3535495033318
 10
88.99629039658774
 20
-120.2286647919914
 10
88.99629039658774
 20
-119.8881171032745
 10
88.99629039658774
 20
-119.750657793413
 10
88.99629039658774
 20
-119.750657793413
 10
88.60923391881992
 20
-119.750657793413
 10
88.60923391881992
 20
-119.750657793413
 10
88.58890785545694
 20
-119.9578802868508
 10
88.53154701562754
 20
-120.2265977347003
 10
88.35929224136504
 20
-120.4105658336126
 10
88.35929224136504
 20
-120.4105658336126
 10
88.19444442239583
 20
-120.2879204343377
 10
88.19444442239583
 20
-120.2879204343377
 10
88.41665308119445
 20
-120.0679510876045
 10
88.44455835462497
 20
-119.7358438828265
 10
88.44455835462497
 20
-119.4037366780484
 10
88.44455835462497
 20
-119.4037366780484
 10
88.44455835462497
 20
-118.9679320991643
 10
88.44455835462497
 20
-118.9679320991643
 10
88.44455835462497
 20
-118.9319308513434
 10
88.44266355210809
 20
-118.6992146513148
 10
88.4352565968148
 20
-118.5975843344999
 10
88.5573852317669
 20
-118.6082641305042
 10
88.76856958501273
 20
-118.6082641305042
 10
88.8944878249986
 20
-118.6082641305042
 10
88.8944878249986
 20
-118.6082641305042
 10
89.296358213353
 20
-118.6082641305042
 10
89.296358213353
 20
-118.6082641305042
 10
89.30927732142268
 20
-118.6082641305042
 10
89.61485729096435
 20
-118.6082641305042
 10
89.75369463901991
 20
-118.5975843344999
 10
89.75179983650303
 20
-118.6504665501985
 10
89.74628768372662
 20
-118.8113525093597
 10
89.74628768372662
 20
-118.8621676677671
 10
89.74628768372662
 20
-118.8621676677671
 10
89.74628768372662
 20
-119.4691934922681
 10
89.74628768372662
 20
-119.4691934922681
 10
89.74628768372662
 20
-119.4883137722113
 10
89.7555894415368
 20
-120.0595106036657
 10
89.7555894415368
 20
-120.1716484617106
 10
89.7555894415368
 20
-120.2286647919914
 10
89.7555894415368
 20
-120.3302951088063
 10
89.68324243634656
 20
-120.3768038978572
 97
        0
 97
        0
 92
        1
 93
        4
 72
     1
 10
88.99629039658774
 20
-118.7901651721254
 11
88.6130235238537
 21
-118.7901651721254
 72
     1
 10
88.6130235238537
 20
-118.7901651721254
 11
88.6130235238537
 21
-119.0948838677957
 72
     1
 10
88.6130235238537
 20
-119.0948838677957
 11
88.99629039658774
 21
-119.0948838677957
 72
     1
 10
88.99629039658774
 20
-119.0948838677957
 11
88.99629039658774
 21
-118.7901651721254
 97
        0
 92
        1
 93
        4
 72
     1
 10
88.99629039658774
 20
-119.2619709988303
 11
88.6130235238537
 21
-119.2619709988303
 72
     1
 10
88.6130235238537
 20
-119.2619709988303
 11
88.6130235238537
 21
-119.570823809083
 72
     1
 10
88.6130235238537
 20
-119.570823809083
 11
88.99629039658774
 21
-119.570823809083
 72
     1
 10
88.99629039658774
 20
-119.570823809083
 11
88.99629039658774
 21
-119.2619709988303
 97
        0
 92
        1
 93
        4
 72
     1
 10
89.56473115165396
 20
-118.7901651721254
 11
89.16303301807383
 21
-118.7901651721254
 72
     1
 10
89.16303301807383
 20
-118.7901651721254
 11
89.16303301807383
 21
-119.0948838677957
 72
     1
 10
89.16303301807383
 20
-119.0948838677957
 11
89.56473115165396
 21
-119.0948838677957
 72
     1
 10
89.56473115165396
 20
-119.0948838677957
 11
89.56473115165396
 21
-118.7901651721254
 97
        0
 92
        1
 93
        4
 72
     1
 10
89.56473115165396
 20
-119.2619709988303
 11
89.16303301807383
 21
-119.2619709988303
 72
     1
 10
89.16303301807383
 20
-119.2619709988303
 11
89.16303301807383
 21
-119.570823809083
 72
     1
 10
89.16303301807383
 20
-119.570823809083
 11
89.56473115165396
 21
-119.570823809083
 72
     1
 10
89.56473115165396
 20
-119.570823809083
 11
89.56473115165396
 21
-119.2619709988303
 97
        0
 75
     2
 76
     1
 98
        0
  0
SPLINE
  5
72
330
41
100
AcDbEntity
  8
_U+30EC_U+30A4_U+30E4_U+30FC 1
370
     0
100
AcDbSpline
210
0.0
220
0.0
230
1.0
 70
    11
 71
     3
 72
    44
 73
    40
 74
     0
 42
0.0000000001
 43
0.0000000001
 12
1.0
 22
0.0
 32
0.0
 13
1.0
 23
0.0
 33
0.0
 40
0.0
 40
0.0
 40
0.0
 40
0.0
 40
1.0
 40
1.0
 40
1.0
 40
2.0
 40
2.0
 40
2.0
 40
3.0
 40
3.0
 40
3.0
 40
4.0
 40
4.0
 40
4.0
 40
5.0
 40
5.0
 40
5.0
 40
6.0
 40
6.0
 40
6.0
 40
7.0
 40
7.0
 40
7.0
 40
8.0
 40
8.0
 40
8.0
 40
9.0
 40
9.0
 40
9.0
 40
10.0
 40
10.0
 40
10.0
 40
11.0
 40
11.0
 40
11.0
 40
12.0
 40
12.0
 40
12.0
 40
13.0
 40
13.0
 40
13.0
 40
13.0
 10
91.32793102100483
 20
-119.12657874626
 30
0.0
 10
91.2297457996752
 20
-119.494687198859
 30
0.0
 10
91.18530406791548
 20
-119.6533338459547
 30
0.0
 10
91.01322154842725
 20
-119.9029310138611
 30
0.0
 10
90.85199107971756
 20
-120.1335801565986
 30
0.0
 10
90.64459633150553
 20
-120.319615312802
 30
0.0
 10
90.40016680682704
 20
-120.412805145678
 30
0.0
 10
90.40016680682704
 20
-120.412805145678
 30
0.0
 10
90.23170163759833
 20
-120.232971161348
 30
0.0
 10
90.23170163759833
 20
-120.232971161348
 30
0.0
 10
90.79273543737126
 20
-120.0806979409
 30
0.0
 10
91.08160669380946
 20
-119.5243150200321
 30
0.0
 10
91.13724498589625
 20
-119.0842040717915
 30
0.0
 10
91.13724498589625
 20
-119.0842040717915
 30
0.0
 10
90.46682940446664
 20
-119.0842040717915
 30
0.0
 10
90.46682940446664
 20
-119.0842040717915
 30
0.0
 10
90.38535289624048
 20
-119.0842040717915
 30
0.0
 10
90.22429468230504
 20
-119.088510441148
 30
0.0
 10
90.08735213676636
 20
-119.1074584663169
 30
0.0
 10
90.08735213676636
 20
-119.1074584663169
 30
0.0
 10
90.08735213676636
 20
-118.8874891195837
 30
0.0
 10
90.08735213676636
 20
-118.8874891195837
 30
0.0
 10
90.16314423744186
 20
-118.908676456818
 30
0.0
 10
90.38363034849785
 20
-118.908676456818
 30
0.0
 10
90.47061900950041
 20
-118.908676456818
 30
0.0
 10
90.47061900950041
 20
-118.908676456818
 30
0.0
 10
90.84837372945805
 20
-118.908676456818
 30
0.0
 10
90.84837372945805
 20
-118.908676456818
 30
0.0
 10
90.88540850592449
 20
-118.908676456818
 30
0.0
 10
91.09090845161964
 20
-118.9064371447526
 30
0.0
 10
91.12432587782656
 20
-118.9002359728791
 30
0.0
 10
91.16136065429299
 20
-118.8938625462314
 30
0.0
 10
91.16308320203562
 20
-118.891623234166
 30
0.0
 10
91.21682669160552
 20
-118.8514878717628
 30
0.0
 10
91.21682669160552
 20
-118.8514878717628
 30
0.0
 10
91.38150225580046
 20
-119.0060004042763
 30
0.0
 10
91.38150225580046
 20
-119.0060004042763
 30
0.0
 10
91.3556640396611
 20
-119.0356282254494
 30
0.0
 10
91.3427449315914
 20
-119.0673231039137
 30
0.0
 10
91.32793102100483
 20
-119.12657874626
 30
0.0
  0
SPLINE
  5
73
330
41
100
AcDbEntity
  8
_U+30EC_U+30A4_U+30E4_U+30FC 1
370
     0
100
AcDbSpline
210
0.0
220
0.0
230
1.0
 70
    11
 71
     3
 72
    17
 73
    13
 74
     0
 42
0.0000000001
 43
0.0000000001
 12
1.0
 22
0.0
 32
0.0
 13
1.0
 23
0.0
 33
0.0
 40
0.0
 40
0.0
 40
0.0
 40
0.0
 40
1.0
 40
1.0
 40
1.0
 40
2.0
 40
2.0
 40
2.0
 40
3.0
 40
3.0
 40
3.0
 40
4.0
 40
4.0
 40
4.0
 40
4.0
 10
91.51138235559438
 20
-118.9276244819869
 30
0.0
 10
91.40010577142081
 20
-118.9276244819869
 30
0.0
 10
91.31122230790136
 20
-118.8261664199462
 30
0.0
 10
91.31122230790136
 20
-118.6992146513148
 30
0.0
 10
91.31122230790136
 20
-118.5722628826833
 30
0.0
 10
91.40010577142081
 20
-118.4685655085773
 30
0.0
 10
91.51138235559438
 20
-118.4685655085773
 30
0.0
 10
91.62231443021942
 20
-118.4685655085773
 30
0.0
 10
91.71326495103003
 20
-118.5722628826833
 30
0.0
 10
91.71326495103003
 20
-118.6992146513148
 30
0.0
 10
91.71326495103003
 20
-118.8261664199462
 30
0.0
 10
91.62231443021942
 20
-118.9276244819869
 30
0.0
 10
91.51138235559438
 20
-118.9276244819869
 30
0.0
  0
SPLINE
  5
74
330
41
100
AcDbEntity
  8
_U+30EC_U+30A4_U+30E4_U+30FC 1
370
     0
100
AcDbSpline
210
0.0
220
0.0
230
1.0
 70
    11
 71
     3
 72
    17
 73
    13
 74
     0
 42
0.0000000001
 43
0.0000000001
 12
1.0
 22
0.0
 32
0.0
 13
1.0
 23
0.0
 33
0.0
 40
0.0
 40
0.0
 40
0.0
 40
0.0
 40
1.0
 40
1.0
 40
1.0
 40
2.0
 40
2.0
 40
2.0
 40
3.0
 40
3.0
 40
3.0
 40
4.0
 40
4.0
 40
4.0
 40
4.0
 10
91.50931529830324
 20
-118.5975843344999
 30
0.0
 10
91.46142847105826
 20
-118.5975843344999
 30
0.0
 10
91.42249889207494
 20
-118.6420260662596
 30
0.0
 10
91.42249889207494
 20
-118.6971475940236
 30
0.0
 10
91.42249889207494
 20
-118.7541639243045
 30
0.0
 10
91.46142847105826
 20
-118.8029120254208
 30
0.0
 10
91.51310490333701
 20
-118.8029120254208
 30
0.0
 10
91.56512584516427
 20
-118.8029120254208
 30
0.0
 10
91.60026581911383
 20
-118.7520968670134
 30
0.0
 10
91.60026581911383
 20
-118.6992146513148
 30
0.0
 10
91.60026581911383
 20
-118.6420260662596
 30
0.0
 10
91.55926918283936
 20
-118.5975843344999
 30
0.0
 10
91.50931529830324
 20
-118.5975843344999
 30
0.0
  0
HATCH
  5
75
330
41
100
AcDbEntity
  8
_U+30EC_U+30A4_U+30E4_U+30FC 1
 62
   179
420
  2234388
100
AcDbHatch
 10
0.0
 20
0.0
 30
0.0
210
0.0
220
0.0
230
1.0
  2
SOLID
 70
     1
 71
     0
 91
        3
 92
        1
 93
        1
 72
     4
 94
        3
 73
     0
 74
     1
 95
       44
 96
       40
 40
0.0
 40
0.0
 40
0.0
 40
0.0
 40
1.0
 40
1.0
 40
1.0
 40
2.0
 40
2.0
 40
2.0
 40
3.0
 40
3.0
 40
3.0
 40
4.0
 40
4.0
 40
4.0
 40
5.0
 40
5.0
 40
5.0
 40
6.0
 40
6.0
 40
6.0
 40
7.0
 40
7.0
 40
7.0
 40
8.0
 40
8.0
 40
8.0
 40
9.0
 40
9.0
 40
9.0
 40
10.0
 40
10.0
 40
10.0
 40
11.0
 40
11.0
 40
11.0
 40
12.0
 40
12.0
 40
12.0
 40
13.0
 40
13.0
 40
13.0
 40
13.0
 10
91.32793102100483
 20
-119.12657874626
 10
91.2297457996752
 20
-119.494687198859
 10
91.18530406791548
 20
-119.6533338459547
 10
91.01322154842725
 20
-119.9029310138611
 10
90.85199107971756
 20
-120.1335801565986
 10
90.64459633150553
 20
-120.319615312802
 10
90.40016680682704
 20
-120.412805145678
 10
90.40016680682704
 20
-120.412805145678
 10
90.23170163759833
 20
-120.232971161348
 10
90.23170163759833
 20
-120.232971161348
 10
90.79273543737126
 20
-120.0806979409
 10
91.08160669380946
 20
-119.5243150200321
 10
91.13724498589625
 20
-119.0842040717915
 10
91.13724498589625
 20
-119.0842040717915
 10
90.46682940446664
 20
-119.0842040717915
 10
90.46682940446664
 20
-119.0842040717915
 10
90.38535289624048
 20
-119.0842040717915
 10
90.22429468230504
 20
-119.088510441148
 10
90.08735213676636
 20
-119.1074584663169
 10
90.08735213676636
 20
-119.1074584663169
 10
90.08735213676636
 20
-118.8874891195837
 10
90.08735213676636
 20
-118.8874891195837
 10
90.16314423744186
 20
-118.908676456818
 10
90.38363034849785
 20
-118.908676456818
 10
90.47061900950041
 20
-118.908676456818
 10
90.47061900950041
 20
-118.908676456818
 10
90.84837372945805
 20
-118.908676456818
 10
90.84837372945805
 20
-118.908676456818
 10
90.88540850592449
 20
-118.908676456818
 10
91.09090845161964
 20
-118.9064371447526
 10
91.12432587782656
 20
-118.9002359728791
 10
91.16136065429299
 20
-118.8938625462314
 10
91.16308320203562
 20
-118.891623234166
 10
91.21682669160552
 20
-118.8514878717628
 10
91.21682669160552
 20
-118.8514878717628
 10
91.38150225580046
 20
-119.0060004042763
 10
91.38150225580046
 20
-119.0060004042763
 10
91.3556640396611
 20
-119.0356282254494
 10
91.3427449315914
 20
-119.0673231039137
 10
91.32793102100483
 20
-119.12657874626
 97
        0
 97
        0
 92
        1
 93
        1
 72
     4
 94
        3
 73
     0
 74
     1
 95
       17
 96
       13
 40
0.0
 40
0.0
 40
0.0
 40
0.0
 40
1.0
 40
1.0
 40
1.0
 40
2.0
 40
2.0
 40
2.0
 40
3.0
 40
3.0
 40
3.0
 40
4.0
 40
4.0
 40
4.0
 40
4.0
 10
91.51138235559438
 20
-118.9276244819869
 10
91.40010577142081
 20
-118.9276244819869
 10
91.31122230790136
 20
-118.8261664199462
 10
91.31122230790136
 20
-118.6992146513148
 10
91.31122230790136
 20
-118.5722628826833
 10
91.40010577142081
 20
-118.4685655085773
 10
91.51138235559438
 20
-118.4685655085773
 10
91.62231443021942
 20
-118.4685655085773
 10
91.71326495103003
 20
-118.5722628826833
 10
91.71326495103003
 20
-118.6992146513148
 10
91.71326495103003
 20
-118.8261664199462
 10
91.62231443021942
 20
-118.9276244819869
 10
91.51138235559438
 20
-118.9276244819869
 97
        0
 97
        0
 92
        1
 93
        1
 72
     4
 94
        3
 73
     0
 74
     1
 95
       17
 96
       13
 40
0.0
 40
0.0
 40
0.0
 40
0.0
 40
1.0
 40
1.0
 40
1.0
 40
2.0
 40
2.0
 40
2.0
 40
3.0
 40
3.0
 40
3.0
 40
4.0
 40
4.0
 40
4.0
 40
4.0
 10
91.50931529830324
 20
-118.5975843344999
 10
91.46142847105826
 20
-118.5975843344999
 10
91.42249889207494
 20
-118.6420260662596
 10
91.42249889207494
 20
-118.6971475940236
 10
91.42249889207494
 20
-118.7541639243045
 10
91.46142847105826
 20
-118.8029120254208
 10
91.51310490333701
 20
-118.8029120254208
 10
91.56512584516427
 20
-118.8029120254208
 10
91.60026581911383
 20
-118.7520968670134
 10
91.60026581911383
 20
-118.6992146513148
 10
91.60026581911383
 20
-118.6420260662596
 10
91.55926918283936
 20
-118.5975843344999
 10
91.50931529830324
 20
-118.5975843344999
 97
        0
 97
        0
 75
     2
 76
     1
 98
        0
  0
SPLINE
  5
76
330
41
100
AcDbEntity
  8
_U+30EC_U+30A4_U+30E4_U+30FC 1
370
     0
100
AcDbSpline
210
0.0
220
0.0
230
1.0
 70
    11
 71
     3
 72
    50
 73
    46
 74
     0
 42
0.0000000001
 43
0.0000000001
 12
1.0
 22
0.0
 32
0.0
 13
1.0
 23
0.0
 33
0.0
 40
0.0
 40
0.0
 40
0.0
 40
0.0
 40
1.0
 40
1.0
 40
1.0
 40
2.0
 40
2.0
 40
2.0
 40
3.0
 40
3.0
 40
3.0
 40
4.0
 40
4.0
 40
4.0
 40
5.0
 40
5.0
 40
5.0
 40
6.0
 40
6.0
 40
6.0
 40
7.0
 40
7.0
 40
7.0
 40
8.0
 40
8.0
 40
8.0
 40
9.0
 40
9.0
 40
9.0
 40
10.0
 40
10.0
 40
10.0
 40
11.0
 40
11.0
 40
11.0
 40
12.0
 40
12.0
 40
12.0
 40
13.0
 40
13.0
 40
13.0
 40
14.0
 40
14.0
 40
14.0
 40
15.0
 40
15.0
 40
15.0
 40
15.0
 10
93.08372393506241
 20
-119.4354315565127
 30
0.0
 10
93.01516653490593
 20
-119.6130262287773
 30
0.0
 10
92.89665525021334
 20
-119.8204209769893
 30
0.0
 10
92.7760769082296
 20
-119.9601195989162
 30
0.0
 10
92.62793780236386
 20
-120.1313408445331
 30
0.0
 10
92.48565535882304
 20
-120.2202243080526
 30
0.0
 10
92.20591360542075
 20
-120.3619899872706
 30
0.0
 10
92.20591360542075
 20
-120.3619899872706
 30
0.0
 10
92.05777449955501
 20
-120.1737155190017
 30
0.0
 10
92.05777449955501
 20
-120.1737155190017
 30
0.0
 10
92.22072751600733
 20
-120.1504611244763
 30
0.0
 10
92.37058916961568
 20
-120.063644718248
 30
0.0
 10
92.50391436489485
 20
-119.9578802868508
 30
0.0
 10
92.73370223376102
 20
-119.7759792452296
 30
0.0
 10
92.90044485524712
 20
-119.4628200656204
 30
0.0
 10
92.94281952971569
 20
-119.2809190239992
 30
0.0
 10
92.94281952971569
 20
-119.2809190239992
 30
0.0
 10
92.35577525902912
 20
-119.2809190239992
 30
0.0
 10
92.35577525902912
 20
-119.2809190239992
 30
0.0
 10
92.21693791097354
 20
-119.2809190239992
 30
0.0
 10
91.96131182596801
 20
-119.2893595079381
 30
0.0
 10
91.82798663068884
 20
-119.3064127305901
 30
0.0
 10
91.82798663068884
 20
-119.3064127305901
 30
0.0
 10
91.82798663068884
 20
-119.0778306451437
 30
0.0
 10
91.82798663068884
 20
-119.0778306451437
 30
0.0
 10
91.85761445186199
 20
-119.0842040717915
 30
0.0
 10
91.8800075725161
 20
-119.0905774984392
 30
0.0
 10
91.92617185201846
 20
-119.0948838677957
 30
0.0
 10
92.01505531553791
 20
-119.1010850396692
 30
0.0
 10
92.1873100898004
 20
-119.1033243517346
 30
0.0
 10
92.26137964273327
 20
-119.1033243517346
 30
0.0
 10
92.26137964273327
 20
-119.1033243517346
 30
0.0
 10
92.70407441258787
 20
-119.1033243517346
 30
0.0
 10
92.70407441258787
 20
-119.1033243517346
 30
0.0
 10
92.76333005493417
 20
-119.1033243517346
 30
0.0
 10
92.89114309743694
 20
-119.099017982378
 30
0.0
 10
92.94488658700683
 20
-119.0926445557303
 30
0.0
 10
93.00758732483838
 20
-119.0842040717915
 30
0.0
 10
93.03170299323513
 20
-119.0693901612049
 30
0.0
 10
93.06133081440828
 20
-119.0461357666794
 30
0.0
 10
93.06133081440828
 20
-119.0461357666794
 30
0.0
 10
93.20568031524024
 20
-119.2132228977141
 30
0.0
 10
93.20568031524024
 20
-119.2132228977141
 30
0.0
 10
93.14470212515133
 20
-119.2809190239992
 30
0.0
 10
93.10404999842538
 20
-119.3846163981052
 30
0.0
 10
93.08372393506241
 20
-119.4354315565127
 30
0.0
  0
SPLINE
  5
77
330
41
100
AcDbEntity
  8
_U+30EC_U+30A4_U+30E4_U+30FC 1
370
     0
100
AcDbSpline
210
0.0
220
0.0
230
1.0
 70
    11
 71
     3
 72
    29
 73
    25
 74
     0
 42
0.0000000001
 43
0.0000000001
 12
1.0
 22
0.0
 32
0.0
 13
1.0
 23
0.0
 33
0.0
 40
0.0
 40
0.0
 40
0.0
 40
0.0
 40
1.0
 40
1.0
 40
1.0
 40
2.0
 40
2.0
 40
2.0
 40
3.0
 40
3.0
 40
3.0
 40
4.0
 40
4.0
 40
4.0
 40
5.0
 40
5.0
 40
5.0
 40
6.0
 40
6.0
 40
6.0
 40
7.0
 40
7.0
 40
7.0
 40
8.0
 40
8.0
 40
8.0
 40
8.0
 10
92.6520534707606
 20
-118.8092854520685
 30
0.0
 10
92.6520534707606
 20
-118.8092854520685
 30
0.0
 10
92.35405271128649
 20
-118.8092854520685
 30
0.0
 10
92.35405271128649
 20
-118.8092854520685
 30
0.0
 10
92.25414494221424
 20
-118.8092854520685
 30
0.0
 10
92.15217011585085
 20
-118.8134195666508
 30
0.0
 10
92.0522623467786
 20
-118.8282334772374
 30
0.0
 10
92.0522623467786
 20
-118.8282334772374
 30
0.0
 10
92.0522623467786
 20
-118.6187716717342
 30
0.0
 10
92.0522623467786
 20
-118.6187716717342
 30
0.0
 10
92.15595972088462
 20
-118.6335855823208
 30
0.0
 10
92.30788843178415
 20
-118.6378919516773
 30
0.0
 10
92.35405271128649
 20
-118.6378919516773
 30
0.0
 10
92.35405271128649
 20
-118.6378919516773
 30
0.0
 10
92.6520534707606
 20
-118.6378919516773
 30
0.0
 10
92.6520534707606
 20
-118.6378919516773
 30
0.0
 10
92.754028297124
 20
-118.6378919516773
 30
0.0
 10
92.8560031234874
 20
-118.6335855823208
 30
0.0
 10
92.95763344030226
 20
-118.6187716717342
 30
0.0
 10
92.95763344030226
 20
-118.6187716717342
 30
0.0
 10
92.95763344030226
 20
-118.8282334772374
 30
0.0
 10
92.95763344030226
 20
-118.8282334772374
 30
0.0
 10
92.82637530231425
 20
-118.8092854520685
 30
0.0
 10
92.66514483360456
 20
-118.8092854520685
 30
0.0
 10
92.6520534707606
 20
-118.8092854520685
 30
0.0
  0
HATCH
  5
78
330
41
100
AcDbEntity
  8
_U+30EC_U+30A4_U+30E4_U+30FC 1
 62
   179
420
  2234388
100
AcDbHatch
 10
0.0
 20
0.0
 30
0.0
210
0.0
220
0.0
230
1.0
  2
SOLID
 70
     1
 71
     0
 91
        2
 92
        1
 93
        1
 72
     4
 94
        3
 73
     0
 74
     1
 95
       50
 96
       46
 40
0.0
 40
0.0
 40
0.0
 40
0.0
 40
1.0
 40
1.0
 40
1.0
 40
2.0
 40
2.0
 40
2.0
 40
3.0
 40
3.0
 40
3.0
 40
4.0
 40
4.0
 40
4.0
 40
5.0
 40
5.0
 40
5.0
 40
6.0
 40
6.0
 40
6.0
 40
7.0
 40
7.0
 40
7.0
 40
8.0
 40
8.0
 40
8.0
 40
9.0
 40
9.0
 40
9.0
 40
10.0
 40
10.0
 40
10.0
 40
11.0
 40
11.0
 40
11.0
 40
12.0
 40
12.0
 40
12.0
 40
13.0
 40
13.0
 40
13.0
 40
14.0
 40
14.0
 40
14.0
 40
15.0
 40
15.0
 40
15.0
 40
15.0
 10
93.08372393506241
 20
-119.4354315565127
 10
93.01516653490593
 20
-119.6130262287773
 10
92.89665525021334
 20
-119.8204209769893
 10
92.7760769082296
 20
-119.9601195989162
 10
92.62793780236386
 20
-120.1313408445331
 10
92.48565535882304
 20
-120.2202243080526
 10
92.20591360542075
 20
-120.3619899872706
 10
92.20591360542075
 20
-120.3619899872706
 10
92.05777449955501
 20
-120.1737155190017
 10
92.05777449955501
 20
-120.1737155190017
 10
92.22072751600733
 20
-120.1504611244763
 10
92.37058916961568
 20
-120.063644718248
 10
92.50391436489485
 20
-119.9578802868508
 10
92.73370223376102
 20
-119.7759792452296
 10
92.90044485524712
 20
-119.4628200656204
 10
92.94281952971569
 20
-119.2809190239992
 10
92.94281952971569
 20
-119.2809190239992
 10
92.35577525902912
 20
-119.2809190239992
 10
92.35577525902912
 20
-119.2809190239992
 10
92.21693791097354
 20
-119.2809190239992
 10
91.96131182596801
 20
-119.2893595079381
 10
91.82798663068884
 20
-119.3064127305901
 10
91.82798663068884
 20
-119.3064127305901
 10
91.82798663068884
 20
-119.0778306451437
 10
91.82798663068884
 20
-119.0778306451437
 10
91.85761445186199
 20
-119.0842040717915
 10
91.8800075725161
 20
-119.0905774984392
 10
91.92617185201846
 20
-119.0948838677957
 10
92.01505531553791
 20
-119.1010850396692
 10
92.1873100898004
 20
-119.1033243517346
 10
92.26137964273327
 20
-119.1033243517346
 10
92.26137964273327
 20
-119.1033243517346
 10
92.70407441258787
 20
-119.1033243517346
 10
92.70407441258787
 20
-119.1033243517346
 10
92.76333005493417
 20
-119.1033243517346
 10
92.89114309743694
 20
-119.099017982378
 10
92.94488658700683
 20
-119.0926445557303
 10
93.00758732483838
 20
-119.0842040717915
 10
93.03170299323513
 20
-119.0693901612049
 10
93.06133081440828
 20
-119.0461357666794
 10
93.06133081440828
 20
-119.0461357666794
 10
93.20568031524024
 20
-119.2132228977141
 10
93.20568031524024
 20
-119.2132228977141
 10
93.14470212515133
 20
-119.2809190239992
 10
93.10404999842538
 20
-119.3846163981052
 10
93.08372393506241
 20
-119.4354315565127
 97
        0
 97
        0
 92
        1
 93
        1
 72
     4
 94
        3
 73
     0
 74
     1
 95
       29
 96
       25
 40
0.0
 40
0.0
 40
0.0
 40
0.0
 40
1.0
 40
1.0
 40
1.0
 40
2.0
 40
2.0
 40
2.0
 40
3.0
 40
3.0
 40
3.0
 40
4.0
 40
4.0
 40
4.0
 40
5.0
 40
5.0
 40
5.0
 40
6.0
 40
6.0
 40
6.0
 40
7.0
 40
7.0
 40
7.0
 40
8.0
 40
8.0
 40
8.0
 40
8.0
 10
92.6520534707606
 20
-118.8092854520685
 10
92.6520534707606
 20
-118.8092854520685
 10
92.35405271128649
 20
-118.8092854520685
 10
92.35405271128649
 20
-118.8092854520685
 10
92.25414494221424
 20
-118.8092854520685
 10
92.15217011585085
 20
-118.8134195666508
 10
92.0522623467786
 20
-118.8282334772374
 10
92.0522623467786
 20
-118.8282334772374
 10
92.0522623467786
 20
-118.6187716717342
 10
92.0522623467786
 20
-118.6187716717342
 10
92.15595972088462
 20
-118.6335855823208
 10
92.30788843178415
 20
-118.6378919516773
 10
92.35405271128649
 20
-118.6378919516773
 10
92.35405271128649
 20
-118.6378919516773
 10
92.6520534707606
 20
-118.6378919516773
 10
92.6520534707606
 20
-118.6378919516773
 10
92.754028297124
 20
-118.6378919516773
 10
92.8560031234874
 20
-118.6335855823208
 10
92.95763344030226
 20
-118.6187716717342
 10
92.95763344030226
 20
-118.6187716717342
 10
92.95763344030226
 20
-118.8282334772374
 10
92.95763344030226
 20
-118.8282334772374
 10
92.82637530231425
 20
-118.8092854520685
 10
92.66514483360456
 20
-118.8092854520685
 10
92.6520534707606
 20
-118.8092854520685
 97
        0
 97
        0
 75
     2
 76
     1
 98
        0
  0
SPLINE
  5
79
330
41
100
AcDbEntity
  8
_U+30EC_U+30A4_U+30E4_U+30FC 1
370
     0
100
AcDbSpline
210
0.0
220
0.0
230
1.0
 70
    11
 71
     3
 72
    50
 73
    46
 74
     0
 42
0.0000000001
 43
0.0000000001
 12
1.0
 22
0.0
 32
0.0
 13
1.0
 23
0.0
 33
0.0
 40
0.0
 40
0.0
 40
0.0
 40
0.0
 40
1.0
 40
1.0
 40
1.0
 40
2.0
 40
2.0
 40
2.0
 40
3.0
 40
3.0
 40
3.0
 40
4.0
 40
4.0
 40
4.0
 40
5.0
 40
5.0
 40
5.0
 40
6.0
 40
6.0
 40
6.0
 40
7.0
 40
7.0
 40
7.0
 40
8.0
 40
8.0
 40
8.0
 40
9.0
 40
9.0
 40
9.0
 40
10.0
 40
10.0
 40
10.0
 40
11.0
 40
11.0
 40
11.0
 40
12.0
 40
12.0
 40
12.0
 40
13.0
 40
13.0
 40
13.0
 40
14.0
 40
14.0
 40
14.0
 40
15.0
 40
15.0
 40
15.0
 40
15.0
 10
94.58165145204903
 20
-118.7944715414819
 30
0.0
 10
94.39837237223375
 20
-119.0080674615674
 30
0.0
 10
94.33532712485368
 20
-119.0800699572092
 30
0.0
 10
94.21130368738469
 20
-119.1984089871275
 30
0.0
 10
94.21130368738469
 20
-119.1984089871275
 30
0.0
 10
94.21130368738469
 20
-119.7654717039996
 30
0.0
 10
94.21130368738469
 20
-119.7654717039996
 30
0.0
 10
94.21130368738469
 20
-119.9156778671565
 30
0.0
 10
94.21681584016108
 20
-119.9346258923254
 30
0.0
 10
94.22060544519485
 20
-120.1123928193643
 30
0.0
 10
94.22232799293748
 20
-120.243478702578
 30
0.0
 10
94.2281846552624
 20
-120.2922268036943
 30
0.0
 10
94.2336968080388
 20
-120.3514824460406
 30
0.0
 10
94.2336968080388
 20
-120.3514824460406
 30
0.0
 10
94.03560381763694
 20
-120.3514824460406
 30
0.0
 10
94.03560381763694
 20
-120.3514824460406
 30
0.0
 10
94.03904891312219
 20
-120.3070407142809
 30
0.0
 10
94.04283851815596
 20
-120.2603596704557
 30
0.0
 10
94.04283851815596
 20
-120.2519191865169
 30
0.0
 10
94.04283851815596
 20
-120.1716484617106
 30
0.0
 10
94.04662812318973
 20
-119.8204209769893
 30
0.0
 10
94.04662812318973
 20
-119.7484184813476
 30
0.0
 10
94.04662812318973
 20
-119.7484184813476
 30
0.0
 10
94.04662812318973
 20
-119.3422417236367
 30
0.0
 10
94.04662812318973
 20
-119.3422417236367
 30
0.0
 10
93.88746471177119
 20
-119.467126434977
 30
0.0
 10
93.71693248525132
 20
-119.5771972357307
 30
0.0
 10
93.53916555821243
 20
-119.6638413871847
 30
0.0
 10
93.53916555821243
 20
-119.6638413871847
 30
0.0
 10
93.36139863117354
 20
-119.5010606255067
 30
0.0
 10
93.36139863117354
 20
-119.5010606255067
 30
0.0
 10
93.46888561031334
 20
-119.4650593776858
 30
0.0
 10
93.69281681685457
 20
-119.3909898247529
 30
0.0
 10
93.99460718136247
 20
-119.1350192301989
 30
0.0
 10
94.18374292350268
 20
-118.9763725831031
 30
0.0
 10
94.3522080927314
 20
-118.7880981148342
 30
0.0
 10
94.48553328801057
 20
-118.5679565133268
 30
0.0
 10
94.48553328801057
 20
-118.5679565133268
 30
0.0
 10
94.65399845723928
 20
-118.7119615046102
 30
0.0
 10
94.65399845723928
 20
-118.7119615046102
 30
0.0
 10
94.66502276279208
 20
-118.7224690458402
 30
0.0
 10
94.67260197285964
 20
-118.7372829564268
 30
0.0
 10
94.67260197285964
 20
-118.7500298097222
 30
0.0
 10
94.67260197285964
 20
-118.7901651721254
 30
0.0
 10
94.63918454665271
 20
-118.7901651721254
 30
0.0
 10
94.58165145204903
 20
-118.7944715414819
 30
0.0
  0
HATCH
  5
7A
330
41
100
AcDbEntity
  8
_U+30EC_U+30A4_U+30E4_U+30FC 1
 62
   179
420
  2234388
100
AcDbHatch
 10
0.0
 20
0.0
 30
0.0
210
0.0
220
0.0
230
1.0
  2
SOLID
 70
     1
 71
     0
 91
        1
 92
        1
 93
        1
 72
     4
 94
        3
 73
     0
 74
     1
 95
       50
 96
       46
 40
0.0
 40
0.0
 40
0.0
 40
0.0
 40
1.0
 40
1.0
 40
1.0
 40
2.0
 40
2.0
 40
2.0
 40
3.0
 40
3.0
 40
3.0
 40
4.0
 40
4.0
 40
4.0
 40
5.0
 40
5.0
 40
5.0
 40
6.0
 40
6.0
 40
6.0
 40
7.0
 40
7.0
 40
7.0
 40
8.0
 40
8.0
 40
8.0
 40
9.0
 40
9.0
 40
9.0
 40
10.0
 40
10.0
 40
10.0
 40
11.0
 40
11.0
 40
11.0
 40
12.0
 40
12.0
 40
12.0
 40
13.0
 40
13.0
 40
13.0
 40
14.0
 40
14.0
 40
14.0
 40
15.0
 40
15.0
 40
15.0
 40
15.0
 10
94.58165145204903
 20
-118.7944715414819
 10
94.39837237223375
 20
-119.0080674615674
 10
94.33532712485368
 20
-119.0800699572092
 10
94.21130368738469
 20
-119.1984089871275
 10
94.21130368738469
 20
-119.1984089871275
 10
94.21130368738469
 20
-119.7654717039996
 10
94.21130368738469
 20
-119.7654717039996
 10
94.21130368738469
 20
-119.9156778671565
 10
94.21681584016108
 20
-119.9346258923254
 10
94.22060544519485
 20
-120.1123928193643
 10
94.22232799293748
 20
-120.243478702578
 10
94.2281846552624
 20
-120.2922268036943
 10
94.2336968080388
 20
-120.3514824460406
 10
94.2336968080388
 20
-120.3514824460406
 10
94.03560381763694
 20
-120.3514824460406
 10
94.03560381763694
 20
-120.3514824460406
 10
94.03904891312219
 20
-120.3070407142809
 10
94.04283851815596
 20
-120.2603596704557
 10
94.04283851815596
 20
-120.2519191865169
 10
94.04283851815596
 20
-120.1716484617106
 10
94.04662812318973
 20
-119.8204209769893
 10
94.04662812318973
 20
-119.7484184813476
 10
94.04662812318973
 20
-119.7484184813476
 10
94.04662812318973
 20
-119.3422417236367
 10
94.04662812318973
 20
-119.3422417236367
 10
93.88746471177119
 20
-119.467126434977
 10
93.71693248525132
 20
-119.5771972357307
 10
93.53916555821243
 20
-119.6638413871847
 10
93.53916555821243
 20
-119.6638413871847
 10
93.36139863117354
 20
-119.5010606255067
 10
93.36139863117354
 20
-119.5010606255067
 10
93.46888561031334
 20
-119.4650593776858
 10
93.69281681685457
 20
-119.3909898247529
 10
93.99460718136247
 20
-119.1350192301989
 10
94.18374292350268
 20
-118.9763725831031
 10
94.3522080927314
 20
-118.7880981148342
 10
94.48553328801057
 20
-118.5679565133268
 10
94.48553328801057
 20
-118.5679565133268
 10
94.65399845723928
 20
-118.7119615046102
 10
94.65399845723928
 20
-118.7119615046102
 10
94.66502276279208
 20
-118.7224690458402
 10
94.67260197285964
 20
-118.7372829564268
 10
94.67260197285964
 20
-118.7500298097222
 10
94.67260197285964
 20
-118.7901651721254
 10
94.63918454665271
 20
-118.7901651721254
 10
94.58165145204903
 20
-118.7944715414819
 97
        0
 97
        0
 75
     2
 76
     1
 98
        0
  0
SPLINE
  5
7B
330
41
100
AcDbEntity
  8
_U+30EC_U+30A4_U+30E4_U+30FC 1
370
     0
100
AcDbSpline
210
0.0
220
0.0
230
1.0
 70
    11
 71
     3
 72
    50
 73
    46
 74
     0
 42
0.0000000001
 43
0.0000000001
 12
1.0
 22
0.0
 32
0.0
 13
1.0
 23
0.0
 33
0.0
 40
0.0
 40
0.0
 40
0.0
 40
0.0
 40
1.0
 40
1.0
 40
1.0
 40
2.0
 40
2.0
 40
2.0
 40
3.0
 40
3.0
 40
3.0
 40
4.0
 40
4.0
 40
4.0
 40
5.0
 40
5.0
 40
5.0
 40
6.0
 40
6.0
 40
6.0
 40
7.0
 40
7.0
 40
7.0
 40
8.0
 40
8.0
 40
8.0
 40
9.0
 40
9.0
 40
9.0
 40
10.0
 40
10.0
 40
10.0
 40
11.0
 40
11.0
 40
11.0
 40
12.0
 40
12.0
 40
12.0
 40
13.0
 40
13.0
 40
13.0
 40
14.0
 40
14.0
 40
14.0
 40
15.0
 40
15.0
 40
15.0
 40
15.0
 10
96.07785642129303
 20
-119.3212266411766
 30
0.0
 10
96.02411293172314
 20
-119.3930568820441
 30
0.0
 10
95.79639212014813
 20
-119.7103501762356
 30
0.0
 10
95.746438235612
 20
-119.7739121879385
 30
0.0
 10
95.82050778854487
 20
-119.8712361353968
 30
0.0
 10
95.8649495203046
 20
-119.9346258923254
 30
0.0
 10
95.92248261490828
 20
-120.025576413136
 30
0.0
 10
95.92248261490828
 20
-120.025576413136
 30
0.0
 10
95.76125214619859
 20
-120.1632079777717
 30
0.0
 10
95.76125214619859
 20
-120.1632079777717
 30
0.0
 10
95.64274086150598
 20
-119.9515068602031
 30
0.0
 10
95.49287920789762
 20
-119.7274033988876
 30
0.0
 10
95.23553057514945
 20
-119.5284491346144
 30
0.0
 10
95.23553057514945
 20
-119.5284491346144
 30
0.0
 10
95.36506616539485
 20
-119.3741088568752
 30
0.0
 10
95.36506616539485
 20
-119.3741088568752
 30
0.0
 10
95.46118432943332
 20
-119.4543795816816
 30
0.0
 10
95.55213485024392
 20
-119.543263045201
 30
0.0
 10
95.63722870872958
 20
-119.6385199353682
 30
0.0
 10
95.69648435107588
 20
-119.5623833251441
 30
0.0
 10
95.87425127811477
 20
-119.3189873291112
 30
0.0
 10
95.99104001506474
 20
-119.0905774984392
 30
0.0
 10
95.99104001506474
 20
-119.0905774984392
 30
0.0
 10
95.40192868708702
 20
-119.0905774984392
 30
0.0
 10
95.40192868708702
 20
-119.0905774984392
 30
0.0
 10
95.2927191602046
 20
-119.0905774984392
 30
0.0
 10
95.07257755869713
 20
-119.099017982378
 30
0.0
 10
94.88929847888184
 20
-119.109525523608
 30
0.0
 10
94.88929847888184
 20
-119.109525523608
 30
0.0
 10
94.88929847888184
 20
-118.8895561768748
 30
0.0
 10
94.88929847888184
 20
-118.8895561768748
 30
0.0
 10
95.05018443804302
 20
-118.908676456818
 30
0.0
 10
95.23001842237305
 20
-118.9128105714003
 30
0.0
 10
95.394693986568
 20
-118.9128105714003
 30
0.0
 10
95.394693986568
 20
-118.9128105714003
 30
0.0
 10
95.83532169913146
 20
-118.9128105714003
 30
0.0
 10
95.83532169913146
 20
-118.9128105714003
 30
0.0
 10
96.13159991086293
 20
-118.9128105714003
 30
0.0
 10
96.17052948984626
 20
-118.8979966608137
 30
0.0
 10
96.24287649503651
 20
-118.8578612984105
 30
0.0
 10
96.24287649503651
 20
-118.8578612984105
 30
0.0
 10
96.38894854361111
 20
-119.0165079455063
 30
0.0
 10
96.38894854361111
 20
-119.0165079455063
 30
0.0
 10
96.25562334833194
 20
-119.088510441148
 30
0.0
 10
96.12987736312031
 20
-119.2512912028261
 30
0.0
 10
96.07785642129303
 20
-119.3212266411766
 30
0.0
  0
HATCH
  5
7C
330
41
100
AcDbEntity
  8
_U+30EC_U+30A4_U+30E4_U+30FC 1
 62
   179
420
  2234388
100
AcDbHatch
 10
0.0
 20
0.0
 30
0.0
210
0.0
220
0.0
230
1.0
  2
SOLID
 70
     1
 71
     0
 91
        1
 92
        1
 93
        1
 72
     4
 94
        3
 73
     0
 74
     1
 95
       50
 96
       46
 40
0.0
 40
0.0
 40
0.0
 40
0.0
 40
1.0
 40
1.0
 40
1.0
 40
2.0
 40
2.0
 40
2.0
 40
3.0
 40
3.0
 40
3.0
 40
4.0
 40
4.0
 40
4.0
 40
5.0
 40
5.0
 40
5.0
 40
6.0
 40
6.0
 40
6.0
 40
7.0
 40
7.0
 40
7.0
 40
8.0
 40
8.0
 40
8.0
 40
9.0
 40
9.0
 40
9.0
 40
10.0
 40
10.0
 40
10.0
 40
11.0
 40
11.0
 40
11.0
 40
12.0
 40
12.0
 40
12.0
 40
13.0
 40
13.0
 40
13.0
 40
14.0
 40
14.0
 40
14.0
 40
15.0
 40
15.0
 40
15.0
 40
15.0
 10
96.07785642129303
 20
-119.3212266411766
 10
96.02411293172314
 20
-119.3930568820441
 10
95.79639212014813
 20
-119.7103501762356
 10
95.746438235612
 20
-119.7739121879385
 10
95.82050778854487
 20
-119.8712361353968
 10
95.8649495203046
 20
-119.9346258923254
 10
95.92248261490828
 20
-120.025576413136
 10
95.92248261490828
 20
-120.025576413136
 10
95.76125214619859
 20
-120.1632079777717
 10
95.76125214619859
 20
-120.1632079777717
 10
95.64274086150598
 20
-119.9515068602031
 10
95.49287920789762
 20
-119.7274033988876
 10
95.23553057514945
 20
-119.5284491346144
 10
95.23553057514945
 20
-119.5284491346144
 10
95.36506616539485
 20
-119.3741088568752
 10
95.36506616539485
 20
-119.3741088568752
 10
95.46118432943332
 20
-119.4543795816816
 10
95.55213485024392
 20
-119.543263045201
 10
95.63722870872958
 20
-119.6385199353682
 10
95.69648435107588
 20
-119.5623833251441
 10
95.87425127811477
 20
-119.3189873291112
 10
95.99104001506474
 20
-119.0905774984392
 10
95.99104001506474
 20
-119.0905774984392
 10
95.40192868708702
 20
-119.0905774984392
 10
95.40192868708702
 20
-119.0905774984392
 10
95.2927191602046
 20
-119.0905774984392
 10
95.07257755869713
 20
-119.099017982378
 10
94.88929847888184
 20
-119.109525523608
 10
94.88929847888184
 20
-119.109525523608
 10
94.88929847888184
 20
-118.8895561768748
 10
94.88929847888184
 20
-118.8895561768748
 10
95.05018443804302
 20
-118.908676456818
 10
95.23001842237305
 20
-118.9128105714003
 10
95.394693986568
 20
-118.9128105714003
 10
95.394693986568
 20
-118.9128105714003
 10
95.83532169913146
 20
-118.9128105714003
 10
95.83532169913146
 20
-118.9128105714003
 10
96.13159991086293
 20
-118.9128105714003
 10
96.17052948984626
 20
-118.8979966608137
 10
96.24287649503651
 20
-118.8578612984105
 10
96.24287649503651
 20
-118.8578612984105
 10
96.38894854361111
 20
-119.0165079455063
 10
96.38894854361111
 20
-119.0165079455063
 10
96.25562334833194
 20
-119.088510441148
 10
96.12987736312031
 20
-119.2512912028261
 10
96.07785642129303
 20
-119.3212266411766
 97
        0
 97
        0
 75
     2
 76
     1
 98
        0
  0
SPLINE
  5
7D
330
41
100
AcDbEntity
  8
_U+30EC_U+30A4_U+30E4_U+30FC 1
370
     0
100
AcDbSpline
210
0.0
220
0.0
230
1.0
 70
    11
 71
     3
 72
    29
 73
    25
 74
     0
 42
0.0000000001
 43
0.0000000001
 12
1.0
 22
0.0
 32
0.0
 13
1.0
 23
0.0
 33
0.0
 40
0.0
 40
0.0
 40
0.0
 40
0.0
 40
1.0
 40
1.0
 40
1.0
 40
2.0
 40
2.0
 40
2.0
 40
3.0
 40
3.0
 40
3.0
 40
4.0
 40
4.0
 40
4.0
 40
5.0
 40
5.0
 40
5.0
 40
6.0
 40
6.0
 40
6.0
 40
7.0
 40
7.0
 40
7.0
 40
8.0
 40
8.0
 40
8.0
 40
8.0
 10
97.5003363471527
 20
-119.5644503824353
 30
0.0
 10
97.5003363471527
 20
-119.5644503824353
 30
0.0
 10
97.07624509291844
 20
-119.5644503824353
 30
0.0
 10
97.07624509291844
 20
-119.5644503824353
 30
0.0
 10
97.0521294245217
 20
-119.5644503824353
 30
0.0
 10
96.77445472841056
 20
-119.5644503824353
 30
0.0
 10
96.58910859130411
 20
-119.5897718342519
 30
0.0
 10
96.58910859130411
 20
-119.5897718342519
 30
0.0
 10
96.58910859130411
 20
-119.3592949462887
 30
0.0
 10
96.58910859130411
 20
-119.3592949462887
 30
0.0
 10
96.72829044890821
 20
-119.3825493408141
 30
0.0
 10
96.89468856084578
 20
-119.3846163981052
 30
0.0
 10
97.07624509291844
 20
-119.3846163981052
 30
0.0
 10
97.07624509291844
 20
-119.3846163981052
 30
0.0
 10
97.5003363471527
 20
-119.3846163981052
 30
0.0
 10
97.5003363471527
 20
-119.3846163981052
 30
0.0
 10
97.66328936360502
 20
-119.3846163981052
 30
0.0
 10
97.82624238005734
 20
-119.3825493408141
 30
0.0
 10
97.98747284876703
 20
-119.3592949462887
 30
0.0
 10
97.98747284876703
 20
-119.3592949462887
 30
0.0
 10
97.98747284876703
 20
-119.5897718342519
 30
0.0
 10
97.98747284876703
 20
-119.5897718342519
 30
0.0
 10
97.82624238005734
 20
-119.5665174397264
 30
0.0
 10
97.60954587403512
 20
-119.5644503824353
 30
0.0
 10
97.5003363471527
 20
-119.5644503824353
 30
0.0
  0
HATCH
  5
7E
330
41
100
AcDbEntity
  8
_U+30EC_U+30A4_U+30E4_U+30FC 1
 62
   179
420
  2234388
100
AcDbHatch
 10
0.0
 20
0.0
 30
0.0
210
0.0
220
0.0
230
1.0
  2
SOLID
 70
     1
 71
     0
 91
        1
 92
        1
 93
        1
 72
     4
 94
        3
 73
     0
 74
     1
 95
       29
 96
       25
 40
0.0
 40
0.0
 40
0.0
 40
0.0
 40
1.0
 40
1.0
 40
1.0
 40
2.0
 40
2.0
 40
2.0
 40
3.0
 40
3.0
 40
3.0
 40
4.0
 40
4.0
 40
4.0
 40
5.0
 40
5.0
 40
5.0
 40
6.0
 40
6.0
 40
6.0
 40
7.0
 40
7.0
 40
7.0
 40
8.0
 40
8.0
 40
8.0
 40
8.0
 10
97.5003363471527
 20
-119.5644503824353
 10
97.5003363471527
 20
-119.5644503824353
 10
97.07624509291844
 20
-119.5644503824353
 10
97.07624509291844
 20
-119.5644503824353
 10
97.0521294245217
 20
-119.5644503824353
 10
96.77445472841056
 20
-119.5644503824353
 10
96.58910859130411
 20
-119.5897718342519
 10
96.58910859130411
 20
-119.5897718342519
 10
96.58910859130411
 20
-119.3592949462887
 10
96.58910859130411
 20
-119.3592949462887
 10
96.72829044890821
 20
-119.3825493408141
 10
96.89468856084578
 20
-119.3846163981052
 10
97.07624509291844
 20
-119.3846163981052
 10
97.07624509291844
 20
-119.3846163981052
 10
97.5003363471527
 20
-119.3846163981052
 10
97.5003363471527
 20
-119.3846163981052
 10
97.66328936360502
 20
-119.3846163981052
 10
97.82624238005734
 20
-119.3825493408141
 10
97.98747284876703
 20
-119.3592949462887
 10
97.98747284876703
 20
-119.3592949462887
 10
97.98747284876703
 20
-119.5897718342519
 10
97.98747284876703
 20
-119.5897718342519
 10
97.82624238005734
 20
-119.5665174397264
 10
97.60954587403512
 20
-119.5644503824353
 10
97.5003363471527
 20
-119.5644503824353
 97
        0
 97
        0
 75
     2
 76
     1
 98
        0
  0
ENDBLK
  5
44
330
41
100
AcDbEntity
  8
0
100
AcDbBlockEnd
  0
BLOCK
  5
B5
330
B3
100
AcDbEntity
  8
0
100
AcDbBlockBegin
  2
block 3
 70
     0
 10
0.0
 20
0.0
 30
0.0
  3
block 3
  1

  0
SPLINE
  5
B7
330
B3
100
AcDbEntity
  8
_U+30EC_U+30A4_U+30E4_U+30FC 1
370
     0
100
AcDbSpline
210
0.0
220
0.0
230
1.0
 70
    11
 71
     3
 72
    26
 73
    22
 74
     0
 42
0.0000000001
 43
0.0000000001
 12
1.0
 22
0.0
 32
0.0
 13
1.0
 23
0.0
 33
0.0
 40
0.0
 40
0.0
 40
0.0
 40
0.0
 40
1.0
 40
1.0
 40
1.0
 40
2.0
 40
2.0
 40
2.0
 40
3.0
 40
3.0
 40
3.0
 40
4.0
 40
4.0
 40
4.0
 40
5.0
 40
5.0
 40
5.0
 40
6.0
 40
6.0
 40
6.0
 40
7.0
 40
7.0
 40
7.0
 40
7.0
 10
109.8578938527439
 20
-137.4410508553967
 30
0.0
 10
109.8578938527439
 20
-137.4410508553967
 30
0.0
 10
108.7537407497213
 20
-137.4410508553967
 30
0.0
 10
108.7537407497213
 20
-137.4410508553967
 30
0.0
 10
108.7537407497213
 20
-137.4410508553967
 30
0.0
 10
108.7537407497213
 20
-137.7266492711239
 30
0.0
 10
108.7537407497213
 20
-137.7266492711239
 30
0.0
 10
108.7537407497213
 20
-137.7266492711239
 30
0.0
 10
108.6056016438556
 20
-137.7266492711239
 30
0.0
 10
108.6056016438556
 20
-137.7266492711239
 30
0.0
 10
108.590787733269
 20
-137.4393283076541
 30
0.0
 10
108.4278347168167
 20
-137.3990206904766
 30
0.0
 10
108.3134575467064
 20
-137.3735269838858
 30
0.0
 10
108.3134575467064
 20
-137.3735269838858
 30
0.0
 10
108.3134575467064
 20
-137.2470919795771
 30
0.0
 10
108.3134575467064
 20
-137.2470919795771
 30
0.0
 10
108.3134575467064
 20
-137.2470919795771
 30
0.0
 10
109.8578938527439
 20
-137.2470919795771
 30
0.0
 10
109.8578938527439
 20
-137.2470919795771
 30
0.0
 10
109.8578938527439
 20
-137.2470919795771
 30
0.0
 10
109.8578938527439
 20
-137.4410508553967
 30
0.0
 10
109.8578938527439
 20
-137.4410508553967
 30
0.0
  0
HATCH
  5
B8
330
B3
100
AcDbEntity
  8
_U+30EC_U+30A4_U+30E4_U+30FC 1
 62
   179
420
  2234388
100
AcDbHatch
 10
0.0
 20
0.0
 30
0.0
210
0.0
220
0.0
230
1.0
  2
SOLID
 70
     1
 71
     0
 91
        1
 92
        1
 93
        1
 72
     4
 94
        3
 73
     0
 74
     1
 95
       26
 96
       22
 40
0.0
 40
0.0
 40
0.0
 40
0.0
 40
1.0
 40
1.0
 40
1.0
 40
2.0
 40
2.0
 40
2.0
 40
3.0
 40
3.0
 40
3.0
 40
4.0
 40
4.0
 40
4.0
 40
5.0
 40
5.0
 40
5.0
 40
6.0
 40
6.0
 40
6.0
 40
7.0
 40
7.0
 40
7.0
 40
7.0
 10
109.8578938527439
 20
-137.4410508553967
 10
109.8578938527439
 20
-137.4410508553967
 10
108.7537407497213
 20
-137.4410508553967
 10
108.7537407497213
 20
-137.4410508553967
 10
108.7537407497213
 20
-137.4410508553967
 10
108.7537407497213
 20
-137.7266492711239
 10
108.7537407497213
 20
-137.7266492711239
 10
108.7537407497213
 20
-137.7266492711239
 10
108.6056016438556
 20
-137.7266492711239
 10
108.6056016438556
 20
-137.7266492711239
 10
108.590787733269
 20
-137.4393283076541
 10
108.4278347168167
 20
-137.3990206904766
 10
108.3134575467064
 20
-137.3735269838858
 10
108.3134575467064
 20
-137.3735269838858
 10
108.3134575467064
 20
-137.2470919795771
 10
108.3134575467064
 20
-137.2470919795771
 10
108.3134575467064
 20
-137.2470919795771
 10
109.8578938527439
 20
-137.2470919795771
 10
109.8578938527439
 20
-137.2470919795771
 10
109.8578938527439
 20
-137.2470919795771
 10
109.8578938527439
 20
-137.4410508553967
 10
109.8578938527439
 20
-137.4410508553967
 97
        0
 97
        0
 75
     2
 76
     1
 98
        0
  0
POLYLINE
  5
B9
330
B3
100
AcDbEntity
  8
_U+30EC_U+30A4_U+30E4_U+30FC 1
370
     0
100
AcDb2dPolyline
 66
     1
 10
0.0
 20
0.0
 30
0.0
  0
VERTEX
  5
BA
330
B9
100
AcDbEntity
  8
_U+30EC_U+30A4_U+30E4_U+30FC 1
370
     0
100
AcDbVertex
100
AcDb2dVertex
 10
109.8578938527439
 20
-136.7623670448025
 30
0.0
  0
VERTEX
  5
BB
330
B9
100
AcDbEntity
  8
_U+30EC_U+30A4_U+30E4_U+30FC 1
370
     0
100
AcDbVertex
100
AcDb2dVertex
 10
109.6060573727721
 20
-136.7623670448025
 30
0.0
  0
VERTEX
  5
BC
330
B9
100
AcDbEntity
  8
_U+30EC_U+30A4_U+30E4_U+30FC 1
370
     0
100
AcDbVertex
100
AcDb2dVertex
 10
109.6060573727721
 20
-136.5446370101347
 30
0.0
  0
VERTEX
  5
BD
330
B9
100
AcDbEntity
  8
_U+30EC_U+30A4_U+30E4_U+30FC 1
370
     0
100
AcDbVertex
100
AcDb2dVertex
 10
109.8578938527439
 20
-136.5446370101347
 30
0.0
  0
VERTEX
  5
BE
330
B9
100
AcDbEntity
  8
_U+30EC_U+30A4_U+30E4_U+30FC 1
370
     0
100
AcDbVertex
100
AcDb2dVertex
 10
109.8578938527439
 20
-136.7623670448025
 30
0.0
  0
SEQEND
  5
BF
330
B9
100
AcDbEntity
  8
_U+30EC_U+30A4_U+30E4_U+30FC 1
370
     0
  0
HATCH
  5
C0
330
B3
100
AcDbEntity
  8
_U+30EC_U+30A4_U+30E4_U+30FC 1
 62
   179
420
  2234388
100
AcDbHatch
 10
0.0
 20
0.0
 30
0.0
210
0.0
220
0.0
230
1.0
  2
SOLID
 70
     1
 71
     0
 91
        1
 92
        1
 93
        4
 72
     1
 10
109.8578938527439
 20
-136.7623670448025
 11
109.6060573727721
 21
-136.7623670448025
 72
     1
 10
109.6060573727721
 20
-136.7623670448025
 11
109.6060573727721
 21
-136.5446370101347
 72
     1
 10
109.6060573727721
 20
-136.5446370101347
 11
109.8578938527439
 21
-136.5446370101347
 72
     1
 10
109.8578938527439
 20
-136.5446370101347
 11
109.8578938527439
 21
-136.7623670448025
 97
        0
 75
     2
 76
     1
 98
        0
  0
SPLINE
  5
C1
330
B3
100
AcDbEntity
  8
_U+30EC_U+30A4_U+30E4_U+30FC 1
370
     0
100
AcDbSpline
210
0.0
220
0.0
230
1.0
 70
    11
 71
     3
 72
    53
 73
    49
 74
     0
 42
0.0000000001
 43
0.0000000001
 12
1.0
 22
0.0
 32
0.0
 13
1.0
 23
0.0
 33
0.0
 40
0.0
 40
0.0
 40
0.0
 40
0.0
 40
1.0
 40
1.0
 40
1.0
 40
2.0
 40
2.0
 40
2.0
 40
3.0
 40
3.0
 40
3.0
 40
4.0
 40
4.0
 40
4.0
 40
5.0
 40
5.0
 40
5.0
 40
6.0
 40
6.0
 40
6.0
 40
7.0
 40
7.0
 40
7.0
 40
8.0
 40
8.0
 40
8.0
 40
9.0
 40
9.0
 40
9.0
 40
10.0
 40
10.0
 40
10.0
 40
11.0
 40
11.0
 40
11.0
 40
12.0
 40
12.0
 40
12.0
 40
13.0
 40
13.0
 40
13.0
 40
14.0
 40
14.0
 40
14.0
 40
15.0
 40
15.0
 40
15.0
 40
16.0
 40
16.0
 40
16.0
 40
16.0
 10
109.908536756377
 20
-135.9245198227897
 30
0.0
 10
109.908536756377
 20
-135.9920436943006
 30
0.0
 10
109.8916557884993
 20
-136.080238138723
 30
0.0
 10
109.8282660315707
 20
-136.1677435640484
 30
0.0
 10
109.7183674855912
 20
-136.3179497272052
 30
0.0
 10
109.5871093476032
 20
-136.3362087332771
 30
0.0
 10
109.4792778589149
 20
-136.3527451916063
 30
0.0
 10
109.4792778589149
 20
-136.3527451916063
 30
0.0
 10
109.4792778589149
 20
-136.1605088635293
 30
0.0
 10
109.4792778589149
 20
-136.1605088635293
 30
0.0
 10
109.6780598684138
 20
-136.1129665458329
 30
0.0
 10
109.707687689587
 20
-136.0030679998534
 30
0.0
 10
109.707687689587
 20
-135.9227972750471
 30
0.0
 10
109.707687689587
 20
-135.8018744235148
 30
0.0
 10
109.6081244300633
 20
-135.6702717759783
 30
0.0
 10
109.3755804848089
 20
-135.6702717759783
 30
0.0
 10
109.1196098902548
 20
-135.6702717759783
 30
0.0
 10
109.0496744519043
 20
-135.8256455823631
 30
0.0
 10
109.0496744519043
 20
-135.9300319755661
 30
0.0
 10
109.0496744519043
 20
-135.9575927394481
 30
0.0
 10
109.0496744519043
 20
-136.080238138723
 30
0.0
 10
109.1788655326011
 20
-136.1570637680441
 30
0.0
 10
109.1788655326011
 20
-136.1570637680441
 30
0.0
 10
109.1599175074323
 20
-136.3089924789436
 30
0.0
 10
109.1599175074323
 20
-136.3089924789436
 30
0.0
 10
109.1599175074323
 20
-136.3089924789436
 30
0.0
 10
108.3134575467064
 20
-136.2046060857405
 30
0.0
 10
108.3134575467064
 20
-136.2046060857405
 30
0.0
 10
108.3134575467064
 20
-136.2046060857405
 30
0.0
 10
108.3134575467064
 20
-135.5310899183742
 30
0.0
 10
108.3134575467064
 20
-135.5310899183742
 30
0.0
 10
108.3134575467064
 20
-135.5310899183742
 30
0.0
 10
108.508105441623
 20
-135.5310899183742
 30
0.0
 10
108.508105441623
 20
-135.5310899183742
 30
0.0
 10
108.508105441623
 20
-135.5310899183742
 30
0.0
 10
108.508105441623
 20
-136.0637016803938
 30
0.0
 10
108.508105441623
 20
-136.0637016803938
 30
0.0
 10
108.508105441623
 20
-136.0637016803938
 30
0.0
 10
108.9311631672117
 20
-136.1202012463519
 30
0.0
 10
108.9311631672117
 20
-136.1202012463519
 30
0.0
 10
108.8974012314562
 20
-136.0671467758791
 30
0.0
 10
108.8570936142788
 20
-135.9958332993344
 30
0.0
 10
108.8570936142788
 20
-135.8935139634225
 30
0.0
 10
108.8570936142788
 20
-135.6737168714635
 30
0.0
 10
109.0434732800308
 20
-135.4687336900912
 30
0.0
 10
109.35663245964
 20
-135.4687336900912
 30
0.0
 10
109.6739257538315
 20
-135.4687336900912
 30
0.0
 10
109.908536756377
 20
-135.6626925659107
 30
0.0
 10
109.908536756377
 20
-135.9245198227897
 30
0.0
  0
HATCH
  5
C2
330
B3
100
AcDbEntity
  8
_U+30EC_U+30A4_U+30E4_U+30FC 1
 62
   179
420
  2234388
100
AcDbHatch
 10
0.0
 20
0.0
 30
0.0
210
0.0
220
0.0
230
1.0
  2
SOLID
 70
     1
 71
     0
 91
        1
 92
        1
 93
        1
 72
     4
 94
        3
 73
     0
 74
     1
 95
       53
 96
       49
 40
0.0
 40
0.0
 40
0.0
 40
0.0
 40
1.0
 40
1.0
 40
1.0
 40
2.0
 40
2.0
 40
2.0
 40
3.0
 40
3.0
 40
3.0
 40
4.0
 40
4.0
 40
4.0
 40
5.0
 40
5.0
 40
5.0
 40
6.0
 40
6.0
 40
6.0
 40
7.0
 40
7.0
 40
7.0
 40
8.0
 40
8.0
 40
8.0
 40
9.0
 40
9.0
 40
9.0
 40
10.0
 40
10.0
 40
10.0
 40
11.0
 40
11.0
 40
11.0
 40
12.0
 40
12.0
 40
12.0
 40
13.0
 40
13.0
 40
13.0
 40
14.0
 40
14.0
 40
14.0
 40
15.0
 40
15.0
 40
15.0
 40
16.0
 40
16.0
 40
16.0
 40
16.0
 10
109.908536756377
 20
-135.9245198227897
 10
109.908536756377
 20
-135.9920436943006
 10
109.8916557884993
 20
-136.080238138723
 10
109.8282660315707
 20
-136.1677435640484
 10
109.7183674855912
 20
-136.3179497272052
 10
109.5871093476032
 20
-136.3362087332771
 10
109.4792778589149
 20
-136.3527451916063
 10
109.4792778589149
 20
-136.3527451916063
 10
109.4792778589149
 20
-136.1605088635293
 10
109.4792778589149
 20
-136.1605088635293
 10
109.6780598684138
 20
-136.1129665458329
 10
109.707687689587
 20
-136.0030679998534
 10
109.707687689587
 20
-135.9227972750471
 10
109.707687689587
 20
-135.8018744235148
 10
109.6081244300633
 20
-135.6702717759783
 10
109.3755804848089
 20
-135.6702717759783
 10
109.1196098902548
 20
-135.6702717759783
 10
109.0496744519043
 20
-135.8256455823631
 10
109.0496744519043
 20
-135.9300319755661
 10
109.0496744519043
 20
-135.9575927394481
 10
109.0496744519043
 20
-136.080238138723
 10
109.1788655326011
 20
-136.1570637680441
 10
109.1788655326011
 20
-136.1570637680441
 10
109.1599175074323
 20
-136.3089924789436
 10
109.1599175074323
 20
-136.3089924789436
 10
109.1599175074323
 20
-136.3089924789436
 10
108.3134575467064
 20
-136.2046060857405
 10
108.3134575467064
 20
-136.2046060857405
 10
108.3134575467064
 20
-136.2046060857405
 10
108.3134575467064
 20
-135.5310899183742
 10
108.3134575467064
 20
-135.5310899183742
 10
108.3134575467064
 20
-135.5310899183742
 10
108.508105441623
 20
-135.5310899183742
 10
108.508105441623
 20
-135.5310899183742
 10
108.508105441623
 20
-135.5310899183742
 10
108.508105441623
 20
-136.0637016803938
 10
108.508105441623
 20
-136.0637016803938
 10
108.508105441623
 20
-136.0637016803938
 10
108.9311631672117
 20
-136.1202012463519
 10
108.9311631672117
 20
-136.1202012463519
 10
108.8974012314562
 20
-136.0671467758791
 10
108.8570936142788
 20
-135.9958332993344
 10
108.8570936142788
 20
-135.8935139634225
 10
108.8570936142788
 20
-135.6737168714635
 10
109.0434732800308
 20
-135.4687336900912
 10
109.35663245964
 20
-135.4687336900912
 10
109.6739257538315
 20
-135.4687336900912
 10
109.908536756377
 20
-135.6626925659107
 10
109.908536756377
 20
-135.9245198227897
 97
        0
 97
        0
 75
     2
 76
     1
 98
        0
  0
ENDBLK
  5
B6
330
B3
100
AcDbEntity
  8
0
100
AcDbBlockEnd
  0
BLOCK
  5
D1
330
CF
100
AcDbEntity
  8
0
100
AcDbBlockBegin
  2
block 4
 70
     0
 10
0.0
 20
0.0
 30
0.0
  3
block 4
  1

  0
SPLINE
  5
D3
330
CF
100
AcDbEntity
  8
_U+30EC_U+30A4_U+30E4_U+30FC 1
370
     0
100
AcDbSpline
210
0.0
220
0.0
230
1.0
 70
    11
 71
     3
 72
    62
 73
    58
 74
     0
 42
0.0000000001
 43
0.0000000001
 12
1.0
 22
0.0
 32
0.0
 13
1.0
 23
0.0
 33
0.0
 40
0.0
 40
0.0
 40
0.0
 40
0.0
 40
1.0
 40
1.0
 40
1.0
 40
2.0
 40
2.0
 40
2.0
 40
3.0
 40
3.0
 40
3.0
 40
4.0
 40
4.0
 40
4.0
 40
5.0
 40
5.0
 40
5.0
 40
6.0
 40
6.0
 40
6.0
 40
7.0
 40
7.0
 40
7.0
 40
8.0
 40
8.0
 40
8.0
 40
9.0
 40
9.0
 40
9.0
 40
10.0
 40
10.0
 40
10.0
 40
11.0
 40
11.0
 40
11.0
 40
12.0
 40
12.0
 40
12.0
 40
13.0
 40
13.0
 40
13.0
 40
14.0
 40
14.0
 40
14.0
 40
15.0
 40
15.0
 40
15.0
 40
16.0
 40
16.0
 40
16.0
 40
17.0
 40
17.0
 40
17.0
 40
18.0
 40
18.0
 40
18.0
 40
19.0
 40
19.0
 40
19.0
 40
19.0
 10
91.23215736651488
 20
-144.8672986834012
 30
0.0
 10
91.14981958441741
 20
-144.8672986834012
 30
0.0
 10
90.96102835182572
 20
-144.8462836009412
 30
0.0
 10
90.8531968631374
 20
-144.6602484447377
 30
0.0
 10
90.78911808711175
 20
-144.5479383319186
 30
0.0
 10
90.78532848207797
 20
-144.4487195819434
 30
0.0
 10
90.78188338659272
 20
-144.3639702330062
 30
0.0
 10
90.78188338659272
 20
-144.3639702330062
 30
0.0
 10
90.97205265737851
 20
-144.3639702330062
 30
0.0
 10
90.97205265737851
 20
-144.3639702330062
 30
0.0
 10
90.97411971466967
 20
-144.4380397859391
 30
0.0
 10
90.98307696293132
 20
-144.6726507884846
 30
0.0
 10
91.22836776148111
 20
-144.6726507884846
 30
0.0
 10
91.34722355572222
 20
-144.6726507884846
 30
0.0
 10
91.47934296758156
 20
-144.6030598596826
 30
0.0
 10
91.47934296758156
 20
-144.3746500290105
 30
0.0
 10
91.47934296758156
 20
-144.2582058016091
 30
0.0
 10
91.44627005092316
 20
-144.209629955267
 30
0.0
 10
91.41870928704115
 20
-144.1779350768028
 30
0.0
 10
91.35480276578977
 20
-144.1038655238699
 30
0.0
 10
91.25386146807196
 20
-144.0911186705744
 30
0.0
 10
91.2063191503755
 20
-144.0911186705744
 30
0.0
 10
91.18978269204631
 20
-144.0911186705744
 30
0.0
 10
91.15877683267907
 20
-144.0931857278656
 30
0.0
 10
91.13500567383083
 20
-144.0973198424479
 30
0.0
 10
91.13500567383083
 20
-144.0973198424479
 30
0.0
 10
91.13500567383083
 20
-143.9026719475313
 30
0.0
 10
91.13500567383083
 20
-143.9026719475313
 30
0.0
 10
91.16807859048923
 20
-143.9092176289533
 30
0.0
 10
91.20459660263289
 20
-143.9112846862444
 30
0.0
 10
91.21010875540928
 20
-143.9112846862444
 30
0.0
 10
91.26695283091591
 20
-143.9112846862444
 30
0.0
 10
91.43903535040414
 20
-143.8899250942358
 30
0.0
 10
91.43903535040414
 20
-143.6532470343992
 30
0.0
 10
91.43903535040414
 20
-143.4754801073603
 30
0.0
 10
91.32551945416515
 20
-143.4203585795963
 30
0.0
 10
91.23009030922373
 20
-143.4203585795963
 30
0.0
 10
91.00133596900314
 20
-143.4203585795963
 30
0.0
 10
90.99410126848412
 20
-143.6532470343992
 30
0.0
 10
90.99031166345034
 20
-143.7249050204924
 30
0.0
 10
90.99031166345034
 20
-143.7249050204924
 30
0.0
 10
90.8146117937026
 20
-143.7249050204924
 30
0.0
 10
90.8146117937026
 20
-143.7249050204924
 30
0.0
 10
90.82219100377016
 20
-143.6001925639264
 30
0.0
 10
90.84596216261838
 20
-143.2236436273885
 30
0.0
 10
91.24111461477654
 20
-143.2236436273885
 30
0.0
 10
91.43524574537037
 20
-143.2236436273885
 30
0.0
 10
91.6440185317765
 20
-143.3507676507943
 30
0.0
 10
91.6440185317765
 20
-143.6467013529772
 30
0.0
 10
91.6440185317765
 20
-143.8330810187292
 30
0.0
 10
91.56168074967903
 20
-143.9154188008267
 30
0.0
 10
91.47555336254779
 20
-143.9767415004642
 30
0.0
 10
91.52860783302063
 20
-144.0043022643462
 30
0.0
 10
91.68604869669655
 20
-144.0845729891525
 30
0.0
 10
91.68604869669655
 20
-144.3619031757151
 30
0.0
 10
91.68604869669655
 20
-144.7002115523666
 30
0.0
 10
91.47210826706254
 20
-144.8672986834012
 30
0.0
 10
91.23215736651488
 20
-144.8672986834012
 30
0.0
  0
HATCH
  5
D4
330
CF
100
AcDbEntity
  8
_U+30EC_U+30A4_U+30E4_U+30FC 1
 62
   179
420
  2234388
100
AcDbHatch
 10
0.0
 20
0.0
 30
0.0
210
0.0
220
0.0
230
1.0
  2
SOLID
 70
     1
 71
     0
 91
        1
 92
        1
 93
        1
 72
     4
 94
        3
 73
     0
 74
     1
 95
       62
 96
       58
 40
0.0
 40
0.0
 40
0.0
 40
0.0
 40
1.0
 40
1.0
 40
1.0
 40
2.0
 40
2.0
 40
2.0
 40
3.0
 40
3.0
 40
3.0
 40
4.0
 40
4.0
 40
4.0
 40
5.0
 40
5.0
 40
5.0
 40
6.0
 40
6.0
 40
6.0
 40
7.0
 40
7.0
 40
7.0
 40
8.0
 40
8.0
 40
8.0
 40
9.0
 40
9.0
 40
9.0
 40
10.0
 40
10.0
 40
10.0
 40
11.0
 40
11.0
 40
11.0
 40
12.0
 40
12.0
 40
12.0
 40
13.0
 40
13.0
 40
13.0
 40
14.0
 40
14.0
 40
14.0
 40
15.0
 40
15.0
 40
15.0
 40
16.0
 40
16.0
 40
16.0
 40
17.0
 40
17.0
 40
17.0
 40
18.0
 40
18.0
 40
18.0
 40
19.0
 40
19.0
 40
19.0
 40
19.0
 10
91.23215736651488
 20
-144.8672986834012
 10
91.14981958441741
 20
-144.8672986834012
 10
90.96102835182572
 20
-144.8462836009412
 10
90.8531968631374
 20
-144.6602484447377
 10
90.78911808711175
 20
-144.5479383319186
 10
90.78532848207797
 20
-144.4487195819434
 10
90.78188338659272
 20
-144.3639702330062
 10
90.78188338659272
 20
-144.3639702330062
 10
90.97205265737851
 20
-144.3639702330062
 10
90.97205265737851
 20
-144.3639702330062
 10
90.97411971466967
 20
-144.4380397859391
 10
90.98307696293132
 20
-144.6726507884846
 10
91.22836776148111
 20
-144.6726507884846
 10
91.34722355572222
 20
-144.6726507884846
 10
91.47934296758156
 20
-144.6030598596826
 10
91.47934296758156
 20
-144.3746500290105
 10
91.47934296758156
 20
-144.2582058016091
 10
91.44627005092316
 20
-144.209629955267
 10
91.41870928704115
 20
-144.1779350768028
 10
91.35480276578977
 20
-144.1038655238699
 10
91.25386146807196
 20
-144.0911186705744
 10
91.2063191503755
 20
-144.0911186705744
 10
91.18978269204631
 20
-144.0911186705744
 10
91.15877683267907
 20
-144.0931857278656
 10
91.13500567383083
 20
-144.0973198424479
 10
91.13500567383083
 20
-144.0973198424479
 10
91.13500567383083
 20
-143.9026719475313
 10
91.13500567383083
 20
-143.9026719475313
 10
91.16807859048923
 20
-143.9092176289533
 10
91.20459660263289
 20
-143.9112846862444
 10
91.21010875540928
 20
-143.9112846862444
 10
91.26695283091591
 20
-143.9112846862444
 10
91.43903535040414
 20
-143.8899250942358
 10
91.43903535040414
 20
-143.6532470343992
 10
91.43903535040414
 20
-143.4754801073603
 10
91.32551945416515
 20
-143.4203585795963
 10
91.23009030922373
 20
-143.4203585795963
 10
91.00133596900314
 20
-143.4203585795963
 10
90.99410126848412
 20
-143.6532470343992
 10
90.99031166345034
 20
-143.7249050204924
 10
90.99031166345034
 20
-143.7249050204924
 10
90.8146117937026
 20
-143.7249050204924
 10
90.8146117937026
 20
-143.7249050204924
 10
90.82219100377016
 20
-143.6001925639264
 10
90.84596216261838
 20
-143.2236436273885
 10
91.24111461477654
 20
-143.2236436273885
 10
91.43524574537037
 20
-143.2236436273885
 10
91.6440185317765
 20
-143.3507676507943
 10
91.6440185317765
 20
-143.6467013529772
 10
91.6440185317765
 20
-143.8330810187292
 10
91.56168074967903
 20
-143.9154188008267
 10
91.47555336254779
 20
-143.9767415004642
 10
91.52860783302063
 20
-144.0043022643462
 10
91.68604869669655
 20
-144.0845729891525
 10
91.68604869669655
 20
-144.3619031757151
 10
91.68604869669655
 20
-144.7002115523666
 10
91.47210826706254
 20
-144.8672986834012
 10
91.23215736651488
 20
-144.8672986834012
 97
        0
 97
        0
 75
     2
 76
     1
 98
        0
  0
SPLINE
  5
D5
330
CF
100
AcDbEntity
  8
_U+30EC_U+30A4_U+30E4_U+30FC 1
370
     0
100
AcDbSpline
210
0.0
220
0.0
230
1.0
 70
    11
 71
     3
 72
    29
 73
    25
 74
     0
 42
0.0000000001
 43
0.0000000001
 12
1.0
 22
0.0
 32
0.0
 13
1.0
 23
0.0
 33
0.0
 40
0.0
 40
0.0
 40
0.0
 40
0.0
 40
1.0
 40
1.0
 40
1.0
 40
2.0
 40
2.0
 40
2.0
 40
3.0
 40
3.0
 40
3.0
 40
4.0
 40
4.0
 40
4.0
 40
5.0
 40
5.0
 40
5.0
 40
6.0
 40
6.0
 40
6.0
 40
7.0
 40
7.0
 40
7.0
 40
8.0
 40
8.0
 40
8.0
 40
8.0
 10
92.6010660575789
 20
-144.6388888527292
 30
0.0
 10
92.50770396992863
 20
-144.8483506582324
 30
0.0
 10
92.35749780677175
 20
-144.8672986834012
 30
0.0
 10
92.25690101860245
 20
-144.8672986834012
 30
0.0
 10
92.11771916099835
 20
-144.8672986834012
 30
0.0
 10
91.99507376172346
 20
-144.8207898943504
 30
0.0
 10
91.91273597962599
 20
-144.6388888527292
 30
0.0
 10
91.82316349700949
 20
-144.4442409578126
 30
0.0
 10
91.80662703868029
 20
-144.2072183884274
 30
0.0
 10
91.80662703868029
 20
-144.0446098815236
 30
0.0
 10
91.80662703868029
 20
-143.9006048902401
 30
0.0
 10
91.82109643971835
 20
-143.6487684102684
 30
0.0
 10
91.91273597962599
 20
-143.4499864007695
 30
0.0
 10
92.00609806727626
 20
-143.2470702766882
 30
0.0
 10
92.14527992488036
 20
-143.2236436273885
 30
0.0
 10
92.25690101860245
 20
-143.2236436273885
 30
0.0
 10
92.39401581891539
 20
-143.2236436273885
 30
0.0
 10
92.51872827548144
 20
-143.2680853591483
 30
0.0
 10
92.6010660575789
 20
-143.4499864007695
 30
0.0
 10
92.68684893516162
 20
-143.6425672383949
 30
0.0
 10
92.7071749985246
 20
-143.870977069067
 30
0.0
 10
92.7071749985246
 20
-144.0446098815236
 30
0.0
 10
92.7071749985246
 20
-144.2158311271405
 30
0.0
 10
92.68891599245278
 20
-144.4463080151037
 30
0.0
 10
92.6010660575789
 20
-144.6388888527292
 30
0.0
  0
SPLINE
  5
D6
330
CF
100
AcDbEntity
  8
_U+30EC_U+30A4_U+30E4_U+30FC 1
370
     0
100
AcDbSpline
210
0.0
220
0.0
230
1.0
 70
    11
 71
     3
 72
    17
 73
    13
 74
     0
 42
0.0000000001
 43
0.0000000001
 12
1.0
 22
0.0
 32
0.0
 13
1.0
 23
0.0
 33
0.0
 40
0.0
 40
0.0
 40
0.0
 40
0.0
 40
1.0
 40
1.0
 40
1.0
 40
2.0
 40
2.0
 40
2.0
 40
3.0
 40
3.0
 40
3.0
 40
4.0
 40
4.0
 40
4.0
 40
4.0
 10
92.25690101860245
 20
-143.416224465014
 30
0.0
 10
92.04089353167728
 20
-143.416224465014
 30
0.0
 10
92.00058591449985
 20
-143.6997558234501
 30
0.0
 10
92.00058591449985
 20
-144.0446098815236
 30
0.0
 10
92.00058591449985
 20
-144.3639702330062
 30
0.0
 10
92.0315917738671
 20
-144.6726507884846
 30
0.0
 10
92.25690101860245
 20
-144.6726507884846
 30
0.0
 10
92.47084144823646
 20
-144.6726507884846
 30
0.0
 10
92.51321612270503
 20
-144.3915309968882
 30
0.0
 10
92.51321612270503
 20
-144.0446098815236
 30
0.0
 10
92.51321612270503
 20
-143.7249050204924
 30
0.0
 10
92.48014320604663
 20
-143.416224465014
 30
0.0
 10
92.25690101860245
 20
-143.416224465014
 30
0.0
  0
HATCH
  5
D7
330
CF
100
AcDbEntity
  8
_U+30EC_U+30A4_U+30E4_U+30FC 1
 62
   179
420
  2234388
100
AcDbHatch
 10
0.0
 20
0.0
 30
0.0
210
0.0
220
0.0
230
1.0
  2
SOLID
 70
     1
 71
     0
 91
        2
 92
        1
 93
        1
 72
     4
 94
        3
 73
     0
 74
     1
 95
       29
 96
       25
 40
0.0
 40
0.0
 40
0.0
 40
0.0
 40
1.0
 40
1.0
 40
1.0
 40
2.0
 40
2.0
 40
2.0
 40
3.0
 40
3.0
 40
3.0
 40
4.0
 40
4.0
 40
4.0
 40
5.0
 40
5.0
 40
5.0
 40
6.0
 40
6.0
 40
6.0
 40
7.0
 40
7.0
 40
7.0
 40
8.0
 40
8.0
 40
8.0
 40
8.0
 10
92.6010660575789
 20
-144.6388888527292
 10
92.50770396992863
 20
-144.8483506582324
 10
92.35749780677175
 20
-144.8672986834012
 10
92.25690101860245
 20
-144.8672986834012
 10
92.11771916099835
 20
-144.8672986834012
 10
91.99507376172346
 20
-144.8207898943504
 10
91.91273597962599
 20
-144.6388888527292
 10
91.82316349700949
 20
-144.4442409578126
 10
91.80662703868029
 20
-144.2072183884274
 10
91.80662703868029
 20
-144.0446098815236
 10
91.80662703868029
 20
-143.9006048902401
 10
91.82109643971835
 20
-143.6487684102684
 10
91.91273597962599
 20
-143.4499864007695
 10
92.00609806727626
 20
-143.2470702766882
 10
92.14527992488036
 20
-143.2236436273885
 10
92.25690101860245
 20
-143.2236436273885
 10
92.39401581891539
 20
-143.2236436273885
 10
92.51872827548144
 20
-143.2680853591483
 10
92.6010660575789
 20
-143.4499864007695
 10
92.68684893516162
 20
-143.6425672383949
 10
92.7071749985246
 20
-143.870977069067
 10
92.7071749985246
 20
-144.0446098815236
 10
92.7071749985246
 20
-144.2158311271405
 10
92.68891599245278
 20
-144.4463080151037
 10
92.6010660575789
 20
-144.6388888527292
 97
        0
 97
        0
 92
        1
 93
        1
 72
     4
 94
        3
 73
     0
 74
     1
 95
       17
 96
       13
 40
0.0
 40
0.0
 40
0.0
 40
0.0
 40
1.0
 40
1.0
 40
1.0
 40
2.0
 40
2.0
 40
2.0
 40
3.0
 40
3.0
 40
3.0
 40
4.0
 40
4.0
 40
4.0
 40
4.0
 10
92.25690101860245
 20
-143.416224465014
 10
92.04089353167728
 20
-143.416224465014
 10
92.00058591449985
 20
-143.6997558234501
 10
92.00058591449985
 20
-144.0446098815236
 10
92.00058591449985
 20
-144.3639702330062
 10
92.0315917738671
 20
-144.6726507884846
 10
92.25690101860245
 20
-144.6726507884846
 10
92.47084144823646
 20
-144.6726507884846
 10
92.51321612270503
 20
-144.3915309968882
 10
92.51321612270503
 20
-144.0446098815236
 10
92.51321612270503
 20
-143.7249050204924
 10
92.48014320604663
 20
-143.416224465014
 10
92.25690101860245
 20
-143.416224465014
 97
        0
 97
        0
 75
     2
 76
     1
 98
        0
  0
ENDBLK
  5
D2
330
CF
100
AcDbEntity
  8
0
100
AcDbBlockEnd
  0
BLOCK
  5
E6
330
E4
100
AcDbEntity
  8
0
100
AcDbBlockBegin
  2
block 5
 70
     0
 10
0.0
 20
0.0
 30
0.0
  3
block 5
  1

  0
SPLINE
  5
E8
330
E4
100
AcDbEntity
  8
_U+30EC_U+30A4_U+30E4_U+30FC 1
370
     0
100
AcDbSpline
210
0.0
220
0.0
230
1.0
 70
    11
 71
     3
 72
    62
 73
    58
 74
     0
 42
0.0000000001
 43
0.0000000001
 12
1.0
 22
0.0
 32
0.0
 13
1.0
 23
0.0
 33
0.0
 40
0.0
 40
0.0
 40
0.0
 40
0.0
 40
1.0
 40
1.0
 40
1.0
 40
2.0
 40
2.0
 40
2.0
 40
3.0
 40
3.0
 40
3.0
 40
4.0
 40
4.0
 40
4.0
 40
5.0
 40
5.0
 40
5.0
 40
6.0
 40
6.0
 40
6.0
 40
7.0
 40
7.0
 40
7.0
 40
8.0
 40
8.0
 40
8.0
 40
9.0
 40
9.0
 40
9.0
 40
10.0
 40
10.0
 40
10.0
 40
11.0
 40
11.0
 40
11.0
 40
12.0
 40
12.0
 40
12.0
 40
13.0
 40
13.0
 40
13.0
 40
14.0
 40
14.0
 40
14.0
 40
15.0
 40
15.0
 40
15.0
 40
16.0
 40
16.0
 40
16.0
 40
17.0
 40
17.0
 40
17.0
 40
18.0
 40
18.0
 40
18.0
 40
19.0
 40
19.0
 40
19.0
 40
19.0
 10
72.69909394883912
 20
-127.1636420037994
 30
0.0
 10
72.69909394883912
 20
-127.2459797858968
 30
0.0
 10
72.67790661160483
 20
-127.4347710184885
 30
0.0
 10
72.49169920062708
 20
-127.5426025071769
 30
0.0
 10
72.37956134258219
 20
-127.6066812832025
 30
0.0
 10
72.28017033783274
 20
-127.6104708882363
 30
0.0
 10
72.19559324366986
 20
-127.6139159837215
 30
0.0
 10
72.19559324366986
 20
-127.6139159837215
 30
0.0
 10
72.19559324366986
 20
-127.4237467129357
 30
0.0
 10
72.19559324366986
 20
-127.4237467129357
 30
0.0
 10
72.26966279660273
 20
-127.4216796556446
 30
0.0
 10
72.5044460539225
 20
-127.4127224073829
 30
0.0
 10
72.5044460539225
 20
-127.1674316088331
 30
0.0
 10
72.5044460539225
 20
-127.048575814592
 30
0.0
 10
72.4346828703462
 20
-126.916628657507
 30
0.0
 10
72.20610078489986
 20
-126.916628657507
 30
0.0
 10
72.08982881227269
 20
-126.916628657507
 30
0.0
 10
72.0410807111564
 20
-126.9497015741654
 30
0.0
 10
72.0093858326921
 20
-126.9769178284988
 30
0.0
 10
71.93531627975923
 20
-127.0409966045245
 30
0.0
 10
71.92274168123807
 20
-127.1419379022423
 30
0.0
 10
71.92274168123807
 20
-127.1894802199387
 30
0.0
 10
71.92274168123807
 20
-127.2060166782679
 30
0.0
 10
71.92480873852922
 20
-127.2370225376352
 30
0.0
 10
71.92894285311152
 20
-127.2607936964834
 30
0.0
 10
71.92894285311152
 20
-127.2607936964834
 30
0.0
 10
71.73429495819491
 20
-127.2607936964834
 30
0.0
 10
71.73429495819491
 20
-127.2607936964834
 30
0.0
 10
71.7406683848426
 20
-127.227720779825
 30
0.0
 10
71.74290769690802
 20
-127.1912027676814
 30
0.0
 10
71.74290769690802
 20
-127.185690614905
 30
0.0
 10
71.74290769690802
 20
-127.1288465393984
 30
0.0
 10
71.72172035967374
 20
-126.9569362746844
 30
0.0
 10
71.48469779028855
 20
-126.9569362746844
 30
0.0
 10
71.30710311802392
 20
-126.9569362746844
 30
0.0
 10
71.25198159025993
 20
-127.0702799161491
 30
0.0
 10
71.25198159025993
 20
-127.1657090610905
 30
0.0
 10
71.25198159025993
 20
-127.3944634013111
 30
0.0
 10
71.48469779028855
 20
-127.4016981018301
 30
0.0
 10
71.55670028593028
 20
-127.4054877068639
 30
0.0
 10
71.55670028593028
 20
-127.4054877068639
 30
0.0
 10
71.55670028593028
 20
-127.5811875766117
 30
0.0
 10
71.55670028593028
 20
-127.5811875766117
 30
0.0
 10
71.43181557458996
 20
-127.5736083665441
 30
0.0
 10
71.05526663805216
 20
-127.5498372076959
 30
0.0
 10
71.05526663805216
 20
-127.1546847555377
 30
0.0
 10
71.05526663805216
 20
-126.9607258797182
 30
0.0
 10
71.18221840668362
 20
-126.751953093312
 30
0.0
 10
71.47832436364084
 20
-126.751953093312
 30
0.0
 10
71.6645317746186
 20
-126.751953093312
 30
0.0
 10
71.74704181149032
 20
-126.8342908754095
 30
0.0
 10
71.80836451112778
 20
-126.9204182625407
 30
0.0
 10
71.83592527500977
 20
-126.8673637920679
 30
0.0
 10
71.91636825459035
 20
-126.709922928392
 30
0.0
 10
72.1935261863787
 20
-126.709922928392
 30
0.0
 10
72.5320068178045
 20
-126.709922928392
 30
0.0
 10
72.69909394883912
 20
-126.923863358026
 30
0.0
 10
72.69909394883912
 20
-127.1636420037994
 30
0.0
  0
HATCH
  5
E9
330
E4
100
AcDbEntity
  8
_U+30EC_U+30A4_U+30E4_U+30FC 1
 62
   179
420
  2234388
100
AcDbHatch
 10
0.0
 20
0.0
 30
0.0
210
0.0
220
0.0
230
1.0
  2
SOLID
 70
     1
 71
     0
 91
        1
 92
        1
 93
        1
 72
     4
 94
        3
 73
     0
 74
     1
 95
       62
 96
       58
 40
0.0
 40
0.0
 40
0.0
 40
0.0
 40
1.0
 40
1.0
 40
1.0
 40
2.0
 40
2.0
 40
2.0
 40
3.0
 40
3.0
 40
3.0
 40
4.0
 40
4.0
 40
4.0
 40
5.0
 40
5.0
 40
5.0
 40
6.0
 40
6.0
 40
6.0
 40
7.0
 40
7.0
 40
7.0
 40
8.0
 40
8.0
 40
8.0
 40
9.0
 40
9.0
 40
9.0
 40
10.0
 40
10.0
 40
10.0
 40
11.0
 40
11.0
 40
11.0
 40
12.0
 40
12.0
 40
12.0
 40
13.0
 40
13.0
 40
13.0
 40
14.0
 40
14.0
 40
14.0
 40
15.0
 40
15.0
 40
15.0
 40
16.0
 40
16.0
 40
16.0
 40
17.0
 40
17.0
 40
17.0
 40
18.0
 40
18.0
 40
18.0
 40
19.0
 40
19.0
 40
19.0
 40
19.0
 10
72.69909394883912
 20
-127.1636420037994
 10
72.69909394883912
 20
-127.2459797858968
 10
72.67790661160483
 20
-127.4347710184885
 10
72.49169920062708
 20
-127.5426025071769
 10
72.37956134258219
 20
-127.6066812832025
 10
72.28017033783274
 20
-127.6104708882363
 10
72.19559324366986
 20
-127.6139159837215
 10
72.19559324366986
 20
-127.6139159837215
 10
72.19559324366986
 20
-127.4237467129357
 10
72.19559324366986
 20
-127.4237467129357
 10
72.26966279660273
 20
-127.4216796556446
 10
72.5044460539225
 20
-127.4127224073829
 10
72.5044460539225
 20
-127.1674316088331
 10
72.5044460539225
 20
-127.048575814592
 10
72.4346828703462
 20
-126.916628657507
 10
72.20610078489986
 20
-126.916628657507
 10
72.08982881227269
 20
-126.916628657507
 10
72.0410807111564
 20
-126.9497015741654
 10
72.0093858326921
 20
-126.9769178284988
 10
71.93531627975923
 20
-127.0409966045245
 10
71.92274168123807
 20
-127.1419379022423
 10
71.92274168123807
 20
-127.1894802199387
 10
71.92274168123807
 20
-127.2060166782679
 10
71.92480873852922
 20
-127.2370225376352
 10
71.92894285311152
 20
-127.2607936964834
 10
71.92894285311152
 20
-127.2607936964834
 10
71.73429495819491
 20
-127.2607936964834
 10
71.73429495819491
 20
-127.2607936964834
 10
71.7406683848426
 20
-127.227720779825
 10
71.74290769690802
 20
-127.1912027676814
 10
71.74290769690802
 20
-127.185690614905
 10
71.74290769690802
 20
-127.1288465393984
 10
71.72172035967374
 20
-126.9569362746844
 10
71.48469779028855
 20
-126.9569362746844
 10
71.30710311802392
 20
-126.9569362746844
 10
71.25198159025993
 20
-127.0702799161491
 10
71.25198159025993
 20
-127.1657090610905
 10
71.25198159025993
 20
-127.3944634013111
 10
71.48469779028855
 20
-127.4016981018301
 10
71.55670028593028
 20
-127.4054877068639
 10
71.55670028593028
 20
-127.4054877068639
 10
71.55670028593028
 20
-127.5811875766117
 10
71.55670028593028
 20
-127.5811875766117
 10
71.43181557458996
 20
-127.5736083665441
 10
71.05526663805216
 20
-127.5498372076959
 10
71.05526663805216
 20
-127.1546847555377
 10
71.05526663805216
 20
-126.9607258797182
 10
71.18221840668362
 20
-126.751953093312
 10
71.47832436364084
 20
-126.751953093312
 10
71.6645317746186
 20
-126.751953093312
 10
71.74704181149032
 20
-126.8342908754095
 10
71.80836451112778
 20
-126.9204182625407
 10
71.83592527500977
 20
-126.8673637920679
 10
71.91636825459035
 20
-126.709922928392
 10
72.1935261863787
 20
-126.709922928392
 10
72.5320068178045
 20
-126.709922928392
 10
72.69909394883912
 20
-126.923863358026
 10
72.69909394883912
 20
-127.1636420037994
 97
        0
 97
        0
 75
     2
 76
     1
 98
        0
  0
SPLINE
  5
EA
330
E4
100
AcDbEntity
  8
_U+30EC_U+30A4_U+30E4_U+30FC 1
370
     0
100
AcDbSpline
210
0.0
220
0.0
230
1.0
 70
    11
 71
     3
 72
    29
 73
    25
 74
     0
 42
0.0000000001
 43
0.0000000001
 12
1.0
 22
0.0
 32
0.0
 13
1.0
 23
0.0
 33
0.0
 40
0.0
 40
0.0
 40
0.0
 40
0.0
 40
1.0
 40
1.0
 40
1.0
 40
2.0
 40
2.0
 40
2.0
 40
3.0
 40
3.0
 40
3.0
 40
4.0
 40
4.0
 40
4.0
 40
5.0
 40
5.0
 40
5.0
 40
6.0
 40
6.0
 40
6.0
 40
7.0
 40
7.0
 40
7.0
 40
8.0
 40
8.0
 40
8.0
 40
8.0
 10
72.47051186339279
 20
-125.7949055675096
 30
0.0
 10
72.67997366889598
 20
-125.8882676551599
 30
0.0
 10
72.69909394883912
 20
-126.0384738183168
 30
0.0
 10
72.69909394883912
 20
-126.1390706064861
 30
0.0
 10
72.69909394883912
 20
-126.2782524640902
 30
0.0
 10
72.65258515978825
 20
-126.4008978633651
 30
0.0
 10
72.47051186339279
 20
-126.4832356454625
 30
0.0
 10
72.27586396847617
 20
-126.572808128079
 30
0.0
 10
72.03901365386525
 20
-126.5893445864082
 30
0.0
 10
71.87606063741293
 20
-126.5893445864082
 30
0.0
 10
71.73222790090375
 20
-126.5893445864082
 30
0.0
 10
71.48056367570625
 20
-126.5745306758216
 30
0.0
 10
71.28160941143307
 20
-126.4832356454625
 30
0.0
 10
71.0785210325776
 20
-126.3898735578123
 30
0.0
 10
71.05526663805216
 20
-126.2506917002082
 30
0.0
 10
71.05526663805216
 20
-126.1390706064861
 30
0.0
 10
71.05526663805216
 20
-126.0019558061731
 30
0.0
 10
71.09970836981188
 20
-125.8772433496071
 30
0.0
 10
71.28160941143307
 20
-125.7949055675096
 30
0.0
 10
71.47419024905854
 20
-125.7091226899269
 30
0.0
 10
71.7026000797306
 20
-125.6887966265639
 30
0.0
 10
71.87606063741293
 20
-125.6887966265639
 30
0.0
 10
72.04745413780411
 20
-125.6887966265639
 30
0.0
 10
72.27810328054159
 20
-125.7070556326357
 30
0.0
 10
72.47051186339279
 20
-125.7949055675096
 30
0.0
  0
SPLINE
  5
EB
330
E4
100
AcDbEntity
  8
_U+30EC_U+30A4_U+30E4_U+30FC 1
370
     0
100
AcDbSpline
210
0.0
220
0.0
230
1.0
 70
    11
 71
     3
 72
    17
 73
    13
 74
     0
 42
0.0000000001
 43
0.0000000001
 12
1.0
 22
0.0
 32
0.0
 13
1.0
 23
0.0
 33
0.0
 40
0.0
 40
0.0
 40
0.0
 40
0.0
 40
1.0
 40
1.0
 40
1.0
 40
2.0
 40
2.0
 40
2.0
 40
3.0
 40
3.0
 40
3.0
 40
4.0
 40
4.0
 40
4.0
 40
4.0
 10
71.24784747567763
 20
-126.1390706064861
 30
0.0
 10
71.24784747567763
 20
-126.3550780934112
 30
0.0
 10
71.53137883411368
 20
-126.3953857105887
 30
0.0
 10
71.87606063741293
 20
-126.3953857105887
 30
0.0
 10
72.19559324366986
 20
-126.3953857105887
 30
0.0
 10
72.5044460539225
 20
-126.3643798512214
 30
0.0
 10
72.5044460539225
 20
-126.1390706064861
 30
0.0
 10
72.5044460539225
 20
-125.9251301768521
 30
0.0
 10
72.22298175277759
 20
-125.8827555023835
 30
0.0
 10
71.87606063741293
 20
-125.8827555023835
 30
0.0
 10
71.55670028593028
 20
-125.8827555023835
 30
0.0
 10
71.24784747567763
 20
-125.9158284190419
 30
0.0
 10
71.24784747567763
 20
-126.1390706064861
 30
0.0
  0
HATCH
  5
EC
330
E4
100
AcDbEntity
  8
_U+30EC_U+30A4_U+30E4_U+30FC 1
 62
   179
420
  2234388
100
AcDbHatch
 10
0.0
 20
0.0
 30
0.0
210
0.0
220
0.0
230
1.0
  2
SOLID
 70
     1
 71
     0
 91
        2
 92
        1
 93
        1
 72
     4
 94
        3
 73
     0
 74
     1
 95
       29
 96
       25
 40
0.0
 40
0.0
 40
0.0
 40
0.0
 40
1.0
 40
1.0
 40
1.0
 40
2.0
 40
2.0
 40
2.0
 40
3.0
 40
3.0
 40
3.0
 40
4.0
 40
4.0
 40
4.0
 40
5.0
 40
5.0
 40
5.0
 40
6.0
 40
6.0
 40
6.0
 40
7.0
 40
7.0
 40
7.0
 40
8.0
 40
8.0
 40
8.0
 40
8.0
 10
72.47051186339279
 20
-125.7949055675096
 10
72.67997366889598
 20
-125.8882676551599
 10
72.69909394883912
 20
-126.0384738183168
 10
72.69909394883912
 20
-126.1390706064861
 10
72.69909394883912
 20
-126.2782524640902
 10
72.65258515978825
 20
-126.4008978633651
 10
72.47051186339279
 20
-126.4832356454625
 10
72.27586396847617
 20
-126.572808128079
 10
72.03901365386525
 20
-126.5893445864082
 10
71.87606063741293
 20
-126.5893445864082
 10
71.73222790090375
 20
-126.5893445864082
 10
71.48056367570625
 20
-126.5745306758216
 10
71.28160941143307
 20
-126.4832356454625
 10
71.0785210325776
 20
-126.3898735578123
 10
71.05526663805216
 20
-126.2506917002082
 10
71.05526663805216
 20
-126.1390706064861
 10
71.05526663805216
 20
-126.0019558061731
 10
71.09970836981188
 20
-125.8772433496071
 10
71.28160941143307
 20
-125.7949055675096
 10
71.47419024905854
 20
-125.7091226899269
 10
71.7026000797306
 20
-125.6887966265639
 10
71.87606063741293
 20
-125.6887966265639
 10
72.04745413780411
 20
-125.6887966265639
 10
72.27810328054159
 20
-125.7070556326357
 10
72.47051186339279
 20
-125.7949055675096
 97
        0
 97
        0
 92
        1
 93
        1
 72
     4
 94
        3
 73
     0
 74
     1
 95
       17
 96
       13
 40
0.0
 40
0.0
 40
0.0
 40
0.0
 40
1.0
 40
1.0
 40
1.0
 40
2.0
 40
2.0
 40
2.0
 40
3.0
 40
3.0
 40
3.0
 40
4.0
 40
4.0
 40
4.0
 40
4.0
 10
71.24784747567763
 20
-126.1390706064861
 10
71.24784747567763
 20
-126.3550780934112
 10
71.53137883411368
 20
-126.3953857105887
 10
71.87606063741293
 20
-126.3953857105887
 10
72.19559324366986
 20
-126.3953857105887
 10
72.5044460539225
 20
-126.3643798512214
 10
72.5044460539225
 20
-126.1390706064861
 10
72.5044460539225
 20
-125.9251301768521
 10
72.22298175277759
 20
-125.8827555023835
 10
71.87606063741293
 20
-125.8827555023835
 10
71.55670028593028
 20
-125.8827555023835
 10
71.24784747567763
 20
-125.9158284190419
 10
71.24784747567763
 20
-126.1390706064861
 97
        0
 97
        0
 75
     2
 76
     1
 98
        0
  0
ENDBLK
  5
E7
330
E4
100
AcDbEntity
  8
0
100
AcDbBlockEnd
  0
ENDSEC
  0
SECTION
  2
ENTITIES
  0
INSERT
  5
42
330
1F
100
AcDbEntity
  8
_U+30EC_U+30A4_U+30E4_U+30FC 1
100
AcDbBlockReference
  2
block 2
 10
0.0
 20
0.0
 30
0.0
  0
POLYLINE
  5
7F
330
1F
100
AcDbEntity
  8
_U+30EC_U+30A4_U+30E4_U+30FC 1
 62
   179
420
  2234388
370
     9
100
AcDb2dPolyline
 66
     1
 10
0.0
 20
0.0
 30
0.0
  0
VERTEX
  5
80
330
7F
100
AcDbEntity
  8
_U+30EC_U+30A4_U+30E4_U+30FC 1
 62
   179
420
  2234388
370
     9
100
AcDbVertex
100
AcDb2dVertex
 10
83.50549648070842
 20
-120.4090174698977
 30
0.0
  0
VERTEX
  5
81
330
7F
100
AcDbEntity
  8
_U+30EC_U+30A4_U+30E4_U+30FC 1
 62
   179
420
  2234388
370
     9
100
AcDbVertex
100
AcDb2dVertex
 10
79.94395796045971
 20
-126.5385313572542
 30
0.0
  0
SEQEND
  5
82
330
7F
100
AcDbEntity
  8
_U+30EC_U+30A4_U+30E4_U+30FC 1
 62
   179
420
  2234388
370
     9
  0
POLYLINE
  5
83
330
1F
100
AcDbEntity
  8
_U+30EC_U+30A4_U+30E4_U+30FC 1
  6
AI-Linetype-1
 62
   154
420
    23468
370
    25
100
AcDb2dPolyline
 66
     1
 10
0.0
 20
0.0
 30
0.0
  0
VERTEX
  5
84
330
83
100
AcDbEntity
  8
_U+30EC_U+30A4_U+30E4_U+30FC 1
  6
AI-Linetype-1
 62
   154
420
    23468
370
    25
100
AcDbVertex
100
AcDb2dVertex
 10
76.97910775832158
 20
-110.648891083449
 30
0.0
  0
VERTEX
  5
85
330
83
100
AcDbEntity
  8
_U+30EC_U+30A4_U+30E4_U+30FC 1
  6
AI-Linetype-1
 62
   154
420
    23468
370
    25
100
AcDbVertex
100
AcDb2dVertex
 10
79.18707325754723
 20
-110.648891083449
 30
0.0
  0
VERTEX
  5
86
330
83
100
AcDbEntity
  8
_U+30EC_U+30A4_U+30E4_U+30FC 1
  6
AI-Linetype-1
 62
   154
420
    23468
370
    25
100
AcDbVertex
100
AcDb2dVertex
 10
79.18707325754723
 20
-139.1474088541021
 30
0.0
  0
VERTEX
  5
87
330
83
100
AcDbEntity
  8
_U+30EC_U+30A4_U+30E4_U+30FC 1
  6
AI-Linetype-1
 62
   154
420
    23468
370
    25
100
AcDbVertex
100
AcDb2dVertex
 10
107.7736110841677
 20
-139.1474088541021
 30
0.0
  0
VERTEX
  5
88
330
83
100
AcDbEntity
  8
_U+30EC_U+30A4_U+30E4_U+30FC 1
  6
AI-Linetype-1
 62
   154
420
    23468
370
    25
100
AcDbVertex
100
AcDb2dVertex
 10
107.7736110841677
 20
-141.4439216313057
 30
0.0
  0
SEQEND
  5
8A
330
83
100
AcDbEntity
  8
_U+30EC_U+30A4_U+30E4_U+30FC 1
  6
AI-Linetype-1
 62
   154
420
    23468
370
    25
  0
POLYLINE
  5
8B
330
1F
100
AcDbEntity
  8
_U+30EC_U+30A4_U+30E4_U+30FC 1
 62
   179
420
  2234388
370
    25
100
AcDb2dPolyline
 66
     1
 10
0.0
 20
0.0
 30
0.0
  0
VERTEX
  5
8C
330
8B
100
AcDbEntity
  8
_U+30EC_U+30A4_U+30E4_U+30FC 1
 62
   179
420
  2234388
370
    25
100
AcDbVertex
100
AcDb2dVertex
 10
106.9822572706552
 20
-139.9136069094659
 30
0.0
  0
VERTEX
  5
8D
330
8B
100
AcDbEntity
  8
_U+30EC_U+30A4_U+30E4_U+30FC 1
 62
   179
420
  2234388
370
    25
100
AcDbVertex
100
AcDb2dVertex
 10
106.9822572706552
 20
-141.4135827424247
 30
0.0
  0
SEQEND
  5
8E
330
8B
100
AcDbEntity
  8
_U+30EC_U+30A4_U+30E4_U+30FC 1
 62
   179
420
  2234388
370
    25
  0
POLYLINE
  5
8F
330
1F
100
AcDbEntity
  8
_U+30EC_U+30A4_U+30E4_U+30FC 1
 62
   179
420
  2234388
370
    25
100
AcDb2dPolyline
 66
     1
 10
0.0
 20
0.0
 30
0.0
  0
VERTEX
  5
90
330
8F
100
AcDbEntity
  8
_U+30EC_U+30A4_U+30E4_U+30FC 1
 62
   179
420
  2234388
370
    25
100
AcDbVertex
100
AcDb2dVertex
 10
76.98256498045559
 20
-111.4133605277022
 30
0.0
  0
VERTEX
  5
91
330
8F
100
AcDbEntity
  8
_U+30EC_U+30A4_U+30E4_U+30FC 1
 62
   179
420
  2234388
370
    25
100
AcDbVertex
100
AcDb2dVertex
 10
76.98256498045559
 20
-141.4135827424247
 30
0.0
  0
VERTEX
  5
92
330
8F
100
AcDbEntity
  8
_U+30EC_U+30A4_U+30E4_U+30FC 1
 62
   179
420
  2234388
370
    25
100
AcDbVertex
100
AcDb2dVertex
 10
106.9822572706552
 20
-141.4135827424247
 30
0.0
  0
SEQEND
  5
93
330
8F
100
AcDbEntity
  8
_U+30EC_U+30A4_U+30E4_U+30FC 1
 62
   179
420
  2234388
370
    25
  0
POLYLINE
  5
94
330
1F
100
AcDbEntity
  8
_U+30EC_U+30A4_U+30E4_U+30FC 1
 62
   179
420
  2234388
370
    25
100
AcDb2dPolyline
 66
     1
 10
0.0
 20
0.0
 30
0.0
  0
VERTEX
  5
95
330
94
100
AcDbEntity
  8
_U+30EC_U+30A4_U+30E4_U+30FC 1
 62
   179
420
  2234388
370
    25
100
AcDbVertex
100
AcDb2dVertex
 10
76.98256498045559
 20
-111.4133605277022
 30
0.0
  0
VERTEX
  5
96
330
94
100
AcDbEntity
  8
_U+30EC_U+30A4_U+30E4_U+30FC 1
 62
   179
420
  2234388
370
    25
100
AcDbVertex
100
AcDb2dVertex
 10
78.48254077552136
 20
-111.4133605277022
 30
0.0
  0
SEQEND
  5
97
330
94
100
AcDbEntity
  8
_U+30EC_U+30A4_U+30E4_U+30FC 1
 62
   179
420
  2234388
370
    25
  0
POLYLINE
  5
98
330
1F
100
AcDbEntity
  8
_U+30EC_U+30A4_U+30E4_U+30FC 1
 62
   179
420
  2234388
370
    25
100
AcDb2dPolyline
 66
     1
 10
0.0
 20
0.0
 30
0.0
  0
VERTEX
  5
99
330
98
100
AcDbEntity
  8
_U+30EC_U+30A4_U+30E4_U+30FC 1
 62
   179
420
  2234388
370
    25
100
AcDbVertex
100
AcDb2dVertex
 10
78.48254077552136
 20
-111.4133605277022
 30
0.0
  0
VERTEX
  5
9A
330
98
100
AcDbEntity
  8
_U+30EC_U+30A4_U+30E4_U+30FC 1
 62
   179
420
  2234388
370
    25
100
AcDbVertex
100
AcDb2dVertex
 10
78.48254077552136
 20
-139.9136069094659
 30
0.0
  0
VERTEX
  5
9B
330
98
100
AcDbEntity
  8
_U+30EC_U+30A4_U+30E4_U+30FC 1
 62
   179
420
  2234388
370
    25
100
AcDbVertex
100
AcDb2dVertex
 10
106.9822572706552
 20
-139.9136069094659
 30
0.0
  0
SEQEND
  5
9C
330
98
100
AcDbEntity
  8
_U+30EC_U+30A4_U+30E4_U+30FC 1
 62
   179
420
  2234388
370
    25
  0
SPLINE
  5
9D
330
1F
100
AcDbEntity
  8
_U+30EC_U+30A4_U+30E4_U+30FC 1
 62
   179
420
  2234388
370
     9
100
AcDbSpline
210
0.0
220
0.0
230
1.0
 70
    11
 71
     3
 72
    17
 73
    13
 74
     0
 42
0.0000000001
 43
0.0000000001
 12
1.0
 22
0.0
 32
0.0
 13
1.0
 23
0.0
 33
0.0
 40
0.0
 40
0.0
 40
0.0
 40
0.0
 40
1.0
 40
1.0
 40
1.0
 40
2.0
 40
2.0
 40
2.0
 40
3.0
 40
3.0
 40
3.0
 40
4.0
 40
4.0
 40
4.0
 40
4.0
 10
110.5531091239997
 20
-141.4135827424247
 30
0.0
 10
110.5531091239997
 20
-141.3584788535491
 30
0.0
 10
110.5083444168175
 20
-141.3136760757824
 30
0.0
 10
110.4532024598818
 20
-141.3136760757824
 30
0.0
 10
110.3980985723988
 20
-141.3136760757824
 30
0.0
 10
110.353295795764
 20
-141.3584788535491
 30
0.0
 10
110.353295795764
 20
-141.4135827424247
 30
0.0
 10
110.353295795764
 20
-141.4687219090771
 30
0.0
 10
110.3980985723988
 20
-141.5134894090663
 30
0.0
 10
110.4532024598818
 20
-141.5134894090663
 30
0.0
 10
110.5083444168175
 20
-141.5134894090663
 30
0.0
 10
110.5531091239997
 20
-141.4687219090771
 30
0.0
 10
110.5531091239997
 20
-141.4135827424247
 30
0.0
  0
SPLINE
  5
9E
330
1F
100
AcDbEntity
  8
_U+30EC_U+30A4_U+30E4_U+30FC 1
 62
   179
420
  2234388
370
     9
100
AcDbSpline
210
0.0
220
0.0
230
1.0
 70
    11
 71
     3
 72
    17
 73
    13
 74
     0
 42
0.0000000001
 43
0.0000000001
 12
1.0
 22
0.0
 32
0.0
 13
1.0
 23
0.0
 33
0.0
 40
0.0
 40
0.0
 40
0.0
 40
0.0
 40
1.0
 40
1.0
 40
1.0
 40
2.0
 40
2.0
 40
2.0
 40
3.0
 40
3.0
 40
3.0
 40
4.0
 40
4.0
 40
4.0
 40
4.0
 10
107.0821666398964
 20
-145.4133419080909
 30
0.0
 10
107.0821666398964
 20
-145.358238019216
 30
0.0
 10
107.0373964359152
 20
-145.3134352414493
 30
0.0
 10
106.9822572706552
 20
-145.3134352414493
 30
0.0
 10
106.9271533831722
 20
-145.3134352414493
 30
0.0
 10
106.8823506065374
 20
-145.358238019216
 30
0.0
 10
106.8823506065374
 20
-145.4133419080909
 30
0.0
 10
106.8823506065374
 20
-145.4691513525214
 30
0.0
 10
106.9271533831722
 20
-145.5132485747326
 30
0.0
 10
106.9822572706552
 20
-145.5132485747326
 30
0.0
 10
107.0373964359152
 20
-145.5132485747326
 30
0.0
 10
107.0821666398964
 20
-145.4691513525214
 30
0.0
 10
107.0821666398964
 20
-145.4133419080909
 30
0.0
  0
SPLINE
  5
9F
330
1F
100
AcDbEntity
  8
_U+30EC_U+30A4_U+30E4_U+30FC 1
 62
   179
420
  2234388
370
     9
100
AcDbSpline
210
0.0
220
0.0
230
1.0
 70
    11
 71
     3
 72
    17
 73
    13
 74
     0
 42
0.0000000001
 43
0.0000000001
 12
1.0
 22
0.0
 32
0.0
 13
1.0
 23
0.0
 33
0.0
 40
0.0
 40
0.0
 40
0.0
 40
0.0
 40
1.0
 40
1.0
 40
1.0
 40
2.0
 40
2.0
 40
2.0
 40
3.0
 40
3.0
 40
3.0
 40
4.0
 40
4.0
 40
4.0
 40
4.0
 10
110.5531091239997
 20
-139.9136069094659
 30
0.0
 10
110.5531091239997
 20
-139.8584677428128
 30
0.0
 10
110.5083444168175
 20
-139.8137002428243
 30
0.0
 10
110.4532024598818
 20
-139.8137002428243
 30
0.0
 10
110.3980985723988
 20
-139.8137002428243
 30
0.0
 10
110.353295795764
 20
-139.8584677428128
 30
0.0
 10
110.353295795764
 20
-139.9136069094659
 30
0.0
 10
110.353295795764
 20
-139.9687107983409
 30
0.0
 10
110.3980985723988
 20
-140.0135135761076
 30
0.0
 10
110.4532024598818
 20
-140.0135135761076
 30
0.0
 10
110.5083444168175
 20
-140.0135135761076
 30
0.0
 10
110.5531091239997
 20
-139.9687107983409
 30
0.0
 10
110.5531091239997
 20
-139.9136069094659
 30
0.0
  0
SPLINE
  5
A0
330
1F
100
AcDbEntity
  8
_U+30EC_U+30A4_U+30E4_U+30FC 1
 62
   179
420
  2234388
370
     9
100
AcDbSpline
210
0.0
220
0.0
230
1.0
 70
    11
 71
     3
 72
    17
 73
    13
 74
     0
 42
0.0000000001
 43
0.0000000001
 12
1.0
 22
0.0
 32
0.0
 13
1.0
 23
0.0
 33
0.0
 40
0.0
 40
0.0
 40
0.0
 40
0.0
 40
1.0
 40
1.0
 40
1.0
 40
2.0
 40
2.0
 40
2.0
 40
3.0
 40
3.0
 40
3.0
 40
4.0
 40
4.0
 40
4.0
 40
4.0
 10
73.24911785348154
 20
-111.4133605277022
 30
0.0
 10
73.24911785348154
 20
-111.3582213610494
 30
0.0
 10
73.20431507684678
 20
-111.3134538610606
 30
0.0
 10
73.1492111893637
 20
-111.3134538610606
 30
0.0
 10
73.09407202410375
 20
-111.3134538610606
 30
0.0
 10
73.04926924746898
 20
-111.3582213610494
 30
0.0
 10
73.04926924746898
 20
-111.4133605277022
 30
0.0
 10
73.04926924746898
 20
-111.4688171943549
 30
0.0
 10
73.09407202410375
 20
-111.5136199721216
 30
0.0
 10
73.1492111893637
 20
-111.5136199721216
 30
0.0
 10
73.20431507684678
 20
-111.5136199721216
 30
0.0
 10
73.24911785348154
 20
-111.4688171943549
 30
0.0
 10
73.24911785348154
 20
-111.4133605277022
 30
0.0
  0
SPLINE
  5
A1
330
1F
100
AcDbEntity
  8
_U+30EC_U+30A4_U+30E4_U+30FC 1
 62
   179
420
  2234388
370
     9
100
AcDbSpline
210
0.0
220
0.0
230
1.0
 70
    11
 71
     3
 72
    17
 73
    13
 74
     0
 42
0.0000000001
 43
0.0000000001
 12
1.0
 22
0.0
 32
0.0
 13
1.0
 23
0.0
 33
0.0
 40
0.0
 40
0.0
 40
0.0
 40
0.0
 40
1.0
 40
1.0
 40
1.0
 40
2.0
 40
2.0
 40
2.0
 40
3.0
 40
3.0
 40
3.0
 40
4.0
 40
4.0
 40
4.0
 40
4.0
 10
73.24911785348154
 20
-141.4135827424247
 30
0.0
 10
73.24911785348154
 20
-141.3584788535491
 30
0.0
 10
73.20431507684678
 20
-141.3136760757824
 30
0.0
 10
73.1492111893637
 20
-141.3136760757824
 30
0.0
 10
73.09407202410375
 20
-141.3136760757824
 30
0.0
 10
73.04926924746898
 20
-141.3584788535491
 30
0.0
 10
73.04926924746898
 20
-141.4135827424247
 30
0.0
 10
73.04926924746898
 20
-141.4687219090771
 30
0.0
 10
73.09407202410375
 20
-141.5134894090663
 30
0.0
 10
73.1492111893637
 20
-141.5134894090663
 30
0.0
 10
73.20431507684678
 20
-141.5134894090663
 30
0.0
 10
73.24911785348154
 20
-141.4687219090771
 30
0.0
 10
73.24911785348154
 20
-141.4135827424247
 30
0.0
  0
SPLINE
  5
A2
330
1F
100
AcDbEntity
  8
_U+30EC_U+30A4_U+30E4_U+30FC 1
 62
   179
420
  2234388
370
     9
100
AcDbSpline
210
0.0
220
0.0
230
1.0
 70
    11
 71
     3
 72
    17
 73
    13
 74
     0
 42
0.0000000001
 43
0.0000000001
 12
1.0
 22
0.0
 32
0.0
 13
1.0
 23
0.0
 33
0.0
 40
0.0
 40
0.0
 40
0.0
 40
0.0
 40
1.0
 40
1.0
 40
1.0
 40
2.0
 40
2.0
 40
2.0
 40
3.0
 40
3.0
 40
3.0
 40
4.0
 40
4.0
 40
4.0
 40
4.0
 10
77.08247164457343
 20
-145.4133419080909
 30
0.0
 10
77.08247164457343
 20
-145.358238019216
 30
0.0
 10
77.03766886793866
 20
-145.3134352414493
 30
0.0
 10
76.98256498045559
 20
-145.3134352414493
 30
0.0
 10
76.92707498076813
 20
-145.3134352414493
 30
0.0
 10
76.88230553856897
 20
-145.358238019216
 30
0.0
 10
76.88230553856897
 20
-145.4133419080909
 30
0.0
 10
76.88230553856897
 20
-145.4691513525214
 30
0.0
 10
76.92707498076813
 20
-145.5132485747326
 30
0.0
 10
76.98256498045559
 20
-145.5132485747326
 30
0.0
 10
77.03766886793866
 20
-145.5132485747326
 30
0.0
 10
77.08247164457343
 20
-145.4691513525214
 30
0.0
 10
77.08247164457343
 20
-145.4133419080909
 30
0.0
  0
POLYLINE
  5
A3
330
1F
100
AcDbEntity
  8
_U+30EC_U+30A4_U+30E4_U+30FC 1
 62
   179
420
  2234388
370
     9
100
AcDb2dPolyline
 66
     1
 10
0.0
 20
0.0
 30
0.0
  0
VERTEX
  5
A4
330
A3
100
AcDbEntity
  8
_U+30EC_U+30A4_U+30E4_U+30FC 1
 62
   179
420
  2234388
370
     9
100
AcDbVertex
100
AcDb2dVertex
 10
110.4532024598818
 20
-139.9136069094659
 30
0.0
  0
VERTEX
  5
A5
330
A3
100
AcDbEntity
  8
_U+30EC_U+30A4_U+30E4_U+30FC 1
 62
   179
420
  2234388
370
     9
100
AcDbVertex
100
AcDb2dVertex
 10
110.4532024598818
 20
-134.247113855327
 30
0.0
  0
SEQEND
  5
A6
330
A3
100
AcDbEntity
  8
_U+30EC_U+30A4_U+30E4_U+30FC 1
 62
   179
420
  2234388
370
     9
  0
POLYLINE
  5
A7
330
1F
100
AcDbEntity
  8
_U+30EC_U+30A4_U+30E4_U+30FC 1
 62
   179
420
  2234388
370
     9
100
AcDb2dPolyline
 66
     1
 10
0.0
 20
0.0
 30
0.0
  0
VERTEX
  5
A8
330
A7
100
AcDbEntity
  8
_U+30EC_U+30A4_U+30E4_U+30FC 1
 62
   179
420
  2234388
370
     9
100
AcDbVertex
100
AcDb2dVertex
 10
110.4532024598818
 20
-139.9136069094659
 30
0.0
  0
VERTEX
  5
A9
330
A7
100
AcDbEntity
  8
_U+30EC_U+30A4_U+30E4_U+30FC 1
 62
   179
420
  2234388
370
     9
100
AcDbVertex
100
AcDb2dVertex
 10
110.4532024598818
 20
-142.4133549643966
 30
0.0
  0
SEQEND
  5
AA
330
A7
100
AcDbEntity
  8
_U+30EC_U+30A4_U+30E4_U+30FC 1
 62
   179
420
  2234388
370
     9
  0
POLYLINE
  5
AB
330
1F
100
AcDbEntity
  8
_U+30EC_U+30A4_U+30E4_U+30FC 1
 62
   179
420
  2234388
370
     9
100
AcDb2dPolyline
 66
     1
 10
0.0
 20
0.0
 30
0.0
  0
VERTEX
  5
AC
330
AB
100
AcDbEntity
  8
_U+30EC_U+30A4_U+30E4_U+30FC 1
 62
   179
420
  2234388
370
     9
100
AcDbVertex
100
AcDb2dVertex
 10
108.9931638616407
 20
-139.9136069094659
 30
0.0
  0
VERTEX
  5
AD
330
AB
100
AcDbEntity
  8
_U+30EC_U+30A4_U+30E4_U+30FC 1
 62
   179
420
  2234388
370
     9
100
AcDbVertex
100
AcDb2dVertex
 10
111.4533274343665
 20
-139.9136069094659
 30
0.0
  0
SEQEND
  5
AE
330
AB
100
AcDbEntity
  8
_U+30EC_U+30A4_U+30E4_U+30FC 1
 62
   179
420
  2234388
370
     9
  0
POLYLINE
  5
AF
330
1F
100
AcDbEntity
  8
_U+30EC_U+30A4_U+30E4_U+30FC 1
 62
   179
420
  2234388
370
     9
100
AcDb2dPolyline
 66
     1
 10
0.0
 20
0.0
 30
0.0
  0
VERTEX
  5
B0
330
AF
100
AcDbEntity
  8
_U+30EC_U+30A4_U+30E4_U+30FC 1
 62
   179
420
  2234388
370
     9
100
AcDbVertex
100
AcDb2dVertex
 10
108.9931638616407
 20
-141.4135827424247
 30
0.0
  0
VERTEX
  5
B1
330
AF
100
AcDbEntity
  8
_U+30EC_U+30A4_U+30E4_U+30FC 1
 62
   179
420
  2234388
370
     9
100
AcDbVertex
100
AcDb2dVertex
 10
111.4533274343665
 20
-141.4135827424247
 30
0.0
  0
SEQEND
  5
B2
330
AF
100
AcDbEntity
  8
_U+30EC_U+30A4_U+30E4_U+30FC 1
 62
   179
420
  2234388
370
     9
  0
INSERT
  5
B4
330
1F
100
AcDbEntity
  8
_U+30EC_U+30A4_U+30E4_U+30FC 1
100
AcDbBlockReference
  2
block 3
 10
0.0
 20
0.0
 30
0.0
  0
POLYLINE
  5
C3
330
1F
100
AcDbEntity
  8
_U+30EC_U+30A4_U+30E4_U+30FC 1
 62
   179
420
  2234388
370
     9
100
AcDb2dPolyline
 66
     1
 10
0.0
 20
0.0
 30
0.0
  0
VERTEX
  5
C4
330
C3
100
AcDbEntity
  8
_U+30EC_U+30A4_U+30E4_U+30FC 1
 62
   179
420
  2234388
370
     9
100
AcDbVertex
100
AcDb2dVertex
 10
76.98256498045559
 20
-145.4133419080909
 30
0.0
  0
VERTEX
  5
C5
330
C3
100
AcDbEntity
  8
_U+30EC_U+30A4_U+30E4_U+30FC 1
 62
   179
420
  2234388
370
     9
100
AcDbVertex
100
AcDb2dVertex
 10
106.9822572706552
 20
-145.4133419080909
 30
0.0
  0
SEQEND
  5
C6
330
C3
100
AcDbEntity
  8
_U+30EC_U+30A4_U+30E4_U+30FC 1
 62
   179
420
  2234388
370
     9
  0
POLYLINE
  5
C7
330
1F
100
AcDbEntity
  8
_U+30EC_U+30A4_U+30E4_U+30FC 1
 62
   179
420
  2234388
370
     9
100
AcDb2dPolyline
 66
     1
 10
0.0
 20
0.0
 30
0.0
  0
VERTEX
  5
C8
330
C7
100
AcDbEntity
  8
_U+30EC_U+30A4_U+30E4_U+30FC 1
 62
   179
420
  2234388
370
     9
100
AcDbVertex
100
AcDb2dVertex
 10
76.98256498045559
 20
-143.9533005195672
 30
0.0
  0
VERTEX
  5
C9
330
C7
100
AcDbEntity
  8
_U+30EC_U+30A4_U+30E4_U+30FC 1
 62
   179
420
  2234388
370
     9
100
AcDbVertex
100
AcDb2dVertex
 10
76.98256498045559
 20
-146.413819685619
 30
0.0
  0
SEQEND
  5
CA
330
C7
100
AcDbEntity
  8
_U+30EC_U+30A4_U+30E4_U+30FC 1
 62
   179
420
  2234388
370
     9
  0
POLYLINE
  5
CB
330
1F
100
AcDbEntity
  8
_U+30EC_U+30A4_U+30E4_U+30FC 1
 62
   179
420
  2234388
370
     9
100
AcDb2dPolyline
 66
     1
 10
0.0
 20
0.0
 30
0.0
  0
VERTEX
  5
CC
330
CB
100
AcDbEntity
  8
_U+30EC_U+30A4_U+30E4_U+30FC 1
 62
   179
420
  2234388
370
     9
100
AcDbVertex
100
AcDb2dVertex
 10
106.9822572706552
 20
-143.9533005195672
 30
0.0
  0
VERTEX
  5
CD
330
CB
100
AcDbEntity
  8
_U+30EC_U+30A4_U+30E4_U+30FC 1
 62
   179
420
  2234388
370
     9
100
AcDbVertex
100
AcDb2dVertex
 10
106.9822572706552
 20
-146.413819685619
 30
0.0
  0
SEQEND
  5
CE
330
CB
100
AcDbEntity
  8
_U+30EC_U+30A4_U+30E4_U+30FC 1
 62
   179
420
  2234388
370
     9
  0
INSERT
  5
D0
330
1F
100
AcDbEntity
  8
_U+30EC_U+30A4_U+30E4_U+30FC 1
100
AcDbBlockReference
  2
block 4
 10
0.0
 20
0.0
 30
0.0
  0
POLYLINE
  5
D8
330
1F
100
AcDbEntity
  8
_U+30EC_U+30A4_U+30E4_U+30FC 1
 62
   179
420
  2234388
370
     9
100
AcDb2dPolyline
 66
     1
 10
0.0
 20
0.0
 30
0.0
  0
VERTEX
  5
D9
330
D8
100
AcDbEntity
  8
_U+30EC_U+30A4_U+30E4_U+30FC 1
 62
   179
420
  2234388
370
     9
100
AcDbVertex
100
AcDb2dVertex
 10
73.1492111893637
 20
-111.4133605277022
 30
0.0
  0
VERTEX
  5
DA
330
D8
100
AcDbEntity
  8
_U+30EC_U+30A4_U+30E4_U+30FC 1
 62
   179
420
  2234388
370
     9
100
AcDbVertex
100
AcDb2dVertex
 10
73.1492111893637
 20
-141.4135827424247
 30
0.0
  0
SEQEND
  5
DB
330
D8
100
AcDbEntity
  8
_U+30EC_U+30A4_U+30E4_U+30FC 1
 62
   179
420
  2234388
370
     9
  0
POLYLINE
  5
DC
330
1F
100
AcDbEntity
  8
_U+30EC_U+30A4_U+30E4_U+30FC 1
 62
   179
420
  2234388
370
     9
100
AcDb2dPolyline
 66
     1
 10
0.0
 20
0.0
 30
0.0
  0
VERTEX
  5
DD
330
DC
100
AcDbEntity
  8
_U+30EC_U+30A4_U+30E4_U+30FC 1
 62
   179
420
  2234388
370
     9
100
AcDbVertex
100
AcDb2dVertex
 10
74.60921726322695
 20
-111.4133605277022
 30
0.0
  0
VERTEX
  5
DE
330
DC
100
AcDbEntity
  8
_U+30EC_U+30A4_U+30E4_U+30FC 1
 62
   179
420
  2234388
370
     9
100
AcDbVertex
100
AcDb2dVertex
 10
72.1494389926478
 20
-111.4133605277022
 30
0.0
  0
SEQEND
  5
DF
330
DC
100
AcDbEntity
  8
_U+30EC_U+30A4_U+30E4_U+30FC 1
 62
   179
420
  2234388
370
     9
  0
POLYLINE
  5
E0
330
1F
100
AcDbEntity
  8
_U+30EC_U+30A4_U+30E4_U+30FC 1
 62
   179
420
  2234388
370
     9
100
AcDb2dPolyline
 66
     1
 10
0.0
 20
0.0
 30
0.0
  0
VERTEX
  5
E1
330
E0
100
AcDbEntity
  8
_U+30EC_U+30A4_U+30E4_U+30FC 1
 62
   179
420
  2234388
370
     9
100
AcDbVertex
100
AcDb2dVertex
 10
74.60921726322695
 20
-141.4135827424247
 30
0.0
  0
VERTEX
  5
E2
330
E0
100
AcDbEntity
  8
_U+30EC_U+30A4_U+30E4_U+30FC 1
 62
   179
420
  2234388
370
     9
100
AcDbVertex
100
AcDb2dVertex
 10
72.1494389926478
 20
-141.4135827424247
 30
0.0
  0
SEQEND
  5
E3
330
E0
100
AcDbEntity
  8
_U+30EC_U+30A4_U+30E4_U+30FC 1
 62
   179
420
  2234388
370
     9
  0
INSERT
  5
E5
330
1F
100
AcDbEntity
  8
_U+30EC_U+30A4_U+30E4_U+30FC 1
100
AcDbBlockReference
  2
block 5
 10
0.0
 20
0.0
 30
0.0
  0
ENDSEC
  0
SECTION
  2
OBJECTS
  0
DICTIONARY
  5
C
330
0
100
AcDbDictionary
281
     1
  3
ACAD_GROUP
350
D
  3
ACAD_LAYOUT
350
1A
  3
ACAD_MATERIAL
350
3B
  3
ACAD_MLEADERSTYLE
350
EE
  3
ACAD_MLINESTYLE
350
17
  3
ACAD_PLOTSETTINGS
350
19
  3
ACAD_PLOTSTYLENAME
350
E
  3
ACAD_TABLESTYLE
350
ED
  3
ACAD_VISUALSTYLE
350
2A
  0
SUN
  5
3F
330
29
100
AcDbSun
 90
        1
290
     0
 63
     7
421
 16777215
 40
1.0
291
     1
 91
  2455826
 92
 54000000
292
     0
 70
     2
 71
   256
280
     1
  0
DICTIONARY
  5
D
102
{ACAD_REACTORS
330
C
102
}
330
C
100
AcDbDictionary
281
     1
  0
DICTIONARY
  5
1A
102
{ACAD_REACTORS
330
C
102
}
330
C
100
AcDbDictionary
281
     1
  3
Layout1
350
1E
  3
Layout2
350
26
  3
Model
350
22
  0
DICTIONARY
  5
3B
102
{ACAD_REACTORS
330
C
102
}
330
C
100
AcDbDictionary
281
     1
  3
ByBlock
350
3D
  3
ByLayer
350
3C
  3
Global
350
3E
  0
DICTIONARY
  5
EE
102
{ACAD_REACTORS
330
C
102
}
330
C
100
AcDbDictionary
281
     1
  0
DICTIONARY
  5
17
102
{ACAD_REACTORS
330
C
102
}
330
C
100
AcDbDictionary
281
     1
  3
Standard
350
18
  0
DICTIONARY
  5
19
102
{ACAD_REACTORS
330
C
102
}
330
C
100
AcDbDictionary
281
     1
  0
ACDBDICTIONARYWDFLT
  5
E
102
{ACAD_REACTORS
330
C
102
}
330
C
100
AcDbDictionary
281
     1
  3
Normal
350
F
100
AcDbDictionaryWithDefault
340
F
  0
DICTIONARY
  5
ED
102
{ACAD_REACTORS
330
C
102
}
330
C
100
AcDbDictionary
281
     1
  0
DICTIONARY
  5
2A
102
{ACAD_REACTORS
330
C
102
}
330
C
100
AcDbDictionary
281
     1
  3
2dWireframe
350
2F
  3
3D Hidden
350
31
  3
3dWireframe
350
30
  3
Basic
350
32
  3
Brighten
350
36
  3
ColorChange
350
3A
  3
Conceptual
350
34
  3
Dim
350
35
  3
Facepattern
350
39
  3
Flat
350
2B
  3
FlatWithEdges
350
2C
  3
Gouraud
350
2D
  3
GouraudWithEdges
350
2E
  3
Linepattern
350
38
  3
Realistic
350
33
  3
Thicken
350
37
  0
LAYOUT
  5
1E
102
{ACAD_REACTORS
330
1A
102
}
330
1A
100
AcDbPlotSettings
  1

  2
none_device
  4

  6

 40
0.0
 41
0.0
 42
0.0
 43
0.0
 44
0.0
 45
0.0
 46
0.0
 47
0.0
 48
0.0
 49
0.0
140
0.0
141
0.0
142
1.0
143
1.0
 70
   688
 72
     0
 73
     0
 74
     5
  7

 75
    16
 76
     0
 77
     2
 78
   300
147
1.0
148
0.0
149
0.0
100
AcDbLayout
  1
Layout1
 70
     1
 71
     1
 10
0.0
 20
0.0
 11
12.0
 21
9.0
 12
0.0
 22
0.0
 32
0.0
 14
1.000000000000000E+20
 24
1.000000000000000E+20
 34
1.000000000000000E+20
 15
-1.000000000000000E+20
 25
-1.000000000000000E+20
 35
-1.000000000000000E+20
146
0.0
 13
0.0
 23
0.0
 33
0.0
 16
1.0
 26
0.0
 36
0.0
 17
0.0
 27
1.0
 37
0.0
 76
     0
330
1B
  0
LAYOUT
  5
26
102
{ACAD_REACTORS
330
1A
102
}
330
1A
100
AcDbPlotSettings
  1

  2
none_device
  4

  6

 40
0.0
 41
0.0
 42
0.0
 43
0.0
 44
0.0
 45
0.0
 46
0.0
 47
0.0
 48
0.0
 49
0.0
140
0.0
141
0.0
142
1.0
143
1.0
 70
   688
 72
     0
 73
     0
 74
     5
  7

 75
    16
 76
     0
 77
     2
 78
   300
147
1.0
148
0.0
149
0.0
100
AcDbLayout
  1
Layout2
 70
     1
 71
     2
 10
0.0
 20
0.0
 11
0.0
 21
0.0
 12
0.0
 22
0.0
 32
0.0
 14
0.0
 24
0.0
 34
0.0
 15
0.0
 25
0.0
 35
0.0
146
0.0
 13
0.0
 23
0.0
 33
0.0
 16
1.0
 26
0.0
 36
0.0
 17
0.0
 27
1.0
 37
0.0
 76
     0
330
23
  0
LAYOUT
  5
22
102
{ACAD_REACTORS
330
1A
102
}
330
1A
100
AcDbPlotSettings
  1

  2
none_device
  4

  6

 40
0.0
 41
0.0
 42
0.0
 43
0.0
 44
0.0
 45
0.0
 46
0.0
 47
0.0
 48
0.0
 49
0.0
140
0.0
141
0.0
142
1.0
143
1.0
 70
  1712
 72
     0
 73
     0
 74
     0
  7

 75
     0
 76
     0
 77
     2
 78
   300
147
1.0
148
0.0
149
0.0
100
AcDbLayout
  1
Model
 70
     1
 71
     0
 10
0.0
 20
0.0
 11
12.0
 21
9.0
 12
0.0
 22
0.0
 32
0.0
 14
1.000000000000000E+20
 24
1.000000000000000E+20
 34
1.000000000000000E+20
 15
-1.000000000000000E+20
 25
-1.000000000000000E+20
 35
-1.000000000000000E+20
146
0.0
 13
0.0
 23
0.0
 33
0.0
 16
1.0
 26
0.0
 36
0.0
 17
0.0
 27
1.0
 37
0.0
 76
     0
330
1F
331
29
  0
MATERIAL
  5
3D
102
{ACAD_REACTORS
330
3B
102
}
330
3B
100
AcDbMaterial
  1
ByBlock
 72
     1
 94
      127
  0
MATERIAL
  5
3C
102
{ACAD_REACTORS
330
3B
102
}
330
3B
100
AcDbMaterial
  1
ByLayer
 72
     1
 94
      127
  0
MATERIAL
  5
3E
102
{ACAD_REACTORS
330
3B
102
}
330
3B
100
AcDbMaterial
  1
Global
 72
     1
 94
      127
  0
MLINESTYLE
  5
18
102
{ACAD_REACTORS
330
17
102
}
330
17
100
AcDbMlineStyle
  2
Standard
 70
     0
  3

 62
   256
 51
90.0
 52
90.0
 71
     2
 49
0.5
 62
   256
  6
BYLAYER
 49
-0.5
 62
   256
  6
BYLAYER
  0
ACDBPLACEHOLDER
  5
F
102
{ACAD_REACTORS
330
E
102
}
330
E
  0
VISUALSTYLE
  5
2F
102
{ACAD_REACTORS
330
2A
102
}
330
2A
100
AcDbVisualStyle
  2
2dWireframe
 70
     4
177
     2
291
     0
 71
     0
176
     1
 72
     2
176
     1
 73
     0
176
     1
 90
        0
176
     1
 40
-0.6
176
     1
 41
-30.0
176
     1
 62
     5
 63
     7
421
 16777215
176
     1
 74
     1
176
     1
 91
        4
176
     1
 64
     7
176
     1
 65
   257
176
     1
 75
     1
176
     1
175
     1
176
     1
 42
1.0
176
     1
 92
        0
176
     1
 66
   257
176
     1
 43
1.0
176
     1
 76
     1
176
     1
 77
     6
176
     1
 78
     2
176
     1
 67
     7
176
     1
 79
     5
176
     1
170
     0
176
     1
171
     0
176
     1
290
     0
176
     1
 93
        1
176
     1
 44
0.0
176
     1
173
     0
176
     1
  0
VISUALSTYLE
  5
31
102
{ACAD_REACTORS
330
2A
102
}
330
2A
100
AcDbVisualStyle
  2
3D Hidden
 70
     6
177
     2
291
     0
 71
     1
176
     1
 72
     2
176
     1
 73
     2
176
     1
 90
        0
176
     1
 40
-0.6
176
     1
 41
-30.0
176
     1
 62
     5
 63
     7
421
 16777215
176
     1
 74
     2
176
     1
 91
        2
176
     1
 64
     7
176
     1
 65
   257
176
     1
 75
     2
176
     1
175
     1
176
     1
 42
40.0
176
     1
 92
        0
176
     1
 66
   257
176
     1
 43
1.0
176
     1
 76
     1
176
     1
 77
     6
176
     1
 78
     2
176
     1
 67
     7
176
     1
 79
     3
176
     1
170
     0
176
     1
171
     0
176
     1
290
     0
176
     1
 93
        1
176
     1
 44
0.0
176
     1
173
     0
176
     1
  0
VISUALSTYLE
  5
30
102
{ACAD_REACTORS
330
2A
102
}
330
2A
100
AcDbVisualStyle
  2
3dWireframe
 70
     5
177
     2
291
     0
 71
     0
176
     1
 72
     2
176
     1
 73
     0
176
     1
 90
        0
176
     1
 40
-0.6
176
     1
 41
-30.0
176
     1
 62
     5
 63
     7
421
 16777215
176
     1
 74
     1
176
     1
 91
        4
176
     1
 64
     7
176
     1
 65
   257
176
     1
 75
     1
176
     1
175
     1
176
     1
 42
1.0
176
     1
 92
        0
176
     1
 66
   257
176
     1
 43
1.0
176
     1
 76
     1
176
     1
 77
     6
176
     1
 78
     2
176
     1
 67
     7
176
     1
 79
     5
176
     1
170
     0
176
     1
171
     0
176
     1
290
     0
176
     1
 93
        1
176
     1
 44
0.0
176
     1
173
     0
176
     1
  0
VISUALSTYLE
  5
32
102
{ACAD_REACTORS
330
2A
102
}
330
2A
100
AcDbVisualStyle
  2
Basic
 70
     7
177
     2
291
     1
 71
     1
176
     1
 72
     0
176
     1
 73
     1
176
     1
 90
        0
176
     1
 40
-0.6
176
     1
 41
-30.0
176
     1
 62
     5
 63
     7
421
 16777215
176
     1
 74
     0
176
     1
 91
        4
176
     1
 64
     7
176
     1
 65
   257
176
     1
 75
     1
176
     1
175
     1
176
     1
 42
1.0
176
     1
 92
        8
176
     1
 66
     7
176
     1
 43
1.0
176
     1
 76
     1
176
     1
 77
     6
176
     1
 78
     2
176
     1
 67
     7
176
     1
 79
     5
176
     1
170
     0
176
     1
171
     0
176
     1
290
     0
176
     1
 93
        1
176
     1
 44
0.0
176
     1
173
     0
176
     1
  0
VISUALSTYLE
  5
36
102
{ACAD_REACTORS
330
2A
102
}
330
2A
100
AcDbVisualStyle
  2
Brighten
 70
    12
177
     2
291
     1
 71
     2
176
     1
 72
     2
176
     1
 73
     0
176
     1
 90
        0
176
     1
 40
-0.6
176
     1
 41
-30.0
176
     1
 62
     5
 63
     7
421
 16777215
176
     1
 74
     1
176
     1
 91
        4
176
     1
 64
     7
176
     1
 65
   257
176
     1
 75
     1
176
     1
175
     1
176
     1
 42
1.0
176
     1
 92
        8
176
     1
 66
     7
176
     1
 43
1.0
176
     1
 76
     1
176
     1
 77
     6
176
     1
 78
     2
176
     1
 67
     7
176
     1
 79
     5
176
     1
170
     0
176
     1
171
     0
176
     1
290
     0
176
     1
 93
        1
176
     1
 44
50.0
176
     1
173
     0
176
     1
  0
VISUALSTYLE
  5
3A
102
{ACAD_REACTORS
330
2A
102
}
330
2A
100
AcDbVisualStyle
  2
ColorChange
 70
    16
177
     2
291
     1
 71
     2
176
     1
 72
     2
176
     1
 73
     3
176
     1
 90
        0
176
     1
 40
-0.6
176
     1
 41
-30.0
176
     1
 62
     5
 63
     8
421
  8421504
176
     1
 74
     1
176
     1
 91
        4
176
     1
 64
     7
176
     1
 65
   257
176
     1
 75
     1
176
     1
175
     1
176
     1
 42
1.0
176
     1
 92
        8
176
     1
 66
     8
424
  8421504
176
     1
 43
1.0
176
     1
 76
     1
176
     1
 77
     6
176
     1
 78
     2
176
     1
 67
     7
176
     1
 79
     5
176
     1
170
     0
176
     1
171
     0
176
     1
290
     0
176
     1
 93
        1
176
     1
 44
0.0
176
     1
173
     0
176
     1
  0
VISUALSTYLE
  5
34
102
{ACAD_REACTORS
330
2A
102
}
330
2A
100
AcDbVisualStyle
  2
Conceptual
 70
     9
177
     2
291
     0
 71
     3
176
     1
 72
     2
176
     1
 73
     0
176
     1
 90
        0
176
     1
 40
-0.6
176
     1
 41
-30.0
176
     1
 62
     5
 63
     7
421
 16777215
176
     1
 74
     2
176
     1
 91
        2
176
     1
 64
     7
176
     1
 65
   257
176
     1
 75
     1
176
     1
175
     1
176
     1
 42
40.0
176
     1
 92
        8
176
     1
 66
     7
176
     1
 43
1.0
176
     1
 76
     1
176
     1
 77
     6
176
     1
 78
     2
176
     1
 67
     7
176
     1
 79
     3
176
     1
170
     0
176
     1
171
     0
176
     1
290
     0
176
     1
 93
        1
176
     1
 44
0.0
176
     1
173
     0
176
     1
  0
VISUALSTYLE
  5
35
102
{ACAD_REACTORS
330
2A
102
}
330
2A
100
AcDbVisualStyle
  2
Dim
 70
    11
177
     2
291
     1
 71
     2
176
     1
 72
     2
176
     1
 73
     0
176
     1
 90
        0
176
     1
 40
-0.6
176
     1
 41
-30.0
176
     1
 62
     5
 63
     7
421
 16777215
176
     1
 74
     1
176
     1
 91
        4
176
     1
 64
     7
176
     1
 65
   257
176
     1
 75
     1
176
     1
175
     1
176
     1
 42
1.0
176
     1
 92
        8
176
     1
 66
     7
176
     1
 43
1.0
176
     1
 76
     1
176
     1
 77
     6
176
     1
 78
     2
176
     1
 67
     7
176
     1
 79
     5
176
     1
170
     0
176
     1
171
     0
176
     1
290
     0
176
     1
 93
        1
176
     1
 44
-50.0
176
     1
173
     0
176
     1
  0
VISUALSTYLE
  5
39
102
{ACAD_REACTORS
330
2A
102
}
330
2A
100
AcDbVisualStyle
  2
Facepattern
 70
    15
177
     2
291
     1
 71
     2
176
     1
 72
     2
176
     1
 73
     0
176
     1
 90
        0
176
     1
 40
-0.6
176
     1
 41
-30.0
176
     1
 62
     5
 63
     7
421
 16777215
176
     1
 74
     1
176
     1
 91
        4
176
     1
 64
     7
176
     1
 65
   257
176
     1
 75
     1
176
     1
175
     1
176
     1
 42
1.0
176
     1
 92
        8
176
     1
 66
     7
176
     1
 43
1.0
176
     1
 76
     1
176
     1
 77
     6
176
     1
 78
     2
176
     1
 67
     7
176
     1
 79
     5
176
     1
170
     0
176
     1
171
     0
176
     1
290
     0
176
     1
 93
        1
176
     1
 44
0.0
176
     1
173
     0
176
     1
  0
VISUALSTYLE
  5
2B
102
{ACAD_REACTORS
330
2A
102
}
330
2A
100
AcDbVisualStyle
  2
Flat
 70
     0
177
     2
291
     1
 71
     2
176
     1
 72
     1
176
     1
 73
     1
176
     1
 90
        2
176
     1
 40
-0.6
176
     1
 41
30.0
176
     1
 62
     5
 63
     7
421
 16777215
176
     1
 74
     0
176
     1
 91
        4
176
     1
 64
     7
176
     1
 65
   257
176
     1
 75
     1
176
     1
175
     1
176
     1
 42
1.0
176
     1
 92
        8
176
     1
 66
     7
176
     1
 43
1.0
176
     1
 76
     1
176
     1
 77
     6
176
     1
 78
     2
176
     1
 67
     7
176
     1
 79
     5
176
     1
170
     0
176
     1
171
     0
176
     1
290
     0
176
     1
 93
       13
176
     1
 44
0.0
176
     1
173
     0
176
     1
  0
VISUALSTYLE
  5
2C
102
{ACAD_REACTORS
330
2A
102
}
330
2A
100
AcDbVisualStyle
  2
FlatWithEdges
 70
     1
177
     2
291
     1
 71
     2
176
     1
 72
     1
176
     1
 73
     1
176
     1
 90
        2
176
     1
 40
-0.6
176
     1
 41
30.0
176
     1
 62
     5
 63
     7
421
 16777215
176
     1
 74
     1
176
     1
 91
        4
176
     1
 64
     7
176
     1
 65
   257
176
     1
 75
     1
176
     1
175
     1
176
     1
 42
1.0
176
     1
 92
        0
176
     1
 66
   257
176
     1
 43
1.0
176
     1
 76
     1
176
     1
 77
     6
176
     1
 78
     2
176
     1
 67
     7
176
     1
 79
     5
176
     1
170
     0
176
     1
171
     0
176
     1
290
     0
176
     1
 93
       13
176
     1
 44
0.0
176
     1
173
     0
176
     1
  0
VISUALSTYLE
  5
2D
102
{ACAD_REACTORS
330
2A
102
}
330
2A
100
AcDbVisualStyle
  2
Gouraud
 70
     2
177
     2
291
     1
 71
     2
176
     1
 72
     2
176
     1
 73
     1
176
     1
 90
        2
176
     1
 40
-0.6
176
     1
 41
30.0
176
     1
 62
     5
 63
     7
421
 16777215
176
     1
 74
     0
176
     1
 91
        4
176
     1
 64
     7
176
     1
 65
   257
176
     1
 75
     1
176
     1
175
     1
176
     1
 42
1.0
176
     1
 92
        0
176
     1
 66
     7
176
     1
 43
1.0
176
     1
 76
     1
176
     1
 77
     6
176
     1
 78
     2
176
     1
 67
     7
176
     1
 79
     5
176
     1
170
     0
176
     1
171
     0
176
     1
290
     0
176
     1
 93
       13
176
     1
 44
0.0
176
     1
173
     0
176
     1
  0
VISUALSTYLE
  5
2E
102
{ACAD_REACTORS
330
2A
102
}
330
2A
100
AcDbVisualStyle
  2
GouraudWithEdges
 70
     3
177
     2
291
     1
 71
     2
176
     1
 72
     2
176
     1
 73
     1
176
     1
 90
        2
176
     1
 40
-0.6
176
     1
 41
30.0
176
     1
 62
     5
 63
     7
421
 16777215
176
     1
 74
     1
176
     1
 91
        4
176
     1
 64
     7
176
     1
 65
   257
176
     1
 75
     1
176
     1
175
     1
176
     1
 42
1.0
176
     1
 92
        0
176
     1
 66
   257
176
     1
 43
1.0
176
     1
 76
     1
176
     1
 77
     6
176
     1
 78
     2
176
     1
 67
     7
176
     1
 79
     5
176
     1
170
     0
176
     1
171
     0
176
     1
290
     0
176
     1
 93
       13
176
     1
 44
0.0
176
     1
173
     0
176
     1
  0
VISUALSTYLE
  5
38
102
{ACAD_REACTORS
330
2A
102
}
330
2A
100
AcDbVisualStyle
  2
Linepattern
 70
    14
177
     2
291
     1
 71
     2
176
     1
 72
     2
176
     1
 73
     0
176
     1
 90
        0
176
     1
 40
-0.6
176
     1
 41
-30.0
176
     1
 62
     5
 63
     7
421
 16777215
176
     1
 74
     1
176
     1
 91
        4
176
     1
 64
     7
176
     1
 65
   257
176
     1
 75
     7
176
     1
175
     7
176
     1
 42
1.0
176
     1
 92
        8
176
     1
 66
     7
176
     1
 43
1.0
176
     1
 76
     1
176
     1
 77
     6
176
     1
 78
     2
176
     1
 67
     7
176
     1
 79
     5
176
     1
170
     0
176
     1
171
     0
176
     1
290
     0
176
     1
 93
        1
176
     1
 44
0.0
176
     1
173
     0
176
     1
  0
VISUALSTYLE
  5
33
102
{ACAD_REACTORS
330
2A
102
}
330
2A
100
AcDbVisualStyle
  2
Realistic
 70
     8
177
     2
291
     0
 71
     2
176
     1
 72
     2
176
     1
 73
     0
176
     1
 90
        0
176
     1
 40
-0.6
176
     1
 41
-30.0
176
     1
 62
     5
 63
     7
421
 16777215
176
     1
 74
     1
176
     1
 91
        0
176
     1
 64
     7
176
     1
 65
   257
176
     1
 75
     1
176
     1
175
     1
176
     1
 42
1.0
176
     1
 92
        8
176
     1
 66
     8
424
  7895160
176
     1
 43
1.0
176
     1
 76
     1
176
     1
 77
     6
176
     1
 78
     2
176
     1
 67
     7
176
     1
 79
     5
176
     1
170
     0
176
     1
171
     0
176
     1
290
     0
176
     1
 93
       13
176
     1
 44
0.0
176
     1
173
     0
176
     1
  0
VISUALSTYLE
  5
37
102
{ACAD_REACTORS
330
2A
102
}
330
2A
100
AcDbVisualStyle
  2
Thicken
 70
    13
177
     2
291
     1
 71
     2
176
     1
 72
     2
176
     1
 73
     0
176
     1
 90
        0
176
     1
 40
-0.6
176
     1
 41
-30.0
176
     1
 62
     5
 63
     7
421
 16777215
176
     1
 74
     1
176
     1
 91
        4
176
     1
 64
     7
176
     1
 65
   257
176
     1
 75
     1
176
     1
175
     1
176
     1
 42
1.0
176
     1
 92
       12
176
     1
 66
     7
176
     1
 43
1.0
176
     1
 76
     1
176
     1
 77
     6
176
     1
 78
     2
176
     1
 67
     7
176
     1
 79
     5
176
     1
170
     0
176
     1
171
     0
176
     1
290
     0
176
     1
 93
        1
176
     1
 44
0.0
176
     1
173
     0
176
     1
  0
ENDSEC
  0
EOF
