  0
SECTION
  2
HEADER
  9
$ACADVER
  1
AC1024
  9
$ACADMAINTVER
 70
     6
  9
$DWGCODEPAGE
  3
UNDEFINED
  9
$INSBASE
 10
0.0
 20
0.0
 30
0.0
  9
$EXTMIN
 10
1.000000000000000E+20
 20
1.000000000000000E+20
 30
1.000000000000000E+20
  9
$EXTMAX
 10
-1.000000000000000E+20
 20
-1.000000000000000E+20
 30
-1.000000000000000E+20
  9
$LIMMIN
 10
0.0
 20
0.0
  9
$LIMMAX
 10
12.0
 20
9.0
  9
$ORTHOMODE
 70
     0
  9
$REGENMODE
 70
     1
  9
$FILLMODE
 70
     1
  9
$QTEXTMODE
 70
     0
  9
$MIRRTEXT
 70
     1
  9
$LTSCALE
 40
1.0
  9
$ATTMODE
 70
     1
  9
$TEXTSIZE
 40
0.2
  9
$TRACEWID
 40
0.05
  9
$TEXTSTYLE
  7
Standard
  9
$CLAYER
  8
0
  9
$CELTYPE
  6
ByLayer
  9
$CECOLOR
 62
   256
  9
$CELTSCALE
 40
1.0
  9
$DISPSILH
 70
     0
  9
$DIMSCALE
 40
1.0
  9
$DIMASZ
 40
0.18
  9
$DIMEXO
 40
0.0625
  9
$DIMDLI
 40
0.38
  9
$DIMRND
 40
0.0
  9
$DIMDLE
 40
0.0
  9
$DIMEXE
 40
0.18
  9
$DIMTP
 40
0.0
  9
$DIMTM
 40
0.0
  9
$DIMTXT
 40
0.18
  9
$DIMCEN
 40
0.09
  9
$DIMTSZ
 40
0.0
  9
$DIMTOL
 70
     0
  9
$DIMLIM
 70
     0
  9
$DIMTIH
 70
     1
  9
$DIMTOH
 70
     1
  9
$DIMSE1
 70
     0
  9
$DIMSE2
 70
     0
  9
$DIMTAD
 70
     0
  9
$DIMZIN
 70
     0
  9
$DIMBLK
  1

  9
$DIMASO
 70
     1
  9
$DIMSHO
 70
     1
  9
$DIMPOST
  1

  9
$DIMAPOST
  1

  9
$DIMALT
 70
     0
  9
$DIMALTD
 70
     2
  9
$DIMALTF
 40
25.4
  9
$DIMLFAC
 40
1.0
  9
$DIMTOFL
 70
     0
  9
$DIMTVP
 40
0.0
  9
$DIMTIX
 70
     0
  9
$DIMSOXD
 70
     0
  9
$DIMSAH
 70
     0
  9
$DIMBLK1
  1

  9
$DIMBLK2
  1

  9
$DIMSTYLE
  2
Standard
  9
$DIMCLRD
 70
     0
  9
$DIMCLRE
 70
     0
  9
$DIMCLRT
 70
     0
  9
$DIMTFAC
 40
1.0
  9
$DIMGAP
 40
0.09
  9
$DIMJUST
 70
     0
  9
$DIMSD1
 70
     0
  9
$DIMSD2
 70
     0
  9
$DIMTOLJ
 70
     1
  9
$DIMTZIN
 70
     0
  9
$DIMALTZ
 70
     0
  9
$DIMALTTZ
 70
     0
  9
$DIMUPT
 70
     0
  9
$DIMDEC
 70
     4
  9
$DIMTDEC
 70
     4
  9
$DIMALTU
 70
     2
  9
$DIMALTTD
 70
     2
  9
$DIMTXSTY
  7
Standard
  9
$DIMAUNIT
 70
     0
  9
$DIMADEC
 70
     0
  9
$DIMALTRND
 40
0.0
  9
$DIMAZIN
 70
     0
  9
$DIMDSEP
 70
    46
  9
$DIMATFIT
 70
     3
  9
$DIMFRAC
 70
     0
  9
$DIMLDRBLK
  1

  9
$DIMLUNIT
 70
     2
  9
$DIMLWD
 70
    -2
  9
$DIMLWE
 70
    -2
  9
$DIMTMOVE
 70
     0
  9
$DIMFXL
 40
1.0
  9
$DIMFXLON
 70
     0
  9
$DIMJOGANG
 40
0.7853981633974483
  9
$DIMTFILL
 70
     0
  9
$DIMTFILLCLR
 70
     0
  9
$DIMARCSYM
 70
     0
  9
$DIMLTYPE
  6

  9
$DIMLTEX1
  6

  9
$DIMLTEX2
  6

  9
$DIMTXTDIRECTION
 70
     0
  9
$LUNITS
 70
     2
  9
$LUPREC
 70
     4
  9
$SKETCHINC
 40
0.1
  9
$FILLETRAD
 40
0.5
  9
$AUNITS
 70
     0
  9
$AUPREC
 70
     0
  9
$MENU
  1
.
  9
$ELEVATION
 40
0.0
  9
$PELEVATION
 40
0.0
  9
$THICKNESS
 40
0.0
  9
$LIMCHECK
 70
     0
  9
$CHAMFERA
 40
0.5
  9
$CHAMFERB
 40
0.5
  9
$CHAMFERC
 40
1.0
  9
$CHAMFERD
 40
0.0
  9
$SKPOLY
 70
     0
  9
$TDCREATE
 40
2457917.596874989
  9
$TDUCREATE
 40
2457917.221875
  9
$TDUPDATE
 40
2457917.596874989
  9
$TDUUPDATE
 40
2457917.221875
  9
$TDINDWG
 40
0.0000000116
  9
$TDUSRTIMER
 40
0.0000000116
  9
$USRTIMER
 70
     1
  9
$ANGBASE
 50
0.0
  9
$ANGDIR
 70
     0
  9
$PDMODE
 70
     0
  9
$PDSIZE
 40
0.0
  9
$PLINEWID
 40
0.0
  9
$SPLFRAME
 70
     0
  9
$SPLINETYPE
 70
     6
  9
$SPLINESEGS
 70
     8
  9
$HANDSEED
  5
EF
  9
$SURFTAB1
 70
     6
  9
$SURFTAB2
 70
     6
  9
$SURFTYPE
 70
     6
  9
$SURFU
 70
     6
  9
$SURFV
 70
     6
  9
$UCSBASE
  2

  9
$UCSNAME
  2

  9
$UCSORG
 10
0.0
 20
0.0
 30
0.0
  9
$UCSXDIR
 10
1.0
 20
0.0
 30
0.0
  9
$UCSYDIR
 10
0.0
 20
1.0
 30
0.0
  9
$UCSORTHOREF
  2

  9
$UCSORTHOVIEW
 70
     0
  9
$UCSORGTOP
 10
0.0
 20
0.0
 30
0.0
  9
$UCSORGBOTTOM
 10
0.0
 20
0.0
 30
0.0
  9
$UCSORGLEFT
 10
0.0
 20
0.0
 30
0.0
  9
$UCSORGRIGHT
 10
0.0
 20
0.0
 30
0.0
  9
$UCSORGFRONT
 10
0.0
 20
0.0
 30
0.0
  9
$UCSORGBACK
 10
0.0
 20
0.0
 30
0.0
  9
$PUCSBASE
  2

  9
$PUCSNAME
  2

  9
$PUCSORG
 10
0.0
 20
0.0
 30
0.0
  9
$PUCSXDIR
 10
1.0
 20
0.0
 30
0.0
  9
$PUCSYDIR
 10
0.0
 20
1.0
 30
0.0
  9
$PUCSORTHOREF
  2

  9
$PUCSORTHOVIEW
 70
     0
  9
$PUCSORGTOP
 10
0.0
 20
0.0
 30
0.0
  9
$PUCSORGBOTTOM
 10
0.0
 20
0.0
 30
0.0
  9
$PUCSORGLEFT
 10
0.0
 20
0.0
 30
0.0
  9
$PUCSORGRIGHT
 10
0.0
 20
0.0
 30
0.0
  9
$PUCSORGFRONT
 10
0.0
 20
0.0
 30
0.0
  9
$PUCSORGBACK
 10
0.0
 20
0.0
 30
0.0
  9
$USERI1
 70
     0
  9
$USERI2
 70
     0
  9
$USERI3
 70
     0
  9
$USERI4
 70
     0
  9
$USERI5
 70
     0
  9
$USERR1
 40
0.0
  9
$USERR2
 40
0.0
  9
$USERR3
 40
0.0
  9
$USERR4
 40
0.0
  9
$USERR5
 40
0.0
  9
$WORLDVIEW
 70
     1
  9
$SHADEDGE
 70
     3
  9
$SHADEDIF
 70
    70
  9
$TILEMODE
 70
     1
  9
$MAXACTVP
 70
    64
  9
$PINSBASE
 10
0.0
 20
0.0
 30
0.0
  9
$PLIMCHECK
 70
     0
  9
$PEXTMIN
 10
1.000000000000000E+20
 20
1.000000000000000E+20
 30
1.000000000000000E+20
  9
$PEXTMAX
 10
-1.000000000000000E+20
 20
-1.000000000000000E+20
 30
-1.000000000000000E+20
  9
$PLIMMIN
 10
0.0
 20
0.0
  9
$PLIMMAX
 10
12.0
 20
9.0
  9
$UNITMODE
 70
     0
  9
$VISRETAIN
 70
     1
  9
$PLINEGEN
 70
     0
  9
$PSLTSCALE
 70
     1
  9
$TREEDEPTH
 70
  3020
  9
$CMLSTYLE
  2
Standard
  9
$CMLJUST
 70
     0
  9
$CMLSCALE
 40
1.0
  9
$PROXYGRAPHICS
 70
     1
  9
$MEASUREMENT
 70
     0
  9
$CELWEIGHT
370
    -1
  9
$ENDCAPS
280
     0
  9
$JOINSTYLE
280
     0
  9
$LWDISPLAY
290
     1
  9
$INSUNITS
 70
     1
  9
$HYPERLINKBASE
  1

  9
$STYLESHEET
  1

  9
$XEDIT
290
     1
  9
$CEPSNTYPE
380
     0
  9
$PSTYLEMODE
290
     1
  9
$FINGERPRINTGUID
  2
{533B9B13-D6BA-81E0-F1E6-5F226F36D43E}
  9
$VERSIONGUID
  2
{FAEB1C32-E019-11D5-929B-00C0DF256EC4}
  9
$EXTNAMES
290
     1
  9
$PSVPSCALE
 40
0.0
  9
$OLESTARTUP
290
     0
  9
$SORTENTS
280
   127
  9
$INDEXCTL
280
     0
  9
$HIDETEXT
280
     1
  9
$XCLIPFRAME
280
     2
  9
$HALOGAP
280
     0
  9
$OBSCOLOR
 70
   257
  9
$OBSLTYPE
280
     0
  9
$INTERSECTIONDISPLAY
280
     0
  9
$INTERSECTIONCOLOR
 70
   257
  9
$DIMASSOC
280
     2
  9
$PROJECTNAME
  1

  9
$CAMERADISPLAY
290
     0
  9
$LENSLENGTH
 40
50.0
  9
$CAMERAHEIGHT
 40
0.0
  9
$STEPSPERSEC
 40
2.0
  9
$STEPSIZE
 40
6.0
  9
$3DDWFPREC
 40
2.0
  9
$PSOLWIDTH
 40
0.25
  9
$PSOLHEIGHT
 40
4.0
  9
$LOFTANG1
 40
1.570796326794897
  9
$LOFTANG2
 40
1.570796326794897
  9
$LOFTMAG1
 40
0.0
  9
$LOFTMAG2
 40
0.0
  9
$LOFTPARAM
 70
     7
  9
$LOFTNORMALS
280
     1
  9
$LATITUDE
 40
37.795
  9
$LONGITUDE
 40
-122.394
  9
$NORTHDIRECTION
 40
0.0
  9
$TIMEZONE
 70
 -8000
  9
$LIGHTGLYPHDISPLAY
280
     1
  9
$TILEMODELIGHTSYNCH
280
     1
  9
$CMATERIAL
347
3C
  9
$SOLIDHIST
280
     1
  9
$SHOWHIST
280
     1
  9
$DWFFRAME
280
     2
  9
$DGNFRAME
280
     2
  9
$REALWORLDSCALE
290
     1
  9
$INTERFERECOLOR
 62
   256
  9
$CSHADOW
280
     0
  9
$SHADOWPLANELOCATION
 40
0.0
  0
ENDSEC
  0
SECTION
  2
CLASSES
  0
CLASS
  1
ACDBDICTIONARYWDFLT
  2
AcDbDictionaryWithDefault
  3
ObjectDBX Classes
 90
        0
 91
        4
280
     0
281
     0
  0
CLASS
  1
VISUALSTYLE
  2
AcDbVisualStyle
  3
ObjectDBX Classes
 90
     4095
 91
        4
280
     0
281
     0
  0
CLASS
  1
MATERIAL
  2
AcDbMaterial
  3
ObjectDBX Classes
 90
     1153
 91
        4
280
     0
281
     0
  0
CLASS
  1
SUN
  2
AcDbSun
  3
SCENEOE
 90
     1024
 91
        4
280
     0
281
     0
  0
ENDSEC
  0
SECTION
  2
TABLES
  0
TABLE
  2
VPORT
  5
8
330
0
100
AcDbSymbolTable
 70
     1
  0
VPORT
  5
29
330
8
100
AcDbSymbolTableRecord
100
AcDbViewportTableRecord
  2
*Active
 70
     0
 10
0.0
 20
0.0
 11
1.0
 21
1.0
 12
0.0
 22
0.0
 13
0.0
 23
0.0
 14
0.5
 24
0.5
 15
0.5
 25
0.5
 16
0.0
 26
0.0
 36
1.0
 17
91.00082462281999
 27
-128.4993055234307
 37
0.0
 40
256.9986110468615
 41
0.7081814508812795
 42
50.0
 43
0.0
 44
0.0
 50
0.0
 51
0.0
 71
     0
 72
   100
 73
     1
 74
     3
 75
     0
 76
     0
 77
     0
 78
     0
281
     0
 65
     1
110
0.0
120
0.0
130
0.0
111
1.0
121
0.0
131
0.0
112
0.0
122
1.0
132
0.0
 79
     0
146
0.0
 60
     3
 61
     5
292
     1
282
     1
141
0.0
142
0.0
 63
   250
361
3F
  0
ENDTAB
  0
TABLE
  2
LTYPE
  5
5
330
0
100
AcDbSymbolTable
 70
     2
  0
LTYPE
  5
14
330
5
100
AcDbSymbolTableRecord
100
AcDbLinetypeTableRecord
  2
ByBlock
 70
     0
  3

 72
    65
 73
     0
 40
0.0
  0
LTYPE
  5
15
330
5
100
AcDbSymbolTableRecord
100
AcDbLinetypeTableRecord
  2
ByLayer
 70
     0
  3

 72
    65
 73
     0
 40
0.0
  0
LTYPE
  5
16
330
5
100
AcDbSymbolTableRecord
100
AcDbLinetypeTableRecord
  2
Continuous
 70
     0
  3
Solid line
 72
    65
 73
     0
 40
0.0
  0
LTYPE
  5
89
330
5
100
AcDbSymbolTableRecord
100
AcDbLinetypeTableRecord
  2
AI-Linetype-1
 70
     0
  3
Adobe Illustrator Linetype No. 1
 72
    65
 73
     2
 40
1.411111110758333
 49
0.7055555553791667
 74
     0
 49
-0.7055555553791667
 74
     0
  0
ENDTAB
  0
TABLE
  2
LAYER
  5
2
330
0
100
AcDbSymbolTable
 70
     2
  0
LAYER
  5
10
330
2
100
AcDbSymbolTableRecord
100
AcDbLayerTableRecord
  2
0
 70
     0
 62
     7
  6
Continuous
370
    -3
390
F
347
3E
  0
LAYER
  5
40
330
2
100
AcDbSymbolTableRecord
100
AcDbLayerTableRecord
  2
_U+30EC_U+30A4_U+30E4_U+30FC 1
 70
     0
 62
     7
  6
Continuous
370
    -3
390
F
347
3E
  0
ENDTAB
  0
TABLE
  2
STYLE
  5
3
330
0
100
AcDbSymbolTable
 70
     1
  0
STYLE
  5
11
330
3
100
AcDbSymbolTableRecord
100
AcDbTextStyleTableRecord
  2
Standard
 70
     0
 40
0.0
 41
1.0
 50
0.0
 71
     0
 42
0.2
  3
txt
  4

  0
ENDTAB
  0
TABLE
  2
VIEW
  5
6
330
0
100
AcDbSymbolTable
 70
     0
  0
ENDTAB
  0
TABLE
  2
UCS
  5
7
330
0
100
AcDbSymbolTable
 70
     0
  0
ENDTAB
  0
TABLE
  2
APPID
  5
9
330
0
100
AcDbSymbolTable
 70
     1
  0
APPID
  5
12
330
9
100
AcDbSymbolTableRecord
100
AcDbRegAppTableRecord
  2
ACAD
 70
     0
  0
ENDTAB
  0
TABLE
  2
DIMSTYLE
  5
A
330
0
100
AcDbSymbolTable
 70
     1
100
AcDbDimStyleTable
  0
DIMSTYLE
105
27
330
A
100
AcDbSymbolTableRecord
100
AcDbDimStyleTableRecord
  2
Standard
 70
     0
178
     0
340
11
  0
ENDTAB
  0
TABLE
  2
BLOCK_RECORD
  5
1
330
0
100
AcDbSymbolTable
 70
     5
  0
BLOCK_RECORD
  5
1F
330
1
100
AcDbSymbolTableRecord
100
AcDbBlockTableRecord
  2
*Model_Space
340
22
 70
     0
280
     1
281
     0
  0
BLOCK_RECORD
  5
1B
330
1
100
AcDbSymbolTableRecord
100
AcDbBlockTableRecord
  2
*Paper_Space
340
1E
 70
     0
280
     1
281
     0
  0
BLOCK_RECORD
  5
23
330
1
100
AcDbSymbolTableRecord
100
AcDbBlockTableRecord
  2
*Paper_Space0
340
26
 70
     0
280
     1
281
     0
  0
BLOCK_RECORD
  5
41
330
1
100
AcDbSymbolTableRecord
100
AcDbBlockTableRecord
  2
block 2
340
0
102
{BLKREFS
331
42
102
}
 70
     0
280
     1
281
     0
  0
BLOCK_RECORD
  5
B3
330
1
100
AcDbSymbolTableRecord
100
AcDbBlockTableRecord
  2
block 3
340
0
102
{BLKREFS
331
B4
102
}
 70
     0
280
     1
281
     0
  0
BLOCK_RECORD
  5
CF
330
1
100
AcDbSymbolTableRecord
100
AcDbBlockTableRecord
  2
block 4
340
0
102
{BLKREFS
331
D0
102
}
 70
     0
280
     1
281
     0
  0
BLOCK_RECORD
  5
E4
330
1
100
AcDbSymbolTableRecord
100
AcDbBlockTableRecord
  2
block 5
340
0
102
{BLKREFS
331
E5
102
}
 70
     0
280
     1
281
     0
  0
ENDTAB
  0
ENDSEC
  0
SECTION
  2
BLOCKS
  0
BLOCK
  5
20
330
1F
100
AcDbEntity
  8
0
100
AcDbBlockBegin
  2
*Model_Space
 70
     0
 10
0.0
 20
0.0
 30
0.0
  3
*Model_Space
  1

  0
ENDBLK
  5
21
330
1F
100
AcDbEntity
  8
0
100
AcDbBlockEnd
  0
BLOCK
  5
1C
330
1B
100
AcDbEntity
 67
     1
  8
0
100
AcDbBlockBegin
  2
*Paper_Space
 70
     0
 10
0.0
 20
0.0
 30
0.0
  3
*Paper_Space
  1

  0
ENDBLK
  5
1D
330
1B
100
AcDbEntity
 67
     1
  8
0
100
AcDbBlockEnd
  0
BLOCK
  5
24
330
23
100
AcDbEntity
  8
0
100
AcDbBlockBegin
  2
*Paper_Space0
 70
     0
 10
0.0
 20
0.0
 30
0.0
  3
*Paper_Space0
  1

  0
ENDBLK
  5
25
330
23
100
AcDbEntity
  8
0
100
AcDbBlockEnd
  0
BLOCK
  5
43
330
41
100
AcDbEntity
  8
0
100
AcDbBlockBegin
  2
block 2
 70
     0
 10
0.0
 20
0.0
 30
0.0
  3
block 2
  1

  0
SPLINE
  5
45
330
41
100
AcDbEntity
  8
_U+30EC_U+30A4_U+30E4_U+30FC 1
370
     0
100
AcDbSpline
210
0.0
220
0.0
230
1.0
 70
    11
 71
     3
 72
    17
 73
    13
 74
     0
 42
0.0000000001
 43
0.0000000001
 12
1.0
 22
0.0
 32
0.0
 13
1.0
 23
0.0
 33
0.0
 40
0.0
 40
0.0
 40
0.0
 40
0.0
 40
1.0
 40
1.0
 40
1.0
 40
2.0
 40
2.0
 40
2.0
 40
3.0
 40
3.0
 40
3.0
 40
4.0
 40
4.0
 40
4.0
 40
4.0
 10
70.66407604570205
 20
-146.8912922809855
 30
0.0
 10
70.57157523192308
 20
-146.7855278495883
 30
0.0
 10
70.50112302924973
 20
-146.7476317992506
 30
0.0
 10
70.41964652102357
 20
-146.7155924112378
 30
0.0
 10
70.41964652102357
 20
-146.7155924112378
 30
0.0
 10
70.5159369398363
 20
-146.5509168470428
 30
0.0
 10
70.5159369398363
 20
-146.5509168470428
 30
0.0
 10
70.60120305309623
 20
-146.5929470119629
 30
0.0
 10
70.70679522971913
 20
-146.6714951890266
 30
0.0
 10
70.75295950922148
 20
-146.7262722072421
 30
0.0
 10
70.75295950922148
 20
-146.7262722072421
 30
0.0
 10
70.66407604570205
 20
-146.8912922809855
 30
0.0
 10
70.66407604570205
 20
-146.8912922809855
 30
0.0
  0
SPLINE
  5
46
330
41
100
AcDbEntity
  8
_U+30EC_U+30A4_U+30E4_U+30FC 1
370
     0
100
AcDbSpline
210
0.0
220
0.0
230
1.0
 70
    11
 71
     3
 72
   182
 73
   178
 74
     0
 42
0.0000000001
 43
0.0000000001
 12
1.0
 22
0.0
 32
0.0
 13
1.0
 23
0.0
 33
0.0
 40
0.0
 40
0.0
 40
0.0
 40
0.0
 40
1.0
 40
1.0
 40
1.0
 40
2.0
 40
2.0
 40
2.0
 40
3.0
 40
3.0
 40
3.0
 40
4.0
 40
4.0
 40
4.0
 40
5.0
 40
5.0
 40
5.0
 40
6.0
 40
6.0
 40
6.0
 40
7.0
 40
7.0
 40
7.0
 40
8.0
 40
8.0
 40
8.0
 40
9.0
 40
9.0
 40
9.0
 40
10.0
 40
10.0
 40
10.0
 40
11.0
 40
11.0
 40
11.0
 40
12.0
 40
12.0
 40
12.0
 40
13.0
 40
13.0
 40
13.0
 40
14.0
 40
14.0
 40
14.0
 40
15.0
 40
15.0
 40
15.0
 40
16.0
 40
16.0
 40
16.0
 40
17.0
 40
17.0
 40
17.0
 40
18.0
 40
18.0
 40
18.0
 40
19.0
 40
19.0
 40
19.0
 40
20.0
 40
20.0
 40
20.0
 40
21.0
 40
21.0
 40
21.0
 40
22.0
 40
22.0
 40
22.0
 40
23.0
 40
23.0
 40
23.0
 40
24.0
 40
24.0
 40
24.0
 40
25.0
 40
25.0
 40
25.0
 40
26.0
 40
26.0
 40
26.0
 40
27.0
 40
27.0
 40
27.0
 40
28.0
 40
28.0
 40
28.0
 40
29.0
 40
29.0
 40
29.0
 40
30.0
 40
30.0
 40
30.0
 40
31.0
 40
31.0
 40
31.0
 40
32.0
 40
32.0
 40
32.0
 40
33.0
 40
33.0
 40
33.0
 40
34.0
 40
34.0
 40
34.0
 40
35.0
 40
35.0
 40
35.0
 40
36.0
 40
36.0
 40
36.0
 40
37.0
 40
37.0
 40
37.0
 40
38.0
 40
38.0
 40
38.0
 40
39.0
 40
39.0
 40
39.0
 40
40.0
 40
40.0
 40
40.0
 40
41.0
 40
41.0
 40
41.0
 40
42.0
 40
42.0
 40
42.0
 40
43.0
 40
43.0
 40
43.0
 40
44.0
 40
44.0
 40
44.0
 40
45.0
 40
45.0
 40
45.0
 40
46.0
 40
46.0
 40
46.0
 40
47.0
 40
47.0
 40
47.0
 40
48.0
 40
48.0
 40
48.0
 40
49.0
 40
49.0
 40
49.0
 40
50.0
 40
50.0
 40
50.0
 40
51.0
 40
51.0
 40
51.0
 40
52.0
 40
52.0
 40
52.0
 40
53.0
 40
53.0
 40
53.0
 40
54.0
 40
54.0
 40
54.0
 40
55.0
 40
55.0
 40
55.0
 40
56.0
 40
56.0
 40
56.0
 40
57.0
 40
57.0
 40
57.0
 40
58.0
 40
58.0
 40
58.0
 40
59.0
 40
59.0
 40
59.0
 40
59.0
 10
71.57892115181014
 20
-148.0695149369409
 30
0.0
 10
71.57892115181014
 20
-148.0695149369409
 30
0.0
 10
71.02150470229671
 20
-148.0695149369409
 30
0.0
 10
71.02150470229671
 20
-148.0695149369409
 30
0.0
 10
70.83443601744764
 20
-148.0695149369409
 30
0.0
 10
70.64564478485595
 20
-148.0739935610718
 30
0.0
 10
70.45857610000688
 20
-148.0867404143672
 30
0.0
 10
70.45857610000688
 20
-148.0867404143672
 30
0.0
 10
70.45857610000688
 20
-147.8793456661552
 30
0.0
 10
70.45857610000688
 20
-147.8793456661552
 30
0.0
 10
70.65305174014924
 20
-147.8920925194506
 30
0.0
 10
70.93623858903678
 20
-147.8962266340329
 30
0.0
 10
71.02150470229671
 20
-147.8962266340329
 30
0.0
 10
71.02150470229671
 20
-147.8962266340329
 30
0.0
 10
71.21408553992218
 20
-147.8962266340329
 30
0.0
 10
71.21408553992218
 20
-147.8962266340329
 30
0.0
 10
71.21408553992218
 20
-147.8962266340329
 30
0.0
 10
71.21408553992218
 20
-147.7546332095891
 30
0.0
 10
71.21408553992218
 20
-147.7546332095891
 30
0.0
 10
71.21408553992218
 20
-147.7546332095891
 30
0.0
 10
71.07335338934972
 20
-147.7546332095891
 30
0.0
 10
71.07335338934972
 20
-147.7546332095891
 30
0.0
 10
70.92900388851776
 20
-147.7546332095891
 30
0.0
 10
70.78448213291152
 20
-147.7587673241714
 30
0.0
 10
70.63996037730529
 20
-147.773581234758
 30
0.0
 10
70.63996037730529
 20
-147.773581234758
 30
0.0
 10
70.63996037730529
 20
-147.5641194292548
 30
0.0
 10
70.63996037730529
 20
-147.5641194292548
 30
0.0
 10
70.78999428568792
 20
-147.5789333398414
 30
0.0
 10
71.00669079171014
 20
-147.5830674544237
 30
0.0
 10
71.07335338934972
 20
-147.5830674544237
 30
0.0
 10
71.07335338934972
 20
-147.5830674544237
 30
0.0
 10
71.21408553992218
 20
-147.5830674544237
 30
0.0
 10
71.21408553992218
 20
-147.5830674544237
 30
0.0
 10
71.21046818966266
 20
-147.511064958782
 30
0.0
 10
71.21046818966266
 20
-147.5048637869085
 30
0.0
 10
71.204783782112
 20
-147.4518093164357
 30
0.0
 10
71.204783782112
 20
-147.4518093164357
 30
0.0
 10
71.32708467183838
 20
-147.4666232270222
 30
0.0
 10
71.32708467183838
 20
-147.4666232270222
 30
0.0
 10
71.32708467183838
 20
-147.4666232270222
 30
0.0
 10
71.24009601083581
 20
-147.2954019814053
 30
0.0
 10
71.24009601083581
 20
-147.2954019814053
 30
0.0
 10
71.28074813756176
 20
-147.3016031532788
 30
0.0
 10
71.34551593268446
 20
-147.3102158919919
 30
0.0
 10
71.36032984327103
 20
-147.3102158919919
 30
0.0
 10
71.40477157503075
 20
-147.3102158919919
 30
0.0
 10
71.41958548561733
 20
-147.2892008095319
 30
0.0
 10
71.41958548561733
 20
-147.2320122244767
 30
0.0
 10
71.41958548561733
 20
-147.2320122244767
 30
0.0
 10
71.41958548561733
 20
-147.0945529146153
 30
0.0
 10
71.41958548561733
 20
-147.0945529146153
 30
0.0
 10
71.41958548561733
 20
-147.0945529146153
 30
0.0
 10
71.32708467183838
 20
-147.0945529146153
 30
0.0
 10
71.32708467183838
 20
-147.0945529146153
 30
0.0
 10
71.21046818966266
 20
-147.0945529146153
 30
0.0
 10
71.07335338934972
 20
-147.0945529146153
 30
0.0
 10
70.96586641020993
 20
-147.1069552583621
 30
0.0
 10
70.96586641020993
 20
-147.1069552583621
 30
0.0
 10
70.96586641020993
 20
-146.9167859875764
 30
0.0
 10
70.96586641020993
 20
-146.9167859875764
 30
0.0
 10
71.11228296833305
 20
-146.9336669554541
 30
0.0
 10
71.31416556376868
 20
-146.9357340127452
 30
0.0
 10
71.32708467183838
 20
-146.9357340127452
 30
0.0
 10
71.32708467183838
 20
-146.9357340127452
 30
0.0
 10
71.41958548561733
 20
-146.9357340127452
 30
0.0
 10
71.41958548561733
 20
-146.9357340127452
 30
0.0
 10
71.41958548561733
 20
-146.9357340127452
 30
0.0
 10
71.41958548561733
 20
-146.8044758747572
 30
0.0
 10
71.41958548561733
 20
-146.8044758747572
 30
0.0
 10
71.41958548561733
 20
-146.8044758747572
 30
0.0
 10
71.38634031418466
 20
-146.8044758747572
 30
0.0
 10
71.38634031418466
 20
-146.8044758747572
 30
0.0
 10
71.34741073520135
 20
-146.8044758747572
 30
0.0
 10
71.23820120831893
 20
-146.8089544988881
 30
0.0
 10
71.16034205035228
 20
-146.8172227280527
 30
0.0
 10
71.16034205035228
 20
-146.8172227280527
 30
0.0
 10
71.16034205035228
 20
-146.7369520032463
 30
0.0
 10
71.16034205035228
 20
-146.7369520032463
 30
0.0
 10
71.11400551607566
 20
-146.7748480535841
 30
0.0
 10
71.09195690497008
 20
-146.7896619641706
 30
0.0
 10
71.05474987372938
 20
-146.8130886134703
 30
0.0
 10
71.05474987372938
 20
-146.8130886134703
 30
0.0
 10
70.89007430953443
 20
-146.6838975327735
 30
0.0
 10
70.89007430953443
 20
-146.6838975327735
 30
0.0
 10
70.9586317096909
 20
-146.650135597018
 30
0.0
 10
71.09557425522958
 20
-146.5867458400894
 30
0.0
 10
71.23251680076827
 20
-146.442740848806
 30
0.0
 10
71.3048638059585
 20
-146.3645371812908
 30
0.0
 10
71.37342120611498
 20
-146.2801323419022
 30
0.0
 10
71.41958548561733
 20
-146.1785020250873
 30
0.0
 10
71.41958548561733
 20
-146.1785020250873
 30
0.0
 10
71.60475936794951
 20
-146.2398247247248
 30
0.0
 10
71.60475936794951
 20
-146.2398247247248
 30
0.0
 10
71.62146808105297
 20
-146.2460258965982
 30
0.0
 10
71.63076983886315
 20
-146.2546386353114
 30
0.0
 10
71.63076983886315
 20
-146.2673854886068
 30
0.0
 10
71.63076983886315
 20
-146.2842664564845
 30
0.0
 10
71.61957327853608
 20
-146.290467628358
 30
0.0
 10
71.59735241265622
 20
-146.3032144816534
 30
0.0
 10
71.66780461532959
 20
-146.4007106838859
 30
0.0
 10
71.81025931364466
 20
-146.49786237657
 30
0.0
 10
71.83988713481781
 20
-146.5168104017389
 30
0.0
 10
71.97148978235435
 20
-146.6056938652583
 30
0.0
 10
72.0713975514266
 20
-146.6332546291403
 30
0.0
 10
72.13995495158306
 20
-146.6522026543092
 30
0.0
 10
72.13995495158306
 20
-146.6522026543092
 30
0.0
 10
72.03625757747704
 20
-146.8217013521835
 30
0.0
 10
72.03625757747704
 20
-146.8217013521835
 30
0.0
 10
71.96218802454418
 20
-146.7920735310103
 30
0.0
 10
71.91774629278446
 20
-146.7727809962929
 30
0.0
 10
71.81404891867844
 20
-146.7073241820732
 30
0.0
 10
71.81404891867844
 20
-146.7073241820732
 30
0.0
 10
71.81404891867844
 20
-146.8172227280527
 30
0.0
 10
71.81404891867844
 20
-146.8172227280527
 30
0.0
 10
71.74187416826246
 20
-146.8089544988881
 30
0.0
 10
71.63076983886315
 20
-146.8044758747572
 30
0.0
 10
71.58443330458654
 20
-146.8044758747572
 30
0.0
 10
71.58443330458654
 20
-146.8044758747572
 30
0.0
 10
71.58443330458654
 20
-146.9357340127452
 30
0.0
 10
71.58443330458654
 20
-146.9357340127452
 30
0.0
 10
71.58443330458654
 20
-146.9357340127452
 30
0.0
 10
71.69002548120945
 20
-146.9357340127452
 30
0.0
 10
71.69002548120945
 20
-146.9357340127452
 30
0.0
 10
71.69174802895206
 20
-146.9357340127452
 30
0.0
 10
71.8955254269046
 20
-146.9336669554541
 30
0.0
 10
72.05107148806363
 20
-146.9167859875764
 30
0.0
 10
72.05107148806363
 20
-146.9167859875764
 30
0.0
 10
72.05107148806363
 20
-147.1069552583621
 30
0.0
 10
72.05107148806363
 20
-147.1069552583621
 30
0.0
 10
71.93807235614743
 20
-147.0945529146153
 30
0.0
 10
71.80112981060874
 20
-147.0945529146153
 30
0.0
 10
71.69002548120945
 20
-147.0945529146153
 30
0.0
 10
71.69002548120945
 20
-147.0945529146153
 30
0.0
 10
71.58443330458654
 20
-147.0945529146153
 30
0.0
 10
71.58443330458654
 20
-147.0945529146153
 30
0.0
 10
71.58443330458654
 20
-147.0945529146153
 30
0.0
 10
71.58443330458654
 20
-147.3208956879962
 30
0.0
 10
71.58443330458654
 20
-147.3208956879962
 30
0.0
 10
71.58443330458654
 20
-147.4394069726888
 30
0.0
 10
71.56221243870667
 20
-147.4752359657354
 30
0.0
 10
71.42148028813422
 20
-147.4900498763219
 30
0.0
 10
71.42509763839372
 20
-147.5089979014908
 30
0.0
 10
71.41958548561733
 20
-147.5196776974951
 30
0.0
 10
71.38634031418466
 20
-147.5427598372463
 30
0.0
 10
71.38444551166778
 20
-147.5620523719637
 30
0.0
 10
71.38444551166778
 20
-147.5682535438371
 30
0.0
 10
71.38255070915089
 20
-147.5830674544237
 30
0.0
 10
71.38255070915089
 20
-147.5830674544237
 30
0.0
 10
71.50295679636038
 20
-147.5830674544237
 30
0.0
 10
71.50295679636038
 20
-147.5830674544237
 30
0.0
 10
71.64730629719234
 20
-147.5830674544237
 30
0.0
 10
71.79372285531547
 20
-147.5789333398414
 30
0.0
 10
71.93996715866432
 20
-147.5641194292548
 30
0.0
 10
71.93996715866432
 20
-147.5641194292548
 30
0.0
 10
71.93996715866432
 20
-147.7715141774669
 30
0.0
 10
71.93996715866432
 20
-147.7715141774669
 30
0.0
 10
71.75100367129836
 20
-147.7546332095891
 30
0.0
 10
71.51966550946383
 20
-147.7546332095891
 30
0.0
 10
71.50295679636038
 20
-147.7546332095891
 30
0.0
 10
71.50295679636038
 20
-147.7546332095891
 30
0.0
 10
71.380655906634
 20
-147.7546332095891
 30
0.0
 10
71.380655906634
 20
-147.7546332095891
 30
0.0
 10
71.380655906634
 20
-147.7546332095891
 30
0.0
 10
71.380655906634
 20
-147.8962266340329
 30
0.0
 10
71.380655906634
 20
-147.8962266340329
 30
0.0
 10
71.380655906634
 20
-147.8962266340329
 30
0.0
 10
71.57892115181014
 20
-147.8962266340329
 30
0.0
 10
71.57892115181014
 20
-147.8962266340329
 30
0.0
 10
71.76771238440182
 20
-147.8962266340329
 30
0.0
 10
71.9583984195104
 20
-147.8920925194506
 30
0.0
 10
72.14736190687636
 20
-147.8793456661552
 30
0.0
 10
72.14736190687636
 20
-147.8793456661552
 30
0.0
 10
72.14736190687636
 20
-148.0867404143672
 30
0.0
 10
72.14736190687636
 20
-148.0867404143672
 30
0.0
 10
71.90103757968099
 20
-148.0695149369409
 30
0.0
 10
71.59924721517311
 20
-148.0695149369409
 30
0.0
 10
71.57892115181014
 20
-148.0695149369409
 30
0.0
  0
SPLINE
  5
47
330
41
100
AcDbEntity
  8
_U+30EC_U+30A4_U+30E4_U+30FC 1
370
     0
100
AcDbSpline
210
0.0
220
0.0
230
1.0
 70
    11
 71
     3
 72
    23
 73
    19
 74
     0
 42
0.0000000001
 43
0.0000000001
 12
1.0
 22
0.0
 32
0.0
 13
1.0
 23
0.0
 33
0.0
 40
0.0
 40
0.0
 40
0.0
 40
0.0
 40
1.0
 40
1.0
 40
1.0
 40
2.0
 40
2.0
 40
2.0
 40
3.0
 40
3.0
 40
3.0
 40
4.0
 40
4.0
 40
4.0
 40
5.0
 40
5.0
 40
5.0
 40
6.0
 40
6.0
 40
6.0
 40
6.0
 10
70.59930825057934
 20
-147.4414740299799
 30
0.0
 10
70.59930825057934
 20
-147.46248911244
 30
0.0
 10
70.60120305309623
 20
-147.5007296723262
 30
0.0
 10
70.57898218721637
 20
-147.5007296723262
 30
0.0
 10
70.56968042940619
 20
-147.5007296723262
 30
0.0
 10
70.56227347411291
 20
-147.4941839909042
 30
0.0
 10
70.55297171630274
 20
-147.4773030230265
 30
0.0
 10
70.55297171630274
 20
-147.4773030230265
 30
0.0
 10
70.4621934502664
 20
-147.2954019814053
 30
0.0
 10
70.4621934502664
 20
-147.2954019814053
 30
0.0
 10
70.65115693763235
 20
-147.1662109007084
 30
0.0
 10
70.82341171189485
 20
-146.8892252236944
 30
0.0
 10
70.8640638386208
 20
-146.8172227280527
 30
0.0
 10
70.8640638386208
 20
-146.8172227280527
 30
0.0
 10
70.92710908600087
 20
-146.9970567123827
 30
0.0
 10
70.92710908600087
 20
-146.9970567123827
 30
0.0
 10
70.81049260382515
 20
-147.1937716645905
 30
0.0
 10
70.65666909040876
 20
-147.3777397635028
 30
0.0
 10
70.59930825057934
 20
-147.4414740299799
 30
0.0
  0
SPLINE
  5
48
330
41
100
AcDbEntity
  8
_U+30EC_U+30A4_U+30E4_U+30FC 1
370
     0
100
AcDbSpline
210
0.0
220
0.0
230
1.0
 70
    11
 71
     3
 72
    17
 73
    13
 74
     0
 42
0.0000000001
 43
0.0000000001
 12
1.0
 22
0.0
 32
0.0
 13
1.0
 23
0.0
 33
0.0
 40
0.0
 40
0.0
 40
0.0
 40
0.0
 40
1.0
 40
1.0
 40
1.0
 40
2.0
 40
2.0
 40
2.0
 40
3.0
 40
3.0
 40
3.0
 40
4.0
 40
4.0
 40
4.0
 40
4.0
 10
70.82151690937796
 20
-146.546438222912
 30
0.0
 10
70.76777341980807
 20
-146.470301612688
 30
0.0
 10
70.65477428789187
 20
-146.394165002464
 30
0.0
 10
70.5641682766298
 20
-146.3645371812908
 30
0.0
 10
70.5641682766298
 20
-146.3645371812908
 30
0.0
 10
70.64753958737285
 20
-146.1995171075473
 30
0.0
 10
70.64753958737285
 20
-146.1995171075473
 30
0.0
 10
70.73642305089228
 20
-146.2356906101425
 30
0.0
 10
70.82892386467124
 20
-146.2925346856491
 30
0.0
 10
70.90661076786363
 20
-146.373149920004
 30
0.0
 10
70.90661076786363
 20
-146.373149920004
 30
0.0
 10
70.82151690937796
 20
-146.546438222912
 30
0.0
 10
70.82151690937796
 20
-146.546438222912
 30
0.0
  0
SPLINE
  5
49
330
41
100
AcDbEntity
  8
_U+30EC_U+30A4_U+30E4_U+30FC 1
370
     0
100
AcDbSpline
210
0.0
220
0.0
230
1.0
 70
    11
 71
     3
 72
    23
 73
    19
 74
     0
 42
0.0000000001
 43
0.0000000001
 12
1.0
 22
0.0
 32
0.0
 13
1.0
 23
0.0
 33
0.0
 40
0.0
 40
0.0
 40
0.0
 40
0.0
 40
1.0
 40
1.0
 40
1.0
 40
2.0
 40
2.0
 40
2.0
 40
3.0
 40
3.0
 40
3.0
 40
4.0
 40
4.0
 40
4.0
 40
5.0
 40
5.0
 40
5.0
 40
6.0
 40
6.0
 40
6.0
 40
6.0
 10
71.21770289018168
 20
-147.2509602496456
 30
0.0
 10
71.1992716293356
 20
-147.2743868989453
 30
0.0
 10
71.11400551607566
 20
-147.3863525022159
 30
0.0
 10
70.99187688112356
 20
-147.4666232270222
 30
0.0
 10
70.99187688112356
 20
-147.4666232270222
 30
0.0
 10
70.84563257777471
 20
-147.3460448850385
 30
0.0
 10
70.84563257777471
 20
-147.3460448850385
 30
0.0
 10
70.97706297053699
 20
-147.2699082748145
 30
0.0
 10
71.06405163153954
 20
-147.1748236394216
 30
0.0
 10
71.10677081555664
 20
-147.1217691689487
 30
0.0
 10
71.10677081555664
 20
-147.1217691689487
 30
0.0
 10
71.2585272716819
 20
-147.2044514605947
 30
0.0
 10
71.2585272716819
 20
-147.2044514605947
 30
0.0
 10
71.26593422697519
 20
-147.208585575177
 30
0.0
 10
71.27334118226847
 20
-147.215131256599
 30
0.0
 10
71.27334118226847
 20
-147.2254665430548
 30
0.0
 10
71.27334118226847
 20
-147.2509602496456
 30
0.0
 10
71.24181855857844
 20
-147.2509602496456
 30
0.0
 10
71.21770289018168
 20
-147.2509602496456
 30
0.0
  0
SPLINE
  5
4A
330
41
100
AcDbEntity
  8
_U+30EC_U+30A4_U+30E4_U+30FC 1
370
     0
100
AcDbSpline
210
0.0
220
0.0
230
1.0
 70
    11
 71
     3
 72
    20
 73
    16
 74
     0
 42
0.0000000001
 43
0.0000000001
 12
1.0
 22
0.0
 32
0.0
 13
1.0
 23
0.0
 33
0.0
 40
0.0
 40
0.0
 40
0.0
 40
0.0
 40
1.0
 40
1.0
 40
1.0
 40
2.0
 40
2.0
 40
2.0
 40
3.0
 40
3.0
 40
3.0
 40
4.0
 40
4.0
 40
4.0
 40
5.0
 40
5.0
 40
5.0
 40
5.0
 10
71.47884112796362
 20
-146.4089789130505
 30
0.0
 10
71.44559595653097
 20
-146.4575547593926
 30
0.0
 10
71.39185246696107
 20
-146.5361029364562
 30
0.0
 10
71.26972383200896
 20
-146.6460014824357
 30
0.0
 10
71.34000377990806
 20
-146.650135597018
 30
0.0
 10
71.36584199604744
 20
-146.650135597018
 30
0.0
 10
71.38634031418466
 20
-146.650135597018
 30
0.0
 10
71.38634031418466
 20
-146.650135597018
 30
0.0
 10
71.58632810710343
 20
-146.650135597018
 30
0.0
 10
71.58632810710343
 20
-146.650135597018
 30
0.0
 10
71.61406112575968
 20
-146.650135597018
 30
0.0
 10
71.65660805500252
 20
-146.6480685397269
 30
0.0
 10
71.72137585012521
 20
-146.6460014824357
 30
0.0
 10
71.62336288356985
 20
-146.5719319295029
 30
0.0
 10
71.58081595432702
 20
-146.525423140452
 30
0.0
 10
71.47884112796362
 20
-146.4089789130505
 30
0.0
  0
SPLINE
  5
4B
330
41
100
AcDbEntity
  8
_U+30EC_U+30A4_U+30E4_U+30FC 1
370
     0
100
AcDbSpline
210
0.0
220
0.0
230
1.0
 70
    11
 71
     3
 72
    17
 73
    13
 74
     0
 42
0.0000000001
 43
0.0000000001
 12
1.0
 22
0.0
 32
0.0
 13
1.0
 23
0.0
 33
0.0
 40
0.0
 40
0.0
 40
0.0
 40
0.0
 40
1.0
 40
1.0
 40
1.0
 40
2.0
 40
2.0
 40
2.0
 40
3.0
 40
3.0
 40
3.0
 40
4.0
 40
4.0
 40
4.0
 40
4.0
 10
71.96959497983747
 20
-147.4645561697311
 30
0.0
 10
71.85108369514487
 20
-147.3525905664605
 30
0.0
 10
71.75858288136591
 20
-147.2892008095319
 30
0.0
 10
71.65488550725989
 20
-147.2254665430548
 30
0.0
 10
71.65488550725989
 20
-147.2254665430548
 30
0.0
 10
71.76581758188493
 20
-147.1135009397841
 30
0.0
 10
71.76581758188493
 20
-147.1135009397841
 30
0.0
 10
71.88071151631802
 20
-147.160009728835
 30
0.0
 10
71.97700193513076
 20
-147.2171983138902
 30
0.0
 10
72.08621146201317
 20
-147.318828630705
 30
0.0
 10
72.08621146201317
 20
-147.318828630705
 30
0.0
 10
71.96959497983747
 20
-147.4645561697311
 30
0.0
 10
71.96959497983747
 20
-147.4645561697311
 30
0.0
  0
HATCH
  5
4C
330
41
100
AcDbEntity
  8
_U+30EC_U+30A4_U+30E4_U+30FC 1
 62
   179
420
  2234388
100
AcDbHatch
 10
0.0
 20
0.0
 30
0.0
210
0.0
220
0.0
230
1.0
  2
SOLID
 70
     1
 71
     0
 91
        7
 92
        1
 93
        1
 72
     4
 94
        3
 73
     0
 74
     1
 95
       17
 96
       13
 40
0.0
 40
0.0
 40
0.0
 40
0.0
 40
1.0
 40
1.0
 40
1.0
 40
2.0
 40
2.0
 40
2.0
 40
3.0
 40
3.0
 40
3.0
 40
4.0
 40
4.0
 40
4.0
 40
4.0
 10
70.66407604570205
 20
-146.8912922809855
 10
70.57157523192308
 20
-146.7855278495883
 10
70.50112302924973
 20
-146.7476317992506
 10
70.41964652102357
 20
-146.7155924112378
 10
70.41964652102357
 20
-146.7155924112378
 10
70.5159369398363
 20
-146.5509168470428
 10
70.5159369398363
 20
-146.5509168470428
 10
70.60120305309623
 20
-146.5929470119629
 10
70.70679522971913
 20
-146.6714951890266
 10
70.75295950922148
 20
-146.7262722072421
 10
70.75295950922148
 20
-146.7262722072421
 10
70.66407604570205
 20
-146.8912922809855
 10
70.66407604570205
 20
-146.8912922809855
 97
        0
 97
        0
 92
        1
 93
        1
 72
     4
 94
        3
 73
     0
 74
     1
 95
      182
 96
      178
 40
0.0
 40
0.0
 40
0.0
 40
0.0
 40
1.0
 40
1.0
 40
1.0
 40
2.0
 40
2.0
 40
2.0
 40
3.0
 40
3.0
 40
3.0
 40
4.0
 40
4.0
 40
4.0
 40
5.0
 40
5.0
 40
5.0
 40
6.0
 40
6.0
 40
6.0
 40
7.0
 40
7.0
 40
7.0
 40
8.0
 40
8.0
 40
8.0
 40
9.0
 40
9.0
 40
9.0
 40
10.0
 40
10.0
 40
10.0
 40
11.0
 40
11.0
 40
11.0
 40
12.0
 40
12.0
 40
12.0
 40
13.0
 40
13.0
 40
13.0
 40
14.0
 40
14.0
 40
14.0
 40
15.0
 40
15.0
 40
15.0
 40
16.0
 40
16.0
 40
16.0
 40
17.0
 40
17.0
 40
17.0
 40
18.0
 40
18.0
 40
18.0
 40
19.0
 40
19.0
 40
19.0
 40
20.0
 40
20.0
 40
20.0
 40
21.0
 40
21.0
 40
21.0
 40
22.0
 40
22.0
 40
22.0
 40
23.0
 40
23.0
 40
23.0
 40
24.0
 40
24.0
 40
24.0
 40
25.0
 40
25.0
 40
25.0
 40
26.0
 40
26.0
 40
26.0
 40
27.0
 40
27.0
 40
27.0
 40
28.0
 40
28.0
 40
28.0
 40
29.0
 40
29.0
 40
29.0
 40
30.0
 40
30.0
 40
30.0
 40
31.0
 40
31.0
 40
31.0
 40
32.0
 40
32.0
 40
32.0
 40
33.0
 40
33.0
 40
33.0
 40
34.0
 40
34.0
 40
34.0
 40
35.0
 40
35.0
 40
35.0
 40
36.0
 40
36.0
 40
36.0
 40
37.0
 40
37.0
 40
37.0
 40
38.0
 40
38.0
 40
38.0
 40
39.0
 40
39.0
 40
39.0
 40
40.0
 40
40.0
 40
40.0
 40
41.0
 40
41.0
 40
41.0
 40
42.0
 40
42.0
 40
42.0
 40
43.0
 40
43.0
 40
43.0
 40
44.0
 40
44.0
 40
44.0
 40
45.0
 40
45.0
 40
45.0
 40
46.0
 40
46.0
 40
46.0
 40
47.0
 40
47.0
 40
47.0
 40
48.0
 40
48.0
 40
48.0
 40
49.0
 40
49.0
 40
49.0
 40
50.0
 40
50.0
 40
50.0
 40
51.0
 40
51.0
 40
51.0
 40
52.0
 40
52.0
 40
52.0
 40
53.0
 40
53.0
 40
53.0
 40
54.0
 40
54.0
 40
54.0
 40
55.0
 40
55.0
 40
55.0
 40
56.0
 40
56.0
 40
56.0
 40
57.0
 40
57.0
 40
57.0
 40
58.0
 40
58.0
 40
58.0
 40
59.0
 40
59.0
 40
59.0
 40
59.0
 10
71.57892115181014
 20
-148.0695149369409
 10
71.57892115181014
 20
-148.0695149369409
 10
71.02150470229671
 20
-148.0695149369409
 10
71.02150470229671
 20
-148.0695149369409
 10
70.83443601744764
 20
-148.0695149369409
 10
70.64564478485595
 20
-148.0739935610718
 10
70.45857610000688
 20
-148.0867404143672
 10
70.45857610000688
 20
-148.0867404143672
 10
70.45857610000688
 20
-147.8793456661552
 10
70.45857610000688
 20
-147.8793456661552
 10
70.65305174014924
 20
-147.8920925194506
 10
70.93623858903678
 20
-147.8962266340329
 10
71.02150470229671
 20
-147.8962266340329
 10
71.02150470229671
 20
-147.8962266340329
 10
71.21408553992218
 20
-147.8962266340329
 10
71.21408553992218
 20
-147.8962266340329
 10
71.21408553992218
 20
-147.8962266340329
 10
71.21408553992218
 20
-147.7546332095891
 10
71.21408553992218
 20
-147.7546332095891
 10
71.21408553992218
 20
-147.7546332095891
 10
71.07335338934972
 20
-147.7546332095891
 10
71.07335338934972
 20
-147.7546332095891
 10
70.92900388851776
 20
-147.7546332095891
 10
70.78448213291152
 20
-147.7587673241714
 10
70.63996037730529
 20
-147.773581234758
 10
70.63996037730529
 20
-147.773581234758
 10
70.63996037730529
 20
-147.5641194292548
 10
70.63996037730529
 20
-147.5641194292548
 10
70.78999428568792
 20
-147.5789333398414
 10
71.00669079171014
 20
-147.5830674544237
 10
71.07335338934972
 20
-147.5830674544237
 10
71.07335338934972
 20
-147.5830674544237
 10
71.21408553992218
 20
-147.5830674544237
 10
71.21408553992218
 20
-147.5830674544237
 10
71.21046818966266
 20
-147.511064958782
 10
71.21046818966266
 20
-147.5048637869085
 10
71.204783782112
 20
-147.4518093164357
 10
71.204783782112
 20
-147.4518093164357
 10
71.32708467183838
 20
-147.4666232270222
 10
71.32708467183838
 20
-147.4666232270222
 10
71.32708467183838
 20
-147.4666232270222
 10
71.24009601083581
 20
-147.2954019814053
 10
71.24009601083581
 20
-147.2954019814053
 10
71.28074813756176
 20
-147.3016031532788
 10
71.34551593268446
 20
-147.3102158919919
 10
71.36032984327103
 20
-147.3102158919919
 10
71.40477157503075
 20
-147.3102158919919
 10
71.41958548561733
 20
-147.2892008095319
 10
71.41958548561733
 20
-147.2320122244767
 10
71.41958548561733
 20
-147.2320122244767
 10
71.41958548561733
 20
-147.0945529146153
 10
71.41958548561733
 20
-147.0945529146153
 10
71.41958548561733
 20
-147.0945529146153
 10
71.32708467183838
 20
-147.0945529146153
 10
71.32708467183838
 20
-147.0945529146153
 10
71.21046818966266
 20
-147.0945529146153
 10
71.07335338934972
 20
-147.0945529146153
 10
70.96586641020993
 20
-147.1069552583621
 10
70.96586641020993
 20
-147.1069552583621
 10
70.96586641020993
 20
-146.9167859875764
 10
70.96586641020993
 20
-146.9167859875764
 10
71.11228296833305
 20
-146.9336669554541
 10
71.31416556376868
 20
-146.9357340127452
 10
71.32708467183838
 20
-146.9357340127452
 10
71.32708467183838
 20
-146.9357340127452
 10
71.41958548561733
 20
-146.9357340127452
 10
71.41958548561733
 20
-146.9357340127452
 10
71.41958548561733
 20
-146.9357340127452
 10
71.41958548561733
 20
-146.8044758747572
 10
71.41958548561733
 20
-146.8044758747572
 10
71.41958548561733
 20
-146.8044758747572
 10
71.38634031418466
 20
-146.8044758747572
 10
71.38634031418466
 20
-146.8044758747572
 10
71.34741073520135
 20
-146.8044758747572
 10
71.23820120831893
 20
-146.8089544988881
 10
71.16034205035228
 20
-146.8172227280527
 10
71.16034205035228
 20
-146.8172227280527
 10
71.16034205035228
 20
-146.7369520032463
 10
71.16034205035228
 20
-146.7369520032463
 10
71.11400551607566
 20
-146.7748480535841
 10
71.09195690497008
 20
-146.7896619641706
 10
71.05474987372938
 20
-146.8130886134703
 10
71.05474987372938
 20
-146.8130886134703
 10
70.89007430953443
 20
-146.6838975327735
 10
70.89007430953443
 20
-146.6838975327735
 10
70.9586317096909
 20
-146.650135597018
 10
71.09557425522958
 20
-146.5867458400894
 10
71.23251680076827
 20
-146.442740848806
 10
71.3048638059585
 20
-146.3645371812908
 10
71.37342120611498
 20
-146.2801323419022
 10
71.41958548561733
 20
-146.1785020250873
 10
71.41958548561733
 20
-146.1785020250873
 10
71.60475936794951
 20
-146.2398247247248
 10
71.60475936794951
 20
-146.2398247247248
 10
71.62146808105297
 20
-146.2460258965982
 10
71.63076983886315
 20
-146.2546386353114
 10
71.63076983886315
 20
-146.2673854886068
 10
71.63076983886315
 20
-146.2842664564845
 10
71.61957327853608
 20
-146.290467628358
 10
71.59735241265622
 20
-146.3032144816534
 10
71.66780461532959
 20
-146.4007106838859
 10
71.81025931364466
 20
-146.49786237657
 10
71.83988713481781
 20
-146.5168104017389
 10
71.97148978235435
 20
-146.6056938652583
 10
72.0713975514266
 20
-146.6332546291403
 10
72.13995495158306
 20
-146.6522026543092
 10
72.13995495158306
 20
-146.6522026543092
 10
72.03625757747704
 20
-146.8217013521835
 10
72.03625757747704
 20
-146.8217013521835
 10
71.96218802454418
 20
-146.7920735310103
 10
71.91774629278446
 20
-146.7727809962929
 10
71.81404891867844
 20
-146.7073241820732
 10
71.81404891867844
 20
-146.7073241820732
 10
71.81404891867844
 20
-146.8172227280527
 10
71.81404891867844
 20
-146.8172227280527
 10
71.74187416826246
 20
-146.8089544988881
 10
71.63076983886315
 20
-146.8044758747572
 10
71.58443330458654
 20
-146.8044758747572
 10
71.58443330458654
 20
-146.8044758747572
 10
71.58443330458654
 20
-146.9357340127452
 10
71.58443330458654
 20
-146.9357340127452
 10
71.58443330458654
 20
-146.9357340127452
 10
71.69002548120945
 20
-146.9357340127452
 10
71.69002548120945
 20
-146.9357340127452
 10
71.69174802895206
 20
-146.9357340127452
 10
71.8955254269046
 20
-146.9336669554541
 10
72.05107148806363
 20
-146.9167859875764
 10
72.05107148806363
 20
-146.9167859875764
 10
72.05107148806363
 20
-147.1069552583621
 10
72.05107148806363
 20
-147.1069552583621
 10
71.93807235614743
 20
-147.0945529146153
 10
71.80112981060874
 20
-147.0945529146153
 10
71.69002548120945
 20
-147.0945529146153
 10
71.69002548120945
 20
-147.0945529146153
 10
71.58443330458654
 20
-147.0945529146153
 10
71.58443330458654
 20
-147.0945529146153
 10
71.58443330458654
 20
-147.0945529146153
 10
71.58443330458654
 20
-147.3208956879962
 10
71.58443330458654
 20
-147.3208956879962
 10
71.58443330458654
 20
-147.4394069726888
 10
71.56221243870667
 20
-147.4752359657354
 10
71.42148028813422
 20
-147.4900498763219
 10
71.42509763839372
 20
-147.5089979014908
 10
71.41958548561733
 20
-147.5196776974951
 10
71.38634031418466
 20
-147.5427598372463
 10
71.38444551166778
 20
-147.5620523719637
 10
71.38444551166778
 20
-147.5682535438371
 10
71.38255070915089
 20
-147.5830674544237
 10
71.38255070915089
 20
-147.5830674544237
 10
71.50295679636038
 20
-147.5830674544237
 10
71.50295679636038
 20
-147.5830674544237
 10
71.64730629719234
 20
-147.5830674544237
 10
71.79372285531547
 20
-147.5789333398414
 10
71.93996715866432
 20
-147.5641194292548
 10
71.93996715866432
 20
-147.5641194292548
 10
71.93996715866432
 20
-147.7715141774669
 10
71.93996715866432
 20
-147.7715141774669
 10
71.75100367129836
 20
-147.7546332095891
 10
71.51966550946383
 20
-147.7546332095891
 10
71.50295679636038
 20
-147.7546332095891
 10
71.50295679636038
 20
-147.7546332095891
 10
71.380655906634
 20
-147.7546332095891
 10
71.380655906634
 20
-147.7546332095891
 10
71.380655906634
 20
-147.7546332095891
 10
71.380655906634
 20
-147.8962266340329
 10
71.380655906634
 20
-147.8962266340329
 10
71.380655906634
 20
-147.8962266340329
 10
71.57892115181014
 20
-147.8962266340329
 10
71.57892115181014
 20
-147.8962266340329
 10
71.76771238440182
 20
-147.8962266340329
 10
71.9583984195104
 20
-147.8920925194506
 10
72.14736190687636
 20
-147.8793456661552
 10
72.14736190687636
 20
-147.8793456661552
 10
72.14736190687636
 20
-148.0867404143672
 10
72.14736190687636
 20
-148.0867404143672
 10
71.90103757968099
 20
-148.0695149369409
 10
71.59924721517311
 20
-148.0695149369409
 10
71.57892115181014
 20
-148.0695149369409
 97
        0
 97
        0
 92
        1
 93
        1
 72
     4
 94
        3
 73
     0
 74
     1
 95
       23
 96
       19
 40
0.0
 40
0.0
 40
0.0
 40
0.0
 40
1.0
 40
1.0
 40
1.0
 40
2.0
 40
2.0
 40
2.0
 40
3.0
 40
3.0
 40
3.0
 40
4.0
 40
4.0
 40
4.0
 40
5.0
 40
5.0
 40
5.0
 40
6.0
 40
6.0
 40
6.0
 40
6.0
 10
70.59930825057934
 20
-147.4414740299799
 10
70.59930825057934
 20
-147.46248911244
 10
70.60120305309623
 20
-147.5007296723262
 10
70.57898218721637
 20
-147.5007296723262
 10
70.56968042940619
 20
-147.5007296723262
 10
70.56227347411291
 20
-147.4941839909042
 10
70.55297171630274
 20
-147.4773030230265
 10
70.55297171630274
 20
-147.4773030230265
 10
70.4621934502664
 20
-147.2954019814053
 10
70.4621934502664
 20
-147.2954019814053
 10
70.65115693763235
 20
-147.1662109007084
 10
70.82341171189485
 20
-146.8892252236944
 10
70.8640638386208
 20
-146.8172227280527
 10
70.8640638386208
 20
-146.8172227280527
 10
70.92710908600087
 20
-146.9970567123827
 10
70.92710908600087
 20
-146.9970567123827
 10
70.81049260382515
 20
-147.1937716645905
 10
70.65666909040876
 20
-147.3777397635028
 10
70.59930825057934
 20
-147.4414740299799
 97
        0
 97
        0
 92
        1
 93
        1
 72
     4
 94
        3
 73
     0
 74
     1
 95
       17
 96
       13
 40
0.0
 40
0.0
 40
0.0
 40
0.0
 40
1.0
 40
1.0
 40
1.0
 40
2.0
 40
2.0
 40
2.0
 40
3.0
 40
3.0
 40
3.0
 40
4.0
 40
4.0
 40
4.0
 40
4.0
 10
70.82151690937796
 20
-146.546438222912
 10
70.76777341980807
 20
-146.470301612688
 10
70.65477428789187
 20
-146.394165002464
 10
70.5641682766298
 20
-146.3645371812908
 10
70.5641682766298
 20
-146.3645371812908
 10
70.64753958737285
 20
-146.1995171075473
 10
70.64753958737285
 20
-146.1995171075473
 10
70.73642305089228
 20
-146.2356906101425
 10
70.82892386467124
 20
-146.2925346856491
 10
70.90661076786363
 20
-146.373149920004
 10
70.90661076786363
 20
-146.373149920004
 10
70.82151690937796
 20
-146.546438222912
 10
70.82151690937796
 20
-146.546438222912
 97
        0
 97
        0
 92
        1
 93
        1
 72
     4
 94
        3
 73
     0
 74
     1
 95
       23
 96
       19
 40
0.0
 40
0.0
 40
0.0
 40
0.0
 40
1.0
 40
1.0
 40
1.0
 40
2.0
 40
2.0
 40
2.0
 40
3.0
 40
3.0
 40
3.0
 40
4.0
 40
4.0
 40
4.0
 40
5.0
 40
5.0
 40
5.0
 40
6.0
 40
6.0
 40
6.0
 40
6.0
 10
71.21770289018168
 20
-147.2509602496456
 10
71.1992716293356
 20
-147.2743868989453
 10
71.11400551607566
 20
-147.3863525022159
 10
70.99187688112356
 20
-147.4666232270222
 10
70.99187688112356
 20
-147.4666232270222
 10
70.84563257777471
 20
-147.3460448850385
 10
70.84563257777471
 20
-147.3460448850385
 10
70.97706297053699
 20
-147.2699082748145
 10
71.06405163153954
 20
-147.1748236394216
 10
71.10677081555664
 20
-147.1217691689487
 10
71.10677081555664
 20
-147.1217691689487
 10
71.2585272716819
 20
-147.2044514605947
 10
71.2585272716819
 20
-147.2044514605947
 10
71.26593422697519
 20
-147.208585575177
 10
71.27334118226847
 20
-147.215131256599
 10
71.27334118226847
 20
-147.2254665430548
 10
71.27334118226847
 20
-147.2509602496456
 10
71.24181855857844
 20
-147.2509602496456
 10
71.21770289018168
 20
-147.2509602496456
 97
        0
 97
        0
 92
        1
 93
        1
 72
     4
 94
        3
 73
     0
 74
     1
 95
       20
 96
       16
 40
0.0
 40
0.0
 40
0.0
 40
0.0
 40
1.0
 40
1.0
 40
1.0
 40
2.0
 40
2.0
 40
2.0
 40
3.0
 40
3.0
 40
3.0
 40
4.0
 40
4.0
 40
4.0
 40
5.0
 40
5.0
 40
5.0
 40
5.0
 10
71.47884112796362
 20
-146.4089789130505
 10
71.44559595653097
 20
-146.4575547593926
 10
71.39185246696107
 20
-146.5361029364562
 10
71.26972383200896
 20
-146.6460014824357
 10
71.34000377990806
 20
-146.650135597018
 10
71.36584199604744
 20
-146.650135597018
 10
71.38634031418466
 20
-146.650135597018
 10
71.38634031418466
 20
-146.650135597018
 10
71.58632810710343
 20
-146.650135597018
 10
71.58632810710343
 20
-146.650135597018
 10
71.61406112575968
 20
-146.650135597018
 10
71.65660805500252
 20
-146.6480685397269
 10
71.72137585012521
 20
-146.6460014824357
 10
71.62336288356985
 20
-146.5719319295029
 10
71.58081595432702
 20
-146.525423140452
 10
71.47884112796362
 20
-146.4089789130505
 97
        0
 97
        0
 92
        1
 93
        1
 72
     4
 94
        3
 73
     0
 74
     1
 95
       17
 96
       13
 40
0.0
 40
0.0
 40
0.0
 40
0.0
 40
1.0
 40
1.0
 40
1.0
 40
2.0
 40
2.0
 40
2.0
 40
3.0
 40
3.0
 40
3.0
 40
4.0
 40
4.0
 40
4.0
 40
4.0
 10
71.96959497983747
 20
-147.4645561697311
 10
71.85108369514487
 20
-147.3525905664605
 10
71.75858288136591
 20
-147.2892008095319
 10
71.65488550725989
 20
-147.2254665430548
 10
71.65488550725989
 20
-147.2254665430548
 10
71.76581758188493
 20
-147.1135009397841
 10
71.76581758188493
 20
-147.1135009397841
 10
71.88071151631802
 20
-147.160009728835
 10
71.97700193513076
 20
-147.2171983138902
 10
72.08621146201317
 20
-147.318828630705
 10
72.08621146201317
 20
-147.318828630705
 10
71.96959497983747
 20
-147.4645561697311
 10
71.96959497983747
 20
-147.4645561697311
 97
        0
 97
        0
 75
     2
 76
     1
 98
        0
  0
SPLINE
  5
4D
330
41
100
AcDbEntity
  8
_U+30EC_U+30A4_U+30E4_U+30FC 1
370
     0
100
AcDbSpline
210
0.0
220
0.0
230
1.0
 70
    11
 71
     3
 72
   113
 73
   109
 74
     0
 42
0.0000000001
 43
0.0000000001
 12
1.0
 22
0.0
 32
0.0
 13
1.0
 23
0.0
 33
0.0
 40
0.0
 40
0.0
 40
0.0
 40
0.0
 40
1.0
 40
1.0
 40
1.0
 40
2.0
 40
2.0
 40
2.0
 40
3.0
 40
3.0
 40
3.0
 40
4.0
 40
4.0
 40
4.0
 40
5.0
 40
5.0
 40
5.0
 40
6.0
 40
6.0
 40
6.0
 40
7.0
 40
7.0
 40
7.0
 40
8.0
 40
8.0
 40
8.0
 40
9.0
 40
9.0
 40
9.0
 40
10.0
 40
10.0
 40
10.0
 40
11.0
 40
11.0
 40
11.0
 40
12.0
 40
12.0
 40
12.0
 40
13.0
 40
13.0
 40
13.0
 40
14.0
 40
14.0
 40
14.0
 40
15.0
 40
15.0
 40
15.0
 40
16.0
 40
16.0
 40
16.0
 40
17.0
 40
17.0
 40
17.0
 40
18.0
 40
18.0
 40
18.0
 40
19.0
 40
19.0
 40
19.0
 40
20.0
 40
20.0
 40
20.0
 40
21.0
 40
21.0
 40
21.0
 40
22.0
 40
22.0
 40
22.0
 40
23.0
 40
23.0
 40
23.0
 40
24.0
 40
24.0
 40
24.0
 40
25.0
 40
25.0
 40
25.0
 40
26.0
 40
26.0
 40
26.0
 40
27.0
 40
27.0
 40
27.0
 40
28.0
 40
28.0
 40
28.0
 40
29.0
 40
29.0
 40
29.0
 40
30.0
 40
30.0
 40
30.0
 40
31.0
 40
31.0
 40
31.0
 40
32.0
 40
32.0
 40
32.0
 40
33.0
 40
33.0
 40
33.0
 40
34.0
 40
34.0
 40
34.0
 40
35.0
 40
35.0
 40
35.0
 40
36.0
 40
36.0
 40
36.0
 40
36.0
 10
73.61617836701262
 20
-147.4414740299799
 30
0.0
 10
73.61617836701262
 20
-147.4414740299799
 30
0.0
 10
73.70316702801519
 20
-147.5406927799551
 30
0.0
 10
73.70316702801519
 20
-147.5406927799551
 30
0.0
 10
73.71246878582537
 20
-147.5513725759594
 30
0.0
 10
73.72177054363553
 20
-147.5641194292548
 30
0.0
 10
73.72177054363553
 20
-147.5789333398414
 30
0.0
 10
73.72177054363553
 20
-147.5810003971325
 30
0.0
 10
73.72177054363553
 20
-147.6106282183057
 30
0.0
 10
73.6883531174286
 20
-147.6106282183057
 30
0.0
 10
73.68094616213533
 20
-147.6106282183057
 30
0.0
 10
73.64580618818577
 20
-147.6064941037234
 30
0.0
 10
73.64029403540937
 20
-147.6064941037234
 30
0.0
 10
73.60515406145983
 20
-147.6381889821877
 30
0.0
 10
73.56432967995961
 20
-147.6719509179431
 30
0.0
 10
73.47734101895706
 20
-147.7291395029983
 30
0.0
 10
73.60515406145983
 20
-147.8369709916866
 30
0.0
 10
73.74399140951539
 20
-147.8941595767417
 30
0.0
 10
73.98290878141746
 20
-147.9320556270795
 30
0.0
 10
73.98290878141746
 20
-147.9320556270795
 30
0.0
 10
73.85130613388093
 20
-148.1077554968272
 30
0.0
 10
73.85130613388093
 20
-148.1077554968272
 30
0.0
 10
73.62169051978903
 20
-148.0357530011855
 30
0.0
 10
73.48474797425034
 20
-147.9468695376661
 30
0.0
 10
73.41808537661076
 20
-147.8941595767417
 30
0.0
 10
73.28665498384848
 20
-147.7925292599269
 30
0.0
 10
73.1607367438626
 20
-147.6295762434746
 30
0.0
 10
73.09407414622301
 20
-147.4645561697311
 30
0.0
 10
73.03481850387672
 20
-147.5303574934994
 30
0.0
 10
72.96987845397976
 20
-147.5830674544237
 30
0.0
 10
72.90149330859755
 20
-147.6316433007657
 30
0.0
 10
72.90149330859755
 20
-147.6316433007657
 30
0.0
 10
72.90149330859755
 20
-147.8834797807375
 30
0.0
 10
72.90149330859755
 20
-147.8834797807375
 30
0.0
 10
73.04394800691263
 20
-147.8579860741466
 30
0.0
 10
73.20690102336495
 20
-147.8135443423869
 30
0.0
 10
73.26253931545173
 20
-147.7987304318003
 30
0.0
 10
73.26253931545173
 20
-147.7987304318003
 30
0.0
 10
73.2365288445381
 20
-147.9682291296746
 30
0.0
 10
73.2365288445381
 20
-147.9682291296746
 30
0.0
 10
73.23480629679547
 20
-147.9682291296746
 30
0.0
 10
73.218097583692
 20
-147.9744303015481
 30
0.0
 10
73.21620278117511
 20
-147.9744303015481
 30
0.0
 10
73.04222545917
 20
-148.0126708614343
 30
0.0
 10
72.76437850828461
 20
-148.0781276756541
 30
0.0
 10
72.59212373402211
 20
-148.1139566687007
 30
0.0
 10
72.5829942309862
 20
-148.1311821461269
 30
0.0
 10
72.56249591284896
 20
-148.1628770245912
 30
0.0
 10
72.54216984948599
 20
-148.1628770245912
 30
0.0
 10
72.51805418108924
 20
-148.1628770245912
 30
0.0
 10
72.51443683082972
 20
-148.1435844898738
 30
0.0
 10
72.51254202831284
 20
-148.124636464705
 30
0.0
 10
72.51254202831284
 20
-148.124636464705
 30
0.0
 10
72.49032116243298
 20
-147.9513481617969
 30
0.0
 10
72.49032116243298
 20
-147.9513481617969
 30
0.0
 10
72.55508895755568
 20
-147.9427354230838
 30
0.0
 10
72.64965682862578
 20
-147.9299885697883
 30
0.0
 10
72.74405244492164
 20
-147.9089734873283
 30
0.0
 10
72.74405244492164
 20
-147.9089734873283
 30
0.0
 10
72.74405244492164
 20
-147.7312065602894
 30
0.0
 10
72.74405244492164
 20
-147.7312065602894
 30
0.0
 10
72.61813420493574
 20
-147.8032090559311
 30
0.0
 10
72.5347628941927
 20
-147.8328368771043
 30
0.0
 10
72.39041339336073
 20
-147.8624646982774
 30
0.0
 10
72.39041339336073
 20
-147.8624646982774
 30
0.0
 10
72.28482121673783
 20
-147.6929660004031
 30
0.0
 10
72.28482121673783
 20
-147.6929660004031
 30
0.0
 10
72.56249591284896
 20
-147.6657497460697
 30
0.0
 10
72.73113333685194
 20
-147.5723876584194
 30
0.0
 10
72.88667939801097
 20
-147.4394069726888
 30
0.0
 10
72.7588663555082
 20
-147.4394069726888
 30
0.0
 10
72.49583331520938
 20
-147.4435410872711
 30
0.0
 10
72.32375079572115
 20
-147.4497422591445
 30
0.0
 10
72.32375079572115
 20
-147.4497422591445
 30
0.0
 10
72.32375079572115
 20
-147.2719753321056
 30
0.0
 10
72.32375079572115
 20
-147.2719753321056
 30
0.0
 10
72.45879853874294
 20
-147.2785210135276
 30
0.0
 10
72.71804197400799
 20
-147.2847221854011
 30
0.0
 10
72.87927244271769
 20
-147.2847221854011
 30
0.0
 10
72.87927244271769
 20
-147.2847221854011
 30
0.0
 10
73.06444632504986
 20
-147.2847221854011
 30
0.0
 10
73.06444632504986
 20
-147.2847221854011
 30
0.0
 10
73.06444632504986
 20
-147.1896375500081
 30
0.0
 10
73.06255152253297
 20
-147.138994646375
 30
0.0
 10
73.05703936975658
 20
-147.0924858573241
 30
0.0
 10
73.05703936975658
 20
-147.0924858573241
 30
0.0
 10
73.24583060234826
 20
-147.1093668252018
 30
0.0
 10
73.24583060234826
 20
-147.1093668252018
 30
0.0
 10
73.28837753159111
 20
-147.1135009397841
 30
0.0
 10
73.29578448688439
 20
-147.1283148503707
 30
0.0
 10
73.29578448688439
 20
-147.1431287609573
 30
0.0
 10
73.29578448688439
 20
-147.1686224675481
 30
0.0
 10
73.28097057629782
 20
-147.1768906967127
 30
0.0
 10
73.2365288445381
 20
-147.2023844033036
 30
0.0
 10
73.23480629679547
 20
-147.2275336003459
 30
0.0
 10
73.23480629679547
 20
-147.2340792817679
 30
0.0
 10
73.23291149427858
 20
-147.2847221854011
 30
0.0
 10
73.23291149427858
 20
-147.2847221854011
 30
0.0
 10
73.43479408971422
 20
-147.2847221854011
 30
0.0
 10
73.43479408971422
 20
-147.2847221854011
 30
0.0
 10
73.5791435905462
 20
-147.2847221854011
 30
0.0
 10
73.83476967555173
 20
-147.2785210135276
 30
0.0
 10
73.99203828445339
 20
-147.2719753321056
 30
0.0
 10
73.99203828445339
 20
-147.2719753321056
 30
0.0
 10
73.99203828445339
 20
-147.4497422591445
 30
0.0
 10
73.99203828445339
 20
-147.4497422591445
 30
0.0
 10
73.87921140731144
 20
-147.4456081445622
 30
0.0
 10
73.85871308917422
 20
-147.4456081445622
 30
0.0
 10
73.61617836701262
 20
-147.4414740299799
 30
0.0
  0
SPLINE
  5
4E
330
41
100
AcDbEntity
  8
_U+30EC_U+30A4_U+30E4_U+30FC 1
370
     0
100
AcDbSpline
210
0.0
220
0.0
230
1.0
 70
    11
 71
     3
 72
    23
 73
    19
 74
     0
 42
0.0000000001
 43
0.0000000001
 12
1.0
 22
0.0
 32
0.0
 13
1.0
 23
0.0
 33
0.0
 40
0.0
 40
0.0
 40
0.0
 40
0.0
 40
1.0
 40
1.0
 40
1.0
 40
2.0
 40
2.0
 40
2.0
 40
3.0
 40
3.0
 40
3.0
 40
4.0
 40
4.0
 40
4.0
 40
5.0
 40
5.0
 40
5.0
 40
6.0
 40
6.0
 40
6.0
 40
6.0
 10
72.49221596494986
 20
-147.0900742904844
 30
0.0
 10
72.4774020543633
 20
-147.1303819076618
 30
0.0
 10
72.47188990158689
 20
-147.1472628755396
 30
0.0
 10
72.45328638596655
 20
-147.1472628755396
 30
0.0
 10
72.44036727789685
 20
-147.1472628755396
 30
0.0
 10
72.43106552008668
 20
-147.1303819076618
 30
0.0
 10
72.42555336731029
 20
-147.1176350543664
 30
0.0
 10
72.42555336731029
 20
-147.1176350543664
 30
0.0
 10
72.33856470630772
 20
-146.952614980623
 30
0.0
 10
72.33856470630772
 20
-146.952614980623
 30
0.0
 10
72.42744816982717
 20
-146.9209201021587
 30
0.0
 10
72.55887856258946
 20
-146.8657985743947
 30
0.0
 10
72.73285588459457
 20
-146.7031900674909
 30
0.0
 10
72.73285588459457
 20
-146.7031900674909
 30
0.0
 10
72.78298202390495
 20
-146.876478370399
 30
0.0
 10
72.78298202390495
 20
-146.876478370399
 30
0.0
 10
72.70150551567879
 20
-146.959160662045
 30
0.0
 10
72.62364635771215
 20
-147.0160047375516
 30
0.0
 10
72.49221596494986
 20
-147.0900742904844
 30
0.0
  0
SPLINE
  5
4F
330
41
100
AcDbEntity
  8
_U+30EC_U+30A4_U+30E4_U+30FC 1
370
     0
100
AcDbSpline
210
0.0
220
0.0
230
1.0
 70
    11
 71
     3
 72
    17
 73
    13
 74
     0
 42
0.0000000001
 43
0.0000000001
 12
1.0
 22
0.0
 32
0.0
 13
1.0
 23
0.0
 33
0.0
 40
0.0
 40
0.0
 40
0.0
 40
0.0
 40
1.0
 40
1.0
 40
1.0
 40
2.0
 40
2.0
 40
2.0
 40
3.0
 40
3.0
 40
3.0
 40
4.0
 40
4.0
 40
4.0
 40
4.0
 10
72.62554116022903
 20
-146.6246418904272
 30
0.0
 10
72.5995306893154
 20
-146.5846787827983
 30
0.0
 10
72.5402750469691
 20
-146.4871825805657
 30
0.0
 10
72.38111163555055
 20
-146.3772840345862
 30
0.0
 10
72.38111163555055
 20
-146.3772840345862
 30
0.0
 10
72.49221596494986
 20
-146.2439588393071
 30
0.0
 10
72.49221596494986
 20
-146.2439588393071
 30
0.0
 10
72.65516898140218
 20
-146.3455891561219
 30
0.0
 10
72.7051228659383
 20
-146.4344726196414
 30
0.0
 10
72.72923853433505
 20
-146.47684729411
 30
0.0
 10
72.72923853433505
 20
-146.47684729411
 30
0.0
 10
72.62554116022903
 20
-146.6246418904272
 30
0.0
 10
72.62554116022903
 20
-146.6246418904272
 30
0.0
  0
SPLINE
  5
50
330
41
100
AcDbEntity
  8
_U+30EC_U+30A4_U+30E4_U+30FC 1
370
     0
100
AcDbSpline
210
0.0
220
0.0
230
1.0
 70
    11
 71
     3
 72
    38
 73
    34
 74
     0
 42
0.0000000001
 43
0.0000000001
 12
1.0
 22
0.0
 32
0.0
 13
1.0
 23
0.0
 33
0.0
 40
0.0
 40
0.0
 40
0.0
 40
0.0
 40
1.0
 40
1.0
 40
1.0
 40
2.0
 40
2.0
 40
2.0
 40
3.0
 40
3.0
 40
3.0
 40
4.0
 40
4.0
 40
4.0
 40
5.0
 40
5.0
 40
5.0
 40
6.0
 40
6.0
 40
6.0
 40
7.0
 40
7.0
 40
7.0
 40
8.0
 40
8.0
 40
8.0
 40
9.0
 40
9.0
 40
9.0
 40
10.0
 40
10.0
 40
10.0
 40
11.0
 40
11.0
 40
11.0
 40
11.0
 10
72.9476575880999
 20
-146.3200954495311
 30
0.0
 10
72.94593504035727
 20
-146.366604238582
 30
0.0
 10
72.94404023784038
 20
-146.4830484659834
 30
0.0
 10
72.94404023784038
 20
-146.5274901977431
 30
0.0
 10
72.94404023784038
 20
-146.5274901977431
 30
0.0
 10
72.94404023784038
 20
-146.8744113131078
 30
0.0
 10
72.94404023784038
 20
-146.8744113131078
 30
0.0
 10
72.94404023784038
 20
-146.9612277193361
 30
0.0
 10
72.94593504035727
 20
-147.1028211437799
 30
0.0
 10
72.95506454339318
 20
-147.2233994857636
 30
0.0
 10
72.95506454339318
 20
-147.2233994857636
 30
0.0
 10
72.78849417668135
 20
-147.2233994857636
 30
0.0
 10
72.78849417668135
 20
-147.2233994857636
 30
0.0
 10
72.79211152694086
 20
-147.160009728835
 30
0.0
 10
72.79590113197465
 20
-147.1069552583621
 30
0.0
 10
72.79779593449153
 20
-147.0521782401467
 30
0.0
 10
72.79951848223415
 20
-146.9295328408718
 30
0.0
 10
72.80141328475104
 20
-146.9147189302852
 30
0.0
 10
72.80141328475104
 20
-146.8702771985255
 30
0.0
 10
72.80141328475104
 20
-146.8702771985255
 30
0.0
 10
72.80141328475104
 20
-146.5485052802032
 30
0.0
 10
72.80141328475104
 20
-146.5485052802032
 30
0.0
 10
72.80141328475104
 20
-146.4937282619877
 30
0.0
 10
72.79038897919824
 20
-146.2546386353114
 30
0.0
 10
72.78849417668135
 20
-146.2036512221297
 30
0.0
 10
72.78849417668135
 20
-146.2036512221297
 30
0.0
 10
72.96436630120336
 20
-146.2312119860117
 30
0.0
 10
72.96436630120336
 20
-146.2312119860117
 30
0.0
 10
72.98296981682371
 20
-146.2332790433028
 30
0.0
 10
73.01070283547996
 20
-146.2377576674336
 30
0.0
 10
73.01070283547996
 20
-146.262906864476
 30
0.0
 10
73.01070283547996
 20
-146.290467628358
 30
0.0
 10
72.96626110372024
 20
-146.3118272203665
 30
0.0
 10
72.9476575880999
 20
-146.3200954495311
 30
0.0
  0
SPLINE
  5
51
330
41
100
AcDbEntity
  8
_U+30EC_U+30A4_U+30E4_U+30FC 1
370
     0
100
AcDbSpline
210
0.0
220
0.0
230
1.0
 70
    11
 71
     3
 72
    83
 73
    79
 74
     0
 42
0.0000000001
 43
0.0000000001
 12
1.0
 22
0.0
 32
0.0
 13
1.0
 23
0.0
 33
0.0
 40
0.0
 40
0.0
 40
0.0
 40
0.0
 40
1.0
 40
1.0
 40
1.0
 40
2.0
 40
2.0
 40
2.0
 40
3.0
 40
3.0
 40
3.0
 40
4.0
 40
4.0
 40
4.0
 40
5.0
 40
5.0
 40
5.0
 40
6.0
 40
6.0
 40
6.0
 40
7.0
 40
7.0
 40
7.0
 40
8.0
 40
8.0
 40
8.0
 40
9.0
 40
9.0
 40
9.0
 40
10.0
 40
10.0
 40
10.0
 40
11.0
 40
11.0
 40
11.0
 40
12.0
 40
12.0
 40
12.0
 40
13.0
 40
13.0
 40
13.0
 40
14.0
 40
14.0
 40
14.0
 40
15.0
 40
15.0
 40
15.0
 40
16.0
 40
16.0
 40
16.0
 40
17.0
 40
17.0
 40
17.0
 40
18.0
 40
18.0
 40
18.0
 40
19.0
 40
19.0
 40
19.0
 40
20.0
 40
20.0
 40
20.0
 40
21.0
 40
21.0
 40
21.0
 40
22.0
 40
22.0
 40
22.0
 40
23.0
 40
23.0
 40
23.0
 40
24.0
 40
24.0
 40
24.0
 40
25.0
 40
25.0
 40
25.0
 40
26.0
 40
26.0
 40
26.0
 40
26.0
 10
73.64959579321955
 20
-146.6418673678534
 30
0.0
 10
73.64959579321955
 20
-146.6418673678534
 30
0.0
 10
73.56432967995961
 20
-146.6418673678534
 30
0.0
 10
73.56432967995961
 20
-146.6418673678534
 30
0.0
 10
73.56432967995961
 20
-146.6418673678534
 30
0.0
 10
73.56432967995961
 20
-146.8892252236944
 30
0.0
 10
73.56432967995961
 20
-146.8892252236944
 30
0.0
 10
73.56432967995961
 20
-146.8892252236944
 30
0.0
 10
73.6365044303756
 20
-146.8892252236944
 30
0.0
 10
73.6365044303756
 20
-146.8892252236944
 30
0.0
 10
73.69403752497927
 20
-146.8892252236944
 30
0.0
 10
73.81616615993138
 20
-146.8850911091121
 30
0.0
 10
73.90315482093393
 20
-146.876478370399
 30
0.0
 10
73.90315482093393
 20
-146.876478370399
 30
0.0
 10
73.90315482093393
 20
-147.056312354729
 30
0.0
 10
73.90315482093393
 20
-147.056312354729
 30
0.0
 10
73.82167831270777
 20
-147.0480441255644
 30
0.0
 10
73.69024791994549
 20
-147.0435655014336
 30
0.0
 10
73.6365044303756
 20
-147.0435655014336
 30
0.0
 10
73.6365044303756
 20
-147.0435655014336
 30
0.0
 10
73.36985403981726
 20
-147.0435655014336
 30
0.0
 10
73.36985403981726
 20
-147.0435655014336
 30
0.0
 10
73.32368976031492
 20
-147.0435655014336
 30
0.0
 10
73.19587671781214
 20
-147.0480441255644
 30
0.0
 10
73.10320364925893
 20
-147.056312354729
 30
0.0
 10
73.10320364925893
 20
-147.056312354729
 30
0.0
 10
73.10320364925893
 20
-146.876478370399
 30
0.0
 10
73.10320364925893
 20
-146.876478370399
 30
0.0
 10
73.19036456503575
 20
-146.8850911091121
 30
0.0
 10
73.31249319998786
 20
-146.8892252236944
 30
0.0
 10
73.36985403981726
 20
-146.8892252236944
 30
0.0
 10
73.36985403981726
 20
-146.8892252236944
 30
0.0
 10
73.40878361880058
 20
-146.8892252236944
 30
0.0
 10
73.40878361880058
 20
-146.8892252236944
 30
0.0
 10
73.40878361880058
 20
-146.8892252236944
 30
0.0
 10
73.40878361880058
 20
-146.6418673678534
 30
0.0
 10
73.40878361880058
 20
-146.6418673678534
 30
0.0
 10
73.40878361880058
 20
-146.6418673678534
 30
0.0
 10
73.34401582367789
 20
-146.6418673678534
 30
0.0
 10
73.34401582367789
 20
-146.6418673678534
 30
0.0
 10
73.290272334108
 20
-146.6418673678534
 30
0.0
 10
73.14402803075913
 20
-146.6460014824357
 30
0.0
 10
73.03843585413622
 20
-146.6542697116003
 30
0.0
 10
73.03843585413622
 20
-146.6542697116003
 30
0.0
 10
73.03843585413622
 20
-146.47684729411
 30
0.0
 10
73.03843585413622
 20
-146.47684729411
 30
0.0
 10
73.13851587798274
 20
-146.4830484659834
 30
0.0
 10
73.2773532260383
 20
-146.4871825805657
 30
0.0
 10
73.34401582367789
 20
-146.4871825805657
 30
0.0
 10
73.34401582367789
 20
-146.4871825805657
 30
0.0
 10
73.4068888162837
 20
-146.4871825805657
 30
0.0
 10
73.4068888162837
 20
-146.4871825805657
 30
0.0
 10
73.40327146602418
 20
-146.3349093601177
 30
0.0
 10
73.40137666350729
 20
-146.3011474243622
 30
0.0
 10
73.3958645107309
 20
-146.2081298462605
 30
0.0
 10
73.3958645107309
 20
-146.2081298462605
 30
0.0
 10
73.58103839306308
 20
-146.2312119860117
 30
0.0
 10
73.58103839306308
 20
-146.2312119860117
 30
0.0
 10
73.60325925894294
 20
-146.2332790433028
 30
0.0
 10
73.62358532230591
 20
-146.2377576674336
 30
0.0
 10
73.62358532230591
 20
-146.2608398071848
 30
0.0
 10
73.62358532230591
 20
-146.2925346856491
 30
0.0
 10
73.58465574332259
 20
-146.3094156535268
 30
0.0
 10
73.56432967995961
 20
-146.3180283922399
 30
0.0
 10
73.56432967995961
 20
-146.3180283922399
 30
0.0
 10
73.56432967995961
 20
-146.4871825805657
 30
0.0
 10
73.56432967995961
 20
-146.4871825805657
 30
0.0
 10
73.56432967995961
 20
-146.4871825805657
 30
0.0
 10
73.64959579321955
 20
-146.4871825805657
 30
0.0
 10
73.64959579321955
 20
-146.4871825805657
 30
0.0
 10
73.71625839085914
 20
-146.4871825805657
 30
0.0
 10
73.8550957389147
 20
-146.4830484659834
 30
0.0
 10
73.95689831050383
 20
-146.47684729411
 30
0.0
 10
73.95689831050383
 20
-146.47684729411
 30
0.0
 10
73.95689831050383
 20
-146.6542697116003
 30
0.0
 10
73.95689831050383
 20
-146.6542697116003
 30
0.0
 10
73.86250269420799
 20
-146.6480685397269
 30
0.0
 10
73.71057398330846
 20
-146.6418673678534
 30
0.0
 10
73.64959579321955
 20
-146.6418673678534
 30
0.0
  0
SPLINE
  5
52
330
41
100
AcDbEntity
  8
_U+30EC_U+30A4_U+30E4_U+30FC 1
370
     0
100
AcDbSpline
210
0.0
220
0.0
230
1.0
 70
    11
 71
     3
 72
    17
 73
    13
 74
     0
 42
0.0000000001
 43
0.0000000001
 12
1.0
 22
0.0
 32
0.0
 13
1.0
 23
0.0
 33
0.0
 40
0.0
 40
0.0
 40
0.0
 40
0.0
 40
1.0
 40
1.0
 40
1.0
 40
2.0
 40
2.0
 40
2.0
 40
3.0
 40
3.0
 40
3.0
 40
4.0
 40
4.0
 40
4.0
 40
4.0
 10
73.43479408971422
 20
-147.4394069726888
 30
0.0
 10
73.43479408971422
 20
-147.4394069726888
 30
0.0
 10
73.25702716267533
 20
-147.4394069726888
 30
0.0
 10
73.25702716267533
 20
-147.4394069726888
 30
0.0
 10
73.28097057629782
 20
-147.4983181054865
 30
0.0
 10
73.32920191309131
 20
-147.5703206011283
 30
0.0
 10
73.35331758148806
 20
-147.5999484223014
 30
0.0
 10
73.37726099511055
 20
-147.5851345117148
 30
0.0
 10
73.47734101895706
 20
-147.5217447547862
 30
0.0
 10
73.55692272466632
 20
-147.4394069726888
 30
0.0
 10
73.55692272466632
 20
-147.4394069726888
 30
0.0
 10
73.43479408971422
 20
-147.4394069726888
 30
0.0
 10
73.43479408971422
 20
-147.4394069726888
 30
0.0
  0
HATCH
  5
53
330
41
100
AcDbEntity
  8
_U+30EC_U+30A4_U+30E4_U+30FC 1
 62
   179
420
  2234388
100
AcDbHatch
 10
0.0
 20
0.0
 30
0.0
210
0.0
220
0.0
230
1.0
  2
SOLID
 70
     1
 71
     0
 91
        6
 92
        1
 93
        1
 72
     4
 94
        3
 73
     0
 74
     1
 95
      113
 96
      109
 40
0.0
 40
0.0
 40
0.0
 40
0.0
 40
1.0
 40
1.0
 40
1.0
 40
2.0
 40
2.0
 40
2.0
 40
3.0
 40
3.0
 40
3.0
 40
4.0
 40
4.0
 40
4.0
 40
5.0
 40
5.0
 40
5.0
 40
6.0
 40
6.0
 40
6.0
 40
7.0
 40
7.0
 40
7.0
 40
8.0
 40
8.0
 40
8.0
 40
9.0
 40
9.0
 40
9.0
 40
10.0
 40
10.0
 40
10.0
 40
11.0
 40
11.0
 40
11.0
 40
12.0
 40
12.0
 40
12.0
 40
13.0
 40
13.0
 40
13.0
 40
14.0
 40
14.0
 40
14.0
 40
15.0
 40
15.0
 40
15.0
 40
16.0
 40
16.0
 40
16.0
 40
17.0
 40
17.0
 40
17.0
 40
18.0
 40
18.0
 40
18.0
 40
19.0
 40
19.0
 40
19.0
 40
20.0
 40
20.0
 40
20.0
 40
21.0
 40
21.0
 40
21.0
 40
22.0
 40
22.0
 40
22.0
 40
23.0
 40
23.0
 40
23.0
 40
24.0
 40
24.0
 40
24.0
 40
25.0
 40
25.0
 40
25.0
 40
26.0
 40
26.0
 40
26.0
 40
27.0
 40
27.0
 40
27.0
 40
28.0
 40
28.0
 40
28.0
 40
29.0
 40
29.0
 40
29.0
 40
30.0
 40
30.0
 40
30.0
 40
31.0
 40
31.0
 40
31.0
 40
32.0
 40
32.0
 40
32.0
 40
33.0
 40
33.0
 40
33.0
 40
34.0
 40
34.0
 40
34.0
 40
35.0
 40
35.0
 40
35.0
 40
36.0
 40
36.0
 40
36.0
 40
36.0
 10
73.61617836701262
 20
-147.4414740299799
 10
73.61617836701262
 20
-147.4414740299799
 10
73.70316702801519
 20
-147.5406927799551
 10
73.70316702801519
 20
-147.5406927799551
 10
73.71246878582537
 20
-147.5513725759594
 10
73.72177054363553
 20
-147.5641194292548
 10
73.72177054363553
 20
-147.5789333398414
 10
73.72177054363553
 20
-147.5810003971325
 10
73.72177054363553
 20
-147.6106282183057
 10
73.6883531174286
 20
-147.6106282183057
 10
73.68094616213533
 20
-147.6106282183057
 10
73.64580618818577
 20
-147.6064941037234
 10
73.64029403540937
 20
-147.6064941037234
 10
73.60515406145983
 20
-147.6381889821877
 10
73.56432967995961
 20
-147.6719509179431
 10
73.47734101895706
 20
-147.7291395029983
 10
73.60515406145983
 20
-147.8369709916866
 10
73.74399140951539
 20
-147.8941595767417
 10
73.98290878141746
 20
-147.9320556270795
 10
73.98290878141746
 20
-147.9320556270795
 10
73.85130613388093
 20
-148.1077554968272
 10
73.85130613388093
 20
-148.1077554968272
 10
73.62169051978903
 20
-148.0357530011855
 10
73.48474797425034
 20
-147.9468695376661
 10
73.41808537661076
 20
-147.8941595767417
 10
73.28665498384848
 20
-147.7925292599269
 10
73.1607367438626
 20
-147.6295762434746
 10
73.09407414622301
 20
-147.4645561697311
 10
73.03481850387672
 20
-147.5303574934994
 10
72.96987845397976
 20
-147.5830674544237
 10
72.90149330859755
 20
-147.6316433007657
 10
72.90149330859755
 20
-147.6316433007657
 10
72.90149330859755
 20
-147.8834797807375
 10
72.90149330859755
 20
-147.8834797807375
 10
73.04394800691263
 20
-147.8579860741466
 10
73.20690102336495
 20
-147.8135443423869
 10
73.26253931545173
 20
-147.7987304318003
 10
73.26253931545173
 20
-147.7987304318003
 10
73.2365288445381
 20
-147.9682291296746
 10
73.2365288445381
 20
-147.9682291296746
 10
73.23480629679547
 20
-147.9682291296746
 10
73.218097583692
 20
-147.9744303015481
 10
73.21620278117511
 20
-147.9744303015481
 10
73.04222545917
 20
-148.0126708614343
 10
72.76437850828461
 20
-148.0781276756541
 10
72.59212373402211
 20
-148.1139566687007
 10
72.5829942309862
 20
-148.1311821461269
 10
72.56249591284896
 20
-148.1628770245912
 10
72.54216984948599
 20
-148.1628770245912
 10
72.51805418108924
 20
-148.1628770245912
 10
72.51443683082972
 20
-148.1435844898738
 10
72.51254202831284
 20
-148.124636464705
 10
72.51254202831284
 20
-148.124636464705
 10
72.49032116243298
 20
-147.9513481617969
 10
72.49032116243298
 20
-147.9513481617969
 10
72.55508895755568
 20
-147.9427354230838
 10
72.64965682862578
 20
-147.9299885697883
 10
72.74405244492164
 20
-147.9089734873283
 10
72.74405244492164
 20
-147.9089734873283
 10
72.74405244492164
 20
-147.7312065602894
 10
72.74405244492164
 20
-147.7312065602894
 10
72.61813420493574
 20
-147.8032090559311
 10
72.5347628941927
 20
-147.8328368771043
 10
72.39041339336073
 20
-147.8624646982774
 10
72.39041339336073
 20
-147.8624646982774
 10
72.28482121673783
 20
-147.6929660004031
 10
72.28482121673783
 20
-147.6929660004031
 10
72.56249591284896
 20
-147.6657497460697
 10
72.73113333685194
 20
-147.5723876584194
 10
72.88667939801097
 20
-147.4394069726888
 10
72.7588663555082
 20
-147.4394069726888
 10
72.49583331520938
 20
-147.4435410872711
 10
72.32375079572115
 20
-147.4497422591445
 10
72.32375079572115
 20
-147.4497422591445
 10
72.32375079572115
 20
-147.2719753321056
 10
72.32375079572115
 20
-147.2719753321056
 10
72.45879853874294
 20
-147.2785210135276
 10
72.71804197400799
 20
-147.2847221854011
 10
72.87927244271769
 20
-147.2847221854011
 10
72.87927244271769
 20
-147.2847221854011
 10
73.06444632504986
 20
-147.2847221854011
 10
73.06444632504986
 20
-147.2847221854011
 10
73.06444632504986
 20
-147.1896375500081
 10
73.06255152253297
 20
-147.138994646375
 10
73.05703936975658
 20
-147.0924858573241
 10
73.05703936975658
 20
-147.0924858573241
 10
73.24583060234826
 20
-147.1093668252018
 10
73.24583060234826
 20
-147.1093668252018
 10
73.28837753159111
 20
-147.1135009397841
 10
73.29578448688439
 20
-147.1283148503707
 10
73.29578448688439
 20
-147.1431287609573
 10
73.29578448688439
 20
-147.1686224675481
 10
73.28097057629782
 20
-147.1768906967127
 10
73.2365288445381
 20
-147.2023844033036
 10
73.23480629679547
 20
-147.2275336003459
 10
73.23480629679547
 20
-147.2340792817679
 10
73.23291149427858
 20
-147.2847221854011
 10
73.23291149427858
 20
-147.2847221854011
 10
73.43479408971422
 20
-147.2847221854011
 10
73.43479408971422
 20
-147.2847221854011
 10
73.5791435905462
 20
-147.2847221854011
 10
73.83476967555173
 20
-147.2785210135276
 10
73.99203828445339
 20
-147.2719753321056
 10
73.99203828445339
 20
-147.2719753321056
 10
73.99203828445339
 20
-147.4497422591445
 10
73.99203828445339
 20
-147.4497422591445
 10
73.87921140731144
 20
-147.4456081445622
 10
73.85871308917422
 20
-147.4456081445622
 10
73.61617836701262
 20
-147.4414740299799
 97
        0
 97
        0
 92
        1
 93
        1
 72
     4
 94
        3
 73
     0
 74
     1
 95
       23
 96
       19
 40
0.0
 40
0.0
 40
0.0
 40
0.0
 40
1.0
 40
1.0
 40
1.0
 40
2.0
 40
2.0
 40
2.0
 40
3.0
 40
3.0
 40
3.0
 40
4.0
 40
4.0
 40
4.0
 40
5.0
 40
5.0
 40
5.0
 40
6.0
 40
6.0
 40
6.0
 40
6.0
 10
72.49221596494986
 20
-147.0900742904844
 10
72.4774020543633
 20
-147.1303819076618
 10
72.47188990158689
 20
-147.1472628755396
 10
72.45328638596655
 20
-147.1472628755396
 10
72.44036727789685
 20
-147.1472628755396
 10
72.43106552008668
 20
-147.1303819076618
 10
72.42555336731029
 20
-147.1176350543664
 10
72.42555336731029
 20
-147.1176350543664
 10
72.33856470630772
 20
-146.952614980623
 10
72.33856470630772
 20
-146.952614980623
 10
72.42744816982717
 20
-146.9209201021587
 10
72.55887856258946
 20
-146.8657985743947
 10
72.73285588459457
 20
-146.7031900674909
 10
72.73285588459457
 20
-146.7031900674909
 10
72.78298202390495
 20
-146.876478370399
 10
72.78298202390495
 20
-146.876478370399
 10
72.70150551567879
 20
-146.959160662045
 10
72.62364635771215
 20
-147.0160047375516
 10
72.49221596494986
 20
-147.0900742904844
 97
        0
 97
        0
 92
        1
 93
        1
 72
     4
 94
        3
 73
     0
 74
     1
 95
       17
 96
       13
 40
0.0
 40
0.0
 40
0.0
 40
0.0
 40
1.0
 40
1.0
 40
1.0
 40
2.0
 40
2.0
 40
2.0
 40
3.0
 40
3.0
 40
3.0
 40
4.0
 40
4.0
 40
4.0
 40
4.0
 10
72.62554116022903
 20
-146.6246418904272
 10
72.5995306893154
 20
-146.5846787827983
 10
72.5402750469691
 20
-146.4871825805657
 10
72.38111163555055
 20
-146.3772840345862
 10
72.38111163555055
 20
-146.3772840345862
 10
72.49221596494986
 20
-146.2439588393071
 10
72.49221596494986
 20
-146.2439588393071
 10
72.65516898140218
 20
-146.3455891561219
 10
72.7051228659383
 20
-146.4344726196414
 10
72.72923853433505
 20
-146.47684729411
 10
72.72923853433505
 20
-146.47684729411
 10
72.62554116022903
 20
-146.6246418904272
 10
72.62554116022903
 20
-146.6246418904272
 97
        0
 97
        0
 92
        1
 93
        1
 72
     4
 94
        3
 73
     0
 74
     1
 95
       38
 96
       34
 40
0.0
 40
0.0
 40
0.0
 40
0.0
 40
1.0
 40
1.0
 40
1.0
 40
2.0
 40
2.0
 40
2.0
 40
3.0
 40
3.0
 40
3.0
 40
4.0
 40
4.0
 40
4.0
 40
5.0
 40
5.0
 40
5.0
 40
6.0
 40
6.0
 40
6.0
 40
7.0
 40
7.0
 40
7.0
 40
8.0
 40
8.0
 40
8.0
 40
9.0
 40
9.0
 40
9.0
 40
10.0
 40
10.0
 40
10.0
 40
11.0
 40
11.0
 40
11.0
 40
11.0
 10
72.9476575880999
 20
-146.3200954495311
 10
72.94593504035727
 20
-146.366604238582
 10
72.94404023784038
 20
-146.4830484659834
 10
72.94404023784038
 20
-146.5274901977431
 10
72.94404023784038
 20
-146.5274901977431
 10
72.94404023784038
 20
-146.8744113131078
 10
72.94404023784038
 20
-146.8744113131078
 10
72.94404023784038
 20
-146.9612277193361
 10
72.94593504035727
 20
-147.1028211437799
 10
72.95506454339318
 20
-147.2233994857636
 10
72.95506454339318
 20
-147.2233994857636
 10
72.78849417668135
 20
-147.2233994857636
 10
72.78849417668135
 20
-147.2233994857636
 10
72.79211152694086
 20
-147.160009728835
 10
72.79590113197465
 20
-147.1069552583621
 10
72.79779593449153
 20
-147.0521782401467
 10
72.79951848223415
 20
-146.9295328408718
 10
72.80141328475104
 20
-146.9147189302852
 10
72.80141328475104
 20
-146.8702771985255
 10
72.80141328475104
 20
-146.8702771985255
 10
72.80141328475104
 20
-146.5485052802032
 10
72.80141328475104
 20
-146.5485052802032
 10
72.80141328475104
 20
-146.4937282619877
 10
72.79038897919824
 20
-146.2546386353114
 10
72.78849417668135
 20
-146.2036512221297
 10
72.78849417668135
 20
-146.2036512221297
 10
72.96436630120336
 20
-146.2312119860117
 10
72.96436630120336
 20
-146.2312119860117
 10
72.98296981682371
 20
-146.2332790433028
 10
73.01070283547996
 20
-146.2377576674336
 10
73.01070283547996
 20
-146.262906864476
 10
73.01070283547996
 20
-146.290467628358
 10
72.96626110372024
 20
-146.3118272203665
 10
72.9476575880999
 20
-146.3200954495311
 97
        0
 97
        0
 92
        1
 93
        1
 72
     4
 94
        3
 73
     0
 74
     1
 95
       83
 96
       79
 40
0.0
 40
0.0
 40
0.0
 40
0.0
 40
1.0
 40
1.0
 40
1.0
 40
2.0
 40
2.0
 40
2.0
 40
3.0
 40
3.0
 40
3.0
 40
4.0
 40
4.0
 40
4.0
 40
5.0
 40
5.0
 40
5.0
 40
6.0
 40
6.0
 40
6.0
 40
7.0
 40
7.0
 40
7.0
 40
8.0
 40
8.0
 40
8.0
 40
9.0
 40
9.0
 40
9.0
 40
10.0
 40
10.0
 40
10.0
 40
11.0
 40
11.0
 40
11.0
 40
12.0
 40
12.0
 40
12.0
 40
13.0
 40
13.0
 40
13.0
 40
14.0
 40
14.0
 40
14.0
 40
15.0
 40
15.0
 40
15.0
 40
16.0
 40
16.0
 40
16.0
 40
17.0
 40
17.0
 40
17.0
 40
18.0
 40
18.0
 40
18.0
 40
19.0
 40
19.0
 40
19.0
 40
20.0
 40
20.0
 40
20.0
 40
21.0
 40
21.0
 40
21.0
 40
22.0
 40
22.0
 40
22.0
 40
23.0
 40
23.0
 40
23.0
 40
24.0
 40
24.0
 40
24.0
 40
25.0
 40
25.0
 40
25.0
 40
26.0
 40
26.0
 40
26.0
 40
26.0
 10
73.64959579321955
 20
-146.6418673678534
 10
73.64959579321955
 20
-146.6418673678534
 10
73.56432967995961
 20
-146.6418673678534
 10
73.56432967995961
 20
-146.6418673678534
 10
73.56432967995961
 20
-146.6418673678534
 10
73.56432967995961
 20
-146.8892252236944
 10
73.56432967995961
 20
-146.8892252236944
 10
73.56432967995961
 20
-146.8892252236944
 10
73.6365044303756
 20
-146.8892252236944
 10
73.6365044303756
 20
-146.8892252236944
 10
73.69403752497927
 20
-146.8892252236944
 10
73.81616615993138
 20
-146.8850911091121
 10
73.90315482093393
 20
-146.876478370399
 10
73.90315482093393
 20
-146.876478370399
 10
73.90315482093393
 20
-147.056312354729
 10
73.90315482093393
 20
-147.056312354729
 10
73.82167831270777
 20
-147.0480441255644
 10
73.69024791994549
 20
-147.0435655014336
 10
73.6365044303756
 20
-147.0435655014336
 10
73.6365044303756
 20
-147.0435655014336
 10
73.36985403981726
 20
-147.0435655014336
 10
73.36985403981726
 20
-147.0435655014336
 10
73.32368976031492
 20
-147.0435655014336
 10
73.19587671781214
 20
-147.0480441255644
 10
73.10320364925893
 20
-147.056312354729
 10
73.10320364925893
 20
-147.056312354729
 10
73.10320364925893
 20
-146.876478370399
 10
73.10320364925893
 20
-146.876478370399
 10
73.19036456503575
 20
-146.8850911091121
 10
73.31249319998786
 20
-146.8892252236944
 10
73.36985403981726
 20
-146.8892252236944
 10
73.36985403981726
 20
-146.8892252236944
 10
73.40878361880058
 20
-146.8892252236944
 10
73.40878361880058
 20
-146.8892252236944
 10
73.40878361880058
 20
-146.8892252236944
 10
73.40878361880058
 20
-146.6418673678534
 10
73.40878361880058
 20
-146.6418673678534
 10
73.40878361880058
 20
-146.6418673678534
 10
73.34401582367789
 20
-146.6418673678534
 10
73.34401582367789
 20
-146.6418673678534
 10
73.290272334108
 20
-146.6418673678534
 10
73.14402803075913
 20
-146.6460014824357
 10
73.03843585413622
 20
-146.6542697116003
 10
73.03843585413622
 20
-146.6542697116003
 10
73.03843585413622
 20
-146.47684729411
 10
73.03843585413622
 20
-146.47684729411
 10
73.13851587798274
 20
-146.4830484659834
 10
73.2773532260383
 20
-146.4871825805657
 10
73.34401582367789
 20
-146.4871825805657
 10
73.34401582367789
 20
-146.4871825805657
 10
73.4068888162837
 20
-146.4871825805657
 10
73.4068888162837
 20
-146.4871825805657
 10
73.40327146602418
 20
-146.3349093601177
 10
73.40137666350729
 20
-146.3011474243622
 10
73.3958645107309
 20
-146.2081298462605
 10
73.3958645107309
 20
-146.2081298462605
 10
73.58103839306308
 20
-146.2312119860117
 10
73.58103839306308
 20
-146.2312119860117
 10
73.60325925894294
 20
-146.2332790433028
 10
73.62358532230591
 20
-146.2377576674336
 10
73.62358532230591
 20
-146.2608398071848
 10
73.62358532230591
 20
-146.2925346856491
 10
73.58465574332259
 20
-146.3094156535268
 10
73.56432967995961
 20
-146.3180283922399
 10
73.56432967995961
 20
-146.3180283922399
 10
73.56432967995961
 20
-146.4871825805657
 10
73.56432967995961
 20
-146.4871825805657
 10
73.56432967995961
 20
-146.4871825805657
 10
73.64959579321955
 20
-146.4871825805657
 10
73.64959579321955
 20
-146.4871825805657
 10
73.71625839085914
 20
-146.4871825805657
 10
73.8550957389147
 20
-146.4830484659834
 10
73.95689831050383
 20
-146.47684729411
 10
73.95689831050383
 20
-146.47684729411
 10
73.95689831050383
 20
-146.6542697116003
 10
73.95689831050383
 20
-146.6542697116003
 10
73.86250269420799
 20
-146.6480685397269
 10
73.71057398330846
 20
-146.6418673678534
 10
73.64959579321955
 20
-146.6418673678534
 97
        0
 97
        0
 92
        1
 93
        1
 72
     4
 94
        3
 73
     0
 74
     1
 95
       17
 96
       13
 40
0.0
 40
0.0
 40
0.0
 40
0.0
 40
1.0
 40
1.0
 40
1.0
 40
2.0
 40
2.0
 40
2.0
 40
3.0
 40
3.0
 40
3.0
 40
4.0
 40
4.0
 40
4.0
 40
4.0
 10
73.43479408971422
 20
-147.4394069726888
 10
73.43479408971422
 20
-147.4394069726888
 10
73.25702716267533
 20
-147.4394069726888
 10
73.25702716267533
 20
-147.4394069726888
 10
73.28097057629782
 20
-147.4983181054865
 10
73.32920191309131
 20
-147.5703206011283
 10
73.35331758148806
 20
-147.5999484223014
 10
73.37726099511055
 20
-147.5851345117148
 10
73.47734101895706
 20
-147.5217447547862
 10
73.55692272466632
 20
-147.4394069726888
 10
73.55692272466632
 20
-147.4394069726888
 10
73.43479408971422
 20
-147.4394069726888
 10
73.43479408971422
 20
-147.4394069726888
 97
        0
 97
        0
 75
     2
 76
     1
 98
        0
  0
SPLINE
  5
54
330
41
100
AcDbEntity
  8
_U+30EC_U+30A4_U+30E4_U+30FC 1
370
     0
100
AcDbSpline
210
0.0
220
0.0
230
1.0
 70
    11
 71
     3
 72
    77
 73
    73
 74
     0
 42
0.0000000001
 43
0.0000000001
 12
1.0
 22
0.0
 32
0.0
 13
1.0
 23
0.0
 33
0.0
 40
0.0
 40
0.0
 40
0.0
 40
0.0
 40
1.0
 40
1.0
 40
1.0
 40
2.0
 40
2.0
 40
2.0
 40
3.0
 40
3.0
 40
3.0
 40
4.0
 40
4.0
 40
4.0
 40
5.0
 40
5.0
 40
5.0
 40
6.0
 40
6.0
 40
6.0
 40
7.0
 40
7.0
 40
7.0
 40
8.0
 40
8.0
 40
8.0
 40
9.0
 40
9.0
 40
9.0
 40
10.0
 40
10.0
 40
10.0
 40
11.0
 40
11.0
 40
11.0
 40
12.0
 40
12.0
 40
12.0
 40
13.0
 40
13.0
 40
13.0
 40
14.0
 40
14.0
 40
14.0
 40
15.0
 40
15.0
 40
15.0
 40
16.0
 40
16.0
 40
16.0
 40
17.0
 40
17.0
 40
17.0
 40
18.0
 40
18.0
 40
18.0
 40
19.0
 40
19.0
 40
19.0
 40
20.0
 40
20.0
 40
20.0
 40
21.0
 40
21.0
 40
21.0
 40
22.0
 40
22.0
 40
22.0
 40
23.0
 40
23.0
 40
23.0
 40
24.0
 40
24.0
 40
24.0
 40
24.0
 10
75.61640080574868
 20
-148.0695149369409
 30
0.0
 10
75.57574867902274
 20
-148.0950086435318
 30
0.0
 10
75.46653915214031
 20
-148.1077554968272
 30
0.0
 10
75.39798175198383
 20
-148.1077554968272
 30
0.0
 10
75.38678519165678
 20
-148.1077554968272
 30
0.0
 10
75.36456432577691
 20
-148.1077554968272
 30
0.0
 10
75.33493650460377
 20
-148.1036213822449
 30
0.0
 10
75.33493650460377
 20
-148.1036213822449
 30
0.0
 10
75.2498426461181
 20
-147.877278608864
 30
0.0
 10
75.2498426461181
 20
-147.877278608864
 30
0.0
 10
75.27568086225747
 20
-147.8834797807375
 30
0.0
 10
75.32580700156785
 20
-147.8920925194506
 30
0.0
 10
75.42760957315699
 20
-147.8920925194506
 30
0.0
 10
75.49616697331346
 20
-147.8920925194506
 30
0.0
 10
75.49788952105608
 20
-147.849717844982
 30
0.0
 10
75.49788952105608
 20
-147.7925292599269
 30
0.0
 10
75.49788952105608
 20
-147.7925292599269
 30
0.0
 10
75.49788952105608
 20
-147.4435410872711
 30
0.0
 10
75.49788952105608
 20
-147.4435410872711
 30
0.0
 10
75.49788952105608
 20
-147.4435410872711
 30
0.0
 10
75.09619138747595
 20
-147.4435410872711
 30
0.0
 10
75.09619138747595
 20
-147.4435410872711
 30
0.0
 10
75.09791393521859
 20
-147.5810003971325
 30
0.0
 10
75.09980873773547
 20
-147.7797824066315
 30
0.0
 10
75.10532089051186
 20
-147.9131076019106
 30
0.0
 10
75.10721569302875
 20
-147.9406683657926
 30
0.0
 10
75.10721569302875
 20
-147.9851100975523
 30
0.0
 10
75.11841225335581
 20
-148.0464327971898
 30
0.0
 10
75.11841225335581
 20
-148.0464327971898
 30
0.0
 10
74.90722790011
 20
-148.0464327971898
 30
0.0
 10
74.90722790011
 20
-148.0464327971898
 30
0.0
 10
74.92944876598986
 20
-147.9217203406238
 30
0.0
 10
74.92944876598986
 20
-147.5810003971325
 30
0.0
 10
74.92944876598986
 20
-147.4435410872711
 30
0.0
 10
74.92944876598986
 20
-147.4435410872711
 30
0.0
 10
74.54239228822205
 20
-147.4435410872711
 30
0.0
 10
74.54239228822205
 20
-147.4435410872711
 30
0.0
 10
74.52206622485907
 20
-147.6509358354831
 30
0.0
 10
74.46470538502966
 20
-147.9193087737841
 30
0.0
 10
74.29245061076716
 20
-148.1036213822449
 30
0.0
 10
74.29245061076716
 20
-148.1036213822449
 30
0.0
 10
74.12760279179797
 20
-147.9809759829701
 30
0.0
 10
74.12760279179797
 20
-147.9809759829701
 30
0.0
 10
74.34981145059658
 20
-147.7608343814626
 30
0.0
 10
74.3777167240271
 20
-147.4287271766845
 30
0.0
 10
74.3777167240271
 20
-147.0966199719064
 30
0.0
 10
74.3777167240271
 20
-147.0966199719064
 30
0.0
 10
74.3777167240271
 20
-146.6608153930223
 30
0.0
 10
74.3777167240271
 20
-146.6608153930223
 30
0.0
 10
74.3777167240271
 20
-146.6246418904272
 30
0.0
 10
74.37582192151021
 20
-146.3920979451728
 30
0.0
 10
74.36841496621693
 20
-146.290467628358
 30
0.0
 10
74.49054360116904
 20
-146.3011474243622
 30
0.0
 10
74.70172795441485
 20
-146.3011474243622
 30
0.0
 10
74.82764619440073
 20
-146.3011474243622
 30
0.0
 10
74.82764619440073
 20
-146.3011474243622
 30
0.0
 10
75.22951658275512
 20
-146.3011474243622
 30
0.0
 10
75.22951658275512
 20
-146.3011474243622
 30
0.0
 10
75.2424356908248
 20
-146.3011474243622
 30
0.0
 10
75.54801566036647
 20
-146.3011474243622
 30
0.0
 10
75.68685300842203
 20
-146.290467628358
 30
0.0
 10
75.68495820590515
 20
-146.3435220988308
 30
0.0
 10
75.67944605312876
 20
-146.5040635484434
 30
0.0
 10
75.67944605312876
 20
-146.5550509616251
 30
0.0
 10
75.67944605312876
 20
-146.5550509616251
 30
0.0
 10
75.67944605312876
 20
-147.1620767861262
 30
0.0
 10
75.67944605312876
 20
-147.1620767861262
 30
0.0
 10
75.67944605312876
 20
-147.181024811295
 30
0.0
 10
75.68874781093892
 20
-147.7522216427494
 30
0.0
 10
75.68874781093892
 20
-147.8645317555686
 30
0.0
 10
75.68874781093892
 20
-147.9217203406238
 30
0.0
 10
75.68874781093892
 20
-148.0230061478901
 30
0.0
 10
75.61640080574868
 20
-148.0695149369409
 30
0.0
  0
POLYLINE
  5
55
330
41
100
AcDbEntity
  8
_U+30EC_U+30A4_U+30E4_U+30FC 1
370
     0
100
AcDb2dPolyline
 66
     1
 10
0.0
 20
0.0
 30
0.0
  0
VERTEX
  5
56
330
55
100
AcDbEntity
  8
_U+30EC_U+30A4_U+30E4_U+30FC 1
370
     0
100
AcDbVertex
100
AcDb2dVertex
 10
74.92944876598986
 20
-146.4830484659834
 30
0.0
  0
VERTEX
  5
57
330
55
100
AcDbEntity
  8
_U+30EC_U+30A4_U+30E4_U+30FC 1
370
     0
100
AcDbVertex
100
AcDb2dVertex
 10
74.54618189325582
 20
-146.4830484659834
 30
0.0
  0
VERTEX
  5
58
330
55
100
AcDbEntity
  8
_U+30EC_U+30A4_U+30E4_U+30FC 1
370
     0
100
AcDbVertex
100
AcDb2dVertex
 10
74.54618189325582
 20
-146.7875949068795
 30
0.0
  0
VERTEX
  5
59
330
55
100
AcDbEntity
  8
_U+30EC_U+30A4_U+30E4_U+30FC 1
370
     0
100
AcDbVertex
100
AcDb2dVertex
 10
74.92944876598986
 20
-146.7875949068795
 30
0.0
  0
VERTEX
  5
5A
330
55
100
AcDbEntity
  8
_U+30EC_U+30A4_U+30E4_U+30FC 1
370
     0
100
AcDbVertex
100
AcDb2dVertex
 10
74.92944876598986
 20
-146.4830484659834
 30
0.0
  0
SEQEND
  5
5B
330
55
100
AcDbEntity
  8
_U+30EC_U+30A4_U+30E4_U+30FC 1
370
     0
  0
POLYLINE
  5
5C
330
41
100
AcDbEntity
  8
_U+30EC_U+30A4_U+30E4_U+30FC 1
370
     0
100
AcDb2dPolyline
 66
     1
 10
0.0
 20
0.0
 30
0.0
  0
VERTEX
  5
5D
330
5C
100
AcDbEntity
  8
_U+30EC_U+30A4_U+30E4_U+30FC 1
370
     0
100
AcDbVertex
100
AcDb2dVertex
 10
74.92944876598986
 20
-146.9546820379141
 30
0.0
  0
VERTEX
  5
5E
330
5C
100
AcDbEntity
  8
_U+30EC_U+30A4_U+30E4_U+30FC 1
370
     0
100
AcDbVertex
100
AcDb2dVertex
 10
74.54618189325582
 20
-146.9546820379141
 30
0.0
  0
VERTEX
  5
5F
330
5C
100
AcDbEntity
  8
_U+30EC_U+30A4_U+30E4_U+30FC 1
370
     0
100
AcDbVertex
100
AcDb2dVertex
 10
74.54618189325582
 20
-147.263707102941
 30
0.0
  0
VERTEX
  5
60
330
5C
100
AcDbEntity
  8
_U+30EC_U+30A4_U+30E4_U+30FC 1
370
     0
100
AcDbVertex
100
AcDb2dVertex
 10
74.92944876598986
 20
-147.263707102941
 30
0.0
  0
VERTEX
  5
61
330
5C
100
AcDbEntity
  8
_U+30EC_U+30A4_U+30E4_U+30FC 1
370
     0
100
AcDbVertex
100
AcDb2dVertex
 10
74.92944876598986
 20
-146.9546820379141
 30
0.0
  0
SEQEND
  5
62
330
5C
100
AcDbEntity
  8
_U+30EC_U+30A4_U+30E4_U+30FC 1
370
     0
  0
POLYLINE
  5
63
330
41
100
AcDbEntity
  8
_U+30EC_U+30A4_U+30E4_U+30FC 1
370
     0
100
AcDb2dPolyline
 66
     1
 10
0.0
 20
0.0
 30
0.0
  0
VERTEX
  5
64
330
63
100
AcDbEntity
  8
_U+30EC_U+30A4_U+30E4_U+30FC 1
370
     0
100
AcDbVertex
100
AcDb2dVertex
 10
75.49788952105608
 20
-146.4830484659834
 30
0.0
  0
VERTEX
  5
65
330
63
100
AcDbEntity
  8
_U+30EC_U+30A4_U+30E4_U+30FC 1
370
     0
100
AcDbVertex
100
AcDb2dVertex
 10
75.09619138747595
 20
-146.4830484659834
 30
0.0
  0
VERTEX
  5
66
330
63
100
AcDbEntity
  8
_U+30EC_U+30A4_U+30E4_U+30FC 1
370
     0
100
AcDbVertex
100
AcDb2dVertex
 10
75.09619138747595
 20
-146.7875949068795
 30
0.0
  0
VERTEX
  5
67
330
63
100
AcDbEntity
  8
_U+30EC_U+30A4_U+30E4_U+30FC 1
370
     0
100
AcDbVertex
100
AcDb2dVertex
 10
75.49788952105608
 20
-146.7875949068795
 30
0.0
  0
VERTEX
  5
68
330
63
100
AcDbEntity
  8
_U+30EC_U+30A4_U+30E4_U+30FC 1
370
     0
100
AcDbVertex
100
AcDb2dVertex
 10
75.49788952105608
 20
-146.4830484659834
 30
0.0
  0
SEQEND
  5
69
330
63
100
AcDbEntity
  8
_U+30EC_U+30A4_U+30E4_U+30FC 1
370
     0
  0
POLYLINE
  5
6A
330
41
100
AcDbEntity
  8
_U+30EC_U+30A4_U+30E4_U+30FC 1
370
     0
100
AcDb2dPolyline
 66
     1
 10
0.0
 20
0.0
 30
0.0
  0
VERTEX
  5
6B
330
6A
100
AcDbEntity
  8
_U+30EC_U+30A4_U+30E4_U+30FC 1
370
     0
100
AcDbVertex
100
AcDb2dVertex
 10
75.49788952105608
 20
-146.9546820379141
 30
0.0
  0
VERTEX
  5
6C
330
6A
100
AcDbEntity
  8
_U+30EC_U+30A4_U+30E4_U+30FC 1
370
     0
100
AcDbVertex
100
AcDb2dVertex
 10
75.09619138747595
 20
-146.9546820379141
 30
0.0
  0
VERTEX
  5
6D
330
6A
100
AcDbEntity
  8
_U+30EC_U+30A4_U+30E4_U+30FC 1
370
     0
100
AcDbVertex
100
AcDb2dVertex
 10
75.09619138747595
 20
-147.263707102941
 30
0.0
  0
VERTEX
  5
6E
330
6A
100
AcDbEntity
  8
_U+30EC_U+30A4_U+30E4_U+30FC 1
370
     0
100
AcDbVertex
100
AcDb2dVertex
 10
75.49788952105608
 20
-147.263707102941
 30
0.0
  0
VERTEX
  5
6F
330
6A
100
AcDbEntity
  8
_U+30EC_U+30A4_U+30E4_U+30FC 1
370
     0
100
AcDbVertex
100
AcDb2dVertex
 10
75.49788952105608
 20
-146.9546820379141
 30
0.0
  0
SEQEND
  5
70
330
6A
100
AcDbEntity
  8
_U+30EC_U+30A4_U+30E4_U+30FC 1
370
     0
  0
HATCH
  5
71
330
41
100
AcDbEntity
  8
_U+30EC_U+30A4_U+30E4_U+30FC 1
 62
   179
420
  2234388
100
AcDbHatch
 10
0.0
 20
0.0
 30
0.0
210
0.0
220
0.0
230
1.0
  2
SOLID
 70
     1
 71
     0
 91
        5
 92
        1
 93
        1
 72
     4
 94
        3
 73
     0
 74
     1
 95
       77
 96
       73
 40
0.0
 40
0.0
 40
0.0
 40
0.0
 40
1.0
 40
1.0
 40
1.0
 40
2.0
 40
2.0
 40
2.0
 40
3.0
 40
3.0
 40
3.0
 40
4.0
 40
4.0
 40
4.0
 40
5.0
 40
5.0
 40
5.0
 40
6.0
 40
6.0
 40
6.0
 40
7.0
 40
7.0
 40
7.0
 40
8.0
 40
8.0
 40
8.0
 40
9.0
 40
9.0
 40
9.0
 40
10.0
 40
10.0
 40
10.0
 40
11.0
 40
11.0
 40
11.0
 40
12.0
 40
12.0
 40
12.0
 40
13.0
 40
13.0
 40
13.0
 40
14.0
 40
14.0
 40
14.0
 40
15.0
 40
15.0
 40
15.0
 40
16.0
 40
16.0
 40
16.0
 40
17.0
 40
17.0
 40
17.0
 40
18.0
 40
18.0
 40
18.0
 40
19.0
 40
19.0
 40
19.0
 40
20.0
 40
20.0
 40
20.0
 40
21.0
 40
21.0
 40
21.0
 40
22.0
 40
22.0
 40
22.0
 40
23.0
 40
23.0
 40
23.0
 40
24.0
 40
24.0
 40
24.0
 40
24.0
 10
75.61640080574868
 20
-148.0695149369409
 10
75.57574867902274
 20
-148.0950086435318
 10
75.46653915214031
 20
-148.1077554968272
 10
75.39798175198383
 20
-148.1077554968272
 10
75.38678519165678
 20
-148.1077554968272
 10
75.36456432577691
 20
-148.1077554968272
 10
75.33493650460377
 20
-148.1036213822449
 10
75.33493650460377
 20
-148.1036213822449
 10
75.2498426461181
 20
-147.877278608864
 10
75.2498426461181
 20
-147.877278608864
 10
75.27568086225747
 20
-147.8834797807375
 10
75.32580700156785
 20
-147.8920925194506
 10
75.42760957315699
 20
-147.8920925194506
 10
75.49616697331346
 20
-147.8920925194506
 10
75.49788952105608
 20
-147.849717844982
 10
75.49788952105608
 20
-147.7925292599269
 10
75.49788952105608
 20
-147.7925292599269
 10
75.49788952105608
 20
-147.4435410872711
 10
75.49788952105608
 20
-147.4435410872711
 10
75.49788952105608
 20
-147.4435410872711
 10
75.09619138747595
 20
-147.4435410872711
 10
75.09619138747595
 20
-147.4435410872711
 10
75.09791393521859
 20
-147.5810003971325
 10
75.09980873773547
 20
-147.7797824066315
 10
75.10532089051186
 20
-147.9131076019106
 10
75.10721569302875
 20
-147.9406683657926
 10
75.10721569302875
 20
-147.9851100975523
 10
75.11841225335581
 20
-148.0464327971898
 10
75.11841225335581
 20
-148.0464327971898
 10
74.90722790011
 20
-148.0464327971898
 10
74.90722790011
 20
-148.0464327971898
 10
74.92944876598986
 20
-147.9217203406238
 10
74.92944876598986
 20
-147.5810003971325
 10
74.92944876598986
 20
-147.4435410872711
 10
74.92944876598986
 20
-147.4435410872711
 10
74.54239228822205
 20
-147.4435410872711
 10
74.54239228822205
 20
-147.4435410872711
 10
74.52206622485907
 20
-147.6509358354831
 10
74.46470538502966
 20
-147.9193087737841
 10
74.29245061076716
 20
-148.1036213822449
 10
74.29245061076716
 20
-148.1036213822449
 10
74.12760279179797
 20
-147.9809759829701
 10
74.12760279179797
 20
-147.9809759829701
 10
74.34981145059658
 20
-147.7608343814626
 10
74.3777167240271
 20
-147.4287271766845
 10
74.3777167240271
 20
-147.0966199719064
 10
74.3777167240271
 20
-147.0966199719064
 10
74.3777167240271
 20
-146.6608153930223
 10
74.3777167240271
 20
-146.6608153930223
 10
74.3777167240271
 20
-146.6246418904272
 10
74.37582192151021
 20
-146.3920979451728
 10
74.36841496621693
 20
-146.290467628358
 10
74.49054360116904
 20
-146.3011474243622
 10
74.70172795441485
 20
-146.3011474243622
 10
74.82764619440073
 20
-146.3011474243622
 10
74.82764619440073
 20
-146.3011474243622
 10
75.22951658275512
 20
-146.3011474243622
 10
75.22951658275512
 20
-146.3011474243622
 10
75.2424356908248
 20
-146.3011474243622
 10
75.54801566036647
 20
-146.3011474243622
 10
75.68685300842203
 20
-146.290467628358
 10
75.68495820590515
 20
-146.3435220988308
 10
75.67944605312876
 20
-146.5040635484434
 10
75.67944605312876
 20
-146.5550509616251
 10
75.67944605312876
 20
-146.5550509616251
 10
75.67944605312876
 20
-147.1620767861262
 10
75.67944605312876
 20
-147.1620767861262
 10
75.67944605312876
 20
-147.181024811295
 10
75.68874781093892
 20
-147.7522216427494
 10
75.68874781093892
 20
-147.8645317555686
 10
75.68874781093892
 20
-147.9217203406238
 10
75.68874781093892
 20
-148.0230061478901
 10
75.61640080574868
 20
-148.0695149369409
 97
        0
 97
        0
 92
        1
 93
        4
 72
     1
 10
74.92944876598986
 20
-146.4830484659834
 11
74.54618189325582
 21
-146.4830484659834
 72
     1
 10
74.54618189325582
 20
-146.4830484659834
 11
74.54618189325582
 21
-146.7875949068795
 72
     1
 10
74.54618189325582
 20
-146.7875949068795
 11
74.92944876598986
 21
-146.7875949068795
 72
     1
 10
74.92944876598986
 20
-146.7875949068795
 11
74.92944876598986
 21
-146.4830484659834
 97
        0
 92
        1
 93
        4
 72
     1
 10
74.92944876598986
 20
-146.9546820379141
 11
74.54618189325582
 21
-146.9546820379141
 72
     1
 10
74.54618189325582
 20
-146.9546820379141
 11
74.54618189325582
 21
-147.263707102941
 72
     1
 10
74.54618189325582
 20
-147.263707102941
 11
74.92944876598986
 21
-147.263707102941
 72
     1
 10
74.92944876598986
 20
-147.263707102941
 11
74.92944876598986
 21
-146.9546820379141
 97
        0
 92
        1
 93
        4
 72
     1
 10
75.49788952105608
 20
-146.4830484659834
 11
75.09619138747595
 21
-146.4830484659834
 72
     1
 10
75.09619138747595
 20
-146.4830484659834
 11
75.09619138747595
 21
-146.7875949068795
 72
     1
 10
75.09619138747595
 20
-146.7875949068795
 11
75.49788952105608
 21
-146.7875949068795
 72
     1
 10
75.49788952105608
 20
-146.7875949068795
 11
75.49788952105608
 21
-146.4830484659834
 97
        0
 92
        1
 93
        4
 72
     1
 10
75.49788952105608
 20
-146.9546820379141
 11
75.09619138747595
 21
-146.9546820379141
 72
     1
 10
75.09619138747595
 20
-146.9546820379141
 11
75.09619138747595
 21
-147.263707102941
 72
     1
 10
75.09619138747595
 20
-147.263707102941
 11
75.49788952105608
 21
-147.263707102941
 72
     1
 10
75.49788952105608
 20
-147.263707102941
 11
75.49788952105608
 21
-146.9546820379141
 97
        0
 75
     2
 76
     1
 98
        0
  0
SPLINE
  5
72
330
41
100
AcDbEntity
  8
_U+30EC_U+30A4_U+30E4_U+30FC 1
370
     0
100
AcDbSpline
210
0.0
220
0.0
230
1.0
 70
    11
 71
     3
 72
    44
 73
    40
 74
     0
 42
0.0000000001
 43
0.0000000001
 12
1.0
 22
0.0
 32
0.0
 13
1.0
 23
0.0
 33
0.0
 40
0.0
 40
0.0
 40
0.0
 40
0.0
 40
1.0
 40
1.0
 40
1.0
 40
2.0
 40
2.0
 40
2.0
 40
3.0
 40
3.0
 40
3.0
 40
4.0
 40
4.0
 40
4.0
 40
5.0
 40
5.0
 40
5.0
 40
6.0
 40
6.0
 40
6.0
 40
7.0
 40
7.0
 40
7.0
 40
8.0
 40
8.0
 40
8.0
 40
9.0
 40
9.0
 40
9.0
 40
10.0
 40
10.0
 40
10.0
 40
11.0
 40
11.0
 40
11.0
 40
12.0
 40
12.0
 40
12.0
 40
13.0
 40
13.0
 40
13.0
 40
13.0
 10
77.26108939040695
 20
-146.8192897853438
 30
0.0
 10
77.16290416907734
 20
-147.187570492717
 30
0.0
 10
77.1184624373176
 20
-147.3460448850385
 30
0.0
 10
76.94637991782938
 20
-147.5958143077191
 30
0.0
 10
76.78514944911969
 20
-147.8262911956823
 30
0.0
 10
76.57775470090765
 20
-148.0126708614343
 30
0.0
 10
76.33332517622917
 20
-148.1056884395361
 30
0.0
 10
76.33332517622917
 20
-148.1056884395361
 30
0.0
 10
76.16486000700046
 20
-147.925854455206
 30
0.0
 10
76.16486000700046
 20
-147.925854455206
 30
0.0
 10
76.72589380677339
 20
-147.773581234758
 30
0.0
 10
77.01476506321158
 20
-147.2171983138902
 30
0.0
 10
77.07040335529838
 20
-146.7772596204237
 30
0.0
 10
77.07040335529838
 20
-146.7772596204237
 30
0.0
 10
76.39998777386876
 20
-146.7772596204237
 30
0.0
 10
76.39998777386876
 20
-146.7772596204237
 30
0.0
 10
76.3185112656426
 20
-146.7772596204237
 30
0.0
 10
76.15745305170717
 20
-146.781393735006
 30
0.0
 10
76.02051050616849
 20
-146.8003417601749
 30
0.0
 10
76.02051050616849
 20
-146.8003417601749
 30
0.0
 10
76.02051050616849
 20
-146.5802001586675
 30
0.0
 10
76.02051050616849
 20
-146.5802001586675
 30
0.0
 10
76.09630260684398
 20
-146.601559750676
 30
0.0
 10
76.31678871789997
 20
-146.601559750676
 30
0.0
 10
76.40377737890253
 20
-146.601559750676
 30
0.0
 10
76.40377737890253
 20
-146.601559750676
 30
0.0
 10
76.78153209886018
 20
-146.601559750676
 30
0.0
 10
76.78153209886018
 20
-146.601559750676
 30
0.0
 10
76.81856687532661
 20
-146.601559750676
 30
0.0
 10
77.02406682102176
 20
-146.5994926933849
 30
0.0
 10
77.05748424722869
 20
-146.5929470119629
 30
0.0
 10
77.09451902369513
 20
-146.5867458400894
 30
0.0
 10
77.09624157143774
 20
-146.5846787827983
 30
0.0
 10
77.14998506100764
 20
-146.5443711656208
 30
0.0
 10
77.14998506100764
 20
-146.5443711656208
 30
0.0
 10
77.31483287997685
 20
-146.6987114433601
 30
0.0
 10
77.31483287997685
 20
-146.6987114433601
 30
0.0
 10
77.28882240906321
 20
-146.7283392645332
 30
0.0
 10
77.27590330099353
 20
-146.7600341429975
 30
0.0
 10
77.26108939040695
 20
-146.8192897853438
 30
0.0
  0
SPLINE
  5
73
330
41
100
AcDbEntity
  8
_U+30EC_U+30A4_U+30E4_U+30FC 1
370
     0
100
AcDbSpline
210
0.0
220
0.0
230
1.0
 70
    11
 71
     3
 72
    17
 73
    13
 74
     0
 42
0.0000000001
 43
0.0000000001
 12
1.0
 22
0.0
 32
0.0
 13
1.0
 23
0.0
 33
0.0
 40
0.0
 40
0.0
 40
0.0
 40
0.0
 40
1.0
 40
1.0
 40
1.0
 40
2.0
 40
2.0
 40
2.0
 40
3.0
 40
3.0
 40
3.0
 40
4.0
 40
4.0
 40
4.0
 40
4.0
 10
77.44436847022224
 20
-146.6205077758449
 30
0.0
 10
77.33326414082293
 20
-146.6205077758449
 30
0.0
 10
77.2443806773035
 20
-146.51887745903
 30
0.0
 10
77.2443806773035
 20
-146.3920979451728
 30
0.0
 10
77.2443806773035
 20
-146.2653184313156
 30
0.0
 10
77.33326414082293
 20
-146.1616210572096
 30
0.0
 10
77.44436847022224
 20
-146.1616210572096
 30
0.0
 10
77.55547279962155
 20
-146.1616210572096
 30
0.0
 10
77.64625106565788
 20
-146.2653184313156
 30
0.0
 10
77.64625106565788
 20
-146.3920979451728
 30
0.0
 10
77.64625106565788
 20
-146.51887745903
 30
0.0
 10
77.55547279962155
 20
-146.6205077758449
 30
0.0
 10
77.44436847022224
 20
-146.6205077758449
 30
0.0
  0
SPLINE
  5
74
330
41
100
AcDbEntity
  8
_U+30EC_U+30A4_U+30E4_U+30FC 1
370
     0
100
AcDbSpline
210
0.0
220
0.0
230
1.0
 70
    11
 71
     3
 72
    17
 73
    13
 74
     0
 42
0.0000000001
 43
0.0000000001
 12
1.0
 22
0.0
 32
0.0
 13
1.0
 23
0.0
 33
0.0
 40
0.0
 40
0.0
 40
0.0
 40
0.0
 40
1.0
 40
1.0
 40
1.0
 40
2.0
 40
2.0
 40
2.0
 40
3.0
 40
3.0
 40
3.0
 40
4.0
 40
4.0
 40
4.0
 40
4.0
 10
77.44264592247961
 20
-146.290467628358
 30
0.0
 10
77.39441458568612
 20
-146.290467628358
 30
0.0
 10
77.35548500670279
 20
-146.3349093601177
 30
0.0
 10
77.35548500670279
 20
-146.3900308878817
 30
0.0
 10
77.35548500670279
 20
-146.4472194729368
 30
0.0
 10
77.39441458568612
 20
-146.4957953192788
 30
0.0
 10
77.44626327273913
 20
-146.4957953192788
 30
0.0
 10
77.49811195979214
 20
-146.4957953192788
 30
0.0
 10
77.5332519337417
 20
-146.4448079060971
 30
0.0
 10
77.5332519337417
 20
-146.3920979451728
 30
0.0
 10
77.5332519337417
 20
-146.3349093601177
 30
0.0
 10
77.49259980701574
 20
-146.290467628358
 30
0.0
 10
77.44264592247961
 20
-146.290467628358
 30
0.0
  0
HATCH
  5
75
330
41
100
AcDbEntity
  8
_U+30EC_U+30A4_U+30E4_U+30FC 1
 62
   179
420
  2234388
100
AcDbHatch
 10
0.0
 20
0.0
 30
0.0
210
0.0
220
0.0
230
1.0
  2
SOLID
 70
     1
 71
     0
 91
        3
 92
        1
 93
        1
 72
     4
 94
        3
 73
     0
 74
     1
 95
       44
 96
       40
 40
0.0
 40
0.0
 40
0.0
 40
0.0
 40
1.0
 40
1.0
 40
1.0
 40
2.0
 40
2.0
 40
2.0
 40
3.0
 40
3.0
 40
3.0
 40
4.0
 40
4.0
 40
4.0
 40
5.0
 40
5.0
 40
5.0
 40
6.0
 40
6.0
 40
6.0
 40
7.0
 40
7.0
 40
7.0
 40
8.0
 40
8.0
 40
8.0
 40
9.0
 40
9.0
 40
9.0
 40
10.0
 40
10.0
 40
10.0
 40
11.0
 40
11.0
 40
11.0
 40
12.0
 40
12.0
 40
12.0
 40
13.0
 40
13.0
 40
13.0
 40
13.0
 10
77.26108939040695
 20
-146.8192897853438
 10
77.16290416907734
 20
-147.187570492717
 10
77.1184624373176
 20
-147.3460448850385
 10
76.94637991782938
 20
-147.5958143077191
 10
76.78514944911969
 20
-147.8262911956823
 10
76.57775470090765
 20
-148.0126708614343
 10
76.33332517622917
 20
-148.1056884395361
 10
76.33332517622917
 20
-148.1056884395361
 10
76.16486000700046
 20
-147.925854455206
 10
76.16486000700046
 20
-147.925854455206
 10
76.72589380677339
 20
-147.773581234758
 10
77.01476506321158
 20
-147.2171983138902
 10
77.07040335529838
 20
-146.7772596204237
 10
77.07040335529838
 20
-146.7772596204237
 10
76.39998777386876
 20
-146.7772596204237
 10
76.39998777386876
 20
-146.7772596204237
 10
76.3185112656426
 20
-146.7772596204237
 10
76.15745305170717
 20
-146.781393735006
 10
76.02051050616849
 20
-146.8003417601749
 10
76.02051050616849
 20
-146.8003417601749
 10
76.02051050616849
 20
-146.5802001586675
 10
76.02051050616849
 20
-146.5802001586675
 10
76.09630260684398
 20
-146.601559750676
 10
76.31678871789997
 20
-146.601559750676
 10
76.40377737890253
 20
-146.601559750676
 10
76.40377737890253
 20
-146.601559750676
 10
76.78153209886018
 20
-146.601559750676
 10
76.78153209886018
 20
-146.601559750676
 10
76.81856687532661
 20
-146.601559750676
 10
77.02406682102176
 20
-146.5994926933849
 10
77.05748424722869
 20
-146.5929470119629
 10
77.09451902369513
 20
-146.5867458400894
 10
77.09624157143774
 20
-146.5846787827983
 10
77.14998506100764
 20
-146.5443711656208
 10
77.14998506100764
 20
-146.5443711656208
 10
77.31483287997685
 20
-146.6987114433601
 10
77.31483287997685
 20
-146.6987114433601
 10
77.28882240906321
 20
-146.7283392645332
 10
77.27590330099353
 20
-146.7600341429975
 10
77.26108939040695
 20
-146.8192897853438
 97
        0
 97
        0
 92
        1
 93
        1
 72
     4
 94
        3
 73
     0
 74
     1
 95
       17
 96
       13
 40
0.0
 40
0.0
 40
0.0
 40
0.0
 40
1.0
 40
1.0
 40
1.0
 40
2.0
 40
2.0
 40
2.0
 40
3.0
 40
3.0
 40
3.0
 40
4.0
 40
4.0
 40
4.0
 40
4.0
 10
77.44436847022224
 20
-146.6205077758449
 10
77.33326414082293
 20
-146.6205077758449
 10
77.2443806773035
 20
-146.51887745903
 10
77.2443806773035
 20
-146.3920979451728
 10
77.2443806773035
 20
-146.2653184313156
 10
77.33326414082293
 20
-146.1616210572096
 10
77.44436847022224
 20
-146.1616210572096
 10
77.55547279962155
 20
-146.1616210572096
 10
77.64625106565788
 20
-146.2653184313156
 10
77.64625106565788
 20
-146.3920979451728
 10
77.64625106565788
 20
-146.51887745903
 10
77.55547279962155
 20
-146.6205077758449
 10
77.44436847022224
 20
-146.6205077758449
 97
        0
 97
        0
 92
        1
 93
        1
 72
     4
 94
        3
 73
     0
 74
     1
 95
       17
 96
       13
 40
0.0
 40
0.0
 40
0.0
 40
0.0
 40
1.0
 40
1.0
 40
1.0
 40
2.0
 40
2.0
 40
2.0
 40
3.0
 40
3.0
 40
3.0
 40
4.0
 40
4.0
 40
4.0
 40
4.0
 10
77.44264592247961
 20
-146.290467628358
 10
77.39441458568612
 20
-146.290467628358
 10
77.35548500670279
 20
-146.3349093601177
 10
77.35548500670279
 20
-146.3900308878817
 10
77.35548500670279
 20
-146.4472194729368
 10
77.39441458568612
 20
-146.4957953192788
 10
77.44626327273913
 20
-146.4957953192788
 10
77.49811195979214
 20
-146.4957953192788
 10
77.5332519337417
 20
-146.4448079060971
 10
77.5332519337417
 20
-146.3920979451728
 10
77.5332519337417
 20
-146.3349093601177
 10
77.49259980701574
 20
-146.290467628358
 10
77.44264592247961
 20
-146.290467628358
 97
        0
 97
        0
 75
     2
 76
     1
 98
        0
  0
SPLINE
  5
76
330
41
100
AcDbEntity
  8
_U+30EC_U+30A4_U+30E4_U+30FC 1
370
     0
100
AcDbSpline
210
0.0
220
0.0
230
1.0
 70
    11
 71
     3
 72
    50
 73
    46
 74
     0
 42
0.0000000001
 43
0.0000000001
 12
1.0
 22
0.0
 32
0.0
 13
1.0
 23
0.0
 33
0.0
 40
0.0
 40
0.0
 40
0.0
 40
0.0
 40
1.0
 40
1.0
 40
1.0
 40
2.0
 40
2.0
 40
2.0
 40
3.0
 40
3.0
 40
3.0
 40
4.0
 40
4.0
 40
4.0
 40
5.0
 40
5.0
 40
5.0
 40
6.0
 40
6.0
 40
6.0
 40
7.0
 40
7.0
 40
7.0
 40
8.0
 40
8.0
 40
8.0
 40
9.0
 40
9.0
 40
9.0
 40
10.0
 40
10.0
 40
10.0
 40
11.0
 40
11.0
 40
11.0
 40
12.0
 40
12.0
 40
12.0
 40
13.0
 40
13.0
 40
13.0
 40
14.0
 40
14.0
 40
14.0
 40
15.0
 40
15.0
 40
15.0
 40
15.0
 10
79.01671004969027
 20
-147.1283148503707
 30
0.0
 10
78.94832490430807
 20
-147.3060817774096
 30
0.0
 10
78.82981361961546
 20
-147.5131320160731
 30
0.0
 10
78.70940753240599
 20
-147.6530028927743
 30
0.0
 10
78.56126842654024
 20
-147.8242241383912
 30
0.0
 10
78.4186414734509
 20
-147.9131076019106
 30
0.0
 10
78.13907197482287
 20
-148.0547010263544
 30
0.0
 10
78.13907197482287
 20
-148.0547010263544
 30
0.0
 10
77.99093286895713
 20
-147.8665988128597
 30
0.0
 10
77.99093286895713
 20
-147.8665988128597
 30
0.0
 10
78.15388588540945
 20
-147.84317216356
 30
0.0
 10
78.30391979379208
 20
-147.7567002668803
 30
0.0
 10
78.43724498907125
 20
-147.6509358354831
 30
0.0
 10
78.66686060316314
 20
-147.4690347938619
 30
0.0
 10
78.83343096987498
 20
-147.1558756142527
 30
0.0
 10
78.87597789911781
 20
-146.9739745726315
 30
0.0
 10
78.87597789911781
 20
-146.9739745726315
 30
0.0
 10
78.28910588320551
 20
-146.9739745726315
 30
0.0
 10
78.28910588320551
 20
-146.9739745726315
 30
0.0
 10
78.15009628037568
 20
-146.9739745726315
 30
0.0
 10
77.8946424501444
 20
-146.9822428017961
 30
0.0
 10
77.76131725486523
 20
-146.9991237696738
 30
0.0
 10
77.76131725486523
 20
-146.9991237696738
 30
0.0
 10
77.76131725486523
 20
-146.7707139390018
 30
0.0
 10
77.76131725486523
 20
-146.7707139390018
 30
0.0
 10
77.79094507603838
 20
-146.7772596204237
 30
0.0
 10
77.81316594191824
 20
-146.7834607922972
 30
0.0
 10
77.85950247619485
 20
-146.7875949068795
 30
0.0
 10
77.9483859397143
 20
-146.7941405883015
 30
0.0
 10
78.12046845920253
 20
-146.7962076455926
 30
0.0
 10
78.1945380121354
 20
-146.7962076455926
 30
0.0
 10
78.1945380121354
 20
-146.7962076455926
 30
0.0
 10
78.63723278199001
 20
-146.7962076455926
 30
0.0
 10
78.63723278199001
 20
-146.7962076455926
 30
0.0
 10
78.6964884243363
 20
-146.7962076455926
 30
0.0
 10
78.8241292120648
 20
-146.7920735310103
 30
0.0
 10
78.8778727016347
 20
-146.7855278495883
 30
0.0
 10
78.94091794901477
 20
-146.7772596204237
 30
0.0
 10
78.96486136263727
 20
-146.7624457098372
 30
0.0
 10
78.99448918381042
 20
-146.7390190605375
 30
0.0
 10
78.99448918381042
 20
-146.7390190605375
 30
0.0
 10
79.13901093941664
 20
-146.9061061915721
 30
0.0
 10
79.13901093941664
 20
-146.9061061915721
 30
0.0
 10
79.07786049455345
 20
-146.9739745726315
 30
0.0
 10
79.0372083678275
 20
-147.0776719467375
 30
0.0
 10
79.01671004969027
 20
-147.1283148503707
 30
0.0
  0
SPLINE
  5
77
330
41
100
AcDbEntity
  8
_U+30EC_U+30A4_U+30E4_U+30FC 1
370
     0
100
AcDbSpline
210
0.0
220
0.0
230
1.0
 70
    11
 71
     3
 72
    29
 73
    25
 74
     0
 42
0.0000000001
 43
0.0000000001
 12
1.0
 22
0.0
 32
0.0
 13
1.0
 23
0.0
 33
0.0
 40
0.0
 40
0.0
 40
0.0
 40
0.0
 40
1.0
 40
1.0
 40
1.0
 40
2.0
 40
2.0
 40
2.0
 40
3.0
 40
3.0
 40
3.0
 40
4.0
 40
4.0
 40
4.0
 40
5.0
 40
5.0
 40
5.0
 40
6.0
 40
6.0
 40
6.0
 40
7.0
 40
7.0
 40
7.0
 40
8.0
 40
8.0
 40
8.0
 40
8.0
 10
78.58538409493698
 20
-146.5019964911523
 30
0.0
 10
78.58538409493698
 20
-146.5019964911523
 30
0.0
 10
78.28721108068862
 20
-146.5019964911523
 30
0.0
 10
78.28721108068862
 20
-146.5019964911523
 30
0.0
 10
78.1871310568421
 20
-146.5019964911523
 30
0.0
 10
78.08532848525297
 20
-146.5064751152831
 30
0.0
 10
77.98542071618073
 20
-146.5212890258697
 30
0.0
 10
77.98542071618073
 20
-146.5212890258697
 30
0.0
 10
77.98542071618073
 20
-146.3118272203665
 30
0.0
 10
77.98542071618073
 20
-146.3118272203665
 30
0.0
 10
78.08911809028675
 20
-146.3266411309531
 30
0.0
 10
78.240874546412
 20
-146.3307752455354
 30
0.0
 10
78.28721108068862
 20
-146.3307752455354
 30
0.0
 10
78.28721108068862
 20
-146.3307752455354
 30
0.0
 10
78.58538409493698
 20
-146.3307752455354
 30
0.0
 10
78.58538409493698
 20
-146.3307752455354
 30
0.0
 10
78.68718666652612
 20
-146.3307752455354
 30
0.0
 10
78.78898923811525
 20
-146.3266411309531
 30
0.0
 10
78.8907918097044
 20
-146.3118272203665
 30
0.0
 10
78.8907918097044
 20
-146.3118272203665
 30
0.0
 10
78.8907918097044
 20
-146.5212890258697
 30
0.0
 10
78.8907918097044
 20
-146.5212890258697
 30
0.0
 10
78.75936141694211
 20
-146.5019964911523
 30
0.0
 10
78.59830320300668
 20
-146.5019964911523
 30
0.0
 10
78.58538409493698
 20
-146.5019964911523
 30
0.0
  0
HATCH
  5
78
330
41
100
AcDbEntity
  8
_U+30EC_U+30A4_U+30E4_U+30FC 1
 62
   179
420
  2234388
100
AcDbHatch
 10
0.0
 20
0.0
 30
0.0
210
0.0
220
0.0
230
1.0
  2
SOLID
 70
     1
 71
     0
 91
        2
 92
        1
 93
        1
 72
     4
 94
        3
 73
     0
 74
     1
 95
       50
 96
       46
 40
0.0
 40
0.0
 40
0.0
 40
0.0
 40
1.0
 40
1.0
 40
1.0
 40
2.0
 40
2.0
 40
2.0
 40
3.0
 40
3.0
 40
3.0
 40
4.0
 40
4.0
 40
4.0
 40
5.0
 40
5.0
 40
5.0
 40
6.0
 40
6.0
 40
6.0
 40
7.0
 40
7.0
 40
7.0
 40
8.0
 40
8.0
 40
8.0
 40
9.0
 40
9.0
 40
9.0
 40
10.0
 40
10.0
 40
10.0
 40
11.0
 40
11.0
 40
11.0
 40
12.0
 40
12.0
 40
12.0
 40
13.0
 40
13.0
 40
13.0
 40
14.0
 40
14.0
 40
14.0
 40
15.0
 40
15.0
 40
15.0
 40
15.0
 10
79.01671004969027
 20
-147.1283148503707
 10
78.94832490430807
 20
-147.3060817774096
 10
78.82981361961546
 20
-147.5131320160731
 10
78.70940753240599
 20
-147.6530028927743
 10
78.56126842654024
 20
-147.8242241383912
 10
78.4186414734509
 20
-147.9131076019106
 10
78.13907197482287
 20
-148.0547010263544
 10
78.13907197482287
 20
-148.0547010263544
 10
77.99093286895713
 20
-147.8665988128597
 10
77.99093286895713
 20
-147.8665988128597
 10
78.15388588540945
 20
-147.84317216356
 10
78.30391979379208
 20
-147.7567002668803
 10
78.43724498907125
 20
-147.6509358354831
 10
78.66686060316314
 20
-147.4690347938619
 10
78.83343096987498
 20
-147.1558756142527
 10
78.87597789911781
 20
-146.9739745726315
 10
78.87597789911781
 20
-146.9739745726315
 10
78.28910588320551
 20
-146.9739745726315
 10
78.28910588320551
 20
-146.9739745726315
 10
78.15009628037568
 20
-146.9739745726315
 10
77.8946424501444
 20
-146.9822428017961
 10
77.76131725486523
 20
-146.9991237696738
 10
77.76131725486523
 20
-146.9991237696738
 10
77.76131725486523
 20
-146.7707139390018
 10
77.76131725486523
 20
-146.7707139390018
 10
77.79094507603838
 20
-146.7772596204237
 10
77.81316594191824
 20
-146.7834607922972
 10
77.85950247619485
 20
-146.7875949068795
 10
77.9483859397143
 20
-146.7941405883015
 10
78.12046845920253
 20
-146.7962076455926
 10
78.1945380121354
 20
-146.7962076455926
 10
78.1945380121354
 20
-146.7962076455926
 10
78.63723278199001
 20
-146.7962076455926
 10
78.63723278199001
 20
-146.7962076455926
 10
78.6964884243363
 20
-146.7962076455926
 10
78.8241292120648
 20
-146.7920735310103
 10
78.8778727016347
 20
-146.7855278495883
 10
78.94091794901477
 20
-146.7772596204237
 10
78.96486136263727
 20
-146.7624457098372
 10
78.99448918381042
 20
-146.7390190605375
 10
78.99448918381042
 20
-146.7390190605375
 10
79.13901093941664
 20
-146.9061061915721
 10
79.13901093941664
 20
-146.9061061915721
 10
79.07786049455345
 20
-146.9739745726315
 10
79.0372083678275
 20
-147.0776719467375
 10
79.01671004969027
 20
-147.1283148503707
 97
        0
 97
        0
 92
        1
 93
        1
 72
     4
 94
        3
 73
     0
 74
     1
 95
       29
 96
       25
 40
0.0
 40
0.0
 40
0.0
 40
0.0
 40
1.0
 40
1.0
 40
1.0
 40
2.0
 40
2.0
 40
2.0
 40
3.0
 40
3.0
 40
3.0
 40
4.0
 40
4.0
 40
4.0
 40
5.0
 40
5.0
 40
5.0
 40
6.0
 40
6.0
 40
6.0
 40
7.0
 40
7.0
 40
7.0
 40
8.0
 40
8.0
 40
8.0
 40
8.0
 10
78.58538409493698
 20
-146.5019964911523
 10
78.58538409493698
 20
-146.5019964911523
 10
78.28721108068862
 20
-146.5019964911523
 10
78.28721108068862
 20
-146.5019964911523
 10
78.1871310568421
 20
-146.5019964911523
 10
78.08532848525297
 20
-146.5064751152831
 10
77.98542071618073
 20
-146.5212890258697
 10
77.98542071618073
 20
-146.5212890258697
 10
77.98542071618073
 20
-146.3118272203665
 10
77.98542071618073
 20
-146.3118272203665
 10
78.08911809028675
 20
-146.3266411309531
 10
78.240874546412
 20
-146.3307752455354
 10
78.28721108068862
 20
-146.3307752455354
 10
78.28721108068862
 20
-146.3307752455354
 10
78.58538409493698
 20
-146.3307752455354
 10
78.58538409493698
 20
-146.3307752455354
 10
78.68718666652612
 20
-146.3307752455354
 10
78.78898923811525
 20
-146.3266411309531
 10
78.8907918097044
 20
-146.3118272203665
 10
78.8907918097044
 20
-146.3118272203665
 10
78.8907918097044
 20
-146.5212890258697
 10
78.8907918097044
 20
-146.5212890258697
 10
78.75936141694211
 20
-146.5019964911523
 10
78.59830320300668
 20
-146.5019964911523
 10
78.58538409493698
 20
-146.5019964911523
 97
        0
 97
        0
 75
     2
 76
     1
 98
        0
  0
SPLINE
  5
79
330
41
100
AcDbEntity
  8
_U+30EC_U+30A4_U+30E4_U+30FC 1
370
     0
100
AcDbSpline
210
0.0
220
0.0
230
1.0
 70
    11
 71
     3
 72
    50
 73
    46
 74
     0
 42
0.0000000001
 43
0.0000000001
 12
1.0
 22
0.0
 32
0.0
 13
1.0
 23
0.0
 33
0.0
 40
0.0
 40
0.0
 40
0.0
 40
0.0
 40
1.0
 40
1.0
 40
1.0
 40
2.0
 40
2.0
 40
2.0
 40
3.0
 40
3.0
 40
3.0
 40
4.0
 40
4.0
 40
4.0
 40
5.0
 40
5.0
 40
5.0
 40
6.0
 40
6.0
 40
6.0
 40
7.0
 40
7.0
 40
7.0
 40
8.0
 40
8.0
 40
8.0
 40
9.0
 40
9.0
 40
9.0
 40
10.0
 40
10.0
 40
10.0
 40
11.0
 40
11.0
 40
11.0
 40
12.0
 40
12.0
 40
12.0
 40
13.0
 40
13.0
 40
13.0
 40
14.0
 40
14.0
 40
14.0
 40
15.0
 40
15.0
 40
15.0
 40
15.0
 10
80.51480982145117
 20
-146.4871825805657
 30
0.0
 10
80.33153074163587
 20
-146.7007785006512
 30
0.0
 10
80.26865774903006
 20
-146.7727809962929
 30
0.0
 10
80.14446205678681
 20
-146.8912922809855
 30
0.0
 10
80.14446205678681
 20
-146.8912922809855
 30
0.0
 10
80.14446205678681
 20
-147.4583549978576
 30
0.0
 10
80.14446205678681
 20
-147.4583549978576
 30
0.0
 10
80.14446205678681
 20
-147.6085611610145
 30
0.0
 10
80.15014646433747
 20
-147.6275091861834
 30
0.0
 10
80.15376381459699
 20
-147.8052761132223
 30
0.0
 10
80.15565861711387
 20
-147.9365342512103
 30
0.0
 10
80.16117076989026
 20
-147.9851100975523
 30
0.0
 10
80.16668292266667
 20
-148.0443657398986
 30
0.0
 10
80.16668292266667
 20
-148.0443657398986
 30
0.0
 10
79.9685899322648
 20
-148.0443657398986
 30
0.0
 10
79.9685899322648
 20
-148.0443657398986
 30
0.0
 10
79.97237953729858
 20
-147.9999240081389
 30
0.0
 10
79.97599688755808
 20
-147.953415219088
 30
0.0
 10
79.97599688755808
 20
-147.9448024803749
 30
0.0
 10
79.97599688755808
 20
-147.8645317555686
 30
0.0
 10
79.97978649259186
 20
-147.5131320160731
 30
0.0
 10
79.97978649259186
 20
-147.4414740299799
 30
0.0
 10
79.97978649259186
 20
-147.4414740299799
 30
0.0
 10
79.97978649259186
 20
-147.035297272269
 30
0.0
 10
79.97978649259186
 20
-147.035297272269
 30
0.0
 10
79.82045082639905
 20
-147.160009728835
 30
0.0
 10
79.65009085465346
 20
-147.2699082748145
 30
0.0
 10
79.47232392761457
 20
-147.3567246810428
 30
0.0
 10
79.47232392761457
 20
-147.3567246810428
 30
0.0
 10
79.29455700057567
 20
-147.1937716645905
 30
0.0
 10
79.29455700057567
 20
-147.1937716645905
 30
0.0
 10
79.40204397971546
 20
-147.1579426715439
 30
0.0
 10
79.62597518625671
 20
-147.083873118611
 30
0.0
 10
79.92793780553885
 20
-146.8279025240569
 30
0.0
 10
80.11672903813054
 20
-146.6690836221869
 30
0.0
 10
80.28519420735925
 20
-146.4809814086923
 30
0.0
 10
80.41851940263842
 20
-146.2608398071848
 30
0.0
 10
80.41851940263842
 20
-146.2608398071848
 30
0.0
 10
80.5871568266414
 20
-146.4048447984682
 30
0.0
 10
80.5871568266414
 20
-146.4048447984682
 30
0.0
 10
80.59818113219421
 20
-146.415180084924
 30
0.0
 10
80.60558808748749
 20
-146.4299939955106
 30
0.0
 10
80.60558808748749
 20
-146.442740848806
 30
0.0
 10
80.60558808748749
 20
-146.4830484659834
 30
0.0
 10
80.57234291605484
 20
-146.4830484659834
 30
0.0
 10
80.51480982145117
 20
-146.4871825805657
 30
0.0
  0
HATCH
  5
7A
330
41
100
AcDbEntity
  8
_U+30EC_U+30A4_U+30E4_U+30FC 1
 62
   179
420
  2234388
100
AcDbHatch
 10
0.0
 20
0.0
 30
0.0
210
0.0
220
0.0
230
1.0
  2
SOLID
 70
     1
 71
     0
 91
        1
 92
        1
 93
        1
 72
     4
 94
        3
 73
     0
 74
     1
 95
       50
 96
       46
 40
0.0
 40
0.0
 40
0.0
 40
0.0
 40
1.0
 40
1.0
 40
1.0
 40
2.0
 40
2.0
 40
2.0
 40
3.0
 40
3.0
 40
3.0
 40
4.0
 40
4.0
 40
4.0
 40
5.0
 40
5.0
 40
5.0
 40
6.0
 40
6.0
 40
6.0
 40
7.0
 40
7.0
 40
7.0
 40
8.0
 40
8.0
 40
8.0
 40
9.0
 40
9.0
 40
9.0
 40
10.0
 40
10.0
 40
10.0
 40
11.0
 40
11.0
 40
11.0
 40
12.0
 40
12.0
 40
12.0
 40
13.0
 40
13.0
 40
13.0
 40
14.0
 40
14.0
 40
14.0
 40
15.0
 40
15.0
 40
15.0
 40
15.0
 10
80.51480982145117
 20
-146.4871825805657
 10
80.33153074163587
 20
-146.7007785006512
 10
80.26865774903006
 20
-146.7727809962929
 10
80.14446205678681
 20
-146.8912922809855
 10
80.14446205678681
 20
-146.8912922809855
 10
80.14446205678681
 20
-147.4583549978576
 10
80.14446205678681
 20
-147.4583549978576
 10
80.14446205678681
 20
-147.6085611610145
 10
80.15014646433747
 20
-147.6275091861834
 10
80.15376381459699
 20
-147.8052761132223
 10
80.15565861711387
 20
-147.9365342512103
 10
80.16117076989026
 20
-147.9851100975523
 10
80.16668292266667
 20
-148.0443657398986
 10
80.16668292266667
 20
-148.0443657398986
 10
79.9685899322648
 20
-148.0443657398986
 10
79.9685899322648
 20
-148.0443657398986
 10
79.97237953729858
 20
-147.9999240081389
 10
79.97599688755808
 20
-147.953415219088
 10
79.97599688755808
 20
-147.9448024803749
 10
79.97599688755808
 20
-147.8645317555686
 10
79.97978649259186
 20
-147.5131320160731
 10
79.97978649259186
 20
-147.4414740299799
 10
79.97978649259186
 20
-147.4414740299799
 10
79.97978649259186
 20
-147.035297272269
 10
79.97978649259186
 20
-147.035297272269
 10
79.82045082639905
 20
-147.160009728835
 10
79.65009085465346
 20
-147.2699082748145
 10
79.47232392761457
 20
-147.3567246810428
 10
79.47232392761457
 20
-147.3567246810428
 10
79.29455700057567
 20
-147.1937716645905
 10
79.29455700057567
 20
-147.1937716645905
 10
79.40204397971546
 20
-147.1579426715439
 10
79.62597518625671
 20
-147.083873118611
 10
79.92793780553885
 20
-146.8279025240569
 10
80.11672903813054
 20
-146.6690836221869
 10
80.28519420735925
 20
-146.4809814086923
 10
80.41851940263842
 20
-146.2608398071848
 10
80.41851940263842
 20
-146.2608398071848
 10
80.5871568266414
 20
-146.4048447984682
 10
80.5871568266414
 20
-146.4048447984682
 10
80.59818113219421
 20
-146.415180084924
 10
80.60558808748749
 20
-146.4299939955106
 10
80.60558808748749
 20
-146.442740848806
 10
80.60558808748749
 20
-146.4830484659834
 10
80.57234291605484
 20
-146.4830484659834
 10
80.51480982145117
 20
-146.4871825805657
 97
        0
 97
        0
 75
     2
 76
     1
 98
        0
  0
SPLINE
  5
7B
330
41
100
AcDbEntity
  8
_U+30EC_U+30A4_U+30E4_U+30FC 1
370
     0
100
AcDbSpline
210
0.0
220
0.0
230
1.0
 70
    11
 71
     3
 72
    50
 73
    46
 74
     0
 42
0.0000000001
 43
0.0000000001
 12
1.0
 22
0.0
 32
0.0
 13
1.0
 23
0.0
 33
0.0
 40
0.0
 40
0.0
 40
0.0
 40
0.0
 40
1.0
 40
1.0
 40
1.0
 40
2.0
 40
2.0
 40
2.0
 40
3.0
 40
3.0
 40
3.0
 40
4.0
 40
4.0
 40
4.0
 40
5.0
 40
5.0
 40
5.0
 40
6.0
 40
6.0
 40
6.0
 40
7.0
 40
7.0
 40
7.0
 40
8.0
 40
8.0
 40
8.0
 40
9.0
 40
9.0
 40
9.0
 40
10.0
 40
10.0
 40
10.0
 40
11.0
 40
11.0
 40
11.0
 40
12.0
 40
12.0
 40
12.0
 40
13.0
 40
13.0
 40
13.0
 40
14.0
 40
14.0
 40
14.0
 40
15.0
 40
15.0
 40
15.0
 40
15.0
 10
82.01118704546943
 20
-147.0139376802604
 30
0.0
 10
81.95744355589953
 20
-147.0859401759021
 30
0.0
 10
81.72972274432452
 20
-147.4032334700937
 30
0.0
 10
81.67959660501413
 20
-147.4666232270222
 30
0.0
 10
81.75366615794701
 20
-147.5641194292548
 30
0.0
 10
81.79810788970673
 20
-147.6275091861834
 30
0.0
 10
81.8556409843104
 20
-147.718459706994
 30
0.0
 10
81.8556409843104
 20
-147.718459706994
 30
0.0
 10
81.69441051560071
 20
-147.8559190168555
 30
0.0
 10
81.69441051560071
 20
-147.8559190168555
 30
0.0
 10
81.5758992309081
 20
-147.6443901540611
 30
0.0
 10
81.42603757729974
 20
-147.4201144379714
 30
0.0
 10
81.16851668977732
 20
-147.2213324284725
 30
0.0
 10
81.16851668977732
 20
-147.2213324284725
 30
0.0
 10
81.29822453479697
 20
-147.0669921507333
 30
0.0
 10
81.29822453479697
 20
-147.0669921507333
 30
0.0
 10
81.39451495360971
 20
-147.1472628755396
 30
0.0
 10
81.48529321964604
 20
-147.236146339059
 30
0.0
 10
81.57038707813172
 20
-147.3312309744519
 30
0.0
 10
81.629642720478
 20
-147.2550943642279
 30
0.0
 10
81.8074096475169
 20
-147.0118706229693
 30
0.0
 10
81.9240261296926
 20
-146.7834607922972
 30
0.0
 10
81.9240261296926
 20
-146.7834607922972
 30
0.0
 10
81.33525931126341
 20
-146.7834607922972
 30
0.0
 10
81.33525931126341
 20
-146.7834607922972
 30
0.0
 10
81.22604978438099
 20
-146.7834607922972
 30
0.0
 10
81.005563673325
 20
-146.7920735310103
 30
0.0
 10
80.8222845935097
 20
-146.8024088174661
 30
0.0
 10
80.8222845935097
 20
-146.8024088174661
 30
0.0
 10
80.8222845935097
 20
-146.5826117255071
 30
0.0
 10
80.8222845935097
 20
-146.5826117255071
 30
0.0
 10
80.98334280744514
 20
-146.601559750676
 30
0.0
 10
81.16300453700092
 20
-146.6056938652583
 30
0.0
 10
81.32785235597012
 20
-146.6056938652583
 30
0.0
 10
81.32785235597012
 20
-146.6056938652583
 30
0.0
 10
81.76848006853358
 20
-146.6056938652583
 30
0.0
 10
81.76848006853358
 20
-146.6056938652583
 30
0.0
 10
82.06475828026507
 20
-146.6056938652583
 30
0.0
 10
82.10368785924838
 20
-146.5908799546717
 30
0.0
 10
82.17586260966438
 20
-146.5509168470428
 30
0.0
 10
82.17586260966438
 20
-146.5509168470428
 30
0.0
 10
82.32227916778749
 20
-146.7093912393643
 30
0.0
 10
82.32227916778749
 20
-146.7093912393643
 30
0.0
 10
82.18895397250832
 20
-146.781393735006
 30
0.0
 10
82.06303573252244
 20
-146.9443467514584
 30
0.0
 10
82.01118704546943
 20
-147.0139376802604
 30
0.0
  0
HATCH
  5
7C
330
41
100
AcDbEntity
  8
_U+30EC_U+30A4_U+30E4_U+30FC 1
 62
   179
420
  2234388
100
AcDbHatch
 10
0.0
 20
0.0
 30
0.0
210
0.0
220
0.0
230
1.0
  2
SOLID
 70
     1
 71
     0
 91
        1
 92
        1
 93
        1
 72
     4
 94
        3
 73
     0
 74
     1
 95
       50
 96
       46
 40
0.0
 40
0.0
 40
0.0
 40
0.0
 40
1.0
 40
1.0
 40
1.0
 40
2.0
 40
2.0
 40
2.0
 40
3.0
 40
3.0
 40
3.0
 40
4.0
 40
4.0
 40
4.0
 40
5.0
 40
5.0
 40
5.0
 40
6.0
 40
6.0
 40
6.0
 40
7.0
 40
7.0
 40
7.0
 40
8.0
 40
8.0
 40
8.0
 40
9.0
 40
9.0
 40
9.0
 40
10.0
 40
10.0
 40
10.0
 40
11.0
 40
11.0
 40
11.0
 40
12.0
 40
12.0
 40
12.0
 40
13.0
 40
13.0
 40
13.0
 40
14.0
 40
14.0
 40
14.0
 40
15.0
 40
15.0
 40
15.0
 40
15.0
 10
82.01118704546943
 20
-147.0139376802604
 10
81.95744355589953
 20
-147.0859401759021
 10
81.72972274432452
 20
-147.4032334700937
 10
81.67959660501413
 20
-147.4666232270222
 10
81.75366615794701
 20
-147.5641194292548
 10
81.79810788970673
 20
-147.6275091861834
 10
81.8556409843104
 20
-147.718459706994
 10
81.8556409843104
 20
-147.718459706994
 10
81.69441051560071
 20
-147.8559190168555
 10
81.69441051560071
 20
-147.8559190168555
 10
81.5758992309081
 20
-147.6443901540611
 10
81.42603757729974
 20
-147.4201144379714
 10
81.16851668977732
 20
-147.2213324284725
 10
81.16851668977732
 20
-147.2213324284725
 10
81.29822453479697
 20
-147.0669921507333
 10
81.29822453479697
 20
-147.0669921507333
 10
81.39451495360971
 20
-147.1472628755396
 10
81.48529321964604
 20
-147.236146339059
 10
81.57038707813172
 20
-147.3312309744519
 10
81.629642720478
 20
-147.2550943642279
 10
81.8074096475169
 20
-147.0118706229693
 10
81.9240261296926
 20
-146.7834607922972
 10
81.9240261296926
 20
-146.7834607922972
 10
81.33525931126341
 20
-146.7834607922972
 10
81.33525931126341
 20
-146.7834607922972
 10
81.22604978438099
 20
-146.7834607922972
 10
81.005563673325
 20
-146.7920735310103
 10
80.8222845935097
 20
-146.8024088174661
 10
80.8222845935097
 20
-146.8024088174661
 10
80.8222845935097
 20
-146.5826117255071
 10
80.8222845935097
 20
-146.5826117255071
 10
80.98334280744514
 20
-146.601559750676
 10
81.16300453700092
 20
-146.6056938652583
 10
81.32785235597012
 20
-146.6056938652583
 10
81.32785235597012
 20
-146.6056938652583
 10
81.76848006853358
 20
-146.6056938652583
 10
81.76848006853358
 20
-146.6056938652583
 10
82.06475828026507
 20
-146.6056938652583
 10
82.10368785924838
 20
-146.5908799546717
 10
82.17586260966438
 20
-146.5509168470428
 10
82.17586260966438
 20
-146.5509168470428
 10
82.32227916778749
 20
-146.7093912393643
 10
82.32227916778749
 20
-146.7093912393643
 10
82.18895397250832
 20
-146.781393735006
 10
82.06303573252244
 20
-146.9443467514584
 10
82.01118704546943
 20
-147.0139376802604
 97
        0
 97
        0
 75
     2
 76
     1
 98
        0
  0
SPLINE
  5
7D
330
41
100
AcDbEntity
  8
_U+30EC_U+30A4_U+30E4_U+30FC 1
370
     0
100
AcDbSpline
210
0.0
220
0.0
230
1.0
 70
    11
 71
     3
 72
    29
 73
    25
 74
     0
 42
0.0000000001
 43
0.0000000001
 12
1.0
 22
0.0
 32
0.0
 13
1.0
 23
0.0
 33
0.0
 40
0.0
 40
0.0
 40
0.0
 40
0.0
 40
1.0
 40
1.0
 40
1.0
 40
2.0
 40
2.0
 40
2.0
 40
3.0
 40
3.0
 40
3.0
 40
4.0
 40
4.0
 40
4.0
 40
5.0
 40
5.0
 40
5.0
 40
6.0
 40
6.0
 40
6.0
 40
7.0
 40
7.0
 40
7.0
 40
8.0
 40
8.0
 40
8.0
 40
8.0
 10
83.43349471655482
 20
-147.257161421519
 30
0.0
 10
83.43349471655482
 20
-147.257161421519
 30
0.0
 10
83.00940346232056
 20
-147.257161421519
 30
0.0
 10
83.00940346232056
 20
-147.257161421519
 30
0.0
 10
82.98528779392382
 20
-147.257161421519
 30
0.0
 10
82.70761309781268
 20
-147.257161421519
 30
0.0
 10
82.5224392154805
 20
-147.2826551281099
 30
0.0
 10
82.5224392154805
 20
-147.2826551281099
 30
0.0
 10
82.5224392154805
 20
-147.0521782401467
 30
0.0
 10
82.5224392154805
 20
-147.0521782401467
 30
0.0
 10
82.66127656353608
 20
-147.0752603798979
 30
0.0
 10
82.82801918502217
 20
-147.0776719467375
 30
0.0
 10
83.00940346232056
 20
-147.0776719467375
 30
0.0
 10
83.00940346232056
 20
-147.0776719467375
 30
0.0
 10
83.43349471655482
 20
-147.0776719467375
 30
0.0
 10
83.43349471655482
 20
-147.0776719467375
 30
0.0
 10
83.59644773300714
 20
-147.0776719467375
 30
0.0
 10
83.75940074945946
 20
-147.0752603798979
 30
0.0
 10
83.92045896339489
 20
-147.0521782401467
 30
0.0
 10
83.92045896339489
 20
-147.0521782401467
 30
0.0
 10
83.92045896339489
 20
-147.2826551281099
 30
0.0
 10
83.92045896339489
 20
-147.2826551281099
 30
0.0
 10
83.75940074945946
 20
-147.2595729883587
 30
0.0
 10
83.54270424343724
 20
-147.257161421519
 30
0.0
 10
83.43349471655482
 20
-147.257161421519
 30
0.0
  0
HATCH
  5
7E
330
41
100
AcDbEntity
  8
_U+30EC_U+30A4_U+30E4_U+30FC 1
 62
   179
420
  2234388
100
AcDbHatch
 10
0.0
 20
0.0
 30
0.0
210
0.0
220
0.0
230
1.0
  2
SOLID
 70
     1
 71
     0
 91
        1
 92
        1
 93
        1
 72
     4
 94
        3
 73
     0
 74
     1
 95
       29
 96
       25
 40
0.0
 40
0.0
 40
0.0
 40
0.0
 40
1.0
 40
1.0
 40
1.0
 40
2.0
 40
2.0
 40
2.0
 40
3.0
 40
3.0
 40
3.0
 40
4.0
 40
4.0
 40
4.0
 40
5.0
 40
5.0
 40
5.0
 40
6.0
 40
6.0
 40
6.0
 40
7.0
 40
7.0
 40
7.0
 40
8.0
 40
8.0
 40
8.0
 40
8.0
 10
83.43349471655482
 20
-147.257161421519
 10
83.43349471655482
 20
-147.257161421519
 10
83.00940346232056
 20
-147.257161421519
 10
83.00940346232056
 20
-147.257161421519
 10
82.98528779392382
 20
-147.257161421519
 10
82.70761309781268
 20
-147.257161421519
 10
82.5224392154805
 20
-147.2826551281099
 10
82.5224392154805
 20
-147.2826551281099
 10
82.5224392154805
 20
-147.0521782401467
 10
82.5224392154805
 20
-147.0521782401467
 10
82.66127656353608
 20
-147.0752603798979
 10
82.82801918502217
 20
-147.0776719467375
 10
83.00940346232056
 20
-147.0776719467375
 10
83.00940346232056
 20
-147.0776719467375
 10
83.43349471655482
 20
-147.0776719467375
 10
83.43349471655482
 20
-147.0776719467375
 10
83.59644773300714
 20
-147.0776719467375
 10
83.75940074945946
 20
-147.0752603798979
 10
83.92045896339489
 20
-147.0521782401467
 10
83.92045896339489
 20
-147.0521782401467
 10
83.92045896339489
 20
-147.2826551281099
 10
83.92045896339489
 20
-147.2826551281099
 10
83.75940074945946
 20
-147.2595729883587
 10
83.54270424343724
 20
-147.257161421519
 10
83.43349471655482
 20
-147.257161421519
 97
        0
 97
        0
 75
     2
 76
     1
 98
        0
  0
ENDBLK
  5
44
330
41
100
AcDbEntity
  8
0
100
AcDbBlockEnd
  0
BLOCK
  5
B5
330
B3
100
AcDbEntity
  8
0
100
AcDbBlockBegin
  2
block 3
 70
     0
 10
0.0
 20
0.0
 30
0.0
  3
block 3
  1

  0
SPLINE
  5
B7
330
B3
100
AcDbEntity
  8
_U+30EC_U+30A4_U+30E4_U+30FC 1
370
     0
100
AcDbSpline
210
0.0
220
0.0
230
1.0
 70
    11
 71
     3
 72
    26
 73
    22
 74
     0
 42
0.0000000001
 43
0.0000000001
 12
1.0
 22
0.0
 32
0.0
 13
1.0
 23
0.0
 33
0.0
 40
0.0
 40
0.0
 40
0.0
 40
0.0
 40
1.0
 40
1.0
 40
1.0
 40
2.0
 40
2.0
 40
2.0
 40
3.0
 40
3.0
 40
3.0
 40
4.0
 40
4.0
 40
4.0
 40
5.0
 40
5.0
 40
5.0
 40
6.0
 40
6.0
 40
6.0
 40
7.0
 40
7.0
 40
7.0
 40
7.0
 10
109.9901855193775
 20
-135.3243841892592
 30
0.0
 10
109.9901855193775
 20
-135.3243841892592
 30
0.0
 10
108.8860324163549
 20
-135.3243841892592
 30
0.0
 10
108.8860324163549
 20
-135.3243841892592
 30
0.0
 10
108.8860324163549
 20
-135.3243841892592
 30
0.0
 10
108.8860324163549
 20
-135.6099826049864
 30
0.0
 10
108.8860324163549
 20
-135.6099826049864
 30
0.0
 10
108.8860324163549
 20
-135.6099826049864
 30
0.0
 10
108.7378933104891
 20
-135.6099826049864
 30
0.0
 10
108.7378933104891
 20
-135.6099826049864
 30
0.0
 10
108.7230793999026
 20
-135.3226616415166
 30
0.0
 10
108.5601263834503
 20
-135.2823540243391
 30
0.0
 10
108.44574921334
 20
-135.2568603177483
 30
0.0
 10
108.44574921334
 20
-135.2568603177483
 30
0.0
 10
108.44574921334
 20
-135.1304253134396
 30
0.0
 10
108.44574921334
 20
-135.1304253134396
 30
0.0
 10
108.44574921334
 20
-135.1304253134396
 30
0.0
 10
109.9901855193775
 20
-135.1304253134396
 30
0.0
 10
109.9901855193775
 20
-135.1304253134396
 30
0.0
 10
109.9901855193775
 20
-135.1304253134396
 30
0.0
 10
109.9901855193775
 20
-135.3243841892592
 30
0.0
 10
109.9901855193775
 20
-135.3243841892592
 30
0.0
  0
HATCH
  5
B8
330
B3
100
AcDbEntity
  8
_U+30EC_U+30A4_U+30E4_U+30FC 1
 62
   179
420
  2234388
100
AcDbHatch
 10
0.0
 20
0.0
 30
0.0
210
0.0
220
0.0
230
1.0
  2
SOLID
 70
     1
 71
     0
 91
        1
 92
        1
 93
        1
 72
     4
 94
        3
 73
     0
 74
     1
 95
       26
 96
       22
 40
0.0
 40
0.0
 40
0.0
 40
0.0
 40
1.0
 40
1.0
 40
1.0
 40
2.0
 40
2.0
 40
2.0
 40
3.0
 40
3.0
 40
3.0
 40
4.0
 40
4.0
 40
4.0
 40
5.0
 40
5.0
 40
5.0
 40
6.0
 40
6.0
 40
6.0
 40
7.0
 40
7.0
 40
7.0
 40
7.0
 10
109.9901855193775
 20
-135.3243841892592
 10
109.9901855193775
 20
-135.3243841892592
 10
108.8860324163549
 20
-135.3243841892592
 10
108.8860324163549
 20
-135.3243841892592
 10
108.8860324163549
 20
-135.3243841892592
 10
108.8860324163549
 20
-135.6099826049864
 10
108.8860324163549
 20
-135.6099826049864
 10
108.8860324163549
 20
-135.6099826049864
 10
108.7378933104891
 20
-135.6099826049864
 10
108.7378933104891
 20
-135.6099826049864
 10
108.7230793999026
 20
-135.3226616415166
 10
108.5601263834503
 20
-135.2823540243391
 10
108.44574921334
 20
-135.2568603177483
 10
108.44574921334
 20
-135.2568603177483
 10
108.44574921334
 20
-135.1304253134396
 10
108.44574921334
 20
-135.1304253134396
 10
108.44574921334
 20
-135.1304253134396
 10
109.9901855193775
 20
-135.1304253134396
 10
109.9901855193775
 20
-135.1304253134396
 10
109.9901855193775
 20
-135.1304253134396
 10
109.9901855193775
 20
-135.3243841892592
 10
109.9901855193775
 20
-135.3243841892592
 97
        0
 97
        0
 75
     2
 76
     1
 98
        0
  0
POLYLINE
  5
B9
330
B3
100
AcDbEntity
  8
_U+30EC_U+30A4_U+30E4_U+30FC 1
370
     0
100
AcDb2dPolyline
 66
     1
 10
0.0
 20
0.0
 30
0.0
  0
VERTEX
  5
BA
330
B9
100
AcDbEntity
  8
_U+30EC_U+30A4_U+30E4_U+30FC 1
370
     0
100
AcDbVertex
100
AcDb2dVertex
 10
109.9901855193775
 20
-134.645700378665
 30
0.0
  0
VERTEX
  5
BB
330
B9
100
AcDbEntity
  8
_U+30EC_U+30A4_U+30E4_U+30FC 1
370
     0
100
AcDbVertex
100
AcDb2dVertex
 10
109.7383490394057
 20
-134.645700378665
 30
0.0
  0
VERTEX
  5
BC
330
B9
100
AcDbEntity
  8
_U+30EC_U+30A4_U+30E4_U+30FC 1
370
     0
100
AcDbVertex
100
AcDb2dVertex
 10
109.7383490394057
 20
-134.4279703439972
 30
0.0
  0
VERTEX
  5
BD
330
B9
100
AcDbEntity
  8
_U+30EC_U+30A4_U+30E4_U+30FC 1
370
     0
100
AcDbVertex
100
AcDb2dVertex
 10
109.9901855193775
 20
-134.4279703439972
 30
0.0
  0
VERTEX
  5
BE
330
B9
100
AcDbEntity
  8
_U+30EC_U+30A4_U+30E4_U+30FC 1
370
     0
100
AcDbVertex
100
AcDb2dVertex
 10
109.9901855193775
 20
-134.645700378665
 30
0.0
  0
SEQEND
  5
BF
330
B9
100
AcDbEntity
  8
_U+30EC_U+30A4_U+30E4_U+30FC 1
370
     0
  0
HATCH
  5
C0
330
B3
100
AcDbEntity
  8
_U+30EC_U+30A4_U+30E4_U+30FC 1
 62
   179
420
  2234388
100
AcDbHatch
 10
0.0
 20
0.0
 30
0.0
210
0.0
220
0.0
230
1.0
  2
SOLID
 70
     1
 71
     0
 91
        1
 92
        1
 93
        4
 72
     1
 10
109.9901855193775
 20
-134.645700378665
 11
109.7383490394057
 21
-134.645700378665
 72
     1
 10
109.7383490394057
 20
-134.645700378665
 11
109.7383490394057
 21
-134.4279703439972
 72
     1
 10
109.7383490394057
 20
-134.4279703439972
 11
109.9901855193775
 21
-134.4279703439972
 72
     1
 10
109.9901855193775
 20
-134.4279703439972
 11
109.9901855193775
 21
-134.645700378665
 97
        0
 75
     2
 76
     1
 98
        0
  0
SPLINE
  5
C1
330
B3
100
AcDbEntity
  8
_U+30EC_U+30A4_U+30E4_U+30FC 1
370
     0
100
AcDbSpline
210
0.0
220
0.0
230
1.0
 70
    11
 71
     3
 72
    53
 73
    49
 74
     0
 42
0.0000000001
 43
0.0000000001
 12
1.0
 22
0.0
 32
0.0
 13
1.0
 23
0.0
 33
0.0
 40
0.0
 40
0.0
 40
0.0
 40
0.0
 40
1.0
 40
1.0
 40
1.0
 40
2.0
 40
2.0
 40
2.0
 40
3.0
 40
3.0
 40
3.0
 40
4.0
 40
4.0
 40
4.0
 40
5.0
 40
5.0
 40
5.0
 40
6.0
 40
6.0
 40
6.0
 40
7.0
 40
7.0
 40
7.0
 40
8.0
 40
8.0
 40
8.0
 40
9.0
 40
9.0
 40
9.0
 40
10.0
 40
10.0
 40
10.0
 40
11.0
 40
11.0
 40
11.0
 40
12.0
 40
12.0
 40
12.0
 40
13.0
 40
13.0
 40
13.0
 40
14.0
 40
14.0
 40
14.0
 40
15.0
 40
15.0
 40
15.0
 40
16.0
 40
16.0
 40
16.0
 40
16.0
 10
110.0408284230106
 20
-133.8078531566522
 30
0.0
 10
110.0408284230106
 20
-133.8753770281631
 30
0.0
 10
110.0239474551329
 20
-133.9635714725855
 30
0.0
 10
109.9605576982043
 20
-134.0510768979109
 30
0.0
 10
109.8506591522248
 20
-134.2012830610677
 30
0.0
 10
109.7194010142368
 20
-134.2195420671396
 30
0.0
 10
109.6115695255485
 20
-134.2360785254688
 30
0.0
 10
109.6115695255485
 20
-134.2360785254688
 30
0.0
 10
109.6115695255485
 20
-134.0438421973918
 30
0.0
 10
109.6115695255485
 20
-134.0438421973918
 30
0.0
 10
109.8103515350474
 20
-133.9962998796954
 30
0.0
 10
109.8399793562206
 20
-133.8864013337159
 30
0.0
 10
109.8399793562206
 20
-133.8061306089096
 30
0.0
 10
109.8399793562206
 20
-133.6852077573773
 30
0.0
 10
109.7404160966968
 20
-133.5536051098408
 30
0.0
 10
109.5078721514425
 20
-133.5536051098408
 30
0.0
 10
109.2519015568884
 20
-133.5536051098408
 30
0.0
 10
109.1819661185378
 20
-133.7089789162255
 30
0.0
 10
109.1819661185378
 20
-133.8133653094286
 30
0.0
 10
109.1819661185378
 20
-133.8409260733106
 30
0.0
 10
109.1819661185378
 20
-133.9635714725855
 30
0.0
 10
109.3111571992347
 20
-134.0403971019066
 30
0.0
 10
109.3111571992347
 20
-134.0403971019066
 30
0.0
 10
109.2922091740658
 20
-134.1923258128061
 30
0.0
 10
109.2922091740658
 20
-134.1923258128061
 30
0.0
 10
109.2922091740658
 20
-134.1923258128061
 30
0.0
 10
108.44574921334
 20
-134.087939419603
 30
0.0
 10
108.44574921334
 20
-134.087939419603
 30
0.0
 10
108.44574921334
 20
-134.087939419603
 30
0.0
 10
108.44574921334
 20
-133.4144232522367
 30
0.0
 10
108.44574921334
 20
-133.4144232522367
 30
0.0
 10
108.44574921334
 20
-133.4144232522367
 30
0.0
 10
108.6403971082566
 20
-133.4144232522367
 30
0.0
 10
108.6403971082566
 20
-133.4144232522367
 30
0.0
 10
108.6403971082566
 20
-133.4144232522367
 30
0.0
 10
108.6403971082566
 20
-133.9470350142563
 30
0.0
 10
108.6403971082566
 20
-133.9470350142563
 30
0.0
 10
108.6403971082566
 20
-133.9470350142563
 30
0.0
 10
109.0634548338453
 20
-134.0035345802144
 30
0.0
 10
109.0634548338453
 20
-134.0035345802144
 30
0.0
 10
109.0296928980898
 20
-133.9504801097416
 30
0.0
 10
108.9893852809124
 20
-133.8791666331969
 30
0.0
 10
108.9893852809124
 20
-133.776847297285
 30
0.0
 10
108.9893852809124
 20
-133.557050205326
 30
0.0
 10
109.1757649466644
 20
-133.3520670239537
 30
0.0
 10
109.4889241262736
 20
-133.3520670239537
 30
0.0
 10
109.8062174204651
 20
-133.3520670239537
 30
0.0
 10
110.0408284230106
 20
-133.5460258997732
 30
0.0
 10
110.0408284230106
 20
-133.8078531566522
 30
0.0
  0
HATCH
  5
C2
330
B3
100
AcDbEntity
  8
_U+30EC_U+30A4_U+30E4_U+30FC 1
 62
   179
420
  2234388
100
AcDbHatch
 10
0.0
 20
0.0
 30
0.0
210
0.0
220
0.0
230
1.0
  2
SOLID
 70
     1
 71
     0
 91
        1
 92
        1
 93
        1
 72
     4
 94
        3
 73
     0
 74
     1
 95
       53
 96
       49
 40
0.0
 40
0.0
 40
0.0
 40
0.0
 40
1.0
 40
1.0
 40
1.0
 40
2.0
 40
2.0
 40
2.0
 40
3.0
 40
3.0
 40
3.0
 40
4.0
 40
4.0
 40
4.0
 40
5.0
 40
5.0
 40
5.0
 40
6.0
 40
6.0
 40
6.0
 40
7.0
 40
7.0
 40
7.0
 40
8.0
 40
8.0
 40
8.0
 40
9.0
 40
9.0
 40
9.0
 40
10.0
 40
10.0
 40
10.0
 40
11.0
 40
11.0
 40
11.0
 40
12.0
 40
12.0
 40
12.0
 40
13.0
 40
13.0
 40
13.0
 40
14.0
 40
14.0
 40
14.0
 40
15.0
 40
15.0
 40
15.0
 40
16.0
 40
16.0
 40
16.0
 40
16.0
 10
110.0408284230106
 20
-133.8078531566522
 10
110.0408284230106
 20
-133.8753770281631
 10
110.0239474551329
 20
-133.9635714725855
 10
109.9605576982043
 20
-134.0510768979109
 10
109.8506591522248
 20
-134.2012830610677
 10
109.7194010142368
 20
-134.2195420671396
 10
109.6115695255485
 20
-134.2360785254688
 10
109.6115695255485
 20
-134.2360785254688
 10
109.6115695255485
 20
-134.0438421973918
 10
109.6115695255485
 20
-134.0438421973918
 10
109.8103515350474
 20
-133.9962998796954
 10
109.8399793562206
 20
-133.8864013337159
 10
109.8399793562206
 20
-133.8061306089096
 10
109.8399793562206
 20
-133.6852077573773
 10
109.7404160966968
 20
-133.5536051098408
 10
109.5078721514425
 20
-133.5536051098408
 10
109.2519015568884
 20
-133.5536051098408
 10
109.1819661185378
 20
-133.7089789162255
 10
109.1819661185378
 20
-133.8133653094286
 10
109.1819661185378
 20
-133.8409260733106
 10
109.1819661185378
 20
-133.9635714725855
 10
109.3111571992347
 20
-134.0403971019066
 10
109.3111571992347
 20
-134.0403971019066
 10
109.2922091740658
 20
-134.1923258128061
 10
109.2922091740658
 20
-134.1923258128061
 10
109.2922091740658
 20
-134.1923258128061
 10
108.44574921334
 20
-134.087939419603
 10
108.44574921334
 20
-134.087939419603
 10
108.44574921334
 20
-134.087939419603
 10
108.44574921334
 20
-133.4144232522367
 10
108.44574921334
 20
-133.4144232522367
 10
108.44574921334
 20
-133.4144232522367
 10
108.6403971082566
 20
-133.4144232522367
 10
108.6403971082566
 20
-133.4144232522367
 10
108.6403971082566
 20
-133.4144232522367
 10
108.6403971082566
 20
-133.9470350142563
 10
108.6403971082566
 20
-133.9470350142563
 10
108.6403971082566
 20
-133.9470350142563
 10
109.0634548338453
 20
-134.0035345802144
 10
109.0634548338453
 20
-134.0035345802144
 10
109.0296928980898
 20
-133.9504801097416
 10
108.9893852809124
 20
-133.8791666331969
 10
108.9893852809124
 20
-133.776847297285
 10
108.9893852809124
 20
-133.557050205326
 10
109.1757649466644
 20
-133.3520670239537
 10
109.4889241262736
 20
-133.3520670239537
 10
109.8062174204651
 20
-133.3520670239537
 10
110.0408284230106
 20
-133.5460258997732
 10
110.0408284230106
 20
-133.8078531566522
 97
        0
 97
        0
 75
     2
 76
     1
 98
        0
  0
ENDBLK
  5
B6
330
B3
100
AcDbEntity
  8
0
100
AcDbBlockEnd
  0
BLOCK
  5
D1
330
CF
100
AcDbEntity
  8
0
100
AcDbBlockBegin
  2
block 4
 70
     0
 10
0.0
 20
0.0
 30
0.0
  3
block 4
  1

  0
SPLINE
  5
D3
330
CF
100
AcDbEntity
  8
_U+30EC_U+30A4_U+30E4_U+30FC 1
370
     0
100
AcDbSpline
210
0.0
220
0.0
230
1.0
 70
    11
 71
     3
 72
    62
 73
    58
 74
     0
 42
0.0000000001
 43
0.0000000001
 12
1.0
 22
0.0
 32
0.0
 13
1.0
 23
0.0
 33
0.0
 40
0.0
 40
0.0
 40
0.0
 40
0.0
 40
1.0
 40
1.0
 40
1.0
 40
2.0
 40
2.0
 40
2.0
 40
3.0
 40
3.0
 40
3.0
 40
4.0
 40
4.0
 40
4.0
 40
5.0
 40
5.0
 40
5.0
 40
6.0
 40
6.0
 40
6.0
 40
7.0
 40
7.0
 40
7.0
 40
8.0
 40
8.0
 40
8.0
 40
9.0
 40
9.0
 40
9.0
 40
10.0
 40
10.0
 40
10.0
 40
11.0
 40
11.0
 40
11.0
 40
12.0
 40
12.0
 40
12.0
 40
13.0
 40
13.0
 40
13.0
 40
14.0
 40
14.0
 40
14.0
 40
15.0
 40
15.0
 40
15.0
 40
16.0
 40
16.0
 40
16.0
 40
17.0
 40
17.0
 40
17.0
 40
18.0
 40
18.0
 40
18.0
 40
19.0
 40
19.0
 40
19.0
 40
19.0
 10
91.36462128792274
 20
-142.7506320172637
 30
0.0
 10
91.28228350582526
 20
-142.7506320172637
 30
0.0
 10
91.09349227323358
 20
-142.7296169348037
 30
0.0
 10
90.98566078454526
 20
-142.5435817786002
 30
0.0
 10
90.92158200851961
 20
-142.4312716657811
 30
0.0
 10
90.91779240348583
 20
-142.3320529158059
 30
0.0
 10
90.91434730800059
 20
-142.2473035668687
 30
0.0
 10
90.91434730800059
 20
-142.2473035668687
 30
0.0
 10
91.10451657878637
 20
-142.2473035668687
 30
0.0
 10
91.10451657878637
 20
-142.2473035668687
 30
0.0
 10
91.10658363607753
 20
-142.3213731198016
 30
0.0
 10
91.11554088433917
 20
-142.5559841223471
 30
0.0
 10
91.36083168288896
 20
-142.5559841223471
 30
0.0
 10
91.47968747713008
 20
-142.5559841223471
 30
0.0
 10
91.61163463421515
 20
-142.4863931935451
 30
0.0
 10
91.61163463421515
 20
-142.257983362873
 30
0.0
 10
91.61163463421515
 20
-142.1415391354716
 30
0.0
 10
91.57856171755675
 20
-142.0929632891296
 30
0.0
 10
91.55100095367476
 20
-142.0612684106652
 30
0.0
 10
91.48726668719763
 20
-141.9871988577324
 30
0.0
 10
91.38632538947981
 20
-141.974452004437
 30
0.0
 10
91.33878307178337
 20
-141.974452004437
 30
0.0
 10
91.32224661345417
 20
-141.974452004437
 30
0.0
 10
91.29124075408691
 20
-141.9765190617281
 30
0.0
 10
91.2674695952387
 20
-141.9806531763104
 30
0.0
 10
91.2674695952387
 20
-141.9806531763104
 30
0.0
 10
91.2674695952387
 20
-141.7860052813938
 30
0.0
 10
91.2674695952387
 20
-141.7860052813938
 30
0.0
 10
91.30054251189709
 20
-141.7925509628158
 30
0.0
 10
91.33706052404074
 20
-141.7946180201069
 30
0.0
 10
91.34257267681714
 20
-141.7946180201069
 30
0.0
 10
91.39941675232376
 20
-141.7946180201069
 30
0.0
 10
91.57132701703773
 20
-141.7732584280984
 30
0.0
 10
91.57132701703773
 20
-141.5365803682617
 30
0.0
 10
91.57132701703773
 20
-141.3588134412228
 30
0.0
 10
91.45798337557301
 20
-141.3036919134588
 30
0.0
 10
91.36255423063159
 20
-141.3036919134588
 30
0.0
 10
91.133799890411
 20
-141.3036919134588
 30
0.0
 10
91.12656518989198
 20
-141.5365803682617
 30
0.0
 10
91.1227755848582
 20
-141.6082383543549
 30
0.0
 10
91.1227755848582
 20
-141.6082383543549
 30
0.0
 10
90.94707571511046
 20
-141.6082383543549
 30
0.0
 10
90.94707571511046
 20
-141.6082383543549
 30
0.0
 10
90.954654925178
 20
-141.4835258977888
 30
0.0
 10
90.97842608402622
 20
-141.106976961251
 30
0.0
 10
91.37357853618438
 20
-141.106976961251
 30
0.0
 10
91.56753741200396
 20
-141.106976961251
 30
0.0
 10
91.77631019841009
 20
-141.2341009846567
 30
0.0
 10
91.77631019841009
 20
-141.5300346868397
 30
0.0
 10
91.77631019841009
 20
-141.7164143525917
 30
0.0
 10
91.69397241631262
 20
-141.7987521346892
 30
0.0
 10
91.60784502918138
 20
-141.8600748343267
 30
0.0
 10
91.66089949965422
 20
-141.8876355982086
 30
0.0
 10
91.81834036333014
 20
-141.967906323015
 30
0.0
 10
91.81834036333014
 20
-142.2452365095776
 30
0.0
 10
91.81834036333014
 20
-142.5835448862291
 30
0.0
 10
91.60439993369613
 20
-142.7506320172637
 30
0.0
 10
91.36462128792274
 20
-142.7506320172637
 30
0.0
  0
HATCH
  5
D4
330
CF
100
AcDbEntity
  8
_U+30EC_U+30A4_U+30E4_U+30FC 1
 62
   179
420
  2234388
100
AcDbHatch
 10
0.0
 20
0.0
 30
0.0
210
0.0
220
0.0
230
1.0
  2
SOLID
 70
     1
 71
     0
 91
        1
 92
        1
 93
        1
 72
     4
 94
        3
 73
     0
 74
     1
 95
       62
 96
       58
 40
0.0
 40
0.0
 40
0.0
 40
0.0
 40
1.0
 40
1.0
 40
1.0
 40
2.0
 40
2.0
 40
2.0
 40
3.0
 40
3.0
 40
3.0
 40
4.0
 40
4.0
 40
4.0
 40
5.0
 40
5.0
 40
5.0
 40
6.0
 40
6.0
 40
6.0
 40
7.0
 40
7.0
 40
7.0
 40
8.0
 40
8.0
 40
8.0
 40
9.0
 40
9.0
 40
9.0
 40
10.0
 40
10.0
 40
10.0
 40
11.0
 40
11.0
 40
11.0
 40
12.0
 40
12.0
 40
12.0
 40
13.0
 40
13.0
 40
13.0
 40
14.0
 40
14.0
 40
14.0
 40
15.0
 40
15.0
 40
15.0
 40
16.0
 40
16.0
 40
16.0
 40
17.0
 40
17.0
 40
17.0
 40
18.0
 40
18.0
 40
18.0
 40
19.0
 40
19.0
 40
19.0
 40
19.0
 10
91.36462128792274
 20
-142.7506320172637
 10
91.28228350582526
 20
-142.7506320172637
 10
91.09349227323358
 20
-142.7296169348037
 10
90.98566078454526
 20
-142.5435817786002
 10
90.92158200851961
 20
-142.4312716657811
 10
90.91779240348583
 20
-142.3320529158059
 10
90.91434730800059
 20
-142.2473035668687
 10
90.91434730800059
 20
-142.2473035668687
 10
91.10451657878637
 20
-142.2473035668687
 10
91.10451657878637
 20
-142.2473035668687
 10
91.10658363607753
 20
-142.3213731198016
 10
91.11554088433917
 20
-142.5559841223471
 10
91.36083168288896
 20
-142.5559841223471
 10
91.47968747713008
 20
-142.5559841223471
 10
91.61163463421515
 20
-142.4863931935451
 10
91.61163463421515
 20
-142.257983362873
 10
91.61163463421515
 20
-142.1415391354716
 10
91.57856171755675
 20
-142.0929632891296
 10
91.55100095367476
 20
-142.0612684106652
 10
91.48726668719763
 20
-141.9871988577324
 10
91.38632538947981
 20
-141.974452004437
 10
91.33878307178337
 20
-141.974452004437
 10
91.32224661345417
 20
-141.974452004437
 10
91.29124075408691
 20
-141.9765190617281
 10
91.2674695952387
 20
-141.9806531763104
 10
91.2674695952387
 20
-141.9806531763104
 10
91.2674695952387
 20
-141.7860052813938
 10
91.2674695952387
 20
-141.7860052813938
 10
91.30054251189709
 20
-141.7925509628158
 10
91.33706052404074
 20
-141.7946180201069
 10
91.34257267681714
 20
-141.7946180201069
 10
91.39941675232376
 20
-141.7946180201069
 10
91.57132701703773
 20
-141.7732584280984
 10
91.57132701703773
 20
-141.5365803682617
 10
91.57132701703773
 20
-141.3588134412228
 10
91.45798337557301
 20
-141.3036919134588
 10
91.36255423063159
 20
-141.3036919134588
 10
91.133799890411
 20
-141.3036919134588
 10
91.12656518989198
 20
-141.5365803682617
 10
91.1227755848582
 20
-141.6082383543549
 10
91.1227755848582
 20
-141.6082383543549
 10
90.94707571511046
 20
-141.6082383543549
 10
90.94707571511046
 20
-141.6082383543549
 10
90.954654925178
 20
-141.4835258977888
 10
90.97842608402622
 20
-141.106976961251
 10
91.37357853618438
 20
-141.106976961251
 10
91.56753741200396
 20
-141.106976961251
 10
91.77631019841009
 20
-141.2341009846567
 10
91.77631019841009
 20
-141.5300346868397
 10
91.77631019841009
 20
-141.7164143525917
 10
91.69397241631262
 20
-141.7987521346892
 10
91.60784502918138
 20
-141.8600748343267
 10
91.66089949965422
 20
-141.8876355982086
 10
91.81834036333014
 20
-141.967906323015
 10
91.81834036333014
 20
-142.2452365095776
 10
91.81834036333014
 20
-142.5835448862291
 10
91.60439993369613
 20
-142.7506320172637
 10
91.36462128792274
 20
-142.7506320172637
 97
        0
 97
        0
 75
     2
 76
     1
 98
        0
  0
SPLINE
  5
D5
330
CF
100
AcDbEntity
  8
_U+30EC_U+30A4_U+30E4_U+30FC 1
370
     0
100
AcDbSpline
210
0.0
220
0.0
230
1.0
 70
    11
 71
     3
 72
    29
 73
    25
 74
     0
 42
0.0000000001
 43
0.0000000001
 12
1.0
 22
0.0
 32
0.0
 13
1.0
 23
0.0
 33
0.0
 40
0.0
 40
0.0
 40
0.0
 40
0.0
 40
1.0
 40
1.0
 40
1.0
 40
2.0
 40
2.0
 40
2.0
 40
3.0
 40
3.0
 40
3.0
 40
4.0
 40
4.0
 40
4.0
 40
5.0
 40
5.0
 40
5.0
 40
6.0
 40
6.0
 40
6.0
 40
7.0
 40
7.0
 40
7.0
 40
8.0
 40
8.0
 40
8.0
 40
8.0
 10
92.7333577242125
 20
-142.5222221865917
 30
0.0
 10
92.63999563656223
 20
-142.7316839920949
 30
0.0
 10
92.48978947340534
 20
-142.7506320172637
 30
0.0
 10
92.38919268523604
 20
-142.7506320172637
 30
0.0
 10
92.25001082763194
 20
-142.7506320172637
 30
0.0
 10
92.12736542835705
 20
-142.7041232282129
 30
0.0
 10
92.04502764625958
 20
-142.5222221865917
 30
0.0
 10
91.95545516364308
 20
-142.3275742916751
 30
0.0
 10
91.93891870531388
 20
-142.0905517222899
 30
0.0
 10
91.93891870531388
 20
-141.9279432153861
 30
0.0
 10
91.93891870531388
 20
-141.7839382241026
 30
0.0
 10
91.95338810635194
 20
-141.5321017441309
 30
0.0
 10
92.04502764625958
 20
-141.3333197346319
 30
0.0
 10
92.13838973390985
 20
-141.1304036105507
 30
0.0
 10
92.27757159151395
 20
-141.106976961251
 30
0.0
 10
92.38919268523604
 20
-141.106976961251
 30
0.0
 10
92.52630748554898
 20
-141.106976961251
 30
0.0
 10
92.65101994211503
 20
-141.1514186930108
 30
0.0
 10
92.7333577242125
 20
-141.3333197346319
 30
0.0
 10
92.81914060179523
 20
-141.5259005722574
 30
0.0
 10
92.8394666651582
 20
-141.7543104029295
 30
0.0
 10
92.8394666651582
 20
-141.9279432153861
 30
0.0
 10
92.8394666651582
 20
-142.099164461003
 30
0.0
 10
92.82120765908637
 20
-142.3296413489662
 30
0.0
 10
92.7333577242125
 20
-142.5222221865917
 30
0.0
  0
SPLINE
  5
D6
330
CF
100
AcDbEntity
  8
_U+30EC_U+30A4_U+30E4_U+30FC 1
370
     0
100
AcDbSpline
210
0.0
220
0.0
230
1.0
 70
    11
 71
     3
 72
    17
 73
    13
 74
     0
 42
0.0000000001
 43
0.0000000001
 12
1.0
 22
0.0
 32
0.0
 13
1.0
 23
0.0
 33
0.0
 40
0.0
 40
0.0
 40
0.0
 40
0.0
 40
1.0
 40
1.0
 40
1.0
 40
2.0
 40
2.0
 40
2.0
 40
3.0
 40
3.0
 40
3.0
 40
4.0
 40
4.0
 40
4.0
 40
4.0
 10
92.38919268523604
 20
-141.2995577988765
 30
0.0
 10
92.17318519831088
 20
-141.2995577988765
 30
0.0
 10
92.13287758113346
 20
-141.5830891573126
 30
0.0
 10
92.13287758113346
 20
-141.9279432153861
 30
0.0
 10
92.13287758113346
 20
-142.2473035668687
 30
0.0
 10
92.1638834405007
 20
-142.5559841223471
 30
0.0
 10
92.38919268523604
 20
-142.5559841223471
 30
0.0
 10
92.60313311487005
 20
-142.5559841223471
 30
0.0
 10
92.64550778933862
 20
-142.2748643307507
 30
0.0
 10
92.64550778933862
 20
-141.9279432153861
 30
0.0
 10
92.64550778933862
 20
-141.6082383543549
 30
0.0
 10
92.61243487268023
 20
-141.2995577988765
 30
0.0
 10
92.38919268523604
 20
-141.2995577988765
 30
0.0
  0
HATCH
  5
D7
330
CF
100
AcDbEntity
  8
_U+30EC_U+30A4_U+30E4_U+30FC 1
 62
   179
420
  2234388
100
AcDbHatch
 10
0.0
 20
0.0
 30
0.0
210
0.0
220
0.0
230
1.0
  2
SOLID
 70
     1
 71
     0
 91
        2
 92
        1
 93
        1
 72
     4
 94
        3
 73
     0
 74
     1
 95
       29
 96
       25
 40
0.0
 40
0.0
 40
0.0
 40
0.0
 40
1.0
 40
1.0
 40
1.0
 40
2.0
 40
2.0
 40
2.0
 40
3.0
 40
3.0
 40
3.0
 40
4.0
 40
4.0
 40
4.0
 40
5.0
 40
5.0
 40
5.0
 40
6.0
 40
6.0
 40
6.0
 40
7.0
 40
7.0
 40
7.0
 40
8.0
 40
8.0
 40
8.0
 40
8.0
 10
92.7333577242125
 20
-142.5222221865917
 10
92.63999563656223
 20
-142.7316839920949
 10
92.48978947340534
 20
-142.7506320172637
 10
92.38919268523604
 20
-142.7506320172637
 10
92.25001082763194
 20
-142.7506320172637
 10
92.12736542835705
 20
-142.7041232282129
 10
92.04502764625958
 20
-142.5222221865917
 10
91.95545516364308
 20
-142.3275742916751
 10
91.93891870531388
 20
-142.0905517222899
 10
91.93891870531388
 20
-141.9279432153861
 10
91.93891870531388
 20
-141.7839382241026
 10
91.95338810635194
 20
-141.5321017441309
 10
92.04502764625958
 20
-141.3333197346319
 10
92.13838973390985
 20
-141.1304036105507
 10
92.27757159151395
 20
-141.106976961251
 10
92.38919268523604
 20
-141.106976961251
 10
92.52630748554898
 20
-141.106976961251
 10
92.65101994211503
 20
-141.1514186930108
 10
92.7333577242125
 20
-141.3333197346319
 10
92.81914060179523
 20
-141.5259005722574
 10
92.8394666651582
 20
-141.7543104029295
 10
92.8394666651582
 20
-141.9279432153861
 10
92.8394666651582
 20
-142.099164461003
 10
92.82120765908637
 20
-142.3296413489662
 10
92.7333577242125
 20
-142.5222221865917
 97
        0
 97
        0
 92
        1
 93
        1
 72
     4
 94
        3
 73
     0
 74
     1
 95
       17
 96
       13
 40
0.0
 40
0.0
 40
0.0
 40
0.0
 40
1.0
 40
1.0
 40
1.0
 40
2.0
 40
2.0
 40
2.0
 40
3.0
 40
3.0
 40
3.0
 40
4.0
 40
4.0
 40
4.0
 40
4.0
 10
92.38919268523604
 20
-141.2995577988765
 10
92.17318519831088
 20
-141.2995577988765
 10
92.13287758113346
 20
-141.5830891573126
 10
92.13287758113346
 20
-141.9279432153861
 10
92.13287758113346
 20
-142.2473035668687
 10
92.1638834405007
 20
-142.5559841223471
 10
92.38919268523604
 20
-142.5559841223471
 10
92.60313311487005
 20
-142.5559841223471
 10
92.64550778933862
 20
-142.2748643307507
 10
92.64550778933862
 20
-141.9279432153861
 10
92.64550778933862
 20
-141.6082383543549
 10
92.61243487268023
 20
-141.2995577988765
 10
92.38919268523604
 20
-141.2995577988765
 97
        0
 97
        0
 75
     2
 76
     1
 98
        0
  0
ENDBLK
  5
D2
330
CF
100
AcDbEntity
  8
0
100
AcDbBlockEnd
  0
BLOCK
  5
E6
330
E4
100
AcDbEntity
  8
0
100
AcDbBlockBegin
  2
block 5
 70
     0
 10
0.0
 20
0.0
 30
0.0
  3
block 5
  1

  0
SPLINE
  5
E8
330
E4
100
AcDbEntity
  8
_U+30EC_U+30A4_U+30E4_U+30FC 1
370
     0
100
AcDbSpline
210
0.0
220
0.0
230
1.0
 70
    11
 71
     3
 72
    62
 73
    58
 74
     0
 42
0.0000000001
 43
0.0000000001
 12
1.0
 22
0.0
 32
0.0
 13
1.0
 23
0.0
 33
0.0
 40
0.0
 40
0.0
 40
0.0
 40
0.0
 40
1.0
 40
1.0
 40
1.0
 40
2.0
 40
2.0
 40
2.0
 40
3.0
 40
3.0
 40
3.0
 40
4.0
 40
4.0
 40
4.0
 40
5.0
 40
5.0
 40
5.0
 40
6.0
 40
6.0
 40
6.0
 40
7.0
 40
7.0
 40
7.0
 40
8.0
 40
8.0
 40
8.0
 40
9.0
 40
9.0
 40
9.0
 40
10.0
 40
10.0
 40
10.0
 40
11.0
 40
11.0
 40
11.0
 40
12.0
 40
12.0
 40
12.0
 40
13.0
 40
13.0
 40
13.0
 40
14.0
 40
14.0
 40
14.0
 40
15.0
 40
15.0
 40
15.0
 40
16.0
 40
16.0
 40
16.0
 40
17.0
 40
17.0
 40
17.0
 40
18.0
 40
18.0
 40
18.0
 40
19.0
 40
19.0
 40
19.0
 40
19.0
 10
72.83155787024697
 20
-125.0469753376619
 30
0.0
 10
72.83155787024697
 20
-125.1293131197593
 30
0.0
 10
72.81037053301269
 20
-125.318104352351
 30
0.0
 10
72.62416312203493
 20
-125.4259358410394
 30
0.0
 10
72.51202526399005
 20
-125.490014617065
 30
0.0
 10
72.41263425924059
 20
-125.4938042220988
 30
0.0
 10
72.32805716507771
 20
-125.497249317584
 30
0.0
 10
72.32805716507771
 20
-125.497249317584
 30
0.0
 10
72.32805716507771
 20
-125.3070800467982
 30
0.0
 10
72.32805716507771
 20
-125.3070800467982
 30
0.0
 10
72.40212671801058
 20
-125.3050129895071
 30
0.0
 10
72.63690997533035
 20
-125.2960557412454
 30
0.0
 10
72.63690997533035
 20
-125.0507649426957
 30
0.0
 10
72.63690997533035
 20
-124.9319091484545
 30
0.0
 10
72.56714679175406
 20
-124.7999619913695
 30
0.0
 10
72.33856470630772
 20
-124.7999619913695
 30
0.0
 10
72.22229273368055
 20
-124.7999619913695
 30
0.0
 10
72.17354463256426
 20
-124.8330349080279
 30
0.0
 10
72.14184975409995
 20
-124.8602511623613
 30
0.0
 10
72.06778020116708
 20
-124.924329938387
 30
0.0
 10
72.05520560264593
 20
-125.0252712361048
 30
0.0
 10
72.05520560264593
 20
-125.0728135538013
 30
0.0
 10
72.05520560264593
 20
-125.0893500121305
 30
0.0
 10
72.05727265993707
 20
-125.1203558714977
 30
0.0
 10
72.06140677451937
 20
-125.1441270303459
 30
0.0
 10
72.06140677451937
 20
-125.1441270303459
 30
0.0
 10
71.86675887960276
 20
-125.1441270303459
 30
0.0
 10
71.86675887960276
 20
-125.1441270303459
 30
0.0
 10
71.87313230625047
 20
-125.1110541136875
 30
0.0
 10
71.87537161831588
 20
-125.0745361015439
 30
0.0
 10
71.87537161831588
 20
-125.0690239487675
 30
0.0
 10
71.87537161831588
 20
-125.0121798732608
 30
0.0
 10
71.8541842810816
 20
-124.8402696085469
 30
0.0
 10
71.61716171169641
 20
-124.8402696085469
 30
0.0
 10
71.43956703943178
 20
-124.8402696085469
 30
0.0
 10
71.38444551166778
 20
-124.9536132500116
 30
0.0
 10
71.38444551166778
 20
-125.049042394953
 30
0.0
 10
71.38444551166778
 20
-125.2777967351736
 30
0.0
 10
71.61716171169641
 20
-125.2850314356926
 30
0.0
 10
71.68916420733812
 20
-125.2888210407264
 30
0.0
 10
71.68916420733812
 20
-125.2888210407264
 30
0.0
 10
71.68916420733812
 20
-125.4645209104741
 30
0.0
 10
71.68916420733812
 20
-125.4645209104741
 30
0.0
 10
71.56427949599782
 20
-125.4569417004066
 30
0.0
 10
71.18773055946002
 20
-125.4331705415584
 30
0.0
 10
71.18773055946002
 20
-125.0380180894002
 30
0.0
 10
71.18773055946002
 20
-124.8440592135807
 30
0.0
 10
71.31468232809146
 20
-124.6352864271745
 30
0.0
 10
71.6107882850487
 20
-124.6352864271745
 30
0.0
 10
71.79699569602644
 20
-124.6352864271745
 30
0.0
 10
71.87950573289818
 20
-124.717624209272
 30
0.0
 10
71.94082843253562
 20
-124.8037515964032
 30
0.0
 10
71.96838919641763
 20
-124.7506971259304
 30
0.0
 10
72.04883217599821
 20
-124.5932562622545
 30
0.0
 10
72.32599010778657
 20
-124.5932562622545
 30
0.0
 10
72.66447073921236
 20
-124.5932562622545
 30
0.0
 10
72.83155787024697
 20
-124.8071966918885
 30
0.0
 10
72.83155787024697
 20
-125.0469753376619
 30
0.0
  0
HATCH
  5
E9
330
E4
100
AcDbEntity
  8
_U+30EC_U+30A4_U+30E4_U+30FC 1
 62
   179
420
  2234388
100
AcDbHatch
 10
0.0
 20
0.0
 30
0.0
210
0.0
220
0.0
230
1.0
  2
SOLID
 70
     1
 71
     0
 91
        1
 92
        1
 93
        1
 72
     4
 94
        3
 73
     0
 74
     1
 95
       62
 96
       58
 40
0.0
 40
0.0
 40
0.0
 40
0.0
 40
1.0
 40
1.0
 40
1.0
 40
2.0
 40
2.0
 40
2.0
 40
3.0
 40
3.0
 40
3.0
 40
4.0
 40
4.0
 40
4.0
 40
5.0
 40
5.0
 40
5.0
 40
6.0
 40
6.0
 40
6.0
 40
7.0
 40
7.0
 40
7.0
 40
8.0
 40
8.0
 40
8.0
 40
9.0
 40
9.0
 40
9.0
 40
10.0
 40
10.0
 40
10.0
 40
11.0
 40
11.0
 40
11.0
 40
12.0
 40
12.0
 40
12.0
 40
13.0
 40
13.0
 40
13.0
 40
14.0
 40
14.0
 40
14.0
 40
15.0
 40
15.0
 40
15.0
 40
16.0
 40
16.0
 40
16.0
 40
17.0
 40
17.0
 40
17.0
 40
18.0
 40
18.0
 40
18.0
 40
19.0
 40
19.0
 40
19.0
 40
19.0
 10
72.83155787024697
 20
-125.0469753376619
 10
72.83155787024697
 20
-125.1293131197593
 10
72.81037053301269
 20
-125.318104352351
 10
72.62416312203493
 20
-125.4259358410394
 10
72.51202526399005
 20
-125.490014617065
 10
72.41263425924059
 20
-125.4938042220988
 10
72.32805716507771
 20
-125.497249317584
 10
72.32805716507771
 20
-125.497249317584
 10
72.32805716507771
 20
-125.3070800467982
 10
72.32805716507771
 20
-125.3070800467982
 10
72.40212671801058
 20
-125.3050129895071
 10
72.63690997533035
 20
-125.2960557412454
 10
72.63690997533035
 20
-125.0507649426957
 10
72.63690997533035
 20
-124.9319091484545
 10
72.56714679175406
 20
-124.7999619913695
 10
72.33856470630772
 20
-124.7999619913695
 10
72.22229273368055
 20
-124.7999619913695
 10
72.17354463256426
 20
-124.8330349080279
 10
72.14184975409995
 20
-124.8602511623613
 10
72.06778020116708
 20
-124.924329938387
 10
72.05520560264593
 20
-125.0252712361048
 10
72.05520560264593
 20
-125.0728135538013
 10
72.05520560264593
 20
-125.0893500121305
 10
72.05727265993707
 20
-125.1203558714977
 10
72.06140677451937
 20
-125.1441270303459
 10
72.06140677451937
 20
-125.1441270303459
 10
71.86675887960276
 20
-125.1441270303459
 10
71.86675887960276
 20
-125.1441270303459
 10
71.87313230625047
 20
-125.1110541136875
 10
71.87537161831588
 20
-125.0745361015439
 10
71.87537161831588
 20
-125.0690239487675
 10
71.87537161831588
 20
-125.0121798732608
 10
71.8541842810816
 20
-124.8402696085469
 10
71.61716171169641
 20
-124.8402696085469
 10
71.43956703943178
 20
-124.8402696085469
 10
71.38444551166778
 20
-124.9536132500116
 10
71.38444551166778
 20
-125.049042394953
 10
71.38444551166778
 20
-125.2777967351736
 10
71.61716171169641
 20
-125.2850314356926
 10
71.68916420733812
 20
-125.2888210407264
 10
71.68916420733812
 20
-125.2888210407264
 10
71.68916420733812
 20
-125.4645209104741
 10
71.68916420733812
 20
-125.4645209104741
 10
71.56427949599782
 20
-125.4569417004066
 10
71.18773055946002
 20
-125.4331705415584
 10
71.18773055946002
 20
-125.0380180894002
 10
71.18773055946002
 20
-124.8440592135807
 10
71.31468232809146
 20
-124.6352864271745
 10
71.6107882850487
 20
-124.6352864271745
 10
71.79699569602644
 20
-124.6352864271745
 10
71.87950573289818
 20
-124.717624209272
 10
71.94082843253562
 20
-124.8037515964032
 10
71.96838919641763
 20
-124.7506971259304
 10
72.04883217599821
 20
-124.5932562622545
 10
72.32599010778657
 20
-124.5932562622545
 10
72.66447073921236
 20
-124.5932562622545
 10
72.83155787024697
 20
-124.8071966918885
 10
72.83155787024697
 20
-125.0469753376619
 97
        0
 97
        0
 75
     2
 76
     1
 98
        0
  0
SPLINE
  5
EA
330
E4
100
AcDbEntity
  8
_U+30EC_U+30A4_U+30E4_U+30FC 1
370
     0
100
AcDbSpline
210
0.0
220
0.0
230
1.0
 70
    11
 71
     3
 72
    29
 73
    25
 74
     0
 42
0.0000000001
 43
0.0000000001
 12
1.0
 22
0.0
 32
0.0
 13
1.0
 23
0.0
 33
0.0
 40
0.0
 40
0.0
 40
0.0
 40
0.0
 40
1.0
 40
1.0
 40
1.0
 40
2.0
 40
2.0
 40
2.0
 40
3.0
 40
3.0
 40
3.0
 40
4.0
 40
4.0
 40
4.0
 40
5.0
 40
5.0
 40
5.0
 40
6.0
 40
6.0
 40
6.0
 40
7.0
 40
7.0
 40
7.0
 40
8.0
 40
8.0
 40
8.0
 40
8.0
 10
72.60297578480065
 20
-123.6782389013721
 30
0.0
 10
72.81243759030384
 20
-123.7716009890224
 30
0.0
 10
72.83155787024697
 20
-123.9218071521793
 30
0.0
 10
72.83155787024697
 20
-124.0224039403486
 30
0.0
 10
72.83155787024697
 20
-124.1615857979527
 30
0.0
 10
72.7850490811961
 20
-124.2842311972276
 30
0.0
 10
72.60297578480065
 20
-124.366568979325
 30
0.0
 10
72.40832788988403
 20
-124.4561414619415
 30
0.0
 10
72.1714775752731
 20
-124.4726779202707
 30
0.0
 10
72.0085245588208
 20
-124.4726779202707
 30
0.0
 10
71.86469182231161
 20
-124.4726779202707
 30
0.0
 10
71.61302759711411
 20
-124.4578640096841
 30
0.0
 10
71.41407333284093
 20
-124.366568979325
 30
0.0
 10
71.21098495398545
 20
-124.2732068916748
 30
0.0
 10
71.18773055946002
 20
-124.1340250340707
 30
0.0
 10
71.18773055946002
 20
-124.0224039403486
 30
0.0
 10
71.18773055946002
 20
-123.8852891400356
 30
0.0
 10
71.23217229121974
 20
-123.7605766834696
 30
0.0
 10
71.41407333284093
 20
-123.6782389013721
 30
0.0
 10
71.6066541704664
 20
-123.5924560237894
 30
0.0
 10
71.83506400113846
 20
-123.5721299604264
 30
0.0
 10
72.0085245588208
 20
-123.5721299604264
 30
0.0
 10
72.17991805921197
 20
-123.5721299604264
 30
0.0
 10
72.41056720194945
 20
-123.5903889664982
 30
0.0
 10
72.60297578480065
 20
-123.6782389013721
 30
0.0
  0
SPLINE
  5
EB
330
E4
100
AcDbEntity
  8
_U+30EC_U+30A4_U+30E4_U+30FC 1
370
     0
100
AcDbSpline
210
0.0
220
0.0
230
1.0
 70
    11
 71
     3
 72
    17
 73
    13
 74
     0
 42
0.0000000001
 43
0.0000000001
 12
1.0
 22
0.0
 32
0.0
 13
1.0
 23
0.0
 33
0.0
 40
0.0
 40
0.0
 40
0.0
 40
0.0
 40
1.0
 40
1.0
 40
1.0
 40
2.0
 40
2.0
 40
2.0
 40
3.0
 40
3.0
 40
3.0
 40
4.0
 40
4.0
 40
4.0
 40
4.0
 10
71.38031139708548
 20
-124.0224039403486
 30
0.0
 10
71.38031139708548
 20
-124.2384114272737
 30
0.0
 10
71.66384275552154
 20
-124.2787190444512
 30
0.0
 10
72.0085245588208
 20
-124.2787190444512
 30
0.0
 10
72.32805716507771
 20
-124.2787190444512
 30
0.0
 10
72.63690997533035
 20
-124.2477131850839
 30
0.0
 10
72.63690997533035
 20
-124.0224039403486
 30
0.0
 10
72.63690997533035
 20
-123.8084635107146
 30
0.0
 10
72.35544567418545
 20
-123.766088836246
 30
0.0
 10
72.0085245588208
 20
-123.766088836246
 30
0.0
 10
71.68916420733812
 20
-123.766088836246
 30
0.0
 10
71.38031139708548
 20
-123.7991617529044
 30
0.0
 10
71.38031139708548
 20
-124.0224039403486
 30
0.0
  0
HATCH
  5
EC
330
E4
100
AcDbEntity
  8
_U+30EC_U+30A4_U+30E4_U+30FC 1
 62
   179
420
  2234388
100
AcDbHatch
 10
0.0
 20
0.0
 30
0.0
210
0.0
220
0.0
230
1.0
  2
SOLID
 70
     1
 71
     0
 91
        2
 92
        1
 93
        1
 72
     4
 94
        3
 73
     0
 74
     1
 95
       29
 96
       25
 40
0.0
 40
0.0
 40
0.0
 40
0.0
 40
1.0
 40
1.0
 40
1.0
 40
2.0
 40
2.0
 40
2.0
 40
3.0
 40
3.0
 40
3.0
 40
4.0
 40
4.0
 40
4.0
 40
5.0
 40
5.0
 40
5.0
 40
6.0
 40
6.0
 40
6.0
 40
7.0
 40
7.0
 40
7.0
 40
8.0
 40
8.0
 40
8.0
 40
8.0
 10
72.60297578480065
 20
-123.6782389013721
 10
72.81243759030384
 20
-123.7716009890224
 10
72.83155787024697
 20
-123.9218071521793
 10
72.83155787024697
 20
-124.0224039403486
 10
72.83155787024697
 20
-124.1615857979527
 10
72.7850490811961
 20
-124.2842311972276
 10
72.60297578480065
 20
-124.366568979325
 10
72.40832788988403
 20
-124.4561414619415
 10
72.1714775752731
 20
-124.4726779202707
 10
72.0085245588208
 20
-124.4726779202707
 10
71.86469182231161
 20
-124.4726779202707
 10
71.61302759711411
 20
-124.4578640096841
 10
71.41407333284093
 20
-124.366568979325
 10
71.21098495398545
 20
-124.2732068916748
 10
71.18773055946002
 20
-124.1340250340707
 10
71.18773055946002
 20
-124.0224039403486
 10
71.18773055946002
 20
-123.8852891400356
 10
71.23217229121974
 20
-123.7605766834696
 10
71.41407333284093
 20
-123.6782389013721
 10
71.6066541704664
 20
-123.5924560237894
 10
71.83506400113846
 20
-123.5721299604264
 10
72.0085245588208
 20
-123.5721299604264
 10
72.17991805921197
 20
-123.5721299604264
 10
72.41056720194945
 20
-123.5903889664982
 10
72.60297578480065
 20
-123.6782389013721
 97
        0
 97
        0
 92
        1
 93
        1
 72
     4
 94
        3
 73
     0
 74
     1
 95
       17
 96
       13
 40
0.0
 40
0.0
 40
0.0
 40
0.0
 40
1.0
 40
1.0
 40
1.0
 40
2.0
 40
2.0
 40
2.0
 40
3.0
 40
3.0
 40
3.0
 40
4.0
 40
4.0
 40
4.0
 40
4.0
 10
71.38031139708548
 20
-124.0224039403486
 10
71.38031139708548
 20
-124.2384114272737
 10
71.66384275552154
 20
-124.2787190444512
 10
72.0085245588208
 20
-124.2787190444512
 10
72.32805716507771
 20
-124.2787190444512
 10
72.63690997533035
 20
-124.2477131850839
 10
72.63690997533035
 20
-124.0224039403486
 10
72.63690997533035
 20
-123.8084635107146
 10
72.35544567418545
 20
-123.766088836246
 10
72.0085245588208
 20
-123.766088836246
 10
71.68916420733812
 20
-123.766088836246
 10
71.38031139708548
 20
-123.7991617529044
 10
71.38031139708548
 20
-124.0224039403486
 97
        0
 97
        0
 75
     2
 76
     1
 98
        0
  0
ENDBLK
  5
E7
330
E4
100
AcDbEntity
  8
0
100
AcDbBlockEnd
  0
ENDSEC
  0
SECTION
  2
ENTITIES
  0
INSERT
  5
42
330
1F
100
AcDbEntity
  8
_U+30EC_U+30A4_U+30E4_U+30FC 1
100
AcDbBlockReference
  2
block 2
 10
0.0
 20
0.0
 30
0.0
  0
POLYLINE
  5
7F
330
1F
100
AcDbEntity
  8
_U+30EC_U+30A4_U+30E4_U+30FC 1
 62
   179
420
  2234388
370
     9
100
AcDb2dPolyline
 66
     1
 10
0.0
 20
0.0
 30
0.0
  0
VERTEX
  5
80
330
7F
100
AcDbEntity
  8
_U+30EC_U+30A4_U+30E4_U+30FC 1
 62
   179
420
  2234388
370
     9
100
AcDbVertex
100
AcDb2dVertex
 10
75.87685553658629
 20
-139.6352299650911
 30
0.0
  0
VERTEX
  5
81
330
7F
100
AcDbEntity
  8
_U+30EC_U+30A4_U+30E4_U+30FC 1
 62
   179
420
  2234388
370
     9
100
AcDbVertex
100
AcDb2dVertex
 10
72.31531509952706
 20
-145.7647438524476
 30
0.0
  0
SEQEND
  5
82
330
7F
100
AcDbEntity
  8
_U+30EC_U+30A4_U+30E4_U+30FC 1
 62
   179
420
  2234388
370
     9
  0
POLYLINE
  5
83
330
1F
100
AcDbEntity
  8
_U+30EC_U+30A4_U+30E4_U+30FC 1
  6
AI-Linetype-1
 62
   154
420
    23468
370
    25
100
AcDb2dPolyline
 66
     1
 10
0.0
 20
0.0
 30
0.0
  0
VERTEX
  5
84
330
83
100
AcDbEntity
  8
_U+30EC_U+30A4_U+30E4_U+30FC 1
  6
AI-Linetype-1
 62
   154
420
    23468
370
    25
100
AcDbVertex
100
AcDb2dVertex
 10
78.9050999802736
 20
-108.5318716395338
 30
0.0
  0
VERTEX
  5
85
330
83
100
AcDbEntity
  8
_U+30EC_U+30A4_U+30E4_U+30FC 1
  6
AI-Linetype-1
 62
   154
420
    23468
370
    25
100
AcDbVertex
100
AcDb2dVertex
 10
76.41773249486567
 20
-108.5318716395338
 30
0.0
  0
VERTEX
  5
86
330
83
100
AcDbEntity
  8
_U+30EC_U+30A4_U+30E4_U+30FC 1
  6
AI-Linetype-1
 62
   154
420
    23468
370
    25
100
AcDbVertex
100
AcDb2dVertex
 10
76.41773249486567
 20
-140.0913716316436
 30
0.0
  0
VERTEX
  5
87
330
83
100
AcDbEntity
  8
_U+30EC_U+30A4_U+30E4_U+30FC 1
  6
AI-Linetype-1
 62
   154
420
    23468
370
    25
100
AcDbVertex
100
AcDb2dVertex
 10
107.8473416397051
 20
-140.0913716316436
 30
0.0
  0
VERTEX
  5
88
330
83
100
AcDbEntity
  8
_U+30EC_U+30A4_U+30E4_U+30FC 1
  6
AI-Linetype-1
 62
   154
420
    23468
370
    25
100
AcDbVertex
100
AcDb2dVertex
 10
107.8473416397051
 20
-137.6660244100277
 30
0.0
  0
SEQEND
  5
8A
330
83
100
AcDbEntity
  8
_U+30EC_U+30A4_U+30E4_U+30FC 1
  6
AI-Linetype-1
 62
   154
420
    23468
370
    25
  0
POLYLINE
  5
8B
330
1F
100
AcDbEntity
  8
_U+30EC_U+30A4_U+30E4_U+30FC 1
 62
   179
420
  2234388
370
    25
100
AcDb2dPolyline
 66
     1
 10
0.0
 20
0.0
 30
0.0
  0
VERTEX
  5
8C
330
8B
100
AcDbEntity
  8
_U+30EC_U+30A4_U+30E4_U+30FC 1
 62
   179
420
  2234388
370
    25
100
AcDbVertex
100
AcDb2dVertex
 10
107.1149017117156
 20
-137.7969402433284
 30
0.0
  0
VERTEX
  5
8D
330
8B
100
AcDbEntity
  8
_U+30EC_U+30A4_U+30E4_U+30FC 1
 62
   179
420
  2234388
370
    25
100
AcDbVertex
100
AcDb2dVertex
 10
107.1149017117156
 20
-139.2969160762872
 30
0.0
  0
SEQEND
  5
8E
330
8B
100
AcDbEntity
  8
_U+30EC_U+30A4_U+30E4_U+30FC 1
 62
   179
420
  2234388
370
    25
  0
POLYLINE
  5
8F
330
1F
100
AcDbEntity
  8
_U+30EC_U+30A4_U+30E4_U+30FC 1
 62
   179
420
  2234388
370
    25
100
AcDb2dPolyline
 66
     1
 10
0.0
 20
0.0
 30
0.0
  0
VERTEX
  5
90
330
8F
100
AcDbEntity
  8
_U+30EC_U+30A4_U+30E4_U+30FC 1
 62
   179
420
  2234388
370
    25
100
AcDbVertex
100
AcDb2dVertex
 10
77.1150330326316
 20
-109.2966938615647
 30
0.0
  0
VERTEX
  5
91
330
8F
100
AcDbEntity
  8
_U+30EC_U+30A4_U+30E4_U+30FC 1
 62
   179
420
  2234388
370
    25
100
AcDbVertex
100
AcDb2dVertex
 10
77.1150330326316
 20
-139.2969160762872
 30
0.0
  0
VERTEX
  5
92
330
8F
100
AcDbEntity
  8
_U+30EC_U+30A4_U+30E4_U+30FC 1
 62
   179
420
  2234388
370
    25
100
AcDbVertex
100
AcDb2dVertex
 10
107.1149017117156
 20
-139.2969160762872
 30
0.0
  0
SEQEND
  5
93
330
8F
100
AcDbEntity
  8
_U+30EC_U+30A4_U+30E4_U+30FC 1
 62
   179
420
  2234388
370
    25
  0
POLYLINE
  5
94
330
1F
100
AcDbEntity
  8
_U+30EC_U+30A4_U+30E4_U+30FC 1
 62
   179
420
  2234388
370
    25
100
AcDb2dPolyline
 66
     1
 10
0.0
 20
0.0
 30
0.0
  0
VERTEX
  5
95
330
94
100
AcDbEntity
  8
_U+30EC_U+30A4_U+30E4_U+30FC 1
 62
   179
420
  2234388
370
    25
100
AcDbVertex
100
AcDb2dVertex
 10
77.1150330326316
 20
-109.2966938615647
 30
0.0
  0
VERTEX
  5
96
330
94
100
AcDbEntity
  8
_U+30EC_U+30A4_U+30E4_U+30FC 1
 62
   179
420
  2234388
370
    25
100
AcDbVertex
100
AcDb2dVertex
 10
78.61500882769737
 20
-109.2966938615647
 30
0.0
  0
SEQEND
  5
97
330
94
100
AcDbEntity
  8
_U+30EC_U+30A4_U+30E4_U+30FC 1
 62
   179
420
  2234388
370
    25
  0
POLYLINE
  5
98
330
1F
100
AcDbEntity
  8
_U+30EC_U+30A4_U+30E4_U+30FC 1
 62
   179
420
  2234388
370
    25
100
AcDb2dPolyline
 66
     1
 10
0.0
 20
0.0
 30
0.0
  0
VERTEX
  5
99
330
98
100
AcDbEntity
  8
_U+30EC_U+30A4_U+30E4_U+30FC 1
 62
   179
420
  2234388
370
    25
100
AcDbVertex
100
AcDb2dVertex
 10
78.61500882769737
 20
-109.2966938615647
 30
0.0
  0
VERTEX
  5
9A
330
98
100
AcDbEntity
  8
_U+30EC_U+30A4_U+30E4_U+30FC 1
 62
   179
420
  2234388
370
    25
100
AcDbVertex
100
AcDb2dVertex
 10
78.61500882769737
 20
-137.7969402433284
 30
0.0
  0
VERTEX
  5
9B
330
98
100
AcDbEntity
  8
_U+30EC_U+30A4_U+30E4_U+30FC 1
 62
   179
420
  2234388
370
    25
100
AcDbVertex
100
AcDb2dVertex
 10
107.1149017117156
 20
-137.7969402433284
 30
0.0
  0
SEQEND
  5
9C
330
98
100
AcDbEntity
  8
_U+30EC_U+30A4_U+30E4_U+30FC 1
 62
   179
420
  2234388
370
    25
  0
SPLINE
  5
9D
330
1F
100
AcDbEntity
  8
_U+30EC_U+30A4_U+30E4_U+30FC 1
 62
   179
420
  2234388
370
     9
100
AcDbSpline
210
0.0
220
0.0
230
1.0
 70
    11
 71
     3
 72
    17
 73
    13
 74
     0
 42
0.0000000001
 43
0.0000000001
 12
1.0
 22
0.0
 32
0.0
 13
1.0
 23
0.0
 33
0.0
 40
0.0
 40
0.0
 40
0.0
 40
0.0
 40
1.0
 40
1.0
 40
1.0
 40
2.0
 40
2.0
 40
2.0
 40
3.0
 40
3.0
 40
3.0
 40
4.0
 40
4.0
 40
4.0
 40
4.0
 10
110.6857535650601
 20
-139.2969160762872
 30
0.0
 10
110.6857535650601
 20
-139.2418121874116
 30
0.0
 10
110.6409507884253
 20
-139.1970094096449
 30
0.0
 10
110.5858469009422
 20
-139.1970094096449
 30
0.0
 10
110.5307077356823
 20
-139.1970094096449
 30
0.0
 10
110.4859402368244
 20
-139.2418121874116
 30
0.0
 10
110.4859402368244
 20
-139.2969160762872
 30
0.0
 10
110.4859402368244
 20
-139.3520552429396
 30
0.0
 10
110.5307077356823
 20
-139.3968227429288
 30
0.0
 10
110.5858469009422
 20
-139.3968227429288
 30
0.0
 10
110.6409507884253
 20
-139.3968227429288
 30
0.0
 10
110.6857535650601
 20
-139.3520552429396
 30
0.0
 10
110.6857535650601
 20
-139.2969160762872
 30
0.0
  0
SPLINE
  5
9E
330
1F
100
AcDbEntity
  8
_U+30EC_U+30A4_U+30E4_U+30FC 1
 62
   179
420
  2234388
370
     9
100
AcDbSpline
210
0.0
220
0.0
230
1.0
 70
    11
 71
     3
 72
    17
 73
    13
 74
     0
 42
0.0000000001
 43
0.0000000001
 12
1.0
 22
0.0
 32
0.0
 13
1.0
 23
0.0
 33
0.0
 40
0.0
 40
0.0
 40
0.0
 40
0.0
 40
1.0
 40
1.0
 40
1.0
 40
2.0
 40
2.0
 40
2.0
 40
3.0
 40
3.0
 40
3.0
 40
4.0
 40
4.0
 40
4.0
 40
4.0
 10
107.2148110843072
 20
-143.2966752419534
 30
0.0
 10
107.2148110843072
 20
-143.2415713530785
 30
0.0
 10
107.1700408769756
 20
-143.1967685753118
 30
0.0
 10
107.1149017117156
 20
-143.1967685753118
 30
0.0
 10
107.0597978242326
 20
-143.1967685753118
 30
0.0
 10
107.0149950475978
 20
-143.2415713530785
 30
0.0
 10
107.0149950475978
 20
-143.2966752419534
 30
0.0
 10
107.0149950475978
 20
-143.3524846863838
 30
0.0
 10
107.0597978242326
 20
-143.396581908595
 30
0.0
 10
107.1149017117156
 20
-143.396581908595
 30
0.0
 10
107.1700408769756
 20
-143.396581908595
 30
0.0
 10
107.2148110843072
 20
-143.3524846863838
 30
0.0
 10
107.2148110843072
 20
-143.2966752419534
 30
0.0
  0
SPLINE
  5
9F
330
1F
100
AcDbEntity
  8
_U+30EC_U+30A4_U+30E4_U+30FC 1
 62
   179
420
  2234388
370
     9
100
AcDbSpline
210
0.0
220
0.0
230
1.0
 70
    11
 71
     3
 72
    17
 73
    13
 74
     0
 42
0.0000000001
 43
0.0000000001
 12
1.0
 22
0.0
 32
0.0
 13
1.0
 23
0.0
 33
0.0
 40
0.0
 40
0.0
 40
0.0
 40
0.0
 40
1.0
 40
1.0
 40
1.0
 40
2.0
 40
2.0
 40
2.0
 40
3.0
 40
3.0
 40
3.0
 40
4.0
 40
4.0
 40
4.0
 40
4.0
 10
110.6857535650601
 20
-137.7969402433284
 30
0.0
 10
110.6857535650601
 20
-137.7418010766754
 30
0.0
 10
110.6409507884253
 20
-137.6970335766868
 30
0.0
 10
110.5858469009422
 20
-137.6970335766868
 30
0.0
 10
110.5307077356823
 20
-137.6970335766868
 30
0.0
 10
110.4859402368244
 20
-137.7418010766754
 30
0.0
 10
110.4859402368244
 20
-137.7969402433284
 30
0.0
 10
110.4859402368244
 20
-137.8520441322034
 30
0.0
 10
110.5307077356823
 20
-137.8968469099701
 30
0.0
 10
110.5858469009422
 20
-137.8968469099701
 30
0.0
 10
110.6409507884253
 20
-137.8968469099701
 30
0.0
 10
110.6857535650601
 20
-137.8520441322034
 30
0.0
 10
110.6857535650601
 20
-137.7969402433284
 30
0.0
  0
SPLINE
  5
A0
330
1F
100
AcDbEntity
  8
_U+30EC_U+30A4_U+30E4_U+30FC 1
 62
   179
420
  2234388
370
     9
100
AcDbSpline
210
0.0
220
0.0
230
1.0
 70
    11
 71
     3
 72
    17
 73
    13
 74
     0
 42
0.0000000001
 43
0.0000000001
 12
1.0
 22
0.0
 32
0.0
 13
1.0
 23
0.0
 33
0.0
 40
0.0
 40
0.0
 40
0.0
 40
0.0
 40
1.0
 40
1.0
 40
1.0
 40
2.0
 40
2.0
 40
2.0
 40
3.0
 40
3.0
 40
3.0
 40
4.0
 40
4.0
 40
4.0
 40
4.0
 10
73.38155062788067
 20
-109.2966938615647
 30
0.0
 10
73.38155062788067
 20
-109.2415546949119
 30
0.0
 10
73.33678312902279
 20
-109.196787194923
 30
0.0
 10
73.28164396376285
 20
-109.196787194923
 30
0.0
 10
73.22654007627978
 20
-109.196787194923
 30
0.0
 10
73.18173729964501
 20
-109.2415546949119
 30
0.0
 10
73.18173729964501
 20
-109.2966938615647
 30
0.0
 10
73.18173729964501
 20
-109.3521505282174
 30
0.0
 10
73.22654007627978
 20
-109.3969533059841
 30
0.0
 10
73.28164396376285
 20
-109.3969533059841
 30
0.0
 10
73.33678312902279
 20
-109.3969533059841
 30
0.0
 10
73.38155062788067
 20
-109.3521505282174
 30
0.0
 10
73.38155062788067
 20
-109.2966938615647
 30
0.0
  0
SPLINE
  5
A1
330
1F
100
AcDbEntity
  8
_U+30EC_U+30A4_U+30E4_U+30FC 1
 62
   179
420
  2234388
370
     9
100
AcDbSpline
210
0.0
220
0.0
230
1.0
 70
    11
 71
     3
 72
    17
 73
    13
 74
     0
 42
0.0000000001
 43
0.0000000001
 12
1.0
 22
0.0
 32
0.0
 13
1.0
 23
0.0
 33
0.0
 40
0.0
 40
0.0
 40
0.0
 40
0.0
 40
1.0
 40
1.0
 40
1.0
 40
2.0
 40
2.0
 40
2.0
 40
3.0
 40
3.0
 40
3.0
 40
4.0
 40
4.0
 40
4.0
 40
4.0
 10
73.38155062788067
 20
-139.2969160762872
 30
0.0
 10
73.38155062788067
 20
-139.2418121874116
 30
0.0
 10
73.33678312902279
 20
-139.1970094096449
 30
0.0
 10
73.28164396376285
 20
-139.1970094096449
 30
0.0
 10
73.22654007627978
 20
-139.1970094096449
 30
0.0
 10
73.18173729964501
 20
-139.2418121874116
 30
0.0
 10
73.18173729964501
 20
-139.2969160762872
 30
0.0
 10
73.18173729964501
 20
-139.3520552429396
 30
0.0
 10
73.22654007627978
 20
-139.3968227429288
 30
0.0
 10
73.28164396376285
 20
-139.3968227429288
 30
0.0
 10
73.33678312902279
 20
-139.3968227429288
 30
0.0
 10
73.38155062788067
 20
-139.3520552429396
 30
0.0
 10
73.38155062788067
 20
-139.2969160762872
 30
0.0
  0
SPLINE
  5
A2
330
1F
100
AcDbEntity
  8
_U+30EC_U+30A4_U+30E4_U+30FC 1
 62
   179
420
  2234388
370
     9
100
AcDbSpline
210
0.0
220
0.0
230
1.0
 70
    11
 71
     3
 72
    17
 73
    13
 74
     0
 42
0.0000000001
 43
0.0000000001
 12
1.0
 22
0.0
 32
0.0
 13
1.0
 23
0.0
 33
0.0
 40
0.0
 40
0.0
 40
0.0
 40
0.0
 40
1.0
 40
1.0
 40
1.0
 40
2.0
 40
2.0
 40
2.0
 40
3.0
 40
3.0
 40
3.0
 40
4.0
 40
4.0
 40
4.0
 40
4.0
 10
77.21494164736308
 20
-143.2966752419534
 30
0.0
 10
77.21494164736308
 20
-143.2415713530785
 30
0.0
 10
77.17013886959636
 20
-143.1967685753118
 30
0.0
 10
77.1150330326316
 20
-143.1967685753118
 30
0.0
 10
77.05954108960287
 20
-143.1967685753118
 30
0.0
 10
77.014773590745
 20
-143.2415713530785
 30
0.0
 10
77.014773590745
 20
-143.2966752419534
 30
0.0
 10
77.014773590745
 20
-143.3524846863838
 30
0.0
 10
77.05954108960287
 20
-143.396581908595
 30
0.0
 10
77.1150330326316
 20
-143.396581908595
 30
0.0
 10
77.17013886959636
 20
-143.396581908595
 30
0.0
 10
77.21494164736308
 20
-143.3524846863838
 30
0.0
 10
77.21494164736308
 20
-143.2966752419534
 30
0.0
  0
POLYLINE
  5
A3
330
1F
100
AcDbEntity
  8
_U+30EC_U+30A4_U+30E4_U+30FC 1
 62
   179
420
  2234388
370
     9
100
AcDb2dPolyline
 66
     1
 10
0.0
 20
0.0
 30
0.0
  0
VERTEX
  5
A4
330
A3
100
AcDbEntity
  8
_U+30EC_U+30A4_U+30E4_U+30FC 1
 62
   179
420
  2234388
370
     9
100
AcDbVertex
100
AcDb2dVertex
 10
110.5858469009422
 20
-137.7969402433284
 30
0.0
  0
VERTEX
  5
A5
330
A3
100
AcDbEntity
  8
_U+30EC_U+30A4_U+30E4_U+30FC 1
 62
   179
420
  2234388
370
     9
100
AcDbVertex
100
AcDb2dVertex
 10
110.5858469009422
 20
-132.1304471891895
 30
0.0
  0
SEQEND
  5
A6
330
A3
100
AcDbEntity
  8
_U+30EC_U+30A4_U+30E4_U+30FC 1
 62
   179
420
  2234388
370
     9
  0
POLYLINE
  5
A7
330
1F
100
AcDbEntity
  8
_U+30EC_U+30A4_U+30E4_U+30FC 1
 62
   179
420
  2234388
370
     9
100
AcDb2dPolyline
 66
     1
 10
0.0
 20
0.0
 30
0.0
  0
VERTEX
  5
A8
330
A7
100
AcDbEntity
  8
_U+30EC_U+30A4_U+30E4_U+30FC 1
 62
   179
420
  2234388
370
     9
100
AcDbVertex
100
AcDb2dVertex
 10
110.5858469009422
 20
-137.7969402433284
 30
0.0
  0
VERTEX
  5
A9
330
A7
100
AcDbEntity
  8
_U+30EC_U+30A4_U+30E4_U+30FC 1
 62
   179
420
  2234388
370
     9
100
AcDbVertex
100
AcDb2dVertex
 10
110.5858469009422
 20
-140.2966882982591
 30
0.0
  0
SEQEND
  5
AA
330
A7
100
AcDbEntity
  8
_U+30EC_U+30A4_U+30E4_U+30FC 1
 62
   179
420
  2234388
370
     9
  0
POLYLINE
  5
AB
330
1F
100
AcDbEntity
  8
_U+30EC_U+30A4_U+30E4_U+30FC 1
 62
   179
420
  2234388
370
     9
100
AcDb2dPolyline
 66
     1
 10
0.0
 20
0.0
 30
0.0
  0
VERTEX
  5
AC
330
AB
100
AcDbEntity
  8
_U+30EC_U+30A4_U+30E4_U+30FC 1
 62
   179
420
  2234388
370
     9
100
AcDbVertex
100
AcDb2dVertex
 10
109.1258083060521
 20
-137.7969402433284
 30
0.0
  0
VERTEX
  5
AD
330
AB
100
AcDbEntity
  8
_U+30EC_U+30A4_U+30E4_U+30FC 1
 62
   179
420
  2234388
370
     9
100
AcDbVertex
100
AcDb2dVertex
 10
111.58593659765
 20
-137.7969402433284
 30
0.0
  0
SEQEND
  5
AE
330
AB
100
AcDbEntity
  8
_U+30EC_U+30A4_U+30E4_U+30FC 1
 62
   179
420
  2234388
370
     9
  0
POLYLINE
  5
AF
330
1F
100
AcDbEntity
  8
_U+30EC_U+30A4_U+30E4_U+30FC 1
 62
   179
420
  2234388
370
     9
100
AcDb2dPolyline
 66
     1
 10
0.0
 20
0.0
 30
0.0
  0
VERTEX
  5
B0
330
AF
100
AcDbEntity
  8
_U+30EC_U+30A4_U+30E4_U+30FC 1
 62
   179
420
  2234388
370
     9
100
AcDbVertex
100
AcDb2dVertex
 10
109.1258083060521
 20
-139.2969160762872
 30
0.0
  0
VERTEX
  5
B1
330
AF
100
AcDbEntity
  8
_U+30EC_U+30A4_U+30E4_U+30FC 1
 62
   179
420
  2234388
370
     9
100
AcDbVertex
100
AcDb2dVertex
 10
111.58593659765
 20
-139.2969160762872
 30
0.0
  0
SEQEND
  5
B2
330
AF
100
AcDbEntity
  8
_U+30EC_U+30A4_U+30E4_U+30FC 1
 62
   179
420
  2234388
370
     9
  0
INSERT
  5
B4
330
1F
100
AcDbEntity
  8
_U+30EC_U+30A4_U+30E4_U+30FC 1
100
AcDbBlockReference
  2
block 3
 10
0.0
 20
0.0
 30
0.0
  0
POLYLINE
  5
C3
330
1F
100
AcDbEntity
  8
_U+30EC_U+30A4_U+30E4_U+30FC 1
 62
   179
420
  2234388
370
     9
100
AcDb2dPolyline
 66
     1
 10
0.0
 20
0.0
 30
0.0
  0
VERTEX
  5
C4
330
C3
100
AcDbEntity
  8
_U+30EC_U+30A4_U+30E4_U+30FC 1
 62
   179
420
  2234388
370
     9
100
AcDbVertex
100
AcDb2dVertex
 10
77.1150330326316
 20
-143.2966752419534
 30
0.0
  0
VERTEX
  5
C5
330
C3
100
AcDbEntity
  8
_U+30EC_U+30A4_U+30E4_U+30FC 1
 62
   179
420
  2234388
370
     9
100
AcDbVertex
100
AcDb2dVertex
 10
107.1149017117156
 20
-143.2966752419534
 30
0.0
  0
SEQEND
  5
C6
330
C3
100
AcDbEntity
  8
_U+30EC_U+30A4_U+30E4_U+30FC 1
 62
   179
420
  2234388
370
     9
  0
POLYLINE
  5
C7
330
1F
100
AcDbEntity
  8
_U+30EC_U+30A4_U+30E4_U+30FC 1
 62
   179
420
  2234388
370
     9
100
AcDb2dPolyline
 66
     1
 10
0.0
 20
0.0
 30
0.0
  0
VERTEX
  5
C8
330
C7
100
AcDbEntity
  8
_U+30EC_U+30A4_U+30E4_U+30FC 1
 62
   179
420
  2234388
370
     9
100
AcDbVertex
100
AcDb2dVertex
 10
77.1150330326316
 20
-141.8366338534297
 30
0.0
  0
VERTEX
  5
C9
330
C7
100
AcDbEntity
  8
_U+30EC_U+30A4_U+30E4_U+30FC 1
 62
   179
420
  2234388
370
     9
100
AcDbVertex
100
AcDb2dVertex
 10
77.1150330326316
 20
-144.2971530194815
 30
0.0
  0
SEQEND
  5
CA
330
C7
100
AcDbEntity
  8
_U+30EC_U+30A4_U+30E4_U+30FC 1
 62
   179
420
  2234388
370
     9
  0
POLYLINE
  5
CB
330
1F
100
AcDbEntity
  8
_U+30EC_U+30A4_U+30E4_U+30FC 1
 62
   179
420
  2234388
370
     9
100
AcDb2dPolyline
 66
     1
 10
0.0
 20
0.0
 30
0.0
  0
VERTEX
  5
CC
330
CB
100
AcDbEntity
  8
_U+30EC_U+30A4_U+30E4_U+30FC 1
 62
   179
420
  2234388
370
     9
100
AcDbVertex
100
AcDb2dVertex
 10
107.1149017117156
 20
-141.8366338534297
 30
0.0
  0
VERTEX
  5
CD
330
CB
100
AcDbEntity
  8
_U+30EC_U+30A4_U+30E4_U+30FC 1
 62
   179
420
  2234388
370
     9
100
AcDbVertex
100
AcDb2dVertex
 10
107.1149017117156
 20
-144.2971530194815
 30
0.0
  0
SEQEND
  5
CE
330
CB
100
AcDbEntity
  8
_U+30EC_U+30A4_U+30E4_U+30FC 1
 62
   179
420
  2234388
370
     9
  0
INSERT
  5
D0
330
1F
100
AcDbEntity
  8
_U+30EC_U+30A4_U+30E4_U+30FC 1
100
AcDbBlockReference
  2
block 4
 10
0.0
 20
0.0
 30
0.0
  0
POLYLINE
  5
D8
330
1F
100
AcDbEntity
  8
_U+30EC_U+30A4_U+30E4_U+30FC 1
 62
   179
420
  2234388
370
     9
100
AcDb2dPolyline
 66
     1
 10
0.0
 20
0.0
 30
0.0
  0
VERTEX
  5
D9
330
D8
100
AcDbEntity
  8
_U+30EC_U+30A4_U+30E4_U+30FC 1
 62
   179
420
  2234388
370
     9
100
AcDbVertex
100
AcDb2dVertex
 10
73.28164396376285
 20
-109.2966938615647
 30
0.0
  0
VERTEX
  5
DA
330
D8
100
AcDbEntity
  8
_U+30EC_U+30A4_U+30E4_U+30FC 1
 62
   179
420
  2234388
370
     9
100
AcDbVertex
100
AcDb2dVertex
 10
73.28164396376285
 20
-139.2969160762872
 30
0.0
  0
SEQEND
  5
DB
330
D8
100
AcDbEntity
  8
_U+30EC_U+30A4_U+30E4_U+30FC 1
 62
   179
420
  2234388
370
     9
  0
POLYLINE
  5
DC
330
1F
100
AcDbEntity
  8
_U+30EC_U+30A4_U+30E4_U+30FC 1
 62
   179
420
  2234388
370
     9
100
AcDb2dPolyline
 66
     1
 10
0.0
 20
0.0
 30
0.0
  0
VERTEX
  5
DD
330
DC
100
AcDbEntity
  8
_U+30EC_U+30A4_U+30E4_U+30FC 1
 62
   179
420
  2234388
370
     9
100
AcDbVertex
100
AcDb2dVertex
 10
74.74168531540298
 20
-109.2966938615647
 30
0.0
  0
VERTEX
  5
DE
330
DC
100
AcDbEntity
  8
_U+30EC_U+30A4_U+30E4_U+30FC 1
 62
   179
420
  2234388
370
     9
100
AcDbVertex
100
AcDb2dVertex
 10
72.28190704482381
 20
-109.2966938615647
 30
0.0
  0
SEQEND
  5
DF
330
DC
100
AcDbEntity
  8
_U+30EC_U+30A4_U+30E4_U+30FC 1
 62
   179
420
  2234388
370
     9
  0
POLYLINE
  5
E0
330
1F
100
AcDbEntity
  8
_U+30EC_U+30A4_U+30E4_U+30FC 1
 62
   179
420
  2234388
370
     9
100
AcDb2dPolyline
 66
     1
 10
0.0
 20
0.0
 30
0.0
  0
VERTEX
  5
E1
330
E0
100
AcDbEntity
  8
_U+30EC_U+30A4_U+30E4_U+30FC 1
 62
   179
420
  2234388
370
     9
100
AcDbVertex
100
AcDb2dVertex
 10
74.74168531540298
 20
-139.2969160762872
 30
0.0
  0
VERTEX
  5
E2
330
E0
100
AcDbEntity
  8
_U+30EC_U+30A4_U+30E4_U+30FC 1
 62
   179
420
  2234388
370
     9
100
AcDbVertex
100
AcDb2dVertex
 10
72.28190704482381
 20
-139.2969160762872
 30
0.0
  0
SEQEND
  5
E3
330
E0
100
AcDbEntity
  8
_U+30EC_U+30A4_U+30E4_U+30FC 1
 62
   179
420
  2234388
370
     9
  0
INSERT
  5
E5
330
1F
100
AcDbEntity
  8
_U+30EC_U+30A4_U+30E4_U+30FC 1
100
AcDbBlockReference
  2
block 5
 10
0.0
 20
0.0
 30
0.0
  0
ENDSEC
  0
SECTION
  2
OBJECTS
  0
DICTIONARY
  5
C
330
0
100
AcDbDictionary
281
     1
  3
ACAD_GROUP
350
D
  3
ACAD_LAYOUT
350
1A
  3
ACAD_MATERIAL
350
3B
  3
ACAD_MLEADERSTYLE
350
EE
  3
ACAD_MLINESTYLE
350
17
  3
ACAD_PLOTSETTINGS
350
19
  3
ACAD_PLOTSTYLENAME
350
E
  3
ACAD_TABLESTYLE
350
ED
  3
ACAD_VISUALSTYLE
350
2A
  0
SUN
  5
3F
330
29
100
AcDbSun
 90
        1
290
     0
 63
     7
421
 16777215
 40
1.0
291
     1
 91
  2455826
 92
 54000000
292
     0
 70
     2
 71
   256
280
     1
  0
DICTIONARY
  5
D
102
{ACAD_REACTORS
330
C
102
}
330
C
100
AcDbDictionary
281
     1
  0
DICTIONARY
  5
1A
102
{ACAD_REACTORS
330
C
102
}
330
C
100
AcDbDictionary
281
     1
  3
Layout1
350
1E
  3
Layout2
350
26
  3
Model
350
22
  0
DICTIONARY
  5
3B
102
{ACAD_REACTORS
330
C
102
}
330
C
100
AcDbDictionary
281
     1
  3
ByBlock
350
3D
  3
ByLayer
350
3C
  3
Global
350
3E
  0
DICTIONARY
  5
EE
102
{ACAD_REACTORS
330
C
102
}
330
C
100
AcDbDictionary
281
     1
  0
DICTIONARY
  5
17
102
{ACAD_REACTORS
330
C
102
}
330
C
100
AcDbDictionary
281
     1
  3
Standard
350
18
  0
DICTIONARY
  5
19
102
{ACAD_REACTORS
330
C
102
}
330
C
100
AcDbDictionary
281
     1
  0
ACDBDICTIONARYWDFLT
  5
E
102
{ACAD_REACTORS
330
C
102
}
330
C
100
AcDbDictionary
281
     1
  3
Normal
350
F
100
AcDbDictionaryWithDefault
340
F
  0
DICTIONARY
  5
ED
102
{ACAD_REACTORS
330
C
102
}
330
C
100
AcDbDictionary
281
     1
  0
DICTIONARY
  5
2A
102
{ACAD_REACTORS
330
C
102
}
330
C
100
AcDbDictionary
281
     1
  3
2dWireframe
350
2F
  3
3D Hidden
350
31
  3
3dWireframe
350
30
  3
Basic
350
32
  3
Brighten
350
36
  3
ColorChange
350
3A
  3
Conceptual
350
34
  3
Dim
350
35
  3
Facepattern
350
39
  3
Flat
350
2B
  3
FlatWithEdges
350
2C
  3
Gouraud
350
2D
  3
GouraudWithEdges
350
2E
  3
Linepattern
350
38
  3
Realistic
350
33
  3
Thicken
350
37
  0
LAYOUT
  5
1E
102
{ACAD_REACTORS
330
1A
102
}
330
1A
100
AcDbPlotSettings
  1

  2
none_device
  4

  6

 40
0.0
 41
0.0
 42
0.0
 43
0.0
 44
0.0
 45
0.0
 46
0.0
 47
0.0
 48
0.0
 49
0.0
140
0.0
141
0.0
142
1.0
143
1.0
 70
   688
 72
     0
 73
     0
 74
     5
  7

 75
    16
 76
     0
 77
     2
 78
   300
147
1.0
148
0.0
149
0.0
100
AcDbLayout
  1
Layout1
 70
     1
 71
     1
 10
0.0
 20
0.0
 11
12.0
 21
9.0
 12
0.0
 22
0.0
 32
0.0
 14
1.000000000000000E+20
 24
1.000000000000000E+20
 34
1.000000000000000E+20
 15
-1.000000000000000E+20
 25
-1.000000000000000E+20
 35
-1.000000000000000E+20
146
0.0
 13
0.0
 23
0.0
 33
0.0
 16
1.0
 26
0.0
 36
0.0
 17
0.0
 27
1.0
 37
0.0
 76
     0
330
1B
  0
LAYOUT
  5
26
102
{ACAD_REACTORS
330
1A
102
}
330
1A
100
AcDbPlotSettings
  1

  2
none_device
  4

  6

 40
0.0
 41
0.0
 42
0.0
 43
0.0
 44
0.0
 45
0.0
 46
0.0
 47
0.0
 48
0.0
 49
0.0
140
0.0
141
0.0
142
1.0
143
1.0
 70
   688
 72
     0
 73
     0
 74
     5
  7

 75
    16
 76
     0
 77
     2
 78
   300
147
1.0
148
0.0
149
0.0
100
AcDbLayout
  1
Layout2
 70
     1
 71
     2
 10
0.0
 20
0.0
 11
0.0
 21
0.0
 12
0.0
 22
0.0
 32
0.0
 14
0.0
 24
0.0
 34
0.0
 15
0.0
 25
0.0
 35
0.0
146
0.0
 13
0.0
 23
0.0
 33
0.0
 16
1.0
 26
0.0
 36
0.0
 17
0.0
 27
1.0
 37
0.0
 76
     0
330
23
  0
LAYOUT
  5
22
102
{ACAD_REACTORS
330
1A
102
}
330
1A
100
AcDbPlotSettings
  1

  2
none_device
  4

  6

 40
0.0
 41
0.0
 42
0.0
 43
0.0
 44
0.0
 45
0.0
 46
0.0
 47
0.0
 48
0.0
 49
0.0
140
0.0
141
0.0
142
1.0
143
1.0
 70
  1712
 72
     0
 73
     0
 74
     0
  7

 75
     0
 76
     0
 77
     2
 78
   300
147
1.0
148
0.0
149
0.0
100
AcDbLayout
  1
Model
 70
     1
 71
     0
 10
0.0
 20
0.0
 11
12.0
 21
9.0
 12
0.0
 22
0.0
 32
0.0
 14
1.000000000000000E+20
 24
1.000000000000000E+20
 34
1.000000000000000E+20
 15
-1.000000000000000E+20
 25
-1.000000000000000E+20
 35
-1.000000000000000E+20
146
0.0
 13
0.0
 23
0.0
 33
0.0
 16
1.0
 26
0.0
 36
0.0
 17
0.0
 27
1.0
 37
0.0
 76
     0
330
1F
331
29
  0
MATERIAL
  5
3D
102
{ACAD_REACTORS
330
3B
102
}
330
3B
100
AcDbMaterial
  1
ByBlock
 72
     1
 94
      127
  0
MATERIAL
  5
3C
102
{ACAD_REACTORS
330
3B
102
}
330
3B
100
AcDbMaterial
  1
ByLayer
 72
     1
 94
      127
  0
MATERIAL
  5
3E
102
{ACAD_REACTORS
330
3B
102
}
330
3B
100
AcDbMaterial
  1
Global
 72
     1
 94
      127
  0
MLINESTYLE
  5
18
102
{ACAD_REACTORS
330
17
102
}
330
17
100
AcDbMlineStyle
  2
Standard
 70
     0
  3

 62
   256
 51
90.0
 52
90.0
 71
     2
 49
0.5
 62
   256
  6
BYLAYER
 49
-0.5
 62
   256
  6
BYLAYER
  0
ACDBPLACEHOLDER
  5
F
102
{ACAD_REACTORS
330
E
102
}
330
E
  0
VISUALSTYLE
  5
2F
102
{ACAD_REACTORS
330
2A
102
}
330
2A
100
AcDbVisualStyle
  2
2dWireframe
 70
     4
177
     2
291
     0
 71
     0
176
     1
 72
     2
176
     1
 73
     0
176
     1
 90
        0
176
     1
 40
-0.6
176
     1
 41
-30.0
176
     1
 62
     5
 63
     7
421
 16777215
176
     1
 74
     1
176
     1
 91
        4
176
     1
 64
     7
176
     1
 65
   257
176
     1
 75
     1
176
     1
175
     1
176
     1
 42
1.0
176
     1
 92
        0
176
     1
 66
   257
176
     1
 43
1.0
176
     1
 76
     1
176
     1
 77
     6
176
     1
 78
     2
176
     1
 67
     7
176
     1
 79
     5
176
     1
170
     0
176
     1
171
     0
176
     1
290
     0
176
     1
 93
        1
176
     1
 44
0.0
176
     1
173
     0
176
     1
  0
VISUALSTYLE
  5
31
102
{ACAD_REACTORS
330
2A
102
}
330
2A
100
AcDbVisualStyle
  2
3D Hidden
 70
     6
177
     2
291
     0
 71
     1
176
     1
 72
     2
176
     1
 73
     2
176
     1
 90
        0
176
     1
 40
-0.6
176
     1
 41
-30.0
176
     1
 62
     5
 63
     7
421
 16777215
176
     1
 74
     2
176
     1
 91
        2
176
     1
 64
     7
176
     1
 65
   257
176
     1
 75
     2
176
     1
175
     1
176
     1
 42
40.0
176
     1
 92
        0
176
     1
 66
   257
176
     1
 43
1.0
176
     1
 76
     1
176
     1
 77
     6
176
     1
 78
     2
176
     1
 67
     7
176
     1
 79
     3
176
     1
170
     0
176
     1
171
     0
176
     1
290
     0
176
     1
 93
        1
176
     1
 44
0.0
176
     1
173
     0
176
     1
  0
VISUALSTYLE
  5
30
102
{ACAD_REACTORS
330
2A
102
}
330
2A
100
AcDbVisualStyle
  2
3dWireframe
 70
     5
177
     2
291
     0
 71
     0
176
     1
 72
     2
176
     1
 73
     0
176
     1
 90
        0
176
     1
 40
-0.6
176
     1
 41
-30.0
176
     1
 62
     5
 63
     7
421
 16777215
176
     1
 74
     1
176
     1
 91
        4
176
     1
 64
     7
176
     1
 65
   257
176
     1
 75
     1
176
     1
175
     1
176
     1
 42
1.0
176
     1
 92
        0
176
     1
 66
   257
176
     1
 43
1.0
176
     1
 76
     1
176
     1
 77
     6
176
     1
 78
     2
176
     1
 67
     7
176
     1
 79
     5
176
     1
170
     0
176
     1
171
     0
176
     1
290
     0
176
     1
 93
        1
176
     1
 44
0.0
176
     1
173
     0
176
     1
  0
VISUALSTYLE
  5
32
102
{ACAD_REACTORS
330
2A
102
}
330
2A
100
AcDbVisualStyle
  2
Basic
 70
     7
177
     2
291
     1
 71
     1
176
     1
 72
     0
176
     1
 73
     1
176
     1
 90
        0
176
     1
 40
-0.6
176
     1
 41
-30.0
176
     1
 62
     5
 63
     7
421
 16777215
176
     1
 74
     0
176
     1
 91
        4
176
     1
 64
     7
176
     1
 65
   257
176
     1
 75
     1
176
     1
175
     1
176
     1
 42
1.0
176
     1
 92
        8
176
     1
 66
     7
176
     1
 43
1.0
176
     1
 76
     1
176
     1
 77
     6
176
     1
 78
     2
176
     1
 67
     7
176
     1
 79
     5
176
     1
170
     0
176
     1
171
     0
176
     1
290
     0
176
     1
 93
        1
176
     1
 44
0.0
176
     1
173
     0
176
     1
  0
VISUALSTYLE
  5
36
102
{ACAD_REACTORS
330
2A
102
}
330
2A
100
AcDbVisualStyle
  2
Brighten
 70
    12
177
     2
291
     1
 71
     2
176
     1
 72
     2
176
     1
 73
     0
176
     1
 90
        0
176
     1
 40
-0.6
176
     1
 41
-30.0
176
     1
 62
     5
 63
     7
421
 16777215
176
     1
 74
     1
176
     1
 91
        4
176
     1
 64
     7
176
     1
 65
   257
176
     1
 75
     1
176
     1
175
     1
176
     1
 42
1.0
176
     1
 92
        8
176
     1
 66
     7
176
     1
 43
1.0
176
     1
 76
     1
176
     1
 77
     6
176
     1
 78
     2
176
     1
 67
     7
176
     1
 79
     5
176
     1
170
     0
176
     1
171
     0
176
     1
290
     0
176
     1
 93
        1
176
     1
 44
50.0
176
     1
173
     0
176
     1
  0
VISUALSTYLE
  5
3A
102
{ACAD_REACTORS
330
2A
102
}
330
2A
100
AcDbVisualStyle
  2
ColorChange
 70
    16
177
     2
291
     1
 71
     2
176
     1
 72
     2
176
     1
 73
     3
176
     1
 90
        0
176
     1
 40
-0.6
176
     1
 41
-30.0
176
     1
 62
     5
 63
     8
421
  8421504
176
     1
 74
     1
176
     1
 91
        4
176
     1
 64
     7
176
     1
 65
   257
176
     1
 75
     1
176
     1
175
     1
176
     1
 42
1.0
176
     1
 92
        8
176
     1
 66
     8
424
  8421504
176
     1
 43
1.0
176
     1
 76
     1
176
     1
 77
     6
176
     1
 78
     2
176
     1
 67
     7
176
     1
 79
     5
176
     1
170
     0
176
     1
171
     0
176
     1
290
     0
176
     1
 93
        1
176
     1
 44
0.0
176
     1
173
     0
176
     1
  0
VISUALSTYLE
  5
34
102
{ACAD_REACTORS
330
2A
102
}
330
2A
100
AcDbVisualStyle
  2
Conceptual
 70
     9
177
     2
291
     0
 71
     3
176
     1
 72
     2
176
     1
 73
     0
176
     1
 90
        0
176
     1
 40
-0.6
176
     1
 41
-30.0
176
     1
 62
     5
 63
     7
421
 16777215
176
     1
 74
     2
176
     1
 91
        2
176
     1
 64
     7
176
     1
 65
   257
176
     1
 75
     1
176
     1
175
     1
176
     1
 42
40.0
176
     1
 92
        8
176
     1
 66
     7
176
     1
 43
1.0
176
     1
 76
     1
176
     1
 77
     6
176
     1
 78
     2
176
     1
 67
     7
176
     1
 79
     3
176
     1
170
     0
176
     1
171
     0
176
     1
290
     0
176
     1
 93
        1
176
     1
 44
0.0
176
     1
173
     0
176
     1
  0
VISUALSTYLE
  5
35
102
{ACAD_REACTORS
330
2A
102
}
330
2A
100
AcDbVisualStyle
  2
Dim
 70
    11
177
     2
291
     1
 71
     2
176
     1
 72
     2
176
     1
 73
     0
176
     1
 90
        0
176
     1
 40
-0.6
176
     1
 41
-30.0
176
     1
 62
     5
 63
     7
421
 16777215
176
     1
 74
     1
176
     1
 91
        4
176
     1
 64
     7
176
     1
 65
   257
176
     1
 75
     1
176
     1
175
     1
176
     1
 42
1.0
176
     1
 92
        8
176
     1
 66
     7
176
     1
 43
1.0
176
     1
 76
     1
176
     1
 77
     6
176
     1
 78
     2
176
     1
 67
     7
176
     1
 79
     5
176
     1
170
     0
176
     1
171
     0
176
     1
290
     0
176
     1
 93
        1
176
     1
 44
-50.0
176
     1
173
     0
176
     1
  0
VISUALSTYLE
  5
39
102
{ACAD_REACTORS
330
2A
102
}
330
2A
100
AcDbVisualStyle
  2
Facepattern
 70
    15
177
     2
291
     1
 71
     2
176
     1
 72
     2
176
     1
 73
     0
176
     1
 90
        0
176
     1
 40
-0.6
176
     1
 41
-30.0
176
     1
 62
     5
 63
     7
421
 16777215
176
     1
 74
     1
176
     1
 91
        4
176
     1
 64
     7
176
     1
 65
   257
176
     1
 75
     1
176
     1
175
     1
176
     1
 42
1.0
176
     1
 92
        8
176
     1
 66
     7
176
     1
 43
1.0
176
     1
 76
     1
176
     1
 77
     6
176
     1
 78
     2
176
     1
 67
     7
176
     1
 79
     5
176
     1
170
     0
176
     1
171
     0
176
     1
290
     0
176
     1
 93
        1
176
     1
 44
0.0
176
     1
173
     0
176
     1
  0
VISUALSTYLE
  5
2B
102
{ACAD_REACTORS
330
2A
102
}
330
2A
100
AcDbVisualStyle
  2
Flat
 70
     0
177
     2
291
     1
 71
     2
176
     1
 72
     1
176
     1
 73
     1
176
     1
 90
        2
176
     1
 40
-0.6
176
     1
 41
30.0
176
     1
 62
     5
 63
     7
421
 16777215
176
     1
 74
     0
176
     1
 91
        4
176
     1
 64
     7
176
     1
 65
   257
176
     1
 75
     1
176
     1
175
     1
176
     1
 42
1.0
176
     1
 92
        8
176
     1
 66
     7
176
     1
 43
1.0
176
     1
 76
     1
176
     1
 77
     6
176
     1
 78
     2
176
     1
 67
     7
176
     1
 79
     5
176
     1
170
     0
176
     1
171
     0
176
     1
290
     0
176
     1
 93
       13
176
     1
 44
0.0
176
     1
173
     0
176
     1
  0
VISUALSTYLE
  5
2C
102
{ACAD_REACTORS
330
2A
102
}
330
2A
100
AcDbVisualStyle
  2
FlatWithEdges
 70
     1
177
     2
291
     1
 71
     2
176
     1
 72
     1
176
     1
 73
     1
176
     1
 90
        2
176
     1
 40
-0.6
176
     1
 41
30.0
176
     1
 62
     5
 63
     7
421
 16777215
176
     1
 74
     1
176
     1
 91
        4
176
     1
 64
     7
176
     1
 65
   257
176
     1
 75
     1
176
     1
175
     1
176
     1
 42
1.0
176
     1
 92
        0
176
     1
 66
   257
176
     1
 43
1.0
176
     1
 76
     1
176
     1
 77
     6
176
     1
 78
     2
176
     1
 67
     7
176
     1
 79
     5
176
     1
170
     0
176
     1
171
     0
176
     1
290
     0
176
     1
 93
       13
176
     1
 44
0.0
176
     1
173
     0
176
     1
  0
VISUALSTYLE
  5
2D
102
{ACAD_REACTORS
330
2A
102
}
330
2A
100
AcDbVisualStyle
  2
Gouraud
 70
     2
177
     2
291
     1
 71
     2
176
     1
 72
     2
176
     1
 73
     1
176
     1
 90
        2
176
     1
 40
-0.6
176
     1
 41
30.0
176
     1
 62
     5
 63
     7
421
 16777215
176
     1
 74
     0
176
     1
 91
        4
176
     1
 64
     7
176
     1
 65
   257
176
     1
 75
     1
176
     1
175
     1
176
     1
 42
1.0
176
     1
 92
        0
176
     1
 66
     7
176
     1
 43
1.0
176
     1
 76
     1
176
     1
 77
     6
176
     1
 78
     2
176
     1
 67
     7
176
     1
 79
     5
176
     1
170
     0
176
     1
171
     0
176
     1
290
     0
176
     1
 93
       13
176
     1
 44
0.0
176
     1
173
     0
176
     1
  0
VISUALSTYLE
  5
2E
102
{ACAD_REACTORS
330
2A
102
}
330
2A
100
AcDbVisualStyle
  2
GouraudWithEdges
 70
     3
177
     2
291
     1
 71
     2
176
     1
 72
     2
176
     1
 73
     1
176
     1
 90
        2
176
     1
 40
-0.6
176
     1
 41
30.0
176
     1
 62
     5
 63
     7
421
 16777215
176
     1
 74
     1
176
     1
 91
        4
176
     1
 64
     7
176
     1
 65
   257
176
     1
 75
     1
176
     1
175
     1
176
     1
 42
1.0
176
     1
 92
        0
176
     1
 66
   257
176
     1
 43
1.0
176
     1
 76
     1
176
     1
 77
     6
176
     1
 78
     2
176
     1
 67
     7
176
     1
 79
     5
176
     1
170
     0
176
     1
171
     0
176
     1
290
     0
176
     1
 93
       13
176
     1
 44
0.0
176
     1
173
     0
176
     1
  0
VISUALSTYLE
  5
38
102
{ACAD_REACTORS
330
2A
102
}
330
2A
100
AcDbVisualStyle
  2
Linepattern
 70
    14
177
     2
291
     1
 71
     2
176
     1
 72
     2
176
     1
 73
     0
176
     1
 90
        0
176
     1
 40
-0.6
176
     1
 41
-30.0
176
     1
 62
     5
 63
     7
421
 16777215
176
     1
 74
     1
176
     1
 91
        4
176
     1
 64
     7
176
     1
 65
   257
176
     1
 75
     7
176
     1
175
     7
176
     1
 42
1.0
176
     1
 92
        8
176
     1
 66
     7
176
     1
 43
1.0
176
     1
 76
     1
176
     1
 77
     6
176
     1
 78
     2
176
     1
 67
     7
176
     1
 79
     5
176
     1
170
     0
176
     1
171
     0
176
     1
290
     0
176
     1
 93
        1
176
     1
 44
0.0
176
     1
173
     0
176
     1
  0
VISUALSTYLE
  5
33
102
{ACAD_REACTORS
330
2A
102
}
330
2A
100
AcDbVisualStyle
  2
Realistic
 70
     8
177
     2
291
     0
 71
     2
176
     1
 72
     2
176
     1
 73
     0
176
     1
 90
        0
176
     1
 40
-0.6
176
     1
 41
-30.0
176
     1
 62
     5
 63
     7
421
 16777215
176
     1
 74
     1
176
     1
 91
        0
176
     1
 64
     7
176
     1
 65
   257
176
     1
 75
     1
176
     1
175
     1
176
     1
 42
1.0
176
     1
 92
        8
176
     1
 66
     8
424
  7895160
176
     1
 43
1.0
176
     1
 76
     1
176
     1
 77
     6
176
     1
 78
     2
176
     1
 67
     7
176
     1
 79
     5
176
     1
170
     0
176
     1
171
     0
176
     1
290
     0
176
     1
 93
       13
176
     1
 44
0.0
176
     1
173
     0
176
     1
  0
VISUALSTYLE
  5
37
102
{ACAD_REACTORS
330
2A
102
}
330
2A
100
AcDbVisualStyle
  2
Thicken
 70
    13
177
     2
291
     1
 71
     2
176
     1
 72
     2
176
     1
 73
     0
176
     1
 90
        0
176
     1
 40
-0.6
176
     1
 41
-30.0
176
     1
 62
     5
 63
     7
421
 16777215
176
     1
 74
     1
176
     1
 91
        4
176
     1
 64
     7
176
     1
 65
   257
176
     1
 75
     1
176
     1
175
     1
176
     1
 42
1.0
176
     1
 92
       12
176
     1
 66
     7
176
     1
 43
1.0
176
     1
 76
     1
176
     1
 77
     6
176
     1
 78
     2
176
     1
 67
     7
176
     1
 79
     5
176
     1
170
     0
176
     1
171
     0
176
     1
290
     0
176
     1
 93
        1
176
     1
 44
0.0
176
     1
173
     0
176
     1
  0
ENDSEC
  0
EOF
