  0
SECTION
  2
HEADER
  9
$ACADVER
  1
AC1024
  9
$ACADMAINTVER
 70
     6
  9
$DWGCODEPAGE
  3
UNDEFINED
  9
$INSBASE
 10
0.0
 20
0.0
 30
0.0
  9
$EXTMIN
 10
1.000000000000000E+20
 20
1.000000000000000E+20
 30
1.000000000000000E+20
  9
$EXTMAX
 10
-1.000000000000000E+20
 20
-1.000000000000000E+20
 30
-1.000000000000000E+20
  9
$LIMMIN
 10
0.0
 20
0.0
  9
$LIMMAX
 10
12.0
 20
9.0
  9
$ORTHOMODE
 70
     0
  9
$REGENMODE
 70
     1
  9
$FILLMODE
 70
     1
  9
$QTEXTMODE
 70
     0
  9
$MIRRTEXT
 70
     1
  9
$LTSCALE
 40
1.0
  9
$ATTMODE
 70
     1
  9
$TEXTSIZE
 40
0.2
  9
$TRACEWID
 40
0.05
  9
$TEXTSTYLE
  7
Standard
  9
$CLAYER
  8
0
  9
$CELTYPE
  6
ByLayer
  9
$CECOLOR
 62
   256
  9
$CELTSCALE
 40
1.0
  9
$DISPSILH
 70
     0
  9
$DIMSCALE
 40
1.0
  9
$DIMASZ
 40
0.18
  9
$DIMEXO
 40
0.0625
  9
$DIMDLI
 40
0.38
  9
$DIMRND
 40
0.0
  9
$DIMDLE
 40
0.0
  9
$DIMEXE
 40
0.18
  9
$DIMTP
 40
0.0
  9
$DIMTM
 40
0.0
  9
$DIMTXT
 40
0.18
  9
$DIMCEN
 40
0.09
  9
$DIMTSZ
 40
0.0
  9
$DIMTOL
 70
     0
  9
$DIMLIM
 70
     0
  9
$DIMTIH
 70
     1
  9
$DIMTOH
 70
     1
  9
$DIMSE1
 70
     0
  9
$DIMSE2
 70
     0
  9
$DIMTAD
 70
     0
  9
$DIMZIN
 70
     0
  9
$DIMBLK
  1

  9
$DIMASO
 70
     1
  9
$DIMSHO
 70
     1
  9
$DIMPOST
  1

  9
$DIMAPOST
  1

  9
$DIMALT
 70
     0
  9
$DIMALTD
 70
     2
  9
$DIMALTF
 40
25.4
  9
$DIMLFAC
 40
1.0
  9
$DIMTOFL
 70
     0
  9
$DIMTVP
 40
0.0
  9
$DIMTIX
 70
     0
  9
$DIMSOXD
 70
     0
  9
$DIMSAH
 70
     0
  9
$DIMBLK1
  1

  9
$DIMBLK2
  1

  9
$DIMSTYLE
  2
Standard
  9
$DIMCLRD
 70
     0
  9
$DIMCLRE
 70
     0
  9
$DIMCLRT
 70
     0
  9
$DIMTFAC
 40
1.0
  9
$DIMGAP
 40
0.09
  9
$DIMJUST
 70
     0
  9
$DIMSD1
 70
     0
  9
$DIMSD2
 70
     0
  9
$DIMTOLJ
 70
     1
  9
$DIMTZIN
 70
     0
  9
$DIMALTZ
 70
     0
  9
$DIMALTTZ
 70
     0
  9
$DIMUPT
 70
     0
  9
$DIMDEC
 70
     4
  9
$DIMTDEC
 70
     4
  9
$DIMALTU
 70
     2
  9
$DIMALTTD
 70
     2
  9
$DIMTXSTY
  7
Standard
  9
$DIMAUNIT
 70
     0
  9
$DIMADEC
 70
     0
  9
$DIMALTRND
 40
0.0
  9
$DIMAZIN
 70
     0
  9
$DIMDSEP
 70
    46
  9
$DIMATFIT
 70
     3
  9
$DIMFRAC
 70
     0
  9
$DIMLDRBLK
  1

  9
$DIMLUNIT
 70
     2
  9
$DIMLWD
 70
    -2
  9
$DIMLWE
 70
    -2
  9
$DIMTMOVE
 70
     0
  9
$DIMFXL
 40
1.0
  9
$DIMFXLON
 70
     0
  9
$DIMJOGANG
 40
0.7853981633974483
  9
$DIMTFILL
 70
     0
  9
$DIMTFILLCLR
 70
     0
  9
$DIMARCSYM
 70
     0
  9
$DIMLTYPE
  6

  9
$DIMLTEX1
  6

  9
$DIMLTEX2
  6

  9
$DIMTXTDIRECTION
 70
     0
  9
$LUNITS
 70
     2
  9
$LUPREC
 70
     4
  9
$SKETCHINC
 40
0.1
  9
$FILLETRAD
 40
0.5
  9
$AUNITS
 70
     0
  9
$AUPREC
 70
     0
  9
$MENU
  1
.
  9
$ELEVATION
 40
0.0
  9
$PELEVATION
 40
0.0
  9
$THICKNESS
 40
0.0
  9
$LIMCHECK
 70
     0
  9
$CHAMFERA
 40
0.5
  9
$CHAMFERB
 40
0.5
  9
$CHAMFERC
 40
1.0
  9
$CHAMFERD
 40
0.0
  9
$SKPOLY
 70
     0
  9
$TDCREATE
 40
2457917.596759248
  9
$TDUCREATE
 40
2457917.221759259
  9
$TDUPDATE
 40
2457917.596759248
  9
$TDUUPDATE
 40
2457917.221759259
  9
$TDINDWG
 40
0.0000000116
  9
$TDUSRTIMER
 40
0.0000000116
  9
$USRTIMER
 70
     1
  9
$ANGBASE
 50
0.0
  9
$ANGDIR
 70
     0
  9
$PDMODE
 70
     0
  9
$PDSIZE
 40
0.0
  9
$PLINEWID
 40
0.0
  9
$SPLFRAME
 70
     0
  9
$SPLINETYPE
 70
     6
  9
$SPLINESEGS
 70
     8
  9
$HANDSEED
  5
EF
  9
$SURFTAB1
 70
     6
  9
$SURFTAB2
 70
     6
  9
$SURFTYPE
 70
     6
  9
$SURFU
 70
     6
  9
$SURFV
 70
     6
  9
$UCSBASE
  2

  9
$UCSNAME
  2

  9
$UCSORG
 10
0.0
 20
0.0
 30
0.0
  9
$UCSXDIR
 10
1.0
 20
0.0
 30
0.0
  9
$UCSYDIR
 10
0.0
 20
1.0
 30
0.0
  9
$UCSORTHOREF
  2

  9
$UCSORTHOVIEW
 70
     0
  9
$UCSORGTOP
 10
0.0
 20
0.0
 30
0.0
  9
$UCSORGBOTTOM
 10
0.0
 20
0.0
 30
0.0
  9
$UCSORGLEFT
 10
0.0
 20
0.0
 30
0.0
  9
$UCSORGRIGHT
 10
0.0
 20
0.0
 30
0.0
  9
$UCSORGFRONT
 10
0.0
 20
0.0
 30
0.0
  9
$UCSORGBACK
 10
0.0
 20
0.0
 30
0.0
  9
$PUCSBASE
  2

  9
$PUCSNAME
  2

  9
$PUCSORG
 10
0.0
 20
0.0
 30
0.0
  9
$PUCSXDIR
 10
1.0
 20
0.0
 30
0.0
  9
$PUCSYDIR
 10
0.0
 20
1.0
 30
0.0
  9
$PUCSORTHOREF
  2

  9
$PUCSORTHOVIEW
 70
     0
  9
$PUCSORGTOP
 10
0.0
 20
0.0
 30
0.0
  9
$PUCSORGBOTTOM
 10
0.0
 20
0.0
 30
0.0
  9
$PUCSORGLEFT
 10
0.0
 20
0.0
 30
0.0
  9
$PUCSORGRIGHT
 10
0.0
 20
0.0
 30
0.0
  9
$PUCSORGFRONT
 10
0.0
 20
0.0
 30
0.0
  9
$PUCSORGBACK
 10
0.0
 20
0.0
 30
0.0
  9
$USERI1
 70
     0
  9
$USERI2
 70
     0
  9
$USERI3
 70
     0
  9
$USERI4
 70
     0
  9
$USERI5
 70
     0
  9
$USERR1
 40
0.0
  9
$USERR2
 40
0.0
  9
$USERR3
 40
0.0
  9
$USERR4
 40
0.0
  9
$USERR5
 40
0.0
  9
$WORLDVIEW
 70
     1
  9
$SHADEDGE
 70
     3
  9
$SHADEDIF
 70
    70
  9
$TILEMODE
 70
     1
  9
$MAXACTVP
 70
    64
  9
$PINSBASE
 10
0.0
 20
0.0
 30
0.0
  9
$PLIMCHECK
 70
     0
  9
$PEXTMIN
 10
1.000000000000000E+20
 20
1.000000000000000E+20
 30
1.000000000000000E+20
  9
$PEXTMAX
 10
-1.000000000000000E+20
 20
-1.000000000000000E+20
 30
-1.000000000000000E+20
  9
$PLIMMIN
 10
0.0
 20
0.0
  9
$PLIMMAX
 10
12.0
 20
9.0
  9
$UNITMODE
 70
     0
  9
$VISRETAIN
 70
     1
  9
$PLINEGEN
 70
     0
  9
$PSLTSCALE
 70
     1
  9
$TREEDEPTH
 70
  3020
  9
$CMLSTYLE
  2
Standard
  9
$CMLJUST
 70
     0
  9
$CMLSCALE
 40
1.0
  9
$PROXYGRAPHICS
 70
     1
  9
$MEASUREMENT
 70
     0
  9
$CELWEIGHT
370
    -1
  9
$ENDCAPS
280
     0
  9
$JOINSTYLE
280
     0
  9
$LWDISPLAY
290
     1
  9
$INSUNITS
 70
     1
  9
$HYPERLINKBASE
  1

  9
$STYLESHEET
  1

  9
$XEDIT
290
     1
  9
$CEPSNTYPE
380
     0
  9
$PSTYLEMODE
290
     1
  9
$FINGERPRINTGUID
  2
{C81117C9-6640-02AB-B466-2EB5FE2B8FC9}
  9
$VERSIONGUID
  2
{FAEB1C32-E019-11D5-929B-00C0DF256EC4}
  9
$EXTNAMES
290
     1
  9
$PSVPSCALE
 40
0.0
  9
$OLESTARTUP
290
     0
  9
$SORTENTS
280
   127
  9
$INDEXCTL
280
     0
  9
$HIDETEXT
280
     1
  9
$XCLIPFRAME
280
     2
  9
$HALOGAP
280
     0
  9
$OBSCOLOR
 70
   257
  9
$OBSLTYPE
280
     0
  9
$INTERSECTIONDISPLAY
280
     0
  9
$INTERSECTIONCOLOR
 70
   257
  9
$DIMASSOC
280
     2
  9
$PROJECTNAME
  1

  9
$CAMERADISPLAY
290
     0
  9
$LENSLENGTH
 40
50.0
  9
$CAMERAHEIGHT
 40
0.0
  9
$STEPSPERSEC
 40
2.0
  9
$STEPSIZE
 40
6.0
  9
$3DDWFPREC
 40
2.0
  9
$PSOLWIDTH
 40
0.25
  9
$PSOLHEIGHT
 40
4.0
  9
$LOFTANG1
 40
1.570796326794897
  9
$LOFTANG2
 40
1.570796326794897
  9
$LOFTMAG1
 40
0.0
  9
$LOFTMAG2
 40
0.0
  9
$LOFTPARAM
 70
     7
  9
$LOFTNORMALS
280
     1
  9
$LATITUDE
 40
37.795
  9
$LONGITUDE
 40
-122.394
  9
$NORTHDIRECTION
 40
0.0
  9
$TIMEZONE
 70
 -8000
  9
$LIGHTGLYPHDISPLAY
280
     1
  9
$TILEMODELIGHTSYNCH
280
     1
  9
$CMATERIAL
347
3C
  9
$SOLIDHIST
280
     1
  9
$SHOWHIST
280
     1
  9
$DWFFRAME
280
     2
  9
$DGNFRAME
280
     2
  9
$REALWORLDSCALE
290
     1
  9
$INTERFERECOLOR
 62
   256
  9
$CSHADOW
280
     0
  9
$SHADOWPLANELOCATION
 40
0.0
  0
ENDSEC
  0
SECTION
  2
CLASSES
  0
CLASS
  1
ACDBDICTIONARYWDFLT
  2
AcDbDictionaryWithDefault
  3
ObjectDBX Classes
 90
        0
 91
        4
280
     0
281
     0
  0
CLASS
  1
VISUALSTYLE
  2
AcDbVisualStyle
  3
ObjectDBX Classes
 90
     4095
 91
        4
280
     0
281
     0
  0
CLASS
  1
MATERIAL
  2
AcDbMaterial
  3
ObjectDBX Classes
 90
     1153
 91
        4
280
     0
281
     0
  0
CLASS
  1
SUN
  2
AcDbSun
  3
SCENEOE
 90
     1024
 91
        4
280
     0
281
     0
  0
ENDSEC
  0
SECTION
  2
TABLES
  0
TABLE
  2
VPORT
  5
8
330
0
100
AcDbSymbolTable
 70
     1
  0
VPORT
  5
29
330
8
100
AcDbSymbolTableRecord
100
AcDbViewportTableRecord
  2
*Active
 70
     0
 10
0.0
 20
0.0
 11
1.0
 21
1.0
 12
0.0
 22
0.0
 13
0.0
 23
0.0
 14
0.5
 24
0.5
 15
0.5
 25
0.5
 16
0.0
 26
0.0
 36
1.0
 17
91.00082462281999
 27
-128.4993055234307
 37
0.0
 40
256.9986110468615
 41
0.7081814508812795
 42
50.0
 43
0.0
 44
0.0
 50
0.0
 51
0.0
 71
     0
 72
   100
 73
     1
 74
     3
 75
     0
 76
     0
 77
     0
 78
     0
281
     0
 65
     1
110
0.0
120
0.0
130
0.0
111
1.0
121
0.0
131
0.0
112
0.0
122
1.0
132
0.0
 79
     0
146
0.0
 60
     3
 61
     5
292
     1
282
     1
141
0.0
142
0.0
 63
   250
361
3F
  0
ENDTAB
  0
TABLE
  2
LTYPE
  5
5
330
0
100
AcDbSymbolTable
 70
     3
  0
LTYPE
  5
14
330
5
100
AcDbSymbolTableRecord
100
AcDbLinetypeTableRecord
  2
ByBlock
 70
     0
  3

 72
    65
 73
     0
 40
0.0
  0
LTYPE
  5
15
330
5
100
AcDbSymbolTableRecord
100
AcDbLinetypeTableRecord
  2
ByLayer
 70
     0
  3

 72
    65
 73
     0
 40
0.0
  0
LTYPE
  5
16
330
5
100
AcDbSymbolTableRecord
100
AcDbLinetypeTableRecord
  2
Continuous
 70
     0
  3
Solid line
 72
    65
 73
     0
 40
0.0
  0
LTYPE
  5
44
330
5
100
AcDbSymbolTableRecord
100
AcDbLinetypeTableRecord
  2
AI-Linetype-1
 70
     0
  3
Adobe Illustrator Linetype No. 1
 72
    65
 73
     2
 40
1.411111110758333
 49
0.7055555553791667
 74
     0
 49
-0.7055555553791667
 74
     0
  0
LTYPE
  5
49
330
5
100
AcDbSymbolTableRecord
100
AcDbLinetypeTableRecord
  2
AI-Linetype-2
 70
     0
  3
Adobe Illustrator Linetype No. 2
 72
    65
 73
     2
 40
1.411111110758333
 49
0.7055555553791667
 74
     0
 49
-0.7055555553791667
 74
     0
  0
ENDTAB
  0
TABLE
  2
LAYER
  5
2
330
0
100
AcDbSymbolTable
 70
     2
  0
LAYER
  5
10
330
2
100
AcDbSymbolTableRecord
100
AcDbLayerTableRecord
  2
0
 70
     0
 62
     7
  6
Continuous
370
    -3
390
F
347
3E
  0
LAYER
  5
40
330
2
100
AcDbSymbolTableRecord
100
AcDbLayerTableRecord
  2
_U+30EC_U+30A4_U+30E4_U+30FC 1
 70
     0
 62
     7
  6
Continuous
370
    -3
390
F
347
3E
  0
ENDTAB
  0
TABLE
  2
STYLE
  5
3
330
0
100
AcDbSymbolTable
 70
     1
  0
STYLE
  5
11
330
3
100
AcDbSymbolTableRecord
100
AcDbTextStyleTableRecord
  2
Standard
 70
     0
 40
0.0
 41
1.0
 50
0.0
 71
     0
 42
0.2
  3
txt
  4

  0
ENDTAB
  0
TABLE
  2
VIEW
  5
6
330
0
100
AcDbSymbolTable
 70
     0
  0
ENDTAB
  0
TABLE
  2
UCS
  5
7
330
0
100
AcDbSymbolTable
 70
     0
  0
ENDTAB
  0
TABLE
  2
APPID
  5
9
330
0
100
AcDbSymbolTable
 70
     1
  0
APPID
  5
12
330
9
100
AcDbSymbolTableRecord
100
AcDbRegAppTableRecord
  2
ACAD
 70
     0
  0
ENDTAB
  0
TABLE
  2
DIMSTYLE
  5
A
330
0
100
AcDbSymbolTable
 70
     1
100
AcDbDimStyleTable
  0
DIMSTYLE
105
27
330
A
100
AcDbSymbolTableRecord
100
AcDbDimStyleTableRecord
  2
Standard
 70
     0
178
     0
340
11
  0
ENDTAB
  0
TABLE
  2
BLOCK_RECORD
  5
1
330
0
100
AcDbSymbolTable
 70
     5
  0
BLOCK_RECORD
  5
1F
330
1
100
AcDbSymbolTableRecord
100
AcDbBlockTableRecord
  2
*Model_Space
340
22
 70
     0
280
     1
281
     0
  0
BLOCK_RECORD
  5
1B
330
1
100
AcDbSymbolTableRecord
100
AcDbBlockTableRecord
  2
*Paper_Space
340
1E
 70
     0
280
     1
281
     0
  0
BLOCK_RECORD
  5
23
330
1
100
AcDbSymbolTableRecord
100
AcDbBlockTableRecord
  2
*Paper_Space0
340
26
 70
     0
280
     1
281
     0
  0
BLOCK_RECORD
  5
63
330
1
100
AcDbSymbolTableRecord
100
AcDbBlockTableRecord
  2
block 2
340
0
102
{BLKREFS
331
64
102
}
 70
     0
280
     1
281
     0
  0
BLOCK_RECORD
  5
B3
330
1
100
AcDbSymbolTableRecord
100
AcDbBlockTableRecord
  2
block 3
340
0
102
{BLKREFS
331
B4
102
}
 70
     0
280
     1
281
     0
  0
BLOCK_RECORD
  5
CF
330
1
100
AcDbSymbolTableRecord
100
AcDbBlockTableRecord
  2
block 4
340
0
102
{BLKREFS
331
D0
102
}
 70
     0
280
     1
281
     0
  0
BLOCK_RECORD
  5
E4
330
1
100
AcDbSymbolTableRecord
100
AcDbBlockTableRecord
  2
block 5
340
0
102
{BLKREFS
331
E5
102
}
 70
     0
280
     1
281
     0
  0
ENDTAB
  0
ENDSEC
  0
SECTION
  2
BLOCKS
  0
BLOCK
  5
20
330
1F
100
AcDbEntity
  8
0
100
AcDbBlockBegin
  2
*Model_Space
 70
     0
 10
0.0
 20
0.0
 30
0.0
  3
*Model_Space
  1

  0
ENDBLK
  5
21
330
1F
100
AcDbEntity
  8
0
100
AcDbBlockEnd
  0
BLOCK
  5
1C
330
1B
100
AcDbEntity
 67
     1
  8
0
100
AcDbBlockBegin
  2
*Paper_Space
 70
     0
 10
0.0
 20
0.0
 30
0.0
  3
*Paper_Space
  1

  0
ENDBLK
  5
1D
330
1B
100
AcDbEntity
 67
     1
  8
0
100
AcDbBlockEnd
  0
BLOCK
  5
24
330
23
100
AcDbEntity
  8
0
100
AcDbBlockBegin
  2
*Paper_Space0
 70
     0
 10
0.0
 20
0.0
 30
0.0
  3
*Paper_Space0
  1

  0
ENDBLK
  5
25
330
23
100
AcDbEntity
  8
0
100
AcDbBlockEnd
  0
BLOCK
  5
65
330
63
100
AcDbEntity
  8
0
100
AcDbBlockBegin
  2
block 2
 70
     0
 10
0.0
 20
0.0
 30
0.0
  3
block 2
  1

  0
SPLINE
  5
67
330
63
100
AcDbEntity
  8
_U+30EC_U+30A4_U+30E4_U+30FC 1
370
     0
100
AcDbSpline
210
0.0
220
0.0
230
1.0
 70
    11
 71
     3
 72
   242
 73
   238
 74
     0
 42
0.0000000001
 43
0.0000000001
 12
1.0
 22
0.0
 32
0.0
 13
1.0
 23
0.0
 33
0.0
 40
0.0
 40
0.0
 40
0.0
 40
0.0
 40
1.0
 40
1.0
 40
1.0
 40
2.0
 40
2.0
 40
2.0
 40
3.0
 40
3.0
 40
3.0
 40
4.0
 40
4.0
 40
4.0
 40
5.0
 40
5.0
 40
5.0
 40
6.0
 40
6.0
 40
6.0
 40
7.0
 40
7.0
 40
7.0
 40
8.0
 40
8.0
 40
8.0
 40
9.0
 40
9.0
 40
9.0
 40
10.0
 40
10.0
 40
10.0
 40
11.0
 40
11.0
 40
11.0
 40
12.0
 40
12.0
 40
12.0
 40
13.0
 40
13.0
 40
13.0
 40
14.0
 40
14.0
 40
14.0
 40
15.0
 40
15.0
 40
15.0
 40
16.0
 40
16.0
 40
16.0
 40
17.0
 40
17.0
 40
17.0
 40
18.0
 40
18.0
 40
18.0
 40
19.0
 40
19.0
 40
19.0
 40
20.0
 40
20.0
 40
20.0
 40
21.0
 40
21.0
 40
21.0
 40
22.0
 40
22.0
 40
22.0
 40
23.0
 40
23.0
 40
23.0
 40
24.0
 40
24.0
 40
24.0
 40
25.0
 40
25.0
 40
25.0
 40
26.0
 40
26.0
 40
26.0
 40
27.0
 40
27.0
 40
27.0
 40
28.0
 40
28.0
 40
28.0
 40
29.0
 40
29.0
 40
29.0
 40
30.0
 40
30.0
 40
30.0
 40
31.0
 40
31.0
 40
31.0
 40
32.0
 40
32.0
 40
32.0
 40
33.0
 40
33.0
 40
33.0
 40
34.0
 40
34.0
 40
34.0
 40
35.0
 40
35.0
 40
35.0
 40
36.0
 40
36.0
 40
36.0
 40
37.0
 40
37.0
 40
37.0
 40
38.0
 40
38.0
 40
38.0
 40
39.0
 40
39.0
 40
39.0
 40
40.0
 40
40.0
 40
40.0
 40
41.0
 40
41.0
 40
41.0
 40
42.0
 40
42.0
 40
42.0
 40
43.0
 40
43.0
 40
43.0
 40
44.0
 40
44.0
 40
44.0
 40
45.0
 40
45.0
 40
45.0
 40
46.0
 40
46.0
 40
46.0
 40
47.0
 40
47.0
 40
47.0
 40
48.0
 40
48.0
 40
48.0
 40
49.0
 40
49.0
 40
49.0
 40
50.0
 40
50.0
 40
50.0
 40
51.0
 40
51.0
 40
51.0
 40
52.0
 40
52.0
 40
52.0
 40
53.0
 40
53.0
 40
53.0
 40
54.0
 40
54.0
 40
54.0
 40
55.0
 40
55.0
 40
55.0
 40
56.0
 40
56.0
 40
56.0
 40
57.0
 40
57.0
 40
57.0
 40
58.0
 40
58.0
 40
58.0
 40
59.0
 40
59.0
 40
59.0
 40
60.0
 40
60.0
 40
60.0
 40
61.0
 40
61.0
 40
61.0
 40
62.0
 40
62.0
 40
62.0
 40
63.0
 40
63.0
 40
63.0
 40
64.0
 40
64.0
 40
64.0
 40
65.0
 40
65.0
 40
65.0
 40
66.0
 40
66.0
 40
66.0
 40
67.0
 40
67.0
 40
67.0
 40
68.0
 40
68.0
 40
68.0
 40
69.0
 40
69.0
 40
69.0
 40
70.0
 40
70.0
 40
70.0
 40
71.0
 40
71.0
 40
71.0
 40
72.0
 40
72.0
 40
72.0
 40
73.0
 40
73.0
 40
73.0
 40
74.0
 40
74.0
 40
74.0
 40
75.0
 40
75.0
 40
75.0
 40
76.0
 40
76.0
 40
76.0
 40
77.0
 40
77.0
 40
77.0
 40
78.0
 40
78.0
 40
78.0
 40
79.0
 40
79.0
 40
79.0
 40
79.0
 10
98.22311737995811
 20
-118.3166367976778
 30
0.0
 10
98.22311737995811
 20
-118.3166367976778
 30
0.0
 10
98.00125323070803
 20
-118.3166367976778
 30
0.0
 10
98.00125323070803
 20
-118.3166367976778
 30
0.0
 10
98.00125323070803
 20
-118.3166367976778
 30
0.0
 10
97.75837399899791
 20
-118.3166367976778
 30
0.0
 10
97.75837399899791
 20
-118.3166367976778
 30
0.0
 10
97.75837399899791
 20
-118.3166367976778
 30
0.0
 10
97.86965058317148
 20
-118.3590114721464
 30
0.0
 10
97.86965058317148
 20
-118.3590114721464
 30
0.0
 10
97.87895234098166
 20
-118.3633178415029
 30
0.0
 10
97.88997664653445
 20
-118.3695190133764
 30
0.0
 10
97.88997664653445
 20
-118.3822658666718
 30
0.0
 10
97.88997664653445
 20
-118.4034532039061
 30
0.0
 10
97.86207137310393
 20
-118.4098266305538
 30
0.0
 10
97.8438123670321
 20
-118.4139607451361
 30
0.0
 10
97.83451060922194
 20
-118.4372151396615
 30
0.0
 10
97.80832788353403
 20
-118.5028442086555
 30
0.0
 10
97.79179142520483
 20
-118.5472859404153
 30
0.0
 10
97.79179142520483
 20
-118.5472859404153
 30
0.0
 10
98.02881399459002
 20
-118.5472859404153
 30
0.0
 10
98.02881399459002
 20
-118.5472859404153
 30
0.0
 10
98.1083957002993
 20
-118.5472859404153
 30
0.0
 10
98.28065047456178
 20
-118.5429795710587
 30
0.0
 10
98.40467391203077
 20
-118.5345390871198
 30
0.0
 10
98.40467391203077
 20
-118.5345390871198
 30
0.0
 10
98.40467391203077
 20
-118.7123060141587
 30
0.0
 10
98.40467391203077
 20
-118.7123060141587
 30
0.0
 10
98.33267141638906
 20
-118.7079996448022
 30
0.0
 10
98.3140679007687
 20
-118.7079996448022
 30
0.0
 10
98.15662703709279
 20
-118.7038655302199
 30
0.0
 10
98.12872176366227
 20
-118.8582058079591
 30
0.0
 10
98.09013669422747
 20
-118.9386487875396
 30
0.0
 10
98.05120711524415
 20
-119.008411971116
 30
0.0
 10
98.15662703709279
 20
-119.0676676134622
 30
0.0
 10
98.24930010564601
 20
-119.1353637397474
 30
0.0
 10
98.33990611690808
 20
-119.2178737766191
 30
0.0
 10
98.33990611690808
 20
-119.2178737766191
 30
0.0
 10
98.23620874280206
 20
-119.3849609076538
 30
0.0
 10
98.23620874280206
 20
-119.3849609076538
 30
0.0
 10
98.21588267943909
 20
-119.3660128824849
 30
0.0
 10
98.2048583738863
 20
-119.357572398546
 30
0.0
 10
98.10667315255667
 20
-119.2728230496089
 30
0.0
 10
98.06395396853956
 20
-119.2347547444969
 30
0.0
 10
98.01227753626083
 20
-119.1989257514503
 30
0.0
 10
97.94199758836173
 20
-119.1544840196906
 30
0.0
 10
97.75665145125528
 20
-119.3406914306683
 30
0.0
 10
97.57716197647377
 20
-119.3639458251937
 30
0.0
 10
97.32325843921086
 20
-119.3935736463669
 30
0.0
 10
97.32325843921086
 20
-119.3935736463669
 30
0.0
 10
97.23265242794879
 20
-119.2137396620368
 30
0.0
 10
97.23265242794879
 20
-119.2137396620368
 30
0.0
 10
97.51032712405993
 20
-119.2094332926803
 30
0.0
 10
97.66397838270207
 20
-119.1841118408637
 30
0.0
 10
97.79730357798124
 20
-119.07404104011
 30
0.0
 10
97.69360620387522
 20
-119.0232258817025
 30
0.0
 10
97.61609155545709
 20
-118.9958373725948
 30
0.0
 10
97.5843966769928
 20
-118.9830905192994
 30
0.0
 10
97.5678602186636
 20
-119.0106512831814
 30
0.0
 10
97.55476885581965
 20
-119.0295993083502
 30
0.0
 10
97.5306531874229
 20
-119.0635334988799
 30
0.0
 10
97.5306531874229
 20
-119.0635334988799
 30
0.0
 10
97.3583984131604
 20
-118.9810234620082
 30
0.0
 10
97.3583984131604
 20
-118.9810234620082
 30
0.0
 10
97.43074541835065
 20
-118.9005804824276
 30
0.0
 10
97.48448890792055
 20
-118.8053235922605
 30
0.0
 10
97.53444279245667
 20
-118.7038655302199
 30
0.0
 10
97.36770017097058
 20
-118.7079996448022
 30
0.0
 10
97.34944116489875
 20
-118.7079996448022
 30
0.0
 10
97.27709415970851
 20
-118.7123060141587
 30
0.0
 10
97.27709415970851
 20
-118.7123060141587
 30
0.0
 10
97.27709415970851
 20
-118.5345390871198
 30
0.0
 10
97.27709415970851
 20
-118.5345390871198
 30
0.0
 10
97.39939504943487
 20
-118.5409125137676
 30
0.0
 10
97.58267412925017
 20
-118.5452188831241
 30
0.0
 10
97.60472274035577
 20
-118.5452188831241
 30
0.0
 10
97.61953665094234
 20
-118.5112846925944
 30
0.0
 10
97.66776798773584
 20
-118.3907063506107
 30
0.0
 10
97.68430444606504
 20
-118.3166367976778
 30
0.0
 10
97.66776798773584
 20
-118.3166367976778
 30
0.0
 10
97.51204967180254
 20
-118.3230102243255
 30
0.0
 10
97.3418619548312
 20
-118.3357570776209
 30
0.0
 10
97.3418619548312
 20
-118.3357570776209
 30
0.0
 10
97.3418619548312
 20
-118.4690822729001
 30
0.0
 10
97.3418619548312
 20
-118.4690822729001
 30
0.0
 10
97.29914277081411
 20
-118.4944037247167
 30
0.0
 10
97.24746633853536
 20
-118.526098603181
 30
0.0
 10
97.13067760158539
 20
-118.591727672175
 30
0.0
 10
97.13067760158539
 20
-118.591727672175
 30
0.0
 10
97.13067760158539
 20
-118.7376274659753
 30
0.0
 10
97.13067760158539
 20
-118.7376274659753
 30
0.0
 10
97.13067760158539
 20
-118.7376274659753
 30
0.0
 10
97.13067760158539
 20
-119.205299178098
 30
0.0
 10
97.13067760158539
 20
-119.205299178098
 30
0.0
 10
97.13067760158539
 20
-119.3320786919552
 30
0.0
 10
97.09932723266962
 20
-119.3913343343015
 30
0.0
 10
96.85128035773162
 20
-119.3828938503626
 30
0.0
 10
96.85128035773162
 20
-119.3828938503626
 30
0.0
 10
96.76032983692103
 20
-119.1756713569248
 30
0.0
 10
96.76032983692103
 20
-119.1756713569248
 30
0.0
 10
96.81614038378208
 20
-119.188245955446
 30
0.0
 10
96.85851505825066
 20
-119.1925523248026
 30
0.0
 10
96.8936550322002
 20
-119.1925523248026
 30
0.0
 10
96.96048988461405
 20
-119.1925523248026
 30
0.0
 10
96.96979164242423
 20
-119.1692979302771
 30
0.0
 10
96.96979164242423
 20
-119.1036688612831
 30
0.0
 10
96.96979164242423
 20
-119.1036688612831
 30
0.0
 10
96.96979164242423
 20
-118.6742377090467
 30
0.0
 10
96.96979164242423
 20
-118.6742377090467
 30
0.0
 10
96.88435327439002
 20
-118.7143730714499
 30
0.0
 10
96.86953936380345
 20
-118.7207464980976
 30
0.0
 10
96.82888723707751
 20
-118.7398667780407
 30
0.0
 10
96.82509763204374
 20
-118.7608818605008
 30
0.0
 10
96.82165253655847
 20
-118.7905096816739
 30
0.0
 10
96.80477156868075
 20
-118.7905096816739
 30
0.0
 10
96.79753686816173
 20
-118.7905096816739
 30
0.0
 10
96.78823511035155
 20
-118.7863755670916
 30
0.0
 10
96.78272295757516
 20
-118.7631211725662
 30
0.0
 10
96.78272295757516
 20
-118.7631211725662
 30
0.0
 10
96.73621416852428
 20
-118.5705403349407
 30
0.0
 10
96.73621416852428
 20
-118.5705403349407
 30
0.0
 10
96.86402721102705
 20
-118.5240315458898
 30
0.0
 10
96.92156030563072
 20
-118.5007771513644
 30
0.0
 10
96.96979164242423
 20
-118.4795898141301
 30
0.0
 10
96.96979164242423
 20
-118.4795898141301
 30
0.0
 10
96.96979164242423
 20
-118.0670396297714
 30
0.0
 10
96.96979164242423
 20
-118.0670396297714
 30
0.0
 10
96.96979164242423
 20
-118.0670396297714
 30
0.0
 10
96.92328285337335
 20
-118.0670396297714
 30
0.0
 10
96.92328285337335
 20
-118.0670396297714
 30
0.0
 10
96.92328285337335
 20
-118.0670396297714
 30
0.0
 10
96.85472545321687
 20
-118.0670396297714
 30
0.0
 10
96.85472545321687
 20
-118.0670396297714
 30
0.0
 10
96.79546981087059
 20
-118.0670396297714
 30
0.0
 10
96.78823511035155
 20
-118.0670396297714
 30
0.0
 10
96.75688474143578
 20
-118.0734130564192
 30
0.0
 10
96.75688474143578
 20
-118.0734130564192
 30
0.0
 10
96.75688474143578
 20
-117.8787651615025
 30
0.0
 10
96.75688474143578
 20
-117.8787651615025
 30
0.0
 10
96.780655900284
 20
-117.8851385881503
 30
0.0
 10
96.78823511035155
 20
-117.8851385881503
 30
0.0
 10
96.84921330044048
 20
-117.8851385881503
 30
0.0
 10
96.84921330044048
 20
-117.8851385881503
 30
0.0
 10
96.96600203739045
 20
-117.8851385881503
 30
0.0
 10
96.96600203739045
 20
-117.8851385881503
 30
0.0
 10
96.96600203739045
 20
-117.8153754045739
 30
0.0
 10
96.96600203739045
 20
-117.7328653677022
 30
0.0
 10
96.96427948964782
 20
-117.7285589983456
 30
0.0
 10
96.95670027958028
 20
-117.5487250140156
 30
0.0
 10
96.95670027958028
 20
-117.5297769888467
 30
0.0
 10
96.95497773183764
 20
-117.4832681997959
 30
0.0
 10
96.95497773183764
 20
-117.4832681997959
 30
0.0
 10
97.14376896442934
 20
-117.4917086837347
 30
0.0
 10
97.14376896442934
 20
-117.4917086837347
 30
0.0
 10
97.15307072223952
 20
-117.4917086837347
 30
0.0
 10
97.17167423785986
 20
-117.4937757410259
 30
0.0
 10
97.17167423785986
 20
-117.5106567089036
 30
0.0
 10
97.17167423785986
 20
-117.5297769888467
 30
0.0
 10
97.15858287501591
 20
-117.5402845300767
 30
0.0
 10
97.1361897543618
 20
-117.5594048100199
 30
0.0
 10
97.1361897543618
 20
-117.610047713653
 30
0.0
 10
97.13067760158539
 20
-117.8386297990994
 30
0.0
 10
97.13274465887655
 20
-117.8851385881503
 30
0.0
 10
97.2453992812442
 20
-117.8851385881503
 30
0.0
 10
97.25676809634554
 20
-117.8851385881503
 30
0.0
 10
97.3418619548312
 20
-117.8766981042114
 30
0.0
 10
97.3418619548312
 20
-117.8766981042114
 30
0.0
 10
97.3418619548312
 20
-118.071345999128
 30
0.0
 10
97.3418619548312
 20
-118.071345999128
 30
0.0
 10
97.30844452862428
 20
-118.0691066870626
 30
0.0
 10
97.24918888627799
 20
-118.0649725724803
 30
0.0
 10
97.13067760158539
 20
-118.0670396297714
 30
0.0
 10
97.13067760158539
 20
-118.0670396297714
 30
0.0
 10
97.13067760158539
 20
-118.4055202611972
 30
0.0
 10
97.13067760158539
 20
-118.4055202611972
 30
0.0
 10
97.17890893837888
 20
-118.3822658666718
 30
0.0
 10
97.23644203298257
 20
-118.3547051027898
 30
0.0
 10
97.27881670745113
 20
-118.3314507082644
 30
0.0
 10
97.27881670745113
 20
-118.3314507082644
 30
0.0
 10
97.27881670745113
 20
-118.1538560359997
 30
0.0
 10
97.27881670745113
 20
-118.1538560359997
 30
0.0
 10
97.3790689860719
 20
-118.1664306345209
 30
0.0
 10
97.4824218506294
 20
-118.1664306345209
 30
0.0
 10
97.5843966769928
 20
-118.1664306345209
 30
0.0
 10
97.56407061362982
 20
-118.071345999128
 30
0.0
 10
97.53995494523308
 20
-117.9888359622563
 30
0.0
 10
97.48448890792055
 20
-117.8555107669771
 30
0.0
 10
97.44555932893722
 20
-117.8575778242682
 30
0.0
 10
97.37321232374698
 20
-117.8618841936248
 30
0.0
 10
97.34013940708859
 20
-117.863951250916
 30
0.0
 10
97.34013940708859
 20
-117.863951250916
 30
0.0
 10
97.34013940708859
 20
-117.6841172665859
 30
0.0
 10
97.34013940708859
 20
-117.6841172665859
 30
0.0
 10
97.449348933971
 20
-117.6925577505248
 30
0.0
 10
97.600933135322
 20
-117.6968641198813
 30
0.0
 10
97.67328014051223
 20
-117.6968641198813
 30
0.0
 10
97.67328014051223
 20
-117.6968641198813
 30
0.0
 10
97.74562714570249
 20
-117.6968641198813
 30
0.0
 10
97.74562714570249
 20
-117.6968641198813
 30
0.0
 10
97.74562714570249
 20
-117.533911103429
 30
0.0
 10
97.74562714570249
 20
-117.523403562199
 30
0.0
 10
97.74356008841134
 20
-117.4684542892093
 30
0.0
 10
97.74356008841134
 20
-117.4684542892093
 30
0.0
 10
97.93993053107057
 20
-117.4937757410259
 30
0.0
 10
97.93993053107057
 20
-117.4937757410259
 30
0.0
 10
97.94372013610435
 20
-117.4937757410259
 30
0.0
 10
97.9623236517247
 20
-117.495842798317
 30
0.0
 10
97.9623236517247
 20
-117.5127237661947
 30
0.0
 10
97.9623236517247
 20
-117.5275376767813
 30
0.0
 10
97.95302189391452
 20
-117.5361504154944
 30
0.0
 10
97.92890622551778
 20
-117.550964326081
 30
0.0
 10
97.92339407274137
 20
-117.6164211403008
 30
0.0
 10
97.92132701545023
 20
-117.6376084775351
 30
0.0
 10
97.92132701545023
 20
-117.6968641198813
 30
0.0
 10
97.92132701545023
 20
-117.6968641198813
 30
0.0
 10
98.00469832619328
 20
-117.6968641198813
 30
0.0
 10
98.00469832619328
 20
-117.6968641198813
 30
0.0
 10
98.07704533138352
 20
-117.6968641198813
 30
0.0
 10
98.22897404228304
 20
-117.6925577505248
 30
0.0
 10
98.33818356916545
 20
-117.6841172665859
 30
0.0
 10
98.33818356916545
 20
-117.6841172665859
 30
0.0
 10
98.33818356916545
 20
-117.863951250916
 30
0.0
 10
98.33818356916545
 20
-117.863951250916
 30
0.0
 10
98.31200084347756
 20
-117.8618841936248
 30
0.0
 10
98.20864797892007
 20
-117.8575778242682
 30
0.0
 10
98.17316349542199
 20
-117.8555107669771
 30
0.0
 10
98.16041664212656
 20
-117.9063259253845
 30
0.0
 10
98.13078882095341
 20
-118.0184637834294
 30
0.0
 10
98.07325572634974
 20
-118.157990150582
 30
0.0
 10
98.11046275759044
 20
-118.157990150582
 30
0.0
 10
98.35299747975203
 20
-118.1390421254132
 30
0.0
 10
98.40674096932193
 20
-118.1368028133477
 30
0.0
 10
98.40674096932193
 20
-118.1368028133477
 30
0.0
 10
98.40674096932193
 20
-118.3209431670344
 30
0.0
 10
98.40674096932193
 20
-118.3209431670344
 30
0.0
 10
98.38055824363403
 20
-118.3209431670344
 30
0.0
 10
98.36574433304746
 20
-118.3166367976778
 30
0.0
 10
98.22311737995811
 20
-118.3166367976778
 30
0.0
  0
SPLINE
  5
68
330
63
100
AcDbEntity
  8
_U+30EC_U+30A4_U+30E4_U+30FC 1
370
     0
100
AcDbSpline
210
0.0
220
0.0
230
1.0
 70
    11
 71
     3
 72
    20
 73
    16
 74
     0
 42
0.0000000001
 43
0.0000000001
 12
1.0
 22
0.0
 32
0.0
 13
1.0
 23
0.0
 33
0.0
 40
0.0
 40
0.0
 40
0.0
 40
0.0
 40
1.0
 40
1.0
 40
1.0
 40
2.0
 40
2.0
 40
2.0
 40
3.0
 40
3.0
 40
3.0
 40
4.0
 40
4.0
 40
4.0
 40
5.0
 40
5.0
 40
5.0
 40
5.0
 10
97.67328014051223
 20
-117.8513766523948
 30
0.0
 10
97.67328014051223
 20
-117.8513766523948
 30
0.0
 10
97.64571937663024
 20
-117.8513766523948
 30
0.0
 10
97.64571937663024
 20
-117.8513766523948
 30
0.0
 10
97.68637150335618
 20
-117.9507676571443
 30
0.0
 10
97.71393226723819
 20
-118.0310383819506
 30
0.0
 10
97.74356008841134
 20
-118.157990150582
 30
0.0
 10
97.74356008841134
 20
-118.157990150582
 30
0.0
 10
97.925116620484
 20
-118.157990150582
 30
0.0
 10
97.925116620484
 20
-118.157990150582
 30
0.0
 10
97.95302189391452
 20
-118.0649725724803
 30
0.0
 10
97.9733479572775
 20
-117.9803954783174
 30
0.0
 10
97.99367402064047
 20
-117.8513766523948
 30
0.0
 10
97.99367402064047
 20
-117.8513766523948
 30
0.0
 10
97.67328014051223
 20
-117.8513766523948
 30
0.0
 10
97.67328014051223
 20
-117.8513766523948
 30
0.0
  0
SPLINE
  5
69
330
63
100
AcDbEntity
  8
_U+30EC_U+30A4_U+30E4_U+30FC 1
370
     0
100
AcDbSpline
210
0.0
220
0.0
230
1.0
 70
    11
 71
     3
 72
    17
 73
    13
 74
     0
 42
0.0000000001
 43
0.0000000001
 12
1.0
 22
0.0
 32
0.0
 13
1.0
 23
0.0
 33
0.0
 40
0.0
 40
0.0
 40
0.0
 40
0.0
 40
1.0
 40
1.0
 40
1.0
 40
2.0
 40
2.0
 40
2.0
 40
3.0
 40
3.0
 40
3.0
 40
4.0
 40
4.0
 40
4.0
 40
4.0
 10
97.72874617782476
 20
-118.7017984729287
 30
0.0
 10
97.71393226723819
 20
-118.7312540393276
 30
0.0
 10
97.66949053547846
 20
-118.8244438722036
 30
0.0
 10
97.6601887776683
 20
-118.8433918973725
 30
0.0
 10
97.82693139915439
 20
-118.9026475397188
 30
0.0
 10
97.84553491477473
 20
-118.9090209663665
 30
0.0
 10
97.9085801621548
 20
-118.9365817302485
 30
0.0
 10
97.95646698939977
 20
-118.8497653240202
 30
0.0
 10
97.97713756231127
 20
-118.7756957710873
 30
0.0
 10
97.9898844156067
 20
-118.7017984729287
 30
0.0
 10
97.9898844156067
 20
-118.7017984729287
 30
0.0
 10
97.72874617782476
 20
-118.7017984729287
 30
0.0
 10
97.72874617782476
 20
-118.7017984729287
 30
0.0
  0
HATCH
  5
6A
330
63
100
AcDbEntity
  8
_U+30EC_U+30A4_U+30E4_U+30FC 1
 62
   179
420
  2234388
100
AcDbHatch
 10
0.0
 20
0.0
 30
0.0
210
0.0
220
0.0
230
1.0
  2
SOLID
 70
     1
 71
     0
 91
        3
 92
        1
 93
        1
 72
     4
 94
        3
 73
     0
 74
     1
 95
      242
 96
      238
 40
0.0
 40
0.0
 40
0.0
 40
0.0
 40
1.0
 40
1.0
 40
1.0
 40
2.0
 40
2.0
 40
2.0
 40
3.0
 40
3.0
 40
3.0
 40
4.0
 40
4.0
 40
4.0
 40
5.0
 40
5.0
 40
5.0
 40
6.0
 40
6.0
 40
6.0
 40
7.0
 40
7.0
 40
7.0
 40
8.0
 40
8.0
 40
8.0
 40
9.0
 40
9.0
 40
9.0
 40
10.0
 40
10.0
 40
10.0
 40
11.0
 40
11.0
 40
11.0
 40
12.0
 40
12.0
 40
12.0
 40
13.0
 40
13.0
 40
13.0
 40
14.0
 40
14.0
 40
14.0
 40
15.0
 40
15.0
 40
15.0
 40
16.0
 40
16.0
 40
16.0
 40
17.0
 40
17.0
 40
17.0
 40
18.0
 40
18.0
 40
18.0
 40
19.0
 40
19.0
 40
19.0
 40
20.0
 40
20.0
 40
20.0
 40
21.0
 40
21.0
 40
21.0
 40
22.0
 40
22.0
 40
22.0
 40
23.0
 40
23.0
 40
23.0
 40
24.0
 40
24.0
 40
24.0
 40
25.0
 40
25.0
 40
25.0
 40
26.0
 40
26.0
 40
26.0
 40
27.0
 40
27.0
 40
27.0
 40
28.0
 40
28.0
 40
28.0
 40
29.0
 40
29.0
 40
29.0
 40
30.0
 40
30.0
 40
30.0
 40
31.0
 40
31.0
 40
31.0
 40
32.0
 40
32.0
 40
32.0
 40
33.0
 40
33.0
 40
33.0
 40
34.0
 40
34.0
 40
34.0
 40
35.0
 40
35.0
 40
35.0
 40
36.0
 40
36.0
 40
36.0
 40
37.0
 40
37.0
 40
37.0
 40
38.0
 40
38.0
 40
38.0
 40
39.0
 40
39.0
 40
39.0
 40
40.0
 40
40.0
 40
40.0
 40
41.0
 40
41.0
 40
41.0
 40
42.0
 40
42.0
 40
42.0
 40
43.0
 40
43.0
 40
43.0
 40
44.0
 40
44.0
 40
44.0
 40
45.0
 40
45.0
 40
45.0
 40
46.0
 40
46.0
 40
46.0
 40
47.0
 40
47.0
 40
47.0
 40
48.0
 40
48.0
 40
48.0
 40
49.0
 40
49.0
 40
49.0
 40
50.0
 40
50.0
 40
50.0
 40
51.0
 40
51.0
 40
51.0
 40
52.0
 40
52.0
 40
52.0
 40
53.0
 40
53.0
 40
53.0
 40
54.0
 40
54.0
 40
54.0
 40
55.0
 40
55.0
 40
55.0
 40
56.0
 40
56.0
 40
56.0
 40
57.0
 40
57.0
 40
57.0
 40
58.0
 40
58.0
 40
58.0
 40
59.0
 40
59.0
 40
59.0
 40
60.0
 40
60.0
 40
60.0
 40
61.0
 40
61.0
 40
61.0
 40
62.0
 40
62.0
 40
62.0
 40
63.0
 40
63.0
 40
63.0
 40
64.0
 40
64.0
 40
64.0
 40
65.0
 40
65.0
 40
65.0
 40
66.0
 40
66.0
 40
66.0
 40
67.0
 40
67.0
 40
67.0
 40
68.0
 40
68.0
 40
68.0
 40
69.0
 40
69.0
 40
69.0
 40
70.0
 40
70.0
 40
70.0
 40
71.0
 40
71.0
 40
71.0
 40
72.0
 40
72.0
 40
72.0
 40
73.0
 40
73.0
 40
73.0
 40
74.0
 40
74.0
 40
74.0
 40
75.0
 40
75.0
 40
75.0
 40
76.0
 40
76.0
 40
76.0
 40
77.0
 40
77.0
 40
77.0
 40
78.0
 40
78.0
 40
78.0
 40
79.0
 40
79.0
 40
79.0
 40
79.0
 10
98.22311737995811
 20
-118.3166367976778
 10
98.22311737995811
 20
-118.3166367976778
 10
98.00125323070803
 20
-118.3166367976778
 10
98.00125323070803
 20
-118.3166367976778
 10
98.00125323070803
 20
-118.3166367976778
 10
97.75837399899791
 20
-118.3166367976778
 10
97.75837399899791
 20
-118.3166367976778
 10
97.75837399899791
 20
-118.3166367976778
 10
97.86965058317148
 20
-118.3590114721464
 10
97.86965058317148
 20
-118.3590114721464
 10
97.87895234098166
 20
-118.3633178415029
 10
97.88997664653445
 20
-118.3695190133764
 10
97.88997664653445
 20
-118.3822658666718
 10
97.88997664653445
 20
-118.4034532039061
 10
97.86207137310393
 20
-118.4098266305538
 10
97.8438123670321
 20
-118.4139607451361
 10
97.83451060922194
 20
-118.4372151396615
 10
97.80832788353403
 20
-118.5028442086555
 10
97.79179142520483
 20
-118.5472859404153
 10
97.79179142520483
 20
-118.5472859404153
 10
98.02881399459002
 20
-118.5472859404153
 10
98.02881399459002
 20
-118.5472859404153
 10
98.1083957002993
 20
-118.5472859404153
 10
98.28065047456178
 20
-118.5429795710587
 10
98.40467391203077
 20
-118.5345390871198
 10
98.40467391203077
 20
-118.5345390871198
 10
98.40467391203077
 20
-118.7123060141587
 10
98.40467391203077
 20
-118.7123060141587
 10
98.33267141638906
 20
-118.7079996448022
 10
98.3140679007687
 20
-118.7079996448022
 10
98.15662703709279
 20
-118.7038655302199
 10
98.12872176366227
 20
-118.8582058079591
 10
98.09013669422747
 20
-118.9386487875396
 10
98.05120711524415
 20
-119.008411971116
 10
98.15662703709279
 20
-119.0676676134622
 10
98.24930010564601
 20
-119.1353637397474
 10
98.33990611690808
 20
-119.2178737766191
 10
98.33990611690808
 20
-119.2178737766191
 10
98.23620874280206
 20
-119.3849609076538
 10
98.23620874280206
 20
-119.3849609076538
 10
98.21588267943909
 20
-119.3660128824849
 10
98.2048583738863
 20
-119.357572398546
 10
98.10667315255667
 20
-119.2728230496089
 10
98.06395396853956
 20
-119.2347547444969
 10
98.01227753626083
 20
-119.1989257514503
 10
97.94199758836173
 20
-119.1544840196906
 10
97.75665145125528
 20
-119.3406914306683
 10
97.57716197647377
 20
-119.3639458251937
 10
97.32325843921086
 20
-119.3935736463669
 10
97.32325843921086
 20
-119.3935736463669
 10
97.23265242794879
 20
-119.2137396620368
 10
97.23265242794879
 20
-119.2137396620368
 10
97.51032712405993
 20
-119.2094332926803
 10
97.66397838270207
 20
-119.1841118408637
 10
97.79730357798124
 20
-119.07404104011
 10
97.69360620387522
 20
-119.0232258817025
 10
97.61609155545709
 20
-118.9958373725948
 10
97.5843966769928
 20
-118.9830905192994
 10
97.5678602186636
 20
-119.0106512831814
 10
97.55476885581965
 20
-119.0295993083502
 10
97.5306531874229
 20
-119.0635334988799
 10
97.5306531874229
 20
-119.0635334988799
 10
97.3583984131604
 20
-118.9810234620082
 10
97.3583984131604
 20
-118.9810234620082
 10
97.43074541835065
 20
-118.9005804824276
 10
97.48448890792055
 20
-118.8053235922605
 10
97.53444279245667
 20
-118.7038655302199
 10
97.36770017097058
 20
-118.7079996448022
 10
97.34944116489875
 20
-118.7079996448022
 10
97.27709415970851
 20
-118.7123060141587
 10
97.27709415970851
 20
-118.7123060141587
 10
97.27709415970851
 20
-118.5345390871198
 10
97.27709415970851
 20
-118.5345390871198
 10
97.39939504943487
 20
-118.5409125137676
 10
97.58267412925017
 20
-118.5452188831241
 10
97.60472274035577
 20
-118.5452188831241
 10
97.61953665094234
 20
-118.5112846925944
 10
97.66776798773584
 20
-118.3907063506107
 10
97.68430444606504
 20
-118.3166367976778
 10
97.66776798773584
 20
-118.3166367976778
 10
97.51204967180254
 20
-118.3230102243255
 10
97.3418619548312
 20
-118.3357570776209
 10
97.3418619548312
 20
-118.3357570776209
 10
97.3418619548312
 20
-118.4690822729001
 10
97.3418619548312
 20
-118.4690822729001
 10
97.29914277081411
 20
-118.4944037247167
 10
97.24746633853536
 20
-118.526098603181
 10
97.13067760158539
 20
-118.591727672175
 10
97.13067760158539
 20
-118.591727672175
 10
97.13067760158539
 20
-118.7376274659753
 10
97.13067760158539
 20
-118.7376274659753
 10
97.13067760158539
 20
-118.7376274659753
 10
97.13067760158539
 20
-119.205299178098
 10
97.13067760158539
 20
-119.205299178098
 10
97.13067760158539
 20
-119.3320786919552
 10
97.09932723266962
 20
-119.3913343343015
 10
96.85128035773162
 20
-119.3828938503626
 10
96.85128035773162
 20
-119.3828938503626
 10
96.76032983692103
 20
-119.1756713569248
 10
96.76032983692103
 20
-119.1756713569248
 10
96.81614038378208
 20
-119.188245955446
 10
96.85851505825066
 20
-119.1925523248026
 10
96.8936550322002
 20
-119.1925523248026
 10
96.96048988461405
 20
-119.1925523248026
 10
96.96979164242423
 20
-119.1692979302771
 10
96.96979164242423
 20
-119.1036688612831
 10
96.96979164242423
 20
-119.1036688612831
 10
96.96979164242423
 20
-118.6742377090467
 10
96.96979164242423
 20
-118.6742377090467
 10
96.88435327439002
 20
-118.7143730714499
 10
96.86953936380345
 20
-118.7207464980976
 10
96.82888723707751
 20
-118.7398667780407
 10
96.82509763204374
 20
-118.7608818605008
 10
96.82165253655847
 20
-118.7905096816739
 10
96.80477156868075
 20
-118.7905096816739
 10
96.79753686816173
 20
-118.7905096816739
 10
96.78823511035155
 20
-118.7863755670916
 10
96.78272295757516
 20
-118.7631211725662
 10
96.78272295757516
 20
-118.7631211725662
 10
96.73621416852428
 20
-118.5705403349407
 10
96.73621416852428
 20
-118.5705403349407
 10
96.86402721102705
 20
-118.5240315458898
 10
96.92156030563072
 20
-118.5007771513644
 10
96.96979164242423
 20
-118.4795898141301
 10
96.96979164242423
 20
-118.4795898141301
 10
96.96979164242423
 20
-118.0670396297714
 10
96.96979164242423
 20
-118.0670396297714
 10
96.96979164242423
 20
-118.0670396297714
 10
96.92328285337335
 20
-118.0670396297714
 10
96.92328285337335
 20
-118.0670396297714
 10
96.92328285337335
 20
-118.0670396297714
 10
96.85472545321687
 20
-118.0670396297714
 10
96.85472545321687
 20
-118.0670396297714
 10
96.79546981087059
 20
-118.0670396297714
 10
96.78823511035155
 20
-118.0670396297714
 10
96.75688474143578
 20
-118.0734130564192
 10
96.75688474143578
 20
-118.0734130564192
 10
96.75688474143578
 20
-117.8787651615025
 10
96.75688474143578
 20
-117.8787651615025
 10
96.780655900284
 20
-117.8851385881503
 10
96.78823511035155
 20
-117.8851385881503
 10
96.84921330044048
 20
-117.8851385881503
 10
96.84921330044048
 20
-117.8851385881503
 10
96.96600203739045
 20
-117.8851385881503
 10
96.96600203739045
 20
-117.8851385881503
 10
96.96600203739045
 20
-117.8153754045739
 10
96.96600203739045
 20
-117.7328653677022
 10
96.96427948964782
 20
-117.7285589983456
 10
96.95670027958028
 20
-117.5487250140156
 10
96.95670027958028
 20
-117.5297769888467
 10
96.95497773183764
 20
-117.4832681997959
 10
96.95497773183764
 20
-117.4832681997959
 10
97.14376896442934
 20
-117.4917086837347
 10
97.14376896442934
 20
-117.4917086837347
 10
97.15307072223952
 20
-117.4917086837347
 10
97.17167423785986
 20
-117.4937757410259
 10
97.17167423785986
 20
-117.5106567089036
 10
97.17167423785986
 20
-117.5297769888467
 10
97.15858287501591
 20
-117.5402845300767
 10
97.1361897543618
 20
-117.5594048100199
 10
97.1361897543618
 20
-117.610047713653
 10
97.13067760158539
 20
-117.8386297990994
 10
97.13274465887655
 20
-117.8851385881503
 10
97.2453992812442
 20
-117.8851385881503
 10
97.25676809634554
 20
-117.8851385881503
 10
97.3418619548312
 20
-117.8766981042114
 10
97.3418619548312
 20
-117.8766981042114
 10
97.3418619548312
 20
-118.071345999128
 10
97.3418619548312
 20
-118.071345999128
 10
97.30844452862428
 20
-118.0691066870626
 10
97.24918888627799
 20
-118.0649725724803
 10
97.13067760158539
 20
-118.0670396297714
 10
97.13067760158539
 20
-118.0670396297714
 10
97.13067760158539
 20
-118.4055202611972
 10
97.13067760158539
 20
-118.4055202611972
 10
97.17890893837888
 20
-118.3822658666718
 10
97.23644203298257
 20
-118.3547051027898
 10
97.27881670745113
 20
-118.3314507082644
 10
97.27881670745113
 20
-118.3314507082644
 10
97.27881670745113
 20
-118.1538560359997
 10
97.27881670745113
 20
-118.1538560359997
 10
97.3790689860719
 20
-118.1664306345209
 10
97.4824218506294
 20
-118.1664306345209
 10
97.5843966769928
 20
-118.1664306345209
 10
97.56407061362982
 20
-118.071345999128
 10
97.53995494523308
 20
-117.9888359622563
 10
97.48448890792055
 20
-117.8555107669771
 10
97.44555932893722
 20
-117.8575778242682
 10
97.37321232374698
 20
-117.8618841936248
 10
97.34013940708859
 20
-117.863951250916
 10
97.34013940708859
 20
-117.863951250916
 10
97.34013940708859
 20
-117.6841172665859
 10
97.34013940708859
 20
-117.6841172665859
 10
97.449348933971
 20
-117.6925577505248
 10
97.600933135322
 20
-117.6968641198813
 10
97.67328014051223
 20
-117.6968641198813
 10
97.67328014051223
 20
-117.6968641198813
 10
97.74562714570249
 20
-117.6968641198813
 10
97.74562714570249
 20
-117.6968641198813
 10
97.74562714570249
 20
-117.533911103429
 10
97.74562714570249
 20
-117.523403562199
 10
97.74356008841134
 20
-117.4684542892093
 10
97.74356008841134
 20
-117.4684542892093
 10
97.93993053107057
 20
-117.4937757410259
 10
97.93993053107057
 20
-117.4937757410259
 10
97.94372013610435
 20
-117.4937757410259
 10
97.9623236517247
 20
-117.495842798317
 10
97.9623236517247
 20
-117.5127237661947
 10
97.9623236517247
 20
-117.5275376767813
 10
97.95302189391452
 20
-117.5361504154944
 10
97.92890622551778
 20
-117.550964326081
 10
97.92339407274137
 20
-117.6164211403008
 10
97.92132701545023
 20
-117.6376084775351
 10
97.92132701545023
 20
-117.6968641198813
 10
97.92132701545023
 20
-117.6968641198813
 10
98.00469832619328
 20
-117.6968641198813
 10
98.00469832619328
 20
-117.6968641198813
 10
98.07704533138352
 20
-117.6968641198813
 10
98.22897404228304
 20
-117.6925577505248
 10
98.33818356916545
 20
-117.6841172665859
 10
98.33818356916545
 20
-117.6841172665859
 10
98.33818356916545
 20
-117.863951250916
 10
98.33818356916545
 20
-117.863951250916
 10
98.31200084347756
 20
-117.8618841936248
 10
98.20864797892007
 20
-117.8575778242682
 10
98.17316349542199
 20
-117.8555107669771
 10
98.16041664212656
 20
-117.9063259253845
 10
98.13078882095341
 20
-118.0184637834294
 10
98.07325572634974
 20
-118.157990150582
 10
98.11046275759044
 20
-118.157990150582
 10
98.35299747975203
 20
-118.1390421254132
 10
98.40674096932193
 20
-118.1368028133477
 10
98.40674096932193
 20
-118.1368028133477
 10
98.40674096932193
 20
-118.3209431670344
 10
98.40674096932193
 20
-118.3209431670344
 10
98.38055824363403
 20
-118.3209431670344
 10
98.36574433304746
 20
-118.3166367976778
 10
98.22311737995811
 20
-118.3166367976778
 97
        0
 97
        0
 92
        1
 93
        1
 72
     4
 94
        3
 73
     0
 74
     1
 95
       20
 96
       16
 40
0.0
 40
0.0
 40
0.0
 40
0.0
 40
1.0
 40
1.0
 40
1.0
 40
2.0
 40
2.0
 40
2.0
 40
3.0
 40
3.0
 40
3.0
 40
4.0
 40
4.0
 40
4.0
 40
5.0
 40
5.0
 40
5.0
 40
5.0
 10
97.67328014051223
 20
-117.8513766523948
 10
97.67328014051223
 20
-117.8513766523948
 10
97.64571937663024
 20
-117.8513766523948
 10
97.64571937663024
 20
-117.8513766523948
 10
97.68637150335618
 20
-117.9507676571443
 10
97.71393226723819
 20
-118.0310383819506
 10
97.74356008841134
 20
-118.157990150582
 10
97.74356008841134
 20
-118.157990150582
 10
97.925116620484
 20
-118.157990150582
 10
97.925116620484
 20
-118.157990150582
 10
97.95302189391452
 20
-118.0649725724803
 10
97.9733479572775
 20
-117.9803954783174
 10
97.99367402064047
 20
-117.8513766523948
 10
97.99367402064047
 20
-117.8513766523948
 10
97.67328014051223
 20
-117.8513766523948
 10
97.67328014051223
 20
-117.8513766523948
 97
        0
 97
        0
 92
        1
 93
        1
 72
     4
 94
        3
 73
     0
 74
     1
 95
       17
 96
       13
 40
0.0
 40
0.0
 40
0.0
 40
0.0
 40
1.0
 40
1.0
 40
1.0
 40
2.0
 40
2.0
 40
2.0
 40
3.0
 40
3.0
 40
3.0
 40
4.0
 40
4.0
 40
4.0
 40
4.0
 10
97.72874617782476
 20
-118.7017984729287
 10
97.71393226723819
 20
-118.7312540393276
 10
97.66949053547846
 20
-118.8244438722036
 10
97.6601887776683
 20
-118.8433918973725
 10
97.82693139915439
 20
-118.9026475397188
 10
97.84553491477473
 20
-118.9090209663665
 10
97.9085801621548
 20
-118.9365817302485
 10
97.95646698939977
 20
-118.8497653240202
 10
97.97713756231127
 20
-118.7756957710873
 10
97.9898844156067
 20
-118.7017984729287
 10
97.9898844156067
 20
-118.7017984729287
 10
97.72874617782476
 20
-118.7017984729287
 10
97.72874617782476
 20
-118.7017984729287
 97
        0
 97
        0
 75
     2
 76
     1
 98
        0
  0
SPLINE
  5
6B
330
63
100
AcDbEntity
  8
_U+30EC_U+30A4_U+30E4_U+30FC 1
370
     0
100
AcDbSpline
210
0.0
220
0.0
230
1.0
 70
    11
 71
     3
 72
   203
 73
   199
 74
     0
 42
0.0000000001
 43
0.0000000001
 12
1.0
 22
0.0
 32
0.0
 13
1.0
 23
0.0
 33
0.0
 40
0.0
 40
0.0
 40
0.0
 40
0.0
 40
1.0
 40
1.0
 40
1.0
 40
2.0
 40
2.0
 40
2.0
 40
3.0
 40
3.0
 40
3.0
 40
4.0
 40
4.0
 40
4.0
 40
5.0
 40
5.0
 40
5.0
 40
6.0
 40
6.0
 40
6.0
 40
7.0
 40
7.0
 40
7.0
 40
8.0
 40
8.0
 40
8.0
 40
9.0
 40
9.0
 40
9.0
 40
10.0
 40
10.0
 40
10.0
 40
11.0
 40
11.0
 40
11.0
 40
12.0
 40
12.0
 40
12.0
 40
13.0
 40
13.0
 40
13.0
 40
14.0
 40
14.0
 40
14.0
 40
15.0
 40
15.0
 40
15.0
 40
16.0
 40
16.0
 40
16.0
 40
17.0
 40
17.0
 40
17.0
 40
18.0
 40
18.0
 40
18.0
 40
19.0
 40
19.0
 40
19.0
 40
20.0
 40
20.0
 40
20.0
 40
21.0
 40
21.0
 40
21.0
 40
22.0
 40
22.0
 40
22.0
 40
23.0
 40
23.0
 40
23.0
 40
24.0
 40
24.0
 40
24.0
 40
25.0
 40
25.0
 40
25.0
 40
26.0
 40
26.0
 40
26.0
 40
27.0
 40
27.0
 40
27.0
 40
28.0
 40
28.0
 40
28.0
 40
29.0
 40
29.0
 40
29.0
 40
30.0
 40
30.0
 40
30.0
 40
31.0
 40
31.0
 40
31.0
 40
32.0
 40
32.0
 40
32.0
 40
33.0
 40
33.0
 40
33.0
 40
34.0
 40
34.0
 40
34.0
 40
35.0
 40
35.0
 40
35.0
 40
36.0
 40
36.0
 40
36.0
 40
37.0
 40
37.0
 40
37.0
 40
38.0
 40
38.0
 40
38.0
 40
39.0
 40
39.0
 40
39.0
 40
40.0
 40
40.0
 40
40.0
 40
41.0
 40
41.0
 40
41.0
 40
42.0
 40
42.0
 40
42.0
 40
43.0
 40
43.0
 40
43.0
 40
44.0
 40
44.0
 40
44.0
 40
45.0
 40
45.0
 40
45.0
 40
46.0
 40
46.0
 40
46.0
 40
47.0
 40
47.0
 40
47.0
 40
48.0
 40
48.0
 40
48.0
 40
49.0
 40
49.0
 40
49.0
 40
50.0
 40
50.0
 40
50.0
 40
51.0
 40
51.0
 40
51.0
 40
52.0
 40
52.0
 40
52.0
 40
53.0
 40
53.0
 40
53.0
 40
54.0
 40
54.0
 40
54.0
 40
55.0
 40
55.0
 40
55.0
 40
56.0
 40
56.0
 40
56.0
 40
57.0
 40
57.0
 40
57.0
 40
58.0
 40
58.0
 40
58.0
 40
59.0
 40
59.0
 40
59.0
 40
60.0
 40
60.0
 40
60.0
 40
61.0
 40
61.0
 40
61.0
 40
62.0
 40
62.0
 40
62.0
 40
63.0
 40
63.0
 40
63.0
 40
64.0
 40
64.0
 40
64.0
 40
65.0
 40
65.0
 40
65.0
 40
66.0
 40
66.0
 40
66.0
 40
66.0
 10
99.7051974577126
 20
-118.3843329239629
 30
0.0
 10
99.7051974577126
 20
-118.3843329239629
 30
0.0
 10
99.21633840835564
 20
-118.3843329239629
 30
0.0
 10
99.21633840835564
 20
-118.3843329239629
 30
0.0
 10
99.20703665054546
 20
-118.4287746557227
 30
0.0
 10
99.19980195002644
 20
-118.460469534187
 30
0.0
 10
99.18843313492512
 20
-118.4987100940732
 30
0.0
 10
99.21082625557925
 20
-118.4987100940732
 30
0.0
 10
99.22391761842319
 20
-118.5007771513644
 30
0.0
 10
99.22942977119959
 20
-118.5007771513644
 30
0.0
 10
99.22942977119959
 20
-118.5007771513644
 30
0.0
 10
99.39410533539453
 20
-118.5007771513644
 30
0.0
 10
99.39410533539453
 20
-118.5007771513644
 30
0.0
 10
99.39410533539453
 20
-118.5007771513644
 30
0.0
 10
99.7217339160418
 20
-118.5007771513644
 30
0.0
 10
99.7217339160418
 20
-118.5007771513644
 30
0.0
 10
99.76652015735004
 20
-118.5007771513644
 30
0.0
 10
100.014567032288
 20
-118.488030298069
 30
0.0
 10
100.04212779617
 20
-118.488030298069
 30
0.0
 10
100.0404052484274
 20
-118.515591061951
 30
0.0
 10
100.0386827006848
 20
-118.5345390871198
 30
0.0
 10
100.0386827006848
 20
-118.564166908293
 30
0.0
 10
100.0366156433936
 20
-118.5958617867573
 30
0.0
 10
100.0366156433936
 20
-118.7312540393276
 30
0.0
 10
100.0366156433936
 20
-118.7588148032096
 30
0.0
 10
100.0366156433936
 20
-118.7588148032096
 30
0.0
 10
100.0366156433936
 20
-119.0042778565337
 30
0.0
 10
100.0366156433936
 20
-119.0042778565337
 30
0.0
 10
100.0366156433936
 20
-119.0487195882934
 30
0.0
 10
100.0404052484274
 20
-119.2454345405012
 30
0.0
 10
100.0441948534612
 20
-119.3977077609492
 30
0.0
 10
100.0441948534612
 20
-119.3977077609492
 30
0.0
 10
99.84610186305932
 20
-119.3977077609492
 30
0.0
 10
99.84610186305932
 20
-119.3977077609492
 30
0.0
 10
99.84610186305932
 20
-119.3977077609492
 30
0.0
 10
99.84782441080193
 20
-119.3639458251937
 30
0.0
 10
99.84782441080193
 20
-119.3639458251937
 30
0.0
 10
99.84782441080193
 20
-119.3639458251937
 30
0.0
 10
99.23321937623336
 20
-119.3639458251937
 30
0.0
 10
99.23321937623336
 20
-119.3639458251937
 30
0.0
 10
99.23321937623336
 20
-119.3639458251937
 30
0.0
 10
99.234941923976
 20
-119.3977077609492
 30
0.0
 10
99.234941923976
 20
-119.3977077609492
 30
0.0
 10
99.234941923976
 20
-119.3977077609492
 30
0.0
 10
99.04408363409316
 20
-119.3977077609492
 30
0.0
 10
99.04408363409316
 20
-119.3977077609492
 30
0.0
 10
99.04787323912693
 20
-119.3427584879595
 30
0.0
 10
99.04787323912693
 20
-119.330011634664
 30
0.0
 10
99.05338539190332
 20
-119.215806719328
 30
0.0
 10
99.05545244919448
 20
-119.188245955446
 30
0.0
 10
99.05717499693709
 20
-119.0550930149411
 30
0.0
 10
99.05717499693709
 20
-119.035972734998
 30
0.0
 10
99.05717499693709
 20
-119.035972734998
 30
0.0
 10
99.05717499693709
 20
-118.8328843561425
 30
0.0
 10
99.05717499693709
 20
-118.8328843561425
 30
0.0
 10
98.93487410721073
 20
-119.0824815240488
 30
0.0
 10
98.786735001345
 20
-119.2137396620368
 30
0.0
 10
98.69406193279177
 20
-119.2791964762566
 30
0.0
 10
98.69406193279177
 20
-119.2791964762566
 30
0.0
 10
98.54247773144077
 20
-119.139670109104
 30
0.0
 10
98.54247773144077
 20
-119.139670109104
 30
0.0
 10
98.6199923798589
 20
-119.0888549506965
 30
0.0
 10
98.74608287461903
 20
-119.0020385444682
 30
0.0
 10
98.86631670705425
 20
-118.8075629043259
 30
0.0
 10
98.94589841276353
 20
-118.6806111356944
 30
0.0
 10
99.0034315073672
 20
-118.5367783991853
 30
0.0
 10
99.03305932854035
 20
-118.3843329239629
 30
0.0
 10
98.83289928084733
 20
-118.3865722360284
 30
0.0
 10
98.67580292671994
 20
-118.3929456626761
 30
0.0
 10
98.59243161597689
 20
-118.3950127199672
 30
0.0
 10
98.59243161597689
 20
-118.3950127199672
 30
0.0
 10
98.59243161597689
 20
-118.2172457929283
 30
0.0
 10
98.59243161597689
 20
-118.2172457929283
 30
0.0
 10
98.76468639023939
 20
-118.2236192195761
 30
0.0
 10
99.01273326517737
 20
-118.2279255889326
 30
0.0
 10
99.14433591271393
 20
-118.2279255889326
 30
0.0
 10
99.14433591271393
 20
-118.2279255889326
 30
0.0
 10
99.33106008801447
 20
-118.2279255889326
 30
0.0
 10
99.33106008801447
 20
-118.2279255889326
 30
0.0
 10
99.33106008801447
 20
-118.2279255889326
 30
0.0
 10
99.33106008801447
 20
-118.11992184547
 30
0.0
 10
99.33106008801447
 20
-118.11992184547
 30
0.0
 10
99.33106008801447
 20
-118.11992184547
 30
0.0
 10
99.20359155506021
 20
-118.11992184547
 30
0.0
 10
99.20359155506021
 20
-118.11992184547
 30
0.0
 10
99.05545244919448
 20
-118.11992184547
 30
0.0
 10
98.90731334332874
 20
-118.1242282148266
 30
0.0
 10
98.76089678520562
 20
-118.1306016414743
 30
0.0
 10
98.76089678520562
 20
-118.1306016414743
 30
0.0
 10
98.76089678520562
 20
-117.9592081410831
 30
0.0
 10
98.76089678520562
 20
-117.9592081410831
 30
0.0
 10
98.8959445282274
 20
-117.9697156823131
 30
0.0
 10
99.05889754467972
 20
-117.9697156823131
 30
0.0
 10
99.20359155506021
 20
-117.9697156823131
 30
0.0
 10
99.20359155506021
 20
-117.9697156823131
 30
0.0
 10
99.33106008801447
 20
-117.9697156823131
 30
0.0
 10
99.33106008801447
 20
-117.9697156823131
 30
0.0
 10
99.33106008801447
 20
-117.9697156823131
 30
0.0
 10
99.33106008801447
 20
-117.8513766523948
 30
0.0
 10
99.33106008801447
 20
-117.8513766523948
 30
0.0
 10
99.33106008801447
 20
-117.8513766523948
 30
0.0
 10
99.21633840835564
 20
-117.8513766523948
 30
0.0
 10
99.21633840835564
 20
-117.8513766523948
 30
0.0
 10
99.1756862816297
 20
-117.8513766523948
 30
0.0
 10
98.9979193545908
 20
-117.8598171363337
 30
0.0
 10
98.96071232335011
 20
-117.8598171363337
 30
0.0
 10
98.7829453963112
 20
-117.863951250916
 30
0.0
 10
98.71645505344588
 20
-117.8660183082071
 30
0.0
 10
98.64789765328942
 20
-117.8682576202725
 30
0.0
 10
98.64789765328942
 20
-117.8682576202725
 30
0.0
 10
98.64789765328942
 20
-117.6841172665859
 30
0.0
 10
98.64789765328942
 20
-117.6841172665859
 30
0.0
 10
98.74780542236167
 20
-117.6925577505248
 30
0.0
 10
98.786735001345
 20
-117.6925577505248
 30
0.0
 10
99.1219427920598
 20
-117.7011704892379
 30
0.0
 10
99.06647675474727
 20
-117.6059135990707
 30
0.0
 10
99.04236108635052
 20
-117.5783528351888
 30
0.0
 10
99.01066620788623
 20
-117.5423515873679
 30
0.0
 10
99.01066620788623
 20
-117.5423515873679
 30
0.0
 10
99.1646619760769
 20
-117.4598415504962
 30
0.0
 10
99.1646619760769
 20
-117.4598415504962
 30
0.0
 10
99.19980195002644
 20
-117.495842798317
 30
0.0
 10
99.23873152900977
 20
-117.5382174727856
 30
0.0
 10
99.30349932413246
 20
-117.6481160187651
 30
0.0
 10
99.30349932413246
 20
-117.6481160187651
 30
0.0
 10
99.20359155506021
 20
-117.7032375465291
 30
0.0
 10
99.20359155506021
 20
-117.7032375465291
 30
0.0
 10
99.20359155506021
 20
-117.7032375465291
 30
0.0
 10
99.21254880332187
 20
-117.7032375465291
 30
0.0
 10
99.21254880332187
 20
-117.7032375465291
 30
0.0
 10
99.21254880332187
 20
-117.7032375465291
 30
0.0
 10
99.67005748376305
 20
-117.7032375465291
 30
0.0
 10
99.67005748376305
 20
-117.7032375465291
 30
0.0
 10
99.67005748376305
 20
-117.7032375465291
 30
0.0
 10
99.58668617302
 20
-117.6587958147693
 30
0.0
 10
99.58668617302
 20
-117.6587958147693
 30
0.0
 10
99.61080184141674
 20
-117.6207275096573
 30
0.0
 10
99.66075572595287
 20
-117.5402845300767
 30
0.0
 10
99.67384708879682
 20
-117.4662149771439
 30
0.0
 10
99.67384708879682
 20
-117.4662149771439
 30
0.0
 10
99.86091577364589
 20
-117.5297769888467
 30
0.0
 10
99.86091577364589
 20
-117.5297769888467
 30
0.0
 10
99.8681504741649
 20
-117.5318440461379
 30
0.0
 10
99.88675398978526
 20
-117.5423515873679
 30
0.0
 10
99.88675398978526
 20
-117.5635389246022
 30
0.0
 10
99.88675398978526
 20
-117.6016072297142
 30
0.0
 10
99.82922089518159
 20
-117.6016072297142
 30
0.0
 10
99.8126844368524
 20
-117.6016072297142
 30
0.0
 10
99.80338267904222
 20
-117.6207275096573
 30
0.0
 10
99.78305661567924
 20
-117.6608628720605
 30
0.0
 10
99.75721839953987
 20
-117.7011704892379
 30
0.0
 10
100.1068955912927
 20
-117.6947970625902
 30
0.0
 10
100.1330783169806
 20
-117.6925577505248
 30
0.0
 10
100.199568659846
 20
-117.6863565786513
 30
0.0
 10
100.199568659846
 20
-117.6863565786513
 30
0.0
 10
100.199568659846
 20
-117.8682576202725
 30
0.0
 10
100.199568659846
 20
-117.8682576202725
 30
0.0
 10
100.1830322015168
 20
-117.8682576202725
 30
0.0
 10
100.1606390808626
 20
-117.8660183082071
 30
0.0
 10
99.96805824323715
 20
-117.8575778242682
 30
0.0
 10
99.92361651147743
 20
-117.8555107669771
 30
0.0
 10
99.73103567385196
 20
-117.8513766523948
 30
0.0
 10
99.69210609486865
 20
-117.8513766523948
 30
0.0
 10
99.69210609486865
 20
-117.8513766523948
 30
0.0
 10
99.50331486227695
 20
-117.8513766523948
 30
0.0
 10
99.50331486227695
 20
-117.8513766523948
 30
0.0
 10
99.50331486227695
 20
-117.8513766523948
 30
0.0
 10
99.50331486227695
 20
-117.9697156823131
 30
0.0
 10
99.50331486227695
 20
-117.9697156823131
 30
0.0
 10
99.50331486227695
 20
-117.9697156823131
 30
0.0
 10
99.65524357317648
 20
-117.9697156823131
 30
0.0
 10
99.65524357317648
 20
-117.9697156823131
 30
0.0
 10
99.79787052626581
 20
-117.9697156823131
 30
0.0
 10
99.9646131477519
 20
-117.9697156823131
 30
0.0
 10
100.1013834385163
 20
-117.9592081410831
 30
0.0
 10
100.1013834385163
 20
-117.9592081410831
 30
0.0
 10
100.1013834385163
 20
-118.1306016414743
 30
0.0
 10
100.1013834385163
 20
-118.1306016414743
 30
0.0
 10
99.91810435870103
 20
-118.1221611575354
 30
0.0
 10
99.74584958443855
 20
-118.11992184547
 30
0.0
 10
99.65524357317648
 20
-118.11992184547
 30
0.0
 10
99.65524357317648
 20
-118.11992184547
 30
0.0
 10
99.50331486227695
 20
-118.11992184547
 30
0.0
 10
99.50331486227695
 20
-118.11992184547
 30
0.0
 10
99.50331486227695
 20
-118.11992184547
 30
0.0
 10
99.50331486227695
 20
-118.2279255889326
 30
0.0
 10
99.50331486227695
 20
-118.2279255889326
 30
0.0
 10
99.50331486227695
 20
-118.2279255889326
 30
0.0
 10
99.7051974577126
 20
-118.2279255889326
 30
0.0
 10
99.7051974577126
 20
-118.2279255889326
 30
0.0
 10
99.82198619466256
 20
-118.2279255889326
 30
0.0
 10
100.0738226746343
 20
-118.2236192195761
 30
0.0
 10
100.2571017544496
 20
-118.2172457929283
 30
0.0
 10
100.2571017544496
 20
-118.2172457929283
 30
0.0
 10
100.2571017544496
 20
-118.3950127199672
 30
0.0
 10
100.2571017544496
 20
-118.3950127199672
 30
0.0
 10
100.0886365852209
 20
-118.3886392933195
 30
0.0
 10
99.81440698459501
 20
-118.3843329239629
 30
0.0
 10
99.7051974577126
 20
-118.3843329239629
 30
0.0
  0
POLYLINE
  5
6C
330
63
100
AcDbEntity
  8
_U+30EC_U+30A4_U+30E4_U+30FC 1
370
     0
100
AcDb2dPolyline
 66
     1
 10
0.0
 20
0.0
 30
0.0
  0
VERTEX
  5
6D
330
6C
100
AcDbEntity
  8
_U+30EC_U+30A4_U+30E4_U+30FC 1
370
     0
100
AcDbVertex
100
AcDb2dVertex
 10
99.84954695854456
 20
-118.640303518517
 30
0.0
  0
VERTEX
  5
6E
330
6C
100
AcDbEntity
  8
_U+30EC_U+30A4_U+30E4_U+30FC 1
370
     0
100
AcDbVertex
100
AcDb2dVertex
 10
99.23115231894222
 20
-118.640303518517
 30
0.0
  0
VERTEX
  5
6F
330
6C
100
AcDbEntity
  8
_U+30EC_U+30A4_U+30E4_U+30FC 1
370
     0
100
AcDbVertex
100
AcDb2dVertex
 10
99.23115231894222
 20
-118.7483072619796
 30
0.0
  0
VERTEX
  5
70
330
6C
100
AcDbEntity
  8
_U+30EC_U+30A4_U+30E4_U+30FC 1
370
     0
100
AcDbVertex
100
AcDb2dVertex
 10
99.84954695854456
 20
-118.7483072619796
 30
0.0
  0
VERTEX
  5
71
330
6C
100
AcDbEntity
  8
_U+30EC_U+30A4_U+30E4_U+30FC 1
370
     0
100
AcDbVertex
100
AcDb2dVertex
 10
99.84954695854456
 20
-118.640303518517
 30
0.0
  0
SEQEND
  5
72
330
6C
100
AcDbEntity
  8
_U+30EC_U+30A4_U+30E4_U+30FC 1
370
     0
  0
POLYLINE
  5
73
330
63
100
AcDbEntity
  8
_U+30EC_U+30A4_U+30E4_U+30FC 1
370
     0
100
AcDb2dPolyline
 66
     1
 10
0.0
 20
0.0
 30
0.0
  0
VERTEX
  5
74
330
73
100
AcDbEntity
  8
_U+30EC_U+30A4_U+30E4_U+30FC 1
370
     0
100
AcDbVertex
100
AcDb2dVertex
 10
99.84954695854456
 20
-118.8730197185456
 30
0.0
  0
VERTEX
  5
75
330
73
100
AcDbEntity
  8
_U+30EC_U+30A4_U+30E4_U+30FC 1
370
     0
100
AcDbVertex
100
AcDb2dVertex
 10
99.23115231894222
 20
-118.8730197185456
 30
0.0
  0
VERTEX
  5
76
330
73
100
AcDbEntity
  8
_U+30EC_U+30A4_U+30E4_U+30FC 1
370
     0
100
AcDbVertex
100
AcDb2dVertex
 10
99.23115231894222
 20
-118.9873968886559
 30
0.0
  0
VERTEX
  5
77
330
73
100
AcDbEntity
  8
_U+30EC_U+30A4_U+30E4_U+30FC 1
370
     0
100
AcDbVertex
100
AcDb2dVertex
 10
99.84954695854456
 20
-118.9873968886559
 30
0.0
  0
VERTEX
  5
78
330
73
100
AcDbEntity
  8
_U+30EC_U+30A4_U+30E4_U+30FC 1
370
     0
100
AcDbVertex
100
AcDb2dVertex
 10
99.84954695854456
 20
-118.8730197185456
 30
0.0
  0
SEQEND
  5
79
330
73
100
AcDbEntity
  8
_U+30EC_U+30A4_U+30E4_U+30FC 1
370
     0
  0
POLYLINE
  5
7A
330
63
100
AcDbEntity
  8
_U+30EC_U+30A4_U+30E4_U+30FC 1
370
     0
100
AcDb2dPolyline
 66
     1
 10
0.0
 20
0.0
 30
0.0
  0
VERTEX
  5
7B
330
7A
100
AcDbEntity
  8
_U+30EC_U+30A4_U+30E4_U+30FC 1
370
     0
100
AcDbVertex
100
AcDb2dVertex
 10
99.84954695854456
 20
-119.1164157145785
 30
0.0
  0
VERTEX
  5
7C
330
7A
100
AcDbEntity
  8
_U+30EC_U+30A4_U+30E4_U+30FC 1
370
     0
100
AcDbVertex
100
AcDb2dVertex
 10
99.23115231894222
 20
-119.1164157145785
 30
0.0
  0
VERTEX
  5
7D
330
7A
100
AcDbEntity
  8
_U+30EC_U+30A4_U+30E4_U+30FC 1
370
     0
100
AcDbVertex
100
AcDb2dVertex
 10
99.23115231894222
 20
-119.2306206299146
 30
0.0
  0
VERTEX
  5
7E
330
7A
100
AcDbEntity
  8
_U+30EC_U+30A4_U+30E4_U+30FC 1
370
     0
100
AcDbVertex
100
AcDb2dVertex
 10
99.84954695854456
 20
-119.2306206299146
 30
0.0
  0
VERTEX
  5
7F
330
7A
100
AcDbEntity
  8
_U+30EC_U+30A4_U+30E4_U+30FC 1
370
     0
100
AcDbVertex
100
AcDb2dVertex
 10
99.84954695854456
 20
-119.1164157145785
 30
0.0
  0
SEQEND
  5
80
330
7A
100
AcDbEntity
  8
_U+30EC_U+30A4_U+30E4_U+30FC 1
370
     0
  0
HATCH
  5
81
330
63
100
AcDbEntity
  8
_U+30EC_U+30A4_U+30E4_U+30FC 1
 62
   179
420
  2234388
100
AcDbHatch
 10
0.0
 20
0.0
 30
0.0
210
0.0
220
0.0
230
1.0
  2
SOLID
 70
     1
 71
     0
 91
        4
 92
        1
 93
        1
 72
     4
 94
        3
 73
     0
 74
     1
 95
      203
 96
      199
 40
0.0
 40
0.0
 40
0.0
 40
0.0
 40
1.0
 40
1.0
 40
1.0
 40
2.0
 40
2.0
 40
2.0
 40
3.0
 40
3.0
 40
3.0
 40
4.0
 40
4.0
 40
4.0
 40
5.0
 40
5.0
 40
5.0
 40
6.0
 40
6.0
 40
6.0
 40
7.0
 40
7.0
 40
7.0
 40
8.0
 40
8.0
 40
8.0
 40
9.0
 40
9.0
 40
9.0
 40
10.0
 40
10.0
 40
10.0
 40
11.0
 40
11.0
 40
11.0
 40
12.0
 40
12.0
 40
12.0
 40
13.0
 40
13.0
 40
13.0
 40
14.0
 40
14.0
 40
14.0
 40
15.0
 40
15.0
 40
15.0
 40
16.0
 40
16.0
 40
16.0
 40
17.0
 40
17.0
 40
17.0
 40
18.0
 40
18.0
 40
18.0
 40
19.0
 40
19.0
 40
19.0
 40
20.0
 40
20.0
 40
20.0
 40
21.0
 40
21.0
 40
21.0
 40
22.0
 40
22.0
 40
22.0
 40
23.0
 40
23.0
 40
23.0
 40
24.0
 40
24.0
 40
24.0
 40
25.0
 40
25.0
 40
25.0
 40
26.0
 40
26.0
 40
26.0
 40
27.0
 40
27.0
 40
27.0
 40
28.0
 40
28.0
 40
28.0
 40
29.0
 40
29.0
 40
29.0
 40
30.0
 40
30.0
 40
30.0
 40
31.0
 40
31.0
 40
31.0
 40
32.0
 40
32.0
 40
32.0
 40
33.0
 40
33.0
 40
33.0
 40
34.0
 40
34.0
 40
34.0
 40
35.0
 40
35.0
 40
35.0
 40
36.0
 40
36.0
 40
36.0
 40
37.0
 40
37.0
 40
37.0
 40
38.0
 40
38.0
 40
38.0
 40
39.0
 40
39.0
 40
39.0
 40
40.0
 40
40.0
 40
40.0
 40
41.0
 40
41.0
 40
41.0
 40
42.0
 40
42.0
 40
42.0
 40
43.0
 40
43.0
 40
43.0
 40
44.0
 40
44.0
 40
44.0
 40
45.0
 40
45.0
 40
45.0
 40
46.0
 40
46.0
 40
46.0
 40
47.0
 40
47.0
 40
47.0
 40
48.0
 40
48.0
 40
48.0
 40
49.0
 40
49.0
 40
49.0
 40
50.0
 40
50.0
 40
50.0
 40
51.0
 40
51.0
 40
51.0
 40
52.0
 40
52.0
 40
52.0
 40
53.0
 40
53.0
 40
53.0
 40
54.0
 40
54.0
 40
54.0
 40
55.0
 40
55.0
 40
55.0
 40
56.0
 40
56.0
 40
56.0
 40
57.0
 40
57.0
 40
57.0
 40
58.0
 40
58.0
 40
58.0
 40
59.0
 40
59.0
 40
59.0
 40
60.0
 40
60.0
 40
60.0
 40
61.0
 40
61.0
 40
61.0
 40
62.0
 40
62.0
 40
62.0
 40
63.0
 40
63.0
 40
63.0
 40
64.0
 40
64.0
 40
64.0
 40
65.0
 40
65.0
 40
65.0
 40
66.0
 40
66.0
 40
66.0
 40
66.0
 10
99.7051974577126
 20
-118.3843329239629
 10
99.7051974577126
 20
-118.3843329239629
 10
99.21633840835564
 20
-118.3843329239629
 10
99.21633840835564
 20
-118.3843329239629
 10
99.20703665054546
 20
-118.4287746557227
 10
99.19980195002644
 20
-118.460469534187
 10
99.18843313492512
 20
-118.4987100940732
 10
99.21082625557925
 20
-118.4987100940732
 10
99.22391761842319
 20
-118.5007771513644
 10
99.22942977119959
 20
-118.5007771513644
 10
99.22942977119959
 20
-118.5007771513644
 10
99.39410533539453
 20
-118.5007771513644
 10
99.39410533539453
 20
-118.5007771513644
 10
99.39410533539453
 20
-118.5007771513644
 10
99.7217339160418
 20
-118.5007771513644
 10
99.7217339160418
 20
-118.5007771513644
 10
99.76652015735004
 20
-118.5007771513644
 10
100.014567032288
 20
-118.488030298069
 10
100.04212779617
 20
-118.488030298069
 10
100.0404052484274
 20
-118.515591061951
 10
100.0386827006848
 20
-118.5345390871198
 10
100.0386827006848
 20
-118.564166908293
 10
100.0366156433936
 20
-118.5958617867573
 10
100.0366156433936
 20
-118.7312540393276
 10
100.0366156433936
 20
-118.7588148032096
 10
100.0366156433936
 20
-118.7588148032096
 10
100.0366156433936
 20
-119.0042778565337
 10
100.0366156433936
 20
-119.0042778565337
 10
100.0366156433936
 20
-119.0487195882934
 10
100.0404052484274
 20
-119.2454345405012
 10
100.0441948534612
 20
-119.3977077609492
 10
100.0441948534612
 20
-119.3977077609492
 10
99.84610186305932
 20
-119.3977077609492
 10
99.84610186305932
 20
-119.3977077609492
 10
99.84610186305932
 20
-119.3977077609492
 10
99.84782441080193
 20
-119.3639458251937
 10
99.84782441080193
 20
-119.3639458251937
 10
99.84782441080193
 20
-119.3639458251937
 10
99.23321937623336
 20
-119.3639458251937
 10
99.23321937623336
 20
-119.3639458251937
 10
99.23321937623336
 20
-119.3639458251937
 10
99.234941923976
 20
-119.3977077609492
 10
99.234941923976
 20
-119.3977077609492
 10
99.234941923976
 20
-119.3977077609492
 10
99.04408363409316
 20
-119.3977077609492
 10
99.04408363409316
 20
-119.3977077609492
 10
99.04787323912693
 20
-119.3427584879595
 10
99.04787323912693
 20
-119.330011634664
 10
99.05338539190332
 20
-119.215806719328
 10
99.05545244919448
 20
-119.188245955446
 10
99.05717499693709
 20
-119.0550930149411
 10
99.05717499693709
 20
-119.035972734998
 10
99.05717499693709
 20
-119.035972734998
 10
99.05717499693709
 20
-118.8328843561425
 10
99.05717499693709
 20
-118.8328843561425
 10
98.93487410721073
 20
-119.0824815240488
 10
98.786735001345
 20
-119.2137396620368
 10
98.69406193279177
 20
-119.2791964762566
 10
98.69406193279177
 20
-119.2791964762566
 10
98.54247773144077
 20
-119.139670109104
 10
98.54247773144077
 20
-119.139670109104
 10
98.6199923798589
 20
-119.0888549506965
 10
98.74608287461903
 20
-119.0020385444682
 10
98.86631670705425
 20
-118.8075629043259
 10
98.94589841276353
 20
-118.6806111356944
 10
99.0034315073672
 20
-118.5367783991853
 10
99.03305932854035
 20
-118.3843329239629
 10
98.83289928084733
 20
-118.3865722360284
 10
98.67580292671994
 20
-118.3929456626761
 10
98.59243161597689
 20
-118.3950127199672
 10
98.59243161597689
 20
-118.3950127199672
 10
98.59243161597689
 20
-118.2172457929283
 10
98.59243161597689
 20
-118.2172457929283
 10
98.76468639023939
 20
-118.2236192195761
 10
99.01273326517737
 20
-118.2279255889326
 10
99.14433591271393
 20
-118.2279255889326
 10
99.14433591271393
 20
-118.2279255889326
 10
99.33106008801447
 20
-118.2279255889326
 10
99.33106008801447
 20
-118.2279255889326
 10
99.33106008801447
 20
-118.2279255889326
 10
99.33106008801447
 20
-118.11992184547
 10
99.33106008801447
 20
-118.11992184547
 10
99.33106008801447
 20
-118.11992184547
 10
99.20359155506021
 20
-118.11992184547
 10
99.20359155506021
 20
-118.11992184547
 10
99.05545244919448
 20
-118.11992184547
 10
98.90731334332874
 20
-118.1242282148266
 10
98.76089678520562
 20
-118.1306016414743
 10
98.76089678520562
 20
-118.1306016414743
 10
98.76089678520562
 20
-117.9592081410831
 10
98.76089678520562
 20
-117.9592081410831
 10
98.8959445282274
 20
-117.9697156823131
 10
99.05889754467972
 20
-117.9697156823131
 10
99.20359155506021
 20
-117.9697156823131
 10
99.20359155506021
 20
-117.9697156823131
 10
99.33106008801447
 20
-117.9697156823131
 10
99.33106008801447
 20
-117.9697156823131
 10
99.33106008801447
 20
-117.9697156823131
 10
99.33106008801447
 20
-117.8513766523948
 10
99.33106008801447
 20
-117.8513766523948
 10
99.33106008801447
 20
-117.8513766523948
 10
99.21633840835564
 20
-117.8513766523948
 10
99.21633840835564
 20
-117.8513766523948
 10
99.1756862816297
 20
-117.8513766523948
 10
98.9979193545908
 20
-117.8598171363337
 10
98.96071232335011
 20
-117.8598171363337
 10
98.7829453963112
 20
-117.863951250916
 10
98.71645505344588
 20
-117.8660183082071
 10
98.64789765328942
 20
-117.8682576202725
 10
98.64789765328942
 20
-117.8682576202725
 10
98.64789765328942
 20
-117.6841172665859
 10
98.64789765328942
 20
-117.6841172665859
 10
98.74780542236167
 20
-117.6925577505248
 10
98.786735001345
 20
-117.6925577505248
 10
99.1219427920598
 20
-117.7011704892379
 10
99.06647675474727
 20
-117.6059135990707
 10
99.04236108635052
 20
-117.5783528351888
 10
99.01066620788623
 20
-117.5423515873679
 10
99.01066620788623
 20
-117.5423515873679
 10
99.1646619760769
 20
-117.4598415504962
 10
99.1646619760769
 20
-117.4598415504962
 10
99.19980195002644
 20
-117.495842798317
 10
99.23873152900977
 20
-117.5382174727856
 10
99.30349932413246
 20
-117.6481160187651
 10
99.30349932413246
 20
-117.6481160187651
 10
99.20359155506021
 20
-117.7032375465291
 10
99.20359155506021
 20
-117.7032375465291
 10
99.20359155506021
 20
-117.7032375465291
 10
99.21254880332187
 20
-117.7032375465291
 10
99.21254880332187
 20
-117.7032375465291
 10
99.21254880332187
 20
-117.7032375465291
 10
99.67005748376305
 20
-117.7032375465291
 10
99.67005748376305
 20
-117.7032375465291
 10
99.67005748376305
 20
-117.7032375465291
 10
99.58668617302
 20
-117.6587958147693
 10
99.58668617302
 20
-117.6587958147693
 10
99.61080184141674
 20
-117.6207275096573
 10
99.66075572595287
 20
-117.5402845300767
 10
99.67384708879682
 20
-117.4662149771439
 10
99.67384708879682
 20
-117.4662149771439
 10
99.86091577364589
 20
-117.5297769888467
 10
99.86091577364589
 20
-117.5297769888467
 10
99.8681504741649
 20
-117.5318440461379
 10
99.88675398978526
 20
-117.5423515873679
 10
99.88675398978526
 20
-117.5635389246022
 10
99.88675398978526
 20
-117.6016072297142
 10
99.82922089518159
 20
-117.6016072297142
 10
99.8126844368524
 20
-117.6016072297142
 10
99.80338267904222
 20
-117.6207275096573
 10
99.78305661567924
 20
-117.6608628720605
 10
99.75721839953987
 20
-117.7011704892379
 10
100.1068955912927
 20
-117.6947970625902
 10
100.1330783169806
 20
-117.6925577505248
 10
100.199568659846
 20
-117.6863565786513
 10
100.199568659846
 20
-117.6863565786513
 10
100.199568659846
 20
-117.8682576202725
 10
100.199568659846
 20
-117.8682576202725
 10
100.1830322015168
 20
-117.8682576202725
 10
100.1606390808626
 20
-117.8660183082071
 10
99.96805824323715
 20
-117.8575778242682
 10
99.92361651147743
 20
-117.8555107669771
 10
99.73103567385196
 20
-117.8513766523948
 10
99.69210609486865
 20
-117.8513766523948
 10
99.69210609486865
 20
-117.8513766523948
 10
99.50331486227695
 20
-117.8513766523948
 10
99.50331486227695
 20
-117.8513766523948
 10
99.50331486227695
 20
-117.8513766523948
 10
99.50331486227695
 20
-117.9697156823131
 10
99.50331486227695
 20
-117.9697156823131
 10
99.50331486227695
 20
-117.9697156823131
 10
99.65524357317648
 20
-117.9697156823131
 10
99.65524357317648
 20
-117.9697156823131
 10
99.79787052626581
 20
-117.9697156823131
 10
99.9646131477519
 20
-117.9697156823131
 10
100.1013834385163
 20
-117.9592081410831
 10
100.1013834385163
 20
-117.9592081410831
 10
100.1013834385163
 20
-118.1306016414743
 10
100.1013834385163
 20
-118.1306016414743
 10
99.91810435870103
 20
-118.1221611575354
 10
99.74584958443855
 20
-118.11992184547
 10
99.65524357317648
 20
-118.11992184547
 10
99.65524357317648
 20
-118.11992184547
 10
99.50331486227695
 20
-118.11992184547
 10
99.50331486227695
 20
-118.11992184547
 10
99.50331486227695
 20
-118.11992184547
 10
99.50331486227695
 20
-118.2279255889326
 10
99.50331486227695
 20
-118.2279255889326
 10
99.50331486227695
 20
-118.2279255889326
 10
99.7051974577126
 20
-118.2279255889326
 10
99.7051974577126
 20
-118.2279255889326
 10
99.82198619466256
 20
-118.2279255889326
 10
100.0738226746343
 20
-118.2236192195761
 10
100.2571017544496
 20
-118.2172457929283
 10
100.2571017544496
 20
-118.2172457929283
 10
100.2571017544496
 20
-118.3950127199672
 10
100.2571017544496
 20
-118.3950127199672
 10
100.0886365852209
 20
-118.3886392933195
 10
99.81440698459501
 20
-118.3843329239629
 10
99.7051974577126
 20
-118.3843329239629
 97
        0
 97
        0
 92
        1
 93
        4
 72
     1
 10
99.84954695854456
 20
-118.640303518517
 11
99.23115231894222
 21
-118.640303518517
 72
     1
 10
99.23115231894222
 20
-118.640303518517
 11
99.23115231894222
 21
-118.7483072619796
 72
     1
 10
99.23115231894222
 20
-118.7483072619796
 11
99.84954695854456
 21
-118.7483072619796
 72
     1
 10
99.84954695854456
 20
-118.7483072619796
 11
99.84954695854456
 21
-118.640303518517
 97
        0
 92
        1
 93
        4
 72
     1
 10
99.84954695854456
 20
-118.8730197185456
 11
99.23115231894222
 21
-118.8730197185456
 72
     1
 10
99.23115231894222
 20
-118.8730197185456
 11
99.23115231894222
 21
-118.9873968886559
 72
     1
 10
99.23115231894222
 20
-118.9873968886559
 11
99.84954695854456
 21
-118.9873968886559
 72
     1
 10
99.84954695854456
 20
-118.9873968886559
 11
99.84954695854456
 21
-118.8730197185456
 97
        0
 92
        1
 93
        4
 72
     1
 10
99.84954695854456
 20
-119.1164157145785
 11
99.23115231894222
 21
-119.1164157145785
 72
     1
 10
99.23115231894222
 20
-119.1164157145785
 11
99.23115231894222
 21
-119.2306206299146
 72
     1
 10
99.23115231894222
 20
-119.2306206299146
 11
99.84954695854456
 21
-119.2306206299146
 72
     1
 10
99.84954695854456
 20
-119.2306206299146
 11
99.84954695854456
 21
-119.1164157145785
 97
        0
 75
     2
 76
     1
 98
        0
  0
SPLINE
  5
82
330
63
100
AcDbEntity
  8
_U+30EC_U+30A4_U+30E4_U+30FC 1
370
     0
100
AcDbSpline
210
0.0
220
0.0
230
1.0
 70
    11
 71
     3
 72
    47
 73
    43
 74
     0
 42
0.0000000001
 43
0.0000000001
 12
1.0
 22
0.0
 32
0.0
 13
1.0
 23
0.0
 33
0.0
 40
0.0
 40
0.0
 40
0.0
 40
0.0
 40
1.0
 40
1.0
 40
1.0
 40
2.0
 40
2.0
 40
2.0
 40
3.0
 40
3.0
 40
3.0
 40
4.0
 40
4.0
 40
4.0
 40
5.0
 40
5.0
 40
5.0
 40
6.0
 40
6.0
 40
6.0
 40
7.0
 40
7.0
 40
7.0
 40
8.0
 40
8.0
 40
8.0
 40
9.0
 40
9.0
 40
9.0
 40
10.0
 40
10.0
 40
10.0
 40
11.0
 40
11.0
 40
11.0
 40
12.0
 40
12.0
 40
12.0
 40
13.0
 40
13.0
 40
13.0
 40
14.0
 40
14.0
 40
14.0
 40
14.0
 10
101.4370469581477
 20
-118.3610785294375
 30
0.0
 10
101.4370469581477
 20
-118.3610785294375
 30
0.0
 10
101.3481634946282
 20
-118.3610785294375
 30
0.0
 10
101.3481634946282
 20
-118.3610785294375
 30
0.0
 10
101.3481634946282
 20
-118.4478949356658
 30
0.0
 10
101.3295599790079
 20
-118.837190725499
 30
0.0
 10
101.1573052047454
 20
-119.0571600722323
 30
0.0
 10
101.0239800094662
 20
-119.226314260558
 30
0.0
 10
100.8424234773936
 20
-119.2962496989086
 30
0.0
 10
100.7683539244607
 20
-119.3236382080163
 30
0.0
 10
100.7683539244607
 20
-119.3236382080163
 30
0.0
 10
100.5981662074894
 20
-119.1565510769817
 30
0.0
 10
100.5981662074894
 20
-119.1565510769817
 30
0.0
 10
100.683260065975
 20
-119.1438042236863
 30
0.0
 10
100.8369113246172
 20
-119.1205498291608
 30
0.0
 10
101.0019313983606
 20
-118.9322753608919
 30
0.0
 10
101.0666991934833
 20
-118.8604451200245
 30
0.0
 10
101.1573052047454
 20
-118.7207464980976
 30
0.0
 10
101.1573052047454
 20
-118.3610785294375
 30
0.0
 10
101.1573052047454
 20
-118.3610785294375
 30
0.0
 10
100.9554226093098
 20
-118.3610785294375
 30
0.0
 10
100.9554226093098
 20
-118.3610785294375
 30
0.0
 10
100.7924695928574
 20
-118.3610785294375
 30
0.0
 10
100.6295165764051
 20
-118.3653848987941
 30
0.0
 10
100.4665635599528
 20
-118.3801988093806
 30
0.0
 10
100.4665635599528
 20
-118.3801988093806
 30
0.0
 10
100.4665635599528
 20
-118.1602294626475
 30
0.0
 10
100.4665635599528
 20
-118.1602294626475
 30
0.0
 10
100.6312391241478
 20
-118.175043373234
 30
0.0
 10
100.8813530563769
 20
-118.1791774878163
 30
0.0
 10
100.9554226093098
 20
-118.1791774878163
 30
0.0
 10
100.9554226093098
 20
-118.1791774878163
 30
0.0
 10
101.4370469581477
 20
-118.1791774878163
 30
0.0
 10
101.4370469581477
 20
-118.1791774878163
 30
0.0
 10
101.4535834164769
 20
-118.1791774878163
 30
0.0
 10
101.731258112588
 20
-118.1791774878163
 30
0.0
 10
101.931418160281
 20
-118.1602294626475
 30
0.0
 10
101.931418160281
 20
-118.1602294626475
 30
0.0
 10
101.931418160281
 20
-118.3801988093806
 30
0.0
 10
101.931418160281
 20
-118.3801988093806
 30
0.0
 10
101.7663980865376
 20
-118.3653848987941
 30
0.0
 10
101.6017225223426
 20
-118.3610785294375
 30
0.0
 10
101.4370469581477
 20
-118.3610785294375
 30
0.0
  0
SPLINE
  5
83
330
63
100
AcDbEntity
  8
_U+30EC_U+30A4_U+30E4_U+30FC 1
370
     0
100
AcDbSpline
210
0.0
220
0.0
230
1.0
 70
    11
 71
     3
 72
    29
 73
    25
 74
     0
 42
0.0000000001
 43
0.0000000001
 12
1.0
 22
0.0
 32
0.0
 13
1.0
 23
0.0
 33
0.0
 40
0.0
 40
0.0
 40
0.0
 40
0.0
 40
1.0
 40
1.0
 40
1.0
 40
2.0
 40
2.0
 40
2.0
 40
3.0
 40
3.0
 40
3.0
 40
4.0
 40
4.0
 40
4.0
 40
5.0
 40
5.0
 40
5.0
 40
6.0
 40
6.0
 40
6.0
 40
7.0
 40
7.0
 40
7.0
 40
8.0
 40
8.0
 40
8.0
 40
8.0
 10
101.3481634946282
 20
-117.8322563724517
 30
0.0
 10
101.3481634946282
 20
-117.8322563724517
 30
0.0
 10
101.0387939200528
 20
-117.8322563724517
 30
0.0
 10
101.0387939200528
 20
-117.8322563724517
 30
0.0
 10
100.9406086987232
 20
-117.8322563724517
 30
0.0
 10
100.8183078089968
 20
-117.8386297990994
 30
0.0
 10
100.723912192701
 20
-117.8513766523948
 30
0.0
 10
100.723912192701
 20
-117.8513766523948
 30
0.0
 10
100.723912192701
 20
-117.6164211403008
 30
0.0
 10
100.723912192701
 20
-117.6164211403008
 30
0.0
 10
100.827609566807
 20
-117.6312350508873
 30
0.0
 10
100.9888400355167
 20
-117.6355414202439
 30
0.0
 10
101.0387939200528
 20
-117.6355414202439
 30
0.0
 10
101.0387939200528
 20
-117.6355414202439
 30
0.0
 10
101.3481634946282
 20
-117.6355414202439
 30
0.0
 10
101.3481634946282
 20
-117.6355414202439
 30
0.0
 10
101.3646999529574
 20
-117.6355414202439
 30
0.0
 10
101.5424668799963
 20
-117.6355414202439
 30
0.0
 10
101.6664903174653
 20
-117.6164211403008
 30
0.0
 10
101.6664903174653
 20
-117.6164211403008
 30
0.0
 10
101.6664903174653
 20
-117.8513766523948
 30
0.0
 10
101.6664903174653
 20
-117.8513766523948
 30
0.0
 10
101.5293755171524
 20
-117.8322563724517
 30
0.0
 10
101.3629774052148
 20
-117.8322563724517
 30
0.0
 10
101.3481634946282
 20
-117.8322563724517
 30
0.0
  0
HATCH
  5
84
330
63
100
AcDbEntity
  8
_U+30EC_U+30A4_U+30E4_U+30FC 1
 62
   179
420
  2234388
100
AcDbHatch
 10
0.0
 20
0.0
 30
0.0
210
0.0
220
0.0
230
1.0
  2
SOLID
 70
     1
 71
     0
 91
        2
 92
        1
 93
        1
 72
     4
 94
        3
 73
     0
 74
     1
 95
       47
 96
       43
 40
0.0
 40
0.0
 40
0.0
 40
0.0
 40
1.0
 40
1.0
 40
1.0
 40
2.0
 40
2.0
 40
2.0
 40
3.0
 40
3.0
 40
3.0
 40
4.0
 40
4.0
 40
4.0
 40
5.0
 40
5.0
 40
5.0
 40
6.0
 40
6.0
 40
6.0
 40
7.0
 40
7.0
 40
7.0
 40
8.0
 40
8.0
 40
8.0
 40
9.0
 40
9.0
 40
9.0
 40
10.0
 40
10.0
 40
10.0
 40
11.0
 40
11.0
 40
11.0
 40
12.0
 40
12.0
 40
12.0
 40
13.0
 40
13.0
 40
13.0
 40
14.0
 40
14.0
 40
14.0
 40
14.0
 10
101.4370469581477
 20
-118.3610785294375
 10
101.4370469581477
 20
-118.3610785294375
 10
101.3481634946282
 20
-118.3610785294375
 10
101.3481634946282
 20
-118.3610785294375
 10
101.3481634946282
 20
-118.4478949356658
 10
101.3295599790079
 20
-118.837190725499
 10
101.1573052047454
 20
-119.0571600722323
 10
101.0239800094662
 20
-119.226314260558
 10
100.8424234773936
 20
-119.2962496989086
 10
100.7683539244607
 20
-119.3236382080163
 10
100.7683539244607
 20
-119.3236382080163
 10
100.5981662074894
 20
-119.1565510769817
 10
100.5981662074894
 20
-119.1565510769817
 10
100.683260065975
 20
-119.1438042236863
 10
100.8369113246172
 20
-119.1205498291608
 10
101.0019313983606
 20
-118.9322753608919
 10
101.0666991934833
 20
-118.8604451200245
 10
101.1573052047454
 20
-118.7207464980976
 10
101.1573052047454
 20
-118.3610785294375
 10
101.1573052047454
 20
-118.3610785294375
 10
100.9554226093098
 20
-118.3610785294375
 10
100.9554226093098
 20
-118.3610785294375
 10
100.7924695928574
 20
-118.3610785294375
 10
100.6295165764051
 20
-118.3653848987941
 10
100.4665635599528
 20
-118.3801988093806
 10
100.4665635599528
 20
-118.3801988093806
 10
100.4665635599528
 20
-118.1602294626475
 10
100.4665635599528
 20
-118.1602294626475
 10
100.6312391241478
 20
-118.175043373234
 10
100.8813530563769
 20
-118.1791774878163
 10
100.9554226093098
 20
-118.1791774878163
 10
100.9554226093098
 20
-118.1791774878163
 10
101.4370469581477
 20
-118.1791774878163
 10
101.4370469581477
 20
-118.1791774878163
 10
101.4535834164769
 20
-118.1791774878163
 10
101.731258112588
 20
-118.1791774878163
 10
101.931418160281
 20
-118.1602294626475
 10
101.931418160281
 20
-118.1602294626475
 10
101.931418160281
 20
-118.3801988093806
 10
101.931418160281
 20
-118.3801988093806
 10
101.7663980865376
 20
-118.3653848987941
 10
101.6017225223426
 20
-118.3610785294375
 10
101.4370469581477
 20
-118.3610785294375
 97
        0
 97
        0
 92
        1
 93
        1
 72
     4
 94
        3
 73
     0
 74
     1
 95
       29
 96
       25
 40
0.0
 40
0.0
 40
0.0
 40
0.0
 40
1.0
 40
1.0
 40
1.0
 40
2.0
 40
2.0
 40
2.0
 40
3.0
 40
3.0
 40
3.0
 40
4.0
 40
4.0
 40
4.0
 40
5.0
 40
5.0
 40
5.0
 40
6.0
 40
6.0
 40
6.0
 40
7.0
 40
7.0
 40
7.0
 40
8.0
 40
8.0
 40
8.0
 40
8.0
 10
101.3481634946282
 20
-117.8322563724517
 10
101.3481634946282
 20
-117.8322563724517
 10
101.0387939200528
 20
-117.8322563724517
 10
101.0387939200528
 20
-117.8322563724517
 10
100.9406086987232
 20
-117.8322563724517
 10
100.8183078089968
 20
-117.8386297990994
 10
100.723912192701
 20
-117.8513766523948
 10
100.723912192701
 20
-117.8513766523948
 10
100.723912192701
 20
-117.6164211403008
 10
100.723912192701
 20
-117.6164211403008
 10
100.827609566807
 20
-117.6312350508873
 10
100.9888400355167
 20
-117.6355414202439
 10
101.0387939200528
 20
-117.6355414202439
 10
101.0387939200528
 20
-117.6355414202439
 10
101.3481634946282
 20
-117.6355414202439
 10
101.3481634946282
 20
-117.6355414202439
 10
101.3646999529574
 20
-117.6355414202439
 10
101.5424668799963
 20
-117.6355414202439
 10
101.6664903174653
 20
-117.6164211403008
 10
101.6664903174653
 20
-117.6164211403008
 10
101.6664903174653
 20
-117.8513766523948
 10
101.6664903174653
 20
-117.8513766523948
 10
101.5293755171524
 20
-117.8322563724517
 10
101.3629774052148
 20
-117.8322563724517
 10
101.3481634946282
 20
-117.8322563724517
 97
        0
 97
        0
 75
     2
 76
     1
 98
        0
  0
SPLINE
  5
85
330
63
100
AcDbEntity
  8
_U+30EC_U+30A4_U+30E4_U+30FC 1
370
     0
100
AcDbSpline
210
0.0
220
0.0
230
1.0
 70
    11
 71
     3
 72
    29
 73
    25
 74
     0
 42
0.0000000001
 43
0.0000000001
 12
1.0
 22
0.0
 32
0.0
 13
1.0
 23
0.0
 33
0.0
 40
0.0
 40
0.0
 40
0.0
 40
0.0
 40
1.0
 40
1.0
 40
1.0
 40
2.0
 40
2.0
 40
2.0
 40
3.0
 40
3.0
 40
3.0
 40
4.0
 40
4.0
 40
4.0
 40
5.0
 40
5.0
 40
5.0
 40
6.0
 40
6.0
 40
6.0
 40
7.0
 40
7.0
 40
7.0
 40
8.0
 40
8.0
 40
8.0
 40
8.0
 10
103.0538302693754
 20
-118.5240315458898
 30
0.0
 10
103.0538302693754
 20
-118.5240315458898
 30
0.0
 10
102.6297390151412
 20
-118.5240315458898
 30
0.0
 10
102.6297390151412
 20
-118.5240315458898
 30
0.0
 10
102.6056233467444
 20
-118.5240315458898
 30
0.0
 10
102.3276041410848
 20
-118.5240315458898
 30
0.0
 10
102.1426025135269
 20
-118.5493529977064
 30
0.0
 10
102.1426025135269
 20
-118.5493529977064
 30
0.0
 10
102.1426025135269
 20
-118.3188761097432
 30
0.0
 10
102.1426025135269
 20
-118.3188761097432
 30
0.0
 10
102.2814398615824
 20
-118.3421305042686
 30
0.0
 10
102.4481824830685
 20
-118.3441975615598
 30
0.0
 10
102.6297390151412
 20
-118.3441975615598
 30
0.0
 10
102.6297390151412
 20
-118.3441975615598
 30
0.0
 10
103.0538302693754
 20
-118.3441975615598
 30
0.0
 10
103.0538302693754
 20
-118.3441975615598
 30
0.0
 10
103.2164387762792
 20
-118.3441975615598
 30
0.0
 10
103.3797363022801
 20
-118.3421305042686
 30
0.0
 10
103.5406222614412
 20
-118.3188761097432
 30
0.0
 10
103.5406222614412
 20
-118.3188761097432
 30
0.0
 10
103.5406222614412
 20
-118.5493529977064
 30
0.0
 10
103.5406222614412
 20
-118.5493529977064
 30
0.0
 10
103.3797363022801
 20
-118.526098603181
 30
0.0
 10
103.1630397962579
 20
-118.5240315458898
 30
0.0
 10
103.0538302693754
 20
-118.5240315458898
 30
0.0
  0
HATCH
  5
86
330
63
100
AcDbEntity
  8
_U+30EC_U+30A4_U+30E4_U+30FC 1
 62
   179
420
  2234388
100
AcDbHatch
 10
0.0
 20
0.0
 30
0.0
210
0.0
220
0.0
230
1.0
  2
SOLID
 70
     1
 71
     0
 91
        1
 92
        1
 93
        1
 72
     4
 94
        3
 73
     0
 74
     1
 95
       29
 96
       25
 40
0.0
 40
0.0
 40
0.0
 40
0.0
 40
1.0
 40
1.0
 40
1.0
 40
2.0
 40
2.0
 40
2.0
 40
3.0
 40
3.0
 40
3.0
 40
4.0
 40
4.0
 40
4.0
 40
5.0
 40
5.0
 40
5.0
 40
6.0
 40
6.0
 40
6.0
 40
7.0
 40
7.0
 40
7.0
 40
8.0
 40
8.0
 40
8.0
 40
8.0
 10
103.0538302693754
 20
-118.5240315458898
 10
103.0538302693754
 20
-118.5240315458898
 10
102.6297390151412
 20
-118.5240315458898
 10
102.6297390151412
 20
-118.5240315458898
 10
102.6056233467444
 20
-118.5240315458898
 10
102.3276041410848
 20
-118.5240315458898
 10
102.1426025135269
 20
-118.5493529977064
 10
102.1426025135269
 20
-118.5493529977064
 10
102.1426025135269
 20
-118.3188761097432
 10
102.1426025135269
 20
-118.3188761097432
 10
102.2814398615824
 20
-118.3421305042686
 10
102.4481824830685
 20
-118.3441975615598
 10
102.6297390151412
 20
-118.3441975615598
 10
102.6297390151412
 20
-118.3441975615598
 10
103.0538302693754
 20
-118.3441975615598
 10
103.0538302693754
 20
-118.3441975615598
 10
103.2164387762792
 20
-118.3441975615598
 10
103.3797363022801
 20
-118.3421305042686
 10
103.5406222614412
 20
-118.3188761097432
 10
103.5406222614412
 20
-118.3188761097432
 10
103.5406222614412
 20
-118.5493529977064
 10
103.5406222614412
 20
-118.5493529977064
 10
103.3797363022801
 20
-118.526098603181
 10
103.1630397962579
 20
-118.5240315458898
 10
103.0538302693754
 20
-118.5240315458898
 97
        0
 97
        0
 75
     2
 76
     1
 98
        0
  0
SPLINE
  5
87
330
63
100
AcDbEntity
  8
_U+30EC_U+30A4_U+30E4_U+30FC 1
370
     0
100
AcDbSpline
210
0.0
220
0.0
230
1.0
 70
    11
 71
     3
 72
    44
 73
    40
 74
     0
 42
0.0000000001
 43
0.0000000001
 12
1.0
 22
0.0
 32
0.0
 13
1.0
 23
0.0
 33
0.0
 40
0.0
 40
0.0
 40
0.0
 40
0.0
 40
1.0
 40
1.0
 40
1.0
 40
2.0
 40
2.0
 40
2.0
 40
3.0
 40
3.0
 40
3.0
 40
4.0
 40
4.0
 40
4.0
 40
5.0
 40
5.0
 40
5.0
 40
6.0
 40
6.0
 40
6.0
 40
7.0
 40
7.0
 40
7.0
 40
8.0
 40
8.0
 40
8.0
 40
9.0
 40
9.0
 40
9.0
 40
10.0
 40
10.0
 40
10.0
 40
11.0
 40
11.0
 40
11.0
 40
12.0
 40
12.0
 40
12.0
 40
13.0
 40
13.0
 40
13.0
 40
13.0
 10
104.9906629511829
 20
-118.0861599097146
 30
0.0
 10
104.8924777298533
 20
-118.4542683623135
 30
0.0
 10
104.8480359980936
 20
-118.6129150094093
 30
0.0
 10
104.6757812238311
 20
-118.8625121773156
 30
0.0
 10
104.5148952646699
 20
-119.0931613200531
 30
0.0
 10
104.3075005164578
 20
-119.2791964762566
 30
0.0
 10
104.0628987370051
 20
-119.3723863091326
 30
0.0
 10
104.0628987370051
 20
-119.3723863091326
 30
0.0
 10
103.8944335677764
 20
-119.1925523248026
 30
0.0
 10
103.8944335677764
 20
-119.1925523248026
 30
0.0
 10
104.4556396223236
 20
-119.0402791043545
 30
0.0
 10
104.7443386239875
 20
-118.4838961834867
 30
0.0
 10
104.7998046613001
 20
-118.043785235246
 30
0.0
 10
104.7998046613001
 20
-118.043785235246
 30
0.0
 10
104.129733589419
 20
-118.043785235246
 30
0.0
 10
104.129733589419
 20
-118.043785235246
 30
0.0
 10
104.0480848264185
 20
-118.043785235246
 30
0.0
 10
103.8871988672574
 20
-118.0480916046026
 30
0.0
 10
103.7500840669444
 20
-118.0670396297714
 30
0.0
 10
103.7500840669444
 20
-118.0670396297714
 30
0.0
 10
103.7500840669444
 20
-117.8470702830382
 30
0.0
 10
103.7500840669444
 20
-117.8470702830382
 30
0.0
 10
103.8258761676199
 20
-117.8682576202725
 30
0.0
 10
104.0463622786759
 20
-117.8682576202725
 30
0.0
 10
104.1335231944527
 20
-117.8682576202725
 30
0.0
 10
104.1335231944527
 20
-117.8682576202725
 30
0.0
 10
104.5111056596361
 20
-117.8682576202725
 30
0.0
 10
104.5111056596361
 20
-117.8682576202725
 30
0.0
 10
104.5483126908768
 20
-117.8682576202725
 30
0.0
 10
104.7536403817977
 20
-117.8660183082071
 30
0.0
 10
104.7870578080046
 20
-117.8598171363337
 30
0.0
 10
104.8239203296968
 20
-117.8534437096859
 30
0.0
 10
104.8259873869879
 20
-117.8513766523948
 30
0.0
 10
104.8797308765578
 20
-117.8110690352174
 30
0.0
 10
104.8797308765578
 20
-117.8110690352174
 30
0.0
 10
105.0444064407528
 20
-117.9655815677308
 30
0.0
 10
105.0444064407528
 20
-117.9655815677308
 30
0.0
 10
105.0185682246134
 20
-117.995209388904
 30
0.0
 10
105.0054768617695
 20
-118.0269042673683
 30
0.0
 10
104.9906629511829
 20
-118.0861599097146
 30
0.0
  0
SPLINE
  5
88
330
63
100
AcDbEntity
  8
_U+30EC_U+30A4_U+30E4_U+30FC 1
370
     0
100
AcDbSpline
210
0.0
220
0.0
230
1.0
 70
    11
 71
     3
 72
    17
 73
    13
 74
     0
 42
0.0000000001
 43
0.0000000001
 12
1.0
 22
0.0
 32
0.0
 13
1.0
 23
0.0
 33
0.0
 40
0.0
 40
0.0
 40
0.0
 40
0.0
 40
1.0
 40
1.0
 40
1.0
 40
2.0
 40
2.0
 40
2.0
 40
3.0
 40
3.0
 40
3.0
 40
4.0
 40
4.0
 40
4.0
 40
4.0
 10
105.1739420309982
 20
-117.8872056454414
 30
0.0
 10
105.0630099563731
 20
-117.8872056454414
 30
0.0
 10
104.9741264928537
 20
-117.7857475834008
 30
0.0
 10
104.9741264928537
 20
-117.6587958147693
 30
0.0
 10
104.9741264928537
 20
-117.5318440461379
 30
0.0
 10
105.0630099563731
 20
-117.4281466720319
 30
0.0
 10
105.1739420309982
 20
-117.4281466720319
 30
0.0
 10
105.2852186151718
 20
-117.4281466720319
 30
0.0
 10
105.3758246264338
 20
-117.5318440461379
 30
0.0
 10
105.3758246264338
 20
-117.6587958147693
 30
0.0
 10
105.3758246264338
 20
-117.7857475834008
 30
0.0
 10
105.2852186151718
 20
-117.8872056454414
 30
0.0
 10
105.1739420309982
 20
-117.8872056454414
 30
0.0
  0
SPLINE
  5
89
330
63
100
AcDbEntity
  8
_U+30EC_U+30A4_U+30E4_U+30FC 1
370
     0
100
AcDbSpline
210
0.0
220
0.0
230
1.0
 70
    11
 71
     3
 72
    17
 73
    13
 74
     0
 42
0.0000000001
 43
0.0000000001
 12
1.0
 22
0.0
 32
0.0
 13
1.0
 23
0.0
 33
0.0
 40
0.0
 40
0.0
 40
0.0
 40
0.0
 40
1.0
 40
1.0
 40
1.0
 40
2.0
 40
2.0
 40
2.0
 40
3.0
 40
3.0
 40
3.0
 40
4.0
 40
4.0
 40
4.0
 40
4.0
 10
105.1722194832556
 20
-117.5571654979545
 30
0.0
 10
105.1239881464621
 20
-117.5571654979545
 30
0.0
 10
105.0850585674787
 20
-117.6016072297142
 30
0.0
 10
105.0850585674787
 20
-117.6567287574782
 30
0.0
 10
105.0850585674787
 20
-117.7137450877591
 30
0.0
 10
105.1239881464621
 20
-117.7624931888754
 30
0.0
 10
105.1760090882893
 20
-117.7624931888754
 30
0.0
 10
105.2276855205681
 20
-117.7624931888754
 30
0.0
 10
105.2628254945176
 20
-117.7116780304679
 30
0.0
 10
105.2628254945176
 20
-117.6587958147693
 30
0.0
 10
105.2628254945176
 20
-117.6016072297142
 30
0.0
 10
105.2221733677917
 20
-117.5571654979545
 30
0.0
 10
105.1722194832556
 20
-117.5571654979545
 30
0.0
  0
HATCH
  5
8A
330
63
100
AcDbEntity
  8
_U+30EC_U+30A4_U+30E4_U+30FC 1
 62
   179
420
  2234388
100
AcDbHatch
 10
0.0
 20
0.0
 30
0.0
210
0.0
220
0.0
230
1.0
  2
SOLID
 70
     1
 71
     0
 91
        3
 92
        1
 93
        1
 72
     4
 94
        3
 73
     0
 74
     1
 95
       44
 96
       40
 40
0.0
 40
0.0
 40
0.0
 40
0.0
 40
1.0
 40
1.0
 40
1.0
 40
2.0
 40
2.0
 40
2.0
 40
3.0
 40
3.0
 40
3.0
 40
4.0
 40
4.0
 40
4.0
 40
5.0
 40
5.0
 40
5.0
 40
6.0
 40
6.0
 40
6.0
 40
7.0
 40
7.0
 40
7.0
 40
8.0
 40
8.0
 40
8.0
 40
9.0
 40
9.0
 40
9.0
 40
10.0
 40
10.0
 40
10.0
 40
11.0
 40
11.0
 40
11.0
 40
12.0
 40
12.0
 40
12.0
 40
13.0
 40
13.0
 40
13.0
 40
13.0
 10
104.9906629511829
 20
-118.0861599097146
 10
104.8924777298533
 20
-118.4542683623135
 10
104.8480359980936
 20
-118.6129150094093
 10
104.6757812238311
 20
-118.8625121773156
 10
104.5148952646699
 20
-119.0931613200531
 10
104.3075005164578
 20
-119.2791964762566
 10
104.0628987370051
 20
-119.3723863091326
 10
104.0628987370051
 20
-119.3723863091326
 10
103.8944335677764
 20
-119.1925523248026
 10
103.8944335677764
 20
-119.1925523248026
 10
104.4556396223236
 20
-119.0402791043545
 10
104.7443386239875
 20
-118.4838961834867
 10
104.7998046613001
 20
-118.043785235246
 10
104.7998046613001
 20
-118.043785235246
 10
104.129733589419
 20
-118.043785235246
 10
104.129733589419
 20
-118.043785235246
 10
104.0480848264185
 20
-118.043785235246
 10
103.8871988672574
 20
-118.0480916046026
 10
103.7500840669444
 20
-118.0670396297714
 10
103.7500840669444
 20
-118.0670396297714
 10
103.7500840669444
 20
-117.8470702830382
 10
103.7500840669444
 20
-117.8470702830382
 10
103.8258761676199
 20
-117.8682576202725
 10
104.0463622786759
 20
-117.8682576202725
 10
104.1335231944527
 20
-117.8682576202725
 10
104.1335231944527
 20
-117.8682576202725
 10
104.5111056596361
 20
-117.8682576202725
 10
104.5111056596361
 20
-117.8682576202725
 10
104.5483126908768
 20
-117.8682576202725
 10
104.7536403817977
 20
-117.8660183082071
 10
104.7870578080046
 20
-117.8598171363337
 10
104.8239203296968
 20
-117.8534437096859
 10
104.8259873869879
 20
-117.8513766523948
 10
104.8797308765578
 20
-117.8110690352174
 10
104.8797308765578
 20
-117.8110690352174
 10
105.0444064407528
 20
-117.9655815677308
 10
105.0444064407528
 20
-117.9655815677308
 10
105.0185682246134
 20
-117.995209388904
 10
105.0054768617695
 20
-118.0269042673683
 10
104.9906629511829
 20
-118.0861599097146
 97
        0
 97
        0
 92
        1
 93
        1
 72
     4
 94
        3
 73
     0
 74
     1
 95
       17
 96
       13
 40
0.0
 40
0.0
 40
0.0
 40
0.0
 40
1.0
 40
1.0
 40
1.0
 40
2.0
 40
2.0
 40
2.0
 40
3.0
 40
3.0
 40
3.0
 40
4.0
 40
4.0
 40
4.0
 40
4.0
 10
105.1739420309982
 20
-117.8872056454414
 10
105.0630099563731
 20
-117.8872056454414
 10
104.9741264928537
 20
-117.7857475834008
 10
104.9741264928537
 20
-117.6587958147693
 10
104.9741264928537
 20
-117.5318440461379
 10
105.0630099563731
 20
-117.4281466720319
 10
105.1739420309982
 20
-117.4281466720319
 10
105.2852186151718
 20
-117.4281466720319
 10
105.3758246264338
 20
-117.5318440461379
 10
105.3758246264338
 20
-117.6587958147693
 10
105.3758246264338
 20
-117.7857475834008
 10
105.2852186151718
 20
-117.8872056454414
 10
105.1739420309982
 20
-117.8872056454414
 97
        0
 97
        0
 92
        1
 93
        1
 72
     4
 94
        3
 73
     0
 74
     1
 95
       17
 96
       13
 40
0.0
 40
0.0
 40
0.0
 40
0.0
 40
1.0
 40
1.0
 40
1.0
 40
2.0
 40
2.0
 40
2.0
 40
3.0
 40
3.0
 40
3.0
 40
4.0
 40
4.0
 40
4.0
 40
4.0
 10
105.1722194832556
 20
-117.5571654979545
 10
105.1239881464621
 20
-117.5571654979545
 10
105.0850585674787
 20
-117.6016072297142
 10
105.0850585674787
 20
-117.6567287574782
 10
105.0850585674787
 20
-117.7137450877591
 10
105.1239881464621
 20
-117.7624931888754
 10
105.1760090882893
 20
-117.7624931888754
 10
105.2276855205681
 20
-117.7624931888754
 10
105.2628254945176
 20
-117.7116780304679
 10
105.2628254945176
 20
-117.6587958147693
 10
105.2628254945176
 20
-117.6016072297142
 10
105.2221733677917
 20
-117.5571654979545
 10
105.1722194832556
 20
-117.5571654979545
 97
        0
 97
        0
 75
     2
 76
     1
 98
        0
  0
ENDBLK
  5
66
330
63
100
AcDbEntity
  8
0
100
AcDbBlockEnd
  0
BLOCK
  5
B5
330
B3
100
AcDbEntity
  8
0
100
AcDbBlockBegin
  2
block 3
 70
     0
 10
0.0
 20
0.0
 30
0.0
  3
block 3
  1

  0
SPLINE
  5
B7
330
B3
100
AcDbEntity
  8
_U+30EC_U+30A4_U+30E4_U+30FC 1
370
     0
100
AcDbSpline
210
0.0
220
0.0
230
1.0
 70
    11
 71
     3
 72
    26
 73
    22
 74
     0
 42
0.0000000001
 43
0.0000000001
 12
1.0
 22
0.0
 32
0.0
 13
1.0
 23
0.0
 33
0.0
 40
0.0
 40
0.0
 40
0.0
 40
0.0
 40
1.0
 40
1.0
 40
1.0
 40
2.0
 40
2.0
 40
2.0
 40
3.0
 40
3.0
 40
3.0
 40
4.0
 40
4.0
 40
4.0
 40
5.0
 40
5.0
 40
5.0
 40
6.0
 40
6.0
 40
6.0
 40
7.0
 40
7.0
 40
7.0
 40
7.0
 10
109.6167371687764
 20
-137.3208170229615
 30
0.0
 10
109.6167371687764
 20
-137.3208170229615
 30
0.0
 10
108.5129285753023
 20
-137.3208170229615
 30
0.0
 10
108.5129285753023
 20
-137.3208170229615
 30
0.0
 10
108.5129285753023
 20
-137.3208170229615
 30
0.0
 10
108.5129285753023
 20
-137.6064154386887
 30
0.0
 10
108.5129285753023
 20
-137.6064154386887
 30
0.0
 10
108.5129285753023
 20
-137.6064154386887
 30
0.0
 10
108.3647894694366
 20
-137.6064154386887
 30
0.0
 10
108.3647894694366
 20
-137.6064154386887
 30
0.0
 10
108.3496310493015
 20
-137.3190944752188
 30
0.0
 10
108.1870225423977
 20
-137.2787868580414
 30
0.0
 10
108.0726453722874
 20
-137.2532931514506
 30
0.0
 10
108.0726453722874
 20
-137.2532931514506
 30
0.0
 10
108.0726453722874
 20
-137.1268581471419
 30
0.0
 10
108.0726453722874
 20
-137.1268581471419
 30
0.0
 10
108.0726453722874
 20
-137.1268581471419
 30
0.0
 10
109.6167371687764
 20
-137.1268581471419
 30
0.0
 10
109.6167371687764
 20
-137.1268581471419
 30
0.0
 10
109.6167371687764
 20
-137.1268581471419
 30
0.0
 10
109.6167371687764
 20
-137.3208170229615
 30
0.0
 10
109.6167371687764
 20
-137.3208170229615
 30
0.0
  0
HATCH
  5
B8
330
B3
100
AcDbEntity
  8
_U+30EC_U+30A4_U+30E4_U+30FC 1
 62
   179
420
  2234388
100
AcDbHatch
 10
0.0
 20
0.0
 30
0.0
210
0.0
220
0.0
230
1.0
  2
SOLID
 70
     1
 71
     0
 91
        1
 92
        1
 93
        1
 72
     4
 94
        3
 73
     0
 74
     1
 95
       26
 96
       22
 40
0.0
 40
0.0
 40
0.0
 40
0.0
 40
1.0
 40
1.0
 40
1.0
 40
2.0
 40
2.0
 40
2.0
 40
3.0
 40
3.0
 40
3.0
 40
4.0
 40
4.0
 40
4.0
 40
5.0
 40
5.0
 40
5.0
 40
6.0
 40
6.0
 40
6.0
 40
7.0
 40
7.0
 40
7.0
 40
7.0
 10
109.6167371687764
 20
-137.3208170229615
 10
109.6167371687764
 20
-137.3208170229615
 10
108.5129285753023
 20
-137.3208170229615
 10
108.5129285753023
 20
-137.3208170229615
 10
108.5129285753023
 20
-137.3208170229615
 10
108.5129285753023
 20
-137.6064154386887
 10
108.5129285753023
 20
-137.6064154386887
 10
108.5129285753023
 20
-137.6064154386887
 10
108.3647894694366
 20
-137.6064154386887
 10
108.3647894694366
 20
-137.6064154386887
 10
108.3496310493015
 20
-137.3190944752188
 10
108.1870225423977
 20
-137.2787868580414
 10
108.0726453722874
 20
-137.2532931514506
 10
108.0726453722874
 20
-137.2532931514506
 10
108.0726453722874
 20
-137.1268581471419
 10
108.0726453722874
 20
-137.1268581471419
 10
108.0726453722874
 20
-137.1268581471419
 10
109.6167371687764
 20
-137.1268581471419
 10
109.6167371687764
 20
-137.1268581471419
 10
109.6167371687764
 20
-137.1268581471419
 10
109.6167371687764
 20
-137.3208170229615
 10
109.6167371687764
 20
-137.3208170229615
 97
        0
 97
        0
 75
     2
 76
     1
 98
        0
  0
POLYLINE
  5
B9
330
B3
100
AcDbEntity
  8
_U+30EC_U+30A4_U+30E4_U+30FC 1
370
     0
100
AcDb2dPolyline
 66
     1
 10
0.0
 20
0.0
 30
0.0
  0
VERTEX
  5
BA
330
B9
100
AcDbEntity
  8
_U+30EC_U+30A4_U+30E4_U+30FC 1
370
     0
100
AcDbVertex
100
AcDb2dVertex
 10
109.6167371687764
 20
-136.6421332123672
 30
0.0
  0
VERTEX
  5
BB
330
B9
100
AcDbEntity
  8
_U+30EC_U+30A4_U+30E4_U+30FC 1
370
     0
100
AcDbVertex
100
AcDb2dVertex
 10
109.3652451983531
 20
-136.6421332123672
 30
0.0
  0
VERTEX
  5
BC
330
B9
100
AcDbEntity
  8
_U+30EC_U+30A4_U+30E4_U+30FC 1
370
     0
100
AcDbVertex
100
AcDb2dVertex
 10
109.3652451983531
 20
-136.4244031776995
 30
0.0
  0
VERTEX
  5
BD
330
B9
100
AcDbEntity
  8
_U+30EC_U+30A4_U+30E4_U+30FC 1
370
     0
100
AcDbVertex
100
AcDb2dVertex
 10
109.6167371687764
 20
-136.4244031776995
 30
0.0
  0
VERTEX
  5
BE
330
B9
100
AcDbEntity
  8
_U+30EC_U+30A4_U+30E4_U+30FC 1
370
     0
100
AcDbVertex
100
AcDb2dVertex
 10
109.6167371687764
 20
-136.6421332123672
 30
0.0
  0
SEQEND
  5
BF
330
B9
100
AcDbEntity
  8
_U+30EC_U+30A4_U+30E4_U+30FC 1
370
     0
  0
HATCH
  5
C0
330
B3
100
AcDbEntity
  8
_U+30EC_U+30A4_U+30E4_U+30FC 1
 62
   179
420
  2234388
100
AcDbHatch
 10
0.0
 20
0.0
 30
0.0
210
0.0
220
0.0
230
1.0
  2
SOLID
 70
     1
 71
     0
 91
        1
 92
        1
 93
        4
 72
     1
 10
109.6167371687764
 20
-136.6421332123672
 11
109.3652451983531
 21
-136.6421332123672
 72
     1
 10
109.3652451983531
 20
-136.6421332123672
 11
109.3652451983531
 21
-136.4244031776995
 72
     1
 10
109.3652451983531
 20
-136.4244031776995
 11
109.6167371687764
 21
-136.4244031776995
 72
     1
 10
109.6167371687764
 20
-136.4244031776995
 11
109.6167371687764
 21
-136.6421332123672
 97
        0
 75
     2
 76
     1
 98
        0
  0
SPLINE
  5
C1
330
B3
100
AcDbEntity
  8
_U+30EC_U+30A4_U+30E4_U+30FC 1
370
     0
100
AcDbSpline
210
0.0
220
0.0
230
1.0
 70
    11
 71
     3
 72
    53
 73
    49
 74
     0
 42
0.0000000001
 43
0.0000000001
 12
1.0
 22
0.0
 32
0.0
 13
1.0
 23
0.0
 33
0.0
 40
0.0
 40
0.0
 40
0.0
 40
0.0
 40
1.0
 40
1.0
 40
1.0
 40
2.0
 40
2.0
 40
2.0
 40
3.0
 40
3.0
 40
3.0
 40
4.0
 40
4.0
 40
4.0
 40
5.0
 40
5.0
 40
5.0
 40
6.0
 40
6.0
 40
6.0
 40
7.0
 40
7.0
 40
7.0
 40
8.0
 40
8.0
 40
8.0
 40
9.0
 40
9.0
 40
9.0
 40
10.0
 40
10.0
 40
10.0
 40
11.0
 40
11.0
 40
11.0
 40
12.0
 40
12.0
 40
12.0
 40
13.0
 40
13.0
 40
13.0
 40
14.0
 40
14.0
 40
14.0
 40
15.0
 40
15.0
 40
15.0
 40
16.0
 40
16.0
 40
16.0
 40
16.0
 10
109.6677245819581
 20
-135.8042859903545
 30
0.0
 10
109.6677245819581
 20
-135.8718098618654
 30
0.0
 10
109.6504991045318
 20
-135.9600043062878
 30
0.0
 10
109.5871093476032
 20
-136.0475097316131
 30
0.0
 10
109.4775553111723
 20
-136.19771589477
 30
0.0
 10
109.3459526636357
 20
-136.2159749008418
 30
0.0
 10
109.2384656844959
 20
-136.232511359171
 30
0.0
 10
109.2384656844959
 20
-136.232511359171
 30
0.0
 10
109.2384656844959
 20
-136.0402750310941
 30
0.0
 10
109.2384656844959
 20
-136.0402750310941
 30
0.0
 10
109.4369031844463
 20
-135.9927327133977
 30
0.0
 10
109.4665310056195
 20
-135.8828341674182
 30
0.0
 10
109.4665310056195
 20
-135.8025634426119
 30
0.0
 10
109.4665310056195
 20
-135.6816405910796
 30
0.0
 10
109.3673122556443
 20
-135.5500379435431
 30
0.0
 10
109.1344238008414
 20
-135.5500379435431
 30
0.0
 10
108.8787977158359
 20
-135.5500379435431
 30
0.0
 10
108.8085177679368
 20
-135.7054117499278
 30
0.0
 10
108.8085177679368
 20
-135.8097981431309
 30
0.0
 10
108.8085177679368
 20
-135.8373589070129
 30
0.0
 10
108.8085177679368
 20
-135.9600043062878
 30
0.0
 10
108.9380533581822
 20
-136.0368299356089
 30
0.0
 10
108.9380533581822
 20
-136.0368299356089
 30
0.0
 10
108.9187608234648
 20
-136.1887586465084
 30
0.0
 10
108.9187608234648
 20
-136.1887586465084
 30
0.0
 10
108.9187608234648
 20
-136.1887586465084
 30
0.0
 10
108.0726453722874
 20
-136.0843722533053
 30
0.0
 10
108.0726453722874
 20
-136.0843722533053
 30
0.0
 10
108.0726453722874
 20
-136.0843722533053
 30
0.0
 10
108.0726453722874
 20
-135.4108560859389
 30
0.0
 10
108.0726453722874
 20
-135.4108560859389
 30
0.0
 10
108.0726453722874
 20
-135.4108560859389
 30
0.0
 10
108.2669487576555
 20
-135.4108560859389
 30
0.0
 10
108.2669487576555
 20
-135.4108560859389
 30
0.0
 10
108.2669487576555
 20
-135.4108560859389
 30
0.0
 10
108.2669487576555
 20
-135.9434678479586
 30
0.0
 10
108.2669487576555
 20
-135.9434678479586
 30
0.0
 10
108.2669487576555
 20
-135.9434678479586
 30
0.0
 10
108.6900064832442
 20
-135.9999674139167
 30
0.0
 10
108.6900064832442
 20
-135.9999674139167
 30
0.0
 10
108.6562445474887
 20
-135.9469129434438
 30
0.0
 10
108.6162814398598
 20
-135.8755994668992
 30
0.0
 10
108.6162814398598
 20
-135.7732801309872
 30
0.0
 10
108.6162814398598
 20
-135.5534830390283
 30
0.0
 10
108.8023165960633
 20
-135.3484998576559
 30
0.0
 10
109.115820285221
 20
-135.3484998576559
 30
0.0
 10
109.432769069864
 20
-135.3484998576559
 30
0.0
 10
109.6677245819581
 20
-135.5424587334755
 30
0.0
 10
109.6677245819581
 20
-135.8042859903545
 30
0.0
  0
HATCH
  5
C2
330
B3
100
AcDbEntity
  8
_U+30EC_U+30A4_U+30E4_U+30FC 1
 62
   179
420
  2234388
100
AcDbHatch
 10
0.0
 20
0.0
 30
0.0
210
0.0
220
0.0
230
1.0
  2
SOLID
 70
     1
 71
     0
 91
        1
 92
        1
 93
        1
 72
     4
 94
        3
 73
     0
 74
     1
 95
       53
 96
       49
 40
0.0
 40
0.0
 40
0.0
 40
0.0
 40
1.0
 40
1.0
 40
1.0
 40
2.0
 40
2.0
 40
2.0
 40
3.0
 40
3.0
 40
3.0
 40
4.0
 40
4.0
 40
4.0
 40
5.0
 40
5.0
 40
5.0
 40
6.0
 40
6.0
 40
6.0
 40
7.0
 40
7.0
 40
7.0
 40
8.0
 40
8.0
 40
8.0
 40
9.0
 40
9.0
 40
9.0
 40
10.0
 40
10.0
 40
10.0
 40
11.0
 40
11.0
 40
11.0
 40
12.0
 40
12.0
 40
12.0
 40
13.0
 40
13.0
 40
13.0
 40
14.0
 40
14.0
 40
14.0
 40
15.0
 40
15.0
 40
15.0
 40
16.0
 40
16.0
 40
16.0
 40
16.0
 10
109.6677245819581
 20
-135.8042859903545
 10
109.6677245819581
 20
-135.8718098618654
 10
109.6504991045318
 20
-135.9600043062878
 10
109.5871093476032
 20
-136.0475097316131
 10
109.4775553111723
 20
-136.19771589477
 10
109.3459526636357
 20
-136.2159749008418
 10
109.2384656844959
 20
-136.232511359171
 10
109.2384656844959
 20
-136.232511359171
 10
109.2384656844959
 20
-136.0402750310941
 10
109.2384656844959
 20
-136.0402750310941
 10
109.4369031844463
 20
-135.9927327133977
 10
109.4665310056195
 20
-135.8828341674182
 10
109.4665310056195
 20
-135.8025634426119
 10
109.4665310056195
 20
-135.6816405910796
 10
109.3673122556443
 20
-135.5500379435431
 10
109.1344238008414
 20
-135.5500379435431
 10
108.8787977158359
 20
-135.5500379435431
 10
108.8085177679368
 20
-135.7054117499278
 10
108.8085177679368
 20
-135.8097981431309
 10
108.8085177679368
 20
-135.8373589070129
 10
108.8085177679368
 20
-135.9600043062878
 10
108.9380533581822
 20
-136.0368299356089
 10
108.9380533581822
 20
-136.0368299356089
 10
108.9187608234648
 20
-136.1887586465084
 10
108.9187608234648
 20
-136.1887586465084
 10
108.9187608234648
 20
-136.1887586465084
 10
108.0726453722874
 20
-136.0843722533053
 10
108.0726453722874
 20
-136.0843722533053
 10
108.0726453722874
 20
-136.0843722533053
 10
108.0726453722874
 20
-135.4108560859389
 10
108.0726453722874
 20
-135.4108560859389
 10
108.0726453722874
 20
-135.4108560859389
 10
108.2669487576555
 20
-135.4108560859389
 10
108.2669487576555
 20
-135.4108560859389
 10
108.2669487576555
 20
-135.4108560859389
 10
108.2669487576555
 20
-135.9434678479586
 10
108.2669487576555
 20
-135.9434678479586
 10
108.2669487576555
 20
-135.9434678479586
 10
108.6900064832442
 20
-135.9999674139167
 10
108.6900064832442
 20
-135.9999674139167
 10
108.6562445474887
 20
-135.9469129434438
 10
108.6162814398598
 20
-135.8755994668992
 10
108.6162814398598
 20
-135.7732801309872
 10
108.6162814398598
 20
-135.5534830390283
 10
108.8023165960633
 20
-135.3484998576559
 10
109.115820285221
 20
-135.3484998576559
 10
109.432769069864
 20
-135.3484998576559
 10
109.6677245819581
 20
-135.5424587334755
 10
109.6677245819581
 20
-135.8042859903545
 97
        0
 97
        0
 75
     2
 76
     1
 98
        0
  0
ENDBLK
  5
B6
330
B3
100
AcDbEntity
  8
0
100
AcDbBlockEnd
  0
BLOCK
  5
D1
330
CF
100
AcDbEntity
  8
0
100
AcDbBlockBegin
  2
block 4
 70
     0
 10
0.0
 20
0.0
 30
0.0
  3
block 4
  1

  0
SPLINE
  5
D3
330
CF
100
AcDbEntity
  8
_U+30EC_U+30A4_U+30E4_U+30FC 1
370
     0
100
AcDbSpline
210
0.0
220
0.0
230
1.0
 70
    11
 71
     3
 72
    62
 73
    58
 74
     0
 42
0.0000000001
 43
0.0000000001
 12
1.0
 22
0.0
 32
0.0
 13
1.0
 23
0.0
 33
0.0
 40
0.0
 40
0.0
 40
0.0
 40
0.0
 40
1.0
 40
1.0
 40
1.0
 40
2.0
 40
2.0
 40
2.0
 40
3.0
 40
3.0
 40
3.0
 40
4.0
 40
4.0
 40
4.0
 40
5.0
 40
5.0
 40
5.0
 40
6.0
 40
6.0
 40
6.0
 40
7.0
 40
7.0
 40
7.0
 40
8.0
 40
8.0
 40
8.0
 40
9.0
 40
9.0
 40
9.0
 40
10.0
 40
10.0
 40
10.0
 40
11.0
 40
11.0
 40
11.0
 40
12.0
 40
12.0
 40
12.0
 40
13.0
 40
13.0
 40
13.0
 40
14.0
 40
14.0
 40
14.0
 40
15.0
 40
15.0
 40
15.0
 40
16.0
 40
16.0
 40
16.0
 40
17.0
 40
17.0
 40
17.0
 40
18.0
 40
18.0
 40
18.0
 40
19.0
 40
19.0
 40
19.0
 40
19.0
 10
90.46217852556154
 20
-144.3942870732764
 30
0.0
 10
90.37984074346407
 20
-144.3942870732764
 30
0.0
 10
90.19104951087238
 20
-144.3732719908164
 30
0.0
 10
90.08321802218406
 20
-144.1872368346129
 30
0.0
 10
90.01913924615842
 20
-144.0749267217938
 30
0.0
 10
90.01534964112464
 20
-143.9757079718186
 30
0.0
 10
90.01190454563938
 20
-143.8909586228814
 30
0.0
 10
90.01190454563938
 20
-143.8909586228814
 30
0.0
 10
90.20207381642518
 20
-143.8909586228814
 30
0.0
 10
90.20207381642518
 20
-143.8909586228814
 30
0.0
 10
90.20414087371633
 20
-143.9650281758143
 30
0.0
 10
90.21309812197798
 20
-144.1996391783598
 30
0.0
 10
90.45838892052777
 20
-144.1996391783598
 30
0.0
 10
90.57724471476888
 20
-144.1996391783598
 30
0.0
 10
90.70919187185396
 20
-144.1300482495578
 30
0.0
 10
90.70919187185396
 20
-143.9016384188857
 30
0.0
 10
90.70919187185396
 20
-143.7851941914843
 30
0.0
 10
90.67611895519556
 20
-143.7366183451422
 30
0.0
 10
90.64855819131355
 20
-143.7049234666779
 30
0.0
 10
90.58482392483644
 20
-143.6308539137451
 30
0.0
 10
90.48388262711862
 20
-143.6181070604497
 30
0.0
 10
90.43634030942216
 20
-143.6181070604497
 30
0.0
 10
90.41980385109296
 20
-143.6181070604497
 30
0.0
 10
90.38879799172572
 20
-143.6201741177408
 30
0.0
 10
90.3650268328775
 20
-143.6243082323231
 30
0.0
 10
90.3650268328775
 20
-143.6243082323231
 30
0.0
 10
90.3650268328775
 20
-143.4296603374065
 30
0.0
 10
90.3650268328775
 20
-143.4296603374065
 30
0.0
 10
90.3980997495359
 20
-143.4362060188284
 30
0.0
 10
90.43461776167955
 20
-143.4382730761196
 30
0.0
 10
90.44012991445594
 20
-143.4382730761196
 30
0.0
 10
90.49697398996257
 20
-143.4382730761196
 30
0.0
 10
90.66888425467653
 20
-143.4169134841111
 30
0.0
 10
90.66888425467653
 20
-143.1802354242744
 30
0.0
 10
90.66888425467653
 20
-143.0024684972355
 30
0.0
 10
90.55554061321182
 20
-142.9473469694715
 30
0.0
 10
90.4601114682704
 20
-142.9473469694715
 30
0.0
 10
90.23135712804981
 20
-142.9473469694715
 30
0.0
 10
90.22412242753077
 20
-143.1802354242744
 30
0.0
 10
90.220332822497
 20
-143.2518934103676
 30
0.0
 10
90.220332822497
 20
-143.2518934103676
 30
0.0
 10
90.04463295274927
 20
-143.2518934103676
 30
0.0
 10
90.04463295274927
 20
-143.2518934103676
 30
0.0
 10
90.05221216281682
 20
-143.1271809538015
 30
0.0
 10
90.07598332166503
 20
-142.7506320172637
 30
0.0
 10
90.47113577382319
 20
-142.7506320172637
 30
0.0
 10
90.66509464964275
 20
-142.7506320172637
 30
0.0
 10
90.8738674360489
 20
-142.8777560406695
 30
0.0
 10
90.8738674360489
 20
-143.1736897428524
 30
0.0
 10
90.8738674360489
 20
-143.3600694086044
 30
0.0
 10
90.79152965395143
 20
-143.4424071907019
 30
0.0
 10
90.70540226682019
 20
-143.5037298903393
 30
0.0
 10
90.75845673729303
 20
-143.5312906542214
 30
0.0
 10
90.91589760096895
 20
-143.6115613790277
 30
0.0
 10
90.91589760096895
 20
-143.8888915655903
 30
0.0
 10
90.91589760096895
 20
-144.2271999422418
 30
0.0
 10
90.70195717133493
 20
-144.3942870732764
 30
0.0
 10
90.46217852556154
 20
-144.3942870732764
 30
0.0
  0
HATCH
  5
D4
330
CF
100
AcDbEntity
  8
_U+30EC_U+30A4_U+30E4_U+30FC 1
 62
   179
420
  2234388
100
AcDbHatch
 10
0.0
 20
0.0
 30
0.0
210
0.0
220
0.0
230
1.0
  2
SOLID
 70
     1
 71
     0
 91
        1
 92
        1
 93
        1
 72
     4
 94
        3
 73
     0
 74
     1
 95
       62
 96
       58
 40
0.0
 40
0.0
 40
0.0
 40
0.0
 40
1.0
 40
1.0
 40
1.0
 40
2.0
 40
2.0
 40
2.0
 40
3.0
 40
3.0
 40
3.0
 40
4.0
 40
4.0
 40
4.0
 40
5.0
 40
5.0
 40
5.0
 40
6.0
 40
6.0
 40
6.0
 40
7.0
 40
7.0
 40
7.0
 40
8.0
 40
8.0
 40
8.0
 40
9.0
 40
9.0
 40
9.0
 40
10.0
 40
10.0
 40
10.0
 40
11.0
 40
11.0
 40
11.0
 40
12.0
 40
12.0
 40
12.0
 40
13.0
 40
13.0
 40
13.0
 40
14.0
 40
14.0
 40
14.0
 40
15.0
 40
15.0
 40
15.0
 40
16.0
 40
16.0
 40
16.0
 40
17.0
 40
17.0
 40
17.0
 40
18.0
 40
18.0
 40
18.0
 40
19.0
 40
19.0
 40
19.0
 40
19.0
 10
90.46217852556154
 20
-144.3942870732764
 10
90.37984074346407
 20
-144.3942870732764
 10
90.19104951087238
 20
-144.3732719908164
 10
90.08321802218406
 20
-144.1872368346129
 10
90.01913924615842
 20
-144.0749267217938
 10
90.01534964112464
 20
-143.9757079718186
 10
90.01190454563938
 20
-143.8909586228814
 10
90.01190454563938
 20
-143.8909586228814
 10
90.20207381642518
 20
-143.8909586228814
 10
90.20207381642518
 20
-143.8909586228814
 10
90.20414087371633
 20
-143.9650281758143
 10
90.21309812197798
 20
-144.1996391783598
 10
90.45838892052777
 20
-144.1996391783598
 10
90.57724471476888
 20
-144.1996391783598
 10
90.70919187185396
 20
-144.1300482495578
 10
90.70919187185396
 20
-143.9016384188857
 10
90.70919187185396
 20
-143.7851941914843
 10
90.67611895519556
 20
-143.7366183451422
 10
90.64855819131355
 20
-143.7049234666779
 10
90.58482392483644
 20
-143.6308539137451
 10
90.48388262711862
 20
-143.6181070604497
 10
90.43634030942216
 20
-143.6181070604497
 10
90.41980385109296
 20
-143.6181070604497
 10
90.38879799172572
 20
-143.6201741177408
 10
90.3650268328775
 20
-143.6243082323231
 10
90.3650268328775
 20
-143.6243082323231
 10
90.3650268328775
 20
-143.4296603374065
 10
90.3650268328775
 20
-143.4296603374065
 10
90.3980997495359
 20
-143.4362060188284
 10
90.43461776167955
 20
-143.4382730761196
 10
90.44012991445594
 20
-143.4382730761196
 10
90.49697398996257
 20
-143.4382730761196
 10
90.66888425467653
 20
-143.4169134841111
 10
90.66888425467653
 20
-143.1802354242744
 10
90.66888425467653
 20
-143.0024684972355
 10
90.55554061321182
 20
-142.9473469694715
 10
90.4601114682704
 20
-142.9473469694715
 10
90.23135712804981
 20
-142.9473469694715
 10
90.22412242753077
 20
-143.1802354242744
 10
90.220332822497
 20
-143.2518934103676
 10
90.220332822497
 20
-143.2518934103676
 10
90.04463295274927
 20
-143.2518934103676
 10
90.04463295274927
 20
-143.2518934103676
 10
90.05221216281682
 20
-143.1271809538015
 10
90.07598332166503
 20
-142.7506320172637
 10
90.47113577382319
 20
-142.7506320172637
 10
90.66509464964275
 20
-142.7506320172637
 10
90.8738674360489
 20
-142.8777560406695
 10
90.8738674360489
 20
-143.1736897428524
 10
90.8738674360489
 20
-143.3600694086044
 10
90.79152965395143
 20
-143.4424071907019
 10
90.70540226682019
 20
-143.5037298903393
 10
90.75845673729303
 20
-143.5312906542214
 10
90.91589760096895
 20
-143.6115613790277
 10
90.91589760096895
 20
-143.8888915655903
 10
90.91589760096895
 20
-144.2271999422418
 10
90.70195717133493
 20
-144.3942870732764
 10
90.46217852556154
 20
-144.3942870732764
 97
        0
 97
        0
 75
     2
 76
     1
 98
        0
  0
SPLINE
  5
D5
330
CF
100
AcDbEntity
  8
_U+30EC_U+30A4_U+30E4_U+30FC 1
370
     0
100
AcDbSpline
210
0.0
220
0.0
230
1.0
 70
    11
 71
     3
 72
    29
 73
    25
 74
     0
 42
0.0000000001
 43
0.0000000001
 12
1.0
 22
0.0
 32
0.0
 13
1.0
 23
0.0
 33
0.0
 40
0.0
 40
0.0
 40
0.0
 40
0.0
 40
1.0
 40
1.0
 40
1.0
 40
2.0
 40
2.0
 40
2.0
 40
3.0
 40
3.0
 40
3.0
 40
4.0
 40
4.0
 40
4.0
 40
5.0
 40
5.0
 40
5.0
 40
6.0
 40
6.0
 40
6.0
 40
7.0
 40
7.0
 40
7.0
 40
8.0
 40
8.0
 40
8.0
 40
8.0
 10
91.83108721662556
 20
-144.1658772426044
 30
0.0
 10
91.73738061942677
 20
-144.3753390481075
 30
0.0
 10
91.58717445626988
 20
-144.3942870732764
 30
0.0
 10
91.48657766810058
 20
-144.3942870732764
 30
0.0
 10
91.34756806527075
 20
-144.3942870732764
 30
0.0
 10
91.22492266599586
 20
-144.3477782842256
 30
0.0
 10
91.14258488389838
 20
-144.1658772426044
 30
0.0
 10
91.05301240128189
 20
-143.9712293476878
 30
0.0
 10
91.03647594295269
 20
-143.7342067783026
 30
0.0
 10
91.03647594295269
 20
-143.5715982713988
 30
0.0
 10
91.03647594295269
 20
-143.4275932801153
 30
0.0
 10
91.05094534399073
 20
-143.1757568001436
 30
0.0
 10
91.14258488389838
 20
-142.9769747906446
 30
0.0
 10
91.23594697154866
 20
-142.7740586665634
 30
0.0
 10
91.37495657437849
 20
-142.7506320172637
 30
0.0
 10
91.48657766810058
 20
-142.7506320172637
 30
0.0
 10
91.62369246841352
 20
-142.7506320172637
 30
0.0
 10
91.74840492497957
 20
-142.7950737490235
 30
0.0
 10
91.83108721662556
 20
-142.9769747906446
 30
0.0
 10
91.91652558465977
 20
-143.1695556282701
 30
0.0
 10
91.93719615757126
 20
-143.3979654589422
 30
0.0
 10
91.93719615757126
 20
-143.5715982713988
 30
0.0
 10
91.93719615757126
 20
-143.7428195170157
 30
0.0
 10
91.91859264195091
 20
-143.9732964049789
 30
0.0
 10
91.83108721662556
 20
-144.1658772426044
 30
0.0
  0
SPLINE
  5
D6
330
CF
100
AcDbEntity
  8
_U+30EC_U+30A4_U+30E4_U+30FC 1
370
     0
100
AcDbSpline
210
0.0
220
0.0
230
1.0
 70
    11
 71
     3
 72
    17
 73
    13
 74
     0
 42
0.0000000001
 43
0.0000000001
 12
1.0
 22
0.0
 32
0.0
 13
1.0
 23
0.0
 33
0.0
 40
0.0
 40
0.0
 40
0.0
 40
0.0
 40
1.0
 40
1.0
 40
1.0
 40
2.0
 40
2.0
 40
2.0
 40
3.0
 40
3.0
 40
3.0
 40
4.0
 40
4.0
 40
4.0
 40
4.0
 10
91.48657766810058
 20
-142.9432128548892
 30
0.0
 10
91.27074243594969
 20
-142.9432128548892
 30
0.0
 10
91.23043481877225
 20
-143.2267442133253
 30
0.0
 10
91.23043481877225
 20
-143.5715982713988
 30
0.0
 10
91.23043481877225
 20
-143.8909586228814
 30
0.0
 10
91.26144067813951
 20
-144.1996391783598
 30
0.0
 10
91.48657766810058
 20
-144.1996391783598
 30
0.0
 10
91.70086260728313
 20
-144.1996391783598
 30
0.0
 10
91.74289277220316
 20
-143.9185193867634
 30
0.0
 10
91.74289277220316
 20
-143.5715982713988
 30
0.0
 10
91.74289277220316
 20
-143.2518934103676
 30
0.0
 10
91.70981985554477
 20
-142.9432128548892
 30
0.0
 10
91.48657766810058
 20
-142.9432128548892
 30
0.0
  0
HATCH
  5
D7
330
CF
100
AcDbEntity
  8
_U+30EC_U+30A4_U+30E4_U+30FC 1
 62
   179
420
  2234388
100
AcDbHatch
 10
0.0
 20
0.0
 30
0.0
210
0.0
220
0.0
230
1.0
  2
SOLID
 70
     1
 71
     0
 91
        2
 92
        1
 93
        1
 72
     4
 94
        3
 73
     0
 74
     1
 95
       29
 96
       25
 40
0.0
 40
0.0
 40
0.0
 40
0.0
 40
1.0
 40
1.0
 40
1.0
 40
2.0
 40
2.0
 40
2.0
 40
3.0
 40
3.0
 40
3.0
 40
4.0
 40
4.0
 40
4.0
 40
5.0
 40
5.0
 40
5.0
 40
6.0
 40
6.0
 40
6.0
 40
7.0
 40
7.0
 40
7.0
 40
8.0
 40
8.0
 40
8.0
 40
8.0
 10
91.83108721662556
 20
-144.1658772426044
 10
91.73738061942677
 20
-144.3753390481075
 10
91.58717445626988
 20
-144.3942870732764
 10
91.48657766810058
 20
-144.3942870732764
 10
91.34756806527075
 20
-144.3942870732764
 10
91.22492266599586
 20
-144.3477782842256
 10
91.14258488389838
 20
-144.1658772426044
 10
91.05301240128189
 20
-143.9712293476878
 10
91.03647594295269
 20
-143.7342067783026
 10
91.03647594295269
 20
-143.5715982713988
 10
91.03647594295269
 20
-143.4275932801153
 10
91.05094534399073
 20
-143.1757568001436
 10
91.14258488389838
 20
-142.9769747906446
 10
91.23594697154866
 20
-142.7740586665634
 10
91.37495657437849
 20
-142.7506320172637
 10
91.48657766810058
 20
-142.7506320172637
 10
91.62369246841352
 20
-142.7506320172637
 10
91.74840492497957
 20
-142.7950737490235
 10
91.83108721662556
 20
-142.9769747906446
 10
91.91652558465977
 20
-143.1695556282701
 10
91.93719615757126
 20
-143.3979654589422
 10
91.93719615757126
 20
-143.5715982713988
 10
91.93719615757126
 20
-143.7428195170157
 10
91.91859264195091
 20
-143.9732964049789
 10
91.83108721662556
 20
-144.1658772426044
 97
        0
 97
        0
 92
        1
 93
        1
 72
     4
 94
        3
 73
     0
 74
     1
 95
       17
 96
       13
 40
0.0
 40
0.0
 40
0.0
 40
0.0
 40
1.0
 40
1.0
 40
1.0
 40
2.0
 40
2.0
 40
2.0
 40
3.0
 40
3.0
 40
3.0
 40
4.0
 40
4.0
 40
4.0
 40
4.0
 10
91.48657766810058
 20
-142.9432128548892
 10
91.27074243594969
 20
-142.9432128548892
 10
91.23043481877225
 20
-143.2267442133253
 10
91.23043481877225
 20
-143.5715982713988
 10
91.23043481877225
 20
-143.8909586228814
 10
91.26144067813951
 20
-144.1996391783598
 10
91.48657766810058
 20
-144.1996391783598
 10
91.70086260728313
 20
-144.1996391783598
 10
91.74289277220316
 20
-143.9185193867634
 10
91.74289277220316
 20
-143.5715982713988
 10
91.74289277220316
 20
-143.2518934103676
 10
91.70981985554477
 20
-142.9432128548892
 10
91.48657766810058
 20
-142.9432128548892
 97
        0
 97
        0
 75
     2
 76
     1
 98
        0
  0
ENDBLK
  5
D2
330
CF
100
AcDbEntity
  8
0
100
AcDbBlockEnd
  0
BLOCK
  5
E6
330
E4
100
AcDbEntity
  8
0
100
AcDbBlockBegin
  2
block 5
 70
     0
 10
0.0
 20
0.0
 30
0.0
  3
block 5
  1

  0
SPLINE
  5
E8
330
E4
100
AcDbEntity
  8
_U+30EC_U+30A4_U+30E4_U+30FC 1
370
     0
100
AcDbSpline
210
0.0
220
0.0
230
1.0
 70
    11
 71
     3
 72
    62
 73
    58
 74
     0
 42
0.0000000001
 43
0.0000000001
 12
1.0
 22
0.0
 32
0.0
 13
1.0
 23
0.0
 33
0.0
 40
0.0
 40
0.0
 40
0.0
 40
0.0
 40
1.0
 40
1.0
 40
1.0
 40
2.0
 40
2.0
 40
2.0
 40
3.0
 40
3.0
 40
3.0
 40
4.0
 40
4.0
 40
4.0
 40
5.0
 40
5.0
 40
5.0
 40
6.0
 40
6.0
 40
6.0
 40
7.0
 40
7.0
 40
7.0
 40
8.0
 40
8.0
 40
8.0
 40
9.0
 40
9.0
 40
9.0
 40
10.0
 40
10.0
 40
10.0
 40
11.0
 40
11.0
 40
11.0
 40
12.0
 40
12.0
 40
12.0
 40
13.0
 40
13.0
 40
13.0
 40
14.0
 40
14.0
 40
14.0
 40
15.0
 40
15.0
 40
15.0
 40
16.0
 40
16.0
 40
16.0
 40
17.0
 40
17.0
 40
17.0
 40
18.0
 40
18.0
 40
18.0
 40
19.0
 40
19.0
 40
19.0
 40
19.0
 10
72.69909394883912
 20
-126.6904581389003
 30
0.0
 10
72.69909394883912
 20
-126.7727959209978
 30
0.0
 10
72.67790661160483
 20
-126.9615871535895
 30
0.0
 10
72.49169920062708
 20
-127.0694186422778
 30
0.0
 10
72.37956134258219
 20
-127.1334974183034
 30
0.0
 10
72.28017033783274
 20
-127.1372870233372
 30
0.0
 10
72.19559324366986
 20
-127.1407321188225
 30
0.0
 10
72.19559324366986
 20
-127.1407321188225
 30
0.0
 10
72.19559324366986
 20
-126.9505628480367
 30
0.0
 10
72.19559324366986
 20
-126.9505628480367
 30
0.0
 10
72.26966279660273
 20
-126.9484957907455
 30
0.0
 10
72.5044460539225
 20
-126.9395385424839
 30
0.0
 10
72.5044460539225
 20
-126.6942477439341
 30
0.0
 10
72.5044460539225
 20
-126.575391949693
 30
0.0
 10
72.4346828703462
 20
-126.4434447926079
 30
0.0
 10
72.20610078489986
 20
-126.4434447926079
 30
0.0
 10
72.08982881227269
 20
-126.4434447926079
 30
0.0
 10
72.0410807111564
 20
-126.4765177092663
 30
0.0
 10
72.0093858326921
 20
-126.5037339635998
 30
0.0
 10
71.93531627975923
 20
-126.5678127396254
 30
0.0
 10
71.92274168123807
 20
-126.6687540373432
 30
0.0
 10
71.92274168123807
 20
-126.7162963550397
 30
0.0
 10
71.92274168123807
 20
-126.7328328133689
 30
0.0
 10
71.92480873852922
 20
-126.7638386727361
 30
0.0
 10
71.92894285311152
 20
-126.7876098315843
 30
0.0
 10
71.92894285311152
 20
-126.7876098315843
 30
0.0
 10
71.73429495819491
 20
-126.7876098315843
 30
0.0
 10
71.73429495819491
 20
-126.7876098315843
 30
0.0
 10
71.7406683848426
 20
-126.7545369149259
 30
0.0
 10
71.74290769690802
 20
-126.7180189027823
 30
0.0
 10
71.74290769690802
 20
-126.7125067500059
 30
0.0
 10
71.74290769690802
 20
-126.6556626744993
 30
0.0
 10
71.72172035967374
 20
-126.4837524097853
 30
0.0
 10
71.48469779028855
 20
-126.4837524097853
 30
0.0
 10
71.30710311802392
 20
-126.4837524097853
 30
0.0
 10
71.25198159025993
 20
-126.59709605125
 30
0.0
 10
71.25198159025993
 20
-126.6925251961915
 30
0.0
 10
71.25198159025993
 20
-126.921279536412
 30
0.0
 10
71.48469779028855
 20
-126.9285142369311
 30
0.0
 10
71.55670028593028
 20
-126.9323038419649
 30
0.0
 10
71.55670028593028
 20
-126.9323038419649
 30
0.0
 10
71.55670028593028
 20
-127.1080037117126
 30
0.0
 10
71.55670028593028
 20
-127.1080037117126
 30
0.0
 10
71.43181557458996
 20
-127.100424501645
 30
0.0
 10
71.05526663805216
 20
-127.0766533427968
 30
0.0
 10
71.05526663805216
 20
-126.6815008906387
 30
0.0
 10
71.05526663805216
 20
-126.4875420148191
 30
0.0
 10
71.18221840668362
 20
-126.278769228413
 30
0.0
 10
71.47832436364084
 20
-126.278769228413
 30
0.0
 10
71.6645317746186
 20
-126.278769228413
 30
0.0
 10
71.74704181149032
 20
-126.3611070105104
 30
0.0
 10
71.80836451112778
 20
-126.4472343976417
 30
0.0
 10
71.83592527500977
 20
-126.3941799271688
 30
0.0
 10
71.91636825459035
 20
-126.2367390634929
 30
0.0
 10
72.1935261863787
 20
-126.2367390634929
 30
0.0
 10
72.5320068178045
 20
-126.2367390634929
 30
0.0
 10
72.69909394883912
 20
-126.4506794931269
 30
0.0
 10
72.69909394883912
 20
-126.6904581389003
 30
0.0
  0
HATCH
  5
E9
330
E4
100
AcDbEntity
  8
_U+30EC_U+30A4_U+30E4_U+30FC 1
 62
   179
420
  2234388
100
AcDbHatch
 10
0.0
 20
0.0
 30
0.0
210
0.0
220
0.0
230
1.0
  2
SOLID
 70
     1
 71
     0
 91
        1
 92
        1
 93
        1
 72
     4
 94
        3
 73
     0
 74
     1
 95
       62
 96
       58
 40
0.0
 40
0.0
 40
0.0
 40
0.0
 40
1.0
 40
1.0
 40
1.0
 40
2.0
 40
2.0
 40
2.0
 40
3.0
 40
3.0
 40
3.0
 40
4.0
 40
4.0
 40
4.0
 40
5.0
 40
5.0
 40
5.0
 40
6.0
 40
6.0
 40
6.0
 40
7.0
 40
7.0
 40
7.0
 40
8.0
 40
8.0
 40
8.0
 40
9.0
 40
9.0
 40
9.0
 40
10.0
 40
10.0
 40
10.0
 40
11.0
 40
11.0
 40
11.0
 40
12.0
 40
12.0
 40
12.0
 40
13.0
 40
13.0
 40
13.0
 40
14.0
 40
14.0
 40
14.0
 40
15.0
 40
15.0
 40
15.0
 40
16.0
 40
16.0
 40
16.0
 40
17.0
 40
17.0
 40
17.0
 40
18.0
 40
18.0
 40
18.0
 40
19.0
 40
19.0
 40
19.0
 40
19.0
 10
72.69909394883912
 20
-126.6904581389003
 10
72.69909394883912
 20
-126.7727959209978
 10
72.67790661160483
 20
-126.9615871535895
 10
72.49169920062708
 20
-127.0694186422778
 10
72.37956134258219
 20
-127.1334974183034
 10
72.28017033783274
 20
-127.1372870233372
 10
72.19559324366986
 20
-127.1407321188225
 10
72.19559324366986
 20
-127.1407321188225
 10
72.19559324366986
 20
-126.9505628480367
 10
72.19559324366986
 20
-126.9505628480367
 10
72.26966279660273
 20
-126.9484957907455
 10
72.5044460539225
 20
-126.9395385424839
 10
72.5044460539225
 20
-126.6942477439341
 10
72.5044460539225
 20
-126.575391949693
 10
72.4346828703462
 20
-126.4434447926079
 10
72.20610078489986
 20
-126.4434447926079
 10
72.08982881227269
 20
-126.4434447926079
 10
72.0410807111564
 20
-126.4765177092663
 10
72.0093858326921
 20
-126.5037339635998
 10
71.93531627975923
 20
-126.5678127396254
 10
71.92274168123807
 20
-126.6687540373432
 10
71.92274168123807
 20
-126.7162963550397
 10
71.92274168123807
 20
-126.7328328133689
 10
71.92480873852922
 20
-126.7638386727361
 10
71.92894285311152
 20
-126.7876098315843
 10
71.92894285311152
 20
-126.7876098315843
 10
71.73429495819491
 20
-126.7876098315843
 10
71.73429495819491
 20
-126.7876098315843
 10
71.7406683848426
 20
-126.7545369149259
 10
71.74290769690802
 20
-126.7180189027823
 10
71.74290769690802
 20
-126.7125067500059
 10
71.74290769690802
 20
-126.6556626744993
 10
71.72172035967374
 20
-126.4837524097853
 10
71.48469779028855
 20
-126.4837524097853
 10
71.30710311802392
 20
-126.4837524097853
 10
71.25198159025993
 20
-126.59709605125
 10
71.25198159025993
 20
-126.6925251961915
 10
71.25198159025993
 20
-126.921279536412
 10
71.48469779028855
 20
-126.9285142369311
 10
71.55670028593028
 20
-126.9323038419649
 10
71.55670028593028
 20
-126.9323038419649
 10
71.55670028593028
 20
-127.1080037117126
 10
71.55670028593028
 20
-127.1080037117126
 10
71.43181557458996
 20
-127.100424501645
 10
71.05526663805216
 20
-127.0766533427968
 10
71.05526663805216
 20
-126.6815008906387
 10
71.05526663805216
 20
-126.4875420148191
 10
71.18221840668362
 20
-126.278769228413
 10
71.47832436364084
 20
-126.278769228413
 10
71.6645317746186
 20
-126.278769228413
 10
71.74704181149032
 20
-126.3611070105104
 10
71.80836451112778
 20
-126.4472343976417
 10
71.83592527500977
 20
-126.3941799271688
 10
71.91636825459035
 20
-126.2367390634929
 10
72.1935261863787
 20
-126.2367390634929
 10
72.5320068178045
 20
-126.2367390634929
 10
72.69909394883912
 20
-126.4506794931269
 10
72.69909394883912
 20
-126.6904581389003
 97
        0
 97
        0
 75
     2
 76
     1
 98
        0
  0
SPLINE
  5
EA
330
E4
100
AcDbEntity
  8
_U+30EC_U+30A4_U+30E4_U+30FC 1
370
     0
100
AcDbSpline
210
0.0
220
0.0
230
1.0
 70
    11
 71
     3
 72
    29
 73
    25
 74
     0
 42
0.0000000001
 43
0.0000000001
 12
1.0
 22
0.0
 32
0.0
 13
1.0
 23
0.0
 33
0.0
 40
0.0
 40
0.0
 40
0.0
 40
0.0
 40
1.0
 40
1.0
 40
1.0
 40
2.0
 40
2.0
 40
2.0
 40
3.0
 40
3.0
 40
3.0
 40
4.0
 40
4.0
 40
4.0
 40
5.0
 40
5.0
 40
5.0
 40
6.0
 40
6.0
 40
6.0
 40
7.0
 40
7.0
 40
7.0
 40
8.0
 40
8.0
 40
8.0
 40
8.0
 10
72.47051186339279
 20
-125.3217217026105
 30
0.0
 10
72.67997366889598
 20
-125.4150837902608
 30
0.0
 10
72.69909394883912
 20
-125.5652899534177
 30
0.0
 10
72.69909394883912
 20
-125.665886741587
 30
0.0
 10
72.69909394883912
 20
-125.8050685991911
 30
0.0
 10
72.65258515978825
 20
-125.927713998466
 30
0.0
 10
72.47051186339279
 20
-126.0100517805635
 30
0.0
 10
72.27586396847617
 20
-126.09962426318
 30
0.0
 10
72.03901365386525
 20
-126.1161607215092
 30
0.0
 10
71.87606063741293
 20
-126.1161607215092
 30
0.0
 10
71.73222790090375
 20
-126.1161607215092
 30
0.0
 10
71.48056367570625
 20
-126.1013468109226
 30
0.0
 10
71.28160941143307
 20
-126.0100517805635
 30
0.0
 10
71.0785210325776
 20
-125.9166896929132
 30
0.0
 10
71.05526663805216
 20
-125.7775078353091
 30
0.0
 10
71.05526663805216
 20
-125.665886741587
 30
0.0
 10
71.05526663805216
 20
-125.5287719412741
 30
0.0
 10
71.09970836981188
 20
-125.404059484708
 30
0.0
 10
71.28160941143307
 20
-125.3217217026105
 30
0.0
 10
71.47419024905854
 20
-125.2359388250278
 30
0.0
 10
71.7026000797306
 20
-125.2156127616649
 30
0.0
 10
71.87606063741293
 20
-125.2156127616649
 30
0.0
 10
72.04745413780411
 20
-125.2156127616649
 30
0.0
 10
72.27810328054159
 20
-125.2338717677367
 30
0.0
 10
72.47051186339279
 20
-125.3217217026105
 30
0.0
  0
SPLINE
  5
EB
330
E4
100
AcDbEntity
  8
_U+30EC_U+30A4_U+30E4_U+30FC 1
370
     0
100
AcDbSpline
210
0.0
220
0.0
230
1.0
 70
    11
 71
     3
 72
    17
 73
    13
 74
     0
 42
0.0000000001
 43
0.0000000001
 12
1.0
 22
0.0
 32
0.0
 13
1.0
 23
0.0
 33
0.0
 40
0.0
 40
0.0
 40
0.0
 40
0.0
 40
1.0
 40
1.0
 40
1.0
 40
2.0
 40
2.0
 40
2.0
 40
3.0
 40
3.0
 40
3.0
 40
4.0
 40
4.0
 40
4.0
 40
4.0
 10
71.24784747567763
 20
-125.665886741587
 30
0.0
 10
71.24784747567763
 20
-125.8818942285122
 30
0.0
 10
71.53137883411368
 20
-125.9222018456896
 30
0.0
 10
71.87606063741293
 20
-125.9222018456896
 30
0.0
 10
72.19559324366986
 20
-125.9222018456896
 30
0.0
 10
72.5044460539225
 20
-125.8911959863223
 30
0.0
 10
72.5044460539225
 20
-125.665886741587
 30
0.0
 10
72.5044460539225
 20
-125.451946311953
 30
0.0
 10
72.22298175277759
 20
-125.4095716374844
 30
0.0
 10
71.87606063741293
 20
-125.4095716374844
 30
0.0
 10
71.55670028593028
 20
-125.4095716374844
 30
0.0
 10
71.24784747567763
 20
-125.4426445541428
 30
0.0
 10
71.24784747567763
 20
-125.665886741587
 30
0.0
  0
HATCH
  5
EC
330
E4
100
AcDbEntity
  8
_U+30EC_U+30A4_U+30E4_U+30FC 1
 62
   179
420
  2234388
100
AcDbHatch
 10
0.0
 20
0.0
 30
0.0
210
0.0
220
0.0
230
1.0
  2
SOLID
 70
     1
 71
     0
 91
        2
 92
        1
 93
        1
 72
     4
 94
        3
 73
     0
 74
     1
 95
       29
 96
       25
 40
0.0
 40
0.0
 40
0.0
 40
0.0
 40
1.0
 40
1.0
 40
1.0
 40
2.0
 40
2.0
 40
2.0
 40
3.0
 40
3.0
 40
3.0
 40
4.0
 40
4.0
 40
4.0
 40
5.0
 40
5.0
 40
5.0
 40
6.0
 40
6.0
 40
6.0
 40
7.0
 40
7.0
 40
7.0
 40
8.0
 40
8.0
 40
8.0
 40
8.0
 10
72.47051186339279
 20
-125.3217217026105
 10
72.67997366889598
 20
-125.4150837902608
 10
72.69909394883912
 20
-125.5652899534177
 10
72.69909394883912
 20
-125.665886741587
 10
72.69909394883912
 20
-125.8050685991911
 10
72.65258515978825
 20
-125.927713998466
 10
72.47051186339279
 20
-126.0100517805635
 10
72.27586396847617
 20
-126.09962426318
 10
72.03901365386525
 20
-126.1161607215092
 10
71.87606063741293
 20
-126.1161607215092
 10
71.73222790090375
 20
-126.1161607215092
 10
71.48056367570625
 20
-126.1013468109226
 10
71.28160941143307
 20
-126.0100517805635
 10
71.0785210325776
 20
-125.9166896929132
 10
71.05526663805216
 20
-125.7775078353091
 10
71.05526663805216
 20
-125.665886741587
 10
71.05526663805216
 20
-125.5287719412741
 10
71.09970836981188
 20
-125.404059484708
 10
71.28160941143307
 20
-125.3217217026105
 10
71.47419024905854
 20
-125.2359388250278
 10
71.7026000797306
 20
-125.2156127616649
 10
71.87606063741293
 20
-125.2156127616649
 10
72.04745413780411
 20
-125.2156127616649
 10
72.27810328054159
 20
-125.2338717677367
 10
72.47051186339279
 20
-125.3217217026105
 97
        0
 97
        0
 92
        1
 93
        1
 72
     4
 94
        3
 73
     0
 74
     1
 95
       17
 96
       13
 40
0.0
 40
0.0
 40
0.0
 40
0.0
 40
1.0
 40
1.0
 40
1.0
 40
2.0
 40
2.0
 40
2.0
 40
3.0
 40
3.0
 40
3.0
 40
4.0
 40
4.0
 40
4.0
 40
4.0
 10
71.24784747567763
 20
-125.665886741587
 10
71.24784747567763
 20
-125.8818942285122
 10
71.53137883411368
 20
-125.9222018456896
 10
71.87606063741293
 20
-125.9222018456896
 10
72.19559324366986
 20
-125.9222018456896
 10
72.5044460539225
 20
-125.8911959863223
 10
72.5044460539225
 20
-125.665886741587
 10
72.5044460539225
 20
-125.451946311953
 10
72.22298175277759
 20
-125.4095716374844
 10
71.87606063741293
 20
-125.4095716374844
 10
71.55670028593028
 20
-125.4095716374844
 10
71.24784747567763
 20
-125.4426445541428
 10
71.24784747567763
 20
-125.665886741587
 97
        0
 97
        0
 75
     2
 76
     1
 98
        0
  0
ENDBLK
  5
E7
330
E4
100
AcDbEntity
  8
0
100
AcDbBlockEnd
  0
ENDSEC
  0
SECTION
  2
ENTITIES
  0
POLYLINE
  5
41
330
1F
100
AcDbEntity
  8
_U+30EC_U+30A4_U+30E4_U+30FC 1
  6
AI-Linetype-1
 62
   154
420
    23468
370
    25
100
AcDb2dPolyline
 66
     1
 10
0.0
 20
0.0
 30
0.0
  0
VERTEX
  5
42
330
41
100
AcDbEntity
  8
_U+30EC_U+30A4_U+30E4_U+30FC 1
  6
AI-Linetype-1
 62
   154
420
    23468
370
    25
100
AcDbVertex
100
AcDb2dVertex
 10
78.36129105639247
 20
-110.9389802500431
 30
0.0
  0
VERTEX
  5
43
330
41
100
AcDbEntity
  8
_U+30EC_U+30A4_U+30E4_U+30FC 1
  6
AI-Linetype-1
 62
   154
420
    23468
370
    25
100
AcDbVertex
100
AcDb2dVertex
 10
78.36129105639247
 20
-125.9387385796266
 30
0.0
  0
SEQEND
  5
45
330
41
100
AcDbEntity
  8
_U+30EC_U+30A4_U+30E4_U+30FC 1
  6
AI-Linetype-1
 62
   154
420
    23468
370
    25
  0
POLYLINE
  5
46
330
1F
100
AcDbEntity
  8
_U+30EC_U+30A4_U+30E4_U+30FC 1
  6
AI-Linetype-2
 62
   154
420
    23468
370
    25
100
AcDb2dPolyline
 66
     1
 10
0.0
 20
0.0
 30
0.0
  0
VERTEX
  5
47
330
46
100
AcDbEntity
  8
_U+30EC_U+30A4_U+30E4_U+30FC 1
  6
AI-Linetype-2
 62
   154
420
    23468
370
    25
100
AcDbVertex
100
AcDb2dVertex
 10
91.01236045585902
 20
-138.7057310764347
 30
0.0
  0
VERTEX
  5
48
330
46
100
AcDbEntity
  8
_U+30EC_U+30A4_U+30E4_U+30FC 1
  6
AI-Linetype-2
 62
   154
420
    23468
370
    25
100
AcDbVertex
100
AcDb2dVertex
 10
106.0121184065166
 20
-138.7057310764347
 30
0.0
  0
SEQEND
  5
4A
330
46
100
AcDbEntity
  8
_U+30EC_U+30A4_U+30E4_U+30FC 1
  6
AI-Linetype-2
 62
   154
420
    23468
370
    25
  0
POLYLINE
  5
4B
330
1F
100
AcDbEntity
  8
_U+30EC_U+30A4_U+30E4_U+30FC 1
 62
   179
420
  2234388
370
     9
100
AcDb2dPolyline
 66
     1
 10
0.0
 20
0.0
 30
0.0
  0
VERTEX
  5
4C
330
4B
100
AcDbEntity
  8
_U+30EC_U+30A4_U+30E4_U+30FC 1
 62
   179
420
  2234388
370
     9
100
AcDbVertex
100
AcDb2dVertex
 10
79.0065568732637
 20
-118.4532174703867
 30
0.0
  0
VERTEX
  5
4D
330
4B
100
AcDbEntity
  8
_U+30EC_U+30A4_U+30E4_U+30FC 1
 62
   179
420
  2234388
370
     9
100
AcDbVertex
100
AcDb2dVertex
 10
95.68409061445104
 20
-118.4532174703867
 30
0.0
  0
SEQEND
  5
4E
330
4B
100
AcDbEntity
  8
_U+30EC_U+30A4_U+30E4_U+30FC 1
 62
   179
420
  2234388
370
     9
  0
POLYLINE
  5
4F
330
1F
100
AcDbEntity
  8
_U+30EC_U+30A4_U+30E4_U+30FC 1
 62
   179
420
  2234388
370
     9
100
AcDb2dPolyline
 66
     1
 10
0.0
 20
0.0
 30
0.0
  0
VERTEX
  5
50
330
4F
100
AcDbEntity
  8
_U+30EC_U+30A4_U+30E4_U+30FC 1
 62
   179
420
  2234388
370
     9
100
AcDbVertex
100
AcDb2dVertex
 10
79.0065568732637
 20
-118.4532174703867
 30
0.0
  0
VERTEX
  5
51
330
4F
100
AcDbEntity
  8
_U+30EC_U+30A4_U+30E4_U+30FC 1
 62
   179
420
  2234388
370
     9
100
AcDbVertex
100
AcDb2dVertex
 10
79.97253295973071
 20
-118.1941727482292
 30
0.0
  0
SEQEND
  5
52
330
4F
100
AcDbEntity
  8
_U+30EC_U+30A4_U+30E4_U+30FC 1
 62
   179
420
  2234388
370
     9
  0
POLYLINE
  5
53
330
1F
100
AcDbEntity
  8
_U+30EC_U+30A4_U+30E4_U+30FC 1
 62
   179
420
  2234388
370
     9
100
AcDb2dPolyline
 66
     1
 10
0.0
 20
0.0
 30
0.0
  0
VERTEX
  5
54
330
53
100
AcDbEntity
  8
_U+30EC_U+30A4_U+30E4_U+30FC 1
 62
   179
420
  2234388
370
     9
100
AcDbVertex
100
AcDb2dVertex
 10
79.0065568732637
 20
-118.4532174703867
 30
0.0
  0
VERTEX
  5
55
330
53
100
AcDbEntity
  8
_U+30EC_U+30A4_U+30E4_U+30FC 1
 62
   179
420
  2234388
370
     9
100
AcDbVertex
100
AcDb2dVertex
 10
79.97253295973071
 20
-118.7119446925443
 30
0.0
  0
SEQEND
  5
56
330
53
100
AcDbEntity
  8
_U+30EC_U+30A4_U+30E4_U+30FC 1
 62
   179
420
  2234388
370
     9
  0
POLYLINE
  5
57
330
1F
100
AcDbEntity
  8
_U+30EC_U+30A4_U+30E4_U+30FC 1
 62
   179
420
  2234388
370
     9
100
AcDb2dPolyline
 66
     1
 10
0.0
 20
0.0
 30
0.0
  0
VERTEX
  5
58
330
57
100
AcDbEntity
  8
_U+30EC_U+30A4_U+30E4_U+30FC 1
 62
   179
420
  2234388
370
     9
100
AcDbVertex
100
AcDb2dVertex
 10
97.72565084014427
 20
-137.8527496877589
 30
0.0
  0
VERTEX
  5
59
330
57
100
AcDbEntity
  8
_U+30EC_U+30A4_U+30E4_U+30FC 1
 62
   179
420
  2234388
370
     9
100
AcDbVertex
100
AcDb2dVertex
 10
97.98473330883729
 20
-136.8867382991118
 30
0.0
  0
SEQEND
  5
5A
330
57
100
AcDbEntity
  8
_U+30EC_U+30A4_U+30E4_U+30FC 1
 62
   179
420
  2234388
370
     9
  0
POLYLINE
  5
5B
330
1F
100
AcDbEntity
  8
_U+30EC_U+30A4_U+30E4_U+30FC 1
 62
   179
420
  2234388
370
     9
100
AcDb2dPolyline
 66
     1
 10
0.0
 20
0.0
 30
0.0
  0
VERTEX
  5
5C
330
5B
100
AcDbEntity
  8
_U+30EC_U+30A4_U+30E4_U+30FC 1
 62
   179
420
  2234388
370
     9
100
AcDbVertex
100
AcDb2dVertex
 10
97.72565084014427
 20
-137.8527496877589
 30
0.0
  0
VERTEX
  5
5D
330
5B
100
AcDbEntity
  8
_U+30EC_U+30A4_U+30E4_U+30FC 1
 62
   179
420
  2234388
370
     9
100
AcDbVertex
100
AcDb2dVertex
 10
97.72565084014427
 20
-120.3139438588105
 30
0.0
  0
SEQEND
  5
5E
330
5B
100
AcDbEntity
  8
_U+30EC_U+30A4_U+30E4_U+30FC 1
 62
   179
420
  2234388
370
     9
  0
POLYLINE
  5
5F
330
1F
100
AcDbEntity
  8
_U+30EC_U+30A4_U+30E4_U+30FC 1
 62
   179
420
  2234388
370
     9
100
AcDb2dPolyline
 66
     1
 10
0.0
 20
0.0
 30
0.0
  0
VERTEX
  5
60
330
5F
100
AcDbEntity
  8
_U+30EC_U+30A4_U+30E4_U+30FC 1
 62
   179
420
  2234388
370
     9
100
AcDbVertex
100
AcDb2dVertex
 10
97.72565084014427
 20
-137.8527496877589
 30
0.0
  0
VERTEX
  5
61
330
5F
100
AcDbEntity
  8
_U+30EC_U+30A4_U+30E4_U+30FC 1
 62
   179
420
  2234388
370
     9
100
AcDbVertex
100
AcDb2dVertex
 10
97.46657084675395
 20
-136.8867382991118
 30
0.0
  0
SEQEND
  5
62
330
5F
100
AcDbEntity
  8
_U+30EC_U+30A4_U+30E4_U+30FC 1
 62
   179
420
  2234388
370
     9
  0
INSERT
  5
64
330
1F
100
AcDbEntity
  8
_U+30EC_U+30A4_U+30E4_U+30FC 1
100
AcDbBlockReference
  2
block 2
 10
0.0
 20
0.0
 30
0.0
  0
POLYLINE
  5
8B
330
1F
100
AcDbEntity
  8
_U+30EC_U+30A4_U+30E4_U+30FC 1
 62
   179
420
  2234388
370
    25
100
AcDb2dPolyline
 66
     1
 10
0.0
 20
0.0
 30
0.0
  0
VERTEX
  5
8C
330
8B
100
AcDbEntity
  8
_U+30EC_U+30A4_U+30E4_U+30FC 1
 62
   179
420
  2234388
370
    25
100
AcDbVertex
100
AcDb2dVertex
 10
106.2122845125211
 20
-139.4388738540291
 30
0.0
  0
VERTEX
  5
8D
330
8B
100
AcDbEntity
  8
_U+30EC_U+30A4_U+30E4_U+30FC 1
 62
   179
420
  2234388
370
    25
100
AcDbVertex
100
AcDb2dVertex
 10
106.2122845125211
 20
-140.9388496869872
 30
0.0
  0
SEQEND
  5
8E
330
8B
100
AcDbEntity
  8
_U+30EC_U+30A4_U+30E4_U+30FC 1
 62
   179
420
  2234388
370
    25
  0
POLYLINE
  5
8F
330
1F
100
AcDbEntity
  8
_U+30EC_U+30A4_U+30E4_U+30FC 1
 62
   179
420
  2234388
370
    25
100
AcDb2dPolyline
 66
     1
 10
0.0
 20
0.0
 30
0.0
  0
VERTEX
  5
90
330
8F
100
AcDbEntity
  8
_U+30EC_U+30A4_U+30E4_U+30FC 1
 62
   179
420
  2234388
370
    25
100
AcDbVertex
100
AcDb2dVertex
 10
76.21255694454457
 20
-110.9389802500431
 30
0.0
  0
VERTEX
  5
91
330
8F
100
AcDbEntity
  8
_U+30EC_U+30A4_U+30E4_U+30FC 1
 62
   179
420
  2234388
370
    25
100
AcDbVertex
100
AcDb2dVertex
 10
76.21255694454457
 20
-140.9388496869872
 30
0.0
  0
VERTEX
  5
92
330
8F
100
AcDbEntity
  8
_U+30EC_U+30A4_U+30E4_U+30FC 1
 62
   179
420
  2234388
370
    25
100
AcDbVertex
100
AcDb2dVertex
 10
106.2122845125211
 20
-140.9388496869872
 30
0.0
  0
SEQEND
  5
93
330
8F
100
AcDbEntity
  8
_U+30EC_U+30A4_U+30E4_U+30FC 1
 62
   179
420
  2234388
370
    25
  0
POLYLINE
  5
94
330
1F
100
AcDbEntity
  8
_U+30EC_U+30A4_U+30E4_U+30FC 1
 62
   179
420
  2234388
370
    25
100
AcDb2dPolyline
 66
     1
 10
0.0
 20
0.0
 30
0.0
  0
VERTEX
  5
95
330
94
100
AcDbEntity
  8
_U+30EC_U+30A4_U+30E4_U+30FC 1
 62
   179
420
  2234388
370
    25
100
AcDbVertex
100
AcDb2dVertex
 10
76.21255694454457
 20
-110.9389802500431
 30
0.0
  0
VERTEX
  5
96
330
94
100
AcDbEntity
  8
_U+30EC_U+30A4_U+30E4_U+30FC 1
 62
   179
420
  2234388
370
    25
100
AcDbVertex
100
AcDb2dVertex
 10
77.71256801738721
 20
-110.9389802500431
 30
0.0
  0
SEQEND
  5
97
330
94
100
AcDbEntity
  8
_U+30EC_U+30A4_U+30E4_U+30FC 1
 62
   179
420
  2234388
370
    25
  0
POLYLINE
  5
98
330
1F
100
AcDbEntity
  8
_U+30EC_U+30A4_U+30E4_U+30FC 1
 62
   179
420
  2234388
370
    25
100
AcDb2dPolyline
 66
     1
 10
0.0
 20
0.0
 30
0.0
  0
VERTEX
  5
99
330
98
100
AcDbEntity
  8
_U+30EC_U+30A4_U+30E4_U+30FC 1
 62
   179
420
  2234388
370
    25
100
AcDbVertex
100
AcDb2dVertex
 10
77.71256801738721
 20
-110.9389802500431
 30
0.0
  0
VERTEX
  5
9A
330
98
100
AcDbEntity
  8
_U+30EC_U+30A4_U+30E4_U+30FC 1
 62
   179
420
  2234388
370
    25
100
AcDbVertex
100
AcDb2dVertex
 10
77.71256801738721
 20
-139.4388738540291
 30
0.0
  0
VERTEX
  5
9B
330
98
100
AcDbEntity
  8
_U+30EC_U+30A4_U+30E4_U+30FC 1
 62
   179
420
  2234388
370
    25
100
AcDbVertex
100
AcDb2dVertex
 10
106.2122845125211
 20
-139.4388738540291
 30
0.0
  0
SEQEND
  5
9C
330
98
100
AcDbEntity
  8
_U+30EC_U+30A4_U+30E4_U+30FC 1
 62
   179
420
  2234388
370
    25
  0
SPLINE
  5
9D
330
1F
100
AcDbEntity
  8
_U+30EC_U+30A4_U+30E4_U+30FC 1
 62
   179
420
  2234388
370
     9
100
AcDbSpline
210
0.0
220
0.0
230
1.0
 70
    11
 71
     3
 72
    17
 73
    13
 74
     0
 42
0.0000000001
 43
0.0000000001
 12
1.0
 22
0.0
 32
0.0
 13
1.0
 23
0.0
 33
0.0
 40
0.0
 40
0.0
 40
0.0
 40
0.0
 40
1.0
 40
1.0
 40
1.0
 40
2.0
 40
2.0
 40
2.0
 40
3.0
 40
3.0
 40
3.0
 40
4.0
 40
4.0
 40
4.0
 40
4.0
 10
110.312303019032
 20
-140.9388496869872
 30
0.0
 10
110.312303019032
 20
-140.8837457981123
 30
0.0
 10
110.2675002423973
 20
-140.8389430203456
 30
0.0
 10
110.2123963549142
 20
-140.8389430203456
 30
0.0
 10
110.1572571896542
 20
-140.8389430203456
 30
0.0
 10
110.1124896907964
 20
-140.8837457981123
 30
0.0
 10
110.1124896907964
 20
-140.9388496869872
 30
0.0
 10
110.1124896907964
 20
-140.9939888536403
 30
0.0
 10
110.1572571896542
 20
-141.0387563536295
 30
0.0
 10
110.2123963549142
 20
-141.0387563536295
 30
0.0
 10
110.2675002423973
 20
-141.0387563536295
 30
0.0
 10
110.312303019032
 20
-140.9939888536403
 30
0.0
 10
110.312303019032
 20
-140.9388496869872
 30
0.0
  0
SPLINE
  5
9E
330
1F
100
AcDbEntity
  8
_U+30EC_U+30A4_U+30E4_U+30FC 1
 62
   179
420
  2234388
370
     9
100
AcDbSpline
210
0.0
220
0.0
230
1.0
 70
    11
 71
     3
 72
    17
 73
    13
 74
     0
 42
0.0000000001
 43
0.0000000001
 12
1.0
 22
0.0
 32
0.0
 13
1.0
 23
0.0
 33
0.0
 40
0.0
 40
0.0
 40
0.0
 40
0.0
 40
1.0
 40
1.0
 40
1.0
 40
2.0
 40
2.0
 40
2.0
 40
3.0
 40
3.0
 40
3.0
 40
4.0
 40
4.0
 40
4.0
 40
4.0
 10
106.3121911766389
 20
-144.9386088526541
 30
0.0
 10
106.3121911766389
 20
-144.8835049637792
 30
0.0
 10
106.267423677781
 20
-144.8387021860125
 30
0.0
 10
106.2122845125211
 20
-144.8387021860125
 30
0.0
 10
106.1571833067939
 20
-144.8387021860125
 30
0.0
 10
106.1123805290272
 20
-144.8835049637792
 30
0.0
 10
106.1123805290272
 20
-144.9386088526541
 30
0.0
 10
106.1123805290272
 20
-144.9944182970845
 30
0.0
 10
106.1571833067939
 20
-145.0385155192957
 30
0.0
 10
106.2122845125211
 20
-145.0385155192957
 30
0.0
 10
106.267423677781
 20
-145.0385155192957
 30
0.0
 10
106.3121911766389
 20
-144.9944182970845
 30
0.0
 10
106.3121911766389
 20
-144.9386088526541
 30
0.0
  0
SPLINE
  5
9F
330
1F
100
AcDbEntity
  8
_U+30EC_U+30A4_U+30E4_U+30FC 1
 62
   179
420
  2234388
370
     9
100
AcDbSpline
210
0.0
220
0.0
230
1.0
 70
    11
 71
     3
 72
    17
 73
    13
 74
     0
 42
0.0000000001
 43
0.0000000001
 12
1.0
 22
0.0
 32
0.0
 13
1.0
 23
0.0
 33
0.0
 40
0.0
 40
0.0
 40
0.0
 40
0.0
 40
1.0
 40
1.0
 40
1.0
 40
2.0
 40
2.0
 40
2.0
 40
3.0
 40
3.0
 40
3.0
 40
4.0
 40
4.0
 40
4.0
 40
4.0
 10
110.312303019032
 20
-139.4388738540291
 30
0.0
 10
110.312303019032
 20
-139.383734687376
 30
0.0
 10
110.2675002423973
 20
-139.3389671873875
 30
0.0
 10
110.2123963549142
 20
-139.3389671873875
 30
0.0
 10
110.1572571896542
 20
-139.3389671873875
 30
0.0
 10
110.1124896907964
 20
-139.383734687376
 30
0.0
 10
110.1124896907964
 20
-139.4388738540291
 30
0.0
 10
110.1124896907964
 20
-139.493977742904
 30
0.0
 10
110.1572571896542
 20
-139.5387805206707
 30
0.0
 10
110.2123963549142
 20
-139.5387805206707
 30
0.0
 10
110.2675002423973
 20
-139.5387805206707
 30
0.0
 10
110.312303019032
 20
-139.493977742904
 30
0.0
 10
110.312303019032
 20
-139.4388738540291
 30
0.0
  0
SPLINE
  5
A0
330
1F
100
AcDbEntity
  8
_U+30EC_U+30A4_U+30E4_U+30FC 1
 62
   179
420
  2234388
370
     9
100
AcDbSpline
210
0.0
220
0.0
230
1.0
 70
    11
 71
     3
 72
    17
 73
    13
 74
     0
 42
0.0000000001
 43
0.0000000001
 12
1.0
 22
0.0
 32
0.0
 13
1.0
 23
0.0
 33
0.0
 40
0.0
 40
0.0
 40
0.0
 40
0.0
 40
1.0
 40
1.0
 40
1.0
 40
2.0
 40
2.0
 40
2.0
 40
3.0
 40
3.0
 40
3.0
 40
4.0
 40
4.0
 40
4.0
 40
4.0
 10
73.53744312390353
 20
-110.9389802500431
 30
0.0
 10
73.53744312390353
 20
-110.8838410833901
 30
0.0
 10
73.49267562504564
 20
-110.8390735834015
 30
0.0
 10
73.43753645978569
 20
-110.8390735834015
 30
0.0
 10
73.38243257230262
 20
-110.8390735834015
 30
0.0
 10
73.33762979566785
 20
-110.8838410833901
 30
0.0
 10
73.33762979566785
 20
-110.9389802500431
 30
0.0
 10
73.33762979566785
 20
-110.994084138918
 30
0.0
 10
73.38243257230262
 20
-111.0387105277959
 30
0.0
 10
73.43753645978569
 20
-111.0387105277959
 30
0.0
 10
73.49267562504564
 20
-111.0387105277959
 30
0.0
 10
73.53744312390353
 20
-110.994084138918
 30
0.0
 10
73.53744312390353
 20
-110.9389802500431
 30
0.0
  0
SPLINE
  5
A1
330
1F
100
AcDbEntity
  8
_U+30EC_U+30A4_U+30E4_U+30FC 1
 62
   179
420
  2234388
370
     9
100
AcDbSpline
210
0.0
220
0.0
230
1.0
 70
    11
 71
     3
 72
    17
 73
    13
 74
     0
 42
0.0000000001
 43
0.0000000001
 12
1.0
 22
0.0
 32
0.0
 13
1.0
 23
0.0
 33
0.0
 40
0.0
 40
0.0
 40
0.0
 40
0.0
 40
1.0
 40
1.0
 40
1.0
 40
2.0
 40
2.0
 40
2.0
 40
3.0
 40
3.0
 40
3.0
 40
4.0
 40
4.0
 40
4.0
 40
4.0
 10
73.53744312390353
 20
-140.9388496869872
 30
0.0
 10
73.53744312390353
 20
-140.8837457981123
 30
0.0
 10
73.49267562504564
 20
-140.8389430203456
 30
0.0
 10
73.43753645978569
 20
-140.8389430203456
 30
0.0
 10
73.38243257230262
 20
-140.8389430203456
 30
0.0
 10
73.33762979566785
 20
-140.8837457981123
 30
0.0
 10
73.33762979566785
 20
-140.9388496869872
 30
0.0
 10
73.33762979566785
 20
-140.9939888536403
 30
0.0
 10
73.38243257230262
 20
-141.0387563536295
 30
0.0
 10
73.43753645978569
 20
-141.0387563536295
 30
0.0
 10
73.49267562504564
 20
-141.0387563536295
 30
0.0
 10
73.53744312390353
 20
-140.9939888536403
 30
0.0
 10
73.53744312390353
 20
-140.9388496869872
 30
0.0
  0
SPLINE
  5
A2
330
1F
100
AcDbEntity
  8
_U+30EC_U+30A4_U+30E4_U+30FC 1
 62
   179
420
  2234388
370
     9
100
AcDbSpline
210
0.0
220
0.0
230
1.0
 70
    11
 71
     3
 72
    17
 73
    13
 74
     0
 42
0.0000000001
 43
0.0000000001
 12
1.0
 22
0.0
 32
0.0
 13
1.0
 23
0.0
 33
0.0
 40
0.0
 40
0.0
 40
0.0
 40
0.0
 40
1.0
 40
1.0
 40
1.0
 40
2.0
 40
2.0
 40
2.0
 40
3.0
 40
3.0
 40
3.0
 40
4.0
 40
4.0
 40
4.0
 40
4.0
 10
76.31246360866241
 20
-144.9386088526541
 30
0.0
 10
76.31246360866241
 20
-144.8835049637792
 30
0.0
 10
76.26769610980453
 20
-144.8387021860125
 30
0.0
 10
76.21255694454457
 20
-144.8387021860125
 30
0.0
 10
76.15710027929272
 20
-144.8387021860125
 30
0.0
 10
76.11233278043484
 20
-144.8835049637792
 30
0.0
 10
76.11233278043484
 20
-144.9386088526541
 30
0.0
 10
76.11233278043484
 20
-144.9944182970845
 30
0.0
 10
76.15710027929272
 20
-145.0385155192957
 30
0.0
 10
76.21255694454457
 20
-145.0385155192957
 30
0.0
 10
76.26769610980453
 20
-145.0385155192957
 30
0.0
 10
76.31246360866241
 20
-144.9944182970845
 30
0.0
 10
76.31246360866241
 20
-144.9386088526541
 30
0.0
  0
POLYLINE
  5
A3
330
1F
100
AcDbEntity
  8
_U+30EC_U+30A4_U+30E4_U+30FC 1
 62
   179
420
  2234388
370
     9
100
AcDb2dPolyline
 66
     1
 10
0.0
 20
0.0
 30
0.0
  0
VERTEX
  5
A4
330
A3
100
AcDbEntity
  8
_U+30EC_U+30A4_U+30E4_U+30FC 1
 62
   179
420
  2234388
370
     9
100
AcDbVertex
100
AcDb2dVertex
 10
110.2123963549142
 20
-139.4388738540291
 30
0.0
  0
VERTEX
  5
A5
330
A3
100
AcDbEntity
  8
_U+30EC_U+30A4_U+30E4_U+30FC 1
 62
   179
420
  2234388
370
     9
100
AcDbVertex
100
AcDb2dVertex
 10
110.2123963549142
 20
-133.7723807998902
 30
0.0
  0
SEQEND
  5
A6
330
A3
100
AcDbEntity
  8
_U+30EC_U+30A4_U+30E4_U+30FC 1
 62
   179
420
  2234388
370
     9
  0
POLYLINE
  5
A7
330
1F
100
AcDbEntity
  8
_U+30EC_U+30A4_U+30E4_U+30FC 1
 62
   179
420
  2234388
370
     9
100
AcDb2dPolyline
 66
     1
 10
0.0
 20
0.0
 30
0.0
  0
VERTEX
  5
A8
330
A7
100
AcDbEntity
  8
_U+30EC_U+30A4_U+30E4_U+30FC 1
 62
   179
420
  2234388
370
     9
100
AcDbVertex
100
AcDb2dVertex
 10
110.2123963549142
 20
-139.4388738540291
 30
0.0
  0
VERTEX
  5
A9
330
A7
100
AcDbEntity
  8
_U+30EC_U+30A4_U+30E4_U+30FC 1
 62
   179
420
  2234388
370
     9
100
AcDbVertex
100
AcDb2dVertex
 10
110.2123963549142
 20
-141.9386219089597
 30
0.0
  0
SEQEND
  5
AA
330
A7
100
AcDbEntity
  8
_U+30EC_U+30A4_U+30E4_U+30FC 1
 62
   179
420
  2234388
370
     9
  0
POLYLINE
  5
AB
330
1F
100
AcDbEntity
  8
_U+30EC_U+30A4_U+30E4_U+30FC 1
 62
   179
420
  2234388
370
     9
100
AcDb2dPolyline
 66
     1
 10
0.0
 20
0.0
 30
0.0
  0
VERTEX
  5
AC
330
AB
100
AcDbEntity
  8
_U+30EC_U+30A4_U+30E4_U+30FC 1
 62
   179
420
  2234388
370
     9
100
AcDbVertex
100
AcDb2dVertex
 10
108.7523550032741
 20
-139.4388738540291
 30
0.0
  0
VERTEX
  5
AD
330
AB
100
AcDbEntity
  8
_U+30EC_U+30A4_U+30E4_U+30FC 1
 62
   179
420
  2234388
370
     9
100
AcDbVertex
100
AcDb2dVertex
 10
111.2124888610856
 20
-139.4388738540291
 30
0.0
  0
SEQEND
  5
AE
330
AB
100
AcDbEntity
  8
_U+30EC_U+30A4_U+30E4_U+30FC 1
 62
   179
420
  2234388
370
     9
  0
POLYLINE
  5
AF
330
1F
100
AcDbEntity
  8
_U+30EC_U+30A4_U+30E4_U+30FC 1
 62
   179
420
  2234388
370
     9
100
AcDb2dPolyline
 66
     1
 10
0.0
 20
0.0
 30
0.0
  0
VERTEX
  5
B0
330
AF
100
AcDbEntity
  8
_U+30EC_U+30A4_U+30E4_U+30FC 1
 62
   179
420
  2234388
370
     9
100
AcDbVertex
100
AcDb2dVertex
 10
108.7523550032741
 20
-140.9388496869872
 30
0.0
  0
VERTEX
  5
B1
330
AF
100
AcDbEntity
  8
_U+30EC_U+30A4_U+30E4_U+30FC 1
 62
   179
420
  2234388
370
     9
100
AcDbVertex
100
AcDb2dVertex
 10
111.2124888610856
 20
-140.9388496869872
 30
0.0
  0
SEQEND
  5
B2
330
AF
100
AcDbEntity
  8
_U+30EC_U+30A4_U+30E4_U+30FC 1
 62
   179
420
  2234388
370
     9
  0
INSERT
  5
B4
330
1F
100
AcDbEntity
  8
_U+30EC_U+30A4_U+30E4_U+30FC 1
100
AcDbBlockReference
  2
block 3
 10
0.0
 20
0.0
 30
0.0
  0
POLYLINE
  5
C3
330
1F
100
AcDbEntity
  8
_U+30EC_U+30A4_U+30E4_U+30FC 1
 62
   179
420
  2234388
370
     9
100
AcDb2dPolyline
 66
     1
 10
0.0
 20
0.0
 30
0.0
  0
VERTEX
  5
C4
330
C3
100
AcDbEntity
  8
_U+30EC_U+30A4_U+30E4_U+30FC 1
 62
   179
420
  2234388
370
     9
100
AcDbVertex
100
AcDb2dVertex
 10
76.21255694454457
 20
-144.9386088526541
 30
0.0
  0
VERTEX
  5
C5
330
C3
100
AcDbEntity
  8
_U+30EC_U+30A4_U+30E4_U+30FC 1
 62
   179
420
  2234388
370
     9
100
AcDbVertex
100
AcDb2dVertex
 10
106.2122845125211
 20
-144.9386088526541
 30
0.0
  0
SEQEND
  5
C6
330
C3
100
AcDbEntity
  8
_U+30EC_U+30A4_U+30E4_U+30FC 1
 62
   179
420
  2234388
370
     9
  0
POLYLINE
  5
C7
330
1F
100
AcDbEntity
  8
_U+30EC_U+30A4_U+30E4_U+30FC 1
 62
   179
420
  2234388
370
     9
100
AcDb2dPolyline
 66
     1
 10
0.0
 20
0.0
 30
0.0
  0
VERTEX
  5
C8
330
C7
100
AcDbEntity
  8
_U+30EC_U+30A4_U+30E4_U+30FC 1
 62
   179
420
  2234388
370
     9
100
AcDbVertex
100
AcDb2dVertex
 10
76.21255694454457
 20
-143.4785674641304
 30
0.0
  0
VERTEX
  5
C9
330
C7
100
AcDbEntity
  8
_U+30EC_U+30A4_U+30E4_U+30FC 1
 62
   179
420
  2234388
370
     9
100
AcDbVertex
100
AcDb2dVertex
 10
76.21255694454457
 20
-145.939051352404
 30
0.0
  0
SEQEND
  5
CA
330
C7
100
AcDbEntity
  8
_U+30EC_U+30A4_U+30E4_U+30FC 1
 62
   179
420
  2234388
370
     9
  0
POLYLINE
  5
CB
330
1F
100
AcDbEntity
  8
_U+30EC_U+30A4_U+30E4_U+30FC 1
 62
   179
420
  2234388
370
     9
100
AcDb2dPolyline
 66
     1
 10
0.0
 20
0.0
 30
0.0
  0
VERTEX
  5
CC
330
CB
100
AcDbEntity
  8
_U+30EC_U+30A4_U+30E4_U+30FC 1
 62
   179
420
  2234388
370
     9
100
AcDbVertex
100
AcDb2dVertex
 10
106.2122845125211
 20
-143.4785674641304
 30
0.0
  0
VERTEX
  5
CD
330
CB
100
AcDbEntity
  8
_U+30EC_U+30A4_U+30E4_U+30FC 1
 62
   179
420
  2234388
370
     9
100
AcDbVertex
100
AcDb2dVertex
 10
106.2122845125211
 20
-145.939051352404
 30
0.0
  0
SEQEND
  5
CE
330
CB
100
AcDbEntity
  8
_U+30EC_U+30A4_U+30E4_U+30FC 1
 62
   179
420
  2234388
370
     9
  0
INSERT
  5
D0
330
1F
100
AcDbEntity
  8
_U+30EC_U+30A4_U+30E4_U+30FC 1
100
AcDbBlockReference
  2
block 4
 10
0.0
 20
0.0
 30
0.0
  0
POLYLINE
  5
D8
330
1F
100
AcDbEntity
  8
_U+30EC_U+30A4_U+30E4_U+30FC 1
 62
   179
420
  2234388
370
     9
100
AcDb2dPolyline
 66
     1
 10
0.0
 20
0.0
 30
0.0
  0
VERTEX
  5
D9
330
D8
100
AcDbEntity
  8
_U+30EC_U+30A4_U+30E4_U+30FC 1
 62
   179
420
  2234388
370
     9
100
AcDbVertex
100
AcDb2dVertex
 10
73.43753645978569
 20
-110.9389802500431
 30
0.0
  0
VERTEX
  5
DA
330
D8
100
AcDbEntity
  8
_U+30EC_U+30A4_U+30E4_U+30FC 1
 62
   179
420
  2234388
370
     9
100
AcDbVertex
100
AcDb2dVertex
 10
73.43753645978569
 20
-140.9388496869872
 30
0.0
  0
SEQEND
  5
DB
330
D8
100
AcDbEntity
  8
_U+30EC_U+30A4_U+30E4_U+30FC 1
 62
   179
420
  2234388
370
     9
  0
POLYLINE
  5
DC
330
1F
100
AcDbEntity
  8
_U+30EC_U+30A4_U+30E4_U+30FC 1
 62
   179
420
  2234388
370
     9
100
AcDb2dPolyline
 66
     1
 10
0.0
 20
0.0
 30
0.0
  0
VERTEX
  5
DD
330
DC
100
AcDbEntity
  8
_U+30EC_U+30A4_U+30E4_U+30FC 1
 62
   179
420
  2234388
370
     9
100
AcDbVertex
100
AcDb2dVertex
 10
74.89757781142582
 20
-110.9389802500431
 30
0.0
  0
VERTEX
  5
DE
330
DC
100
AcDbEntity
  8
_U+30EC_U+30A4_U+30E4_U+30FC 1
 62
   179
420
  2234388
370
     9
100
AcDbVertex
100
AcDb2dVertex
 10
72.43776426306978
 20
-110.9389802500431
 30
0.0
  0
SEQEND
  5
DF
330
DC
100
AcDbEntity
  8
_U+30EC_U+30A4_U+30E4_U+30FC 1
 62
   179
420
  2234388
370
     9
  0
POLYLINE
  5
E0
330
1F
100
AcDbEntity
  8
_U+30EC_U+30A4_U+30E4_U+30FC 1
 62
   179
420
  2234388
370
     9
100
AcDb2dPolyline
 66
     1
 10
0.0
 20
0.0
 30
0.0
  0
VERTEX
  5
E1
330
E0
100
AcDbEntity
  8
_U+30EC_U+30A4_U+30E4_U+30FC 1
 62
   179
420
  2234388
370
     9
100
AcDbVertex
100
AcDb2dVertex
 10
74.89757781142582
 20
-140.9388496869872
 30
0.0
  0
VERTEX
  5
E2
330
E0
100
AcDbEntity
  8
_U+30EC_U+30A4_U+30E4_U+30FC 1
 62
   179
420
  2234388
370
     9
100
AcDbVertex
100
AcDb2dVertex
 10
72.43776426306978
 20
-140.9388496869872
 30
0.0
  0
SEQEND
  5
E3
330
E0
100
AcDbEntity
  8
_U+30EC_U+30A4_U+30E4_U+30FC 1
 62
   179
420
  2234388
370
     9
  0
INSERT
  5
E5
330
1F
100
AcDbEntity
  8
_U+30EC_U+30A4_U+30E4_U+30FC 1
100
AcDbBlockReference
  2
block 5
 10
0.0
 20
0.0
 30
0.0
  0
ENDSEC
  0
SECTION
  2
OBJECTS
  0
DICTIONARY
  5
C
330
0
100
AcDbDictionary
281
     1
  3
ACAD_GROUP
350
D
  3
ACAD_LAYOUT
350
1A
  3
ACAD_MATERIAL
350
3B
  3
ACAD_MLEADERSTYLE
350
EE
  3
ACAD_MLINESTYLE
350
17
  3
ACAD_PLOTSETTINGS
350
19
  3
ACAD_PLOTSTYLENAME
350
E
  3
ACAD_TABLESTYLE
350
ED
  3
ACAD_VISUALSTYLE
350
2A
  0
SUN
  5
3F
330
29
100
AcDbSun
 90
        1
290
     0
 63
     7
421
 16777215
 40
1.0
291
     1
 91
  2455826
 92
 54000000
292
     0
 70
     2
 71
   256
280
     1
  0
DICTIONARY
  5
D
102
{ACAD_REACTORS
330
C
102
}
330
C
100
AcDbDictionary
281
     1
  0
DICTIONARY
  5
1A
102
{ACAD_REACTORS
330
C
102
}
330
C
100
AcDbDictionary
281
     1
  3
Layout1
350
1E
  3
Layout2
350
26
  3
Model
350
22
  0
DICTIONARY
  5
3B
102
{ACAD_REACTORS
330
C
102
}
330
C
100
AcDbDictionary
281
     1
  3
ByBlock
350
3D
  3
ByLayer
350
3C
  3
Global
350
3E
  0
DICTIONARY
  5
EE
102
{ACAD_REACTORS
330
C
102
}
330
C
100
AcDbDictionary
281
     1
  0
DICTIONARY
  5
17
102
{ACAD_REACTORS
330
C
102
}
330
C
100
AcDbDictionary
281
     1
  3
Standard
350
18
  0
DICTIONARY
  5
19
102
{ACAD_REACTORS
330
C
102
}
330
C
100
AcDbDictionary
281
     1
  0
ACDBDICTIONARYWDFLT
  5
E
102
{ACAD_REACTORS
330
C
102
}
330
C
100
AcDbDictionary
281
     1
  3
Normal
350
F
100
AcDbDictionaryWithDefault
340
F
  0
DICTIONARY
  5
ED
102
{ACAD_REACTORS
330
C
102
}
330
C
100
AcDbDictionary
281
     1
  0
DICTIONARY
  5
2A
102
{ACAD_REACTORS
330
C
102
}
330
C
100
AcDbDictionary
281
     1
  3
2dWireframe
350
2F
  3
3D Hidden
350
31
  3
3dWireframe
350
30
  3
Basic
350
32
  3
Brighten
350
36
  3
ColorChange
350
3A
  3
Conceptual
350
34
  3
Dim
350
35
  3
Facepattern
350
39
  3
Flat
350
2B
  3
FlatWithEdges
350
2C
  3
Gouraud
350
2D
  3
GouraudWithEdges
350
2E
  3
Linepattern
350
38
  3
Realistic
350
33
  3
Thicken
350
37
  0
LAYOUT
  5
1E
102
{ACAD_REACTORS
330
1A
102
}
330
1A
100
AcDbPlotSettings
  1

  2
none_device
  4

  6

 40
0.0
 41
0.0
 42
0.0
 43
0.0
 44
0.0
 45
0.0
 46
0.0
 47
0.0
 48
0.0
 49
0.0
140
0.0
141
0.0
142
1.0
143
1.0
 70
   688
 72
     0
 73
     0
 74
     5
  7

 75
    16
 76
     0
 77
     2
 78
   300
147
1.0
148
0.0
149
0.0
100
AcDbLayout
  1
Layout1
 70
     1
 71
     1
 10
0.0
 20
0.0
 11
12.0
 21
9.0
 12
0.0
 22
0.0
 32
0.0
 14
1.000000000000000E+20
 24
1.000000000000000E+20
 34
1.000000000000000E+20
 15
-1.000000000000000E+20
 25
-1.000000000000000E+20
 35
-1.000000000000000E+20
146
0.0
 13
0.0
 23
0.0
 33
0.0
 16
1.0
 26
0.0
 36
0.0
 17
0.0
 27
1.0
 37
0.0
 76
     0
330
1B
  0
LAYOUT
  5
26
102
{ACAD_REACTORS
330
1A
102
}
330
1A
100
AcDbPlotSettings
  1

  2
none_device
  4

  6

 40
0.0
 41
0.0
 42
0.0
 43
0.0
 44
0.0
 45
0.0
 46
0.0
 47
0.0
 48
0.0
 49
0.0
140
0.0
141
0.0
142
1.0
143
1.0
 70
   688
 72
     0
 73
     0
 74
     5
  7

 75
    16
 76
     0
 77
     2
 78
   300
147
1.0
148
0.0
149
0.0
100
AcDbLayout
  1
Layout2
 70
     1
 71
     2
 10
0.0
 20
0.0
 11
0.0
 21
0.0
 12
0.0
 22
0.0
 32
0.0
 14
0.0
 24
0.0
 34
0.0
 15
0.0
 25
0.0
 35
0.0
146
0.0
 13
0.0
 23
0.0
 33
0.0
 16
1.0
 26
0.0
 36
0.0
 17
0.0
 27
1.0
 37
0.0
 76
     0
330
23
  0
LAYOUT
  5
22
102
{ACAD_REACTORS
330
1A
102
}
330
1A
100
AcDbPlotSettings
  1

  2
none_device
  4

  6

 40
0.0
 41
0.0
 42
0.0
 43
0.0
 44
0.0
 45
0.0
 46
0.0
 47
0.0
 48
0.0
 49
0.0
140
0.0
141
0.0
142
1.0
143
1.0
 70
  1712
 72
     0
 73
     0
 74
     0
  7

 75
     0
 76
     0
 77
     2
 78
   300
147
1.0
148
0.0
149
0.0
100
AcDbLayout
  1
Model
 70
     1
 71
     0
 10
0.0
 20
0.0
 11
12.0
 21
9.0
 12
0.0
 22
0.0
 32
0.0
 14
1.000000000000000E+20
 24
1.000000000000000E+20
 34
1.000000000000000E+20
 15
-1.000000000000000E+20
 25
-1.000000000000000E+20
 35
-1.000000000000000E+20
146
0.0
 13
0.0
 23
0.0
 33
0.0
 16
1.0
 26
0.0
 36
0.0
 17
0.0
 27
1.0
 37
0.0
 76
     0
330
1F
331
29
  0
MATERIAL
  5
3D
102
{ACAD_REACTORS
330
3B
102
}
330
3B
100
AcDbMaterial
  1
ByBlock
 72
     1
 94
      127
  0
MATERIAL
  5
3C
102
{ACAD_REACTORS
330
3B
102
}
330
3B
100
AcDbMaterial
  1
ByLayer
 72
     1
 94
      127
  0
MATERIAL
  5
3E
102
{ACAD_REACTORS
330
3B
102
}
330
3B
100
AcDbMaterial
  1
Global
 72
     1
 94
      127
  0
MLINESTYLE
  5
18
102
{ACAD_REACTORS
330
17
102
}
330
17
100
AcDbMlineStyle
  2
Standard
 70
     0
  3

 62
   256
 51
90.0
 52
90.0
 71
     2
 49
0.5
 62
   256
  6
BYLAYER
 49
-0.5
 62
   256
  6
BYLAYER
  0
ACDBPLACEHOLDER
  5
F
102
{ACAD_REACTORS
330
E
102
}
330
E
  0
VISUALSTYLE
  5
2F
102
{ACAD_REACTORS
330
2A
102
}
330
2A
100
AcDbVisualStyle
  2
2dWireframe
 70
     4
177
     2
291
     0
 71
     0
176
     1
 72
     2
176
     1
 73
     0
176
     1
 90
        0
176
     1
 40
-0.6
176
     1
 41
-30.0
176
     1
 62
     5
 63
     7
421
 16777215
176
     1
 74
     1
176
     1
 91
        4
176
     1
 64
     7
176
     1
 65
   257
176
     1
 75
     1
176
     1
175
     1
176
     1
 42
1.0
176
     1
 92
        0
176
     1
 66
   257
176
     1
 43
1.0
176
     1
 76
     1
176
     1
 77
     6
176
     1
 78
     2
176
     1
 67
     7
176
     1
 79
     5
176
     1
170
     0
176
     1
171
     0
176
     1
290
     0
176
     1
 93
        1
176
     1
 44
0.0
176
     1
173
     0
176
     1
  0
VISUALSTYLE
  5
31
102
{ACAD_REACTORS
330
2A
102
}
330
2A
100
AcDbVisualStyle
  2
3D Hidden
 70
     6
177
     2
291
     0
 71
     1
176
     1
 72
     2
176
     1
 73
     2
176
     1
 90
        0
176
     1
 40
-0.6
176
     1
 41
-30.0
176
     1
 62
     5
 63
     7
421
 16777215
176
     1
 74
     2
176
     1
 91
        2
176
     1
 64
     7
176
     1
 65
   257
176
     1
 75
     2
176
     1
175
     1
176
     1
 42
40.0
176
     1
 92
        0
176
     1
 66
   257
176
     1
 43
1.0
176
     1
 76
     1
176
     1
 77
     6
176
     1
 78
     2
176
     1
 67
     7
176
     1
 79
     3
176
     1
170
     0
176
     1
171
     0
176
     1
290
     0
176
     1
 93
        1
176
     1
 44
0.0
176
     1
173
     0
176
     1
  0
VISUALSTYLE
  5
30
102
{ACAD_REACTORS
330
2A
102
}
330
2A
100
AcDbVisualStyle
  2
3dWireframe
 70
     5
177
     2
291
     0
 71
     0
176
     1
 72
     2
176
     1
 73
     0
176
     1
 90
        0
176
     1
 40
-0.6
176
     1
 41
-30.0
176
     1
 62
     5
 63
     7
421
 16777215
176
     1
 74
     1
176
     1
 91
        4
176
     1
 64
     7
176
     1
 65
   257
176
     1
 75
     1
176
     1
175
     1
176
     1
 42
1.0
176
     1
 92
        0
176
     1
 66
   257
176
     1
 43
1.0
176
     1
 76
     1
176
     1
 77
     6
176
     1
 78
     2
176
     1
 67
     7
176
     1
 79
     5
176
     1
170
     0
176
     1
171
     0
176
     1
290
     0
176
     1
 93
        1
176
     1
 44
0.0
176
     1
173
     0
176
     1
  0
VISUALSTYLE
  5
32
102
{ACAD_REACTORS
330
2A
102
}
330
2A
100
AcDbVisualStyle
  2
Basic
 70
     7
177
     2
291
     1
 71
     1
176
     1
 72
     0
176
     1
 73
     1
176
     1
 90
        0
176
     1
 40
-0.6
176
     1
 41
-30.0
176
     1
 62
     5
 63
     7
421
 16777215
176
     1
 74
     0
176
     1
 91
        4
176
     1
 64
     7
176
     1
 65
   257
176
     1
 75
     1
176
     1
175
     1
176
     1
 42
1.0
176
     1
 92
        8
176
     1
 66
     7
176
     1
 43
1.0
176
     1
 76
     1
176
     1
 77
     6
176
     1
 78
     2
176
     1
 67
     7
176
     1
 79
     5
176
     1
170
     0
176
     1
171
     0
176
     1
290
     0
176
     1
 93
        1
176
     1
 44
0.0
176
     1
173
     0
176
     1
  0
VISUALSTYLE
  5
36
102
{ACAD_REACTORS
330
2A
102
}
330
2A
100
AcDbVisualStyle
  2
Brighten
 70
    12
177
     2
291
     1
 71
     2
176
     1
 72
     2
176
     1
 73
     0
176
     1
 90
        0
176
     1
 40
-0.6
176
     1
 41
-30.0
176
     1
 62
     5
 63
     7
421
 16777215
176
     1
 74
     1
176
     1
 91
        4
176
     1
 64
     7
176
     1
 65
   257
176
     1
 75
     1
176
     1
175
     1
176
     1
 42
1.0
176
     1
 92
        8
176
     1
 66
     7
176
     1
 43
1.0
176
     1
 76
     1
176
     1
 77
     6
176
     1
 78
     2
176
     1
 67
     7
176
     1
 79
     5
176
     1
170
     0
176
     1
171
     0
176
     1
290
     0
176
     1
 93
        1
176
     1
 44
50.0
176
     1
173
     0
176
     1
  0
VISUALSTYLE
  5
3A
102
{ACAD_REACTORS
330
2A
102
}
330
2A
100
AcDbVisualStyle
  2
ColorChange
 70
    16
177
     2
291
     1
 71
     2
176
     1
 72
     2
176
     1
 73
     3
176
     1
 90
        0
176
     1
 40
-0.6
176
     1
 41
-30.0
176
     1
 62
     5
 63
     8
421
  8421504
176
     1
 74
     1
176
     1
 91
        4
176
     1
 64
     7
176
     1
 65
   257
176
     1
 75
     1
176
     1
175
     1
176
     1
 42
1.0
176
     1
 92
        8
176
     1
 66
     8
424
  8421504
176
     1
 43
1.0
176
     1
 76
     1
176
     1
 77
     6
176
     1
 78
     2
176
     1
 67
     7
176
     1
 79
     5
176
     1
170
     0
176
     1
171
     0
176
     1
290
     0
176
     1
 93
        1
176
     1
 44
0.0
176
     1
173
     0
176
     1
  0
VISUALSTYLE
  5
34
102
{ACAD_REACTORS
330
2A
102
}
330
2A
100
AcDbVisualStyle
  2
Conceptual
 70
     9
177
     2
291
     0
 71
     3
176
     1
 72
     2
176
     1
 73
     0
176
     1
 90
        0
176
     1
 40
-0.6
176
     1
 41
-30.0
176
     1
 62
     5
 63
     7
421
 16777215
176
     1
 74
     2
176
     1
 91
        2
176
     1
 64
     7
176
     1
 65
   257
176
     1
 75
     1
176
     1
175
     1
176
     1
 42
40.0
176
     1
 92
        8
176
     1
 66
     7
176
     1
 43
1.0
176
     1
 76
     1
176
     1
 77
     6
176
     1
 78
     2
176
     1
 67
     7
176
     1
 79
     3
176
     1
170
     0
176
     1
171
     0
176
     1
290
     0
176
     1
 93
        1
176
     1
 44
0.0
176
     1
173
     0
176
     1
  0
VISUALSTYLE
  5
35
102
{ACAD_REACTORS
330
2A
102
}
330
2A
100
AcDbVisualStyle
  2
Dim
 70
    11
177
     2
291
     1
 71
     2
176
     1
 72
     2
176
     1
 73
     0
176
     1
 90
        0
176
     1
 40
-0.6
176
     1
 41
-30.0
176
     1
 62
     5
 63
     7
421
 16777215
176
     1
 74
     1
176
     1
 91
        4
176
     1
 64
     7
176
     1
 65
   257
176
     1
 75
     1
176
     1
175
     1
176
     1
 42
1.0
176
     1
 92
        8
176
     1
 66
     7
176
     1
 43
1.0
176
     1
 76
     1
176
     1
 77
     6
176
     1
 78
     2
176
     1
 67
     7
176
     1
 79
     5
176
     1
170
     0
176
     1
171
     0
176
     1
290
     0
176
     1
 93
        1
176
     1
 44
-50.0
176
     1
173
     0
176
     1
  0
VISUALSTYLE
  5
39
102
{ACAD_REACTORS
330
2A
102
}
330
2A
100
AcDbVisualStyle
  2
Facepattern
 70
    15
177
     2
291
     1
 71
     2
176
     1
 72
     2
176
     1
 73
     0
176
     1
 90
        0
176
     1
 40
-0.6
176
     1
 41
-30.0
176
     1
 62
     5
 63
     7
421
 16777215
176
     1
 74
     1
176
     1
 91
        4
176
     1
 64
     7
176
     1
 65
   257
176
     1
 75
     1
176
     1
175
     1
176
     1
 42
1.0
176
     1
 92
        8
176
     1
 66
     7
176
     1
 43
1.0
176
     1
 76
     1
176
     1
 77
     6
176
     1
 78
     2
176
     1
 67
     7
176
     1
 79
     5
176
     1
170
     0
176
     1
171
     0
176
     1
290
     0
176
     1
 93
        1
176
     1
 44
0.0
176
     1
173
     0
176
     1
  0
VISUALSTYLE
  5
2B
102
{ACAD_REACTORS
330
2A
102
}
330
2A
100
AcDbVisualStyle
  2
Flat
 70
     0
177
     2
291
     1
 71
     2
176
     1
 72
     1
176
     1
 73
     1
176
     1
 90
        2
176
     1
 40
-0.6
176
     1
 41
30.0
176
     1
 62
     5
 63
     7
421
 16777215
176
     1
 74
     0
176
     1
 91
        4
176
     1
 64
     7
176
     1
 65
   257
176
     1
 75
     1
176
     1
175
     1
176
     1
 42
1.0
176
     1
 92
        8
176
     1
 66
     7
176
     1
 43
1.0
176
     1
 76
     1
176
     1
 77
     6
176
     1
 78
     2
176
     1
 67
     7
176
     1
 79
     5
176
     1
170
     0
176
     1
171
     0
176
     1
290
     0
176
     1
 93
       13
176
     1
 44
0.0
176
     1
173
     0
176
     1
  0
VISUALSTYLE
  5
2C
102
{ACAD_REACTORS
330
2A
102
}
330
2A
100
AcDbVisualStyle
  2
FlatWithEdges
 70
     1
177
     2
291
     1
 71
     2
176
     1
 72
     1
176
     1
 73
     1
176
     1
 90
        2
176
     1
 40
-0.6
176
     1
 41
30.0
176
     1
 62
     5
 63
     7
421
 16777215
176
     1
 74
     1
176
     1
 91
        4
176
     1
 64
     7
176
     1
 65
   257
176
     1
 75
     1
176
     1
175
     1
176
     1
 42
1.0
176
     1
 92
        0
176
     1
 66
   257
176
     1
 43
1.0
176
     1
 76
     1
176
     1
 77
     6
176
     1
 78
     2
176
     1
 67
     7
176
     1
 79
     5
176
     1
170
     0
176
     1
171
     0
176
     1
290
     0
176
     1
 93
       13
176
     1
 44
0.0
176
     1
173
     0
176
     1
  0
VISUALSTYLE
  5
2D
102
{ACAD_REACTORS
330
2A
102
}
330
2A
100
AcDbVisualStyle
  2
Gouraud
 70
     2
177
     2
291
     1
 71
     2
176
     1
 72
     2
176
     1
 73
     1
176
     1
 90
        2
176
     1
 40
-0.6
176
     1
 41
30.0
176
     1
 62
     5
 63
     7
421
 16777215
176
     1
 74
     0
176
     1
 91
        4
176
     1
 64
     7
176
     1
 65
   257
176
     1
 75
     1
176
     1
175
     1
176
     1
 42
1.0
176
     1
 92
        0
176
     1
 66
     7
176
     1
 43
1.0
176
     1
 76
     1
176
     1
 77
     6
176
     1
 78
     2
176
     1
 67
     7
176
     1
 79
     5
176
     1
170
     0
176
     1
171
     0
176
     1
290
     0
176
     1
 93
       13
176
     1
 44
0.0
176
     1
173
     0
176
     1
  0
VISUALSTYLE
  5
2E
102
{ACAD_REACTORS
330
2A
102
}
330
2A
100
AcDbVisualStyle
  2
GouraudWithEdges
 70
     3
177
     2
291
     1
 71
     2
176
     1
 72
     2
176
     1
 73
     1
176
     1
 90
        2
176
     1
 40
-0.6
176
     1
 41
30.0
176
     1
 62
     5
 63
     7
421
 16777215
176
     1
 74
     1
176
     1
 91
        4
176
     1
 64
     7
176
     1
 65
   257
176
     1
 75
     1
176
     1
175
     1
176
     1
 42
1.0
176
     1
 92
        0
176
     1
 66
   257
176
     1
 43
1.0
176
     1
 76
     1
176
     1
 77
     6
176
     1
 78
     2
176
     1
 67
     7
176
     1
 79
     5
176
     1
170
     0
176
     1
171
     0
176
     1
290
     0
176
     1
 93
       13
176
     1
 44
0.0
176
     1
173
     0
176
     1
  0
VISUALSTYLE
  5
38
102
{ACAD_REACTORS
330
2A
102
}
330
2A
100
AcDbVisualStyle
  2
Linepattern
 70
    14
177
     2
291
     1
 71
     2
176
     1
 72
     2
176
     1
 73
     0
176
     1
 90
        0
176
     1
 40
-0.6
176
     1
 41
-30.0
176
     1
 62
     5
 63
     7
421
 16777215
176
     1
 74
     1
176
     1
 91
        4
176
     1
 64
     7
176
     1
 65
   257
176
     1
 75
     7
176
     1
175
     7
176
     1
 42
1.0
176
     1
 92
        8
176
     1
 66
     7
176
     1
 43
1.0
176
     1
 76
     1
176
     1
 77
     6
176
     1
 78
     2
176
     1
 67
     7
176
     1
 79
     5
176
     1
170
     0
176
     1
171
     0
176
     1
290
     0
176
     1
 93
        1
176
     1
 44
0.0
176
     1
173
     0
176
     1
  0
VISUALSTYLE
  5
33
102
{ACAD_REACTORS
330
2A
102
}
330
2A
100
AcDbVisualStyle
  2
Realistic
 70
     8
177
     2
291
     0
 71
     2
176
     1
 72
     2
176
     1
 73
     0
176
     1
 90
        0
176
     1
 40
-0.6
176
     1
 41
-30.0
176
     1
 62
     5
 63
     7
421
 16777215
176
     1
 74
     1
176
     1
 91
        0
176
     1
 64
     7
176
     1
 65
   257
176
     1
 75
     1
176
     1
175
     1
176
     1
 42
1.0
176
     1
 92
        8
176
     1
 66
     8
424
  7895160
176
     1
 43
1.0
176
     1
 76
     1
176
     1
 77
     6
176
     1
 78
     2
176
     1
 67
     7
176
     1
 79
     5
176
     1
170
     0
176
     1
171
     0
176
     1
290
     0
176
     1
 93
       13
176
     1
 44
0.0
176
     1
173
     0
176
     1
  0
VISUALSTYLE
  5
37
102
{ACAD_REACTORS
330
2A
102
}
330
2A
100
AcDbVisualStyle
  2
Thicken
 70
    13
177
     2
291
     1
 71
     2
176
     1
 72
     2
176
     1
 73
     0
176
     1
 90
        0
176
     1
 40
-0.6
176
     1
 41
-30.0
176
     1
 62
     5
 63
     7
421
 16777215
176
     1
 74
     1
176
     1
 91
        4
176
     1
 64
     7
176
     1
 65
   257
176
     1
 75
     1
176
     1
175
     1
176
     1
 42
1.0
176
     1
 92
       12
176
     1
 66
     7
176
     1
 43
1.0
176
     1
 76
     1
176
     1
 77
     6
176
     1
 78
     2
176
     1
 67
     7
176
     1
 79
     5
176
     1
170
     0
176
     1
171
     0
176
     1
290
     0
176
     1
 93
        1
176
     1
 44
0.0
176
     1
173
     0
176
     1
  0
ENDSEC
  0
EOF
