  0
SECTION
  2
HEADER
  9
$ACADVER
  1
AC1024
  9
$ACADMAINTVER
 70
     6
  9
$DWGCODEPAGE
  3
UNDEFINED
  9
$INSBASE
 10
0.0
 20
0.0
 30
0.0
  9
$EXTMIN
 10
1.000000000000000E+20
 20
1.000000000000000E+20
 30
1.000000000000000E+20
  9
$EXTMAX
 10
-1.000000000000000E+20
 20
-1.000000000000000E+20
 30
-1.000000000000000E+20
  9
$LIMMIN
 10
0.0
 20
0.0
  9
$LIMMAX
 10
12.0
 20
9.0
  9
$ORTHOMODE
 70
     0
  9
$REGENMODE
 70
     1
  9
$FILLMODE
 70
     1
  9
$QTEXTMODE
 70
     0
  9
$MIRRTEXT
 70
     1
  9
$LTSCALE
 40
1.0
  9
$ATTMODE
 70
     1
  9
$TEXTSIZE
 40
0.2
  9
$TRACEWID
 40
0.05
  9
$TEXTSTYLE
  7
Standard
  9
$CLAYER
  8
0
  9
$CELTYPE
  6
ByLayer
  9
$CECOLOR
 62
   256
  9
$CELTSCALE
 40
1.0
  9
$DISPSILH
 70
     0
  9
$DIMSCALE
 40
1.0
  9
$DIMASZ
 40
0.18
  9
$DIMEXO
 40
0.0625
  9
$DIMDLI
 40
0.38
  9
$DIMRND
 40
0.0
  9
$DIMDLE
 40
0.0
  9
$DIMEXE
 40
0.18
  9
$DIMTP
 40
0.0
  9
$DIMTM
 40
0.0
  9
$DIMTXT
 40
0.18
  9
$DIMCEN
 40
0.09
  9
$DIMTSZ
 40
0.0
  9
$DIMTOL
 70
     0
  9
$DIMLIM
 70
     0
  9
$DIMTIH
 70
     1
  9
$DIMTOH
 70
     1
  9
$DIMSE1
 70
     0
  9
$DIMSE2
 70
     0
  9
$DIMTAD
 70
     0
  9
$DIMZIN
 70
     0
  9
$DIMBLK
  1

  9
$DIMASO
 70
     1
  9
$DIMSHO
 70
     1
  9
$DIMPOST
  1

  9
$DIMAPOST
  1

  9
$DIMALT
 70
     0
  9
$DIMALTD
 70
     2
  9
$DIMALTF
 40
25.4
  9
$DIMLFAC
 40
1.0
  9
$DIMTOFL
 70
     0
  9
$DIMTVP
 40
0.0
  9
$DIMTIX
 70
     0
  9
$DIMSOXD
 70
     0
  9
$DIMSAH
 70
     0
  9
$DIMBLK1
  1

  9
$DIMBLK2
  1

  9
$DIMSTYLE
  2
Standard
  9
$DIMCLRD
 70
     0
  9
$DIMCLRE
 70
     0
  9
$DIMCLRT
 70
     0
  9
$DIMTFAC
 40
1.0
  9
$DIMGAP
 40
0.09
  9
$DIMJUST
 70
     0
  9
$DIMSD1
 70
     0
  9
$DIMSD2
 70
     0
  9
$DIMTOLJ
 70
     1
  9
$DIMTZIN
 70
     0
  9
$DIMALTZ
 70
     0
  9
$DIMALTTZ
 70
     0
  9
$DIMUPT
 70
     0
  9
$DIMDEC
 70
     4
  9
$DIMTDEC
 70
     4
  9
$DIMALTU
 70
     2
  9
$DIMALTTD
 70
     2
  9
$DIMTXSTY
  7
Standard
  9
$DIMAUNIT
 70
     0
  9
$DIMADEC
 70
     0
  9
$DIMALTRND
 40
0.0
  9
$DIMAZIN
 70
     0
  9
$DIMDSEP
 70
    46
  9
$DIMATFIT
 70
     3
  9
$DIMFRAC
 70
     0
  9
$DIMLDRBLK
  1

  9
$DIMLUNIT
 70
     2
  9
$DIMLWD
 70
    -2
  9
$DIMLWE
 70
    -2
  9
$DIMTMOVE
 70
     0
  9
$DIMFXL
 40
1.0
  9
$DIMFXLON
 70
     0
  9
$DIMJOGANG
 40
0.7853981633974483
  9
$DIMTFILL
 70
     0
  9
$DIMTFILLCLR
 70
     0
  9
$DIMARCSYM
 70
     0
  9
$DIMLTYPE
  6

  9
$DIMLTEX1
  6

  9
$DIMLTEX2
  6

  9
$DIMTXTDIRECTION
 70
     0
  9
$LUNITS
 70
     2
  9
$LUPREC
 70
     4
  9
$SKETCHINC
 40
0.1
  9
$FILLETRAD
 40
0.5
  9
$AUNITS
 70
     0
  9
$AUPREC
 70
     0
  9
$MENU
  1
.
  9
$ELEVATION
 40
0.0
  9
$PELEVATION
 40
0.0
  9
$THICKNESS
 40
0.0
  9
$LIMCHECK
 70
     0
  9
$CHAMFERA
 40
0.5
  9
$CHAMFERB
 40
0.5
  9
$CHAMFERC
 40
1.0
  9
$CHAMFERD
 40
0.0
  9
$SKPOLY
 70
     0
  9
$TDCREATE
 40
2457917.596736111
  9
$TDUCREATE
 40
2457917.221736111
  9
$TDUPDATE
 40
2457917.596736111
  9
$TDUUPDATE
 40
2457917.221736111
  9
$TDINDWG
 40
0.0000000116
  9
$TDUSRTIMER
 40
0.0000000116
  9
$USRTIMER
 70
     1
  9
$ANGBASE
 50
0.0
  9
$ANGDIR
 70
     0
  9
$PDMODE
 70
     0
  9
$PDSIZE
 40
0.0
  9
$PLINEWID
 40
0.0
  9
$SPLFRAME
 70
     0
  9
$SPLINETYPE
 70
     6
  9
$SPLINESEGS
 70
     8
  9
$HANDSEED
  5
F5
  9
$SURFTAB1
 70
     6
  9
$SURFTAB2
 70
     6
  9
$SURFTYPE
 70
     6
  9
$SURFU
 70
     6
  9
$SURFV
 70
     6
  9
$UCSBASE
  2

  9
$UCSNAME
  2

  9
$UCSORG
 10
0.0
 20
0.0
 30
0.0
  9
$UCSXDIR
 10
1.0
 20
0.0
 30
0.0
  9
$UCSYDIR
 10
0.0
 20
1.0
 30
0.0
  9
$UCSORTHOREF
  2

  9
$UCSORTHOVIEW
 70
     0
  9
$UCSORGTOP
 10
0.0
 20
0.0
 30
0.0
  9
$UCSORGBOTTOM
 10
0.0
 20
0.0
 30
0.0
  9
$UCSORGLEFT
 10
0.0
 20
0.0
 30
0.0
  9
$UCSORGRIGHT
 10
0.0
 20
0.0
 30
0.0
  9
$UCSORGFRONT
 10
0.0
 20
0.0
 30
0.0
  9
$UCSORGBACK
 10
0.0
 20
0.0
 30
0.0
  9
$PUCSBASE
  2

  9
$PUCSNAME
  2

  9
$PUCSORG
 10
0.0
 20
0.0
 30
0.0
  9
$PUCSXDIR
 10
1.0
 20
0.0
 30
0.0
  9
$PUCSYDIR
 10
0.0
 20
1.0
 30
0.0
  9
$PUCSORTHOREF
  2

  9
$PUCSORTHOVIEW
 70
     0
  9
$PUCSORGTOP
 10
0.0
 20
0.0
 30
0.0
  9
$PUCSORGBOTTOM
 10
0.0
 20
0.0
 30
0.0
  9
$PUCSORGLEFT
 10
0.0
 20
0.0
 30
0.0
  9
$PUCSORGRIGHT
 10
0.0
 20
0.0
 30
0.0
  9
$PUCSORGFRONT
 10
0.0
 20
0.0
 30
0.0
  9
$PUCSORGBACK
 10
0.0
 20
0.0
 30
0.0
  9
$USERI1
 70
     0
  9
$USERI2
 70
     0
  9
$USERI3
 70
     0
  9
$USERI4
 70
     0
  9
$USERI5
 70
     0
  9
$USERR1
 40
0.0
  9
$USERR2
 40
0.0
  9
$USERR3
 40
0.0
  9
$USERR4
 40
0.0
  9
$USERR5
 40
0.0
  9
$WORLDVIEW
 70
     1
  9
$SHADEDGE
 70
     3
  9
$SHADEDIF
 70
    70
  9
$TILEMODE
 70
     1
  9
$MAXACTVP
 70
    64
  9
$PINSBASE
 10
0.0
 20
0.0
 30
0.0
  9
$PLIMCHECK
 70
     0
  9
$PEXTMIN
 10
1.000000000000000E+20
 20
1.000000000000000E+20
 30
1.000000000000000E+20
  9
$PEXTMAX
 10
-1.000000000000000E+20
 20
-1.000000000000000E+20
 30
-1.000000000000000E+20
  9
$PLIMMIN
 10
0.0
 20
0.0
  9
$PLIMMAX
 10
12.0
 20
9.0
  9
$UNITMODE
 70
     0
  9
$VISRETAIN
 70
     1
  9
$PLINEGEN
 70
     0
  9
$PSLTSCALE
 70
     1
  9
$TREEDEPTH
 70
  3020
  9
$CMLSTYLE
  2
Standard
  9
$CMLJUST
 70
     0
  9
$CMLSCALE
 40
1.0
  9
$PROXYGRAPHICS
 70
     1
  9
$MEASUREMENT
 70
     0
  9
$CELWEIGHT
370
    -1
  9
$ENDCAPS
280
     0
  9
$JOINSTYLE
280
     0
  9
$LWDISPLAY
290
     1
  9
$INSUNITS
 70
     1
  9
$HYPERLINKBASE
  1

  9
$STYLESHEET
  1

  9
$XEDIT
290
     1
  9
$CEPSNTYPE
380
     0
  9
$PSTYLEMODE
290
     1
  9
$FINGERPRINTGUID
  2
{050C960F-7871-54D0-FF22-F12CD9D3EED7}
  9
$VERSIONGUID
  2
{FAEB1C32-E019-11D5-929B-00C0DF256EC4}
  9
$EXTNAMES
290
     1
  9
$PSVPSCALE
 40
0.0
  9
$OLESTARTUP
290
     0
  9
$SORTENTS
280
   127
  9
$INDEXCTL
280
     0
  9
$HIDETEXT
280
     1
  9
$XCLIPFRAME
280
     2
  9
$HALOGAP
280
     0
  9
$OBSCOLOR
 70
   257
  9
$OBSLTYPE
280
     0
  9
$INTERSECTIONDISPLAY
280
     0
  9
$INTERSECTIONCOLOR
 70
   257
  9
$DIMASSOC
280
     2
  9
$PROJECTNAME
  1

  9
$CAMERADISPLAY
290
     0
  9
$LENSLENGTH
 40
50.0
  9
$CAMERAHEIGHT
 40
0.0
  9
$STEPSPERSEC
 40
2.0
  9
$STEPSIZE
 40
6.0
  9
$3DDWFPREC
 40
2.0
  9
$PSOLWIDTH
 40
0.25
  9
$PSOLHEIGHT
 40
4.0
  9
$LOFTANG1
 40
1.570796326794897
  9
$LOFTANG2
 40
1.570796326794897
  9
$LOFTMAG1
 40
0.0
  9
$LOFTMAG2
 40
0.0
  9
$LOFTPARAM
 70
     7
  9
$LOFTNORMALS
280
     1
  9
$LATITUDE
 40
37.795
  9
$LONGITUDE
 40
-122.394
  9
$NORTHDIRECTION
 40
0.0
  9
$TIMEZONE
 70
 -8000
  9
$LIGHTGLYPHDISPLAY
280
     1
  9
$TILEMODELIGHTSYNCH
280
     1
  9
$CMATERIAL
347
3C
  9
$SOLIDHIST
280
     1
  9
$SHOWHIST
280
     1
  9
$DWFFRAME
280
     2
  9
$DGNFRAME
280
     2
  9
$REALWORLDSCALE
290
     1
  9
$INTERFERECOLOR
 62
   256
  9
$CSHADOW
280
     0
  9
$SHADOWPLANELOCATION
 40
0.0
  0
ENDSEC
  0
SECTION
  2
CLASSES
  0
CLASS
  1
ACDBDICTIONARYWDFLT
  2
AcDbDictionaryWithDefault
  3
ObjectDBX Classes
 90
        0
 91
        4
280
     0
281
     0
  0
CLASS
  1
VISUALSTYLE
  2
AcDbVisualStyle
  3
ObjectDBX Classes
 90
     4095
 91
        4
280
     0
281
     0
  0
CLASS
  1
MATERIAL
  2
AcDbMaterial
  3
ObjectDBX Classes
 90
     1153
 91
        4
280
     0
281
     0
  0
CLASS
  1
SUN
  2
AcDbSun
  3
SCENEOE
 90
     1024
 91
        4
280
     0
281
     0
  0
ENDSEC
  0
SECTION
  2
TABLES
  0
TABLE
  2
VPORT
  5
8
330
0
100
AcDbSymbolTable
 70
     1
  0
VPORT
  5
29
330
8
100
AcDbSymbolTableRecord
100
AcDbViewportTableRecord
  2
*Active
 70
     0
 10
0.0
 20
0.0
 11
1.0
 21
1.0
 12
0.0
 22
0.0
 13
0.0
 23
0.0
 14
0.5
 24
0.5
 15
0.5
 25
0.5
 16
0.0
 26
0.0
 36
1.0
 17
91.00082462281999
 27
-128.4993055234307
 37
0.0
 40
256.9986110468615
 41
0.7081814508812795
 42
50.0
 43
0.0
 44
0.0
 50
0.0
 51
0.0
 71
     0
 72
   100
 73
     1
 74
     3
 75
     0
 76
     0
 77
     0
 78
     0
281
     0
 65
     1
110
0.0
120
0.0
130
0.0
111
1.0
121
0.0
131
0.0
112
0.0
122
1.0
132
0.0
 79
     0
146
0.0
 60
     3
 61
     5
292
     1
282
     1
141
0.0
142
0.0
 63
   250
361
3F
  0
ENDTAB
  0
TABLE
  2
LTYPE
  5
5
330
0
100
AcDbSymbolTable
 70
     2
  0
LTYPE
  5
14
330
5
100
AcDbSymbolTableRecord
100
AcDbLinetypeTableRecord
  2
ByBlock
 70
     0
  3

 72
    65
 73
     0
 40
0.0
  0
LTYPE
  5
15
330
5
100
AcDbSymbolTableRecord
100
AcDbLinetypeTableRecord
  2
ByLayer
 70
     0
  3

 72
    65
 73
     0
 40
0.0
  0
LTYPE
  5
16
330
5
100
AcDbSymbolTableRecord
100
AcDbLinetypeTableRecord
  2
Continuous
 70
     0
  3
Solid line
 72
    65
 73
     0
 40
0.0
  0
LTYPE
  5
F1
330
5
100
AcDbSymbolTableRecord
100
AcDbLinetypeTableRecord
  2
AI-Linetype-1
 70
     0
  3
Adobe Illustrator Linetype No. 1
 72
    65
 73
     2
 40
1.411111110758333
 49
0.7055555553791667
 74
     0
 49
-0.7055555553791667
 74
     0
  0
ENDTAB
  0
TABLE
  2
LAYER
  5
2
330
0
100
AcDbSymbolTable
 70
     2
  0
LAYER
  5
10
330
2
100
AcDbSymbolTableRecord
100
AcDbLayerTableRecord
  2
0
 70
     0
 62
     7
  6
Continuous
370
    -3
390
F
347
3E
  0
LAYER
  5
40
330
2
100
AcDbSymbolTableRecord
100
AcDbLayerTableRecord
  2
_U+30EC_U+30A4_U+30E4_U+30FC 1
 70
     0
 62
     7
  6
Continuous
370
    -3
390
F
347
3E
  0
ENDTAB
  0
TABLE
  2
STYLE
  5
3
330
0
100
AcDbSymbolTable
 70
     1
  0
STYLE
  5
11
330
3
100
AcDbSymbolTableRecord
100
AcDbTextStyleTableRecord
  2
Standard
 70
     0
 40
0.0
 41
1.0
 50
0.0
 71
     0
 42
0.2
  3
txt
  4

  0
ENDTAB
  0
TABLE
  2
VIEW
  5
6
330
0
100
AcDbSymbolTable
 70
     0
  0
ENDTAB
  0
TABLE
  2
UCS
  5
7
330
0
100
AcDbSymbolTable
 70
     0
  0
ENDTAB
  0
TABLE
  2
APPID
  5
9
330
0
100
AcDbSymbolTable
 70
     1
  0
APPID
  5
12
330
9
100
AcDbSymbolTableRecord
100
AcDbRegAppTableRecord
  2
ACAD
 70
     0
  0
ENDTAB
  0
TABLE
  2
DIMSTYLE
  5
A
330
0
100
AcDbSymbolTable
 70
     1
100
AcDbDimStyleTable
  0
DIMSTYLE
105
27
330
A
100
AcDbSymbolTableRecord
100
AcDbDimStyleTableRecord
  2
Standard
 70
     0
178
     0
340
11
  0
ENDTAB
  0
TABLE
  2
BLOCK_RECORD
  5
1
330
0
100
AcDbSymbolTable
 70
     5
  0
BLOCK_RECORD
  5
1F
330
1
100
AcDbSymbolTableRecord
100
AcDbBlockTableRecord
  2
*Model_Space
340
22
 70
     0
280
     1
281
     0
  0
BLOCK_RECORD
  5
1B
330
1
100
AcDbSymbolTableRecord
100
AcDbBlockTableRecord
  2
*Paper_Space
340
1E
 70
     0
280
     1
281
     0
  0
BLOCK_RECORD
  5
23
330
1
100
AcDbSymbolTableRecord
100
AcDbBlockTableRecord
  2
*Paper_Space0
340
26
 70
     0
280
     1
281
     0
  0
BLOCK_RECORD
  5
6F
330
1
100
AcDbSymbolTableRecord
100
AcDbBlockTableRecord
  2
block 2
340
0
102
{BLKREFS
331
70
102
}
 70
     0
280
     1
281
     0
  0
BLOCK_RECORD
  5
8B
330
1
100
AcDbSymbolTableRecord
100
AcDbBlockTableRecord
  2
block 3
340
0
102
{BLKREFS
331
8C
102
}
 70
     0
280
     1
281
     0
  0
BLOCK_RECORD
  5
A0
330
1
100
AcDbSymbolTableRecord
100
AcDbBlockTableRecord
  2
block 4
340
0
102
{BLKREFS
331
A1
102
}
 70
     0
280
     1
281
     0
  0
BLOCK_RECORD
  5
A9
330
1
100
AcDbSymbolTableRecord
100
AcDbBlockTableRecord
  2
block 5
340
0
102
{BLKREFS
331
AA
102
}
 70
     0
280
     1
281
     0
  0
ENDTAB
  0
ENDSEC
  0
SECTION
  2
BLOCKS
  0
BLOCK
  5
20
330
1F
100
AcDbEntity
  8
0
100
AcDbBlockBegin
  2
*Model_Space
 70
     0
 10
0.0
 20
0.0
 30
0.0
  3
*Model_Space
  1

  0
ENDBLK
  5
21
330
1F
100
AcDbEntity
  8
0
100
AcDbBlockEnd
  0
BLOCK
  5
1C
330
1B
100
AcDbEntity
 67
     1
  8
0
100
AcDbBlockBegin
  2
*Paper_Space
 70
     0
 10
0.0
 20
0.0
 30
0.0
  3
*Paper_Space
  1

  0
ENDBLK
  5
1D
330
1B
100
AcDbEntity
 67
     1
  8
0
100
AcDbBlockEnd
  0
BLOCK
  5
24
330
23
100
AcDbEntity
  8
0
100
AcDbBlockBegin
  2
*Paper_Space0
 70
     0
 10
0.0
 20
0.0
 30
0.0
  3
*Paper_Space0
  1

  0
ENDBLK
  5
25
330
23
100
AcDbEntity
  8
0
100
AcDbBlockEnd
  0
BLOCK
  5
71
330
6F
100
AcDbEntity
  8
0
100
AcDbBlockBegin
  2
block 2
 70
     0
 10
0.0
 20
0.0
 30
0.0
  3
block 2
  1

  0
SPLINE
  5
73
330
6F
100
AcDbEntity
  8
_U+30EC_U+30A4_U+30E4_U+30FC 1
370
     0
100
AcDbSpline
210
0.0
220
0.0
230
1.0
 70
    11
 71
     3
 72
    26
 73
    22
 74
     0
 42
0.0000000001
 43
0.0000000001
 12
1.0
 22
0.0
 32
0.0
 13
1.0
 23
0.0
 33
0.0
 40
0.0
 40
0.0
 40
0.0
 40
0.0
 40
1.0
 40
1.0
 40
1.0
 40
2.0
 40
2.0
 40
2.0
 40
3.0
 40
3.0
 40
3.0
 40
4.0
 40
4.0
 40
4.0
 40
5.0
 40
5.0
 40
5.0
 40
6.0
 40
6.0
 40
6.0
 40
7.0
 40
7.0
 40
7.0
 40
7.0
 10
105.2338866924415
 20
-132.3578124669106
 30
0.0
 10
105.2338866924415
 20
-132.3578124669106
 30
0.0
 10
104.129733589419
 20
-132.3578124669106
 30
0.0
 10
104.129733589419
 20
-132.3578124669106
 30
0.0
 10
104.129733589419
 20
-132.3578124669106
 30
0.0
 10
104.129733589419
 20
-132.6434108826378
 30
0.0
 10
104.129733589419
 20
-132.6434108826378
 30
0.0
 10
104.129733589419
 20
-132.6434108826378
 30
0.0
 10
103.9815944835532
 20
-132.6434108826378
 30
0.0
 10
103.9815944835532
 20
-132.6434108826378
 30
0.0
 10
103.9667805729666
 20
-132.3560899191679
 30
0.0
 10
103.8038275565143
 20
-132.3157823019905
 30
0.0
 10
103.689450386404
 20
-132.2902885953997
 30
0.0
 10
103.689450386404
 20
-132.2902885953997
 30
0.0
 10
103.689450386404
 20
-132.163853591091
 30
0.0
 10
103.689450386404
 20
-132.163853591091
 30
0.0
 10
103.689450386404
 20
-132.163853591091
 30
0.0
 10
105.2338866924415
 20
-132.163853591091
 30
0.0
 10
105.2338866924415
 20
-132.163853591091
 30
0.0
 10
105.2338866924415
 20
-132.163853591091
 30
0.0
 10
105.2338866924415
 20
-132.3578124669106
 30
0.0
 10
105.2338866924415
 20
-132.3578124669106
 30
0.0
  0
HATCH
  5
74
330
6F
100
AcDbEntity
  8
_U+30EC_U+30A4_U+30E4_U+30FC 1
 62
   179
420
  2234388
100
AcDbHatch
 10
0.0
 20
0.0
 30
0.0
210
0.0
220
0.0
230
1.0
  2
SOLID
 70
     1
 71
     0
 91
        1
 92
        1
 93
        1
 72
     4
 94
        3
 73
     0
 74
     1
 95
       26
 96
       22
 40
0.0
 40
0.0
 40
0.0
 40
0.0
 40
1.0
 40
1.0
 40
1.0
 40
2.0
 40
2.0
 40
2.0
 40
3.0
 40
3.0
 40
3.0
 40
4.0
 40
4.0
 40
4.0
 40
5.0
 40
5.0
 40
5.0
 40
6.0
 40
6.0
 40
6.0
 40
7.0
 40
7.0
 40
7.0
 40
7.0
 10
105.2338866924415
 20
-132.3578124669106
 10
105.2338866924415
 20
-132.3578124669106
 10
104.129733589419
 20
-132.3578124669106
 10
104.129733589419
 20
-132.3578124669106
 10
104.129733589419
 20
-132.3578124669106
 10
104.129733589419
 20
-132.6434108826378
 10
104.129733589419
 20
-132.6434108826378
 10
104.129733589419
 20
-132.6434108826378
 10
103.9815944835532
 20
-132.6434108826378
 10
103.9815944835532
 20
-132.6434108826378
 10
103.9667805729666
 20
-132.3560899191679
 10
103.8038275565143
 20
-132.3157823019905
 10
103.689450386404
 20
-132.2902885953997
 10
103.689450386404
 20
-132.2902885953997
 10
103.689450386404
 20
-132.163853591091
 10
103.689450386404
 20
-132.163853591091
 10
103.689450386404
 20
-132.163853591091
 10
105.2338866924415
 20
-132.163853591091
 10
105.2338866924415
 20
-132.163853591091
 10
105.2338866924415
 20
-132.163853591091
 10
105.2338866924415
 20
-132.3578124669106
 10
105.2338866924415
 20
-132.3578124669106
 97
        0
 97
        0
 75
     2
 76
     1
 98
        0
  0
POLYLINE
  5
75
330
6F
100
AcDbEntity
  8
_U+30EC_U+30A4_U+30E4_U+30FC 1
370
     0
100
AcDb2dPolyline
 66
     1
 10
0.0
 20
0.0
 30
0.0
  0
VERTEX
  5
76
330
75
100
AcDbEntity
  8
_U+30EC_U+30A4_U+30E4_U+30FC 1
370
     0
100
AcDbVertex
100
AcDb2dVertex
 10
105.2338866924415
 20
-131.6791286563163
 30
0.0
  0
VERTEX
  5
77
330
75
100
AcDbEntity
  8
_U+30EC_U+30A4_U+30E4_U+30FC 1
370
     0
100
AcDbVertex
100
AcDb2dVertex
 10
104.9820502124698
 20
-131.6791286563163
 30
0.0
  0
VERTEX
  5
78
330
75
100
AcDbEntity
  8
_U+30EC_U+30A4_U+30E4_U+30FC 1
370
     0
100
AcDbVertex
100
AcDb2dVertex
 10
104.9820502124698
 20
-131.4613986216486
 30
0.0
  0
VERTEX
  5
79
330
75
100
AcDbEntity
  8
_U+30EC_U+30A4_U+30E4_U+30FC 1
370
     0
100
AcDbVertex
100
AcDb2dVertex
 10
105.2338866924415
 20
-131.4613986216486
 30
0.0
  0
VERTEX
  5
7A
330
75
100
AcDbEntity
  8
_U+30EC_U+30A4_U+30E4_U+30FC 1
370
     0
100
AcDbVertex
100
AcDb2dVertex
 10
105.2338866924415
 20
-131.6791286563163
 30
0.0
  0
SEQEND
  5
7B
330
75
100
AcDbEntity
  8
_U+30EC_U+30A4_U+30E4_U+30FC 1
370
     0
  0
HATCH
  5
7C
330
6F
100
AcDbEntity
  8
_U+30EC_U+30A4_U+30E4_U+30FC 1
 62
   179
420
  2234388
100
AcDbHatch
 10
0.0
 20
0.0
 30
0.0
210
0.0
220
0.0
230
1.0
  2
SOLID
 70
     1
 71
     0
 91
        1
 92
        1
 93
        4
 72
     1
 10
105.2338866924415
 20
-131.6791286563163
 11
104.9820502124698
 21
-131.6791286563163
 72
     1
 10
104.9820502124698
 20
-131.6791286563163
 11
104.9820502124698
 21
-131.4613986216486
 72
     1
 10
104.9820502124698
 20
-131.4613986216486
 11
105.2338866924415
 21
-131.4613986216486
 72
     1
 10
105.2338866924415
 20
-131.4613986216486
 11
105.2338866924415
 21
-131.6791286563163
 97
        0
 75
     2
 76
     1
 98
        0
  0
SPLINE
  5
7D
330
6F
100
AcDbEntity
  8
_U+30EC_U+30A4_U+30E4_U+30FC 1
370
     0
100
AcDbSpline
210
0.0
220
0.0
230
1.0
 70
    11
 71
     3
 72
    53
 73
    49
 74
     0
 42
0.0000000001
 43
0.0000000001
 12
1.0
 22
0.0
 32
0.0
 13
1.0
 23
0.0
 33
0.0
 40
0.0
 40
0.0
 40
0.0
 40
0.0
 40
1.0
 40
1.0
 40
1.0
 40
2.0
 40
2.0
 40
2.0
 40
3.0
 40
3.0
 40
3.0
 40
4.0
 40
4.0
 40
4.0
 40
5.0
 40
5.0
 40
5.0
 40
6.0
 40
6.0
 40
6.0
 40
7.0
 40
7.0
 40
7.0
 40
8.0
 40
8.0
 40
8.0
 40
9.0
 40
9.0
 40
9.0
 40
10.0
 40
10.0
 40
10.0
 40
11.0
 40
11.0
 40
11.0
 40
12.0
 40
12.0
 40
12.0
 40
13.0
 40
13.0
 40
13.0
 40
14.0
 40
14.0
 40
14.0
 40
15.0
 40
15.0
 40
15.0
 40
16.0
 40
16.0
 40
16.0
 40
16.0
 10
105.2845295960747
 20
-130.8412814343036
 30
0.0
 10
105.2845295960747
 20
-130.9088053058145
 30
0.0
 10
105.267648628197
 20
-130.9969997502369
 30
0.0
 10
105.2042588712684
 20
-131.0845051755622
 30
0.0
 10
105.0943603252889
 20
-131.2347113387191
 30
0.0
 10
104.9631021873009
 20
-131.2529703447909
 30
0.0
 10
104.8552706986126
 20
-131.2695068031201
 30
0.0
 10
104.8552706986126
 20
-131.2695068031201
 30
0.0
 10
104.8552706986126
 20
-131.0772704750432
 30
0.0
 10
104.8552706986126
 20
-131.0772704750432
 30
0.0
 10
105.0540527081115
 20
-131.0297281573467
 30
0.0
 10
105.0836805292846
 20
-130.9198296113673
 30
0.0
 10
105.0836805292846
 20
-130.839558886561
 30
0.0
 10
105.0836805292846
 20
-130.7186360350287
 30
0.0
 10
104.9841172697609
 20
-130.5870333874921
 30
0.0
 10
104.7515733245066
 20
-130.5870333874921
 30
0.0
 10
104.4956027299525
 20
-130.5870333874921
 30
0.0
 10
104.4256672916019
 20
-130.7424071938769
 30
0.0
 10
104.4256672916019
 20
-130.84679358708
 30
0.0
 10
104.4256672916019
 20
-130.874354350962
 30
0.0
 10
104.4256672916019
 20
-130.9969997502369
 30
0.0
 10
104.5548583722988
 20
-131.0738253795579
 30
0.0
 10
104.5548583722988
 20
-131.0738253795579
 30
0.0
 10
104.5359103471299
 20
-131.2257540904575
 30
0.0
 10
104.5359103471299
 20
-131.2257540904575
 30
0.0
 10
104.5359103471299
 20
-131.2257540904575
 30
0.0
 10
103.689450386404
 20
-131.1213676972544
 30
0.0
 10
103.689450386404
 20
-131.1213676972544
 30
0.0
 10
103.689450386404
 20
-131.1213676972544
 30
0.0
 10
103.689450386404
 20
-130.4478515298881
 30
0.0
 10
103.689450386404
 20
-130.4478515298881
 30
0.0
 10
103.689450386404
 20
-130.4478515298881
 30
0.0
 10
103.8840982813206
 20
-130.4478515298881
 30
0.0
 10
103.8840982813206
 20
-130.4478515298881
 30
0.0
 10
103.8840982813206
 20
-130.4478515298881
 30
0.0
 10
103.8840982813206
 20
-130.9804632919077
 30
0.0
 10
103.8840982813206
 20
-130.9804632919077
 30
0.0
 10
103.8840982813206
 20
-130.9804632919077
 30
0.0
 10
104.3071560069093
 20
-131.0369628578658
 30
0.0
 10
104.3071560069093
 20
-131.0369628578658
 30
0.0
 10
104.2733940711539
 20
-130.9839083873929
 30
0.0
 10
104.2330864539765
 20
-130.9125949108482
 30
0.0
 10
104.2330864539765
 20
-130.8102755749363
 30
0.0
 10
104.2330864539765
 20
-130.5904784829774
 30
0.0
 10
104.4194661197285
 20
-130.385495301605
 30
0.0
 10
104.7326252993377
 20
-130.385495301605
 30
0.0
 10
105.0499185935292
 20
-130.385495301605
 30
0.0
 10
105.2845295960747
 20
-130.5794541774246
 30
0.0
 10
105.2845295960747
 20
-130.8412814343036
 30
0.0
  0
HATCH
  5
7E
330
6F
100
AcDbEntity
  8
_U+30EC_U+30A4_U+30E4_U+30FC 1
 62
   179
420
  2234388
100
AcDbHatch
 10
0.0
 20
0.0
 30
0.0
210
0.0
220
0.0
230
1.0
  2
SOLID
 70
     1
 71
     0
 91
        1
 92
        1
 93
        1
 72
     4
 94
        3
 73
     0
 74
     1
 95
       53
 96
       49
 40
0.0
 40
0.0
 40
0.0
 40
0.0
 40
1.0
 40
1.0
 40
1.0
 40
2.0
 40
2.0
 40
2.0
 40
3.0
 40
3.0
 40
3.0
 40
4.0
 40
4.0
 40
4.0
 40
5.0
 40
5.0
 40
5.0
 40
6.0
 40
6.0
 40
6.0
 40
7.0
 40
7.0
 40
7.0
 40
8.0
 40
8.0
 40
8.0
 40
9.0
 40
9.0
 40
9.0
 40
10.0
 40
10.0
 40
10.0
 40
11.0
 40
11.0
 40
11.0
 40
12.0
 40
12.0
 40
12.0
 40
13.0
 40
13.0
 40
13.0
 40
14.0
 40
14.0
 40
14.0
 40
15.0
 40
15.0
 40
15.0
 40
16.0
 40
16.0
 40
16.0
 40
16.0
 10
105.2845295960747
 20
-130.8412814343036
 10
105.2845295960747
 20
-130.9088053058145
 10
105.267648628197
 20
-130.9969997502369
 10
105.2042588712684
 20
-131.0845051755622
 10
105.0943603252889
 20
-131.2347113387191
 10
104.9631021873009
 20
-131.2529703447909
 10
104.8552706986126
 20
-131.2695068031201
 10
104.8552706986126
 20
-131.2695068031201
 10
104.8552706986126
 20
-131.0772704750432
 10
104.8552706986126
 20
-131.0772704750432
 10
105.0540527081115
 20
-131.0297281573467
 10
105.0836805292846
 20
-130.9198296113673
 10
105.0836805292846
 20
-130.839558886561
 10
105.0836805292846
 20
-130.7186360350287
 10
104.9841172697609
 20
-130.5870333874921
 10
104.7515733245066
 20
-130.5870333874921
 10
104.4956027299525
 20
-130.5870333874921
 10
104.4256672916019
 20
-130.7424071938769
 10
104.4256672916019
 20
-130.84679358708
 10
104.4256672916019
 20
-130.874354350962
 10
104.4256672916019
 20
-130.9969997502369
 10
104.5548583722988
 20
-131.0738253795579
 10
104.5548583722988
 20
-131.0738253795579
 10
104.5359103471299
 20
-131.2257540904575
 10
104.5359103471299
 20
-131.2257540904575
 10
104.5359103471299
 20
-131.2257540904575
 10
103.689450386404
 20
-131.1213676972544
 10
103.689450386404
 20
-131.1213676972544
 10
103.689450386404
 20
-131.1213676972544
 10
103.689450386404
 20
-130.4478515298881
 10
103.689450386404
 20
-130.4478515298881
 10
103.689450386404
 20
-130.4478515298881
 10
103.8840982813206
 20
-130.4478515298881
 10
103.8840982813206
 20
-130.4478515298881
 10
103.8840982813206
 20
-130.4478515298881
 10
103.8840982813206
 20
-130.9804632919077
 10
103.8840982813206
 20
-130.9804632919077
 10
103.8840982813206
 20
-130.9804632919077
 10
104.3071560069093
 20
-131.0369628578658
 10
104.3071560069093
 20
-131.0369628578658
 10
104.2733940711539
 20
-130.9839083873929
 10
104.2330864539765
 20
-130.9125949108482
 10
104.2330864539765
 20
-130.8102755749363
 10
104.2330864539765
 20
-130.5904784829774
 10
104.4194661197285
 20
-130.385495301605
 10
104.7326252993377
 20
-130.385495301605
 10
105.0499185935292
 20
-130.385495301605
 10
105.2845295960747
 20
-130.5794541774246
 10
105.2845295960747
 20
-130.8412814343036
 97
        0
 97
        0
 75
     2
 76
     1
 98
        0
  0
ENDBLK
  5
72
330
6F
100
AcDbEntity
  8
0
100
AcDbBlockEnd
  0
BLOCK
  5
8D
330
8B
100
AcDbEntity
  8
0
100
AcDbBlockBegin
  2
block 3
 70
     0
 10
0.0
 20
0.0
 30
0.0
  3
block 3
  1

  0
SPLINE
  5
8F
330
8B
100
AcDbEntity
  8
_U+30EC_U+30A4_U+30E4_U+30FC 1
370
     0
100
AcDbSpline
210
0.0
220
0.0
230
1.0
 70
    11
 71
     3
 72
    44
 73
    40
 74
     0
 42
0.0000000001
 43
0.0000000001
 12
1.0
 22
0.0
 32
0.0
 13
1.0
 23
0.0
 33
0.0
 40
0.0
 40
0.0
 40
0.0
 40
0.0
 40
1.0
 40
1.0
 40
1.0
 40
2.0
 40
2.0
 40
2.0
 40
3.0
 40
3.0
 40
3.0
 40
4.0
 40
4.0
 40
4.0
 40
5.0
 40
5.0
 40
5.0
 40
6.0
 40
6.0
 40
6.0
 40
7.0
 40
7.0
 40
7.0
 40
8.0
 40
8.0
 40
8.0
 40
9.0
 40
9.0
 40
9.0
 40
10.0
 40
10.0
 40
10.0
 40
11.0
 40
11.0
 40
11.0
 40
12.0
 40
12.0
 40
12.0
 40
13.0
 40
13.0
 40
13.0
 40
13.0
 10
76.65216876338904
 20
-126.992765267731
 30
0.0
 10
76.81081541048479
 20
-127.1815565003227
 30
0.0
 10
76.88488496341768
 20
-127.261827225129
 30
0.0
 10
77.02871769992686
 20
-127.303857390049
 30
0.0
 10
77.02871769992686
 20
-127.303857390049
 30
0.0
 10
77.02871769992686
 20
-126.6306857322312
 30
0.0
 10
77.02871769992686
 20
-126.6306857322312
 30
0.0
 10
77.02871769992686
 20
-126.6306857322312
 30
0.0
 10
77.23387313607348
 20
-126.6306857322312
 30
0.0
 10
77.23387313607348
 20
-126.6306857322312
 30
0.0
 10
77.23387313607348
 20
-126.6306857322312
 30
0.0
 10
77.23387313607348
 20
-127.5198648769742
 30
0.0
 10
77.23387313607348
 20
-127.5198648769742
 30
0.0
 10
76.87627222470455
 20
-127.4926486226407
 30
0.0
 10
76.79806855718938
 20
-127.4358045471341
 30
0.0
 10
76.49972328816673
 20
-127.1026638137104
 30
0.0
 10
76.30094127866782
 20
-126.8811441740089
 30
0.0
 10
76.23324515238266
 20
-126.8246446080508
 30
0.0
 10
76.0957858425212
 20
-126.8246446080508
 30
0.0
 10
75.97727455782861
 20
-126.8246446080508
 30
0.0
 10
75.84601641984058
 20
-126.8866563267853
 30
0.0
 10
75.84601641984058
 20
-127.0568440437566
 30
0.0
 10
75.84601641984058
 20
-127.282153288492
 30
0.0
 10
76.07666556257806
 20
-127.289387989011
 30
0.0
 10
76.1931097899795
 20
-127.2931775940448
 30
0.0
 10
76.1931097899795
 20
-127.2931775940448
 30
0.0
 10
76.1931097899795
 20
-127.4871364698643
 30
0.0
 10
76.1931097899795
 20
-127.4871364698643
 30
0.0
 10
76.06615802134804
 20
-127.4795572597968
 30
0.0
 10
75.95402016330317
 20
-127.4706000115351
 30
0.0
 10
75.83550887861057
 20
-127.4010090827331
 30
0.0
 10
75.67479517422366
 20
-127.3059244473402
 30
0.0
 10
75.64086098369395
 20
-127.1446939786305
 30
0.0
 10
75.64086098369395
 20
-127.0440971904612
 30
0.0
 10
75.64086098369395
 20
-126.8043185446878
 30
0.0
 10
75.82500133738056
 20
-126.6251735794548
 30
0.0
 10
76.09785289981235
 20
-126.6251735794548
 30
0.0
 10
76.32626273048442
 20
-126.6251735794548
 30
0.0
 10
76.42582599000814
 20
-126.7257703676241
 30
0.0
 10
76.65216876338904
 20
-126.992765267731
 30
0.0
  0
HATCH
  5
90
330
8B
100
AcDbEntity
  8
_U+30EC_U+30A4_U+30E4_U+30FC 1
 62
   179
420
  2234388
100
AcDbHatch
 10
0.0
 20
0.0
 30
0.0
210
0.0
220
0.0
230
1.0
  2
SOLID
 70
     1
 71
     0
 91
        1
 92
        1
 93
        1
 72
     4
 94
        3
 73
     0
 74
     1
 95
       44
 96
       40
 40
0.0
 40
0.0
 40
0.0
 40
0.0
 40
1.0
 40
1.0
 40
1.0
 40
2.0
 40
2.0
 40
2.0
 40
3.0
 40
3.0
 40
3.0
 40
4.0
 40
4.0
 40
4.0
 40
5.0
 40
5.0
 40
5.0
 40
6.0
 40
6.0
 40
6.0
 40
7.0
 40
7.0
 40
7.0
 40
8.0
 40
8.0
 40
8.0
 40
9.0
 40
9.0
 40
9.0
 40
10.0
 40
10.0
 40
10.0
 40
11.0
 40
11.0
 40
11.0
 40
12.0
 40
12.0
 40
12.0
 40
13.0
 40
13.0
 40
13.0
 40
13.0
 10
76.65216876338904
 20
-126.992765267731
 10
76.81081541048479
 20
-127.1815565003227
 10
76.88488496341768
 20
-127.261827225129
 10
77.02871769992686
 20
-127.303857390049
 10
77.02871769992686
 20
-127.303857390049
 10
77.02871769992686
 20
-126.6306857322312
 10
77.02871769992686
 20
-126.6306857322312
 10
77.02871769992686
 20
-126.6306857322312
 10
77.23387313607348
 20
-126.6306857322312
 10
77.23387313607348
 20
-126.6306857322312
 10
77.23387313607348
 20
-126.6306857322312
 10
77.23387313607348
 20
-127.5198648769742
 10
77.23387313607348
 20
-127.5198648769742
 10
76.87627222470455
 20
-127.4926486226407
 10
76.79806855718938
 20
-127.4358045471341
 10
76.49972328816673
 20
-127.1026638137104
 10
76.30094127866782
 20
-126.8811441740089
 10
76.23324515238266
 20
-126.8246446080508
 10
76.0957858425212
 20
-126.8246446080508
 10
75.97727455782861
 20
-126.8246446080508
 10
75.84601641984058
 20
-126.8866563267853
 10
75.84601641984058
 20
-127.0568440437566
 10
75.84601641984058
 20
-127.282153288492
 10
76.07666556257806
 20
-127.289387989011
 10
76.1931097899795
 20
-127.2931775940448
 10
76.1931097899795
 20
-127.2931775940448
 10
76.1931097899795
 20
-127.4871364698643
 10
76.1931097899795
 20
-127.4871364698643
 10
76.06615802134804
 20
-127.4795572597968
 10
75.95402016330317
 20
-127.4706000115351
 10
75.83550887861057
 20
-127.4010090827331
 10
75.67479517422366
 20
-127.3059244473402
 10
75.64086098369395
 20
-127.1446939786305
 10
75.64086098369395
 20
-127.0440971904612
 10
75.64086098369395
 20
-126.8043185446878
 10
75.82500133738056
 20
-126.6251735794548
 10
76.09785289981235
 20
-126.6251735794548
 10
76.32626273048442
 20
-126.6251735794548
 10
76.42582599000814
 20
-126.7257703676241
 10
76.65216876338904
 20
-126.992765267731
 97
        0
 97
        0
 75
     2
 76
     1
 98
        0
  0
SPLINE
  5
91
330
8B
100
AcDbEntity
  8
_U+30EC_U+30A4_U+30E4_U+30FC 1
370
     0
100
AcDbSpline
210
0.0
220
0.0
230
1.0
 70
    11
 71
     3
 72
    29
 73
    25
 74
     0
 42
0.0000000001
 43
0.0000000001
 12
1.0
 22
0.0
 32
0.0
 13
1.0
 23
0.0
 33
0.0
 40
0.0
 40
0.0
 40
0.0
 40
0.0
 40
1.0
 40
1.0
 40
1.0
 40
2.0
 40
2.0
 40
2.0
 40
3.0
 40
3.0
 40
3.0
 40
4.0
 40
4.0
 40
4.0
 40
5.0
 40
5.0
 40
5.0
 40
6.0
 40
6.0
 40
6.0
 40
7.0
 40
7.0
 40
7.0
 40
8.0
 40
8.0
 40
8.0
 40
8.0
 10
77.05610620903458
 20
-125.7118787663151
 30
0.0
 10
77.26556801453778
 20
-125.8052408539654
 30
0.0
 10
77.28468829448092
 20
-125.9554470171223
 30
0.0
 10
77.28468829448092
 20
-126.0560438052916
 30
0.0
 10
77.28468829448092
 20
-126.1952256628956
 30
0.0
 10
77.23817950543004
 20
-126.3178710621705
 30
0.0
 10
77.05610620903458
 20
-126.400208844268
 30
0.0
 10
76.86163056889224
 20
-126.4897813268845
 30
0.0
 10
76.62460799950705
 20
-126.5063177852137
 30
0.0
 10
76.46165498305473
 20
-126.5063177852137
 30
0.0
 10
76.31782224654555
 20
-126.5063177852137
 30
0.0
 10
76.06615802134804
 20
-126.4915038746271
 30
0.0
 10
75.86720375707488
 20
-126.400208844268
 30
0.0
 10
75.66411537821939
 20
-126.3068467566177
 30
0.0
 10
75.64086098369395
 20
-126.1676648990136
 30
0.0
 10
75.64086098369395
 20
-126.0560438052916
 30
0.0
 10
75.64086098369395
 20
-125.9189290049786
 30
0.0
 10
75.68530271545367
 20
-125.7942165484126
 30
0.0
 10
75.86720375707488
 20
-125.7118787663151
 30
0.0
 10
76.05978459470033
 20
-125.6260958887324
 30
0.0
 10
76.2881944253724
 20
-125.6057698253694
 30
0.0
 10
76.46165498305473
 20
-125.6057698253694
 30
0.0
 10
76.6330484834459
 20
-125.6057698253694
 30
0.0
 10
76.86369762618338
 20
-125.6240288314412
 30
0.0
 10
77.05610620903458
 20
-125.7118787663151
 30
0.0
  0
SPLINE
  5
92
330
8B
100
AcDbEntity
  8
_U+30EC_U+30A4_U+30E4_U+30FC 1
370
     0
100
AcDbSpline
210
0.0
220
0.0
230
1.0
 70
    11
 71
     3
 72
    17
 73
    13
 74
     0
 42
0.0000000001
 43
0.0000000001
 12
1.0
 22
0.0
 32
0.0
 13
1.0
 23
0.0
 33
0.0
 40
0.0
 40
0.0
 40
0.0
 40
0.0
 40
1.0
 40
1.0
 40
1.0
 40
2.0
 40
2.0
 40
2.0
 40
3.0
 40
3.0
 40
3.0
 40
4.0
 40
4.0
 40
4.0
 40
4.0
 10
75.83344182131943
 20
-126.0560438052916
 30
0.0
 10
75.83344182131943
 20
-126.2720512922167
 30
0.0
 10
76.11680092498122
 20
-126.3123589093941
 30
0.0
 10
76.46165498305473
 20
-126.3123589093941
 30
0.0
 10
76.78118758931166
 20
-126.3123589093941
 30
0.0
 10
77.0900403995643
 20
-126.2813530500269
 30
0.0
 10
77.0900403995643
 20
-126.0560438052916
 30
0.0
 10
77.0900403995643
 20
-125.8421033756575
 30
0.0
 10
76.8085760984194
 20
-125.799728701189
 30
0.0
 10
76.46165498305473
 20
-125.799728701189
 30
0.0
 10
76.14229463157207
 20
-125.799728701189
 30
0.0
 10
75.83344182131943
 20
-125.8328016178474
 30
0.0
 10
75.83344182131943
 20
-126.0560438052916
 30
0.0
  0
HATCH
  5
93
330
8B
100
AcDbEntity
  8
_U+30EC_U+30A4_U+30E4_U+30FC 1
 62
   179
420
  2234388
100
AcDbHatch
 10
0.0
 20
0.0
 30
0.0
210
0.0
220
0.0
230
1.0
  2
SOLID
 70
     1
 71
     0
 91
        2
 92
        1
 93
        1
 72
     4
 94
        3
 73
     0
 74
     1
 95
       29
 96
       25
 40
0.0
 40
0.0
 40
0.0
 40
0.0
 40
1.0
 40
1.0
 40
1.0
 40
2.0
 40
2.0
 40
2.0
 40
3.0
 40
3.0
 40
3.0
 40
4.0
 40
4.0
 40
4.0
 40
5.0
 40
5.0
 40
5.0
 40
6.0
 40
6.0
 40
6.0
 40
7.0
 40
7.0
 40
7.0
 40
8.0
 40
8.0
 40
8.0
 40
8.0
 10
77.05610620903458
 20
-125.7118787663151
 10
77.26556801453778
 20
-125.8052408539654
 10
77.28468829448092
 20
-125.9554470171223
 10
77.28468829448092
 20
-126.0560438052916
 10
77.28468829448092
 20
-126.1952256628956
 10
77.23817950543004
 20
-126.3178710621705
 10
77.05610620903458
 20
-126.400208844268
 10
76.86163056889224
 20
-126.4897813268845
 10
76.62460799950705
 20
-126.5063177852137
 10
76.46165498305473
 20
-126.5063177852137
 10
76.31782224654555
 20
-126.5063177852137
 10
76.06615802134804
 20
-126.4915038746271
 10
75.86720375707488
 20
-126.400208844268
 10
75.66411537821939
 20
-126.3068467566177
 10
75.64086098369395
 20
-126.1676648990136
 10
75.64086098369395
 20
-126.0560438052916
 10
75.64086098369395
 20
-125.9189290049786
 10
75.68530271545367
 20
-125.7942165484126
 10
75.86720375707488
 20
-125.7118787663151
 10
76.05978459470033
 20
-125.6260958887324
 10
76.2881944253724
 20
-125.6057698253694
 10
76.46165498305473
 20
-125.6057698253694
 10
76.6330484834459
 20
-125.6057698253694
 10
76.86369762618338
 20
-125.6240288314412
 10
77.05610620903458
 20
-125.7118787663151
 97
        0
 97
        0
 92
        1
 93
        1
 72
     4
 94
        3
 73
     0
 74
     1
 95
       17
 96
       13
 40
0.0
 40
0.0
 40
0.0
 40
0.0
 40
1.0
 40
1.0
 40
1.0
 40
2.0
 40
2.0
 40
2.0
 40
3.0
 40
3.0
 40
3.0
 40
4.0
 40
4.0
 40
4.0
 40
4.0
 10
75.83344182131943
 20
-126.0560438052916
 10
75.83344182131943
 20
-126.2720512922167
 10
76.11680092498122
 20
-126.3123589093941
 10
76.46165498305473
 20
-126.3123589093941
 10
76.78118758931166
 20
-126.3123589093941
 10
77.0900403995643
 20
-126.2813530500269
 10
77.0900403995643
 20
-126.0560438052916
 10
77.0900403995643
 20
-125.8421033756575
 10
76.8085760984194
 20
-125.799728701189
 10
76.46165498305473
 20
-125.799728701189
 10
76.14229463157207
 20
-125.799728701189
 10
75.83344182131943
 20
-125.8328016178474
 10
75.83344182131943
 20
-126.0560438052916
 97
        0
 97
        0
 75
     2
 76
     1
 98
        0
  0
ENDBLK
  5
8E
330
8B
100
AcDbEntity
  8
0
100
AcDbBlockEnd
  0
BLOCK
  5
A2
330
A0
100
AcDbEntity
  8
0
100
AcDbBlockBegin
  2
block 4
 70
     0
 10
0.0
 20
0.0
 30
0.0
  3
block 4
  1

  0
SPLINE
  5
A4
330
A0
100
AcDbEntity
  8
_U+30EC_U+30A4_U+30E4_U+30FC 1
370
     0
100
AcDbSpline
210
0.0
220
0.0
230
1.0
 70
    11
 71
     3
 72
    44
 73
    40
 74
     0
 42
0.0000000001
 43
0.0000000001
 12
1.0
 22
0.0
 32
0.0
 13
1.0
 23
0.0
 33
0.0
 40
0.0
 40
0.0
 40
0.0
 40
0.0
 40
1.0
 40
1.0
 40
1.0
 40
2.0
 40
2.0
 40
2.0
 40
3.0
 40
3.0
 40
3.0
 40
4.0
 40
4.0
 40
4.0
 40
5.0
 40
5.0
 40
5.0
 40
6.0
 40
6.0
 40
6.0
 40
7.0
 40
7.0
 40
7.0
 40
8.0
 40
8.0
 40
8.0
 40
9.0
 40
9.0
 40
9.0
 40
10.0
 40
10.0
 40
10.0
 40
11.0
 40
11.0
 40
11.0
 40
12.0
 40
12.0
 40
12.0
 40
13.0
 40
13.0
 40
13.0
 40
13.0
 10
91.16704506184367
 20
-139.1515407638232
 30
0.0
 10
90.97825382925197
 20
-139.3103596656933
 30
0.0
 10
90.89798310444564
 20
-139.3844292186261
 30
0.0
 10
90.8559529395256
 20
-139.5280897003611
 30
0.0
 10
90.8559529395256
 20
-139.5280897003611
 30
0.0
 10
91.52895234256916
 20
-139.5280897003611
 30
0.0
 10
91.52895234256916
 20
-139.5280897003611
 30
0.0
 10
91.52895234256916
 20
-139.5280897003611
 30
0.0
 10
91.52895234256916
 20
-139.7334173912819
 30
0.0
 10
91.52895234256916
 20
-139.7334173912819
 30
0.0
 10
91.52895234256916
 20
-139.7334173912819
 30
0.0
 10
90.63994545260043
 20
-139.7334173912819
 30
0.0
 10
90.63994545260043
 20
-139.7334173912819
 30
0.0
 10
90.66716170693391
 20
-139.375816479913
 30
0.0
 10
90.72400578244053
 20
-139.2976128123978
 30
0.0
 10
91.05714651586419
 20
-138.9992675433752
 30
0.0
 10
91.27866615556576
 20
-138.8004855338763
 30
0.0
 10
91.33516572152385
 20
-138.7326171528169
 30
0.0
 10
91.33516572152385
 20
-138.5951578429554
 30
0.0
 10
91.33516572152385
 20
-138.4766465582628
 30
0.0
 10
91.27315400278935
 20
-138.3457329298233
 30
0.0
 10
91.10296628581801
 20
-138.3457329298233
 30
0.0
 10
90.87765704108267
 20
-138.3457329298233
 30
0.0
 10
90.87042234056365
 20
-138.5762098177865
 30
0.0
 10
90.86663273552988
 20
-138.692654045188
 30
0.0
 10
90.86663273552988
 20
-138.692654045188
 30
0.0
 10
90.6726738597103
 20
-138.692654045188
 30
0.0
 10
90.6726738597103
 20
-138.692654045188
 30
0.0
 10
90.68025306977786
 20
-138.5655300217822
 30
0.0
 10
90.68921031803951
 20
-138.4535644185116
 30
0.0
 10
90.75880124684156
 20
-138.335053133819
 30
0.0
 10
90.85388588223445
 20
-138.1741671746579
 30
0.0
 10
91.01511635094414
 20
-138.1404052389024
 30
0.0
 10
91.11571313911344
 20
-138.1404052389024
 30
0.0
 10
91.35549178488682
 20
-138.1404052389024
 30
0.0
 10
91.53446449534556
 20
-138.3243733378147
 30
0.0
 10
91.53446449534556
 20
-138.5972249002465
 30
0.0
 10
91.53446449534556
 20
-138.8259792404671
 30
0.0
 10
91.43386770717626
 20
-138.9251979904423
 30
0.0
 10
91.16704506184367
 20
-139.1515407638232
 30
0.0
  0
HATCH
  5
A5
330
A0
100
AcDbEntity
  8
_U+30EC_U+30A4_U+30E4_U+30FC 1
 62
   179
420
  2234388
100
AcDbHatch
 10
0.0
 20
0.0
 30
0.0
210
0.0
220
0.0
230
1.0
  2
SOLID
 70
     1
 71
     0
 91
        1
 92
        1
 93
        1
 72
     4
 94
        3
 73
     0
 74
     1
 95
       44
 96
       40
 40
0.0
 40
0.0
 40
0.0
 40
0.0
 40
1.0
 40
1.0
 40
1.0
 40
2.0
 40
2.0
 40
2.0
 40
3.0
 40
3.0
 40
3.0
 40
4.0
 40
4.0
 40
4.0
 40
5.0
 40
5.0
 40
5.0
 40
6.0
 40
6.0
 40
6.0
 40
7.0
 40
7.0
 40
7.0
 40
8.0
 40
8.0
 40
8.0
 40
9.0
 40
9.0
 40
9.0
 40
10.0
 40
10.0
 40
10.0
 40
11.0
 40
11.0
 40
11.0
 40
12.0
 40
12.0
 40
12.0
 40
13.0
 40
13.0
 40
13.0
 40
13.0
 10
91.16704506184367
 20
-139.1515407638232
 10
90.97825382925197
 20
-139.3103596656933
 10
90.89798310444564
 20
-139.3844292186261
 10
90.8559529395256
 20
-139.5280897003611
 10
90.8559529395256
 20
-139.5280897003611
 10
91.52895234256916
 20
-139.5280897003611
 10
91.52895234256916
 20
-139.5280897003611
 10
91.52895234256916
 20
-139.5280897003611
 10
91.52895234256916
 20
-139.7334173912819
 10
91.52895234256916
 20
-139.7334173912819
 10
91.52895234256916
 20
-139.7334173912819
 10
90.63994545260043
 20
-139.7334173912819
 10
90.63994545260043
 20
-139.7334173912819
 10
90.66716170693391
 20
-139.375816479913
 10
90.72400578244053
 20
-139.2976128123978
 10
91.05714651586419
 20
-138.9992675433752
 10
91.27866615556576
 20
-138.8004855338763
 10
91.33516572152385
 20
-138.7326171528169
 10
91.33516572152385
 20
-138.5951578429554
 10
91.33516572152385
 20
-138.4766465582628
 10
91.27315400278935
 20
-138.3457329298233
 10
91.10296628581801
 20
-138.3457329298233
 10
90.87765704108267
 20
-138.3457329298233
 10
90.87042234056365
 20
-138.5762098177865
 10
90.86663273552988
 20
-138.692654045188
 10
90.86663273552988
 20
-138.692654045188
 10
90.6726738597103
 20
-138.692654045188
 10
90.6726738597103
 20
-138.692654045188
 10
90.68025306977786
 20
-138.5655300217822
 10
90.68921031803951
 20
-138.4535644185116
 10
90.75880124684156
 20
-138.335053133819
 10
90.85388588223445
 20
-138.1741671746579
 10
91.01511635094414
 20
-138.1404052389024
 10
91.11571313911344
 20
-138.1404052389024
 10
91.35549178488682
 20
-138.1404052389024
 10
91.53446449534556
 20
-138.3243733378147
 10
91.53446449534556
 20
-138.5972249002465
 10
91.53446449534556
 20
-138.8259792404671
 10
91.43386770717626
 20
-138.9251979904423
 10
91.16704506184367
 20
-139.1515407638232
 97
        0
 97
        0
 75
     2
 76
     1
 98
        0
  0
SPLINE
  5
A6
330
A0
100
AcDbEntity
  8
_U+30EC_U+30A4_U+30E4_U+30FC 1
370
     0
100
AcDbSpline
210
0.0
220
0.0
230
1.0
 70
    11
 71
     3
 72
    29
 73
    25
 74
     0
 42
0.0000000001
 43
0.0000000001
 12
1.0
 22
0.0
 32
0.0
 13
1.0
 23
0.0
 33
0.0
 40
0.0
 40
0.0
 40
0.0
 40
0.0
 40
1.0
 40
1.0
 40
1.0
 40
2.0
 40
2.0
 40
2.0
 40
3.0
 40
3.0
 40
3.0
 40
4.0
 40
4.0
 40
4.0
 40
5.0
 40
5.0
 40
5.0
 40
6.0
 40
6.0
 40
6.0
 40
7.0
 40
7.0
 40
7.0
 40
8.0
 40
8.0
 40
8.0
 40
8.0
 10
92.44775930848529
 20
-139.555650464243
 30
0.0
 10
92.35439722083501
 20
-139.7651122697462
 30
0.0
 10
92.20419105767812
 20
-139.7840602949151
 30
0.0
 10
92.10359426950883
 20
-139.7840602949151
 30
0.0
 10
91.96441241190473
 20
-139.7840602949151
 30
0.0
 10
91.84176701262984
 20
-139.7375515058642
 30
0.0
 10
91.75942923053238
 20
-139.555650464243
 30
0.0
 10
91.66985674791587
 20
-139.3610025693264
 30
0.0
 10
91.65332028958667
 20
-139.1239799999412
 30
0.0
 10
91.65332028958667
 20
-138.9613714930374
 30
0.0
 10
91.65332028958667
 20
-138.817366501754
 30
0.0
 10
91.66813420017324
 20
-138.5655300217822
 30
0.0
 10
91.75942923053238
 20
-138.3667480122833
 30
0.0
 10
91.85279131818264
 20
-138.1638318882021
 30
0.0
 10
91.99197317578674
 20
-138.1404052389024
 30
0.0
 10
92.10359426950883
 20
-138.1404052389024
 30
0.0
 10
92.24070906982178
 20
-138.1404052389024
 30
0.0
 10
92.36542152638782
 20
-138.1848469706621
 30
0.0
 10
92.44775930848529
 20
-138.3667480122833
 30
0.0
 10
92.533542186068
 20
-138.5593288499088
 30
0.0
 10
92.55386824943098
 20
-138.7877386805808
 30
0.0
 10
92.55386824943098
 20
-138.9613714930374
 30
0.0
 10
92.55386824943098
 20
-139.1325927386544
 30
0.0
 10
92.53560924335916
 20
-139.3630696266176
 30
0.0
 10
92.44775930848529
 20
-139.555650464243
 30
0.0
  0
SPLINE
  5
A7
330
A0
100
AcDbEntity
  8
_U+30EC_U+30A4_U+30E4_U+30FC 1
370
     0
100
AcDbSpline
210
0.0
220
0.0
230
1.0
 70
    11
 71
     3
 72
    17
 73
    13
 74
     0
 42
0.0000000001
 43
0.0000000001
 12
1.0
 22
0.0
 32
0.0
 13
1.0
 23
0.0
 33
0.0
 40
0.0
 40
0.0
 40
0.0
 40
0.0
 40
1.0
 40
1.0
 40
1.0
 40
2.0
 40
2.0
 40
2.0
 40
3.0
 40
3.0
 40
3.0
 40
4.0
 40
4.0
 40
4.0
 40
4.0
 10
92.10359426950883
 20
-138.3329860765279
 30
0.0
 10
91.88758678258367
 20
-138.3329860765279
 30
0.0
 10
91.84727916540623
 20
-138.6165174349639
 30
0.0
 10
91.84727916540623
 20
-138.9613714930374
 30
0.0
 10
91.84727916540623
 20
-139.2807318445201
 30
0.0
 10
91.87828502477349
 20
-139.5894123999985
 30
0.0
 10
92.10359426950883
 20
-139.5894123999985
 30
0.0
 10
92.31753469914284
 20
-139.5894123999985
 30
0.0
 10
92.35990937361142
 20
-139.3082926084021
 30
0.0
 10
92.35990937361142
 20
-138.9613714930374
 30
0.0
 10
92.35990937361142
 20
-138.6416666320063
 30
0.0
 10
92.32683645695302
 20
-138.3329860765279
 30
0.0
 10
92.10359426950883
 20
-138.3329860765279
 30
0.0
  0
HATCH
  5
A8
330
A0
100
AcDbEntity
  8
_U+30EC_U+30A4_U+30E4_U+30FC 1
 62
   179
420
  2234388
100
AcDbHatch
 10
0.0
 20
0.0
 30
0.0
210
0.0
220
0.0
230
1.0
  2
SOLID
 70
     1
 71
     0
 91
        2
 92
        1
 93
        1
 72
     4
 94
        3
 73
     0
 74
     1
 95
       29
 96
       25
 40
0.0
 40
0.0
 40
0.0
 40
0.0
 40
1.0
 40
1.0
 40
1.0
 40
2.0
 40
2.0
 40
2.0
 40
3.0
 40
3.0
 40
3.0
 40
4.0
 40
4.0
 40
4.0
 40
5.0
 40
5.0
 40
5.0
 40
6.0
 40
6.0
 40
6.0
 40
7.0
 40
7.0
 40
7.0
 40
8.0
 40
8.0
 40
8.0
 40
8.0
 10
92.44775930848529
 20
-139.555650464243
 10
92.35439722083501
 20
-139.7651122697462
 10
92.20419105767812
 20
-139.7840602949151
 10
92.10359426950883
 20
-139.7840602949151
 10
91.96441241190473
 20
-139.7840602949151
 10
91.84176701262984
 20
-139.7375515058642
 10
91.75942923053238
 20
-139.555650464243
 10
91.66985674791587
 20
-139.3610025693264
 10
91.65332028958667
 20
-139.1239799999412
 10
91.65332028958667
 20
-138.9613714930374
 10
91.65332028958667
 20
-138.817366501754
 10
91.66813420017324
 20
-138.5655300217822
 10
91.75942923053238
 20
-138.3667480122833
 10
91.85279131818264
 20
-138.1638318882021
 10
91.99197317578674
 20
-138.1404052389024
 10
92.10359426950883
 20
-138.1404052389024
 10
92.24070906982178
 20
-138.1404052389024
 10
92.36542152638782
 20
-138.1848469706621
 10
92.44775930848529
 20
-138.3667480122833
 10
92.533542186068
 20
-138.5593288499088
 10
92.55386824943098
 20
-138.7877386805808
 10
92.55386824943098
 20
-138.9613714930374
 10
92.55386824943098
 20
-139.1325927386544
 10
92.53560924335916
 20
-139.3630696266176
 10
92.44775930848529
 20
-139.555650464243
 97
        0
 97
        0
 92
        1
 93
        1
 72
     4
 94
        3
 73
     0
 74
     1
 95
       17
 96
       13
 40
0.0
 40
0.0
 40
0.0
 40
0.0
 40
1.0
 40
1.0
 40
1.0
 40
2.0
 40
2.0
 40
2.0
 40
3.0
 40
3.0
 40
3.0
 40
4.0
 40
4.0
 40
4.0
 40
4.0
 10
92.10359426950883
 20
-138.3329860765279
 10
91.88758678258367
 20
-138.3329860765279
 10
91.84727916540623
 20
-138.6165174349639
 10
91.84727916540623
 20
-138.9613714930374
 10
91.84727916540623
 20
-139.2807318445201
 10
91.87828502477349
 20
-139.5894123999985
 10
92.10359426950883
 20
-139.5894123999985
 10
92.31753469914284
 20
-139.5894123999985
 10
92.35990937361142
 20
-139.3082926084021
 10
92.35990937361142
 20
-138.9613714930374
 10
92.35990937361142
 20
-138.6416666320063
 10
92.32683645695302
 20
-138.3329860765279
 10
92.10359426950883
 20
-138.3329860765279
 97
        0
 97
        0
 75
     2
 76
     1
 98
        0
  0
ENDBLK
  5
A3
330
A0
100
AcDbEntity
  8
0
100
AcDbBlockEnd
  0
BLOCK
  5
AB
330
A9
100
AcDbEntity
  8
0
100
AcDbBlockBegin
  2
block 5
 70
     0
 10
0.0
 20
0.0
 30
0.0
  3
block 5
  1

  0
SPLINE
  5
AD
330
A9
100
AcDbEntity
  8
_U+30EC_U+30A4_U+30E4_U+30FC 1
370
     0
100
AcDbSpline
210
0.0
220
0.0
230
1.0
 70
    11
 71
     3
 72
    17
 73
    13
 74
     0
 42
0.0000000001
 43
0.0000000001
 12
1.0
 22
0.0
 32
0.0
 13
1.0
 23
0.0
 33
0.0
 40
0.0
 40
0.0
 40
0.0
 40
0.0
 40
1.0
 40
1.0
 40
1.0
 40
2.0
 40
2.0
 40
2.0
 40
3.0
 40
3.0
 40
3.0
 40
4.0
 40
4.0
 40
4.0
 40
4.0
 10
88.88139646215465
 20
-121.0654784853586
 30
0.0
 10
88.7888956483757
 20
-120.9597140539615
 30
0.0
 10
88.71844344570233
 20
-120.9216457488495
 30
0.0
 10
88.63696693747617
 20
-120.8899508703852
 30
0.0
 10
88.63696693747617
 20
-120.8899508703852
 30
0.0
 10
88.73325735628892
 20
-120.7249307966417
 30
0.0
 10
88.73325735628892
 20
-120.7249307966417
 30
0.0
 10
88.81852346954885
 20
-120.7673054711103
 30
0.0
 10
88.92411564617176
 20
-120.8455091386254
 30
0.0
 10
88.9702799256741
 20
-120.9004584116152
 30
0.0
 10
88.9702799256741
 20
-120.9004584116152
 30
0.0
 10
88.88139646215465
 20
-121.0654784853586
 30
0.0
 10
88.88139646215465
 20
-121.0654784853586
 30
0.0
  0
SPLINE
  5
AE
330
A9
100
AcDbEntity
  8
_U+30EC_U+30A4_U+30E4_U+30FC 1
370
     0
100
AcDbSpline
210
0.0
220
0.0
230
1.0
 70
    11
 71
     3
 72
   182
 73
   178
 74
     0
 42
0.0000000001
 43
0.0000000001
 12
1.0
 22
0.0
 32
0.0
 13
1.0
 23
0.0
 33
0.0
 40
0.0
 40
0.0
 40
0.0
 40
0.0
 40
1.0
 40
1.0
 40
1.0
 40
2.0
 40
2.0
 40
2.0
 40
3.0
 40
3.0
 40
3.0
 40
4.0
 40
4.0
 40
4.0
 40
5.0
 40
5.0
 40
5.0
 40
6.0
 40
6.0
 40
6.0
 40
7.0
 40
7.0
 40
7.0
 40
8.0
 40
8.0
 40
8.0
 40
9.0
 40
9.0
 40
9.0
 40
10.0
 40
10.0
 40
10.0
 40
11.0
 40
11.0
 40
11.0
 40
12.0
 40
12.0
 40
12.0
 40
13.0
 40
13.0
 40
13.0
 40
14.0
 40
14.0
 40
14.0
 40
15.0
 40
15.0
 40
15.0
 40
16.0
 40
16.0
 40
16.0
 40
17.0
 40
17.0
 40
17.0
 40
18.0
 40
18.0
 40
18.0
 40
19.0
 40
19.0
 40
19.0
 40
20.0
 40
20.0
 40
20.0
 40
21.0
 40
21.0
 40
21.0
 40
22.0
 40
22.0
 40
22.0
 40
23.0
 40
23.0
 40
23.0
 40
24.0
 40
24.0
 40
24.0
 40
25.0
 40
25.0
 40
25.0
 40
26.0
 40
26.0
 40
26.0
 40
27.0
 40
27.0
 40
27.0
 40
28.0
 40
28.0
 40
28.0
 40
29.0
 40
29.0
 40
29.0
 40
30.0
 40
30.0
 40
30.0
 40
31.0
 40
31.0
 40
31.0
 40
32.0
 40
32.0
 40
32.0
 40
33.0
 40
33.0
 40
33.0
 40
34.0
 40
34.0
 40
34.0
 40
35.0
 40
35.0
 40
35.0
 40
36.0
 40
36.0
 40
36.0
 40
37.0
 40
37.0
 40
37.0
 40
38.0
 40
38.0
 40
38.0
 40
39.0
 40
39.0
 40
39.0
 40
40.0
 40
40.0
 40
40.0
 40
41.0
 40
41.0
 40
41.0
 40
42.0
 40
42.0
 40
42.0
 40
43.0
 40
43.0
 40
43.0
 40
44.0
 40
44.0
 40
44.0
 40
45.0
 40
45.0
 40
45.0
 40
46.0
 40
46.0
 40
46.0
 40
47.0
 40
47.0
 40
47.0
 40
48.0
 40
48.0
 40
48.0
 40
49.0
 40
49.0
 40
49.0
 40
50.0
 40
50.0
 40
50.0
 40
51.0
 40
51.0
 40
51.0
 40
52.0
 40
52.0
 40
52.0
 40
53.0
 40
53.0
 40
53.0
 40
54.0
 40
54.0
 40
54.0
 40
55.0
 40
55.0
 40
55.0
 40
56.0
 40
56.0
 40
56.0
 40
57.0
 40
57.0
 40
57.0
 40
58.0
 40
58.0
 40
58.0
 40
59.0
 40
59.0
 40
59.0
 40
59.0
 10
89.79624156826274
 20
-122.2438733960883
 30
0.0
 10
89.79624156826274
 20
-122.2438733960883
 30
0.0
 10
89.23882511874933
 20
-122.2438733960883
 30
0.0
 10
89.23882511874933
 20
-122.2438733960883
 30
0.0
 10
89.05175643390027
 20
-122.2438733960883
 30
0.0
 10
88.86296520130857
 20
-122.2481797654449
 30
0.0
 10
88.6758965164595
 20
-122.2607543639661
 30
0.0
 10
88.6758965164595
 20
-122.2607543639661
 30
0.0
 10
88.6758965164595
 20
-122.0535318705283
 30
0.0
 10
88.6758965164595
 20
-122.0535318705283
 30
0.0
 10
88.87037215660186
 20
-122.0661064690494
 30
0.0
 10
89.1535590054894
 20
-122.070412838406
 30
0.0
 10
89.23882511874933
 20
-122.070412838406
 30
0.0
 10
89.23882511874933
 20
-122.070412838406
 30
0.0
 10
89.43140595637479
 20
-122.070412838406
 30
0.0
 10
89.43140595637479
 20
-122.070412838406
 30
0.0
 10
89.43140595637479
 20
-122.070412838406
 30
0.0
 10
89.43140595637479
 20
-121.928647159188
 30
0.0
 10
89.43140595637479
 20
-121.928647159188
 30
0.0
 10
89.43140595637479
 20
-121.928647159188
 30
0.0
 10
89.29067380580234
 20
-121.928647159188
 30
0.0
 10
89.29067380580234
 20
-121.928647159188
 30
0.0
 10
89.14632430497036
 20
-121.928647159188
 30
0.0
 10
89.00180254936414
 20
-121.9329535285445
 30
0.0
 10
88.85728079375791
 20
-121.9477674391311
 30
0.0
 10
88.85728079375791
 20
-121.9477674391311
 30
0.0
 10
88.85728079375791
 20
-121.7383056336279
 30
0.0
 10
88.85728079375791
 20
-121.7383056336279
 30
0.0
 10
89.00731470214053
 20
-121.7531195442145
 30
0.0
 10
89.22401120816275
 20
-121.7572536587968
 30
0.0
 10
89.29067380580234
 20
-121.7572536587968
 30
0.0
 10
89.29067380580234
 20
-121.7572536587968
 30
0.0
 10
89.43140595637479
 20
-121.7572536587968
 30
0.0
 10
89.43140595637479
 20
-121.7572536587968
 30
0.0
 10
89.42778860611529
 20
-121.6854234179293
 30
0.0
 10
89.42778860611529
 20
-121.6790499912816
 30
0.0
 10
89.42210419856461
 20
-121.626167775583
 30
0.0
 10
89.42210419856461
 20
-121.626167775583
 30
0.0
 10
89.54440508829099
 20
-121.6409816861696
 30
0.0
 10
89.54440508829099
 20
-121.6409816861696
 30
0.0
 10
89.54440508829099
 20
-121.6409816861696
 30
0.0
 10
89.45741642728842
 20
-121.4695881857784
 30
0.0
 10
89.45741642728842
 20
-121.4695881857784
 30
0.0
 10
89.49806855401438
 20
-121.4759616124261
 30
0.0
 10
89.56283634913707
 20
-121.484402096365
 30
0.0
 10
89.57765025972364
 20
-121.484402096365
 30
0.0
 10
89.62209199148337
 20
-121.484402096365
 30
0.0
 10
89.63690590206994
 20
-121.4632147591307
 30
0.0
 10
89.63690590206994
 20
-121.4061984288498
 30
0.0
 10
89.63690590206994
 20
-121.4061984288498
 30
0.0
 10
89.63690590206994
 20
-121.2685668642141
 30
0.0
 10
89.63690590206994
 20
-121.2685668642141
 30
0.0
 10
89.63690590206994
 20
-121.2685668642141
 30
0.0
 10
89.54440508829099
 20
-121.2685668642141
 30
0.0
 10
89.54440508829099
 20
-121.2685668642141
 30
0.0
 10
89.42778860611529
 20
-121.2685668642141
 30
0.0
 10
89.29067380580234
 20
-121.2685668642141
 30
0.0
 10
89.18318682666253
 20
-121.2813137175095
 30
0.0
 10
89.18318682666253
 20
-121.2813137175095
 30
0.0
 10
89.18318682666253
 20
-121.0909721919495
 30
0.0
 10
89.18318682666253
 20
-121.0909721919495
 30
0.0
 10
89.32960338478566
 20
-121.1078531598272
 30
0.0
 10
89.5314859802213
 20
-121.1099202171184
 30
0.0
 10
89.54440508829099
 20
-121.1099202171184
 30
0.0
 10
89.54440508829099
 20
-121.1099202171184
 30
0.0
 10
89.63690590206994
 20
-121.1099202171184
 30
0.0
 10
89.63690590206994
 20
-121.1099202171184
 30
0.0
 10
89.63690590206994
 20
-121.1099202171184
 30
0.0
 10
89.63690590206994
 20
-120.9788343339046
 30
0.0
 10
89.63690590206994
 20
-120.9788343339046
 30
0.0
 10
89.63690590206994
 20
-120.9788343339046
 30
0.0
 10
89.60366073063729
 20
-120.9788343339046
 30
0.0
 10
89.60366073063729
 20
-120.9788343339046
 30
0.0
 10
89.56473115165396
 20
-120.9788343339046
 30
0.0
 10
89.45552162477154
 20
-120.9829684484869
 30
0.0
 10
89.37766246680489
 20
-120.9914089324258
 30
0.0
 10
89.37766246680489
 20
-120.9914089324258
 30
0.0
 10
89.37766246680489
 20
-120.9111382076194
 30
0.0
 10
89.37766246680489
 20
-120.9111382076194
 30
0.0
 10
89.33132593252829
 20
-120.9492065127315
 30
0.0
 10
89.30927732142268
 20
-120.964020423318
 30
0.0
 10
89.27207029018199
 20
-120.9872748178435
 30
0.0
 10
89.27207029018199
 20
-120.9872748178435
 30
0.0
 10
89.10739472598705
 20
-120.8582559919209
 30
0.0
 10
89.10739472598705
 20
-120.8582559919209
 30
0.0
 10
89.17595212614351
 20
-120.8243218013912
 30
0.0
 10
89.3128946716822
 20
-120.7609320444625
 30
0.0
 10
89.44983721722087
 20
-120.6170993079534
 30
0.0
 10
89.52218422241113
 20
-120.5387233856639
 30
0.0
 10
89.59074162256759
 20
-120.454146291501
 30
0.0
 10
89.63690590206994
 20
-120.3526882294604
 30
0.0
 10
89.63690590206994
 20
-120.3526882294604
 30
0.0
 10
89.82207978440212
 20
-120.4140109290979
 30
0.0
 10
89.82207978440212
 20
-120.4140109290979
 30
0.0
 10
89.83878849750559
 20
-120.4202121009713
 30
0.0
 10
89.84809025531575
 20
-120.4288248396845
 30
0.0
 10
89.84809025531575
 20
-120.4413994382056
 30
0.0
 10
89.84809025531575
 20
-120.4584526608576
 30
0.0
 10
89.8368936949887
 20
-120.4646538327311
 30
0.0
 10
89.81467282910883
 20
-120.4774006860265
 30
0.0
 10
89.8851250317822
 20
-120.5747246334848
 30
0.0
 10
90.02757973009727
 20
-120.6720485809431
 30
0.0
 10
90.05720755127042
 20
-120.690996606112
 30
0.0
 10
90.18881019880696
 20
-120.7798800696314
 30
0.0
 10
90.28871796787921
 20
-120.8074408335134
 30
0.0
 10
90.35727536803569
 20
-120.8263888586823
 30
0.0
 10
90.35727536803569
 20
-120.8263888586823
 30
0.0
 10
90.25357799392967
 20
-120.9957153017823
 30
0.0
 10
90.25357799392967
 20
-120.9957153017823
 30
0.0
 10
90.1795084409968
 20
-120.9660874806092
 30
0.0
 10
90.13506670923707
 20
-120.9471394554403
 30
0.0
 10
90.03136933513105
 20
-120.8815103864463
 30
0.0
 10
90.03136933513105
 20
-120.8815103864463
 30
0.0
 10
90.03136933513105
 20
-120.9914089324258
 30
0.0
 10
90.03136933513105
 20
-120.9914089324258
 30
0.0
 10
89.95919458471506
 20
-120.9829684484869
 30
0.0
 10
89.84809025531575
 20
-120.9788343339046
 30
0.0
 10
89.80175372103915
 20
-120.9788343339046
 30
0.0
 10
89.80175372103915
 20
-120.9788343339046
 30
0.0
 10
89.80175372103915
 20
-121.1099202171184
 30
0.0
 10
89.80175372103915
 20
-121.1099202171184
 30
0.0
 10
89.80175372103915
 20
-121.1099202171184
 30
0.0
 10
89.90734589766205
 20
-121.1099202171184
 30
0.0
 10
89.90734589766205
 20
-121.1099202171184
 30
0.0
 10
89.90906844540469
 20
-121.1099202171184
 30
0.0
 10
90.1128458433572
 20
-121.1078531598272
 30
0.0
 10
90.26839190451624
 20
-121.0909721919495
 30
0.0
 10
90.26839190451624
 20
-121.0909721919495
 30
0.0
 10
90.26839190451624
 20
-121.2813137175095
 30
0.0
 10
90.26839190451624
 20
-121.2813137175095
 30
0.0
 10
90.15539277260004
 20
-121.2685668642141
 30
0.0
 10
90.01845022706136
 20
-121.2685668642141
 30
0.0
 10
89.90734589766205
 20
-121.2685668642141
 30
0.0
 10
89.90734589766205
 20
-121.2685668642141
 30
0.0
 10
89.80175372103915
 20
-121.2685668642141
 30
0.0
 10
89.80175372103915
 20
-121.2685668642141
 30
0.0
 10
89.80175372103915
 20
-121.2685668642141
 30
0.0
 10
89.80175372103915
 20
-121.494909637595
 30
0.0
 10
89.80175372103915
 20
-121.494909637595
 30
0.0
 10
89.80175372103915
 20
-121.6134209222876
 30
0.0
 10
89.77953285515929
 20
-121.6494221701085
 30
0.0
 10
89.63880070458683
 20
-121.6642360806951
 30
0.0
 10
89.64241805484635
 20
-121.6831841058639
 30
0.0
 10
89.63690590206994
 20
-121.6938639018682
 30
0.0
 10
89.60366073063729
 20
-121.7171182963936
 30
0.0
 10
89.6017659281204
 20
-121.7360663215625
 30
0.0
 10
89.6017659281204
 20
-121.7424397482102
 30
0.0
 10
89.59987112560351
 20
-121.7572536587968
 30
0.0
 10
89.59987112560351
 20
-121.7572536587968
 30
0.0
 10
89.72027721281299
 20
-121.7572536587968
 30
0.0
 10
89.72027721281299
 20
-121.7572536587968
 30
0.0
 10
89.86462671364495
 20
-121.7572536587968
 30
0.0
 10
90.01104327176807
 20
-121.7531195442145
 30
0.0
 10
90.15728757511694
 20
-121.7383056336279
 30
0.0
 10
90.15728757511694
 20
-121.7383056336279
 30
0.0
 10
90.15728757511694
 20
-121.9455281270657
 30
0.0
 10
90.15728757511694
 20
-121.9455281270657
 30
0.0
 10
89.96832408775097
 20
-121.928647159188
 30
0.0
 10
89.73698592591646
 20
-121.928647159188
 30
0.0
 10
89.72027721281299
 20
-121.928647159188
 30
0.0
 10
89.72027721281299
 20
-121.928647159188
 30
0.0
 10
89.59797632308663
 20
-121.928647159188
 30
0.0
 10
89.59797632308663
 20
-121.928647159188
 30
0.0
 10
89.59797632308663
 20
-121.928647159188
 30
0.0
 10
89.59797632308663
 20
-122.070412838406
 30
0.0
 10
89.59797632308663
 20
-122.070412838406
 30
0.0
 10
89.59797632308663
 20
-122.070412838406
 30
0.0
 10
89.79624156826274
 20
-122.070412838406
 30
0.0
 10
89.79624156826274
 20
-122.070412838406
 30
0.0
 10
89.98503280085444
 20
-122.070412838406
 30
0.0
 10
90.17571883596302
 20
-122.0661064690494
 30
0.0
 10
90.36468232332898
 20
-122.0535318705283
 30
0.0
 10
90.36468232332898
 20
-122.0535318705283
 30
0.0
 10
90.36468232332898
 20
-122.2607543639661
 30
0.0
 10
90.36468232332898
 20
-122.2607543639661
 30
0.0
 10
90.11835799613361
 20
-122.2438733960883
 30
0.0
 10
89.81656763162572
 20
-122.2438733960883
 30
0.0
 10
89.79624156826274
 20
-122.2438733960883
 30
0.0
  0
SPLINE
  5
AF
330
A9
100
AcDbEntity
  8
_U+30EC_U+30A4_U+30E4_U+30FC 1
370
     0
100
AcDbSpline
210
0.0
220
0.0
230
1.0
 70
    11
 71
     3
 72
    23
 73
    19
 74
     0
 42
0.0000000001
 43
0.0000000001
 12
1.0
 22
0.0
 32
0.0
 13
1.0
 23
0.0
 33
0.0
 40
0.0
 40
0.0
 40
0.0
 40
0.0
 40
1.0
 40
1.0
 40
1.0
 40
2.0
 40
2.0
 40
2.0
 40
3.0
 40
3.0
 40
3.0
 40
4.0
 40
4.0
 40
4.0
 40
5.0
 40
5.0
 40
5.0
 40
6.0
 40
6.0
 40
6.0
 40
6.0
 10
88.81662866703196
 20
-121.6154879795788
 30
0.0
 10
88.81662866703196
 20
-121.6366753168131
 30
0.0
 10
88.81852346954885
 20
-121.6747436219251
 30
0.0
 10
88.79630260366898
 20
-121.6747436219251
 30
0.0
 10
88.78700084585881
 20
-121.6747436219251
 30
0.0
 10
88.77959389056552
 20
-121.6683701952774
 30
0.0
 10
88.77029213275534
 20
-121.6514892273996
 30
0.0
 10
88.77029213275534
 20
-121.6514892273996
 30
0.0
 10
88.67951386671902
 20
-121.4695881857784
 30
0.0
 10
88.67951386671902
 20
-121.4695881857784
 30
0.0
 10
88.86847735408497
 20
-121.3405693598558
 30
0.0
 10
89.04073212834746
 20
-121.0634114280675
 30
0.0
 10
89.0813842550734
 20
-120.9914089324258
 30
0.0
 10
89.0813842550734
 20
-120.9914089324258
 30
0.0
 10
89.14442950245348
 20
-121.1712429167558
 30
0.0
 10
89.14442950245348
 20
-121.1712429167558
 30
0.0
 10
89.02781302027778
 20
-121.3679578689636
 30
0.0
 10
88.87398950686136
 20
-121.5520982226502
 30
0.0
 10
88.81662866703196
 20
-121.6154879795788
 30
0.0
  0
SPLINE
  5
B0
330
A9
100
AcDbEntity
  8
_U+30EC_U+30A4_U+30E4_U+30FC 1
370
     0
100
AcDbSpline
210
0.0
220
0.0
230
1.0
 70
    11
 71
     3
 72
    17
 73
    13
 74
     0
 42
0.0000000001
 43
0.0000000001
 12
1.0
 22
0.0
 32
0.0
 13
1.0
 23
0.0
 33
0.0
 40
0.0
 40
0.0
 40
0.0
 40
0.0
 40
1.0
 40
1.0
 40
1.0
 40
2.0
 40
2.0
 40
2.0
 40
3.0
 40
3.0
 40
3.0
 40
4.0
 40
4.0
 40
4.0
 40
4.0
 10
89.03883732583057
 20
-120.7206244272851
 30
0.0
 10
88.98509383626067
 20
-120.6444878170611
 30
0.0
 10
88.87209470434448
 20
-120.5683512068371
 30
0.0
 10
88.78148869308241
 20
-120.5387233856639
 30
0.0
 10
88.78148869308241
 20
-120.5387233856639
 30
0.0
 10
88.86486000382546
 20
-120.3737033119205
 30
0.0
 10
88.86486000382546
 20
-120.3737033119205
 30
0.0
 10
88.9537434673449
 20
-120.4097045597413
 30
0.0
 10
89.04624428112386
 20
-120.4668931447965
 30
0.0
 10
89.12393118431625
 20
-120.5471638696028
 30
0.0
 10
89.12393118431625
 20
-120.5471638696028
 30
0.0
 10
89.03883732583057
 20
-120.7206244272851
 30
0.0
 10
89.03883732583057
 20
-120.7206244272851
 30
0.0
  0
SPLINE
  5
B1
330
A9
100
AcDbEntity
  8
_U+30EC_U+30A4_U+30E4_U+30FC 1
370
     0
100
AcDbSpline
210
0.0
220
0.0
230
1.0
 70
    11
 71
     3
 72
    23
 73
    19
 74
     0
 42
0.0000000001
 43
0.0000000001
 12
1.0
 22
0.0
 32
0.0
 13
1.0
 23
0.0
 33
0.0
 40
0.0
 40
0.0
 40
0.0
 40
0.0
 40
1.0
 40
1.0
 40
1.0
 40
2.0
 40
2.0
 40
2.0
 40
3.0
 40
3.0
 40
3.0
 40
4.0
 40
4.0
 40
4.0
 40
5.0
 40
5.0
 40
5.0
 40
6.0
 40
6.0
 40
6.0
 40
6.0
 10
89.4350233066343
 20
-121.4251464540187
 30
0.0
 10
89.41659204578822
 20
-121.4484008485442
 30
0.0
 10
89.33132593252829
 20
-121.560538706589
 30
0.0
 10
89.20919729757618
 20
-121.6409816861696
 30
0.0
 10
89.20919729757618
 20
-121.6409816861696
 30
0.0
 10
89.06295299422732
 20
-121.5204033441859
 30
0.0
 10
89.06295299422732
 20
-121.5204033441859
 30
0.0
 10
89.1943833869896
 20
-121.4442667339619
 30
0.0
 10
89.28137204799216
 20
-121.3490098437947
 30
0.0
 10
89.32409123200927
 20
-121.2961276280961
 30
0.0
 10
89.32409123200927
 20
-121.2961276280961
 30
0.0
 10
89.47584768813451
 20
-121.3786376649678
 30
0.0
 10
89.47584768813451
 20
-121.3786376649678
 30
0.0
 10
89.4832546434278
 20
-121.3827717795501
 30
0.0
 10
89.49066159872109
 20
-121.3891452061979
 30
0.0
 10
89.49066159872109
 20
-121.3998250022021
 30
0.0
 10
89.49066159872109
 20
-121.4251464540187
 30
0.0
 10
89.45913897503105
 20
-121.4251464540187
 30
0.0
 10
89.4350233066343
 20
-121.4251464540187
 30
0.0
  0
SPLINE
  5
B2
330
A9
100
AcDbEntity
  8
_U+30EC_U+30A4_U+30E4_U+30FC 1
370
     0
100
AcDbSpline
210
0.0
220
0.0
230
1.0
 70
    11
 71
     3
 72
    20
 73
    16
 74
     0
 42
0.0000000001
 43
0.0000000001
 12
1.0
 22
0.0
 32
0.0
 13
1.0
 23
0.0
 33
0.0
 40
0.0
 40
0.0
 40
0.0
 40
0.0
 40
1.0
 40
1.0
 40
1.0
 40
2.0
 40
2.0
 40
2.0
 40
3.0
 40
3.0
 40
3.0
 40
4.0
 40
4.0
 40
4.0
 40
5.0
 40
5.0
 40
5.0
 40
5.0
 10
89.69616154441624
 20
-120.5831651174237
 30
0.0
 10
89.66291637298357
 20
-120.6319132185399
 30
0.0
 10
89.60917288341368
 20
-120.7101168860551
 30
0.0
 10
89.48704424846157
 20
-120.8201876868089
 30
0.0
 10
89.55732419636067
 20
-120.8243218013912
 30
0.0
 10
89.58316241250004
 20
-120.8243218013912
 30
0.0
 10
89.60366073063729
 20
-120.8243218013912
 30
0.0
 10
89.60366073063729
 20
-120.8243218013912
 30
0.0
 10
89.80364852355603
 20
-120.8243218013912
 30
0.0
 10
89.80364852355603
 20
-120.8243218013912
 30
0.0
 10
89.8313815422123
 20
-120.8243218013912
 30
0.0
 10
89.87392847145513
 20
-120.8222547441
 30
0.0
 10
89.93869626657784
 20
-120.8201876868089
 30
0.0
 10
89.84068330002248
 20
-120.746118133876
 30
0.0
 10
89.79813637077963
 20
-120.6996093448251
 30
0.0
 10
89.69616154441624
 20
-120.5831651174237
 30
0.0
  0
SPLINE
  5
B3
330
A9
100
AcDbEntity
  8
_U+30EC_U+30A4_U+30E4_U+30FC 1
370
     0
100
AcDbSpline
210
0.0
220
0.0
230
1.0
 70
    11
 71
     3
 72
    17
 73
    13
 74
     0
 42
0.0000000001
 43
0.0000000001
 12
1.0
 22
0.0
 32
0.0
 13
1.0
 23
0.0
 33
0.0
 40
0.0
 40
0.0
 40
0.0
 40
0.0
 40
1.0
 40
1.0
 40
1.0
 40
2.0
 40
2.0
 40
2.0
 40
3.0
 40
3.0
 40
3.0
 40
4.0
 40
4.0
 40
4.0
 40
4.0
 10
90.18691539629008
 20
-121.6387423741042
 30
0.0
 10
90.06840411159749
 20
-121.5267767708336
 30
0.0
 10
89.97590329781853
 20
-121.4632147591307
 30
0.0
 10
89.87220592371251
 20
-121.3998250022021
 30
0.0
 10
89.87220592371251
 20
-121.3998250022021
 30
0.0
 10
89.98313799833755
 20
-121.2876871441572
 30
0.0
 10
89.98313799833755
 20
-121.2876871441572
 30
0.0
 10
90.09803193277064
 20
-121.3341959332081
 30
0.0
 10
90.19432235158337
 20
-121.3913845182633
 30
0.0
 10
90.30353187846579
 20
-121.4928425803039
 30
0.0
 10
90.30353187846579
 20
-121.4928425803039
 30
0.0
 10
90.18691539629008
 20
-121.6387423741042
 30
0.0
 10
90.18691539629008
 20
-121.6387423741042
 30
0.0
  0
HATCH
  5
B4
330
A9
100
AcDbEntity
  8
_U+30EC_U+30A4_U+30E4_U+30FC 1
 62
   179
420
  2234388
100
AcDbHatch
 10
0.0
 20
0.0
 30
0.0
210
0.0
220
0.0
230
1.0
  2
SOLID
 70
     1
 71
     0
 91
        7
 92
        1
 93
        1
 72
     4
 94
        3
 73
     0
 74
     1
 95
       17
 96
       13
 40
0.0
 40
0.0
 40
0.0
 40
0.0
 40
1.0
 40
1.0
 40
1.0
 40
2.0
 40
2.0
 40
2.0
 40
3.0
 40
3.0
 40
3.0
 40
4.0
 40
4.0
 40
4.0
 40
4.0
 10
88.88139646215465
 20
-121.0654784853586
 10
88.7888956483757
 20
-120.9597140539615
 10
88.71844344570233
 20
-120.9216457488495
 10
88.63696693747617
 20
-120.8899508703852
 10
88.63696693747617
 20
-120.8899508703852
 10
88.73325735628892
 20
-120.7249307966417
 10
88.73325735628892
 20
-120.7249307966417
 10
88.81852346954885
 20
-120.7673054711103
 10
88.92411564617176
 20
-120.8455091386254
 10
88.9702799256741
 20
-120.9004584116152
 10
88.9702799256741
 20
-120.9004584116152
 10
88.88139646215465
 20
-121.0654784853586
 10
88.88139646215465
 20
-121.0654784853586
 97
        0
 97
        0
 92
        1
 93
        1
 72
     4
 94
        3
 73
     0
 74
     1
 95
      182
 96
      178
 40
0.0
 40
0.0
 40
0.0
 40
0.0
 40
1.0
 40
1.0
 40
1.0
 40
2.0
 40
2.0
 40
2.0
 40
3.0
 40
3.0
 40
3.0
 40
4.0
 40
4.0
 40
4.0
 40
5.0
 40
5.0
 40
5.0
 40
6.0
 40
6.0
 40
6.0
 40
7.0
 40
7.0
 40
7.0
 40
8.0
 40
8.0
 40
8.0
 40
9.0
 40
9.0
 40
9.0
 40
10.0
 40
10.0
 40
10.0
 40
11.0
 40
11.0
 40
11.0
 40
12.0
 40
12.0
 40
12.0
 40
13.0
 40
13.0
 40
13.0
 40
14.0
 40
14.0
 40
14.0
 40
15.0
 40
15.0
 40
15.0
 40
16.0
 40
16.0
 40
16.0
 40
17.0
 40
17.0
 40
17.0
 40
18.0
 40
18.0
 40
18.0
 40
19.0
 40
19.0
 40
19.0
 40
20.0
 40
20.0
 40
20.0
 40
21.0
 40
21.0
 40
21.0
 40
22.0
 40
22.0
 40
22.0
 40
23.0
 40
23.0
 40
23.0
 40
24.0
 40
24.0
 40
24.0
 40
25.0
 40
25.0
 40
25.0
 40
26.0
 40
26.0
 40
26.0
 40
27.0
 40
27.0
 40
27.0
 40
28.0
 40
28.0
 40
28.0
 40
29.0
 40
29.0
 40
29.0
 40
30.0
 40
30.0
 40
30.0
 40
31.0
 40
31.0
 40
31.0
 40
32.0
 40
32.0
 40
32.0
 40
33.0
 40
33.0
 40
33.0
 40
34.0
 40
34.0
 40
34.0
 40
35.0
 40
35.0
 40
35.0
 40
36.0
 40
36.0
 40
36.0
 40
37.0
 40
37.0
 40
37.0
 40
38.0
 40
38.0
 40
38.0
 40
39.0
 40
39.0
 40
39.0
 40
40.0
 40
40.0
 40
40.0
 40
41.0
 40
41.0
 40
41.0
 40
42.0
 40
42.0
 40
42.0
 40
43.0
 40
43.0
 40
43.0
 40
44.0
 40
44.0
 40
44.0
 40
45.0
 40
45.0
 40
45.0
 40
46.0
 40
46.0
 40
46.0
 40
47.0
 40
47.0
 40
47.0
 40
48.0
 40
48.0
 40
48.0
 40
49.0
 40
49.0
 40
49.0
 40
50.0
 40
50.0
 40
50.0
 40
51.0
 40
51.0
 40
51.0
 40
52.0
 40
52.0
 40
52.0
 40
53.0
 40
53.0
 40
53.0
 40
54.0
 40
54.0
 40
54.0
 40
55.0
 40
55.0
 40
55.0
 40
56.0
 40
56.0
 40
56.0
 40
57.0
 40
57.0
 40
57.0
 40
58.0
 40
58.0
 40
58.0
 40
59.0
 40
59.0
 40
59.0
 40
59.0
 10
89.79624156826274
 20
-122.2438733960883
 10
89.79624156826274
 20
-122.2438733960883
 10
89.23882511874933
 20
-122.2438733960883
 10
89.23882511874933
 20
-122.2438733960883
 10
89.05175643390027
 20
-122.2438733960883
 10
88.86296520130857
 20
-122.2481797654449
 10
88.6758965164595
 20
-122.2607543639661
 10
88.6758965164595
 20
-122.2607543639661
 10
88.6758965164595
 20
-122.0535318705283
 10
88.6758965164595
 20
-122.0535318705283
 10
88.87037215660186
 20
-122.0661064690494
 10
89.1535590054894
 20
-122.070412838406
 10
89.23882511874933
 20
-122.070412838406
 10
89.23882511874933
 20
-122.070412838406
 10
89.43140595637479
 20
-122.070412838406
 10
89.43140595637479
 20
-122.070412838406
 10
89.43140595637479
 20
-122.070412838406
 10
89.43140595637479
 20
-121.928647159188
 10
89.43140595637479
 20
-121.928647159188
 10
89.43140595637479
 20
-121.928647159188
 10
89.29067380580234
 20
-121.928647159188
 10
89.29067380580234
 20
-121.928647159188
 10
89.14632430497036
 20
-121.928647159188
 10
89.00180254936414
 20
-121.9329535285445
 10
88.85728079375791
 20
-121.9477674391311
 10
88.85728079375791
 20
-121.9477674391311
 10
88.85728079375791
 20
-121.7383056336279
 10
88.85728079375791
 20
-121.7383056336279
 10
89.00731470214053
 20
-121.7531195442145
 10
89.22401120816275
 20
-121.7572536587968
 10
89.29067380580234
 20
-121.7572536587968
 10
89.29067380580234
 20
-121.7572536587968
 10
89.43140595637479
 20
-121.7572536587968
 10
89.43140595637479
 20
-121.7572536587968
 10
89.42778860611529
 20
-121.6854234179293
 10
89.42778860611529
 20
-121.6790499912816
 10
89.42210419856461
 20
-121.626167775583
 10
89.42210419856461
 20
-121.626167775583
 10
89.54440508829099
 20
-121.6409816861696
 10
89.54440508829099
 20
-121.6409816861696
 10
89.54440508829099
 20
-121.6409816861696
 10
89.45741642728842
 20
-121.4695881857784
 10
89.45741642728842
 20
-121.4695881857784
 10
89.49806855401438
 20
-121.4759616124261
 10
89.56283634913707
 20
-121.484402096365
 10
89.57765025972364
 20
-121.484402096365
 10
89.62209199148337
 20
-121.484402096365
 10
89.63690590206994
 20
-121.4632147591307
 10
89.63690590206994
 20
-121.4061984288498
 10
89.63690590206994
 20
-121.4061984288498
 10
89.63690590206994
 20
-121.2685668642141
 10
89.63690590206994
 20
-121.2685668642141
 10
89.63690590206994
 20
-121.2685668642141
 10
89.54440508829099
 20
-121.2685668642141
 10
89.54440508829099
 20
-121.2685668642141
 10
89.42778860611529
 20
-121.2685668642141
 10
89.29067380580234
 20
-121.2685668642141
 10
89.18318682666253
 20
-121.2813137175095
 10
89.18318682666253
 20
-121.2813137175095
 10
89.18318682666253
 20
-121.0909721919495
 10
89.18318682666253
 20
-121.0909721919495
 10
89.32960338478566
 20
-121.1078531598272
 10
89.5314859802213
 20
-121.1099202171184
 10
89.54440508829099
 20
-121.1099202171184
 10
89.54440508829099
 20
-121.1099202171184
 10
89.63690590206994
 20
-121.1099202171184
 10
89.63690590206994
 20
-121.1099202171184
 10
89.63690590206994
 20
-121.1099202171184
 10
89.63690590206994
 20
-120.9788343339046
 10
89.63690590206994
 20
-120.9788343339046
 10
89.63690590206994
 20
-120.9788343339046
 10
89.60366073063729
 20
-120.9788343339046
 10
89.60366073063729
 20
-120.9788343339046
 10
89.56473115165396
 20
-120.9788343339046
 10
89.45552162477154
 20
-120.9829684484869
 10
89.37766246680489
 20
-120.9914089324258
 10
89.37766246680489
 20
-120.9914089324258
 10
89.37766246680489
 20
-120.9111382076194
 10
89.37766246680489
 20
-120.9111382076194
 10
89.33132593252829
 20
-120.9492065127315
 10
89.30927732142268
 20
-120.964020423318
 10
89.27207029018199
 20
-120.9872748178435
 10
89.27207029018199
 20
-120.9872748178435
 10
89.10739472598705
 20
-120.8582559919209
 10
89.10739472598705
 20
-120.8582559919209
 10
89.17595212614351
 20
-120.8243218013912
 10
89.3128946716822
 20
-120.7609320444625
 10
89.44983721722087
 20
-120.6170993079534
 10
89.52218422241113
 20
-120.5387233856639
 10
89.59074162256759
 20
-120.454146291501
 10
89.63690590206994
 20
-120.3526882294604
 10
89.63690590206994
 20
-120.3526882294604
 10
89.82207978440212
 20
-120.4140109290979
 10
89.82207978440212
 20
-120.4140109290979
 10
89.83878849750559
 20
-120.4202121009713
 10
89.84809025531575
 20
-120.4288248396845
 10
89.84809025531575
 20
-120.4413994382056
 10
89.84809025531575
 20
-120.4584526608576
 10
89.8368936949887
 20
-120.4646538327311
 10
89.81467282910883
 20
-120.4774006860265
 10
89.8851250317822
 20
-120.5747246334848
 10
90.02757973009727
 20
-120.6720485809431
 10
90.05720755127042
 20
-120.690996606112
 10
90.18881019880696
 20
-120.7798800696314
 10
90.28871796787921
 20
-120.8074408335134
 10
90.35727536803569
 20
-120.8263888586823
 10
90.35727536803569
 20
-120.8263888586823
 10
90.25357799392967
 20
-120.9957153017823
 10
90.25357799392967
 20
-120.9957153017823
 10
90.1795084409968
 20
-120.9660874806092
 10
90.13506670923707
 20
-120.9471394554403
 10
90.03136933513105
 20
-120.8815103864463
 10
90.03136933513105
 20
-120.8815103864463
 10
90.03136933513105
 20
-120.9914089324258
 10
90.03136933513105
 20
-120.9914089324258
 10
89.95919458471506
 20
-120.9829684484869
 10
89.84809025531575
 20
-120.9788343339046
 10
89.80175372103915
 20
-120.9788343339046
 10
89.80175372103915
 20
-120.9788343339046
 10
89.80175372103915
 20
-121.1099202171184
 10
89.80175372103915
 20
-121.1099202171184
 10
89.80175372103915
 20
-121.1099202171184
 10
89.90734589766205
 20
-121.1099202171184
 10
89.90734589766205
 20
-121.1099202171184
 10
89.90906844540469
 20
-121.1099202171184
 10
90.1128458433572
 20
-121.1078531598272
 10
90.26839190451624
 20
-121.0909721919495
 10
90.26839190451624
 20
-121.0909721919495
 10
90.26839190451624
 20
-121.2813137175095
 10
90.26839190451624
 20
-121.2813137175095
 10
90.15539277260004
 20
-121.2685668642141
 10
90.01845022706136
 20
-121.2685668642141
 10
89.90734589766205
 20
-121.2685668642141
 10
89.90734589766205
 20
-121.2685668642141
 10
89.80175372103915
 20
-121.2685668642141
 10
89.80175372103915
 20
-121.2685668642141
 10
89.80175372103915
 20
-121.2685668642141
 10
89.80175372103915
 20
-121.494909637595
 10
89.80175372103915
 20
-121.494909637595
 10
89.80175372103915
 20
-121.6134209222876
 10
89.77953285515929
 20
-121.6494221701085
 10
89.63880070458683
 20
-121.6642360806951
 10
89.64241805484635
 20
-121.6831841058639
 10
89.63690590206994
 20
-121.6938639018682
 10
89.60366073063729
 20
-121.7171182963936
 10
89.6017659281204
 20
-121.7360663215625
 10
89.6017659281204
 20
-121.7424397482102
 10
89.59987112560351
 20
-121.7572536587968
 10
89.59987112560351
 20
-121.7572536587968
 10
89.72027721281299
 20
-121.7572536587968
 10
89.72027721281299
 20
-121.7572536587968
 10
89.86462671364495
 20
-121.7572536587968
 10
90.01104327176807
 20
-121.7531195442145
 10
90.15728757511694
 20
-121.7383056336279
 10
90.15728757511694
 20
-121.7383056336279
 10
90.15728757511694
 20
-121.9455281270657
 10
90.15728757511694
 20
-121.9455281270657
 10
89.96832408775097
 20
-121.928647159188
 10
89.73698592591646
 20
-121.928647159188
 10
89.72027721281299
 20
-121.928647159188
 10
89.72027721281299
 20
-121.928647159188
 10
89.59797632308663
 20
-121.928647159188
 10
89.59797632308663
 20
-121.928647159188
 10
89.59797632308663
 20
-121.928647159188
 10
89.59797632308663
 20
-122.070412838406
 10
89.59797632308663
 20
-122.070412838406
 10
89.59797632308663
 20
-122.070412838406
 10
89.79624156826274
 20
-122.070412838406
 10
89.79624156826274
 20
-122.070412838406
 10
89.98503280085444
 20
-122.070412838406
 10
90.17571883596302
 20
-122.0661064690494
 10
90.36468232332898
 20
-122.0535318705283
 10
90.36468232332898
 20
-122.0535318705283
 10
90.36468232332898
 20
-122.2607543639661
 10
90.36468232332898
 20
-122.2607543639661
 10
90.11835799613361
 20
-122.2438733960883
 10
89.81656763162572
 20
-122.2438733960883
 10
89.79624156826274
 20
-122.2438733960883
 97
        0
 97
        0
 92
        1
 93
        1
 72
     4
 94
        3
 73
     0
 74
     1
 95
       23
 96
       19
 40
0.0
 40
0.0
 40
0.0
 40
0.0
 40
1.0
 40
1.0
 40
1.0
 40
2.0
 40
2.0
 40
2.0
 40
3.0
 40
3.0
 40
3.0
 40
4.0
 40
4.0
 40
4.0
 40
5.0
 40
5.0
 40
5.0
 40
6.0
 40
6.0
 40
6.0
 40
6.0
 10
88.81662866703196
 20
-121.6154879795788
 10
88.81662866703196
 20
-121.6366753168131
 10
88.81852346954885
 20
-121.6747436219251
 10
88.79630260366898
 20
-121.6747436219251
 10
88.78700084585881
 20
-121.6747436219251
 10
88.77959389056552
 20
-121.6683701952774
 10
88.77029213275534
 20
-121.6514892273996
 10
88.77029213275534
 20
-121.6514892273996
 10
88.67951386671902
 20
-121.4695881857784
 10
88.67951386671902
 20
-121.4695881857784
 10
88.86847735408497
 20
-121.3405693598558
 10
89.04073212834746
 20
-121.0634114280675
 10
89.0813842550734
 20
-120.9914089324258
 10
89.0813842550734
 20
-120.9914089324258
 10
89.14442950245348
 20
-121.1712429167558
 10
89.14442950245348
 20
-121.1712429167558
 10
89.02781302027778
 20
-121.3679578689636
 10
88.87398950686136
 20
-121.5520982226502
 10
88.81662866703196
 20
-121.6154879795788
 97
        0
 97
        0
 92
        1
 93
        1
 72
     4
 94
        3
 73
     0
 74
     1
 95
       17
 96
       13
 40
0.0
 40
0.0
 40
0.0
 40
0.0
 40
1.0
 40
1.0
 40
1.0
 40
2.0
 40
2.0
 40
2.0
 40
3.0
 40
3.0
 40
3.0
 40
4.0
 40
4.0
 40
4.0
 40
4.0
 10
89.03883732583057
 20
-120.7206244272851
 10
88.98509383626067
 20
-120.6444878170611
 10
88.87209470434448
 20
-120.5683512068371
 10
88.78148869308241
 20
-120.5387233856639
 10
88.78148869308241
 20
-120.5387233856639
 10
88.86486000382546
 20
-120.3737033119205
 10
88.86486000382546
 20
-120.3737033119205
 10
88.9537434673449
 20
-120.4097045597413
 10
89.04624428112386
 20
-120.4668931447965
 10
89.12393118431625
 20
-120.5471638696028
 10
89.12393118431625
 20
-120.5471638696028
 10
89.03883732583057
 20
-120.7206244272851
 10
89.03883732583057
 20
-120.7206244272851
 97
        0
 97
        0
 92
        1
 93
        1
 72
     4
 94
        3
 73
     0
 74
     1
 95
       23
 96
       19
 40
0.0
 40
0.0
 40
0.0
 40
0.0
 40
1.0
 40
1.0
 40
1.0
 40
2.0
 40
2.0
 40
2.0
 40
3.0
 40
3.0
 40
3.0
 40
4.0
 40
4.0
 40
4.0
 40
5.0
 40
5.0
 40
5.0
 40
6.0
 40
6.0
 40
6.0
 40
6.0
 10
89.4350233066343
 20
-121.4251464540187
 10
89.41659204578822
 20
-121.4484008485442
 10
89.33132593252829
 20
-121.560538706589
 10
89.20919729757618
 20
-121.6409816861696
 10
89.20919729757618
 20
-121.6409816861696
 10
89.06295299422732
 20
-121.5204033441859
 10
89.06295299422732
 20
-121.5204033441859
 10
89.1943833869896
 20
-121.4442667339619
 10
89.28137204799216
 20
-121.3490098437947
 10
89.32409123200927
 20
-121.2961276280961
 10
89.32409123200927
 20
-121.2961276280961
 10
89.47584768813451
 20
-121.3786376649678
 10
89.47584768813451
 20
-121.3786376649678
 10
89.4832546434278
 20
-121.3827717795501
 10
89.49066159872109
 20
-121.3891452061979
 10
89.49066159872109
 20
-121.3998250022021
 10
89.49066159872109
 20
-121.4251464540187
 10
89.45913897503105
 20
-121.4251464540187
 10
89.4350233066343
 20
-121.4251464540187
 97
        0
 97
        0
 92
        1
 93
        1
 72
     4
 94
        3
 73
     0
 74
     1
 95
       20
 96
       16
 40
0.0
 40
0.0
 40
0.0
 40
0.0
 40
1.0
 40
1.0
 40
1.0
 40
2.0
 40
2.0
 40
2.0
 40
3.0
 40
3.0
 40
3.0
 40
4.0
 40
4.0
 40
4.0
 40
5.0
 40
5.0
 40
5.0
 40
5.0
 10
89.69616154441624
 20
-120.5831651174237
 10
89.66291637298357
 20
-120.6319132185399
 10
89.60917288341368
 20
-120.7101168860551
 10
89.48704424846157
 20
-120.8201876868089
 10
89.55732419636067
 20
-120.8243218013912
 10
89.58316241250004
 20
-120.8243218013912
 10
89.60366073063729
 20
-120.8243218013912
 10
89.60366073063729
 20
-120.8243218013912
 10
89.80364852355603
 20
-120.8243218013912
 10
89.80364852355603
 20
-120.8243218013912
 10
89.8313815422123
 20
-120.8243218013912
 10
89.87392847145513
 20
-120.8222547441
 10
89.93869626657784
 20
-120.8201876868089
 10
89.84068330002248
 20
-120.746118133876
 10
89.79813637077963
 20
-120.6996093448251
 10
89.69616154441624
 20
-120.5831651174237
 97
        0
 97
        0
 92
        1
 93
        1
 72
     4
 94
        3
 73
     0
 74
     1
 95
       17
 96
       13
 40
0.0
 40
0.0
 40
0.0
 40
0.0
 40
1.0
 40
1.0
 40
1.0
 40
2.0
 40
2.0
 40
2.0
 40
3.0
 40
3.0
 40
3.0
 40
4.0
 40
4.0
 40
4.0
 40
4.0
 10
90.18691539629008
 20
-121.6387423741042
 10
90.06840411159749
 20
-121.5267767708336
 10
89.97590329781853
 20
-121.4632147591307
 10
89.87220592371251
 20
-121.3998250022021
 10
89.87220592371251
 20
-121.3998250022021
 10
89.98313799833755
 20
-121.2876871441572
 10
89.98313799833755
 20
-121.2876871441572
 10
90.09803193277064
 20
-121.3341959332081
 10
90.19432235158337
 20
-121.3913845182633
 10
90.30353187846579
 20
-121.4928425803039
 10
90.30353187846579
 20
-121.4928425803039
 10
90.18691539629008
 20
-121.6387423741042
 10
90.18691539629008
 20
-121.6387423741042
 97
        0
 97
        0
 75
     2
 76
     1
 98
        0
  0
SPLINE
  5
B5
330
A9
100
AcDbEntity
  8
_U+30EC_U+30A4_U+30E4_U+30FC 1
370
     0
100
AcDbSpline
210
0.0
220
0.0
230
1.0
 70
    11
 71
     3
 72
   113
 73
   109
 74
     0
 42
0.0000000001
 43
0.0000000001
 12
1.0
 22
0.0
 32
0.0
 13
1.0
 23
0.0
 33
0.0
 40
0.0
 40
0.0
 40
0.0
 40
0.0
 40
1.0
 40
1.0
 40
1.0
 40
2.0
 40
2.0
 40
2.0
 40
3.0
 40
3.0
 40
3.0
 40
4.0
 40
4.0
 40
4.0
 40
5.0
 40
5.0
 40
5.0
 40
6.0
 40
6.0
 40
6.0
 40
7.0
 40
7.0
 40
7.0
 40
8.0
 40
8.0
 40
8.0
 40
9.0
 40
9.0
 40
9.0
 40
10.0
 40
10.0
 40
10.0
 40
11.0
 40
11.0
 40
11.0
 40
12.0
 40
12.0
 40
12.0
 40
13.0
 40
13.0
 40
13.0
 40
14.0
 40
14.0
 40
14.0
 40
15.0
 40
15.0
 40
15.0
 40
16.0
 40
16.0
 40
16.0
 40
17.0
 40
17.0
 40
17.0
 40
18.0
 40
18.0
 40
18.0
 40
19.0
 40
19.0
 40
19.0
 40
20.0
 40
20.0
 40
20.0
 40
21.0
 40
21.0
 40
21.0
 40
22.0
 40
22.0
 40
22.0
 40
23.0
 40
23.0
 40
23.0
 40
24.0
 40
24.0
 40
24.0
 40
25.0
 40
25.0
 40
25.0
 40
26.0
 40
26.0
 40
26.0
 40
27.0
 40
27.0
 40
27.0
 40
28.0
 40
28.0
 40
28.0
 40
29.0
 40
29.0
 40
29.0
 40
30.0
 40
30.0
 40
30.0
 40
31.0
 40
31.0
 40
31.0
 40
32.0
 40
32.0
 40
32.0
 40
33.0
 40
33.0
 40
33.0
 40
34.0
 40
34.0
 40
34.0
 40
35.0
 40
35.0
 40
35.0
 40
36.0
 40
36.0
 40
36.0
 40
36.0
 10
91.83349878346525
 20
-121.6154879795788
 30
0.0
 10
91.83349878346525
 20
-121.6154879795788
 30
0.0
 10
91.92065969924207
 20
-121.7150512391025
 30
0.0
 10
91.92065969924207
 20
-121.7150512391025
 30
0.0
 10
91.92996145705223
 20
-121.7255587803325
 30
0.0
 10
91.93891870531388
 20
-121.7383056336279
 30
0.0
 10
91.93891870531388
 20
-121.7531195442145
 30
0.0
 10
91.93891870531388
 20
-121.7551866015057
 30
0.0
 10
91.93891870531388
 20
-121.7848144226788
 30
0.0
 10
91.90584578865548
 20
-121.7848144226788
 30
0.0
 10
91.89826657858794
 20
-121.7848144226788
 30
0.0
 10
91.8631266046384
 20
-121.7805080533222
 30
0.0
 10
91.85761445186199
 20
-121.7805080533222
 30
0.0
 10
91.82247447791244
 20
-121.8123751865608
 30
0.0
 10
91.78182235118649
 20
-121.8461371223163
 30
0.0
 10
91.69466143540967
 20
-121.9033257073714
 30
0.0
 10
91.82247447791244
 20
-122.0111571960597
 30
0.0
 10
91.96131182596801
 20
-122.0683457811149
 30
0.0
 10
92.20005694309582
 20
-122.1064140862269
 30
0.0
 10
92.20005694309582
 20
-122.1064140862269
 30
0.0
 10
92.0687988051078
 20
-122.2819417012004
 30
0.0
 10
92.0687988051078
 20
-122.2819417012004
 30
0.0
 10
91.83901093624164
 20
-122.2099392055586
 30
0.0
 10
91.70189613592869
 20
-122.1212279968134
 30
0.0
 10
91.63540579306337
 20
-122.0683457811149
 30
0.0
 10
91.50380314552683
 20
-121.9667154643
 30
0.0
 10
91.37805716031521
 20
-121.8037624478477
 30
0.0
 10
91.31139456267563
 20
-121.6387423741042
 30
0.0
 10
91.25213892032933
 20
-121.7043714430982
 30
0.0
 10
91.18719887043237
 20
-121.7572536587968
 30
0.0
 10
91.11881372505016
 20
-121.8060017599131
 30
0.0
 10
91.11881372505016
 20
-121.8060017599131
 30
0.0
 10
91.11881372505016
 20
-122.0576659851106
 30
0.0
 10
91.11881372505016
 20
-122.0576659851106
 30
0.0
 10
91.26126842336524
 20
-122.032344533294
 30
0.0
 10
91.42422143981756
 20
-121.9879028015343
 30
0.0
 10
91.47968747713008
 20
-121.9730888909477
 30
0.0
 10
91.47968747713008
 20
-121.9730888909477
 30
0.0
 10
91.45384926099071
 20
-122.1422430792735
 30
0.0
 10
91.45384926099071
 20
-122.1422430792735
 30
0.0
 10
91.45212671324808
 20
-122.1422430792735
 30
0.0
 10
91.43524574537037
 20
-122.1486165059212
 30
0.0
 10
91.43352319762774
 20
-122.1486165059212
 30
0.0
 10
91.25954587562262
 20
-122.1866848110332
 30
0.0
 10
90.98169892473722
 20
-122.2523138800272
 30
0.0
 10
90.80944415047473
 20
-122.2883151278481
 30
0.0
 10
90.80031464743881
 20
-122.3051960957258
 30
0.0
 10
90.77981632930158
 20
-122.3368909741901
 30
0.0
 10
90.75949026593861
 20
-122.3368909741901
 30
0.0
 10
90.73537459754185
 20
-122.3368909741901
 30
0.0
 10
90.73175724728235
 20
-122.3179429490212
 30
0.0
 10
90.72986244476546
 20
-122.2988226690781
 30
0.0
 10
90.72986244476546
 20
-122.2988226690781
 30
0.0
 10
90.7076415788856
 20
-122.1253621113957
 30
0.0
 10
90.7076415788856
 20
-122.1253621113957
 30
0.0
 10
90.77240937400829
 20
-122.1169216274569
 30
0.0
 10
90.8669772450784
 20
-122.1041747741615
 30
0.0
 10
90.96137286137424
 20
-122.0831596917014
 30
0.0
 10
90.96137286137424
 20
-122.0831596917014
 30
0.0
 10
90.96137286137424
 20
-121.9053927646626
 30
0.0
 10
90.96137286137424
 20
-121.9053927646626
 30
0.0
 10
90.83545462138837
 20
-121.9773952603043
 30
0.0
 10
90.75208331064532
 20
-122.0068508267032
 30
0.0
 10
90.60773380981335
 20
-122.0364786478763
 30
0.0
 10
90.60773380981335
 20
-122.0364786478763
 30
0.0
 10
90.50214163319045
 20
-121.8673244595505
 30
0.0
 10
90.50214163319045
 20
-121.8673244595505
 30
0.0
 10
90.77981632930158
 20
-121.8397636956685
 30
0.0
 10
90.94845375330456
 20
-121.7467461175668
 30
0.0
 10
91.10399981446359
 20
-121.6134209222876
 30
0.0
 10
90.97618677196081
 20
-121.6134209222876
 30
0.0
 10
90.71315373166199
 20
-121.6177272916442
 30
0.0
 10
90.54107121217376
 20
-121.6241007182919
 30
0.0
 10
90.54107121217376
 20
-121.6241007182919
 30
0.0
 10
90.54107121217376
 20
-121.446333791253
 30
0.0
 10
90.54107121217376
 20
-121.446333791253
 30
0.0
 10
90.67611895519556
 20
-121.4527072179007
 30
0.0
 10
90.93536239046061
 20
-121.4590806445484
 30
0.0
 10
91.0965928591703
 20
-121.4590806445484
 30
0.0
 10
91.0965928591703
 20
-121.4590806445484
 30
0.0
 10
91.28176674150248
 20
-121.4590806445484
 30
0.0
 10
91.28176674150248
 20
-121.4590806445484
 30
0.0
 10
91.28176674150248
 20
-121.3638237543813
 30
0.0
 10
91.2798719389856
 20
-121.3130085959738
 30
0.0
 10
91.27435978620919
 20
-121.266499806923
 30
0.0
 10
91.27435978620919
 20
-121.266499806923
 30
0.0
 10
91.46315101880089
 20
-121.2833807748007
 30
0.0
 10
91.46315101880089
 20
-121.2833807748007
 30
0.0
 10
91.50587020281799
 20
-121.2876871441572
 30
0.0
 10
91.51310490333701
 20
-121.3025010547438
 30
0.0
 10
91.51310490333701
 20
-121.3173149653304
 30
0.0
 10
91.51310490333701
 20
-121.342636417147
 30
0.0
 10
91.49829099275043
 20
-121.3510769010858
 30
0.0
 10
91.45384926099071
 20
-121.3765706076767
 30
0.0
 10
91.45212671324808
 20
-121.4018920594933
 30
0.0
 10
91.45212671324808
 20
-121.408265486141
 30
0.0
 10
91.45005965595693
 20
-121.4590806445484
 30
0.0
 10
91.45005965595693
 20
-121.4590806445484
 30
0.0
 10
91.65194225139257
 20
-121.4590806445484
 30
0.0
 10
91.65194225139257
 20
-121.4590806445484
 30
0.0
 10
91.79663626177307
 20
-121.4590806445484
 30
0.0
 10
92.05191783723008
 20
-121.4527072179007
 30
0.0
 10
92.209358700906
 20
-121.446333791253
 30
0.0
 10
92.209358700906
 20
-121.446333791253
 30
0.0
 10
92.209358700906
 20
-121.6241007182919
 30
0.0
 10
92.209358700906
 20
-121.6241007182919
 30
0.0
 10
92.0963595689898
 20
-121.6197943489353
 30
0.0
 10
92.07603350562682
 20
-121.6197943489353
 30
0.0
 10
91.83349878346525
 20
-121.6154879795788
 30
0.0
  0
SPLINE
  5
B6
330
A9
100
AcDbEntity
  8
_U+30EC_U+30A4_U+30E4_U+30FC 1
370
     0
100
AcDbSpline
210
0.0
220
0.0
230
1.0
 70
    11
 71
     3
 72
    23
 73
    19
 74
     0
 42
0.0000000001
 43
0.0000000001
 12
1.0
 22
0.0
 32
0.0
 13
1.0
 23
0.0
 33
0.0
 40
0.0
 40
0.0
 40
0.0
 40
0.0
 40
1.0
 40
1.0
 40
1.0
 40
2.0
 40
2.0
 40
2.0
 40
3.0
 40
3.0
 40
3.0
 40
4.0
 40
4.0
 40
4.0
 40
5.0
 40
5.0
 40
5.0
 40
6.0
 40
6.0
 40
6.0
 40
6.0
 10
90.70953638140249
 20
-121.2644327496318
 30
0.0
 10
90.6947224708159
 20
-121.304568112035
 30
0.0
 10
90.68921031803951
 20
-121.3214490799127
 30
0.0
 10
90.67060680241916
 20
-121.3214490799127
 30
0.0
 10
90.65768769434948
 20
-121.3214490799127
 30
0.0
 10
90.6483859365393
 20
-121.304568112035
 30
0.0
 10
90.6428737837629
 20
-121.2918212587395
 30
0.0
 10
90.6428737837629
 20
-121.2918212587395
 30
0.0
 10
90.55588512276034
 20
-121.1268011849961
 30
0.0
 10
90.55588512276034
 20
-121.1268011849961
 30
0.0
 10
90.64476858627978
 20
-121.0951063065318
 30
0.0
 10
90.77619897904206
 20
-121.040157033542
 30
0.0
 10
90.95017630104718
 20
-120.8772040170897
 30
0.0
 10
90.95017630104718
 20
-120.8772040170897
 30
0.0
 10
91.00030244035757
 20
-121.0506645747721
 30
0.0
 10
91.00030244035757
 20
-121.0506645747721
 30
0.0
 10
90.91882593213141
 20
-121.1331746116438
 30
0.0
 10
90.84096677416477
 20
-121.1903631966989
 30
0.0
 10
90.70953638140249
 20
-121.2644327496318
 30
0.0
  0
SPLINE
  5
B7
330
A9
100
AcDbEntity
  8
_U+30EC_U+30A4_U+30E4_U+30FC 1
370
     0
100
AcDbSpline
210
0.0
220
0.0
230
1.0
 70
    11
 71
     3
 72
    17
 73
    13
 74
     0
 42
0.0000000001
 43
0.0000000001
 12
1.0
 22
0.0
 32
0.0
 13
1.0
 23
0.0
 33
0.0
 40
0.0
 40
0.0
 40
0.0
 40
0.0
 40
1.0
 40
1.0
 40
1.0
 40
2.0
 40
2.0
 40
2.0
 40
3.0
 40
3.0
 40
3.0
 40
4.0
 40
4.0
 40
4.0
 40
4.0
 10
90.84286157668166
 20
-120.7990003495746
 30
0.0
 10
90.81685110576801
 20
-120.7588649871714
 30
0.0
 10
90.75759546342172
 20
-120.6615410397131
 30
0.0
 10
90.59843205200318
 20
-120.5514702389594
 30
0.0
 10
90.59843205200318
 20
-120.5514702389594
 30
0.0
 10
90.70953638140249
 20
-120.4181450436802
 30
0.0
 10
90.70953638140249
 20
-120.4181450436802
 30
0.0
 10
90.87248939785479
 20
-120.5197753604951
 30
0.0
 10
90.92244328239092
 20
-120.6086588240145
 30
0.0
 10
90.94655895078768
 20
-120.6508612437088
 30
0.0
 10
90.94655895078768
 20
-120.6508612437088
 30
0.0
 10
90.84286157668166
 20
-120.7990003495746
 30
0.0
 10
90.84286157668166
 20
-120.7990003495746
 30
0.0
  0
SPLINE
  5
B8
330
A9
100
AcDbEntity
  8
_U+30EC_U+30A4_U+30E4_U+30FC 1
370
     0
100
AcDbSpline
210
0.0
220
0.0
230
1.0
 70
    11
 71
     3
 72
    38
 73
    34
 74
     0
 42
0.0000000001
 43
0.0000000001
 12
1.0
 22
0.0
 32
0.0
 13
1.0
 23
0.0
 33
0.0
 40
0.0
 40
0.0
 40
0.0
 40
0.0
 40
1.0
 40
1.0
 40
1.0
 40
2.0
 40
2.0
 40
2.0
 40
3.0
 40
3.0
 40
3.0
 40
4.0
 40
4.0
 40
4.0
 40
5.0
 40
5.0
 40
5.0
 40
6.0
 40
6.0
 40
6.0
 40
7.0
 40
7.0
 40
7.0
 40
8.0
 40
8.0
 40
8.0
 40
9.0
 40
9.0
 40
9.0
 40
10.0
 40
10.0
 40
10.0
 40
11.0
 40
11.0
 40
11.0
 40
11.0
 10
91.16497800455251
 20
-120.4942816539042
 30
0.0
 10
91.16325545680988
 20
-120.5409626977293
 30
0.0
 10
91.16136065429299
 20
-120.6572346703565
 30
0.0
 10
91.16136065429299
 20
-120.7016764021162
 30
0.0
 10
91.16136065429299
 20
-120.7016764021162
 30
0.0
 10
91.16136065429299
 20
-121.0485975174809
 30
0.0
 10
91.16136065429299
 20
-121.0485975174809
 30
0.0
 10
91.16136065429299
 20
-121.1354139237092
 30
0.0
 10
91.16325545680988
 20
-121.277007348153
 30
0.0
 10
91.1723849598458
 20
-121.3975856901367
 30
0.0
 10
91.1723849598458
 20
-121.3975856901367
 30
0.0
 10
91.00581459313396
 20
-121.3975856901367
 30
0.0
 10
91.00581459313396
 20
-121.3975856901367
 30
0.0
 10
91.00943194339348
 20
-121.3341959332081
 30
0.0
 10
91.01322154842725
 20
-121.2813137175095
 30
0.0
 10
91.01511635094414
 20
-121.2263644445198
 30
0.0
 10
91.01683889868677
 20
-121.1035467904706
 30
0.0
 10
91.01873370120366
 20
-121.0887328798841
 30
0.0
 10
91.01873370120366
 20
-121.0442911481243
 30
0.0
 10
91.01873370120366
 20
-121.0442911481243
 30
0.0
 10
91.01873370120366
 20
-120.7228637393505
 30
0.0
 10
91.01873370120366
 20
-120.7228637393505
 30
0.0
 10
91.01873370120366
 20
-120.6677422115865
 30
0.0
 10
91.00770939565085
 20
-120.4288248396845
 30
0.0
 10
91.00581459313396
 20
-120.378009681277
 30
0.0
 10
91.00581459313396
 20
-120.378009681277
 30
0.0
 10
91.18168671765598
 20
-120.405570445159
 30
0.0
 10
91.18168671765598
 20
-120.405570445159
 30
0.0
 10
91.20029023327632
 20
-120.4076375024502
 30
0.0
 10
91.22802325193258
 20
-120.4117716170325
 30
0.0
 10
91.22802325193258
 20
-120.4372653236233
 30
0.0
 10
91.22802325193258
 20
-120.4646538327311
 30
0.0
 10
91.18358152017286
 20
-120.4858411699654
 30
0.0
 10
91.16497800455251
 20
-120.4942816539042
 30
0.0
  0
SPLINE
  5
B9
330
A9
100
AcDbEntity
  8
_U+30EC_U+30A4_U+30E4_U+30FC 1
370
     0
100
AcDbSpline
210
0.0
220
0.0
230
1.0
 70
    11
 71
     3
 72
    83
 73
    79
 74
     0
 42
0.0000000001
 43
0.0000000001
 12
1.0
 22
0.0
 32
0.0
 13
1.0
 23
0.0
 33
0.0
 40
0.0
 40
0.0
 40
0.0
 40
0.0
 40
1.0
 40
1.0
 40
1.0
 40
2.0
 40
2.0
 40
2.0
 40
3.0
 40
3.0
 40
3.0
 40
4.0
 40
4.0
 40
4.0
 40
5.0
 40
5.0
 40
5.0
 40
6.0
 40
6.0
 40
6.0
 40
7.0
 40
7.0
 40
7.0
 40
8.0
 40
8.0
 40
8.0
 40
9.0
 40
9.0
 40
9.0
 40
10.0
 40
10.0
 40
10.0
 40
11.0
 40
11.0
 40
11.0
 40
12.0
 40
12.0
 40
12.0
 40
13.0
 40
13.0
 40
13.0
 40
14.0
 40
14.0
 40
14.0
 40
15.0
 40
15.0
 40
15.0
 40
16.0
 40
16.0
 40
16.0
 40
17.0
 40
17.0
 40
17.0
 40
18.0
 40
18.0
 40
18.0
 40
19.0
 40
19.0
 40
19.0
 40
20.0
 40
20.0
 40
20.0
 40
21.0
 40
21.0
 40
21.0
 40
22.0
 40
22.0
 40
22.0
 40
23.0
 40
23.0
 40
23.0
 40
24.0
 40
24.0
 40
24.0
 40
25.0
 40
25.0
 40
25.0
 40
26.0
 40
26.0
 40
26.0
 40
26.0
 10
91.86691620967217
 20
-120.8158813174523
 30
0.0
 10
91.86691620967217
 20
-120.8158813174523
 30
0.0
 10
91.78182235118649
 20
-120.8158813174523
 30
0.0
 10
91.78182235118649
 20
-120.8158813174523
 30
0.0
 10
91.78182235118649
 20
-120.8158813174523
 30
0.0
 10
91.78182235118649
 20
-121.0634114280675
 30
0.0
 10
91.78182235118649
 20
-121.0634114280675
 30
0.0
 10
91.78182235118649
 20
-121.0634114280675
 30
0.0
 10
91.85382484682822
 20
-121.0634114280675
 30
0.0
 10
91.85382484682822
 20
-121.0634114280675
 30
0.0
 10
91.91135794143189
 20
-121.0634114280675
 30
0.0
 10
92.03365883115826
 20
-121.0591050587109
 30
0.0
 10
92.12047523738656
 20
-121.0506645747721
 30
0.0
 10
92.12047523738656
 20
-121.0506645747721
 30
0.0
 10
92.12047523738656
 20
-121.2304985591021
 30
0.0
 10
92.12047523738656
 20
-121.2304985591021
 30
0.0
 10
92.03917098393465
 20
-121.2220580751632
 30
0.0
 10
91.90756833639811
 20
-121.2179239605809
 30
0.0
 10
91.85382484682822
 20
-121.2179239605809
 30
0.0
 10
91.85382484682822
 20
-121.2179239605809
 30
0.0
 10
91.58717445626988
 20
-121.2179239605809
 30
0.0
 10
91.58717445626988
 20
-121.2179239605809
 30
0.0
 10
91.54101017676753
 20
-121.2179239605809
 30
0.0
 10
91.41319713426476
 20
-121.2220580751632
 30
0.0
 10
91.32052406571154
 20
-121.2304985591021
 30
0.0
 10
91.32052406571154
 20
-121.2304985591021
 30
0.0
 10
91.32052406571154
 20
-121.0506645747721
 30
0.0
 10
91.32052406571154
 20
-121.0506645747721
 30
0.0
 10
91.40768498148836
 20
-121.0591050587109
 30
0.0
 10
91.52998587121473
 20
-121.0634114280675
 30
0.0
 10
91.58717445626988
 20
-121.0634114280675
 30
0.0
 10
91.58717445626988
 20
-121.0634114280675
 30
0.0
 10
91.6261040352532
 20
-121.0634114280675
 30
0.0
 10
91.6261040352532
 20
-121.0634114280675
 30
0.0
 10
91.6261040352532
 20
-121.0634114280675
 30
0.0
 10
91.6261040352532
 20
-120.8158813174523
 30
0.0
 10
91.6261040352532
 20
-120.8158813174523
 30
0.0
 10
91.6261040352532
 20
-120.8158813174523
 30
0.0
 10
91.5613362401305
 20
-120.8158813174523
 30
0.0
 10
91.5613362401305
 20
-120.8158813174523
 30
0.0
 10
91.5075927505606
 20
-120.8158813174523
 30
0.0
 10
91.36134844721175
 20
-120.8201876868089
 30
0.0
 10
91.25575627058885
 20
-120.8286281707477
 30
0.0
 10
91.25575627058885
 20
-120.8286281707477
 30
0.0
 10
91.25575627058885
 20
-120.6508612437088
 30
0.0
 10
91.25575627058885
 20
-120.6508612437088
 30
0.0
 10
91.35583629443535
 20
-120.6572346703565
 30
0.0
 10
91.49450138771665
 20
-120.6615410397131
 30
0.0
 10
91.5613362401305
 20
-120.6615410397131
 30
0.0
 10
91.5613362401305
 20
-120.6615410397131
 30
0.0
 10
91.62438148751058
 20
-120.6615410397131
 30
0.0
 10
91.62438148751058
 20
-120.6615410397131
 30
0.0
 10
91.6205918824768
 20
-120.5090955644908
 30
0.0
 10
91.61886933473417
 20
-120.4753336287353
 30
0.0
 10
91.61301267240925
 20
-120.3821437958593
 30
0.0
 10
91.61301267240925
 20
-120.3821437958593
 30
0.0
 10
91.79835880951569
 20
-120.405570445159
 30
0.0
 10
91.79835880951569
 20
-120.405570445159
 30
0.0
 10
91.8204074206213
 20
-120.4076375024502
 30
0.0
 10
91.84107799353279
 20
-120.4117716170325
 30
0.0
 10
91.84107799353279
 20
-120.4350260115579
 30
0.0
 10
91.84107799353279
 20
-120.4668931447965
 30
0.0
 10
91.80214841454946
 20
-120.4837741126742
 30
0.0
 10
91.78182235118649
 20
-120.4922145966131
 30
0.0
 10
91.78182235118649
 20
-120.4922145966131
 30
0.0
 10
91.78182235118649
 20
-120.6615410397131
 30
0.0
 10
91.78182235118649
 20
-120.6615410397131
 30
0.0
 10
91.78182235118649
 20
-120.6615410397131
 30
0.0
 10
91.86691620967217
 20
-120.6615410397131
 30
0.0
 10
91.86691620967217
 20
-120.6615410397131
 30
0.0
 10
91.93340655253749
 20
-120.6615410397131
 30
0.0
 10
92.07224390059305
 20
-120.6572346703565
 30
0.0
 10
92.17421872695645
 20
-120.6508612437088
 30
0.0
 10
92.17421872695645
 20
-120.6508612437088
 30
0.0
 10
92.17421872695645
 20
-120.8286281707477
 30
0.0
 10
92.17421872695645
 20
-120.8286281707477
 30
0.0
 10
92.0798231106606
 20
-120.8222547441
 30
0.0
 10
91.92789439976109
 20
-120.8158813174523
 30
0.0
 10
91.86691620967217
 20
-120.8158813174523
 30
0.0
  0
SPLINE
  5
BA
330
A9
100
AcDbEntity
  8
_U+30EC_U+30A4_U+30E4_U+30FC 1
370
     0
100
AcDbSpline
210
0.0
220
0.0
230
1.0
 70
    11
 71
     3
 72
    17
 73
    13
 74
     0
 42
0.0000000001
 43
0.0000000001
 12
1.0
 22
0.0
 32
0.0
 13
1.0
 23
0.0
 33
0.0
 40
0.0
 40
0.0
 40
0.0
 40
0.0
 40
1.0
 40
1.0
 40
1.0
 40
2.0
 40
2.0
 40
2.0
 40
3.0
 40
3.0
 40
3.0
 40
4.0
 40
4.0
 40
4.0
 40
4.0
 10
91.65194225139257
 20
-121.6134209222876
 30
0.0
 10
91.65194225139257
 20
-121.6134209222876
 30
0.0
 10
91.47417532435368
 20
-121.6134209222876
 30
0.0
 10
91.47417532435368
 20
-121.6134209222876
 30
0.0
 10
91.49829099275043
 20
-121.6726765646339
 30
0.0
 10
91.54652232954393
 20
-121.7446790602756
 30
0.0
 10
91.57063799794068
 20
-121.7741346266745
 30
0.0
 10
91.59475366633743
 20
-121.7594929708622
 30
0.0
 10
91.69466143540967
 20
-121.6959309591594
 30
0.0
 10
91.77424314111894
 20
-121.6134209222876
 30
0.0
 10
91.77424314111894
 20
-121.6134209222876
 30
0.0
 10
91.65194225139257
 20
-121.6134209222876
 30
0.0
 10
91.65194225139257
 20
-121.6134209222876
 30
0.0
  0
HATCH
  5
BB
330
A9
100
AcDbEntity
  8
_U+30EC_U+30A4_U+30E4_U+30FC 1
 62
   179
420
  2234388
100
AcDbHatch
 10
0.0
 20
0.0
 30
0.0
210
0.0
220
0.0
230
1.0
  2
SOLID
 70
     1
 71
     0
 91
        6
 92
        1
 93
        1
 72
     4
 94
        3
 73
     0
 74
     1
 95
      113
 96
      109
 40
0.0
 40
0.0
 40
0.0
 40
0.0
 40
1.0
 40
1.0
 40
1.0
 40
2.0
 40
2.0
 40
2.0
 40
3.0
 40
3.0
 40
3.0
 40
4.0
 40
4.0
 40
4.0
 40
5.0
 40
5.0
 40
5.0
 40
6.0
 40
6.0
 40
6.0
 40
7.0
 40
7.0
 40
7.0
 40
8.0
 40
8.0
 40
8.0
 40
9.0
 40
9.0
 40
9.0
 40
10.0
 40
10.0
 40
10.0
 40
11.0
 40
11.0
 40
11.0
 40
12.0
 40
12.0
 40
12.0
 40
13.0
 40
13.0
 40
13.0
 40
14.0
 40
14.0
 40
14.0
 40
15.0
 40
15.0
 40
15.0
 40
16.0
 40
16.0
 40
16.0
 40
17.0
 40
17.0
 40
17.0
 40
18.0
 40
18.0
 40
18.0
 40
19.0
 40
19.0
 40
19.0
 40
20.0
 40
20.0
 40
20.0
 40
21.0
 40
21.0
 40
21.0
 40
22.0
 40
22.0
 40
22.0
 40
23.0
 40
23.0
 40
23.0
 40
24.0
 40
24.0
 40
24.0
 40
25.0
 40
25.0
 40
25.0
 40
26.0
 40
26.0
 40
26.0
 40
27.0
 40
27.0
 40
27.0
 40
28.0
 40
28.0
 40
28.0
 40
29.0
 40
29.0
 40
29.0
 40
30.0
 40
30.0
 40
30.0
 40
31.0
 40
31.0
 40
31.0
 40
32.0
 40
32.0
 40
32.0
 40
33.0
 40
33.0
 40
33.0
 40
34.0
 40
34.0
 40
34.0
 40
35.0
 40
35.0
 40
35.0
 40
36.0
 40
36.0
 40
36.0
 40
36.0
 10
91.83349878346525
 20
-121.6154879795788
 10
91.83349878346525
 20
-121.6154879795788
 10
91.92065969924207
 20
-121.7150512391025
 10
91.92065969924207
 20
-121.7150512391025
 10
91.92996145705223
 20
-121.7255587803325
 10
91.93891870531388
 20
-121.7383056336279
 10
91.93891870531388
 20
-121.7531195442145
 10
91.93891870531388
 20
-121.7551866015057
 10
91.93891870531388
 20
-121.7848144226788
 10
91.90584578865548
 20
-121.7848144226788
 10
91.89826657858794
 20
-121.7848144226788
 10
91.8631266046384
 20
-121.7805080533222
 10
91.85761445186199
 20
-121.7805080533222
 10
91.82247447791244
 20
-121.8123751865608
 10
91.78182235118649
 20
-121.8461371223163
 10
91.69466143540967
 20
-121.9033257073714
 10
91.82247447791244
 20
-122.0111571960597
 10
91.96131182596801
 20
-122.0683457811149
 10
92.20005694309582
 20
-122.1064140862269
 10
92.20005694309582
 20
-122.1064140862269
 10
92.0687988051078
 20
-122.2819417012004
 10
92.0687988051078
 20
-122.2819417012004
 10
91.83901093624164
 20
-122.2099392055586
 10
91.70189613592869
 20
-122.1212279968134
 10
91.63540579306337
 20
-122.0683457811149
 10
91.50380314552683
 20
-121.9667154643
 10
91.37805716031521
 20
-121.8037624478477
 10
91.31139456267563
 20
-121.6387423741042
 10
91.25213892032933
 20
-121.7043714430982
 10
91.18719887043237
 20
-121.7572536587968
 10
91.11881372505016
 20
-121.8060017599131
 10
91.11881372505016
 20
-121.8060017599131
 10
91.11881372505016
 20
-122.0576659851106
 10
91.11881372505016
 20
-122.0576659851106
 10
91.26126842336524
 20
-122.032344533294
 10
91.42422143981756
 20
-121.9879028015343
 10
91.47968747713008
 20
-121.9730888909477
 10
91.47968747713008
 20
-121.9730888909477
 10
91.45384926099071
 20
-122.1422430792735
 10
91.45384926099071
 20
-122.1422430792735
 10
91.45212671324808
 20
-122.1422430792735
 10
91.43524574537037
 20
-122.1486165059212
 10
91.43352319762774
 20
-122.1486165059212
 10
91.25954587562262
 20
-122.1866848110332
 10
90.98169892473722
 20
-122.2523138800272
 10
90.80944415047473
 20
-122.2883151278481
 10
90.80031464743881
 20
-122.3051960957258
 10
90.77981632930158
 20
-122.3368909741901
 10
90.75949026593861
 20
-122.3368909741901
 10
90.73537459754185
 20
-122.3368909741901
 10
90.73175724728235
 20
-122.3179429490212
 10
90.72986244476546
 20
-122.2988226690781
 10
90.72986244476546
 20
-122.2988226690781
 10
90.7076415788856
 20
-122.1253621113957
 10
90.7076415788856
 20
-122.1253621113957
 10
90.77240937400829
 20
-122.1169216274569
 10
90.8669772450784
 20
-122.1041747741615
 10
90.96137286137424
 20
-122.0831596917014
 10
90.96137286137424
 20
-122.0831596917014
 10
90.96137286137424
 20
-121.9053927646626
 10
90.96137286137424
 20
-121.9053927646626
 10
90.83545462138837
 20
-121.9773952603043
 10
90.75208331064532
 20
-122.0068508267032
 10
90.60773380981335
 20
-122.0364786478763
 10
90.60773380981335
 20
-122.0364786478763
 10
90.50214163319045
 20
-121.8673244595505
 10
90.50214163319045
 20
-121.8673244595505
 10
90.77981632930158
 20
-121.8397636956685
 10
90.94845375330456
 20
-121.7467461175668
 10
91.10399981446359
 20
-121.6134209222876
 10
90.97618677196081
 20
-121.6134209222876
 10
90.71315373166199
 20
-121.6177272916442
 10
90.54107121217376
 20
-121.6241007182919
 10
90.54107121217376
 20
-121.6241007182919
 10
90.54107121217376
 20
-121.446333791253
 10
90.54107121217376
 20
-121.446333791253
 10
90.67611895519556
 20
-121.4527072179007
 10
90.93536239046061
 20
-121.4590806445484
 10
91.0965928591703
 20
-121.4590806445484
 10
91.0965928591703
 20
-121.4590806445484
 10
91.28176674150248
 20
-121.4590806445484
 10
91.28176674150248
 20
-121.4590806445484
 10
91.28176674150248
 20
-121.3638237543813
 10
91.2798719389856
 20
-121.3130085959738
 10
91.27435978620919
 20
-121.266499806923
 10
91.27435978620919
 20
-121.266499806923
 10
91.46315101880089
 20
-121.2833807748007
 10
91.46315101880089
 20
-121.2833807748007
 10
91.50587020281799
 20
-121.2876871441572
 10
91.51310490333701
 20
-121.3025010547438
 10
91.51310490333701
 20
-121.3173149653304
 10
91.51310490333701
 20
-121.342636417147
 10
91.49829099275043
 20
-121.3510769010858
 10
91.45384926099071
 20
-121.3765706076767
 10
91.45212671324808
 20
-121.4018920594933
 10
91.45212671324808
 20
-121.408265486141
 10
91.45005965595693
 20
-121.4590806445484
 10
91.45005965595693
 20
-121.4590806445484
 10
91.65194225139257
 20
-121.4590806445484
 10
91.65194225139257
 20
-121.4590806445484
 10
91.79663626177307
 20
-121.4590806445484
 10
92.05191783723008
 20
-121.4527072179007
 10
92.209358700906
 20
-121.446333791253
 10
92.209358700906
 20
-121.446333791253
 10
92.209358700906
 20
-121.6241007182919
 10
92.209358700906
 20
-121.6241007182919
 10
92.0963595689898
 20
-121.6197943489353
 10
92.07603350562682
 20
-121.6197943489353
 10
91.83349878346525
 20
-121.6154879795788
 97
        0
 97
        0
 92
        1
 93
        1
 72
     4
 94
        3
 73
     0
 74
     1
 95
       23
 96
       19
 40
0.0
 40
0.0
 40
0.0
 40
0.0
 40
1.0
 40
1.0
 40
1.0
 40
2.0
 40
2.0
 40
2.0
 40
3.0
 40
3.0
 40
3.0
 40
4.0
 40
4.0
 40
4.0
 40
5.0
 40
5.0
 40
5.0
 40
6.0
 40
6.0
 40
6.0
 40
6.0
 10
90.70953638140249
 20
-121.2644327496318
 10
90.6947224708159
 20
-121.304568112035
 10
90.68921031803951
 20
-121.3214490799127
 10
90.67060680241916
 20
-121.3214490799127
 10
90.65768769434948
 20
-121.3214490799127
 10
90.6483859365393
 20
-121.304568112035
 10
90.6428737837629
 20
-121.2918212587395
 10
90.6428737837629
 20
-121.2918212587395
 10
90.55588512276034
 20
-121.1268011849961
 10
90.55588512276034
 20
-121.1268011849961
 10
90.64476858627978
 20
-121.0951063065318
 10
90.77619897904206
 20
-121.040157033542
 10
90.95017630104718
 20
-120.8772040170897
 10
90.95017630104718
 20
-120.8772040170897
 10
91.00030244035757
 20
-121.0506645747721
 10
91.00030244035757
 20
-121.0506645747721
 10
90.91882593213141
 20
-121.1331746116438
 10
90.84096677416477
 20
-121.1903631966989
 10
90.70953638140249
 20
-121.2644327496318
 97
        0
 97
        0
 92
        1
 93
        1
 72
     4
 94
        3
 73
     0
 74
     1
 95
       17
 96
       13
 40
0.0
 40
0.0
 40
0.0
 40
0.0
 40
1.0
 40
1.0
 40
1.0
 40
2.0
 40
2.0
 40
2.0
 40
3.0
 40
3.0
 40
3.0
 40
4.0
 40
4.0
 40
4.0
 40
4.0
 10
90.84286157668166
 20
-120.7990003495746
 10
90.81685110576801
 20
-120.7588649871714
 10
90.75759546342172
 20
-120.6615410397131
 10
90.59843205200318
 20
-120.5514702389594
 10
90.59843205200318
 20
-120.5514702389594
 10
90.70953638140249
 20
-120.4181450436802
 10
90.70953638140249
 20
-120.4181450436802
 10
90.87248939785479
 20
-120.5197753604951
 10
90.92244328239092
 20
-120.6086588240145
 10
90.94655895078768
 20
-120.6508612437088
 10
90.94655895078768
 20
-120.6508612437088
 10
90.84286157668166
 20
-120.7990003495746
 10
90.84286157668166
 20
-120.7990003495746
 97
        0
 97
        0
 92
        1
 93
        1
 72
     4
 94
        3
 73
     0
 74
     1
 95
       38
 96
       34
 40
0.0
 40
0.0
 40
0.0
 40
0.0
 40
1.0
 40
1.0
 40
1.0
 40
2.0
 40
2.0
 40
2.0
 40
3.0
 40
3.0
 40
3.0
 40
4.0
 40
4.0
 40
4.0
 40
5.0
 40
5.0
 40
5.0
 40
6.0
 40
6.0
 40
6.0
 40
7.0
 40
7.0
 40
7.0
 40
8.0
 40
8.0
 40
8.0
 40
9.0
 40
9.0
 40
9.0
 40
10.0
 40
10.0
 40
10.0
 40
11.0
 40
11.0
 40
11.0
 40
11.0
 10
91.16497800455251
 20
-120.4942816539042
 10
91.16325545680988
 20
-120.5409626977293
 10
91.16136065429299
 20
-120.6572346703565
 10
91.16136065429299
 20
-120.7016764021162
 10
91.16136065429299
 20
-120.7016764021162
 10
91.16136065429299
 20
-121.0485975174809
 10
91.16136065429299
 20
-121.0485975174809
 10
91.16136065429299
 20
-121.1354139237092
 10
91.16325545680988
 20
-121.277007348153
 10
91.1723849598458
 20
-121.3975856901367
 10
91.1723849598458
 20
-121.3975856901367
 10
91.00581459313396
 20
-121.3975856901367
 10
91.00581459313396
 20
-121.3975856901367
 10
91.00943194339348
 20
-121.3341959332081
 10
91.01322154842725
 20
-121.2813137175095
 10
91.01511635094414
 20
-121.2263644445198
 10
91.01683889868677
 20
-121.1035467904706
 10
91.01873370120366
 20
-121.0887328798841
 10
91.01873370120366
 20
-121.0442911481243
 10
91.01873370120366
 20
-121.0442911481243
 10
91.01873370120366
 20
-120.7228637393505
 10
91.01873370120366
 20
-120.7228637393505
 10
91.01873370120366
 20
-120.6677422115865
 10
91.00770939565085
 20
-120.4288248396845
 10
91.00581459313396
 20
-120.378009681277
 10
91.00581459313396
 20
-120.378009681277
 10
91.18168671765598
 20
-120.405570445159
 10
91.18168671765598
 20
-120.405570445159
 10
91.20029023327632
 20
-120.4076375024502
 10
91.22802325193258
 20
-120.4117716170325
 10
91.22802325193258
 20
-120.4372653236233
 10
91.22802325193258
 20
-120.4646538327311
 10
91.18358152017286
 20
-120.4858411699654
 10
91.16497800455251
 20
-120.4942816539042
 97
        0
 97
        0
 92
        1
 93
        1
 72
     4
 94
        3
 73
     0
 74
     1
 95
       83
 96
       79
 40
0.0
 40
0.0
 40
0.0
 40
0.0
 40
1.0
 40
1.0
 40
1.0
 40
2.0
 40
2.0
 40
2.0
 40
3.0
 40
3.0
 40
3.0
 40
4.0
 40
4.0
 40
4.0
 40
5.0
 40
5.0
 40
5.0
 40
6.0
 40
6.0
 40
6.0
 40
7.0
 40
7.0
 40
7.0
 40
8.0
 40
8.0
 40
8.0
 40
9.0
 40
9.0
 40
9.0
 40
10.0
 40
10.0
 40
10.0
 40
11.0
 40
11.0
 40
11.0
 40
12.0
 40
12.0
 40
12.0
 40
13.0
 40
13.0
 40
13.0
 40
14.0
 40
14.0
 40
14.0
 40
15.0
 40
15.0
 40
15.0
 40
16.0
 40
16.0
 40
16.0
 40
17.0
 40
17.0
 40
17.0
 40
18.0
 40
18.0
 40
18.0
 40
19.0
 40
19.0
 40
19.0
 40
20.0
 40
20.0
 40
20.0
 40
21.0
 40
21.0
 40
21.0
 40
22.0
 40
22.0
 40
22.0
 40
23.0
 40
23.0
 40
23.0
 40
24.0
 40
24.0
 40
24.0
 40
25.0
 40
25.0
 40
25.0
 40
26.0
 40
26.0
 40
26.0
 40
26.0
 10
91.86691620967217
 20
-120.8158813174523
 10
91.86691620967217
 20
-120.8158813174523
 10
91.78182235118649
 20
-120.8158813174523
 10
91.78182235118649
 20
-120.8158813174523
 10
91.78182235118649
 20
-120.8158813174523
 10
91.78182235118649
 20
-121.0634114280675
 10
91.78182235118649
 20
-121.0634114280675
 10
91.78182235118649
 20
-121.0634114280675
 10
91.85382484682822
 20
-121.0634114280675
 10
91.85382484682822
 20
-121.0634114280675
 10
91.91135794143189
 20
-121.0634114280675
 10
92.03365883115826
 20
-121.0591050587109
 10
92.12047523738656
 20
-121.0506645747721
 10
92.12047523738656
 20
-121.0506645747721
 10
92.12047523738656
 20
-121.2304985591021
 10
92.12047523738656
 20
-121.2304985591021
 10
92.03917098393465
 20
-121.2220580751632
 10
91.90756833639811
 20
-121.2179239605809
 10
91.85382484682822
 20
-121.2179239605809
 10
91.85382484682822
 20
-121.2179239605809
 10
91.58717445626988
 20
-121.2179239605809
 10
91.58717445626988
 20
-121.2179239605809
 10
91.54101017676753
 20
-121.2179239605809
 10
91.41319713426476
 20
-121.2220580751632
 10
91.32052406571154
 20
-121.2304985591021
 10
91.32052406571154
 20
-121.2304985591021
 10
91.32052406571154
 20
-121.0506645747721
 10
91.32052406571154
 20
-121.0506645747721
 10
91.40768498148836
 20
-121.0591050587109
 10
91.52998587121473
 20
-121.0634114280675
 10
91.58717445626988
 20
-121.0634114280675
 10
91.58717445626988
 20
-121.0634114280675
 10
91.6261040352532
 20
-121.0634114280675
 10
91.6261040352532
 20
-121.0634114280675
 10
91.6261040352532
 20
-121.0634114280675
 10
91.6261040352532
 20
-120.8158813174523
 10
91.6261040352532
 20
-120.8158813174523
 10
91.6261040352532
 20
-120.8158813174523
 10
91.5613362401305
 20
-120.8158813174523
 10
91.5613362401305
 20
-120.8158813174523
 10
91.5075927505606
 20
-120.8158813174523
 10
91.36134844721175
 20
-120.8201876868089
 10
91.25575627058885
 20
-120.8286281707477
 10
91.25575627058885
 20
-120.8286281707477
 10
91.25575627058885
 20
-120.6508612437088
 10
91.25575627058885
 20
-120.6508612437088
 10
91.35583629443535
 20
-120.6572346703565
 10
91.49450138771665
 20
-120.6615410397131
 10
91.5613362401305
 20
-120.6615410397131
 10
91.5613362401305
 20
-120.6615410397131
 10
91.62438148751058
 20
-120.6615410397131
 10
91.62438148751058
 20
-120.6615410397131
 10
91.6205918824768
 20
-120.5090955644908
 10
91.61886933473417
 20
-120.4753336287353
 10
91.61301267240925
 20
-120.3821437958593
 10
91.61301267240925
 20
-120.3821437958593
 10
91.79835880951569
 20
-120.405570445159
 10
91.79835880951569
 20
-120.405570445159
 10
91.8204074206213
 20
-120.4076375024502
 10
91.84107799353279
 20
-120.4117716170325
 10
91.84107799353279
 20
-120.4350260115579
 10
91.84107799353279
 20
-120.4668931447965
 10
91.80214841454946
 20
-120.4837741126742
 10
91.78182235118649
 20
-120.4922145966131
 10
91.78182235118649
 20
-120.4922145966131
 10
91.78182235118649
 20
-120.6615410397131
 10
91.78182235118649
 20
-120.6615410397131
 10
91.78182235118649
 20
-120.6615410397131
 10
91.86691620967217
 20
-120.6615410397131
 10
91.86691620967217
 20
-120.6615410397131
 10
91.93340655253749
 20
-120.6615410397131
 10
92.07224390059305
 20
-120.6572346703565
 10
92.17421872695645
 20
-120.6508612437088
 10
92.17421872695645
 20
-120.6508612437088
 10
92.17421872695645
 20
-120.8286281707477
 10
92.17421872695645
 20
-120.8286281707477
 10
92.0798231106606
 20
-120.8222547441
 10
91.92789439976109
 20
-120.8158813174523
 10
91.86691620967217
 20
-120.8158813174523
 97
        0
 97
        0
 92
        1
 93
        1
 72
     4
 94
        3
 73
     0
 74
     1
 95
       17
 96
       13
 40
0.0
 40
0.0
 40
0.0
 40
0.0
 40
1.0
 40
1.0
 40
1.0
 40
2.0
 40
2.0
 40
2.0
 40
3.0
 40
3.0
 40
3.0
 40
4.0
 40
4.0
 40
4.0
 40
4.0
 10
91.65194225139257
 20
-121.6134209222876
 10
91.65194225139257
 20
-121.6134209222876
 10
91.47417532435368
 20
-121.6134209222876
 10
91.47417532435368
 20
-121.6134209222876
 10
91.49829099275043
 20
-121.6726765646339
 10
91.54652232954393
 20
-121.7446790602756
 10
91.57063799794068
 20
-121.7741346266745
 10
91.59475366633743
 20
-121.7594929708622
 10
91.69466143540967
 20
-121.6959309591594
 10
91.77424314111894
 20
-121.6134209222876
 10
91.77424314111894
 20
-121.6134209222876
 10
91.65194225139257
 20
-121.6134209222876
 10
91.65194225139257
 20
-121.6134209222876
 97
        0
 97
        0
 75
     2
 76
     1
 98
        0
  0
SPLINE
  5
BC
330
A9
100
AcDbEntity
  8
_U+30EC_U+30A4_U+30E4_U+30FC 1
370
     0
100
AcDbSpline
210
0.0
220
0.0
230
1.0
 70
    11
 71
     3
 72
    77
 73
    73
 74
     0
 42
0.0000000001
 43
0.0000000001
 12
1.0
 22
0.0
 32
0.0
 13
1.0
 23
0.0
 33
0.0
 40
0.0
 40
0.0
 40
0.0
 40
0.0
 40
1.0
 40
1.0
 40
1.0
 40
2.0
 40
2.0
 40
2.0
 40
3.0
 40
3.0
 40
3.0
 40
4.0
 40
4.0
 40
4.0
 40
5.0
 40
5.0
 40
5.0
 40
6.0
 40
6.0
 40
6.0
 40
7.0
 40
7.0
 40
7.0
 40
8.0
 40
8.0
 40
8.0
 40
9.0
 40
9.0
 40
9.0
 40
10.0
 40
10.0
 40
10.0
 40
11.0
 40
11.0
 40
11.0
 40
12.0
 40
12.0
 40
12.0
 40
13.0
 40
13.0
 40
13.0
 40
14.0
 40
14.0
 40
14.0
 40
15.0
 40
15.0
 40
15.0
 40
16.0
 40
16.0
 40
16.0
 40
17.0
 40
17.0
 40
17.0
 40
18.0
 40
18.0
 40
18.0
 40
19.0
 40
19.0
 40
19.0
 40
20.0
 40
20.0
 40
20.0
 40
21.0
 40
21.0
 40
21.0
 40
22.0
 40
22.0
 40
22.0
 40
23.0
 40
23.0
 40
23.0
 40
24.0
 40
24.0
 40
24.0
 40
24.0
 10
93.83372122220129
 20
-122.2438733960883
 30
0.0
 10
93.79306909547535
 20
-122.2691948479049
 30
0.0
 10
93.68385956859292
 20
-122.2819417012004
 30
0.0
 10
93.61530216843646
 20
-122.2819417012004
 30
0.0
 10
93.60427786288366
 20
-122.2819417012004
 30
0.0
 10
93.58188474222953
 20
-122.2819417012004
 30
0.0
 10
93.55225692105638
 20
-122.2776353318438
 30
0.0
 10
93.55225692105638
 20
-122.2776353318438
 30
0.0
 10
93.46716306257072
 20
-122.0512925584629
 30
0.0
 10
93.46716306257072
 20
-122.0512925584629
 30
0.0
 10
93.49300127871008
 20
-122.0576659851106
 30
0.0
 10
93.5429551632462
 20
-122.0661064690494
 30
0.0
 10
93.64492998960961
 20
-122.0661064690494
 30
0.0
 10
93.71348738976607
 20
-122.0661064690494
 30
0.0
 10
93.7152099375087
 20
-122.0239040493551
 30
0.0
 10
93.7152099375087
 20
-121.9667154643
 30
0.0
 10
93.7152099375087
 20
-121.9667154643
 30
0.0
 10
93.7152099375087
 20
-121.6177272916442
 30
0.0
 10
93.7152099375087
 20
-121.6177272916442
 30
0.0
 10
93.7152099375087
 20
-121.6177272916442
 30
0.0
 10
93.31351180392858
 20
-121.6177272916442
 30
0.0
 10
93.31351180392858
 20
-121.6177272916442
 30
0.0
 10
93.3152343516712
 20
-121.7551866015057
 30
0.0
 10
93.31730140896235
 20
-121.9539686110046
 30
0.0
 10
93.32281356173874
 20
-122.0872938062837
 30
0.0
 10
93.32453610948137
 20
-122.1148545701657
 30
0.0
 10
93.32453610948137
 20
-122.1592963019255
 30
0.0
 10
93.33556041503417
 20
-122.2206190015629
 30
0.0
 10
93.33556041503417
 20
-122.2206190015629
 30
0.0
 10
93.12472057133688
 20
-122.2206190015629
 30
0.0
 10
93.12472057133688
 20
-122.2206190015629
 30
0.0
 10
93.14676918244248
 20
-122.0957342902226
 30
0.0
 10
93.14676918244248
 20
-121.7551866015057
 30
0.0
 10
93.14676918244248
 20
-121.6177272916442
 30
0.0
 10
93.14676918244248
 20
-121.6177272916442
 30
0.0
 10
92.75988495944893
 20
-121.6177272916442
 30
0.0
 10
92.75988495944893
 20
-121.6177272916442
 30
0.0
 10
92.73955889608595
 20
-121.824949785082
 30
0.0
 10
92.68202580148228
 20
-122.0936672329315
 30
0.0
 10
92.50977102721978
 20
-122.2776353318438
 30
0.0
 10
92.50977102721978
 20
-122.2776353318438
 30
0.0
 10
92.34509546302485
 20
-122.1549899325689
 30
0.0
 10
92.34509546302485
 20
-122.1549899325689
 30
0.0
 10
92.56730412182345
 20
-121.9350205858357
 30
0.0
 10
92.59486488570545
 20
-121.6029133810576
 30
0.0
 10
92.59486488570545
 20
-121.2708061762795
 30
0.0
 10
92.59486488570545
 20
-121.2708061762795
 30
0.0
 10
92.59486488570545
 20
-120.8350015973954
 30
0.0
 10
92.59486488570545
 20
-120.8350015973954
 30
0.0
 10
92.59486488570545
 20
-120.7990003495746
 30
0.0
 10
92.59314233796283
 20
-120.5662841495459
 30
0.0
 10
92.58556312789528
 20
-120.4646538327311
 30
0.0
 10
92.70786401762165
 20
-120.4753336287353
 30
0.0
 10
92.91904837086746
 20
-120.4753336287353
 30
0.0
 10
93.04479435607908
 20
-120.4753336287353
 30
0.0
 10
93.04479435607908
 20
-120.4753336287353
 30
0.0
 10
93.44683699920773
 20
-120.4753336287353
 30
0.0
 10
93.44683699920773
 20
-120.4753336287353
 30
0.0
 10
93.45958385250316
 20
-120.4753336287353
 30
0.0
 10
93.76516382204483
 20
-120.4753336287353
 30
0.0
 10
93.90400117010039
 20
-120.4646538327311
 30
0.0
 10
93.90227862235777
 20
-120.5175360484296
 30
0.0
 10
93.89676646958137
 20
-120.6784220075908
 30
0.0
 10
93.89676646958137
 20
-120.7292371659983
 30
0.0
 10
93.89676646958137
 20
-120.7292371659983
 30
0.0
 10
93.89676646958137
 20
-121.3362629904993
 30
0.0
 10
93.89676646958137
 20
-121.3362629904993
 30
0.0
 10
93.89676646958137
 20
-121.3553832704424
 30
0.0
 10
93.90606822739154
 20
-121.9265801018968
 30
0.0
 10
93.90606822739154
 20
-122.0387179599417
 30
0.0
 10
93.90606822739154
 20
-122.0957342902226
 30
0.0
 10
93.90606822739154
 20
-122.1973646070375
 30
0.0
 10
93.83372122220129
 20
-122.2438733960883
 30
0.0
  0
POLYLINE
  5
BD
330
A9
100
AcDbEntity
  8
_U+30EC_U+30A4_U+30E4_U+30FC 1
370
     0
100
AcDb2dPolyline
 66
     1
 10
0.0
 20
0.0
 30
0.0
  0
VERTEX
  5
BE
330
BD
100
AcDbEntity
  8
_U+30EC_U+30A4_U+30E4_U+30FC 1
370
     0
100
AcDbVertex
100
AcDb2dVertex
 10
93.14676918244248
 20
-120.6572346703565
 30
0.0
  0
VERTEX
  5
BF
330
BD
100
AcDbEntity
  8
_U+30EC_U+30A4_U+30E4_U+30FC 1
370
     0
100
AcDbVertex
100
AcDb2dVertex
 10
92.76333005493417
 20
-120.6572346703565
 30
0.0
  0
VERTEX
  5
C0
330
BD
100
AcDbEntity
  8
_U+30EC_U+30A4_U+30E4_U+30FC 1
370
     0
100
AcDbVertex
100
AcDb2dVertex
 10
92.76333005493417
 20
-120.9617811112526
 30
0.0
  0
VERTEX
  5
C1
330
BD
100
AcDbEntity
  8
_U+30EC_U+30A4_U+30E4_U+30FC 1
370
     0
100
AcDbVertex
100
AcDb2dVertex
 10
93.14676918244248
 20
-120.9617811112526
 30
0.0
  0
VERTEX
  5
C2
330
BD
100
AcDbEntity
  8
_U+30EC_U+30A4_U+30E4_U+30FC 1
370
     0
100
AcDbVertex
100
AcDb2dVertex
 10
93.14676918244248
 20
-120.6572346703565
 30
0.0
  0
SEQEND
  5
C3
330
BD
100
AcDbEntity
  8
_U+30EC_U+30A4_U+30E4_U+30FC 1
370
     0
  0
POLYLINE
  5
C4
330
A9
100
AcDbEntity
  8
_U+30EC_U+30A4_U+30E4_U+30FC 1
370
     0
100
AcDb2dPolyline
 66
     1
 10
0.0
 20
0.0
 30
0.0
  0
VERTEX
  5
C5
330
C4
100
AcDbEntity
  8
_U+30EC_U+30A4_U+30E4_U+30FC 1
370
     0
100
AcDbVertex
100
AcDb2dVertex
 10
93.14676918244248
 20
-121.1290404970615
 30
0.0
  0
VERTEX
  5
C6
330
C4
100
AcDbEntity
  8
_U+30EC_U+30A4_U+30E4_U+30FC 1
370
     0
100
AcDbVertex
100
AcDb2dVertex
 10
92.76333005493417
 20
-121.1290404970615
 30
0.0
  0
VERTEX
  5
C7
330
C4
100
AcDbEntity
  8
_U+30EC_U+30A4_U+30E4_U+30FC 1
370
     0
100
AcDbVertex
100
AcDb2dVertex
 10
92.76333005493417
 20
-121.4378933073141
 30
0.0
  0
VERTEX
  5
C8
330
C4
100
AcDbEntity
  8
_U+30EC_U+30A4_U+30E4_U+30FC 1
370
     0
100
AcDbVertex
100
AcDb2dVertex
 10
93.14676918244248
 20
-121.4378933073141
 30
0.0
  0
VERTEX
  5
C9
330
C4
100
AcDbEntity
  8
_U+30EC_U+30A4_U+30E4_U+30FC 1
370
     0
100
AcDbVertex
100
AcDb2dVertex
 10
93.14676918244248
 20
-121.1290404970615
 30
0.0
  0
SEQEND
  5
CA
330
C4
100
AcDbEntity
  8
_U+30EC_U+30A4_U+30E4_U+30FC 1
370
     0
  0
POLYLINE
  5
CB
330
A9
100
AcDbEntity
  8
_U+30EC_U+30A4_U+30E4_U+30FC 1
370
     0
100
AcDb2dPolyline
 66
     1
 10
0.0
 20
0.0
 30
0.0
  0
VERTEX
  5
CC
330
CB
100
AcDbEntity
  8
_U+30EC_U+30A4_U+30E4_U+30FC 1
370
     0
100
AcDbVertex
100
AcDb2dVertex
 10
93.7152099375087
 20
-120.6572346703565
 30
0.0
  0
VERTEX
  5
CD
330
CB
100
AcDbEntity
  8
_U+30EC_U+30A4_U+30E4_U+30FC 1
370
     0
100
AcDbVertex
100
AcDb2dVertex
 10
93.31351180392858
 20
-120.6572346703565
 30
0.0
  0
VERTEX
  5
CE
330
CB
100
AcDbEntity
  8
_U+30EC_U+30A4_U+30E4_U+30FC 1
370
     0
100
AcDbVertex
100
AcDb2dVertex
 10
93.31351180392858
 20
-120.9617811112526
 30
0.0
  0
VERTEX
  5
CF
330
CB
100
AcDbEntity
  8
_U+30EC_U+30A4_U+30E4_U+30FC 1
370
     0
100
AcDbVertex
100
AcDb2dVertex
 10
93.7152099375087
 20
-120.9617811112526
 30
0.0
  0
VERTEX
  5
D0
330
CB
100
AcDbEntity
  8
_U+30EC_U+30A4_U+30E4_U+30FC 1
370
     0
100
AcDbVertex
100
AcDb2dVertex
 10
93.7152099375087
 20
-120.6572346703565
 30
0.0
  0
SEQEND
  5
D1
330
CB
100
AcDbEntity
  8
_U+30EC_U+30A4_U+30E4_U+30FC 1
370
     0
  0
POLYLINE
  5
D2
330
A9
100
AcDbEntity
  8
_U+30EC_U+30A4_U+30E4_U+30FC 1
370
     0
100
AcDb2dPolyline
 66
     1
 10
0.0
 20
0.0
 30
0.0
  0
VERTEX
  5
D3
330
D2
100
AcDbEntity
  8
_U+30EC_U+30A4_U+30E4_U+30FC 1
370
     0
100
AcDbVertex
100
AcDb2dVertex
 10
93.7152099375087
 20
-121.1290404970615
 30
0.0
  0
VERTEX
  5
D4
330
D2
100
AcDbEntity
  8
_U+30EC_U+30A4_U+30E4_U+30FC 1
370
     0
100
AcDbVertex
100
AcDb2dVertex
 10
93.31351180392858
 20
-121.1290404970615
 30
0.0
  0
VERTEX
  5
D5
330
D2
100
AcDbEntity
  8
_U+30EC_U+30A4_U+30E4_U+30FC 1
370
     0
100
AcDbVertex
100
AcDb2dVertex
 10
93.31351180392858
 20
-121.4378933073141
 30
0.0
  0
VERTEX
  5
D6
330
D2
100
AcDbEntity
  8
_U+30EC_U+30A4_U+30E4_U+30FC 1
370
     0
100
AcDbVertex
100
AcDb2dVertex
 10
93.7152099375087
 20
-121.4378933073141
 30
0.0
  0
VERTEX
  5
D7
330
D2
100
AcDbEntity
  8
_U+30EC_U+30A4_U+30E4_U+30FC 1
370
     0
100
AcDbVertex
100
AcDb2dVertex
 10
93.7152099375087
 20
-121.1290404970615
 30
0.0
  0
SEQEND
  5
D8
330
D2
100
AcDbEntity
  8
_U+30EC_U+30A4_U+30E4_U+30FC 1
370
     0
  0
HATCH
  5
D9
330
A9
100
AcDbEntity
  8
_U+30EC_U+30A4_U+30E4_U+30FC 1
 62
   179
420
  2234388
100
AcDbHatch
 10
0.0
 20
0.0
 30
0.0
210
0.0
220
0.0
230
1.0
  2
SOLID
 70
     1
 71
     0
 91
        5
 92
        1
 93
        1
 72
     4
 94
        3
 73
     0
 74
     1
 95
       77
 96
       73
 40
0.0
 40
0.0
 40
0.0
 40
0.0
 40
1.0
 40
1.0
 40
1.0
 40
2.0
 40
2.0
 40
2.0
 40
3.0
 40
3.0
 40
3.0
 40
4.0
 40
4.0
 40
4.0
 40
5.0
 40
5.0
 40
5.0
 40
6.0
 40
6.0
 40
6.0
 40
7.0
 40
7.0
 40
7.0
 40
8.0
 40
8.0
 40
8.0
 40
9.0
 40
9.0
 40
9.0
 40
10.0
 40
10.0
 40
10.0
 40
11.0
 40
11.0
 40
11.0
 40
12.0
 40
12.0
 40
12.0
 40
13.0
 40
13.0
 40
13.0
 40
14.0
 40
14.0
 40
14.0
 40
15.0
 40
15.0
 40
15.0
 40
16.0
 40
16.0
 40
16.0
 40
17.0
 40
17.0
 40
17.0
 40
18.0
 40
18.0
 40
18.0
 40
19.0
 40
19.0
 40
19.0
 40
20.0
 40
20.0
 40
20.0
 40
21.0
 40
21.0
 40
21.0
 40
22.0
 40
22.0
 40
22.0
 40
23.0
 40
23.0
 40
23.0
 40
24.0
 40
24.0
 40
24.0
 40
24.0
 10
93.83372122220129
 20
-122.2438733960883
 10
93.79306909547535
 20
-122.2691948479049
 10
93.68385956859292
 20
-122.2819417012004
 10
93.61530216843646
 20
-122.2819417012004
 10
93.60427786288366
 20
-122.2819417012004
 10
93.58188474222953
 20
-122.2819417012004
 10
93.55225692105638
 20
-122.2776353318438
 10
93.55225692105638
 20
-122.2776353318438
 10
93.46716306257072
 20
-122.0512925584629
 10
93.46716306257072
 20
-122.0512925584629
 10
93.49300127871008
 20
-122.0576659851106
 10
93.5429551632462
 20
-122.0661064690494
 10
93.64492998960961
 20
-122.0661064690494
 10
93.71348738976607
 20
-122.0661064690494
 10
93.7152099375087
 20
-122.0239040493551
 10
93.7152099375087
 20
-121.9667154643
 10
93.7152099375087
 20
-121.9667154643
 10
93.7152099375087
 20
-121.6177272916442
 10
93.7152099375087
 20
-121.6177272916442
 10
93.7152099375087
 20
-121.6177272916442
 10
93.31351180392858
 20
-121.6177272916442
 10
93.31351180392858
 20
-121.6177272916442
 10
93.3152343516712
 20
-121.7551866015057
 10
93.31730140896235
 20
-121.9539686110046
 10
93.32281356173874
 20
-122.0872938062837
 10
93.32453610948137
 20
-122.1148545701657
 10
93.32453610948137
 20
-122.1592963019255
 10
93.33556041503417
 20
-122.2206190015629
 10
93.33556041503417
 20
-122.2206190015629
 10
93.12472057133688
 20
-122.2206190015629
 10
93.12472057133688
 20
-122.2206190015629
 10
93.14676918244248
 20
-122.0957342902226
 10
93.14676918244248
 20
-121.7551866015057
 10
93.14676918244248
 20
-121.6177272916442
 10
93.14676918244248
 20
-121.6177272916442
 10
92.75988495944893
 20
-121.6177272916442
 10
92.75988495944893
 20
-121.6177272916442
 10
92.73955889608595
 20
-121.824949785082
 10
92.68202580148228
 20
-122.0936672329315
 10
92.50977102721978
 20
-122.2776353318438
 10
92.50977102721978
 20
-122.2776353318438
 10
92.34509546302485
 20
-122.1549899325689
 10
92.34509546302485
 20
-122.1549899325689
 10
92.56730412182345
 20
-121.9350205858357
 10
92.59486488570545
 20
-121.6029133810576
 10
92.59486488570545
 20
-121.2708061762795
 10
92.59486488570545
 20
-121.2708061762795
 10
92.59486488570545
 20
-120.8350015973954
 10
92.59486488570545
 20
-120.8350015973954
 10
92.59486488570545
 20
-120.7990003495746
 10
92.59314233796283
 20
-120.5662841495459
 10
92.58556312789528
 20
-120.4646538327311
 10
92.70786401762165
 20
-120.4753336287353
 10
92.91904837086746
 20
-120.4753336287353
 10
93.04479435607908
 20
-120.4753336287353
 10
93.04479435607908
 20
-120.4753336287353
 10
93.44683699920773
 20
-120.4753336287353
 10
93.44683699920773
 20
-120.4753336287353
 10
93.45958385250316
 20
-120.4753336287353
 10
93.76516382204483
 20
-120.4753336287353
 10
93.90400117010039
 20
-120.4646538327311
 10
93.90227862235777
 20
-120.5175360484296
 10
93.89676646958137
 20
-120.6784220075908
 10
93.89676646958137
 20
-120.7292371659983
 10
93.89676646958137
 20
-120.7292371659983
 10
93.89676646958137
 20
-121.3362629904993
 10
93.89676646958137
 20
-121.3362629904993
 10
93.89676646958137
 20
-121.3553832704424
 10
93.90606822739154
 20
-121.9265801018968
 10
93.90606822739154
 20
-122.0387179599417
 10
93.90606822739154
 20
-122.0957342902226
 10
93.90606822739154
 20
-122.1973646070375
 10
93.83372122220129
 20
-122.2438733960883
 97
        0
 97
        0
 92
        1
 93
        4
 72
     1
 10
93.14676918244248
 20
-120.6572346703565
 11
92.76333005493417
 21
-120.6572346703565
 72
     1
 10
92.76333005493417
 20
-120.6572346703565
 11
92.76333005493417
 21
-120.9617811112526
 72
     1
 10
92.76333005493417
 20
-120.9617811112526
 11
93.14676918244248
 21
-120.9617811112526
 72
     1
 10
93.14676918244248
 20
-120.9617811112526
 11
93.14676918244248
 21
-120.6572346703565
 97
        0
 92
        1
 93
        4
 72
     1
 10
93.14676918244248
 20
-121.1290404970615
 11
92.76333005493417
 21
-121.1290404970615
 72
     1
 10
92.76333005493417
 20
-121.1290404970615
 11
92.76333005493417
 21
-121.4378933073141
 72
     1
 10
92.76333005493417
 20
-121.4378933073141
 11
93.14676918244248
 21
-121.4378933073141
 72
     1
 10
93.14676918244248
 20
-121.4378933073141
 11
93.14676918244248
 21
-121.1290404970615
 97
        0
 92
        1
 93
        4
 72
     1
 10
93.7152099375087
 20
-120.6572346703565
 11
93.31351180392858
 21
-120.6572346703565
 72
     1
 10
93.31351180392858
 20
-120.6572346703565
 11
93.31351180392858
 21
-120.9617811112526
 72
     1
 10
93.31351180392858
 20
-120.9617811112526
 11
93.7152099375087
 21
-120.9617811112526
 72
     1
 10
93.7152099375087
 20
-120.9617811112526
 11
93.7152099375087
 21
-120.6572346703565
 97
        0
 92
        1
 93
        4
 72
     1
 10
93.7152099375087
 20
-121.1290404970615
 11
93.31351180392858
 21
-121.1290404970615
 72
     1
 10
93.31351180392858
 20
-121.1290404970615
 11
93.31351180392858
 21
-121.4378933073141
 72
     1
 10
93.31351180392858
 20
-121.4378933073141
 11
93.7152099375087
 21
-121.4378933073141
 72
     1
 10
93.7152099375087
 20
-121.4378933073141
 11
93.7152099375087
 21
-121.1290404970615
 97
        0
 75
     2
 76
     1
 98
        0
  0
SPLINE
  5
DA
330
A9
100
AcDbEntity
  8
_U+30EC_U+30A4_U+30E4_U+30FC 1
370
     0
100
AcDbSpline
210
0.0
220
0.0
230
1.0
 70
    11
 71
     3
 72
    44
 73
    40
 74
     0
 42
0.0000000001
 43
0.0000000001
 12
1.0
 22
0.0
 32
0.0
 13
1.0
 23
0.0
 33
0.0
 40
0.0
 40
0.0
 40
0.0
 40
0.0
 40
1.0
 40
1.0
 40
1.0
 40
2.0
 40
2.0
 40
2.0
 40
3.0
 40
3.0
 40
3.0
 40
4.0
 40
4.0
 40
4.0
 40
5.0
 40
5.0
 40
5.0
 40
6.0
 40
6.0
 40
6.0
 40
7.0
 40
7.0
 40
7.0
 40
8.0
 40
8.0
 40
8.0
 40
9.0
 40
9.0
 40
9.0
 40
10.0
 40
10.0
 40
10.0
 40
11.0
 40
11.0
 40
11.0
 40
12.0
 40
12.0
 40
12.0
 40
13.0
 40
13.0
 40
13.0
 40
13.0
 10
95.47840980685957
 20
-120.9936482444912
 30
0.0
 10
95.38022458552994
 20
-121.3617566970901
 30
0.0
 10
95.33578285377023
 20
-121.5204033441859
 30
0.0
 10
95.16352807950773
 20
-121.7700005120922
 30
0.0
 10
95.00264212034656
 20
-122.0006496548297
 30
0.0
 10
94.79524737213453
 20
-122.1866848110332
 30
0.0
 10
94.55064559268179
 20
-122.2798746439092
 30
0.0
 10
94.55064559268179
 20
-122.2798746439092
 30
0.0
 10
94.38218042345306
 20
-122.1000406595792
 30
0.0
 10
94.38218042345306
 20
-122.1000406595792
 30
0.0
 10
94.94338647800026
 20
-121.9477674391311
 30
0.0
 10
95.2320854796642
 20
-121.3913845182633
 30
0.0
 10
95.28755151697673
 20
-120.9512735700226
 30
0.0
 10
95.28755151697673
 20
-120.9512735700226
 30
0.0
 10
94.61748044509564
 20
-120.9512735700226
 30
0.0
 10
94.61748044509564
 20
-120.9512735700226
 30
0.0
 10
94.5358316820952
 20
-120.9512735700226
 30
0.0
 10
94.37494572293404
 20
-120.9555799393792
 30
0.0
 10
94.2378309226211
 20
-120.974527964548
 30
0.0
 10
94.2378309226211
 20
-120.974527964548
 30
0.0
 10
94.2378309226211
 20
-120.7545586178148
 30
0.0
 10
94.2378309226211
 20
-120.7545586178148
 30
0.0
 10
94.3136230232966
 20
-120.7757459550491
 30
0.0
 10
94.53410913435259
 20
-120.7757459550491
 30
0.0
 10
94.62092554058088
 20
-120.7757459550491
 30
0.0
 10
94.62092554058088
 20
-120.7757459550491
 30
0.0
 10
94.99885251531279
 20
-120.7757459550491
 30
0.0
 10
94.99885251531279
 20
-120.7757459550491
 30
0.0
 10
95.03571503700496
 20
-120.7757459550491
 30
0.0
 10
95.24138723747438
 20
-120.7735066429837
 30
0.0
 10
95.27480466368131
 20
-120.7673054711103
 30
0.0
 10
95.31166718537348
 20
-120.7609320444625
 30
0.0
 10
95.31373424266462
 20
-120.7588649871714
 30
0.0
 10
95.36747773223452
 20
-120.718557369994
 30
0.0
 10
95.36747773223452
 20
-120.718557369994
 30
0.0
 10
95.53215329642947
 20
-120.8730699025074
 30
0.0
 10
95.53215329642947
 20
-120.8730699025074
 30
0.0
 10
95.5063150802901
 20
-120.9026977236806
 30
0.0
 10
95.49322371744614
 20
-120.9343926021449
 30
0.0
 10
95.47840980685957
 20
-120.9936482444912
 30
0.0
  0
SPLINE
  5
DB
330
A9
100
AcDbEntity
  8
_U+30EC_U+30A4_U+30E4_U+30FC 1
370
     0
100
AcDbSpline
210
0.0
220
0.0
230
1.0
 70
    11
 71
     3
 72
    17
 73
    13
 74
     0
 42
0.0000000001
 43
0.0000000001
 12
1.0
 22
0.0
 32
0.0
 13
1.0
 23
0.0
 33
0.0
 40
0.0
 40
0.0
 40
0.0
 40
0.0
 40
1.0
 40
1.0
 40
1.0
 40
2.0
 40
2.0
 40
2.0
 40
3.0
 40
3.0
 40
3.0
 40
4.0
 40
4.0
 40
4.0
 40
4.0
 10
95.66168888667487
 20
-120.794693980218
 30
0.0
 10
95.55075681204981
 20
-120.794693980218
 30
0.0
 10
95.46187334853037
 20
-120.6932359181774
 30
0.0
 10
95.46187334853037
 20
-120.5662841495459
 30
0.0
 10
95.46187334853037
 20
-120.4393323809145
 30
0.0
 10
95.55075681204981
 20
-120.3356350068085
 30
0.0
 10
95.66168888667487
 20
-120.3356350068085
 30
0.0
 10
95.77296547084843
 20
-120.3356350068085
 30
0.0
 10
95.8635714821105
 20
-120.4393323809145
 30
0.0
 10
95.8635714821105
 20
-120.5662841495459
 30
0.0
 10
95.8635714821105
 20
-120.6932359181774
 30
0.0
 10
95.77296547084843
 20
-120.794693980218
 30
0.0
 10
95.66168888667487
 20
-120.794693980218
 30
0.0
  0
SPLINE
  5
DC
330
A9
100
AcDbEntity
  8
_U+30EC_U+30A4_U+30E4_U+30FC 1
370
     0
100
AcDbSpline
210
0.0
220
0.0
230
1.0
 70
    11
 71
     3
 72
    17
 73
    13
 74
     0
 42
0.0000000001
 43
0.0000000001
 12
1.0
 22
0.0
 32
0.0
 13
1.0
 23
0.0
 33
0.0
 40
0.0
 40
0.0
 40
0.0
 40
0.0
 40
1.0
 40
1.0
 40
1.0
 40
2.0
 40
2.0
 40
2.0
 40
3.0
 40
3.0
 40
3.0
 40
4.0
 40
4.0
 40
4.0
 40
4.0
 10
95.65996633893224
 20
-120.4646538327311
 30
0.0
 10
95.61173500213874
 20
-120.4646538327311
 30
0.0
 10
95.57280542315542
 20
-120.5090955644908
 30
0.0
 10
95.57280542315542
 20
-120.5642170922548
 30
0.0
 10
95.57280542315542
 20
-120.6212334225357
 30
0.0
 10
95.61173500213874
 20
-120.669981523652
 30
0.0
 10
95.66375594396601
 20
-120.669981523652
 30
0.0
 10
95.71543237624476
 20
-120.669981523652
 30
0.0
 10
95.7505723501943
 20
-120.6191663652445
 30
0.0
 10
95.7505723501943
 20
-120.5662841495459
 30
0.0
 10
95.7505723501943
 20
-120.5090955644908
 30
0.0
 10
95.70992022346836
 20
-120.4646538327311
 30
0.0
 10
95.65996633893224
 20
-120.4646538327311
 30
0.0
  0
HATCH
  5
DD
330
A9
100
AcDbEntity
  8
_U+30EC_U+30A4_U+30E4_U+30FC 1
 62
   179
420
  2234388
100
AcDbHatch
 10
0.0
 20
0.0
 30
0.0
210
0.0
220
0.0
230
1.0
  2
SOLID
 70
     1
 71
     0
 91
        3
 92
        1
 93
        1
 72
     4
 94
        3
 73
     0
 74
     1
 95
       44
 96
       40
 40
0.0
 40
0.0
 40
0.0
 40
0.0
 40
1.0
 40
1.0
 40
1.0
 40
2.0
 40
2.0
 40
2.0
 40
3.0
 40
3.0
 40
3.0
 40
4.0
 40
4.0
 40
4.0
 40
5.0
 40
5.0
 40
5.0
 40
6.0
 40
6.0
 40
6.0
 40
7.0
 40
7.0
 40
7.0
 40
8.0
 40
8.0
 40
8.0
 40
9.0
 40
9.0
 40
9.0
 40
10.0
 40
10.0
 40
10.0
 40
11.0
 40
11.0
 40
11.0
 40
12.0
 40
12.0
 40
12.0
 40
13.0
 40
13.0
 40
13.0
 40
13.0
 10
95.47840980685957
 20
-120.9936482444912
 10
95.38022458552994
 20
-121.3617566970901
 10
95.33578285377023
 20
-121.5204033441859
 10
95.16352807950773
 20
-121.7700005120922
 10
95.00264212034656
 20
-122.0006496548297
 10
94.79524737213453
 20
-122.1866848110332
 10
94.55064559268179
 20
-122.2798746439092
 10
94.55064559268179
 20
-122.2798746439092
 10
94.38218042345306
 20
-122.1000406595792
 10
94.38218042345306
 20
-122.1000406595792
 10
94.94338647800026
 20
-121.9477674391311
 10
95.2320854796642
 20
-121.3913845182633
 10
95.28755151697673
 20
-120.9512735700226
 10
95.28755151697673
 20
-120.9512735700226
 10
94.61748044509564
 20
-120.9512735700226
 10
94.61748044509564
 20
-120.9512735700226
 10
94.5358316820952
 20
-120.9512735700226
 10
94.37494572293404
 20
-120.9555799393792
 10
94.2378309226211
 20
-120.974527964548
 10
94.2378309226211
 20
-120.974527964548
 10
94.2378309226211
 20
-120.7545586178148
 10
94.2378309226211
 20
-120.7545586178148
 10
94.3136230232966
 20
-120.7757459550491
 10
94.53410913435259
 20
-120.7757459550491
 10
94.62092554058088
 20
-120.7757459550491
 10
94.62092554058088
 20
-120.7757459550491
 10
94.99885251531279
 20
-120.7757459550491
 10
94.99885251531279
 20
-120.7757459550491
 10
95.03571503700496
 20
-120.7757459550491
 10
95.24138723747438
 20
-120.7735066429837
 10
95.27480466368131
 20
-120.7673054711103
 10
95.31166718537348
 20
-120.7609320444625
 10
95.31373424266462
 20
-120.7588649871714
 10
95.36747773223452
 20
-120.718557369994
 10
95.36747773223452
 20
-120.718557369994
 10
95.53215329642947
 20
-120.8730699025074
 10
95.53215329642947
 20
-120.8730699025074
 10
95.5063150802901
 20
-120.9026977236806
 10
95.49322371744614
 20
-120.9343926021449
 10
95.47840980685957
 20
-120.9936482444912
 97
        0
 97
        0
 92
        1
 93
        1
 72
     4
 94
        3
 73
     0
 74
     1
 95
       17
 96
       13
 40
0.0
 40
0.0
 40
0.0
 40
0.0
 40
1.0
 40
1.0
 40
1.0
 40
2.0
 40
2.0
 40
2.0
 40
3.0
 40
3.0
 40
3.0
 40
4.0
 40
4.0
 40
4.0
 40
4.0
 10
95.66168888667487
 20
-120.794693980218
 10
95.55075681204981
 20
-120.794693980218
 10
95.46187334853037
 20
-120.6932359181774
 10
95.46187334853037
 20
-120.5662841495459
 10
95.46187334853037
 20
-120.4393323809145
 10
95.55075681204981
 20
-120.3356350068085
 10
95.66168888667487
 20
-120.3356350068085
 10
95.77296547084843
 20
-120.3356350068085
 10
95.8635714821105
 20
-120.4393323809145
 10
95.8635714821105
 20
-120.5662841495459
 10
95.8635714821105
 20
-120.6932359181774
 10
95.77296547084843
 20
-120.794693980218
 10
95.66168888667487
 20
-120.794693980218
 97
        0
 97
        0
 92
        1
 93
        1
 72
     4
 94
        3
 73
     0
 74
     1
 95
       17
 96
       13
 40
0.0
 40
0.0
 40
0.0
 40
0.0
 40
1.0
 40
1.0
 40
1.0
 40
2.0
 40
2.0
 40
2.0
 40
3.0
 40
3.0
 40
3.0
 40
4.0
 40
4.0
 40
4.0
 40
4.0
 10
95.65996633893224
 20
-120.4646538327311
 10
95.61173500213874
 20
-120.4646538327311
 10
95.57280542315542
 20
-120.5090955644908
 10
95.57280542315542
 20
-120.5642170922548
 10
95.57280542315542
 20
-120.6212334225357
 10
95.61173500213874
 20
-120.669981523652
 10
95.66375594396601
 20
-120.669981523652
 10
95.71543237624476
 20
-120.669981523652
 10
95.7505723501943
 20
-120.6191663652445
 10
95.7505723501943
 20
-120.5662841495459
 10
95.7505723501943
 20
-120.5090955644908
 10
95.70992022346836
 20
-120.4646538327311
 10
95.65996633893224
 20
-120.4646538327311
 97
        0
 97
        0
 75
     2
 76
     1
 98
        0
  0
SPLINE
  5
DE
330
A9
100
AcDbEntity
  8
_U+30EC_U+30A4_U+30E4_U+30FC 1
370
     0
100
AcDbSpline
210
0.0
220
0.0
230
1.0
 70
    11
 71
     3
 72
    50
 73
    46
 74
     0
 42
0.0000000001
 43
0.0000000001
 12
1.0
 22
0.0
 32
0.0
 13
1.0
 23
0.0
 33
0.0
 40
0.0
 40
0.0
 40
0.0
 40
0.0
 40
1.0
 40
1.0
 40
1.0
 40
2.0
 40
2.0
 40
2.0
 40
3.0
 40
3.0
 40
3.0
 40
4.0
 40
4.0
 40
4.0
 40
5.0
 40
5.0
 40
5.0
 40
6.0
 40
6.0
 40
6.0
 40
7.0
 40
7.0
 40
7.0
 40
8.0
 40
8.0
 40
8.0
 40
9.0
 40
9.0
 40
9.0
 40
10.0
 40
10.0
 40
10.0
 40
11.0
 40
11.0
 40
11.0
 40
12.0
 40
12.0
 40
12.0
 40
13.0
 40
13.0
 40
13.0
 40
14.0
 40
14.0
 40
14.0
 40
15.0
 40
15.0
 40
15.0
 40
15.0
 10
97.23403046614288
 20
-121.3025010547438
 30
0.0
 10
97.16547306598642
 20
-121.4800957270085
 30
0.0
 10
97.04696178129382
 20
-121.6874904752205
 30
0.0
 10
96.9267279488586
 20
-121.8271890971474
 30
0.0
 10
96.77858884299286
 20
-121.9984103427643
 30
0.0
 10
96.63596188990351
 20
-122.0872938062837
 30
0.0
 10
96.35622013650122
 20
-122.2290594855018
 30
0.0
 10
96.35622013650122
 20
-122.2290594855018
 30
0.0
 10
96.20808103063548
 20
-122.0407850172329
 30
0.0
 10
96.20808103063548
 20
-122.0407850172329
 30
0.0
 10
96.3710340470878
 20
-122.0175306227074
 30
0.0
 10
96.5212402102447
 20
-121.9307142164791
 30
0.0
 10
96.65456540552387
 20
-121.824949785082
 30
0.0
 10
96.8840087648415
 20
-121.6430487434608
 30
0.0
 10
97.05075138632759
 20
-121.3298895638516
 30
0.0
 10
97.09347057034469
 20
-121.1479885222304
 30
0.0
 10
97.09347057034469
 20
-121.1479885222304
 30
0.0
 10
96.50642629965812
 20
-121.1479885222304
 30
0.0
 10
96.50642629965812
 20
-121.1479885222304
 30
0.0
 10
96.36758895160256
 20
-121.1479885222304
 30
0.0
 10
96.11196286659701
 20
-121.1564290061692
 30
0.0
 10
95.97863767131784
 20
-121.1734822288212
 30
0.0
 10
95.97863767131784
 20
-121.1734822288212
 30
0.0
 10
95.97863767131784
 20
-120.9449001433749
 30
0.0
 10
95.97863767131784
 20
-120.9449001433749
 30
0.0
 10
96.00826549249099
 20
-120.9512735700226
 30
0.0
 10
96.0303141035966
 20
-120.9576469966703
 30
0.0
 10
96.07682289264747
 20
-120.9617811112526
 30
0.0
 10
96.16570635616691
 20
-120.9681545379003
 30
0.0
 10
96.3379611304294
 20
-120.9703938499657
 30
0.0
 10
96.41203068336227
 20
-120.9703938499657
 30
0.0
 10
96.41203068336227
 20
-120.9703938499657
 30
0.0
 10
96.85438094366836
 20
-120.9703938499657
 30
0.0
 10
96.85438094366836
 20
-120.9703938499657
 30
0.0
 10
96.91363658601465
 20
-120.9703938499657
 30
0.0
 10
97.04144962851743
 20
-120.9660874806092
 30
0.0
 10
97.09519311808732
 20
-120.9597140539615
 30
0.0
 10
97.15823836546738
 20
-120.9512735700226
 30
0.0
 10
97.18235403386414
 20
-120.936459659436
 30
0.0
 10
97.21198185503728
 20
-120.9132052649106
 30
0.0
 10
97.21198185503728
 20
-120.9132052649106
 30
0.0
 10
97.35633135586926
 20
-121.0802923959452
 30
0.0
 10
97.35633135586926
 20
-121.0802923959452
 30
0.0
 10
97.29535316578033
 20
-121.1479885222304
 30
0.0
 10
97.25435652950586
 20
-121.2516858963364
 30
0.0
 10
97.23403046614288
 20
-121.3025010547438
 30
0.0
  0
SPLINE
  5
DF
330
A9
100
AcDbEntity
  8
_U+30EC_U+30A4_U+30E4_U+30FC 1
370
     0
100
AcDbSpline
210
0.0
220
0.0
230
1.0
 70
    11
 71
     3
 72
    29
 73
    25
 74
     0
 42
0.0000000001
 43
0.0000000001
 12
1.0
 22
0.0
 32
0.0
 13
1.0
 23
0.0
 33
0.0
 40
0.0
 40
0.0
 40
0.0
 40
0.0
 40
1.0
 40
1.0
 40
1.0
 40
2.0
 40
2.0
 40
2.0
 40
3.0
 40
3.0
 40
3.0
 40
4.0
 40
4.0
 40
4.0
 40
5.0
 40
5.0
 40
5.0
 40
6.0
 40
6.0
 40
6.0
 40
7.0
 40
7.0
 40
7.0
 40
8.0
 40
8.0
 40
8.0
 40
8.0
 10
96.8027045113896
 20
-120.6763549502997
 30
0.0
 10
96.8027045113896
 20
-120.6763549502997
 30
0.0
 10
96.50435924236697
 20
-120.6763549502997
 30
0.0
 10
96.50435924236697
 20
-120.6763549502997
 30
0.0
 10
96.40445147329473
 20
-120.6763549502997
 30
0.0
 10
96.30282115647985
 20
-120.680489064882
 30
0.0
 10
96.20256887785908
 20
-120.6953029754685
 30
0.0
 10
96.20256887785908
 20
-120.6953029754685
 30
0.0
 10
96.20256887785908
 20
-120.4858411699654
 30
0.0
 10
96.20256887785908
 20
-120.4858411699654
 30
0.0
 10
96.3062662519651
 20
-120.5006550805519
 30
0.0
 10
96.45819496286462
 20
-120.5049614499085
 30
0.0
 10
96.50435924236697
 20
-120.5049614499085
 30
0.0
 10
96.50435924236697
 20
-120.5049614499085
 30
0.0
 10
96.8027045113896
 20
-120.5049614499085
 30
0.0
 10
96.8027045113896
 20
-120.5049614499085
 30
0.0
 10
96.90433482820448
 20
-120.5049614499085
 30
0.0
 10
97.00630965456787
 20
-120.5006550805519
 30
0.0
 10
97.10828448093126
 20
-120.4858411699654
 30
0.0
 10
97.10828448093126
 20
-120.4858411699654
 30
0.0
 10
97.10828448093126
 20
-120.6953029754685
 30
0.0
 10
97.10828448093126
 20
-120.6953029754685
 30
0.0
 10
96.97668183339472
 20
-120.6763549502997
 30
0.0
 10
96.81545136468503
 20
-120.6763549502997
 30
0.0
 10
96.8027045113896
 20
-120.6763549502997
 30
0.0
  0
HATCH
  5
E0
330
A9
100
AcDbEntity
  8
_U+30EC_U+30A4_U+30E4_U+30FC 1
 62
   179
420
  2234388
100
AcDbHatch
 10
0.0
 20
0.0
 30
0.0
210
0.0
220
0.0
230
1.0
  2
SOLID
 70
     1
 71
     0
 91
        2
 92
        1
 93
        1
 72
     4
 94
        3
 73
     0
 74
     1
 95
       50
 96
       46
 40
0.0
 40
0.0
 40
0.0
 40
0.0
 40
1.0
 40
1.0
 40
1.0
 40
2.0
 40
2.0
 40
2.0
 40
3.0
 40
3.0
 40
3.0
 40
4.0
 40
4.0
 40
4.0
 40
5.0
 40
5.0
 40
5.0
 40
6.0
 40
6.0
 40
6.0
 40
7.0
 40
7.0
 40
7.0
 40
8.0
 40
8.0
 40
8.0
 40
9.0
 40
9.0
 40
9.0
 40
10.0
 40
10.0
 40
10.0
 40
11.0
 40
11.0
 40
11.0
 40
12.0
 40
12.0
 40
12.0
 40
13.0
 40
13.0
 40
13.0
 40
14.0
 40
14.0
 40
14.0
 40
15.0
 40
15.0
 40
15.0
 40
15.0
 10
97.23403046614288
 20
-121.3025010547438
 10
97.16547306598642
 20
-121.4800957270085
 10
97.04696178129382
 20
-121.6874904752205
 10
96.9267279488586
 20
-121.8271890971474
 10
96.77858884299286
 20
-121.9984103427643
 10
96.63596188990351
 20
-122.0872938062837
 10
96.35622013650122
 20
-122.2290594855018
 10
96.35622013650122
 20
-122.2290594855018
 10
96.20808103063548
 20
-122.0407850172329
 10
96.20808103063548
 20
-122.0407850172329
 10
96.3710340470878
 20
-122.0175306227074
 10
96.5212402102447
 20
-121.9307142164791
 10
96.65456540552387
 20
-121.824949785082
 10
96.8840087648415
 20
-121.6430487434608
 10
97.05075138632759
 20
-121.3298895638516
 10
97.09347057034469
 20
-121.1479885222304
 10
97.09347057034469
 20
-121.1479885222304
 10
96.50642629965812
 20
-121.1479885222304
 10
96.50642629965812
 20
-121.1479885222304
 10
96.36758895160256
 20
-121.1479885222304
 10
96.11196286659701
 20
-121.1564290061692
 10
95.97863767131784
 20
-121.1734822288212
 10
95.97863767131784
 20
-121.1734822288212
 10
95.97863767131784
 20
-120.9449001433749
 10
95.97863767131784
 20
-120.9449001433749
 10
96.00826549249099
 20
-120.9512735700226
 10
96.0303141035966
 20
-120.9576469966703
 10
96.07682289264747
 20
-120.9617811112526
 10
96.16570635616691
 20
-120.9681545379003
 10
96.3379611304294
 20
-120.9703938499657
 10
96.41203068336227
 20
-120.9703938499657
 10
96.41203068336227
 20
-120.9703938499657
 10
96.85438094366836
 20
-120.9703938499657
 10
96.85438094366836
 20
-120.9703938499657
 10
96.91363658601465
 20
-120.9703938499657
 10
97.04144962851743
 20
-120.9660874806092
 10
97.09519311808732
 20
-120.9597140539615
 10
97.15823836546738
 20
-120.9512735700226
 10
97.18235403386414
 20
-120.936459659436
 10
97.21198185503728
 20
-120.9132052649106
 10
97.21198185503728
 20
-120.9132052649106
 10
97.35633135586926
 20
-121.0802923959452
 10
97.35633135586926
 20
-121.0802923959452
 10
97.29535316578033
 20
-121.1479885222304
 10
97.25435652950586
 20
-121.2516858963364
 10
97.23403046614288
 20
-121.3025010547438
 97
        0
 97
        0
 92
        1
 93
        1
 72
     4
 94
        3
 73
     0
 74
     1
 95
       29
 96
       25
 40
0.0
 40
0.0
 40
0.0
 40
0.0
 40
1.0
 40
1.0
 40
1.0
 40
2.0
 40
2.0
 40
2.0
 40
3.0
 40
3.0
 40
3.0
 40
4.0
 40
4.0
 40
4.0
 40
5.0
 40
5.0
 40
5.0
 40
6.0
 40
6.0
 40
6.0
 40
7.0
 40
7.0
 40
7.0
 40
8.0
 40
8.0
 40
8.0
 40
8.0
 10
96.8027045113896
 20
-120.6763549502997
 10
96.8027045113896
 20
-120.6763549502997
 10
96.50435924236697
 20
-120.6763549502997
 10
96.50435924236697
 20
-120.6763549502997
 10
96.40445147329473
 20
-120.6763549502997
 10
96.30282115647985
 20
-120.680489064882
 10
96.20256887785908
 20
-120.6953029754685
 10
96.20256887785908
 20
-120.6953029754685
 10
96.20256887785908
 20
-120.4858411699654
 10
96.20256887785908
 20
-120.4858411699654
 10
96.3062662519651
 20
-120.5006550805519
 10
96.45819496286462
 20
-120.5049614499085
 10
96.50435924236697
 20
-120.5049614499085
 10
96.50435924236697
 20
-120.5049614499085
 10
96.8027045113896
 20
-120.5049614499085
 10
96.8027045113896
 20
-120.5049614499085
 10
96.90433482820448
 20
-120.5049614499085
 10
97.00630965456787
 20
-120.5006550805519
 10
97.10828448093126
 20
-120.4858411699654
 10
97.10828448093126
 20
-120.4858411699654
 10
97.10828448093126
 20
-120.6953029754685
 10
97.10828448093126
 20
-120.6953029754685
 10
96.97668183339472
 20
-120.6763549502997
 10
96.81545136468503
 20
-120.6763549502997
 10
96.8027045113896
 20
-120.6763549502997
 97
        0
 97
        0
 75
     2
 76
     1
 98
        0
  0
SPLINE
  5
E1
330
A9
100
AcDbEntity
  8
_U+30EC_U+30A4_U+30E4_U+30FC 1
370
     0
100
AcDbSpline
210
0.0
220
0.0
230
1.0
 70
    11
 71
     3
 72
    50
 73
    46
 74
     0
 42
0.0000000001
 43
0.0000000001
 12
1.0
 22
0.0
 32
0.0
 13
1.0
 23
0.0
 33
0.0
 40
0.0
 40
0.0
 40
0.0
 40
0.0
 40
1.0
 40
1.0
 40
1.0
 40
2.0
 40
2.0
 40
2.0
 40
3.0
 40
3.0
 40
3.0
 40
4.0
 40
4.0
 40
4.0
 40
5.0
 40
5.0
 40
5.0
 40
6.0
 40
6.0
 40
6.0
 40
7.0
 40
7.0
 40
7.0
 40
8.0
 40
8.0
 40
8.0
 40
9.0
 40
9.0
 40
9.0
 40
10.0
 40
10.0
 40
10.0
 40
11.0
 40
11.0
 40
11.0
 40
12.0
 40
12.0
 40
12.0
 40
13.0
 40
13.0
 40
13.0
 40
14.0
 40
14.0
 40
14.0
 40
15.0
 40
15.0
 40
15.0
 40
15.0
 10
98.73230249267804
 20
-120.6615410397131
 30
0.0
 10
98.54902341286275
 20
-120.8751369597986
 30
0.0
 10
98.48597816548268
 20
-120.9471394554403
 30
0.0
 10
98.36195472801369
 20
-121.0654784853586
 30
0.0
 10
98.36195472801369
 20
-121.0654784853586
 30
0.0
 10
98.36195472801369
 20
-121.6325412022308
 30
0.0
 10
98.36195472801369
 20
-121.6325412022308
 30
0.0
 10
98.36195472801369
 20
-121.7827473653876
 30
0.0
 10
98.36746688079008
 20
-121.8016953905565
 30
0.0
 10
98.37125648582386
 20
-121.9794623175954
 30
0.0
 10
98.37297903356648
 20
-122.1105482008092
 30
0.0
 10
98.37849118634288
 20
-122.1592963019255
 30
0.0
 10
98.38400333911927
 20
-122.2185519442718
 30
0.0
 10
98.38400333911927
 20
-122.2185519442718
 30
0.0
 10
98.18591034871741
 20
-122.2185519442718
 30
0.0
 10
98.18591034871741
 20
-122.2185519442718
 30
0.0
 10
98.18969995375119
 20
-122.174110212512
 30
0.0
 10
98.19348955878496
 20
-122.1274291686869
 30
0.0
 10
98.19348955878496
 20
-122.118988684748
 30
0.0
 10
98.19348955878496
 20
-122.0387179599417
 30
0.0
 10
98.19693465427021
 20
-121.6874904752205
 30
0.0
 10
98.19693465427021
 20
-121.6154879795788
 30
0.0
 10
98.19693465427021
 20
-121.6154879795788
 30
0.0
 10
98.19693465427021
 20
-121.2093112218678
 30
0.0
 10
98.19693465427021
 20
-121.2093112218678
 30
0.0
 10
98.03777124285168
 20
-121.3341959332081
 30
0.0
 10
97.86758352588033
 20
-121.4442667339619
 30
0.0
 10
97.68981659884145
 20
-121.5309108854159
 30
0.0
 10
97.68981659884145
 20
-121.5309108854159
 30
0.0
 10
97.51204967180254
 20
-121.3679578689636
 30
0.0
 10
97.51204967180254
 20
-121.3679578689636
 30
0.0
 10
97.61919214139382
 20
-121.332128875917
 30
0.0
 10
97.84346785748359
 20
-121.2580593229841
 30
0.0
 10
98.14525822199147
 20
-121.00208872843
 30
0.0
 10
98.33404945458315
 20
-120.8434420813343
 30
0.0
 10
98.50251462381188
 20
-120.6551676130654
 30
0.0
 10
98.63583981909105
 20
-120.4350260115579
 30
0.0
 10
98.63583981909105
 20
-120.4350260115579
 30
0.0
 10
98.80430498831976
 20
-120.5790310028414
 30
0.0
 10
98.80430498831976
 20
-120.5790310028414
 30
0.0
 10
98.81567380342109
 20
-120.5895385440714
 30
0.0
 10
98.82290850394011
 20
-120.6043524546579
 30
0.0
 10
98.82290850394011
 20
-120.6170993079534
 30
0.0
 10
98.82290850394011
 20
-120.6572346703565
 30
0.0
 10
98.78949107773319
 20
-120.6572346703565
 30
0.0
 10
98.73230249267804
 20
-120.6615410397131
 30
0.0
  0
HATCH
  5
E2
330
A9
100
AcDbEntity
  8
_U+30EC_U+30A4_U+30E4_U+30FC 1
 62
   179
420
  2234388
100
AcDbHatch
 10
0.0
 20
0.0
 30
0.0
210
0.0
220
0.0
230
1.0
  2
SOLID
 70
     1
 71
     0
 91
        1
 92
        1
 93
        1
 72
     4
 94
        3
 73
     0
 74
     1
 95
       50
 96
       46
 40
0.0
 40
0.0
 40
0.0
 40
0.0
 40
1.0
 40
1.0
 40
1.0
 40
2.0
 40
2.0
 40
2.0
 40
3.0
 40
3.0
 40
3.0
 40
4.0
 40
4.0
 40
4.0
 40
5.0
 40
5.0
 40
5.0
 40
6.0
 40
6.0
 40
6.0
 40
7.0
 40
7.0
 40
7.0
 40
8.0
 40
8.0
 40
8.0
 40
9.0
 40
9.0
 40
9.0
 40
10.0
 40
10.0
 40
10.0
 40
11.0
 40
11.0
 40
11.0
 40
12.0
 40
12.0
 40
12.0
 40
13.0
 40
13.0
 40
13.0
 40
14.0
 40
14.0
 40
14.0
 40
15.0
 40
15.0
 40
15.0
 40
15.0
 10
98.73230249267804
 20
-120.6615410397131
 10
98.54902341286275
 20
-120.8751369597986
 10
98.48597816548268
 20
-120.9471394554403
 10
98.36195472801369
 20
-121.0654784853586
 10
98.36195472801369
 20
-121.0654784853586
 10
98.36195472801369
 20
-121.6325412022308
 10
98.36195472801369
 20
-121.6325412022308
 10
98.36195472801369
 20
-121.7827473653876
 10
98.36746688079008
 20
-121.8016953905565
 10
98.37125648582386
 20
-121.9794623175954
 10
98.37297903356648
 20
-122.1105482008092
 10
98.37849118634288
 20
-122.1592963019255
 10
98.38400333911927
 20
-122.2185519442718
 10
98.38400333911927
 20
-122.2185519442718
 10
98.18591034871741
 20
-122.2185519442718
 10
98.18591034871741
 20
-122.2185519442718
 10
98.18969995375119
 20
-122.174110212512
 10
98.19348955878496
 20
-122.1274291686869
 10
98.19348955878496
 20
-122.118988684748
 10
98.19348955878496
 20
-122.0387179599417
 10
98.19693465427021
 20
-121.6874904752205
 10
98.19693465427021
 20
-121.6154879795788
 10
98.19693465427021
 20
-121.6154879795788
 10
98.19693465427021
 20
-121.2093112218678
 10
98.19693465427021
 20
-121.2093112218678
 10
98.03777124285168
 20
-121.3341959332081
 10
97.86758352588033
 20
-121.4442667339619
 10
97.68981659884145
 20
-121.5309108854159
 10
97.68981659884145
 20
-121.5309108854159
 10
97.51204967180254
 20
-121.3679578689636
 10
97.51204967180254
 20
-121.3679578689636
 10
97.61919214139382
 20
-121.332128875917
 10
97.84346785748359
 20
-121.2580593229841
 10
98.14525822199147
 20
-121.00208872843
 10
98.33404945458315
 20
-120.8434420813343
 10
98.50251462381188
 20
-120.6551676130654
 10
98.63583981909105
 20
-120.4350260115579
 10
98.63583981909105
 20
-120.4350260115579
 10
98.80430498831976
 20
-120.5790310028414
 10
98.80430498831976
 20
-120.5790310028414
 10
98.81567380342109
 20
-120.5895385440714
 10
98.82290850394011
 20
-120.6043524546579
 10
98.82290850394011
 20
-120.6170993079534
 10
98.82290850394011
 20
-120.6572346703565
 10
98.78949107773319
 20
-120.6572346703565
 10
98.73230249267804
 20
-120.6615410397131
 97
        0
 97
        0
 75
     2
 76
     1
 98
        0
  0
SPLINE
  5
E3
330
A9
100
AcDbEntity
  8
_U+30EC_U+30A4_U+30E4_U+30FC 1
370
     0
100
AcDbSpline
210
0.0
220
0.0
230
1.0
 70
    11
 71
     3
 72
    50
 73
    46
 74
     0
 42
0.0000000001
 43
0.0000000001
 12
1.0
 22
0.0
 32
0.0
 13
1.0
 23
0.0
 33
0.0
 40
0.0
 40
0.0
 40
0.0
 40
0.0
 40
1.0
 40
1.0
 40
1.0
 40
2.0
 40
2.0
 40
2.0
 40
3.0
 40
3.0
 40
3.0
 40
4.0
 40
4.0
 40
4.0
 40
5.0
 40
5.0
 40
5.0
 40
6.0
 40
6.0
 40
6.0
 40
7.0
 40
7.0
 40
7.0
 40
8.0
 40
8.0
 40
8.0
 40
9.0
 40
9.0
 40
9.0
 40
10.0
 40
10.0
 40
10.0
 40
11.0
 40
11.0
 40
11.0
 40
12.0
 40
12.0
 40
12.0
 40
13.0
 40
13.0
 40
13.0
 40
14.0
 40
14.0
 40
14.0
 40
15.0
 40
15.0
 40
15.0
 40
15.0
 10
100.228507461922
 20
-121.1882961394078
 30
0.0
 10
100.1747639723522
 20
-121.2601263802753
 30
0.0
 10
99.94704316077713
 20
-121.5774196744668
 30
0.0
 10
99.897089276241
 20
-121.6409816861696
 30
0.0
 10
99.97115882917389
 20
-121.7383056336279
 30
0.0
 10
100.0156005609336
 20
-121.8016953905565
 30
0.0
 10
100.0727891459888
 20
-121.8926459113671
 30
0.0
 10
100.0727891459888
 20
-121.8926459113671
 30
0.0
 10
99.91190318682759
 20
-122.0302774760029
 30
0.0
 10
99.91190318682759
 20
-122.0302774760029
 30
0.0
 10
99.79339190213499
 20
-121.8185763584343
 30
0.0
 10
99.64318573897809
 20
-121.5944728971187
 30
0.0
 10
99.38583710622993
 20
-121.3955186328456
 30
0.0
 10
99.38583710622993
 20
-121.3955186328456
 30
0.0
 10
99.51537269647532
 20
-121.2411783551064
 30
0.0
 10
99.51537269647532
 20
-121.2411783551064
 30
0.0
 10
99.61183537006232
 20
-121.3214490799127
 30
0.0
 10
99.70244138132439
 20
-121.4103325434321
 30
0.0
 10
99.7878797493586
 20
-121.5055894335993
 30
0.0
 10
99.84713539170488
 20
-121.4294528233753
 30
0.0
 10
100.0249023187438
 20
-121.1860568273424
 30
0.0
 10
100.1413465461452
 20
-120.9576469966703
 30
0.0
 10
100.1413465461452
 20
-120.9576469966703
 30
0.0
 10
99.55257972771602
 20
-120.9576469966703
 30
0.0
 10
99.55257972771602
 20
-120.9576469966703
 30
0.0
 10
99.44337020083361
 20
-120.9576469966703
 30
0.0
 10
99.22288408977762
 20
-120.9660874806092
 30
0.0
 10
99.03960500996233
 20
-120.9765950218392
 30
0.0
 10
99.03960500996233
 20
-120.9765950218392
 30
0.0
 10
99.03960500996233
 20
-120.756625675106
 30
0.0
 10
99.03960500996233
 20
-120.756625675106
 30
0.0
 10
99.20083547867202
 20
-120.7757459550491
 30
0.0
 10
99.38032495345354
 20
-120.7798800696314
 30
0.0
 10
99.54500051764848
 20
-120.7798800696314
 30
0.0
 10
99.54500051764848
 20
-120.7798800696314
 30
0.0
 10
99.98597273976046
 20
-120.7798800696314
 30
0.0
 10
99.98597273976046
 20
-120.7798800696314
 30
0.0
 10
100.2822509514919
 20
-120.7798800696314
 30
0.0
 10
100.3211805304753
 20
-120.7650661590448
 30
0.0
 10
100.393183026117
 20
-120.7249307966417
 30
0.0
 10
100.393183026117
 20
-120.7249307966417
 30
0.0
 10
100.5395995842401
 20
-120.8835774437375
 30
0.0
 10
100.5395995842401
 20
-120.8835774437375
 30
0.0
 10
100.4062743889609
 20
-120.9555799393792
 30
0.0
 10
100.2801838942008
 20
-121.1183607010572
 30
0.0
 10
100.228507461922
 20
-121.1882961394078
 30
0.0
  0
HATCH
  5
E4
330
A9
100
AcDbEntity
  8
_U+30EC_U+30A4_U+30E4_U+30FC 1
 62
   179
420
  2234388
100
AcDbHatch
 10
0.0
 20
0.0
 30
0.0
210
0.0
220
0.0
230
1.0
  2
SOLID
 70
     1
 71
     0
 91
        1
 92
        1
 93
        1
 72
     4
 94
        3
 73
     0
 74
     1
 95
       50
 96
       46
 40
0.0
 40
0.0
 40
0.0
 40
0.0
 40
1.0
 40
1.0
 40
1.0
 40
2.0
 40
2.0
 40
2.0
 40
3.0
 40
3.0
 40
3.0
 40
4.0
 40
4.0
 40
4.0
 40
5.0
 40
5.0
 40
5.0
 40
6.0
 40
6.0
 40
6.0
 40
7.0
 40
7.0
 40
7.0
 40
8.0
 40
8.0
 40
8.0
 40
9.0
 40
9.0
 40
9.0
 40
10.0
 40
10.0
 40
10.0
 40
11.0
 40
11.0
 40
11.0
 40
12.0
 40
12.0
 40
12.0
 40
13.0
 40
13.0
 40
13.0
 40
14.0
 40
14.0
 40
14.0
 40
15.0
 40
15.0
 40
15.0
 40
15.0
 10
100.228507461922
 20
-121.1882961394078
 10
100.1747639723522
 20
-121.2601263802753
 10
99.94704316077713
 20
-121.5774196744668
 10
99.897089276241
 20
-121.6409816861696
 10
99.97115882917389
 20
-121.7383056336279
 10
100.0156005609336
 20
-121.8016953905565
 10
100.0727891459888
 20
-121.8926459113671
 10
100.0727891459888
 20
-121.8926459113671
 10
99.91190318682759
 20
-122.0302774760029
 10
99.91190318682759
 20
-122.0302774760029
 10
99.79339190213499
 20
-121.8185763584343
 10
99.64318573897809
 20
-121.5944728971187
 10
99.38583710622993
 20
-121.3955186328456
 10
99.38583710622993
 20
-121.3955186328456
 10
99.51537269647532
 20
-121.2411783551064
 10
99.51537269647532
 20
-121.2411783551064
 10
99.61183537006232
 20
-121.3214490799127
 10
99.70244138132439
 20
-121.4103325434321
 10
99.7878797493586
 20
-121.5055894335993
 10
99.84713539170488
 20
-121.4294528233753
 10
100.0249023187438
 20
-121.1860568273424
 10
100.1413465461452
 20
-120.9576469966703
 10
100.1413465461452
 20
-120.9576469966703
 10
99.55257972771602
 20
-120.9576469966703
 10
99.55257972771602
 20
-120.9576469966703
 10
99.44337020083361
 20
-120.9576469966703
 10
99.22288408977762
 20
-120.9660874806092
 10
99.03960500996233
 20
-120.9765950218392
 10
99.03960500996233
 20
-120.9765950218392
 10
99.03960500996233
 20
-120.756625675106
 10
99.03960500996233
 20
-120.756625675106
 10
99.20083547867202
 20
-120.7757459550491
 10
99.38032495345354
 20
-120.7798800696314
 10
99.54500051764848
 20
-120.7798800696314
 10
99.54500051764848
 20
-120.7798800696314
 10
99.98597273976046
 20
-120.7798800696314
 10
99.98597273976046
 20
-120.7798800696314
 10
100.2822509514919
 20
-120.7798800696314
 10
100.3211805304753
 20
-120.7650661590448
 10
100.393183026117
 20
-120.7249307966417
 10
100.393183026117
 20
-120.7249307966417
 10
100.5395995842401
 20
-120.8835774437375
 10
100.5395995842401
 20
-120.8835774437375
 10
100.4062743889609
 20
-120.9555799393792
 10
100.2801838942008
 20
-121.1183607010572
 10
100.228507461922
 20
-121.1882961394078
 97
        0
 97
        0
 75
     2
 76
     1
 98
        0
  0
SPLINE
  5
E5
330
A9
100
AcDbEntity
  8
_U+30EC_U+30A4_U+30E4_U+30FC 1
370
     0
100
AcDbSpline
210
0.0
220
0.0
230
1.0
 70
    11
 71
     3
 72
    29
 73
    25
 74
     0
 42
0.0000000001
 43
0.0000000001
 12
1.0
 22
0.0
 32
0.0
 13
1.0
 23
0.0
 33
0.0
 40
0.0
 40
0.0
 40
0.0
 40
0.0
 40
1.0
 40
1.0
 40
1.0
 40
2.0
 40
2.0
 40
2.0
 40
3.0
 40
3.0
 40
3.0
 40
4.0
 40
4.0
 40
4.0
 40
5.0
 40
5.0
 40
5.0
 40
6.0
 40
6.0
 40
6.0
 40
7.0
 40
7.0
 40
7.0
 40
8.0
 40
8.0
 40
8.0
 40
8.0
 10
101.6506428782332
 20
-121.4315198806664
 30
0.0
 10
101.6506428782332
 20
-121.4315198806664
 30
0.0
 10
101.2268961335474
 20
-121.4315198806664
 30
0.0
 10
101.2268961335474
 20
-121.4315198806664
 30
0.0
 10
101.2027804651507
 20
-121.4315198806664
 30
0.0
 10
100.924761259491
 20
-121.4315198806664
 30
0.0
 10
100.7397596319331
 20
-121.456841332483
 30
0.0
 10
100.7397596319331
 20
-121.456841332483
 30
0.0
 10
100.7397596319331
 20
-121.2263644445198
 30
0.0
 10
100.7397596319331
 20
-121.2263644445198
 30
0.0
 10
100.8785969799887
 20
-121.2496188390452
 30
0.0
 10
101.0453396014748
 20
-121.2516858963364
 30
0.0
 10
101.2268961335474
 20
-121.2516858963364
 30
0.0
 10
101.2268961335474
 20
-121.2516858963364
 30
0.0
 10
101.6506428782332
 20
-121.2516858963364
 30
0.0
 10
101.6506428782332
 20
-121.2516858963364
 30
0.0
 10
101.8135958946855
 20
-121.2516858963364
 30
0.0
 10
101.9765489111378
 20
-121.2496188390452
 30
0.0
 10
102.1377793798475
 20
-121.2263644445198
 30
0.0
 10
102.1377793798475
 20
-121.2263644445198
 30
0.0
 10
102.1377793798475
 20
-121.456841332483
 30
0.0
 10
102.1377793798475
 20
-121.456841332483
 30
0.0
 10
101.9765489111378
 20
-121.4335869379576
 30
0.0
 10
101.7601969146641
 20
-121.4315198806664
 30
0.0
 10
101.6506428782332
 20
-121.4315198806664
 30
0.0
  0
HATCH
  5
E6
330
A9
100
AcDbEntity
  8
_U+30EC_U+30A4_U+30E4_U+30FC 1
 62
   179
420
  2234388
100
AcDbHatch
 10
0.0
 20
0.0
 30
0.0
210
0.0
220
0.0
230
1.0
  2
SOLID
 70
     1
 71
     0
 91
        1
 92
        1
 93
        1
 72
     4
 94
        3
 73
     0
 74
     1
 95
       29
 96
       25
 40
0.0
 40
0.0
 40
0.0
 40
0.0
 40
1.0
 40
1.0
 40
1.0
 40
2.0
 40
2.0
 40
2.0
 40
3.0
 40
3.0
 40
3.0
 40
4.0
 40
4.0
 40
4.0
 40
5.0
 40
5.0
 40
5.0
 40
6.0
 40
6.0
 40
6.0
 40
7.0
 40
7.0
 40
7.0
 40
8.0
 40
8.0
 40
8.0
 40
8.0
 10
101.6506428782332
 20
-121.4315198806664
 10
101.6506428782332
 20
-121.4315198806664
 10
101.2268961335474
 20
-121.4315198806664
 10
101.2268961335474
 20
-121.4315198806664
 10
101.2027804651507
 20
-121.4315198806664
 10
100.924761259491
 20
-121.4315198806664
 10
100.7397596319331
 20
-121.456841332483
 10
100.7397596319331
 20
-121.456841332483
 10
100.7397596319331
 20
-121.2263644445198
 10
100.7397596319331
 20
-121.2263644445198
 10
100.8785969799887
 20
-121.2496188390452
 10
101.0453396014748
 20
-121.2516858963364
 10
101.2268961335474
 20
-121.2516858963364
 10
101.2268961335474
 20
-121.2516858963364
 10
101.6506428782332
 20
-121.2516858963364
 10
101.6506428782332
 20
-121.2516858963364
 10
101.8135958946855
 20
-121.2516858963364
 10
101.9765489111378
 20
-121.2496188390452
 10
102.1377793798475
 20
-121.2263644445198
 10
102.1377793798475
 20
-121.2263644445198
 10
102.1377793798475
 20
-121.456841332483
 10
102.1377793798475
 20
-121.456841332483
 10
101.9765489111378
 20
-121.4335869379576
 10
101.7601969146641
 20
-121.4315198806664
 10
101.6506428782332
 20
-121.4315198806664
 97
        0
 97
        0
 75
     2
 76
     1
 98
        0
  0
ENDBLK
  5
AC
330
A9
100
AcDbEntity
  8
0
100
AcDbBlockEnd
  0
ENDSEC
  0
SECTION
  2
ENTITIES
  0
POLYLINE
  5
41
330
1F
100
AcDbEntity
  8
_U+30EC_U+30A4_U+30E4_U+30FC 1
 62
   179
420
  2234388
370
    25
100
AcDb2dPolyline
 66
     1
 10
0.0
 20
0.0
 30
0.0
  0
VERTEX
  5
42
330
41
100
AcDbEntity
  8
_U+30EC_U+30A4_U+30E4_U+30FC 1
 62
   179
420
  2234388
370
    25
100
AcDbVertex
100
AcDb2dVertex
 10
101.8297968465499
 20
-134.8310316329592
 30
0.0
  0
VERTEX
  5
43
330
41
100
AcDbEntity
  8
_U+30EC_U+30A4_U+30E4_U+30FC 1
 62
   179
420
  2234388
370
    25
100
AcDbVertex
100
AcDb2dVertex
 10
101.8297968465499
 20
-136.3310427436948
 30
0.0
  0
SEQEND
  5
44
330
41
100
AcDbEntity
  8
_U+30EC_U+30A4_U+30E4_U+30FC 1
 62
   179
420
  2234388
370
    25
  0
POLYLINE
  5
45
330
1F
100
AcDbEntity
  8
_U+30EC_U+30A4_U+30E4_U+30FC 1
 62
   179
420
  2234388
370
    25
100
AcDb2dPolyline
 66
     1
 10
0.0
 20
0.0
 30
0.0
  0
VERTEX
  5
46
330
45
100
AcDbEntity
  8
_U+30EC_U+30A4_U+30E4_U+30FC 1
 62
   179
420
  2234388
370
    25
100
AcDbVertex
100
AcDb2dVertex
 10
81.82962775732024
 20
-136.3310427436948
 30
0.0
  0
VERTEX
  5
47
330
45
100
AcDbEntity
  8
_U+30EC_U+30A4_U+30E4_U+30FC 1
 62
   179
420
  2234388
370
    25
100
AcDbVertex
100
AcDb2dVertex
 10
101.8297968465499
 20
-136.3310427436948
 30
0.0
  0
SEQEND
  5
48
330
45
100
AcDbEntity
  8
_U+30EC_U+30A4_U+30E4_U+30FC 1
 62
   179
420
  2234388
370
    25
  0
POLYLINE
  5
49
330
1F
100
AcDbEntity
  8
_U+30EC_U+30A4_U+30E4_U+30FC 1
 62
   179
420
  2234388
370
    25
100
AcDb2dPolyline
 66
     1
 10
0.0
 20
0.0
 30
0.0
  0
VERTEX
  5
4A
330
49
100
AcDbEntity
  8
_U+30EC_U+30A4_U+30E4_U+30FC 1
 62
   179
420
  2234388
370
    25
100
AcDbVertex
100
AcDb2dVertex
 10
81.82962775732024
 20
-116.3305535820285
 30
0.0
  0
VERTEX
  5
4B
330
49
100
AcDbEntity
  8
_U+30EC_U+30A4_U+30E4_U+30FC 1
 62
   179
420
  2234388
370
    25
100
AcDbVertex
100
AcDb2dVertex
 10
81.82962775732024
 20
-136.3310427436948
 30
0.0
  0
SEQEND
  5
4C
330
49
100
AcDbEntity
  8
_U+30EC_U+30A4_U+30E4_U+30FC 1
 62
   179
420
  2234388
370
    25
  0
POLYLINE
  5
4D
330
1F
100
AcDbEntity
  8
_U+30EC_U+30A4_U+30E4_U+30FC 1
 62
   179
420
  2234388
370
    25
100
AcDb2dPolyline
 66
     1
 10
0.0
 20
0.0
 30
0.0
  0
VERTEX
  5
4E
330
4D
100
AcDbEntity
  8
_U+30EC_U+30A4_U+30E4_U+30FC 1
 62
   179
420
  2234388
370
    25
100
AcDbVertex
100
AcDb2dVertex
 10
81.82962775732024
 20
-116.3305535820285
 30
0.0
  0
VERTEX
  5
4F
330
4D
100
AcDbEntity
  8
_U+30EC_U+30A4_U+30E4_U+30FC 1
 62
   179
420
  2234388
370
    25
100
AcDbVertex
100
AcDb2dVertex
 10
83.32963886805649
 20
-116.3305535820285
 30
0.0
  0
SEQEND
  5
50
330
4D
100
AcDbEntity
  8
_U+30EC_U+30A4_U+30E4_U+30FC 1
 62
   179
420
  2234388
370
    25
  0
POLYLINE
  5
51
330
1F
100
AcDbEntity
  8
_U+30EC_U+30A4_U+30E4_U+30FC 1
 62
   179
420
  2234388
370
    25
100
AcDb2dPolyline
 66
     1
 10
0.0
 20
0.0
 30
0.0
  0
VERTEX
  5
52
330
51
100
AcDbEntity
  8
_U+30EC_U+30A4_U+30E4_U+30FC 1
 62
   179
420
  2234388
370
    25
100
AcDbVertex
100
AcDb2dVertex
 10
83.32963886805649
 20
-116.3305535820285
 30
0.0
  0
VERTEX
  5
53
330
51
100
AcDbEntity
  8
_U+30EC_U+30A4_U+30E4_U+30FC 1
 62
   179
420
  2234388
370
    25
100
AcDbVertex
100
AcDb2dVertex
 10
83.32963886805649
 20
-134.8310316329592
 30
0.0
  0
SEQEND
  5
54
330
51
100
AcDbEntity
  8
_U+30EC_U+30A4_U+30E4_U+30FC 1
 62
   179
420
  2234388
370
    25
  0
POLYLINE
  5
55
330
1F
100
AcDbEntity
  8
_U+30EC_U+30A4_U+30E4_U+30FC 1
 62
   179
420
  2234388
370
    25
100
AcDb2dPolyline
 66
     1
 10
0.0
 20
0.0
 30
0.0
  0
VERTEX
  5
56
330
55
100
AcDbEntity
  8
_U+30EC_U+30A4_U+30E4_U+30FC 1
 62
   179
420
  2234388
370
    25
100
AcDbVertex
100
AcDb2dVertex
 10
83.32963886805649
 20
-134.8310316329592
 30
0.0
  0
VERTEX
  5
57
330
55
100
AcDbEntity
  8
_U+30EC_U+30A4_U+30E4_U+30FC 1
 62
   179
420
  2234388
370
    25
100
AcDbVertex
100
AcDb2dVertex
 10
101.8297968465499
 20
-134.8310316329592
 30
0.0
  0
SEQEND
  5
58
330
55
100
AcDbEntity
  8
_U+30EC_U+30A4_U+30E4_U+30FC 1
 62
   179
420
  2234388
370
    25
  0
SPLINE
  5
59
330
1F
100
AcDbEntity
  8
_U+30EC_U+30A4_U+30E4_U+30FC 1
 62
   179
420
  2234388
370
     9
100
AcDbSpline
210
0.0
220
0.0
230
1.0
 70
    11
 71
     3
 72
    17
 73
    13
 74
     0
 42
0.0000000001
 43
0.0000000001
 12
1.0
 22
0.0
 32
0.0
 13
1.0
 23
0.0
 33
0.0
 40
0.0
 40
0.0
 40
0.0
 40
0.0
 40
1.0
 40
1.0
 40
1.0
 40
2.0
 40
2.0
 40
2.0
 40
3.0
 40
3.0
 40
3.0
 40
4.0
 40
4.0
 40
4.0
 40
4.0
 10
105.9297800752839
 20
-136.3310427436948
 30
0.0
 10
105.9297800752839
 20
-136.2752332992643
 30
0.0
 10
105.885012576426
 20
-136.2304305214982
 30
0.0
 10
105.8298734111661
 20
-136.2304305214982
 30
0.0
 10
105.774419418001
 20
-136.2304305214982
 30
0.0
 10
105.7296492470564
 20
-136.2752332992643
 30
0.0
 10
105.7296492470564
 20
-136.3310427436948
 30
0.0
 10
105.7296492470564
 20
-136.3861466325703
 30
0.0
 10
105.774419418001
 20
-136.4309494103364
 30
0.0
 10
105.8298734111661
 20
-136.4309494103364
 30
0.0
 10
105.885012576426
 20
-136.4309494103364
 30
0.0
 10
105.9297800752839
 20
-136.3861466325703
 30
0.0
 10
105.9297800752839
 20
-136.3310427436948
 30
0.0
  0
SPLINE
  5
5A
330
1F
100
AcDbEntity
  8
_U+30EC_U+30A4_U+30E4_U+30FC 1
 62
   179
420
  2234388
370
     9
100
AcDbSpline
210
0.0
220
0.0
230
1.0
 70
    11
 71
     3
 72
    17
 73
    13
 74
     0
 42
0.0000000001
 43
0.0000000001
 12
1.0
 22
0.0
 32
0.0
 13
1.0
 23
0.0
 33
0.0
 40
0.0
 40
0.0
 40
0.0
 40
0.0
 40
1.0
 40
1.0
 40
1.0
 40
2.0
 40
2.0
 40
2.0
 40
3.0
 40
3.0
 40
3.0
 40
4.0
 40
4.0
 40
4.0
 40
4.0
 10
101.9297035106677
 20
-140.3308019093617
 30
0.0
 10
101.9297035106677
 20
-140.2756627427086
 30
0.0
 10
101.884900734033
 20
-140.23089524272
 30
0.0
 10
101.8297968465499
 20
-140.23089524272
 30
0.0
 10
101.77465768129
 20
-140.23089524272
 30
0.0
 10
101.7298901824321
 20
-140.2756627427086
 30
0.0
 10
101.7298901824321
 20
-140.3308019093617
 30
0.0
 10
101.7298901824321
 20
-140.3859057982366
 30
0.0
 10
101.77465768129
 20
-140.4307085760033
 30
0.0
 10
101.8297968465499
 20
-140.4307085760033
 30
0.0
 10
101.884900734033
 20
-140.4307085760033
 30
0.0
 10
101.9297035106677
 20
-140.3859057982366
 30
0.0
 10
101.9297035106677
 20
-140.3308019093617
 30
0.0
  0
SPLINE
  5
5B
330
1F
100
AcDbEntity
  8
_U+30EC_U+30A4_U+30E4_U+30FC 1
 62
   179
420
  2234388
370
     9
100
AcDbSpline
210
0.0
220
0.0
230
1.0
 70
    11
 71
     3
 72
    17
 73
    13
 74
     0
 42
0.0000000001
 43
0.0000000001
 12
1.0
 22
0.0
 32
0.0
 13
1.0
 23
0.0
 33
0.0
 40
0.0
 40
0.0
 40
0.0
 40
0.0
 40
1.0
 40
1.0
 40
1.0
 40
2.0
 40
2.0
 40
2.0
 40
3.0
 40
3.0
 40
3.0
 40
4.0
 40
4.0
 40
4.0
 40
4.0
 10
81.92953235424794
 20
-140.3308019093617
 30
0.0
 10
81.92953235424794
 20
-140.2756627427086
 30
0.0
 10
81.88476485539005
 20
-140.23089524272
 30
0.0
 10
81.82962775732024
 20
-140.23089524272
 30
0.0
 10
81.77452180264703
 20
-140.23089524272
 30
0.0
 10
81.72971902601226
 20
-140.2756627427086
 30
0.0
 10
81.72971902601226
 20
-140.3308019093617
 30
0.0
 10
81.72971902601226
 20
-140.3859057982366
 30
0.0
 10
81.77452180264703
 20
-140.4307085760033
 30
0.0
 10
81.82962775732024
 20
-140.4307085760033
 30
0.0
 10
81.88476485539005
 20
-140.4307085760033
 30
0.0
 10
81.92953235424794
 20
-140.3859057982366
 30
0.0
 10
81.92953235424794
 20
-140.3308019093617
 30
0.0
  0
SPLINE
  5
5C
330
1F
100
AcDbEntity
  8
_U+30EC_U+30A4_U+30E4_U+30FC 1
 62
   179
420
  2234388
370
     9
100
AcDbSpline
210
0.0
220
0.0
230
1.0
 70
    11
 71
     3
 72
    17
 73
    13
 74
     0
 42
0.0000000001
 43
0.0000000001
 12
1.0
 22
0.0
 32
0.0
 13
1.0
 23
0.0
 33
0.0
 40
0.0
 40
0.0
 40
0.0
 40
0.0
 40
1.0
 40
1.0
 40
1.0
 40
2.0
 40
2.0
 40
2.0
 40
3.0
 40
3.0
 40
3.0
 40
4.0
 40
4.0
 40
4.0
 40
4.0
 10
77.92977328962363
 20
-136.3310427436948
 30
0.0
 10
77.92977328962363
 20
-136.2752332992643
 30
0.0
 10
77.88500579076575
 20
-136.2304305214982
 30
0.0
 10
77.82986662550579
 20
-136.2304305214982
 30
0.0
 10
77.77405718248517
 20
-136.2304305214982
 30
0.0
 10
77.72929164723436
 20
-136.2752332992643
 30
0.0
 10
77.72929164723436
 20
-136.3310427436948
 30
0.0
 10
77.72929164723436
 20
-136.3861466325703
 30
0.0
 10
77.77405718248517
 20
-136.4309494103364
 30
0.0
 10
77.82986662550579
 20
-136.4309494103364
 30
0.0
 10
77.88500579076575
 20
-136.4309494103364
 30
0.0
 10
77.92977328962363
 20
-136.3861466325703
 30
0.0
 10
77.92977328962363
 20
-136.3310427436948
 30
0.0
  0
SPLINE
  5
5D
330
1F
100
AcDbEntity
  8
_U+30EC_U+30A4_U+30E4_U+30FC 1
 62
   179
420
  2234388
370
     9
100
AcDbSpline
210
0.0
220
0.0
230
1.0
 70
    11
 71
     3
 72
    17
 73
    13
 74
     0
 42
0.0000000001
 43
0.0000000001
 12
1.0
 22
0.0
 32
0.0
 13
1.0
 23
0.0
 33
0.0
 40
0.0
 40
0.0
 40
0.0
 40
0.0
 40
1.0
 40
1.0
 40
1.0
 40
2.0
 40
2.0
 40
2.0
 40
3.0
 40
3.0
 40
3.0
 40
4.0
 40
4.0
 40
4.0
 40
4.0
 10
77.92977328962363
 20
-116.3305535820285
 30
0.0
 10
77.92977328962363
 20
-116.2754144153754
 30
0.0
 10
77.88500579076575
 20
-116.2306469153869
 30
0.0
 10
77.82986662550579
 20
-116.2306469153869
 30
0.0
 10
77.77405718248517
 20
-116.2306469153869
 30
0.0
 10
77.72929164723436
 20
-116.2754144153754
 30
0.0
 10
77.72929164723436
 20
-116.3305535820285
 30
0.0
 10
77.72929164723436
 20
-116.3860102486812
 30
0.0
 10
77.77405718248517
 20
-116.4304602486702
 30
0.0
 10
77.82986662550579
 20
-116.4304602486702
 30
0.0
 10
77.88500579076575
 20
-116.4304602486702
 30
0.0
 10
77.92977328962363
 20
-116.3860102486812
 30
0.0
 10
77.92977328962363
 20
-116.3305535820285
 30
0.0
  0
SPLINE
  5
5E
330
1F
100
AcDbEntity
  8
_U+30EC_U+30A4_U+30E4_U+30FC 1
 62
   179
420
  2234388
370
     9
100
AcDbSpline
210
0.0
220
0.0
230
1.0
 70
    11
 71
     3
 72
    17
 73
    13
 74
     0
 42
0.0000000001
 43
0.0000000001
 12
1.0
 22
0.0
 32
0.0
 13
1.0
 23
0.0
 33
0.0
 40
0.0
 40
0.0
 40
0.0
 40
0.0
 40
1.0
 40
1.0
 40
1.0
 40
2.0
 40
2.0
 40
2.0
 40
3.0
 40
3.0
 40
3.0
 40
4.0
 40
4.0
 40
4.0
 40
4.0
 10
105.9297800752839
 20
-134.8310316329592
 30
0.0
 10
105.9297800752839
 20
-134.7752221885287
 30
0.0
 10
105.885012576426
 20
-134.7304546885395
 30
0.0
 10
105.8298734111661
 20
-134.7304546885395
 30
0.0
 10
105.774419418001
 20
-134.7304546885395
 30
0.0
 10
105.7296492470564
 20
-134.7752221885287
 30
0.0
 10
105.7296492470564
 20
-134.8310316329592
 30
0.0
 10
105.7296492470564
 20
-134.8861707996116
 30
0.0
 10
105.774419418001
 20
-134.9309382996008
 30
0.0
 10
105.8298734111661
 20
-134.9309382996008
 30
0.0
 10
105.885012576426
 20
-134.9309382996008
 30
0.0
 10
105.9297800752839
 20
-134.8861707996116
 30
0.0
 10
105.9297800752839
 20
-134.8310316329592
 30
0.0
  0
POLYLINE
  5
5F
330
1F
100
AcDbEntity
  8
_U+30EC_U+30A4_U+30E4_U+30FC 1
 62
   179
420
  2234388
370
     9
100
AcDb2dPolyline
 66
     1
 10
0.0
 20
0.0
 30
0.0
  0
VERTEX
  5
60
330
5F
100
AcDbEntity
  8
_U+30EC_U+30A4_U+30E4_U+30FC 1
 62
   179
420
  2234388
370
     9
100
AcDbVertex
100
AcDb2dVertex
 10
105.8298734111661
 20
-134.8310316329592
 30
0.0
  0
VERTEX
  5
61
330
5F
100
AcDbEntity
  8
_U+30EC_U+30A4_U+30E4_U+30FC 1
 62
   179
420
  2234388
370
     9
100
AcDbVertex
100
AcDb2dVertex
 10
105.8298734111661
 20
-129.1645385788202
 30
0.0
  0
SEQEND
  5
62
330
5F
100
AcDbEntity
  8
_U+30EC_U+30A4_U+30E4_U+30FC 1
 62
   179
420
  2234388
370
     9
  0
POLYLINE
  5
63
330
1F
100
AcDbEntity
  8
_U+30EC_U+30A4_U+30E4_U+30FC 1
 62
   179
420
  2234388
370
     9
100
AcDb2dPolyline
 66
     1
 10
0.0
 20
0.0
 30
0.0
  0
VERTEX
  5
64
330
63
100
AcDbEntity
  8
_U+30EC_U+30A4_U+30E4_U+30FC 1
 62
   179
420
  2234388
370
     9
100
AcDbVertex
100
AcDb2dVertex
 10
105.8298734111661
 20
-134.8310316329592
 30
0.0
  0
VERTEX
  5
65
330
63
100
AcDbEntity
  8
_U+30EC_U+30A4_U+30E4_U+30FC 1
 62
   179
420
  2234388
370
     9
100
AcDbVertex
100
AcDb2dVertex
 10
105.8298734111661
 20
-137.3308149656673
 30
0.0
  0
SEQEND
  5
66
330
63
100
AcDbEntity
  8
_U+30EC_U+30A4_U+30E4_U+30FC 1
 62
   179
420
  2234388
370
     9
  0
POLYLINE
  5
67
330
1F
100
AcDbEntity
  8
_U+30EC_U+30A4_U+30E4_U+30FC 1
 62
   179
420
  2234388
370
     9
100
AcDb2dPolyline
 66
     1
 10
0.0
 20
0.0
 30
0.0
  0
VERTEX
  5
68
330
67
100
AcDbEntity
  8
_U+30EC_U+30A4_U+30E4_U+30FC 1
 62
   179
420
  2234388
370
     9
100
AcDbVertex
100
AcDb2dVertex
 10
104.3695145595341
 20
-134.8310316329592
 30
0.0
  0
VERTEX
  5
69
330
67
100
AcDbEntity
  8
_U+30EC_U+30A4_U+30E4_U+30FC 1
 62
   179
420
  2234388
370
     9
100
AcDbVertex
100
AcDb2dVertex
 10
106.8303511634196
 20
-134.8310316329592
 30
0.0
  0
SEQEND
  5
6A
330
67
100
AcDbEntity
  8
_U+30EC_U+30A4_U+30E4_U+30FC 1
 62
   179
420
  2234388
370
     9
  0
POLYLINE
  5
6B
330
1F
100
AcDbEntity
  8
_U+30EC_U+30A4_U+30E4_U+30FC 1
 62
   179
420
  2234388
370
     9
100
AcDb2dPolyline
 66
     1
 10
0.0
 20
0.0
 30
0.0
  0
VERTEX
  5
6C
330
6B
100
AcDbEntity
  8
_U+30EC_U+30A4_U+30E4_U+30FC 1
 62
   179
420
  2234388
370
     9
100
AcDbVertex
100
AcDb2dVertex
 10
104.3695145595341
 20
-136.3310427436948
 30
0.0
  0
VERTEX
  5
6D
330
6B
100
AcDbEntity
  8
_U+30EC_U+30A4_U+30E4_U+30FC 1
 62
   179
420
  2234388
370
     9
100
AcDbVertex
100
AcDb2dVertex
 10
106.8303511634196
 20
-136.3310427436948
 30
0.0
  0
SEQEND
  5
6E
330
6B
100
AcDbEntity
  8
_U+30EC_U+30A4_U+30E4_U+30FC 1
 62
   179
420
  2234388
370
     9
  0
INSERT
  5
70
330
1F
100
AcDbEntity
  8
_U+30EC_U+30A4_U+30E4_U+30FC 1
100
AcDbBlockReference
  2
block 2
 10
0.0
 20
0.0
 30
0.0
  0
POLYLINE
  5
7F
330
1F
100
AcDbEntity
  8
_U+30EC_U+30A4_U+30E4_U+30FC 1
 62
   179
420
  2234388
370
     9
100
AcDb2dPolyline
 66
     1
 10
0.0
 20
0.0
 30
0.0
  0
VERTEX
  5
80
330
7F
100
AcDbEntity
  8
_U+30EC_U+30A4_U+30E4_U+30FC 1
 62
   179
420
  2234388
370
     9
100
AcDbVertex
100
AcDb2dVertex
 10
77.82986662550579
 20
-116.3305535820285
 30
0.0
  0
VERTEX
  5
81
330
7F
100
AcDbEntity
  8
_U+30EC_U+30A4_U+30E4_U+30FC 1
 62
   179
420
  2234388
370
     9
100
AcDbVertex
100
AcDb2dVertex
 10
77.82986662550579
 20
-136.3310427436948
 30
0.0
  0
SEQEND
  5
82
330
7F
100
AcDbEntity
  8
_U+30EC_U+30A4_U+30E4_U+30FC 1
 62
   179
420
  2234388
370
     9
  0
POLYLINE
  5
83
330
1F
100
AcDbEntity
  8
_U+30EC_U+30A4_U+30E4_U+30FC 1
 62
   179
420
  2234388
370
     9
100
AcDb2dPolyline
 66
     1
 10
0.0
 20
0.0
 30
0.0
  0
VERTEX
  5
84
330
83
100
AcDbEntity
  8
_U+30EC_U+30A4_U+30E4_U+30FC 1
 62
   179
420
  2234388
370
     9
100
AcDbVertex
100
AcDb2dVertex
 10
79.28990797714592
 20
-116.3305535820285
 30
0.0
  0
VERTEX
  5
85
330
83
100
AcDbEntity
  8
_U+30EC_U+30A4_U+30E4_U+30FC 1
 62
   179
420
  2234388
370
     9
100
AcDbVertex
100
AcDb2dVertex
 10
76.8294241510292
 20
-116.3305535820285
 30
0.0
  0
SEQEND
  5
86
330
83
100
AcDbEntity
  8
_U+30EC_U+30A4_U+30E4_U+30FC 1
 62
   179
420
  2234388
370
     9
  0
POLYLINE
  5
87
330
1F
100
AcDbEntity
  8
_U+30EC_U+30A4_U+30E4_U+30FC 1
 62
   179
420
  2234388
370
     9
100
AcDb2dPolyline
 66
     1
 10
0.0
 20
0.0
 30
0.0
  0
VERTEX
  5
88
330
87
100
AcDbEntity
  8
_U+30EC_U+30A4_U+30E4_U+30FC 1
 62
   179
420
  2234388
370
     9
100
AcDbVertex
100
AcDb2dVertex
 10
79.28990797714592
 20
-136.3310427436948
 30
0.0
  0
VERTEX
  5
89
330
87
100
AcDbEntity
  8
_U+30EC_U+30A4_U+30E4_U+30FC 1
 62
   179
420
  2234388
370
     9
100
AcDbVertex
100
AcDb2dVertex
 10
76.8294241510292
 20
-136.3310427436948
 30
0.0
  0
SEQEND
  5
8A
330
87
100
AcDbEntity
  8
_U+30EC_U+30A4_U+30E4_U+30FC 1
 62
   179
420
  2234388
370
     9
  0
INSERT
  5
8C
330
1F
100
AcDbEntity
  8
_U+30EC_U+30A4_U+30E4_U+30FC 1
100
AcDbBlockReference
  2
block 3
 10
0.0
 20
0.0
 30
0.0
  0
POLYLINE
  5
94
330
1F
100
AcDbEntity
  8
_U+30EC_U+30A4_U+30E4_U+30FC 1
 62
   179
420
  2234388
370
     9
100
AcDb2dPolyline
 66
     1
 10
0.0
 20
0.0
 30
0.0
  0
VERTEX
  5
95
330
94
100
AcDbEntity
  8
_U+30EC_U+30A4_U+30E4_U+30FC 1
 62
   179
420
  2234388
370
     9
100
AcDbVertex
100
AcDb2dVertex
 10
81.82962775732024
 20
-140.3308019093617
 30
0.0
  0
VERTEX
  5
96
330
94
100
AcDbEntity
  8
_U+30EC_U+30A4_U+30E4_U+30FC 1
 62
   179
420
  2234388
370
     9
100
AcDbVertex
100
AcDb2dVertex
 10
101.8297968465499
 20
-140.3308019093617
 30
0.0
  0
SEQEND
  5
97
330
94
100
AcDbEntity
  8
_U+30EC_U+30A4_U+30E4_U+30FC 1
 62
   179
420
  2234388
370
     9
  0
POLYLINE
  5
98
330
1F
100
AcDbEntity
  8
_U+30EC_U+30A4_U+30E4_U+30FC 1
 62
   179
420
  2234388
370
     9
100
AcDb2dPolyline
 66
     1
 10
0.0
 20
0.0
 30
0.0
  0
VERTEX
  5
99
330
98
100
AcDbEntity
  8
_U+30EC_U+30A4_U+30E4_U+30FC 1
 62
   179
420
  2234388
370
     9
100
AcDbVertex
100
AcDb2dVertex
 10
81.82962775732024
 20
-138.870760520838
 30
0.0
  0
VERTEX
  5
9A
330
98
100
AcDbEntity
  8
_U+30EC_U+30A4_U+30E4_U+30FC 1
 62
   179
420
  2234388
370
     9
100
AcDbVertex
100
AcDb2dVertex
 10
81.82962775732024
 20
-141.3305741313342
 30
0.0
  0
SEQEND
  5
9B
330
98
100
AcDbEntity
  8
_U+30EC_U+30A4_U+30E4_U+30FC 1
 62
   179
420
  2234388
370
     9
  0
POLYLINE
  5
9C
330
1F
100
AcDbEntity
  8
_U+30EC_U+30A4_U+30E4_U+30FC 1
 62
   179
420
  2234388
370
     9
100
AcDb2dPolyline
 66
     1
 10
0.0
 20
0.0
 30
0.0
  0
VERTEX
  5
9D
330
9C
100
AcDbEntity
  8
_U+30EC_U+30A4_U+30E4_U+30FC 1
 62
   179
420
  2234388
370
     9
100
AcDbVertex
100
AcDb2dVertex
 10
101.8297968465499
 20
-138.870760520838
 30
0.0
  0
VERTEX
  5
9E
330
9C
100
AcDbEntity
  8
_U+30EC_U+30A4_U+30E4_U+30FC 1
 62
   179
420
  2234388
370
     9
100
AcDbVertex
100
AcDb2dVertex
 10
101.8297968465499
 20
-141.3305741313342
 30
0.0
  0
SEQEND
  5
9F
330
9C
100
AcDbEntity
  8
_U+30EC_U+30A4_U+30E4_U+30FC 1
 62
   179
420
  2234388
370
     9
  0
INSERT
  5
A1
330
1F
100
AcDbEntity
  8
_U+30EC_U+30A4_U+30E4_U+30FC 1
100
AcDbBlockReference
  2
block 4
 10
0.0
 20
0.0
 30
0.0
  0
INSERT
  5
AA
330
1F
100
AcDbEntity
  8
_U+30EC_U+30A4_U+30E4_U+30FC 1
100
AcDbBlockReference
  2
block 5
 10
0.0
 20
0.0
 30
0.0
  0
POLYLINE
  5
E7
330
1F
100
AcDbEntity
  8
_U+30EC_U+30A4_U+30E4_U+30FC 1
 62
   179
420
  2234388
370
     9
100
AcDb2dPolyline
 66
     1
 10
0.0
 20
0.0
 30
0.0
  0
VERTEX
  5
E8
330
E7
100
AcDbEntity
  8
_U+30EC_U+30A4_U+30E4_U+30FC 1
 62
   179
420
  2234388
370
     9
100
AcDbVertex
100
AcDb2dVertex
 10
88.27332330351545
 20
-121.5994660807111
 30
0.0
  0
VERTEX
  5
E9
330
E7
100
AcDbEntity
  8
_U+30EC_U+30A4_U+30E4_U+30FC 1
 62
   179
420
  2234388
370
     9
100
AcDbVertex
100
AcDb2dVertex
 10
84.71178478326676
 20
-126.1979949684505
 30
0.0
  0
SEQEND
  5
EA
330
E7
100
AcDbEntity
  8
_U+30EC_U+30A4_U+30E4_U+30FC 1
 62
   179
420
  2234388
370
     9
  0
POLYLINE
  5
EB
330
1F
100
AcDbEntity
  8
_U+30EC_U+30A4_U+30E4_U+30FC 1
  6
AI-Linetype-1
 62
   154
420
    23468
370
    25
100
AcDb2dPolyline
 66
     1
 10
0.0
 20
0.0
 30
0.0
  0
VERTEX
  5
EC
330
EB
100
AcDbEntity
  8
_U+30EC_U+30A4_U+30E4_U+30FC 1
  6
AI-Linetype-1
 62
   154
420
    23468
370
    25
100
AcDbVertex
100
AcDb2dVertex
 10
81.71800680408884
 20
-115.5584994155548
 30
0.0
  0
VERTEX
  5
ED
330
EB
100
AcDbEntity
  8
_U+30EC_U+30A4_U+30E4_U+30FC 1
  6
AI-Linetype-1
 62
   154
420
    23468
370
    25
100
AcDbVertex
100
AcDb2dVertex
 10
84.04344730031748
 20
-115.5584994155548
 30
0.0
  0
VERTEX
  5
EE
330
EB
100
AcDbEntity
  8
_U+30EC_U+30A4_U+30E4_U+30FC 1
  6
AI-Linetype-1
 62
   154
420
    23468
370
    25
100
AcDbVertex
100
AcDb2dVertex
 10
84.04344730031748
 20
-134.1499588553511
 30
0.0
  0
VERTEX
  5
EF
330
EB
100
AcDbEntity
  8
_U+30EC_U+30A4_U+30E4_U+30FC 1
  6
AI-Linetype-1
 62
   154
420
    23468
370
    25
100
AcDbVertex
100
AcDb2dVertex
 10
102.6200896041656
 20
-134.1499588553511
 30
0.0
  0
VERTEX
  5
F0
330
EB
100
AcDbEntity
  8
_U+30EC_U+30A4_U+30E4_U+30FC 1
  6
AI-Linetype-1
 62
   154
420
    23468
370
    25
100
AcDbVertex
100
AcDb2dVertex
 10
102.6200896041656
 20
-136.4316549658919
 30
0.0
  0
SEQEND
  5
F2
330
EB
100
AcDbEntity
  8
_U+30EC_U+30A4_U+30E4_U+30FC 1
  6
AI-Linetype-1
 62
   154
420
    23468
370
    25
  0
ENDSEC
  0
SECTION
  2
OBJECTS
  0
DICTIONARY
  5
C
330
0
100
AcDbDictionary
281
     1
  3
ACAD_GROUP
350
D
  3
ACAD_LAYOUT
350
1A
  3
ACAD_MATERIAL
350
3B
  3
ACAD_MLEADERSTYLE
350
F4
  3
ACAD_MLINESTYLE
350
17
  3
ACAD_PLOTSETTINGS
350
19
  3
ACAD_PLOTSTYLENAME
350
E
  3
ACAD_TABLESTYLE
350
F3
  3
ACAD_VISUALSTYLE
350
2A
  0
SUN
  5
3F
330
29
100
AcDbSun
 90
        1
290
     0
 63
     7
421
 16777215
 40
1.0
291
     1
 91
  2455826
 92
 54000000
292
     0
 70
     2
 71
   256
280
     1
  0
DICTIONARY
  5
D
102
{ACAD_REACTORS
330
C
102
}
330
C
100
AcDbDictionary
281
     1
  0
DICTIONARY
  5
1A
102
{ACAD_REACTORS
330
C
102
}
330
C
100
AcDbDictionary
281
     1
  3
Layout1
350
1E
  3
Layout2
350
26
  3
Model
350
22
  0
DICTIONARY
  5
3B
102
{ACAD_REACTORS
330
C
102
}
330
C
100
AcDbDictionary
281
     1
  3
ByBlock
350
3D
  3
ByLayer
350
3C
  3
Global
350
3E
  0
DICTIONARY
  5
F4
102
{ACAD_REACTORS
330
C
102
}
330
C
100
AcDbDictionary
281
     1
  0
DICTIONARY
  5
17
102
{ACAD_REACTORS
330
C
102
}
330
C
100
AcDbDictionary
281
     1
  3
Standard
350
18
  0
DICTIONARY
  5
19
102
{ACAD_REACTORS
330
C
102
}
330
C
100
AcDbDictionary
281
     1
  0
ACDBDICTIONARYWDFLT
  5
E
102
{ACAD_REACTORS
330
C
102
}
330
C
100
AcDbDictionary
281
     1
  3
Normal
350
F
100
AcDbDictionaryWithDefault
340
F
  0
DICTIONARY
  5
F3
102
{ACAD_REACTORS
330
C
102
}
330
C
100
AcDbDictionary
281
     1
  0
DICTIONARY
  5
2A
102
{ACAD_REACTORS
330
C
102
}
330
C
100
AcDbDictionary
281
     1
  3
2dWireframe
350
2F
  3
3D Hidden
350
31
  3
3dWireframe
350
30
  3
Basic
350
32
  3
Brighten
350
36
  3
ColorChange
350
3A
  3
Conceptual
350
34
  3
Dim
350
35
  3
Facepattern
350
39
  3
Flat
350
2B
  3
FlatWithEdges
350
2C
  3
Gouraud
350
2D
  3
GouraudWithEdges
350
2E
  3
Linepattern
350
38
  3
Realistic
350
33
  3
Thicken
350
37
  0
LAYOUT
  5
1E
102
{ACAD_REACTORS
330
1A
102
}
330
1A
100
AcDbPlotSettings
  1

  2
none_device
  4

  6

 40
0.0
 41
0.0
 42
0.0
 43
0.0
 44
0.0
 45
0.0
 46
0.0
 47
0.0
 48
0.0
 49
0.0
140
0.0
141
0.0
142
1.0
143
1.0
 70
   688
 72
     0
 73
     0
 74
     5
  7

 75
    16
 76
     0
 77
     2
 78
   300
147
1.0
148
0.0
149
0.0
100
AcDbLayout
  1
Layout1
 70
     1
 71
     1
 10
0.0
 20
0.0
 11
12.0
 21
9.0
 12
0.0
 22
0.0
 32
0.0
 14
1.000000000000000E+20
 24
1.000000000000000E+20
 34
1.000000000000000E+20
 15
-1.000000000000000E+20
 25
-1.000000000000000E+20
 35
-1.000000000000000E+20
146
0.0
 13
0.0
 23
0.0
 33
0.0
 16
1.0
 26
0.0
 36
0.0
 17
0.0
 27
1.0
 37
0.0
 76
     0
330
1B
  0
LAYOUT
  5
26
102
{ACAD_REACTORS
330
1A
102
}
330
1A
100
AcDbPlotSettings
  1

  2
none_device
  4

  6

 40
0.0
 41
0.0
 42
0.0
 43
0.0
 44
0.0
 45
0.0
 46
0.0
 47
0.0
 48
0.0
 49
0.0
140
0.0
141
0.0
142
1.0
143
1.0
 70
   688
 72
     0
 73
     0
 74
     5
  7

 75
    16
 76
     0
 77
     2
 78
   300
147
1.0
148
0.0
149
0.0
100
AcDbLayout
  1
Layout2
 70
     1
 71
     2
 10
0.0
 20
0.0
 11
0.0
 21
0.0
 12
0.0
 22
0.0
 32
0.0
 14
0.0
 24
0.0
 34
0.0
 15
0.0
 25
0.0
 35
0.0
146
0.0
 13
0.0
 23
0.0
 33
0.0
 16
1.0
 26
0.0
 36
0.0
 17
0.0
 27
1.0
 37
0.0
 76
     0
330
23
  0
LAYOUT
  5
22
102
{ACAD_REACTORS
330
1A
102
}
330
1A
100
AcDbPlotSettings
  1

  2
none_device
  4

  6

 40
0.0
 41
0.0
 42
0.0
 43
0.0
 44
0.0
 45
0.0
 46
0.0
 47
0.0
 48
0.0
 49
0.0
140
0.0
141
0.0
142
1.0
143
1.0
 70
  1712
 72
     0
 73
     0
 74
     0
  7

 75
     0
 76
     0
 77
     2
 78
   300
147
1.0
148
0.0
149
0.0
100
AcDbLayout
  1
Model
 70
     1
 71
     0
 10
0.0
 20
0.0
 11
12.0
 21
9.0
 12
0.0
 22
0.0
 32
0.0
 14
1.000000000000000E+20
 24
1.000000000000000E+20
 34
1.000000000000000E+20
 15
-1.000000000000000E+20
 25
-1.000000000000000E+20
 35
-1.000000000000000E+20
146
0.0
 13
0.0
 23
0.0
 33
0.0
 16
1.0
 26
0.0
 36
0.0
 17
0.0
 27
1.0
 37
0.0
 76
     0
330
1F
331
29
  0
MATERIAL
  5
3D
102
{ACAD_REACTORS
330
3B
102
}
330
3B
100
AcDbMaterial
  1
ByBlock
 72
     1
 94
      127
  0
MATERIAL
  5
3C
102
{ACAD_REACTORS
330
3B
102
}
330
3B
100
AcDbMaterial
  1
ByLayer
 72
     1
 94
      127
  0
MATERIAL
  5
3E
102
{ACAD_REACTORS
330
3B
102
}
330
3B
100
AcDbMaterial
  1
Global
 72
     1
 94
      127
  0
MLINESTYLE
  5
18
102
{ACAD_REACTORS
330
17
102
}
330
17
100
AcDbMlineStyle
  2
Standard
 70
     0
  3

 62
   256
 51
90.0
 52
90.0
 71
     2
 49
0.5
 62
   256
  6
BYLAYER
 49
-0.5
 62
   256
  6
BYLAYER
  0
ACDBPLACEHOLDER
  5
F
102
{ACAD_REACTORS
330
E
102
}
330
E
  0
VISUALSTYLE
  5
2F
102
{ACAD_REACTORS
330
2A
102
}
330
2A
100
AcDbVisualStyle
  2
2dWireframe
 70
     4
177
     2
291
     0
 71
     0
176
     1
 72
     2
176
     1
 73
     0
176
     1
 90
        0
176
     1
 40
-0.6
176
     1
 41
-30.0
176
     1
 62
     5
 63
     7
421
 16777215
176
     1
 74
     1
176
     1
 91
        4
176
     1
 64
     7
176
     1
 65
   257
176
     1
 75
     1
176
     1
175
     1
176
     1
 42
1.0
176
     1
 92
        0
176
     1
 66
   257
176
     1
 43
1.0
176
     1
 76
     1
176
     1
 77
     6
176
     1
 78
     2
176
     1
 67
     7
176
     1
 79
     5
176
     1
170
     0
176
     1
171
     0
176
     1
290
     0
176
     1
 93
        1
176
     1
 44
0.0
176
     1
173
     0
176
     1
  0
VISUALSTYLE
  5
31
102
{ACAD_REACTORS
330
2A
102
}
330
2A
100
AcDbVisualStyle
  2
3D Hidden
 70
     6
177
     2
291
     0
 71
     1
176
     1
 72
     2
176
     1
 73
     2
176
     1
 90
        0
176
     1
 40
-0.6
176
     1
 41
-30.0
176
     1
 62
     5
 63
     7
421
 16777215
176
     1
 74
     2
176
     1
 91
        2
176
     1
 64
     7
176
     1
 65
   257
176
     1
 75
     2
176
     1
175
     1
176
     1
 42
40.0
176
     1
 92
        0
176
     1
 66
   257
176
     1
 43
1.0
176
     1
 76
     1
176
     1
 77
     6
176
     1
 78
     2
176
     1
 67
     7
176
     1
 79
     3
176
     1
170
     0
176
     1
171
     0
176
     1
290
     0
176
     1
 93
        1
176
     1
 44
0.0
176
     1
173
     0
176
     1
  0
VISUALSTYLE
  5
30
102
{ACAD_REACTORS
330
2A
102
}
330
2A
100
AcDbVisualStyle
  2
3dWireframe
 70
     5
177
     2
291
     0
 71
     0
176
     1
 72
     2
176
     1
 73
     0
176
     1
 90
        0
176
     1
 40
-0.6
176
     1
 41
-30.0
176
     1
 62
     5
 63
     7
421
 16777215
176
     1
 74
     1
176
     1
 91
        4
176
     1
 64
     7
176
     1
 65
   257
176
     1
 75
     1
176
     1
175
     1
176
     1
 42
1.0
176
     1
 92
        0
176
     1
 66
   257
176
     1
 43
1.0
176
     1
 76
     1
176
     1
 77
     6
176
     1
 78
     2
176
     1
 67
     7
176
     1
 79
     5
176
     1
170
     0
176
     1
171
     0
176
     1
290
     0
176
     1
 93
        1
176
     1
 44
0.0
176
     1
173
     0
176
     1
  0
VISUALSTYLE
  5
32
102
{ACAD_REACTORS
330
2A
102
}
330
2A
100
AcDbVisualStyle
  2
Basic
 70
     7
177
     2
291
     1
 71
     1
176
     1
 72
     0
176
     1
 73
     1
176
     1
 90
        0
176
     1
 40
-0.6
176
     1
 41
-30.0
176
     1
 62
     5
 63
     7
421
 16777215
176
     1
 74
     0
176
     1
 91
        4
176
     1
 64
     7
176
     1
 65
   257
176
     1
 75
     1
176
     1
175
     1
176
     1
 42
1.0
176
     1
 92
        8
176
     1
 66
     7
176
     1
 43
1.0
176
     1
 76
     1
176
     1
 77
     6
176
     1
 78
     2
176
     1
 67
     7
176
     1
 79
     5
176
     1
170
     0
176
     1
171
     0
176
     1
290
     0
176
     1
 93
        1
176
     1
 44
0.0
176
     1
173
     0
176
     1
  0
VISUALSTYLE
  5
36
102
{ACAD_REACTORS
330
2A
102
}
330
2A
100
AcDbVisualStyle
  2
Brighten
 70
    12
177
     2
291
     1
 71
     2
176
     1
 72
     2
176
     1
 73
     0
176
     1
 90
        0
176
     1
 40
-0.6
176
     1
 41
-30.0
176
     1
 62
     5
 63
     7
421
 16777215
176
     1
 74
     1
176
     1
 91
        4
176
     1
 64
     7
176
     1
 65
   257
176
     1
 75
     1
176
     1
175
     1
176
     1
 42
1.0
176
     1
 92
        8
176
     1
 66
     7
176
     1
 43
1.0
176
     1
 76
     1
176
     1
 77
     6
176
     1
 78
     2
176
     1
 67
     7
176
     1
 79
     5
176
     1
170
     0
176
     1
171
     0
176
     1
290
     0
176
     1
 93
        1
176
     1
 44
50.0
176
     1
173
     0
176
     1
  0
VISUALSTYLE
  5
3A
102
{ACAD_REACTORS
330
2A
102
}
330
2A
100
AcDbVisualStyle
  2
ColorChange
 70
    16
177
     2
291
     1
 71
     2
176
     1
 72
     2
176
     1
 73
     3
176
     1
 90
        0
176
     1
 40
-0.6
176
     1
 41
-30.0
176
     1
 62
     5
 63
     8
421
  8421504
176
     1
 74
     1
176
     1
 91
        4
176
     1
 64
     7
176
     1
 65
   257
176
     1
 75
     1
176
     1
175
     1
176
     1
 42
1.0
176
     1
 92
        8
176
     1
 66
     8
424
  8421504
176
     1
 43
1.0
176
     1
 76
     1
176
     1
 77
     6
176
     1
 78
     2
176
     1
 67
     7
176
     1
 79
     5
176
     1
170
     0
176
     1
171
     0
176
     1
290
     0
176
     1
 93
        1
176
     1
 44
0.0
176
     1
173
     0
176
     1
  0
VISUALSTYLE
  5
34
102
{ACAD_REACTORS
330
2A
102
}
330
2A
100
AcDbVisualStyle
  2
Conceptual
 70
     9
177
     2
291
     0
 71
     3
176
     1
 72
     2
176
     1
 73
     0
176
     1
 90
        0
176
     1
 40
-0.6
176
     1
 41
-30.0
176
     1
 62
     5
 63
     7
421
 16777215
176
     1
 74
     2
176
     1
 91
        2
176
     1
 64
     7
176
     1
 65
   257
176
     1
 75
     1
176
     1
175
     1
176
     1
 42
40.0
176
     1
 92
        8
176
     1
 66
     7
176
     1
 43
1.0
176
     1
 76
     1
176
     1
 77
     6
176
     1
 78
     2
176
     1
 67
     7
176
     1
 79
     3
176
     1
170
     0
176
     1
171
     0
176
     1
290
     0
176
     1
 93
        1
176
     1
 44
0.0
176
     1
173
     0
176
     1
  0
VISUALSTYLE
  5
35
102
{ACAD_REACTORS
330
2A
102
}
330
2A
100
AcDbVisualStyle
  2
Dim
 70
    11
177
     2
291
     1
 71
     2
176
     1
 72
     2
176
     1
 73
     0
176
     1
 90
        0
176
     1
 40
-0.6
176
     1
 41
-30.0
176
     1
 62
     5
 63
     7
421
 16777215
176
     1
 74
     1
176
     1
 91
        4
176
     1
 64
     7
176
     1
 65
   257
176
     1
 75
     1
176
     1
175
     1
176
     1
 42
1.0
176
     1
 92
        8
176
     1
 66
     7
176
     1
 43
1.0
176
     1
 76
     1
176
     1
 77
     6
176
     1
 78
     2
176
     1
 67
     7
176
     1
 79
     5
176
     1
170
     0
176
     1
171
     0
176
     1
290
     0
176
     1
 93
        1
176
     1
 44
-50.0
176
     1
173
     0
176
     1
  0
VISUALSTYLE
  5
39
102
{ACAD_REACTORS
330
2A
102
}
330
2A
100
AcDbVisualStyle
  2
Facepattern
 70
    15
177
     2
291
     1
 71
     2
176
     1
 72
     2
176
     1
 73
     0
176
     1
 90
        0
176
     1
 40
-0.6
176
     1
 41
-30.0
176
     1
 62
     5
 63
     7
421
 16777215
176
     1
 74
     1
176
     1
 91
        4
176
     1
 64
     7
176
     1
 65
   257
176
     1
 75
     1
176
     1
175
     1
176
     1
 42
1.0
176
     1
 92
        8
176
     1
 66
     7
176
     1
 43
1.0
176
     1
 76
     1
176
     1
 77
     6
176
     1
 78
     2
176
     1
 67
     7
176
     1
 79
     5
176
     1
170
     0
176
     1
171
     0
176
     1
290
     0
176
     1
 93
        1
176
     1
 44
0.0
176
     1
173
     0
176
     1
  0
VISUALSTYLE
  5
2B
102
{ACAD_REACTORS
330
2A
102
}
330
2A
100
AcDbVisualStyle
  2
Flat
 70
     0
177
     2
291
     1
 71
     2
176
     1
 72
     1
176
     1
 73
     1
176
     1
 90
        2
176
     1
 40
-0.6
176
     1
 41
30.0
176
     1
 62
     5
 63
     7
421
 16777215
176
     1
 74
     0
176
     1
 91
        4
176
     1
 64
     7
176
     1
 65
   257
176
     1
 75
     1
176
     1
175
     1
176
     1
 42
1.0
176
     1
 92
        8
176
     1
 66
     7
176
     1
 43
1.0
176
     1
 76
     1
176
     1
 77
     6
176
     1
 78
     2
176
     1
 67
     7
176
     1
 79
     5
176
     1
170
     0
176
     1
171
     0
176
     1
290
     0
176
     1
 93
       13
176
     1
 44
0.0
176
     1
173
     0
176
     1
  0
VISUALSTYLE
  5
2C
102
{ACAD_REACTORS
330
2A
102
}
330
2A
100
AcDbVisualStyle
  2
FlatWithEdges
 70
     1
177
     2
291
     1
 71
     2
176
     1
 72
     1
176
     1
 73
     1
176
     1
 90
        2
176
     1
 40
-0.6
176
     1
 41
30.0
176
     1
 62
     5
 63
     7
421
 16777215
176
     1
 74
     1
176
     1
 91
        4
176
     1
 64
     7
176
     1
 65
   257
176
     1
 75
     1
176
     1
175
     1
176
     1
 42
1.0
176
     1
 92
        0
176
     1
 66
   257
176
     1
 43
1.0
176
     1
 76
     1
176
     1
 77
     6
176
     1
 78
     2
176
     1
 67
     7
176
     1
 79
     5
176
     1
170
     0
176
     1
171
     0
176
     1
290
     0
176
     1
 93
       13
176
     1
 44
0.0
176
     1
173
     0
176
     1
  0
VISUALSTYLE
  5
2D
102
{ACAD_REACTORS
330
2A
102
}
330
2A
100
AcDbVisualStyle
  2
Gouraud
 70
     2
177
     2
291
     1
 71
     2
176
     1
 72
     2
176
     1
 73
     1
176
     1
 90
        2
176
     1
 40
-0.6
176
     1
 41
30.0
176
     1
 62
     5
 63
     7
421
 16777215
176
     1
 74
     0
176
     1
 91
        4
176
     1
 64
     7
176
     1
 65
   257
176
     1
 75
     1
176
     1
175
     1
176
     1
 42
1.0
176
     1
 92
        0
176
     1
 66
     7
176
     1
 43
1.0
176
     1
 76
     1
176
     1
 77
     6
176
     1
 78
     2
176
     1
 67
     7
176
     1
 79
     5
176
     1
170
     0
176
     1
171
     0
176
     1
290
     0
176
     1
 93
       13
176
     1
 44
0.0
176
     1
173
     0
176
     1
  0
VISUALSTYLE
  5
2E
102
{ACAD_REACTORS
330
2A
102
}
330
2A
100
AcDbVisualStyle
  2
GouraudWithEdges
 70
     3
177
     2
291
     1
 71
     2
176
     1
 72
     2
176
     1
 73
     1
176
     1
 90
        2
176
     1
 40
-0.6
176
     1
 41
30.0
176
     1
 62
     5
 63
     7
421
 16777215
176
     1
 74
     1
176
     1
 91
        4
176
     1
 64
     7
176
     1
 65
   257
176
     1
 75
     1
176
     1
175
     1
176
     1
 42
1.0
176
     1
 92
        0
176
     1
 66
   257
176
     1
 43
1.0
176
     1
 76
     1
176
     1
 77
     6
176
     1
 78
     2
176
     1
 67
     7
176
     1
 79
     5
176
     1
170
     0
176
     1
171
     0
176
     1
290
     0
176
     1
 93
       13
176
     1
 44
0.0
176
     1
173
     0
176
     1
  0
VISUALSTYLE
  5
38
102
{ACAD_REACTORS
330
2A
102
}
330
2A
100
AcDbVisualStyle
  2
Linepattern
 70
    14
177
     2
291
     1
 71
     2
176
     1
 72
     2
176
     1
 73
     0
176
     1
 90
        0
176
     1
 40
-0.6
176
     1
 41
-30.0
176
     1
 62
     5
 63
     7
421
 16777215
176
     1
 74
     1
176
     1
 91
        4
176
     1
 64
     7
176
     1
 65
   257
176
     1
 75
     7
176
     1
175
     7
176
     1
 42
1.0
176
     1
 92
        8
176
     1
 66
     7
176
     1
 43
1.0
176
     1
 76
     1
176
     1
 77
     6
176
     1
 78
     2
176
     1
 67
     7
176
     1
 79
     5
176
     1
170
     0
176
     1
171
     0
176
     1
290
     0
176
     1
 93
        1
176
     1
 44
0.0
176
     1
173
     0
176
     1
  0
VISUALSTYLE
  5
33
102
{ACAD_REACTORS
330
2A
102
}
330
2A
100
AcDbVisualStyle
  2
Realistic
 70
     8
177
     2
291
     0
 71
     2
176
     1
 72
     2
176
     1
 73
     0
176
     1
 90
        0
176
     1
 40
-0.6
176
     1
 41
-30.0
176
     1
 62
     5
 63
     7
421
 16777215
176
     1
 74
     1
176
     1
 91
        0
176
     1
 64
     7
176
     1
 65
   257
176
     1
 75
     1
176
     1
175
     1
176
     1
 42
1.0
176
     1
 92
        8
176
     1
 66
     8
424
  7895160
176
     1
 43
1.0
176
     1
 76
     1
176
     1
 77
     6
176
     1
 78
     2
176
     1
 67
     7
176
     1
 79
     5
176
     1
170
     0
176
     1
171
     0
176
     1
290
     0
176
     1
 93
       13
176
     1
 44
0.0
176
     1
173
     0
176
     1
  0
VISUALSTYLE
  5
37
102
{ACAD_REACTORS
330
2A
102
}
330
2A
100
AcDbVisualStyle
  2
Thicken
 70
    13
177
     2
291
     1
 71
     2
176
     1
 72
     2
176
     1
 73
     0
176
     1
 90
        0
176
     1
 40
-0.6
176
     1
 41
-30.0
176
     1
 62
     5
 63
     7
421
 16777215
176
     1
 74
     1
176
     1
 91
        4
176
     1
 64
     7
176
     1
 65
   257
176
     1
 75
     1
176
     1
175
     1
176
     1
 42
1.0
176
     1
 92
       12
176
     1
 66
     7
176
     1
 43
1.0
176
     1
 76
     1
176
     1
 77
     6
176
     1
 78
     2
176
     1
 67
     7
176
     1
 79
     5
176
     1
170
     0
176
     1
171
     0
176
     1
290
     0
176
     1
 93
        1
176
     1
 44
0.0
176
     1
173
     0
176
     1
  0
ENDSEC
  0
EOF
