  0
SECTION
  2
HEADER
  9
$ACADVER
  1
AC1024
  9
$ACADMAINTVER
 70
     6
  9
$DWGCODEPAGE
  3
UNDEFINED
  9
$INSBASE
 10
0.0
 20
0.0
 30
0.0
  9
$EXTMIN
 10
1.000000000000000E+20
 20
1.000000000000000E+20
 30
1.000000000000000E+20
  9
$EXTMAX
 10
-1.000000000000000E+20
 20
-1.000000000000000E+20
 30
-1.000000000000000E+20
  9
$LIMMIN
 10
0.0
 20
0.0
  9
$LIMMAX
 10
12.0
 20
9.0
  9
$ORTHOMODE
 70
     0
  9
$REGENMODE
 70
     1
  9
$FILLMODE
 70
     1
  9
$QTEXTMODE
 70
     0
  9
$MIRRTEXT
 70
     1
  9
$LTSCALE
 40
1.0
  9
$ATTMODE
 70
     1
  9
$TEXTSIZE
 40
0.2
  9
$TRACEWID
 40
0.05
  9
$TEXTSTYLE
  7
Standard
  9
$CLAYER
  8
0
  9
$CELTYPE
  6
ByLayer
  9
$CECOLOR
 62
   256
  9
$CELTSCALE
 40
1.0
  9
$DISPSILH
 70
     0
  9
$DIMSCALE
 40
1.0
  9
$DIMASZ
 40
0.18
  9
$DIMEXO
 40
0.0625
  9
$DIMDLI
 40
0.38
  9
$DIMRND
 40
0.0
  9
$DIMDLE
 40
0.0
  9
$DIMEXE
 40
0.18
  9
$DIMTP
 40
0.0
  9
$DIMTM
 40
0.0
  9
$DIMTXT
 40
0.18
  9
$DIMCEN
 40
0.09
  9
$DIMTSZ
 40
0.0
  9
$DIMTOL
 70
     0
  9
$DIMLIM
 70
     0
  9
$DIMTIH
 70
     1
  9
$DIMTOH
 70
     1
  9
$DIMSE1
 70
     0
  9
$DIMSE2
 70
     0
  9
$DIMTAD
 70
     0
  9
$DIMZIN
 70
     0
  9
$DIMBLK
  1

  9
$DIMASO
 70
     1
  9
$DIMSHO
 70
     1
  9
$DIMPOST
  1

  9
$DIMAPOST
  1

  9
$DIMALT
 70
     0
  9
$DIMALTD
 70
     2
  9
$DIMALTF
 40
25.4
  9
$DIMLFAC
 40
1.0
  9
$DIMTOFL
 70
     0
  9
$DIMTVP
 40
0.0
  9
$DIMTIX
 70
     0
  9
$DIMSOXD
 70
     0
  9
$DIMSAH
 70
     0
  9
$DIMBLK1
  1

  9
$DIMBLK2
  1

  9
$DIMSTYLE
  2
Standard
  9
$DIMCLRD
 70
     0
  9
$DIMCLRE
 70
     0
  9
$DIMCLRT
 70
     0
  9
$DIMTFAC
 40
1.0
  9
$DIMGAP
 40
0.09
  9
$DIMJUST
 70
     0
  9
$DIMSD1
 70
     0
  9
$DIMSD2
 70
     0
  9
$DIMTOLJ
 70
     1
  9
$DIMTZIN
 70
     0
  9
$DIMALTZ
 70
     0
  9
$DIMALTTZ
 70
     0
  9
$DIMUPT
 70
     0
  9
$DIMDEC
 70
     4
  9
$DIMTDEC
 70
     4
  9
$DIMALTU
 70
     2
  9
$DIMALTTD
 70
     2
  9
$DIMTXSTY
  7
Standard
  9
$DIMAUNIT
 70
     0
  9
$DIMADEC
 70
     0
  9
$DIMALTRND
 40
0.0
  9
$DIMAZIN
 70
     0
  9
$DIMDSEP
 70
    46
  9
$DIMATFIT
 70
     3
  9
$DIMFRAC
 70
     0
  9
$DIMLDRBLK
  1

  9
$DIMLUNIT
 70
     2
  9
$DIMLWD
 70
    -2
  9
$DIMLWE
 70
    -2
  9
$DIMTMOVE
 70
     0
  9
$DIMFXL
 40
1.0
  9
$DIMFXLON
 70
     0
  9
$DIMJOGANG
 40
0.7853981633974483
  9
$DIMTFILL
 70
     0
  9
$DIMTFILLCLR
 70
     0
  9
$DIMARCSYM
 70
     0
  9
$DIMLTYPE
  6

  9
$DIMLTEX1
  6

  9
$DIMLTEX2
  6

  9
$DIMTXTDIRECTION
 70
     0
  9
$LUNITS
 70
     2
  9
$LUPREC
 70
     4
  9
$SKETCHINC
 40
0.1
  9
$FILLETRAD
 40
0.5
  9
$AUNITS
 70
     0
  9
$AUPREC
 70
     0
  9
$MENU
  1
.
  9
$ELEVATION
 40
0.0
  9
$PELEVATION
 40
0.0
  9
$THICKNESS
 40
0.0
  9
$LIMCHECK
 70
     0
  9
$CHAMFERA
 40
0.5
  9
$CHAMFERB
 40
0.5
  9
$CHAMFERC
 40
1.0
  9
$CHAMFERD
 40
0.0
  9
$SKPOLY
 70
     0
  9
$TDCREATE
 40
2457917.596712963
  9
$TDUCREATE
 40
2457917.221712963
  9
$TDUPDATE
 40
2457917.596712963
  9
$TDUUPDATE
 40
2457917.221712963
  9
$TDINDWG
 40
0.0000000116
  9
$TDUSRTIMER
 40
0.0000000116
  9
$USRTIMER
 70
     1
  9
$ANGBASE
 50
0.0
  9
$ANGDIR
 70
     0
  9
$PDMODE
 70
     0
  9
$PDSIZE
 40
0.0
  9
$PLINEWID
 40
0.0
  9
$SPLFRAME
 70
     0
  9
$SPLINETYPE
 70
     6
  9
$SPLINESEGS
 70
     8
  9
$HANDSEED
  5
F5
  9
$SURFTAB1
 70
     6
  9
$SURFTAB2
 70
     6
  9
$SURFTYPE
 70
     6
  9
$SURFU
 70
     6
  9
$SURFV
 70
     6
  9
$UCSBASE
  2

  9
$UCSNAME
  2

  9
$UCSORG
 10
0.0
 20
0.0
 30
0.0
  9
$UCSXDIR
 10
1.0
 20
0.0
 30
0.0
  9
$UCSYDIR
 10
0.0
 20
1.0
 30
0.0
  9
$UCSORTHOREF
  2

  9
$UCSORTHOVIEW
 70
     0
  9
$UCSORGTOP
 10
0.0
 20
0.0
 30
0.0
  9
$UCSORGBOTTOM
 10
0.0
 20
0.0
 30
0.0
  9
$UCSORGLEFT
 10
0.0
 20
0.0
 30
0.0
  9
$UCSORGRIGHT
 10
0.0
 20
0.0
 30
0.0
  9
$UCSORGFRONT
 10
0.0
 20
0.0
 30
0.0
  9
$UCSORGBACK
 10
0.0
 20
0.0
 30
0.0
  9
$PUCSBASE
  2

  9
$PUCSNAME
  2

  9
$PUCSORG
 10
0.0
 20
0.0
 30
0.0
  9
$PUCSXDIR
 10
1.0
 20
0.0
 30
0.0
  9
$PUCSYDIR
 10
0.0
 20
1.0
 30
0.0
  9
$PUCSORTHOREF
  2

  9
$PUCSORTHOVIEW
 70
     0
  9
$PUCSORGTOP
 10
0.0
 20
0.0
 30
0.0
  9
$PUCSORGBOTTOM
 10
0.0
 20
0.0
 30
0.0
  9
$PUCSORGLEFT
 10
0.0
 20
0.0
 30
0.0
  9
$PUCSORGRIGHT
 10
0.0
 20
0.0
 30
0.0
  9
$PUCSORGFRONT
 10
0.0
 20
0.0
 30
0.0
  9
$PUCSORGBACK
 10
0.0
 20
0.0
 30
0.0
  9
$USERI1
 70
     0
  9
$USERI2
 70
     0
  9
$USERI3
 70
     0
  9
$USERI4
 70
     0
  9
$USERI5
 70
     0
  9
$USERR1
 40
0.0
  9
$USERR2
 40
0.0
  9
$USERR3
 40
0.0
  9
$USERR4
 40
0.0
  9
$USERR5
 40
0.0
  9
$WORLDVIEW
 70
     1
  9
$SHADEDGE
 70
     3
  9
$SHADEDIF
 70
    70
  9
$TILEMODE
 70
     1
  9
$MAXACTVP
 70
    64
  9
$PINSBASE
 10
0.0
 20
0.0
 30
0.0
  9
$PLIMCHECK
 70
     0
  9
$PEXTMIN
 10
1.000000000000000E+20
 20
1.000000000000000E+20
 30
1.000000000000000E+20
  9
$PEXTMAX
 10
-1.000000000000000E+20
 20
-1.000000000000000E+20
 30
-1.000000000000000E+20
  9
$PLIMMIN
 10
0.0
 20
0.0
  9
$PLIMMAX
 10
12.0
 20
9.0
  9
$UNITMODE
 70
     0
  9
$VISRETAIN
 70
     1
  9
$PLINEGEN
 70
     0
  9
$PSLTSCALE
 70
     1
  9
$TREEDEPTH
 70
  3020
  9
$CMLSTYLE
  2
Standard
  9
$CMLJUST
 70
     0
  9
$CMLSCALE
 40
1.0
  9
$PROXYGRAPHICS
 70
     1
  9
$MEASUREMENT
 70
     0
  9
$CELWEIGHT
370
    -1
  9
$ENDCAPS
280
     0
  9
$JOINSTYLE
280
     0
  9
$LWDISPLAY
290
     1
  9
$INSUNITS
 70
     1
  9
$HYPERLINKBASE
  1

  9
$STYLESHEET
  1

  9
$XEDIT
290
     1
  9
$CEPSNTYPE
380
     0
  9
$PSTYLEMODE
290
     1
  9
$FINGERPRINTGUID
  2
{F5A44CEB-98DA-2136-8B37-77A28C882B6B}
  9
$VERSIONGUID
  2
{FAEB1C32-E019-11D5-929B-00C0DF256EC4}
  9
$EXTNAMES
290
     1
  9
$PSVPSCALE
 40
0.0
  9
$OLESTARTUP
290
     0
  9
$SORTENTS
280
   127
  9
$INDEXCTL
280
     0
  9
$HIDETEXT
280
     1
  9
$XCLIPFRAME
280
     2
  9
$HALOGAP
280
     0
  9
$OBSCOLOR
 70
   257
  9
$OBSLTYPE
280
     0
  9
$INTERSECTIONDISPLAY
280
     0
  9
$INTERSECTIONCOLOR
 70
   257
  9
$DIMASSOC
280
     2
  9
$PROJECTNAME
  1

  9
$CAMERADISPLAY
290
     0
  9
$LENSLENGTH
 40
50.0
  9
$CAMERAHEIGHT
 40
0.0
  9
$STEPSPERSEC
 40
2.0
  9
$STEPSIZE
 40
6.0
  9
$3DDWFPREC
 40
2.0
  9
$PSOLWIDTH
 40
0.25
  9
$PSOLHEIGHT
 40
4.0
  9
$LOFTANG1
 40
1.570796326794897
  9
$LOFTANG2
 40
1.570796326794897
  9
$LOFTMAG1
 40
0.0
  9
$LOFTMAG2
 40
0.0
  9
$LOFTPARAM
 70
     7
  9
$LOFTNORMALS
280
     1
  9
$LATITUDE
 40
37.795
  9
$LONGITUDE
 40
-122.394
  9
$NORTHDIRECTION
 40
0.0
  9
$TIMEZONE
 70
 -8000
  9
$LIGHTGLYPHDISPLAY
280
     1
  9
$TILEMODELIGHTSYNCH
280
     1
  9
$CMATERIAL
347
3C
  9
$SOLIDHIST
280
     1
  9
$SHOWHIST
280
     1
  9
$DWFFRAME
280
     2
  9
$DGNFRAME
280
     2
  9
$REALWORLDSCALE
290
     1
  9
$INTERFERECOLOR
 62
   256
  9
$CSHADOW
280
     0
  9
$SHADOWPLANELOCATION
 40
0.0
  0
ENDSEC
  0
SECTION
  2
CLASSES
  0
CLASS
  1
ACDBDICTIONARYWDFLT
  2
AcDbDictionaryWithDefault
  3
ObjectDBX Classes
 90
        0
 91
        4
280
     0
281
     0
  0
CLASS
  1
VISUALSTYLE
  2
AcDbVisualStyle
  3
ObjectDBX Classes
 90
     4095
 91
        4
280
     0
281
     0
  0
CLASS
  1
MATERIAL
  2
AcDbMaterial
  3
ObjectDBX Classes
 90
     1153
 91
        4
280
     0
281
     0
  0
CLASS
  1
SUN
  2
AcDbSun
  3
SCENEOE
 90
     1024
 91
        4
280
     0
281
     0
  0
ENDSEC
  0
SECTION
  2
TABLES
  0
TABLE
  2
VPORT
  5
8
330
0
100
AcDbSymbolTable
 70
     1
  0
VPORT
  5
29
330
8
100
AcDbSymbolTableRecord
100
AcDbViewportTableRecord
  2
*Active
 70
     0
 10
0.0
 20
0.0
 11
1.0
 21
1.0
 12
0.0
 22
0.0
 13
0.0
 23
0.0
 14
0.5
 24
0.5
 15
0.5
 25
0.5
 16
0.0
 26
0.0
 36
1.0
 17
91.00082462281999
 27
-128.4993055234307
 37
0.0
 40
256.9986110468615
 41
0.7081814508812795
 42
50.0
 43
0.0
 44
0.0
 50
0.0
 51
0.0
 71
     0
 72
   100
 73
     1
 74
     3
 75
     0
 76
     0
 77
     0
 78
     0
281
     0
 65
     1
110
0.0
120
0.0
130
0.0
111
1.0
121
0.0
131
0.0
112
0.0
122
1.0
132
0.0
 79
     0
146
0.0
 60
     3
 61
     5
292
     1
282
     1
141
0.0
142
0.0
 63
   250
361
3F
  0
ENDTAB
  0
TABLE
  2
LTYPE
  5
5
330
0
100
AcDbSymbolTable
 70
     2
  0
LTYPE
  5
14
330
5
100
AcDbSymbolTableRecord
100
AcDbLinetypeTableRecord
  2
ByBlock
 70
     0
  3

 72
    65
 73
     0
 40
0.0
  0
LTYPE
  5
15
330
5
100
AcDbSymbolTableRecord
100
AcDbLinetypeTableRecord
  2
ByLayer
 70
     0
  3

 72
    65
 73
     0
 40
0.0
  0
LTYPE
  5
16
330
5
100
AcDbSymbolTableRecord
100
AcDbLinetypeTableRecord
  2
Continuous
 70
     0
  3
Solid line
 72
    65
 73
     0
 40
0.0
  0
LTYPE
  5
F1
330
5
100
AcDbSymbolTableRecord
100
AcDbLinetypeTableRecord
  2
AI-Linetype-1
 70
     0
  3
Adobe Illustrator Linetype No. 1
 72
    65
 73
     2
 40
1.411111110758333
 49
0.7055555553791667
 74
     0
 49
-0.7055555553791667
 74
     0
  0
ENDTAB
  0
TABLE
  2
LAYER
  5
2
330
0
100
AcDbSymbolTable
 70
     2
  0
LAYER
  5
10
330
2
100
AcDbSymbolTableRecord
100
AcDbLayerTableRecord
  2
0
 70
     0
 62
     7
  6
Continuous
370
    -3
390
F
347
3E
  0
LAYER
  5
40
330
2
100
AcDbSymbolTableRecord
100
AcDbLayerTableRecord
  2
_U+30EC_U+30A4_U+30E4_U+30FC 1
 70
     0
 62
     7
  6
Continuous
370
    -3
390
F
347
3E
  0
ENDTAB
  0
TABLE
  2
STYLE
  5
3
330
0
100
AcDbSymbolTable
 70
     1
  0
STYLE
  5
11
330
3
100
AcDbSymbolTableRecord
100
AcDbTextStyleTableRecord
  2
Standard
 70
     0
 40
0.0
 41
1.0
 50
0.0
 71
     0
 42
0.2
  3
txt
  4

  0
ENDTAB
  0
TABLE
  2
VIEW
  5
6
330
0
100
AcDbSymbolTable
 70
     0
  0
ENDTAB
  0
TABLE
  2
UCS
  5
7
330
0
100
AcDbSymbolTable
 70
     0
  0
ENDTAB
  0
TABLE
  2
APPID
  5
9
330
0
100
AcDbSymbolTable
 70
     1
  0
APPID
  5
12
330
9
100
AcDbSymbolTableRecord
100
AcDbRegAppTableRecord
  2
ACAD
 70
     0
  0
ENDTAB
  0
TABLE
  2
DIMSTYLE
  5
A
330
0
100
AcDbSymbolTable
 70
     1
100
AcDbDimStyleTable
  0
DIMSTYLE
105
27
330
A
100
AcDbSymbolTableRecord
100
AcDbDimStyleTableRecord
  2
Standard
 70
     0
178
     0
340
11
  0
ENDTAB
  0
TABLE
  2
BLOCK_RECORD
  5
1
330
0
100
AcDbSymbolTable
 70
     5
  0
BLOCK_RECORD
  5
1F
330
1
100
AcDbSymbolTableRecord
100
AcDbBlockTableRecord
  2
*Model_Space
340
22
 70
     0
280
     1
281
     0
  0
BLOCK_RECORD
  5
1B
330
1
100
AcDbSymbolTableRecord
100
AcDbBlockTableRecord
  2
*Paper_Space
340
1E
 70
     0
280
     1
281
     0
  0
BLOCK_RECORD
  5
23
330
1
100
AcDbSymbolTableRecord
100
AcDbBlockTableRecord
  2
*Paper_Space0
340
26
 70
     0
280
     1
281
     0
  0
BLOCK_RECORD
  5
6F
330
1
100
AcDbSymbolTableRecord
100
AcDbBlockTableRecord
  2
block 2
340
0
102
{BLKREFS
331
70
102
}
 70
     0
280
     1
281
     0
  0
BLOCK_RECORD
  5
8B
330
1
100
AcDbSymbolTableRecord
100
AcDbBlockTableRecord
  2
block 3
340
0
102
{BLKREFS
331
8C
102
}
 70
     0
280
     1
281
     0
  0
BLOCK_RECORD
  5
A0
330
1
100
AcDbSymbolTableRecord
100
AcDbBlockTableRecord
  2
block 4
340
0
102
{BLKREFS
331
A1
102
}
 70
     0
280
     1
281
     0
  0
BLOCK_RECORD
  5
A9
330
1
100
AcDbSymbolTableRecord
100
AcDbBlockTableRecord
  2
block 5
340
0
102
{BLKREFS
331
AA
102
}
 70
     0
280
     1
281
     0
  0
ENDTAB
  0
ENDSEC
  0
SECTION
  2
BLOCKS
  0
BLOCK
  5
20
330
1F
100
AcDbEntity
  8
0
100
AcDbBlockBegin
  2
*Model_Space
 70
     0
 10
0.0
 20
0.0
 30
0.0
  3
*Model_Space
  1

  0
ENDBLK
  5
21
330
1F
100
AcDbEntity
  8
0
100
AcDbBlockEnd
  0
BLOCK
  5
1C
330
1B
100
AcDbEntity
 67
     1
  8
0
100
AcDbBlockBegin
  2
*Paper_Space
 70
     0
 10
0.0
 20
0.0
 30
0.0
  3
*Paper_Space
  1

  0
ENDBLK
  5
1D
330
1B
100
AcDbEntity
 67
     1
  8
0
100
AcDbBlockEnd
  0
BLOCK
  5
24
330
23
100
AcDbEntity
  8
0
100
AcDbBlockBegin
  2
*Paper_Space0
 70
     0
 10
0.0
 20
0.0
 30
0.0
  3
*Paper_Space0
  1

  0
ENDBLK
  5
25
330
23
100
AcDbEntity
  8
0
100
AcDbBlockEnd
  0
BLOCK
  5
71
330
6F
100
AcDbEntity
  8
0
100
AcDbBlockBegin
  2
block 2
 70
     0
 10
0.0
 20
0.0
 30
0.0
  3
block 2
  1

  0
SPLINE
  5
73
330
6F
100
AcDbEntity
  8
_U+30EC_U+30A4_U+30E4_U+30FC 1
370
     0
100
AcDbSpline
210
0.0
220
0.0
230
1.0
 70
    11
 71
     3
 72
    26
 73
    22
 74
     0
 42
0.0000000001
 43
0.0000000001
 12
1.0
 22
0.0
 32
0.0
 13
1.0
 23
0.0
 33
0.0
 40
0.0
 40
0.0
 40
0.0
 40
0.0
 40
1.0
 40
1.0
 40
1.0
 40
2.0
 40
2.0
 40
2.0
 40
3.0
 40
3.0
 40
3.0
 40
4.0
 40
4.0
 40
4.0
 40
5.0
 40
5.0
 40
5.0
 40
6.0
 40
6.0
 40
6.0
 40
7.0
 40
7.0
 40
7.0
 40
7.0
 10
105.4195773390965
 20
-130.7927055879616
 30
0.0
 10
105.4195773390965
 20
-130.7927055879616
 30
0.0
 10
104.3154242360739
 20
-130.7927055879616
 30
0.0
 10
104.3154242360739
 20
-130.7927055879616
 30
0.0
 10
104.3154242360739
 20
-130.7927055879616
 30
0.0
 10
104.3154242360739
 20
-131.0783040036888
 30
0.0
 10
104.3154242360739
 20
-131.0783040036888
 30
0.0
 10
104.3154242360739
 20
-131.0783040036888
 30
0.0
 10
104.1672851302082
 20
-131.0783040036888
 30
0.0
 10
104.1672851302082
 20
-131.0783040036888
 30
0.0
 10
104.1524712196216
 20
-130.7909830402189
 30
0.0
 10
103.9895182031693
 20
-130.7506754230415
 30
0.0
 10
103.875141033059
 20
-130.7251817164507
 30
0.0
 10
103.875141033059
 20
-130.7251817164507
 30
0.0
 10
103.875141033059
 20
-130.598746712142
 30
0.0
 10
103.875141033059
 20
-130.598746712142
 30
0.0
 10
103.875141033059
 20
-130.598746712142
 30
0.0
 10
105.4195773390965
 20
-130.598746712142
 30
0.0
 10
105.4195773390965
 20
-130.598746712142
 30
0.0
 10
105.4195773390965
 20
-130.598746712142
 30
0.0
 10
105.4195773390965
 20
-130.7927055879616
 30
0.0
 10
105.4195773390965
 20
-130.7927055879616
 30
0.0
  0
HATCH
  5
74
330
6F
100
AcDbEntity
  8
_U+30EC_U+30A4_U+30E4_U+30FC 1
 62
   179
420
  2234388
100
AcDbHatch
 10
0.0
 20
0.0
 30
0.0
210
0.0
220
0.0
230
1.0
  2
SOLID
 70
     1
 71
     0
 91
        1
 92
        1
 93
        1
 72
     4
 94
        3
 73
     0
 74
     1
 95
       26
 96
       22
 40
0.0
 40
0.0
 40
0.0
 40
0.0
 40
1.0
 40
1.0
 40
1.0
 40
2.0
 40
2.0
 40
2.0
 40
3.0
 40
3.0
 40
3.0
 40
4.0
 40
4.0
 40
4.0
 40
5.0
 40
5.0
 40
5.0
 40
6.0
 40
6.0
 40
6.0
 40
7.0
 40
7.0
 40
7.0
 40
7.0
 10
105.4195773390965
 20
-130.7927055879616
 10
105.4195773390965
 20
-130.7927055879616
 10
104.3154242360739
 20
-130.7927055879616
 10
104.3154242360739
 20
-130.7927055879616
 10
104.3154242360739
 20
-130.7927055879616
 10
104.3154242360739
 20
-131.0783040036888
 10
104.3154242360739
 20
-131.0783040036888
 10
104.3154242360739
 20
-131.0783040036888
 10
104.1672851302082
 20
-131.0783040036888
 10
104.1672851302082
 20
-131.0783040036888
 10
104.1524712196216
 20
-130.7909830402189
 10
103.9895182031693
 20
-130.7506754230415
 10
103.875141033059
 20
-130.7251817164507
 10
103.875141033059
 20
-130.7251817164507
 10
103.875141033059
 20
-130.598746712142
 10
103.875141033059
 20
-130.598746712142
 10
103.875141033059
 20
-130.598746712142
 10
105.4195773390965
 20
-130.598746712142
 10
105.4195773390965
 20
-130.598746712142
 10
105.4195773390965
 20
-130.598746712142
 10
105.4195773390965
 20
-130.7927055879616
 10
105.4195773390965
 20
-130.7927055879616
 97
        0
 97
        0
 75
     2
 76
     1
 98
        0
  0
POLYLINE
  5
75
330
6F
100
AcDbEntity
  8
_U+30EC_U+30A4_U+30E4_U+30FC 1
370
     0
100
AcDb2dPolyline
 66
     1
 10
0.0
 20
0.0
 30
0.0
  0
VERTEX
  5
76
330
75
100
AcDbEntity
  8
_U+30EC_U+30A4_U+30E4_U+30FC 1
370
     0
100
AcDbVertex
100
AcDb2dVertex
 10
105.4195773390965
 20
-130.1140217773673
 30
0.0
  0
VERTEX
  5
77
330
75
100
AcDbEntity
  8
_U+30EC_U+30A4_U+30E4_U+30FC 1
370
     0
100
AcDbVertex
100
AcDb2dVertex
 10
105.1677408591247
 20
-130.1140217773673
 30
0.0
  0
VERTEX
  5
78
330
75
100
AcDbEntity
  8
_U+30EC_U+30A4_U+30E4_U+30FC 1
370
     0
100
AcDbVertex
100
AcDb2dVertex
 10
105.1677408591247
 20
-129.8962917426995
 30
0.0
  0
VERTEX
  5
79
330
75
100
AcDbEntity
  8
_U+30EC_U+30A4_U+30E4_U+30FC 1
370
     0
100
AcDbVertex
100
AcDb2dVertex
 10
105.4195773390965
 20
-129.8962917426995
 30
0.0
  0
VERTEX
  5
7A
330
75
100
AcDbEntity
  8
_U+30EC_U+30A4_U+30E4_U+30FC 1
370
     0
100
AcDbVertex
100
AcDb2dVertex
 10
105.4195773390965
 20
-130.1140217773673
 30
0.0
  0
SEQEND
  5
7B
330
75
100
AcDbEntity
  8
_U+30EC_U+30A4_U+30E4_U+30FC 1
370
     0
  0
HATCH
  5
7C
330
6F
100
AcDbEntity
  8
_U+30EC_U+30A4_U+30E4_U+30FC 1
 62
   179
420
  2234388
100
AcDbHatch
 10
0.0
 20
0.0
 30
0.0
210
0.0
220
0.0
230
1.0
  2
SOLID
 70
     1
 71
     0
 91
        1
 92
        1
 93
        4
 72
     1
 10
105.4195773390965
 20
-130.1140217773673
 11
105.1677408591247
 21
-130.1140217773673
 72
     1
 10
105.1677408591247
 20
-130.1140217773673
 11
105.1677408591247
 21
-129.8962917426995
 72
     1
 10
105.1677408591247
 20
-129.8962917426995
 11
105.4195773390965
 21
-129.8962917426995
 72
     1
 10
105.4195773390965
 20
-129.8962917426995
 11
105.4195773390965
 21
-130.1140217773673
 97
        0
 75
     2
 76
     1
 98
        0
  0
SPLINE
  5
7D
330
6F
100
AcDbEntity
  8
_U+30EC_U+30A4_U+30E4_U+30FC 1
370
     0
100
AcDbSpline
210
0.0
220
0.0
230
1.0
 70
    11
 71
     3
 72
    53
 73
    49
 74
     0
 42
0.0000000001
 43
0.0000000001
 12
1.0
 22
0.0
 32
0.0
 13
1.0
 23
0.0
 33
0.0
 40
0.0
 40
0.0
 40
0.0
 40
0.0
 40
1.0
 40
1.0
 40
1.0
 40
2.0
 40
2.0
 40
2.0
 40
3.0
 40
3.0
 40
3.0
 40
4.0
 40
4.0
 40
4.0
 40
5.0
 40
5.0
 40
5.0
 40
6.0
 40
6.0
 40
6.0
 40
7.0
 40
7.0
 40
7.0
 40
8.0
 40
8.0
 40
8.0
 40
9.0
 40
9.0
 40
9.0
 40
10.0
 40
10.0
 40
10.0
 40
11.0
 40
11.0
 40
11.0
 40
12.0
 40
12.0
 40
12.0
 40
13.0
 40
13.0
 40
13.0
 40
14.0
 40
14.0
 40
14.0
 40
15.0
 40
15.0
 40
15.0
 40
16.0
 40
16.0
 40
16.0
 40
16.0
 10
105.4702202427297
 20
-129.2761745553546
 30
0.0
 10
105.4702202427297
 20
-129.3436984268655
 30
0.0
 10
105.4533392748519
 20
-129.4318928712879
 30
0.0
 10
105.3899495179234
 20
-129.5193982966132
 30
0.0
 10
105.2800509719439
 20
-129.6696044597701
 30
0.0
 10
105.1487928339559
 20
-129.6878634658419
 30
0.0
 10
105.0409613452675
 20
-129.7043999241711
 30
0.0
 10
105.0409613452675
 20
-129.7043999241711
 30
0.0
 10
105.0409613452675
 20
-129.5121635960942
 30
0.0
 10
105.0409613452675
 20
-129.5121635960942
 30
0.0
 10
105.2397433547665
 20
-129.4646212783977
 30
0.0
 10
105.2693711759396
 20
-129.3547227324183
 30
0.0
 10
105.2693711759396
 20
-129.274452007612
 30
0.0
 10
105.2693711759396
 20
-129.1535291560797
 30
0.0
 10
105.1698079164159
 20
-129.0219265085431
 30
0.0
 10
104.9372639711615
 20
-129.0219265085431
 30
0.0
 10
104.6812933766075
 20
-129.0219265085431
 30
0.0
 10
104.6113579382569
 20
-129.1773003149279
 30
0.0
 10
104.6113579382569
 20
-129.281686708131
 30
0.0
 10
104.6113579382569
 20
-129.309247472013
 30
0.0
 10
104.6113579382569
 20
-129.4318928712879
 30
0.0
 10
104.7405490189538
 20
-129.5087185006089
 30
0.0
 10
104.7405490189538
 20
-129.5087185006089
 30
0.0
 10
104.7216009937849
 20
-129.6606472115085
 30
0.0
 10
104.7216009937849
 20
-129.6606472115085
 30
0.0
 10
104.7216009937849
 20
-129.6606472115085
 30
0.0
 10
103.875141033059
 20
-129.5562608183054
 30
0.0
 10
103.875141033059
 20
-129.5562608183054
 30
0.0
 10
103.875141033059
 20
-129.5562608183054
 30
0.0
 10
103.875141033059
 20
-128.882744650939
 30
0.0
 10
103.875141033059
 20
-128.882744650939
 30
0.0
 10
103.875141033059
 20
-128.882744650939
 30
0.0
 10
104.0697889279756
 20
-128.882744650939
 30
0.0
 10
104.0697889279756
 20
-128.882744650939
 30
0.0
 10
104.0697889279756
 20
-128.882744650939
 30
0.0
 10
104.0697889279756
 20
-129.4153564129587
 30
0.0
 10
104.0697889279756
 20
-129.4153564129587
 30
0.0
 10
104.0697889279756
 20
-129.4153564129587
 30
0.0
 10
104.4928466535643
 20
-129.4718559789168
 30
0.0
 10
104.4928466535643
 20
-129.4718559789168
 30
0.0
 10
104.4590847178088
 20
-129.4188015084439
 30
0.0
 10
104.4187771006314
 20
-129.3474880318992
 30
0.0
 10
104.4187771006314
 20
-129.2451686959873
 30
0.0
 10
104.4187771006314
 20
-129.0253716040284
 30
0.0
 10
104.6051567663834
 20
-128.820388422656
 30
0.0
 10
104.9183159459926
 20
-128.820388422656
 30
0.0
 10
105.2356092401842
 20
-128.820388422656
 30
0.0
 10
105.4702202427297
 20
-129.0143472984756
 30
0.0
 10
105.4702202427297
 20
-129.2761745553546
 30
0.0
  0
HATCH
  5
7E
330
6F
100
AcDbEntity
  8
_U+30EC_U+30A4_U+30E4_U+30FC 1
 62
   179
420
  2234388
100
AcDbHatch
 10
0.0
 20
0.0
 30
0.0
210
0.0
220
0.0
230
1.0
  2
SOLID
 70
     1
 71
     0
 91
        1
 92
        1
 93
        1
 72
     4
 94
        3
 73
     0
 74
     1
 95
       53
 96
       49
 40
0.0
 40
0.0
 40
0.0
 40
0.0
 40
1.0
 40
1.0
 40
1.0
 40
2.0
 40
2.0
 40
2.0
 40
3.0
 40
3.0
 40
3.0
 40
4.0
 40
4.0
 40
4.0
 40
5.0
 40
5.0
 40
5.0
 40
6.0
 40
6.0
 40
6.0
 40
7.0
 40
7.0
 40
7.0
 40
8.0
 40
8.0
 40
8.0
 40
9.0
 40
9.0
 40
9.0
 40
10.0
 40
10.0
 40
10.0
 40
11.0
 40
11.0
 40
11.0
 40
12.0
 40
12.0
 40
12.0
 40
13.0
 40
13.0
 40
13.0
 40
14.0
 40
14.0
 40
14.0
 40
15.0
 40
15.0
 40
15.0
 40
16.0
 40
16.0
 40
16.0
 40
16.0
 10
105.4702202427297
 20
-129.2761745553546
 10
105.4702202427297
 20
-129.3436984268655
 10
105.4533392748519
 20
-129.4318928712879
 10
105.3899495179234
 20
-129.5193982966132
 10
105.2800509719439
 20
-129.6696044597701
 10
105.1487928339559
 20
-129.6878634658419
 10
105.0409613452675
 20
-129.7043999241711
 10
105.0409613452675
 20
-129.7043999241711
 10
105.0409613452675
 20
-129.5121635960942
 10
105.0409613452675
 20
-129.5121635960942
 10
105.2397433547665
 20
-129.4646212783977
 10
105.2693711759396
 20
-129.3547227324183
 10
105.2693711759396
 20
-129.274452007612
 10
105.2693711759396
 20
-129.1535291560797
 10
105.1698079164159
 20
-129.0219265085431
 10
104.9372639711615
 20
-129.0219265085431
 10
104.6812933766075
 20
-129.0219265085431
 10
104.6113579382569
 20
-129.1773003149279
 10
104.6113579382569
 20
-129.281686708131
 10
104.6113579382569
 20
-129.309247472013
 10
104.6113579382569
 20
-129.4318928712879
 10
104.7405490189538
 20
-129.5087185006089
 10
104.7405490189538
 20
-129.5087185006089
 10
104.7216009937849
 20
-129.6606472115085
 10
104.7216009937849
 20
-129.6606472115085
 10
104.7216009937849
 20
-129.6606472115085
 10
103.875141033059
 20
-129.5562608183054
 10
103.875141033059
 20
-129.5562608183054
 10
103.875141033059
 20
-129.5562608183054
 10
103.875141033059
 20
-128.882744650939
 10
103.875141033059
 20
-128.882744650939
 10
103.875141033059
 20
-128.882744650939
 10
104.0697889279756
 20
-128.882744650939
 10
104.0697889279756
 20
-128.882744650939
 10
104.0697889279756
 20
-128.882744650939
 10
104.0697889279756
 20
-129.4153564129587
 10
104.0697889279756
 20
-129.4153564129587
 10
104.0697889279756
 20
-129.4153564129587
 10
104.4928466535643
 20
-129.4718559789168
 10
104.4928466535643
 20
-129.4718559789168
 10
104.4590847178088
 20
-129.4188015084439
 10
104.4187771006314
 20
-129.3474880318992
 10
104.4187771006314
 20
-129.2451686959873
 10
104.4187771006314
 20
-129.0253716040284
 10
104.6051567663834
 20
-128.820388422656
 10
104.9183159459926
 20
-128.820388422656
 10
105.2356092401842
 20
-128.820388422656
 10
105.4702202427297
 20
-129.0143472984756
 10
105.4702202427297
 20
-129.2761745553546
 97
        0
 97
        0
 75
     2
 76
     1
 98
        0
  0
ENDBLK
  5
72
330
6F
100
AcDbEntity
  8
0
100
AcDbBlockEnd
  0
BLOCK
  5
8D
330
8B
100
AcDbEntity
  8
0
100
AcDbBlockBegin
  2
block 3
 70
     0
 10
0.0
 20
0.0
 30
0.0
  3
block 3
  1

  0
SPLINE
  5
8F
330
8B
100
AcDbEntity
  8
_U+30EC_U+30A4_U+30E4_U+30FC 1
370
     0
100
AcDbSpline
210
0.0
220
0.0
230
1.0
 70
    11
 71
     3
 72
    44
 73
    40
 74
     0
 42
0.0000000001
 43
0.0000000001
 12
1.0
 22
0.0
 32
0.0
 13
1.0
 23
0.0
 33
0.0
 40
0.0
 40
0.0
 40
0.0
 40
0.0
 40
1.0
 40
1.0
 40
1.0
 40
2.0
 40
2.0
 40
2.0
 40
3.0
 40
3.0
 40
3.0
 40
4.0
 40
4.0
 40
4.0
 40
5.0
 40
5.0
 40
5.0
 40
6.0
 40
6.0
 40
6.0
 40
7.0
 40
7.0
 40
7.0
 40
8.0
 40
8.0
 40
8.0
 40
9.0
 40
9.0
 40
9.0
 40
10.0
 40
10.0
 40
10.0
 40
11.0
 40
11.0
 40
11.0
 40
12.0
 40
12.0
 40
12.0
 40
13.0
 40
13.0
 40
13.0
 40
13.0
 10
76.83768715526975
 20
-125.427658388782
 30
0.0
 10
76.9963338023655
 20
-125.6164496213737
 30
0.0
 10
77.07040335529838
 20
-125.69672034618
 30
0.0
 10
77.21423609180755
 20
-125.7387505111
 30
0.0
 10
77.21423609180755
 20
-125.7387505111
 30
0.0
 10
77.21423609180755
 20
-125.0655788532822
 30
0.0
 10
77.21423609180755
 20
-125.0655788532822
 30
0.0
 10
77.21423609180755
 20
-125.0655788532822
 30
0.0
 10
77.41939152795419
 20
-125.0655788532822
 30
0.0
 10
77.41939152795419
 20
-125.0655788532822
 30
0.0
 10
77.41939152795419
 20
-125.0655788532822
 30
0.0
 10
77.41939152795419
 20
-125.9547579980252
 30
0.0
 10
77.41939152795419
 20
-125.9547579980252
 30
0.0
 10
77.06179061658526
 20
-125.9275417436917
 30
0.0
 10
76.98358694907007
 20
-125.8706976681851
 30
0.0
 10
76.68524168004744
 20
-125.5375569347615
 30
0.0
 10
76.48645967054853
 20
-125.3160372950599
 30
0.0
 10
76.41876354426337
 20
-125.2595377291018
 30
0.0
 10
76.2813042344019
 20
-125.2595377291018
 30
0.0
 10
76.1627929497093
 20
-125.2595377291018
 30
0.0
 10
76.03153481172129
 20
-125.3215494478363
 30
0.0
 10
76.03153481172129
 20
-125.4917371648076
 30
0.0
 10
76.03153481172129
 20
-125.717046409543
 30
0.0
 10
76.26218395445876
 20
-125.724281110062
 30
0.0
 10
76.37862818186021
 20
-125.7280707150958
 30
0.0
 10
76.37862818186021
 20
-125.7280707150958
 30
0.0
 10
76.37862818186021
 20
-125.9220295909153
 30
0.0
 10
76.37862818186021
 20
-125.9220295909153
 30
0.0
 10
76.25167641322875
 20
-125.9144503808478
 30
0.0
 10
76.13953855518388
 20
-125.9054931325861
 30
0.0
 10
76.02102727049127
 20
-125.8359022037841
 30
0.0
 10
75.86031356610437
 20
-125.7408175683912
 30
0.0
 10
75.82637937557466
 20
-125.5795870996815
 30
0.0
 10
75.82637937557466
 20
-125.4789903115122
 30
0.0
 10
75.82637937557466
 20
-125.2392116657388
 30
0.0
 10
76.01051972926126
 20
-125.0600667005058
 30
0.0
 10
76.28337129169304
 20
-125.0600667005058
 30
0.0
 10
76.51178112236511
 20
-125.0600667005058
 30
0.0
 10
76.61134438188883
 20
-125.1606634886751
 30
0.0
 10
76.83768715526975
 20
-125.427658388782
 30
0.0
  0
HATCH
  5
90
330
8B
100
AcDbEntity
  8
_U+30EC_U+30A4_U+30E4_U+30FC 1
 62
   179
420
  2234388
100
AcDbHatch
 10
0.0
 20
0.0
 30
0.0
210
0.0
220
0.0
230
1.0
  2
SOLID
 70
     1
 71
     0
 91
        1
 92
        1
 93
        1
 72
     4
 94
        3
 73
     0
 74
     1
 95
       44
 96
       40
 40
0.0
 40
0.0
 40
0.0
 40
0.0
 40
1.0
 40
1.0
 40
1.0
 40
2.0
 40
2.0
 40
2.0
 40
3.0
 40
3.0
 40
3.0
 40
4.0
 40
4.0
 40
4.0
 40
5.0
 40
5.0
 40
5.0
 40
6.0
 40
6.0
 40
6.0
 40
7.0
 40
7.0
 40
7.0
 40
8.0
 40
8.0
 40
8.0
 40
9.0
 40
9.0
 40
9.0
 40
10.0
 40
10.0
 40
10.0
 40
11.0
 40
11.0
 40
11.0
 40
12.0
 40
12.0
 40
12.0
 40
13.0
 40
13.0
 40
13.0
 40
13.0
 10
76.83768715526975
 20
-125.427658388782
 10
76.9963338023655
 20
-125.6164496213737
 10
77.07040335529838
 20
-125.69672034618
 10
77.21423609180755
 20
-125.7387505111
 10
77.21423609180755
 20
-125.7387505111
 10
77.21423609180755
 20
-125.0655788532822
 10
77.21423609180755
 20
-125.0655788532822
 10
77.21423609180755
 20
-125.0655788532822
 10
77.41939152795419
 20
-125.0655788532822
 10
77.41939152795419
 20
-125.0655788532822
 10
77.41939152795419
 20
-125.0655788532822
 10
77.41939152795419
 20
-125.9547579980252
 10
77.41939152795419
 20
-125.9547579980252
 10
77.06179061658526
 20
-125.9275417436917
 10
76.98358694907007
 20
-125.8706976681851
 10
76.68524168004744
 20
-125.5375569347615
 10
76.48645967054853
 20
-125.3160372950599
 10
76.41876354426337
 20
-125.2595377291018
 10
76.2813042344019
 20
-125.2595377291018
 10
76.1627929497093
 20
-125.2595377291018
 10
76.03153481172129
 20
-125.3215494478363
 10
76.03153481172129
 20
-125.4917371648076
 10
76.03153481172129
 20
-125.717046409543
 10
76.26218395445876
 20
-125.724281110062
 10
76.37862818186021
 20
-125.7280707150958
 10
76.37862818186021
 20
-125.7280707150958
 10
76.37862818186021
 20
-125.9220295909153
 10
76.37862818186021
 20
-125.9220295909153
 10
76.25167641322875
 20
-125.9144503808478
 10
76.13953855518388
 20
-125.9054931325861
 10
76.02102727049127
 20
-125.8359022037841
 10
75.86031356610437
 20
-125.7408175683912
 10
75.82637937557466
 20
-125.5795870996815
 10
75.82637937557466
 20
-125.4789903115122
 10
75.82637937557466
 20
-125.2392116657388
 10
76.01051972926126
 20
-125.0600667005058
 10
76.28337129169304
 20
-125.0600667005058
 10
76.51178112236511
 20
-125.0600667005058
 10
76.61134438188883
 20
-125.1606634886751
 10
76.83768715526975
 20
-125.427658388782
 97
        0
 97
        0
 75
     2
 76
     1
 98
        0
  0
SPLINE
  5
91
330
8B
100
AcDbEntity
  8
_U+30EC_U+30A4_U+30E4_U+30FC 1
370
     0
100
AcDbSpline
210
0.0
220
0.0
230
1.0
 70
    11
 71
     3
 72
    29
 73
    25
 74
     0
 42
0.0000000001
 43
0.0000000001
 12
1.0
 22
0.0
 32
0.0
 13
1.0
 23
0.0
 33
0.0
 40
0.0
 40
0.0
 40
0.0
 40
0.0
 40
1.0
 40
1.0
 40
1.0
 40
2.0
 40
2.0
 40
2.0
 40
3.0
 40
3.0
 40
3.0
 40
4.0
 40
4.0
 40
4.0
 40
5.0
 40
5.0
 40
5.0
 40
6.0
 40
6.0
 40
6.0
 40
7.0
 40
7.0
 40
7.0
 40
8.0
 40
8.0
 40
8.0
 40
8.0
 10
77.24162460091529
 20
-124.1467718873661
 30
0.0
 10
77.45108640641848
 20
-124.2401339750164
 30
0.0
 10
77.47020668636162
 20
-124.3903401381733
 30
0.0
 10
77.47020668636162
 20
-124.4909369263426
 30
0.0
 10
77.47020668636162
 20
-124.6301187839466
 30
0.0
 10
77.42369789731075
 20
-124.7527641832215
 30
0.0
 10
77.24162460091529
 20
-124.835101965319
 30
0.0
 10
77.04714896077294
 20
-124.9246744479355
 30
0.0
 10
76.81012639138775
 20
-124.9412109062647
 30
0.0
 10
76.64717337493543
 20
-124.9412109062647
 30
0.0
 10
76.50334063842625
 20
-124.9412109062647
 30
0.0
 10
76.25167641322875
 20
-124.9263969956781
 30
0.0
 10
76.05272214895557
 20
-124.835101965319
 30
0.0
 10
75.8496337701001
 20
-124.7417398776687
 30
0.0
 10
75.82637937557466
 20
-124.6025580200646
 30
0.0
 10
75.82637937557466
 20
-124.4909369263426
 30
0.0
 10
75.82637937557466
 20
-124.3538221260296
 30
0.0
 10
75.87082110733438
 20
-124.2291096694636
 30
0.0
 10
76.05272214895557
 20
-124.1467718873661
 30
0.0
 10
76.24530298658104
 20
-124.0609890097834
 30
0.0
 10
76.4737128172531
 20
-124.0406629464204
 30
0.0
 10
76.64717337493543
 20
-124.0406629464204
 30
0.0
 10
76.81856687532661
 20
-124.0406629464204
 30
0.0
 10
77.04921601806409
 20
-124.0589219524922
 30
0.0
 10
77.24162460091529
 20
-124.1467718873661
 30
0.0
  0
SPLINE
  5
92
330
8B
100
AcDbEntity
  8
_U+30EC_U+30A4_U+30E4_U+30FC 1
370
     0
100
AcDbSpline
210
0.0
220
0.0
230
1.0
 70
    11
 71
     3
 72
    17
 73
    13
 74
     0
 42
0.0000000001
 43
0.0000000001
 12
1.0
 22
0.0
 32
0.0
 13
1.0
 23
0.0
 33
0.0
 40
0.0
 40
0.0
 40
0.0
 40
0.0
 40
1.0
 40
1.0
 40
1.0
 40
2.0
 40
2.0
 40
2.0
 40
3.0
 40
3.0
 40
3.0
 40
4.0
 40
4.0
 40
4.0
 40
4.0
 10
76.01896021320013
 20
-124.4909369263426
 30
0.0
 10
76.01896021320013
 20
-124.7069444132677
 30
0.0
 10
76.30231931686193
 20
-124.7472520304451
 30
0.0
 10
76.64717337493543
 20
-124.7472520304451
 30
0.0
 10
76.96670598119235
 20
-124.7472520304451
 30
0.0
 10
77.27555879144501
 20
-124.7162461710779
 30
0.0
 10
77.27555879144501
 20
-124.4909369263426
 30
0.0
 10
77.27555879144501
 20
-124.2769964967085
 30
0.0
 10
76.99409449030009
 20
-124.23462182224
 30
0.0
 10
76.64717337493543
 20
-124.23462182224
 30
0.0
 10
76.32781302345278
 20
-124.23462182224
 30
0.0
 10
76.01896021320013
 20
-124.2676947388984
 30
0.0
 10
76.01896021320013
 20
-124.4909369263426
 30
0.0
  0
HATCH
  5
93
330
8B
100
AcDbEntity
  8
_U+30EC_U+30A4_U+30E4_U+30FC 1
 62
   179
420
  2234388
100
AcDbHatch
 10
0.0
 20
0.0
 30
0.0
210
0.0
220
0.0
230
1.0
  2
SOLID
 70
     1
 71
     0
 91
        2
 92
        1
 93
        1
 72
     4
 94
        3
 73
     0
 74
     1
 95
       29
 96
       25
 40
0.0
 40
0.0
 40
0.0
 40
0.0
 40
1.0
 40
1.0
 40
1.0
 40
2.0
 40
2.0
 40
2.0
 40
3.0
 40
3.0
 40
3.0
 40
4.0
 40
4.0
 40
4.0
 40
5.0
 40
5.0
 40
5.0
 40
6.0
 40
6.0
 40
6.0
 40
7.0
 40
7.0
 40
7.0
 40
8.0
 40
8.0
 40
8.0
 40
8.0
 10
77.24162460091529
 20
-124.1467718873661
 10
77.45108640641848
 20
-124.2401339750164
 10
77.47020668636162
 20
-124.3903401381733
 10
77.47020668636162
 20
-124.4909369263426
 10
77.47020668636162
 20
-124.6301187839466
 10
77.42369789731075
 20
-124.7527641832215
 10
77.24162460091529
 20
-124.835101965319
 10
77.04714896077294
 20
-124.9246744479355
 10
76.81012639138775
 20
-124.9412109062647
 10
76.64717337493543
 20
-124.9412109062647
 10
76.50334063842625
 20
-124.9412109062647
 10
76.25167641322875
 20
-124.9263969956781
 10
76.05272214895557
 20
-124.835101965319
 10
75.8496337701001
 20
-124.7417398776687
 10
75.82637937557466
 20
-124.6025580200646
 10
75.82637937557466
 20
-124.4909369263426
 10
75.82637937557466
 20
-124.3538221260296
 10
75.87082110733438
 20
-124.2291096694636
 10
76.05272214895557
 20
-124.1467718873661
 10
76.24530298658104
 20
-124.0609890097834
 10
76.4737128172531
 20
-124.0406629464204
 10
76.64717337493543
 20
-124.0406629464204
 10
76.81856687532661
 20
-124.0406629464204
 10
77.04921601806409
 20
-124.0589219524922
 10
77.24162460091529
 20
-124.1467718873661
 97
        0
 97
        0
 92
        1
 93
        1
 72
     4
 94
        3
 73
     0
 74
     1
 95
       17
 96
       13
 40
0.0
 40
0.0
 40
0.0
 40
0.0
 40
1.0
 40
1.0
 40
1.0
 40
2.0
 40
2.0
 40
2.0
 40
3.0
 40
3.0
 40
3.0
 40
4.0
 40
4.0
 40
4.0
 40
4.0
 10
76.01896021320013
 20
-124.4909369263426
 10
76.01896021320013
 20
-124.7069444132677
 10
76.30231931686193
 20
-124.7472520304451
 10
76.64717337493543
 20
-124.7472520304451
 10
76.96670598119235
 20
-124.7472520304451
 10
77.27555879144501
 20
-124.7162461710779
 10
77.27555879144501
 20
-124.4909369263426
 10
77.27555879144501
 20
-124.2769964967085
 10
76.99409449030009
 20
-124.23462182224
 10
76.64717337493543
 20
-124.23462182224
 10
76.32781302345278
 20
-124.23462182224
 10
76.01896021320013
 20
-124.2676947388984
 10
76.01896021320013
 20
-124.4909369263426
 97
        0
 97
        0
 75
     2
 76
     1
 98
        0
  0
ENDBLK
  5
8E
330
8B
100
AcDbEntity
  8
0
100
AcDbBlockEnd
  0
BLOCK
  5
A2
330
A0
100
AcDbEntity
  8
0
100
AcDbBlockBegin
  2
block 4
 70
     0
 10
0.0
 20
0.0
 30
0.0
  3
block 4
  1

  0
SPLINE
  5
A4
330
A0
100
AcDbEntity
  8
_U+30EC_U+30A4_U+30E4_U+30FC 1
370
     0
100
AcDbSpline
210
0.0
220
0.0
230
1.0
 70
    11
 71
     3
 72
    44
 73
    40
 74
     0
 42
0.0000000001
 43
0.0000000001
 12
1.0
 22
0.0
 32
0.0
 13
1.0
 23
0.0
 33
0.0
 40
0.0
 40
0.0
 40
0.0
 40
0.0
 40
1.0
 40
1.0
 40
1.0
 40
2.0
 40
2.0
 40
2.0
 40
3.0
 40
3.0
 40
3.0
 40
4.0
 40
4.0
 40
4.0
 40
5.0
 40
5.0
 40
5.0
 40
6.0
 40
6.0
 40
6.0
 40
7.0
 40
7.0
 40
7.0
 40
8.0
 40
8.0
 40
8.0
 40
9.0
 40
9.0
 40
9.0
 40
10.0
 40
10.0
 40
10.0
 40
11.0
 40
11.0
 40
11.0
 40
12.0
 40
12.0
 40
12.0
 40
13.0
 40
13.0
 40
13.0
 40
13.0
 10
91.35256345372436
 20
-137.5864338848742
 30
0.0
 10
91.16377222113267
 20
-137.7452527867443
 30
0.0
 10
91.08350149632635
 20
-137.8193223396771
 30
0.0
 10
91.0414713314063
 20
-137.962982821412
 30
0.0
 10
91.0414713314063
 20
-137.962982821412
 30
0.0
 10
91.71464298922412
 20
-137.962982821412
 30
0.0
 10
91.71464298922412
 20
-137.962982821412
 30
0.0
 10
91.71464298922412
 20
-137.962982821412
 30
0.0
 10
91.71464298922412
 20
-138.1683105123329
 30
0.0
 10
91.71464298922412
 20
-138.1683105123329
 30
0.0
 10
91.71464298922412
 20
-138.1683105123329
 30
0.0
 10
90.82546384448113
 20
-138.1683105123329
 30
0.0
 10
90.82546384448113
 20
-138.1683105123329
 30
0.0
 10
90.85268009881462
 20
-137.810709600964
 30
0.0
 10
90.90952417432123
 20
-137.7325059334488
 30
0.0
 10
91.2426649077449
 20
-137.4341606644262
 30
0.0
 10
91.46418454744646
 20
-137.2353786549273
 30
0.0
 10
91.52068411340456
 20
-137.1675102738679
 30
0.0
 10
91.52068411340456
 20
-137.0300509640064
 30
0.0
 10
91.52068411340456
 20
-136.9115396793138
 30
0.0
 10
91.45867239467006
 20
-136.7806260508743
 30
0.0
 10
91.28848467769872
 20
-136.7806260508743
 30
0.0
 10
91.06317543296338
 20
-136.7806260508743
 30
0.0
 10
91.05594073244436
 20
-137.0111029388375
 30
0.0
 10
91.05215112741058
 20
-137.1275471662389
 30
0.0
 10
91.05215112741058
 20
-137.1275471662389
 30
0.0
 10
90.858192251591
 20
-137.1275471662389
 30
0.0
 10
90.858192251591
 20
-137.1275471662389
 30
0.0
 10
90.86577146165857
 20
-137.0004231428332
 30
0.0
 10
90.8747287099202
 20
-136.8884575395626
 30
0.0
 10
90.94431963872226
 20
-136.76994625487
 30
0.0
 10
91.03940427411516
 20
-136.6090602957088
 30
0.0
 10
91.20063474282485
 20
-136.5752983599534
 30
0.0
 10
91.30123153099414
 20
-136.5752983599534
 30
0.0
 10
91.54101017676753
 20
-136.5752983599534
 30
0.0
 10
91.72015514200052
 20
-136.7592664588657
 30
0.0
 10
91.72015514200052
 20
-137.0321180212975
 30
0.0
 10
91.72015514200052
 20
-137.2608723615181
 30
0.0
 10
91.61955835383122
 20
-137.3600911114933
 30
0.0
 10
91.35256345372436
 20
-137.5864338848742
 30
0.0
  0
HATCH
  5
A5
330
A0
100
AcDbEntity
  8
_U+30EC_U+30A4_U+30E4_U+30FC 1
 62
   179
420
  2234388
100
AcDbHatch
 10
0.0
 20
0.0
 30
0.0
210
0.0
220
0.0
230
1.0
  2
SOLID
 70
     1
 71
     0
 91
        1
 92
        1
 93
        1
 72
     4
 94
        3
 73
     0
 74
     1
 95
       44
 96
       40
 40
0.0
 40
0.0
 40
0.0
 40
0.0
 40
1.0
 40
1.0
 40
1.0
 40
2.0
 40
2.0
 40
2.0
 40
3.0
 40
3.0
 40
3.0
 40
4.0
 40
4.0
 40
4.0
 40
5.0
 40
5.0
 40
5.0
 40
6.0
 40
6.0
 40
6.0
 40
7.0
 40
7.0
 40
7.0
 40
8.0
 40
8.0
 40
8.0
 40
9.0
 40
9.0
 40
9.0
 40
10.0
 40
10.0
 40
10.0
 40
11.0
 40
11.0
 40
11.0
 40
12.0
 40
12.0
 40
12.0
 40
13.0
 40
13.0
 40
13.0
 40
13.0
 10
91.35256345372436
 20
-137.5864338848742
 10
91.16377222113267
 20
-137.7452527867443
 10
91.08350149632635
 20
-137.8193223396771
 10
91.0414713314063
 20
-137.962982821412
 10
91.0414713314063
 20
-137.962982821412
 10
91.71464298922412
 20
-137.962982821412
 10
91.71464298922412
 20
-137.962982821412
 10
91.71464298922412
 20
-137.962982821412
 10
91.71464298922412
 20
-138.1683105123329
 10
91.71464298922412
 20
-138.1683105123329
 10
91.71464298922412
 20
-138.1683105123329
 10
90.82546384448113
 20
-138.1683105123329
 10
90.82546384448113
 20
-138.1683105123329
 10
90.85268009881462
 20
-137.810709600964
 10
90.90952417432123
 20
-137.7325059334488
 10
91.2426649077449
 20
-137.4341606644262
 10
91.46418454744646
 20
-137.2353786549273
 10
91.52068411340456
 20
-137.1675102738679
 10
91.52068411340456
 20
-137.0300509640064
 10
91.52068411340456
 20
-136.9115396793138
 10
91.45867239467006
 20
-136.7806260508743
 10
91.28848467769872
 20
-136.7806260508743
 10
91.06317543296338
 20
-136.7806260508743
 10
91.05594073244436
 20
-137.0111029388375
 10
91.05215112741058
 20
-137.1275471662389
 10
91.05215112741058
 20
-137.1275471662389
 10
90.858192251591
 20
-137.1275471662389
 10
90.858192251591
 20
-137.1275471662389
 10
90.86577146165857
 20
-137.0004231428332
 10
90.8747287099202
 20
-136.8884575395626
 10
90.94431963872226
 20
-136.76994625487
 10
91.03940427411516
 20
-136.6090602957088
 10
91.20063474282485
 20
-136.5752983599534
 10
91.30123153099414
 20
-136.5752983599534
 10
91.54101017676753
 20
-136.5752983599534
 10
91.72015514200052
 20
-136.7592664588657
 10
91.72015514200052
 20
-137.0321180212975
 10
91.72015514200052
 20
-137.2608723615181
 10
91.61955835383122
 20
-137.3600911114933
 10
91.35256345372436
 20
-137.5864338848742
 97
        0
 97
        0
 75
     2
 76
     1
 98
        0
  0
SPLINE
  5
A6
330
A0
100
AcDbEntity
  8
_U+30EC_U+30A4_U+30E4_U+30FC 1
370
     0
100
AcDbSpline
210
0.0
220
0.0
230
1.0
 70
    11
 71
     3
 72
    29
 73
    25
 74
     0
 42
0.0000000001
 43
0.0000000001
 12
1.0
 22
0.0
 32
0.0
 13
1.0
 23
0.0
 33
0.0
 40
0.0
 40
0.0
 40
0.0
 40
0.0
 40
1.0
 40
1.0
 40
1.0
 40
2.0
 40
2.0
 40
2.0
 40
3.0
 40
3.0
 40
3.0
 40
4.0
 40
4.0
 40
4.0
 40
5.0
 40
5.0
 40
5.0
 40
6.0
 40
6.0
 40
6.0
 40
7.0
 40
7.0
 40
7.0
 40
8.0
 40
8.0
 40
8.0
 40
8.0
 10
92.63344995514025
 20
-137.990543585294
 30
0.0
 10
92.54008786748999
 20
-138.2000053907972
 30
0.0
 10
92.38988170433309
 20
-138.2189534159661
 30
0.0
 10
92.2892849161638
 20
-138.2189534159661
 30
0.0
 10
92.1501030585597
 20
-138.2189534159661
 30
0.0
 10
92.0274576592848
 20
-138.1724446269152
 30
0.0
 10
91.94511987718734
 20
-137.990543585294
 30
0.0
 10
91.85554739457083
 20
-137.7958956903774
 30
0.0
 10
91.83901093624164
 20
-137.5588731209922
 30
0.0
 10
91.83901093624164
 20
-137.3962646140884
 30
0.0
 10
91.83901093624164
 20
-137.252259622805
 30
0.0
 10
91.85382484682822
 20
-137.0004231428332
 30
0.0
 10
91.94511987718734
 20
-136.8016411333343
 30
0.0
 10
92.0384819648376
 20
-136.5987250092531
 30
0.0
 10
92.1776638224417
 20
-136.5752983599534
 30
0.0
 10
92.2892849161638
 20
-136.5752983599534
 30
0.0
 10
92.42639971647674
 20
-136.5752983599534
 30
0.0
 10
92.55111217304278
 20
-136.6197400917131
 30
0.0
 10
92.63344995514025
 20
-136.8016411333343
 30
0.0
 10
92.71923283272298
 20
-136.9942219709598
 30
0.0
 10
92.73955889608595
 20
-137.2226318016318
 30
0.0
 10
92.73955889608595
 20
-137.3962646140884
 30
0.0
 10
92.73955889608595
 20
-137.5674858597054
 30
0.0
 10
92.72129989001412
 20
-137.7979627476686
 30
0.0
 10
92.63344995514025
 20
-137.990543585294
 30
0.0
  0
SPLINE
  5
A7
330
A0
100
AcDbEntity
  8
_U+30EC_U+30A4_U+30E4_U+30FC 1
370
     0
100
AcDbSpline
210
0.0
220
0.0
230
1.0
 70
    11
 71
     3
 72
    17
 73
    13
 74
     0
 42
0.0000000001
 43
0.0000000001
 12
1.0
 22
0.0
 32
0.0
 13
1.0
 23
0.0
 33
0.0
 40
0.0
 40
0.0
 40
0.0
 40
0.0
 40
1.0
 40
1.0
 40
1.0
 40
2.0
 40
2.0
 40
2.0
 40
3.0
 40
3.0
 40
3.0
 40
4.0
 40
4.0
 40
4.0
 40
4.0
 10
92.2892849161638
 20
-136.7678791975789
 30
0.0
 10
92.07327742923863
 20
-136.7678791975789
 30
0.0
 10
92.03296981206121
 20
-137.0514105560149
 30
0.0
 10
92.03296981206121
 20
-137.3962646140884
 30
0.0
 10
92.03296981206121
 20
-137.7156249655711
 30
0.0
 10
92.06397567142845
 20
-138.0243055210495
 30
0.0
 10
92.2892849161638
 20
-138.0243055210495
 30
0.0
 10
92.50322534579782
 20
-138.0243055210495
 30
0.0
 10
92.54560002026638
 20
-137.7431857294531
 30
0.0
 10
92.54560002026638
 20
-137.3962646140884
 30
0.0
 10
92.54560002026638
 20
-137.0765597530573
 30
0.0
 10
92.51252710360798
 20
-136.7678791975789
 30
0.0
 10
92.2892849161638
 20
-136.7678791975789
 30
0.0
  0
HATCH
  5
A8
330
A0
100
AcDbEntity
  8
_U+30EC_U+30A4_U+30E4_U+30FC 1
 62
   179
420
  2234388
100
AcDbHatch
 10
0.0
 20
0.0
 30
0.0
210
0.0
220
0.0
230
1.0
  2
SOLID
 70
     1
 71
     0
 91
        2
 92
        1
 93
        1
 72
     4
 94
        3
 73
     0
 74
     1
 95
       29
 96
       25
 40
0.0
 40
0.0
 40
0.0
 40
0.0
 40
1.0
 40
1.0
 40
1.0
 40
2.0
 40
2.0
 40
2.0
 40
3.0
 40
3.0
 40
3.0
 40
4.0
 40
4.0
 40
4.0
 40
5.0
 40
5.0
 40
5.0
 40
6.0
 40
6.0
 40
6.0
 40
7.0
 40
7.0
 40
7.0
 40
8.0
 40
8.0
 40
8.0
 40
8.0
 10
92.63344995514025
 20
-137.990543585294
 10
92.54008786748999
 20
-138.2000053907972
 10
92.38988170433309
 20
-138.2189534159661
 10
92.2892849161638
 20
-138.2189534159661
 10
92.1501030585597
 20
-138.2189534159661
 10
92.0274576592848
 20
-138.1724446269152
 10
91.94511987718734
 20
-137.990543585294
 10
91.85554739457083
 20
-137.7958956903774
 10
91.83901093624164
 20
-137.5588731209922
 10
91.83901093624164
 20
-137.3962646140884
 10
91.83901093624164
 20
-137.252259622805
 10
91.85382484682822
 20
-137.0004231428332
 10
91.94511987718734
 20
-136.8016411333343
 10
92.0384819648376
 20
-136.5987250092531
 10
92.1776638224417
 20
-136.5752983599534
 10
92.2892849161638
 20
-136.5752983599534
 10
92.42639971647674
 20
-136.5752983599534
 10
92.55111217304278
 20
-136.6197400917131
 10
92.63344995514025
 20
-136.8016411333343
 10
92.71923283272298
 20
-136.9942219709598
 10
92.73955889608595
 20
-137.2226318016318
 10
92.73955889608595
 20
-137.3962646140884
 10
92.73955889608595
 20
-137.5674858597054
 10
92.72129989001412
 20
-137.7979627476686
 10
92.63344995514025
 20
-137.990543585294
 97
        0
 97
        0
 92
        1
 93
        1
 72
     4
 94
        3
 73
     0
 74
     1
 95
       17
 96
       13
 40
0.0
 40
0.0
 40
0.0
 40
0.0
 40
1.0
 40
1.0
 40
1.0
 40
2.0
 40
2.0
 40
2.0
 40
3.0
 40
3.0
 40
3.0
 40
4.0
 40
4.0
 40
4.0
 40
4.0
 10
92.2892849161638
 20
-136.7678791975789
 10
92.07327742923863
 20
-136.7678791975789
 10
92.03296981206121
 20
-137.0514105560149
 10
92.03296981206121
 20
-137.3962646140884
 10
92.03296981206121
 20
-137.7156249655711
 10
92.06397567142845
 20
-138.0243055210495
 10
92.2892849161638
 20
-138.0243055210495
 10
92.50322534579782
 20
-138.0243055210495
 10
92.54560002026638
 20
-137.7431857294531
 10
92.54560002026638
 20
-137.3962646140884
 10
92.54560002026638
 20
-137.0765597530573
 10
92.51252710360798
 20
-136.7678791975789
 10
92.2892849161638
 20
-136.7678791975789
 97
        0
 97
        0
 75
     2
 76
     1
 98
        0
  0
ENDBLK
  5
A3
330
A0
100
AcDbEntity
  8
0
100
AcDbBlockEnd
  0
BLOCK
  5
AB
330
A9
100
AcDbEntity
  8
0
100
AcDbBlockBegin
  2
block 5
 70
     0
 10
0.0
 20
0.0
 30
0.0
  3
block 5
  1

  0
SPLINE
  5
AD
330
A9
100
AcDbEntity
  8
_U+30EC_U+30A4_U+30E4_U+30FC 1
370
     0
100
AcDbSpline
210
0.0
220
0.0
230
1.0
 70
    11
 71
     3
 72
    17
 73
    13
 74
     0
 42
0.0000000001
 43
0.0000000001
 12
1.0
 22
0.0
 32
0.0
 13
1.0
 23
0.0
 33
0.0
 40
0.0
 40
0.0
 40
0.0
 40
0.0
 40
1.0
 40
1.0
 40
1.0
 40
2.0
 40
2.0
 40
2.0
 40
3.0
 40
3.0
 40
3.0
 40
4.0
 40
4.0
 40
4.0
 40
4.0
 10
75.6029649333562
 20
-140.9605604031279
 30
0.0
 10
75.51046411957725
 20
-140.8547959717307
 30
0.0
 10
75.44001191690388
 20
-140.816899921393
 30
0.0
 10
75.35853540867772
 20
-140.7848605333802
 30
0.0
 10
75.35853540867772
 20
-140.7848605333802
 30
0.0
 10
75.45482582749047
 20
-140.6198404596367
 30
0.0
 10
75.45482582749047
 20
-140.6198404596367
 30
0.0
 10
75.5400919407504
 20
-140.6622151341053
 30
0.0
 10
75.6456841173733
 20
-140.740763311169
 30
0.0
 10
75.69184839687566
 20
-140.7955403293845
 30
0.0
 10
75.69184839687566
 20
-140.7955403293845
 30
0.0
 10
75.6029649333562
 20
-140.9605604031279
 30
0.0
 10
75.6029649333562
 20
-140.9605604031279
 30
0.0
  0
SPLINE
  5
AE
330
A9
100
AcDbEntity
  8
_U+30EC_U+30A4_U+30E4_U+30FC 1
370
     0
100
AcDbSpline
210
0.0
220
0.0
230
1.0
 70
    11
 71
     3
 72
   182
 73
   178
 74
     0
 42
0.0000000001
 43
0.0000000001
 12
1.0
 22
0.0
 32
0.0
 13
1.0
 23
0.0
 33
0.0
 40
0.0
 40
0.0
 40
0.0
 40
0.0
 40
1.0
 40
1.0
 40
1.0
 40
2.0
 40
2.0
 40
2.0
 40
3.0
 40
3.0
 40
3.0
 40
4.0
 40
4.0
 40
4.0
 40
5.0
 40
5.0
 40
5.0
 40
6.0
 40
6.0
 40
6.0
 40
7.0
 40
7.0
 40
7.0
 40
8.0
 40
8.0
 40
8.0
 40
9.0
 40
9.0
 40
9.0
 40
10.0
 40
10.0
 40
10.0
 40
11.0
 40
11.0
 40
11.0
 40
12.0
 40
12.0
 40
12.0
 40
13.0
 40
13.0
 40
13.0
 40
14.0
 40
14.0
 40
14.0
 40
15.0
 40
15.0
 40
15.0
 40
16.0
 40
16.0
 40
16.0
 40
17.0
 40
17.0
 40
17.0
 40
18.0
 40
18.0
 40
18.0
 40
19.0
 40
19.0
 40
19.0
 40
20.0
 40
20.0
 40
20.0
 40
21.0
 40
21.0
 40
21.0
 40
22.0
 40
22.0
 40
22.0
 40
23.0
 40
23.0
 40
23.0
 40
24.0
 40
24.0
 40
24.0
 40
25.0
 40
25.0
 40
25.0
 40
26.0
 40
26.0
 40
26.0
 40
27.0
 40
27.0
 40
27.0
 40
28.0
 40
28.0
 40
28.0
 40
29.0
 40
29.0
 40
29.0
 40
30.0
 40
30.0
 40
30.0
 40
31.0
 40
31.0
 40
31.0
 40
32.0
 40
32.0
 40
32.0
 40
33.0
 40
33.0
 40
33.0
 40
34.0
 40
34.0
 40
34.0
 40
35.0
 40
35.0
 40
35.0
 40
36.0
 40
36.0
 40
36.0
 40
37.0
 40
37.0
 40
37.0
 40
38.0
 40
38.0
 40
38.0
 40
39.0
 40
39.0
 40
39.0
 40
40.0
 40
40.0
 40
40.0
 40
41.0
 40
41.0
 40
41.0
 40
42.0
 40
42.0
 40
42.0
 40
43.0
 40
43.0
 40
43.0
 40
44.0
 40
44.0
 40
44.0
 40
45.0
 40
45.0
 40
45.0
 40
46.0
 40
46.0
 40
46.0
 40
47.0
 40
47.0
 40
47.0
 40
48.0
 40
48.0
 40
48.0
 40
49.0
 40
49.0
 40
49.0
 40
50.0
 40
50.0
 40
50.0
 40
51.0
 40
51.0
 40
51.0
 40
52.0
 40
52.0
 40
52.0
 40
53.0
 40
53.0
 40
53.0
 40
54.0
 40
54.0
 40
54.0
 40
55.0
 40
55.0
 40
55.0
 40
56.0
 40
56.0
 40
56.0
 40
57.0
 40
57.0
 40
57.0
 40
58.0
 40
58.0
 40
58.0
 40
59.0
 40
59.0
 40
59.0
 40
59.0
 10
76.5178100394643
 20
-142.1387830590834
 30
0.0
 10
76.5178100394643
 20
-142.1387830590834
 30
0.0
 10
75.96039358995088
 20
-142.1387830590834
 30
0.0
 10
75.96039358995088
 20
-142.1387830590834
 30
0.0
 10
75.77332490510182
 20
-142.1387830590834
 30
0.0
 10
75.58453367251012
 20
-142.1432616832142
 30
0.0
 10
75.39746498766105
 20
-142.1560085365096
 30
0.0
 10
75.39746498766105
 20
-142.1560085365096
 30
0.0
 10
75.39746498766105
 20
-141.9486137882976
 30
0.0
 10
75.39746498766105
 20
-141.9486137882976
 30
0.0
 10
75.59194062780341
 20
-141.961360641593
 30
0.0
 10
75.87512747669095
 20
-141.9654947561753
 30
0.0
 10
75.96039358995088
 20
-141.9654947561753
 30
0.0
 10
75.96039358995088
 20
-141.9654947561753
 30
0.0
 10
76.15297442757634
 20
-141.9654947561753
 30
0.0
 10
76.15297442757634
 20
-141.9654947561753
 30
0.0
 10
76.15297442757634
 20
-141.9654947561753
 30
0.0
 10
76.15297442757634
 20
-141.8239013317315
 30
0.0
 10
76.15297442757634
 20
-141.8239013317315
 30
0.0
 10
76.15297442757634
 20
-141.8239013317315
 30
0.0
 10
76.01224227700389
 20
-141.8239013317315
 30
0.0
 10
76.01224227700389
 20
-141.8239013317315
 30
0.0
 10
75.86789277617191
 20
-141.8239013317315
 30
0.0
 10
75.7233710205657
 20
-141.8280354463138
 30
0.0
 10
75.57884926495946
 20
-141.8428493569004
 30
0.0
 10
75.57884926495946
 20
-141.8428493569004
 30
0.0
 10
75.57884926495946
 20
-141.6333875513972
 30
0.0
 10
75.57884926495946
 20
-141.6333875513972
 30
0.0
 10
75.72888317334208
 20
-141.6482014619838
 30
0.0
 10
75.9455796793643
 20
-141.6523355765661
 30
0.0
 10
76.01224227700389
 20
-141.6523355765661
 30
0.0
 10
76.01224227700389
 20
-141.6523355765661
 30
0.0
 10
76.15297442757634
 20
-141.6523355765661
 30
0.0
 10
76.15297442757634
 20
-141.6523355765661
 30
0.0
 10
76.14935707731684
 20
-141.5803330809244
 30
0.0
 10
76.14935707731684
 20
-141.5741319090509
 30
0.0
 10
76.14367266976618
 20
-141.5210774385781
 30
0.0
 10
76.14367266976618
 20
-141.5210774385781
 30
0.0
 10
76.26597355949254
 20
-141.5358913491646
 30
0.0
 10
76.26597355949254
 20
-141.5358913491646
 30
0.0
 10
76.26597355949254
 20
-141.5358913491646
 30
0.0
 10
76.17898489848999
 20
-141.3646701035477
 30
0.0
 10
76.17898489848999
 20
-141.3646701035477
 30
0.0
 10
76.21963702521593
 20
-141.3708712754212
 30
0.0
 10
76.28440482033862
 20
-141.3794840141343
 30
0.0
 10
76.2992187309252
 20
-141.3794840141343
 30
0.0
 10
76.34366046268492
 20
-141.3794840141343
 30
0.0
 10
76.35847437327149
 20
-141.3584689316743
 30
0.0
 10
76.35847437327149
 20
-141.3012803466191
 30
0.0
 10
76.35847437327149
 20
-141.3012803466191
 30
0.0
 10
76.35847437327149
 20
-141.1638210367577
 30
0.0
 10
76.35847437327149
 20
-141.1638210367577
 30
0.0
 10
76.35847437327149
 20
-141.1638210367577
 30
0.0
 10
76.26597355949254
 20
-141.1638210367577
 30
0.0
 10
76.26597355949254
 20
-141.1638210367577
 30
0.0
 10
76.14935707731684
 20
-141.1638210367577
 30
0.0
 10
76.01224227700389
 20
-141.1638210367577
 30
0.0
 10
75.9047552978641
 20
-141.1762233805046
 30
0.0
 10
75.9047552978641
 20
-141.1762233805046
 30
0.0
 10
75.9047552978641
 20
-140.9860541097188
 30
0.0
 10
75.9047552978641
 20
-140.9860541097188
 30
0.0
 10
76.0511718559872
 20
-141.0029350775965
 30
0.0
 10
76.25305445142286
 20
-141.0050021348876
 30
0.0
 10
76.26597355949254
 20
-141.0050021348876
 30
0.0
 10
76.26597355949254
 20
-141.0050021348876
 30
0.0
 10
76.35847437327149
 20
-141.0050021348876
 30
0.0
 10
76.35847437327149
 20
-141.0050021348876
 30
0.0
 10
76.35847437327149
 20
-141.0050021348876
 30
0.0
 10
76.35847437327149
 20
-140.8737439968996
 30
0.0
 10
76.35847437327149
 20
-140.8737439968996
 30
0.0
 10
76.35847437327149
 20
-140.8737439968996
 30
0.0
 10
76.32522920183884
 20
-140.8737439968996
 30
0.0
 10
76.32522920183884
 20
-140.8737439968996
 30
0.0
 10
76.28629962285551
 20
-140.8737439968996
 30
0.0
 10
76.17709009597309
 20
-140.8782226210305
 30
0.0
 10
76.09923093800644
 20
-140.8864908501951
 30
0.0
 10
76.09923093800644
 20
-140.8864908501951
 30
0.0
 10
76.09923093800644
 20
-140.8062201253887
 30
0.0
 10
76.09923093800644
 20
-140.8062201253887
 30
0.0
 10
76.05289440372984
 20
-140.8441161757265
 30
0.0
 10
76.03084579262423
 20
-140.8589300863131
 30
0.0
 10
75.99363876138354
 20
-140.8823567356127
 30
0.0
 10
75.99363876138354
 20
-140.8823567356127
 30
0.0
 10
75.8289631971886
 20
-140.7531656549159
 30
0.0
 10
75.8289631971886
 20
-140.7531656549159
 30
0.0
 10
75.89752059734506
 20
-140.7194037191604
 30
0.0
 10
76.03446314288375
 20
-140.6560139622318
 30
0.0
 10
76.17140568842242
 20
-140.5120089709484
 30
0.0
 10
76.24375269361268
 20
-140.4338053034332
 30
0.0
 10
76.31231009376914
 20
-140.3490559544961
 30
0.0
 10
76.35847437327149
 20
-140.2477701472297
 30
0.0
 10
76.35847437327149
 20
-140.2477701472297
 30
0.0
 10
76.54364825560367
 20
-140.3090928468672
 30
0.0
 10
76.54364825560367
 20
-140.3090928468672
 30
0.0
 10
76.56035696870714
 20
-140.3152940187406
 30
0.0
 10
76.56965872651732
 20
-140.3239067574538
 30
0.0
 10
76.56965872651732
 20
-140.3366536107492
 30
0.0
 10
76.56965872651732
 20
-140.3535345786269
 30
0.0
 10
76.55846216619025
 20
-140.3597357505004
 30
0.0
 10
76.5362413003104
 20
-140.3724826037958
 30
0.0
 10
76.60669350298375
 20
-140.4699788060283
 30
0.0
 10
76.74914820129882
 20
-140.5671304987124
 30
0.0
 10
76.77877602247197
 20
-140.5860785238813
 30
0.0
 10
76.91037867000853
 20
-140.6749619874007
 30
0.0
 10
77.01028643908076
 20
-140.7025227512827
 30
0.0
 10
77.07884383923724
 20
-140.7214707764516
 30
0.0
 10
77.07884383923724
 20
-140.7214707764516
 30
0.0
 10
76.97514646513122
 20
-140.8906249647773
 30
0.0
 10
76.97514646513122
 20
-140.8906249647773
 30
0.0
 10
76.90107691219835
 20
-140.8613416531527
 30
0.0
 10
76.85663518043862
 20
-140.8420491184353
 30
0.0
 10
76.7529378063326
 20
-140.7765923042156
 30
0.0
 10
76.7529378063326
 20
-140.7765923042156
 30
0.0
 10
76.7529378063326
 20
-140.8864908501951
 30
0.0
 10
76.7529378063326
 20
-140.8864908501951
 30
0.0
 10
76.68076305591661
 20
-140.8782226210305
 30
0.0
 10
76.56965872651732
 20
-140.8737439968996
 30
0.0
 10
76.5233221922407
 20
-140.8737439968996
 30
0.0
 10
76.5233221922407
 20
-140.8737439968996
 30
0.0
 10
76.5233221922407
 20
-141.0050021348876
 30
0.0
 10
76.5233221922407
 20
-141.0050021348876
 30
0.0
 10
76.5233221922407
 20
-141.0050021348876
 30
0.0
 10
76.6289143688636
 20
-141.0050021348876
 30
0.0
 10
76.6289143688636
 20
-141.0050021348876
 30
0.0
 10
76.63063691660624
 20
-141.0050021348876
 30
0.0
 10
76.83441431455876
 20
-141.0029350775965
 30
0.0
 10
76.98996037571779
 20
-140.9860541097188
 30
0.0
 10
76.98996037571779
 20
-140.9860541097188
 30
0.0
 10
76.98996037571779
 20
-141.1762233805046
 30
0.0
 10
76.98996037571779
 20
-141.1762233805046
 30
0.0
 10
76.8769612438016
 20
-141.1638210367577
 30
0.0
 10
76.74001869826292
 20
-141.1638210367577
 30
0.0
 10
76.6289143688636
 20
-141.1638210367577
 30
0.0
 10
76.6289143688636
 20
-141.1638210367577
 30
0.0
 10
76.5233221922407
 20
-141.1638210367577
 30
0.0
 10
76.5233221922407
 20
-141.1638210367577
 30
0.0
 10
76.5233221922407
 20
-141.1638210367577
 30
0.0
 10
76.5233221922407
 20
-141.3901638101386
 30
0.0
 10
76.5233221922407
 20
-141.3901638101386
 30
0.0
 10
76.5233221922407
 20
-141.5086750948312
 30
0.0
 10
76.50110132636084
 20
-141.5445040878778
 30
0.0
 10
76.36036917578838
 20
-141.5593179984643
 30
0.0
 10
76.3639865260479
 20
-141.5782660236332
 30
0.0
 10
76.35847437327149
 20
-141.5889458196375
 30
0.0
 10
76.32522920183884
 20
-141.6120279593887
 30
0.0
 10
76.32333439932195
 20
-141.6313204941061
 30
0.0
 10
76.32333439932195
 20
-141.6375216659795
 30
0.0
 10
76.32143959680506
 20
-141.6523355765661
 30
0.0
 10
76.32143959680506
 20
-141.6523355765661
 30
0.0
 10
76.44184568401454
 20
-141.6523355765661
 30
0.0
 10
76.44184568401454
 20
-141.6523355765661
 30
0.0
 10
76.58619518484652
 20
-141.6523355765661
 30
0.0
 10
76.73261174296962
 20
-141.6482014619838
 30
0.0
 10
76.87885604631849
 20
-141.6333875513972
 30
0.0
 10
76.87885604631849
 20
-141.6333875513972
 30
0.0
 10
76.87885604631849
 20
-141.8407822996093
 30
0.0
 10
76.87885604631849
 20
-141.8407822996093
 30
0.0
 10
76.68989255895254
 20
-141.8239013317315
 30
0.0
 10
76.45855439711801
 20
-141.8239013317315
 30
0.0
 10
76.44184568401454
 20
-141.8239013317315
 30
0.0
 10
76.44184568401454
 20
-141.8239013317315
 30
0.0
 10
76.31954479428818
 20
-141.8239013317315
 30
0.0
 10
76.31954479428818
 20
-141.8239013317315
 30
0.0
 10
76.31954479428818
 20
-141.8239013317315
 30
0.0
 10
76.31954479428818
 20
-141.9654947561753
 30
0.0
 10
76.31954479428818
 20
-141.9654947561753
 30
0.0
 10
76.31954479428818
 20
-141.9654947561753
 30
0.0
 10
76.5178100394643
 20
-141.9654947561753
 30
0.0
 10
76.5178100394643
 20
-141.9654947561753
 30
0.0
 10
76.70660127205599
 20
-141.9654947561753
 30
0.0
 10
76.89728730716458
 20
-141.961360641593
 30
0.0
 10
77.08625079453053
 20
-141.9486137882976
 30
0.0
 10
77.08625079453053
 20
-141.9486137882976
 30
0.0
 10
77.08625079453053
 20
-142.1560085365096
 30
0.0
 10
77.08625079453053
 20
-142.1560085365096
 30
0.0
 10
76.83992646733516
 20
-142.1387830590834
 30
0.0
 10
76.53813610282728
 20
-142.1387830590834
 30
0.0
 10
76.5178100394643
 20
-142.1387830590834
 30
0.0
  0
SPLINE
  5
AF
330
A9
100
AcDbEntity
  8
_U+30EC_U+30A4_U+30E4_U+30FC 1
370
     0
100
AcDbSpline
210
0.0
220
0.0
230
1.0
 70
    11
 71
     3
 72
    23
 73
    19
 74
     0
 42
0.0000000001
 43
0.0000000001
 12
1.0
 22
0.0
 32
0.0
 13
1.0
 23
0.0
 33
0.0
 40
0.0
 40
0.0
 40
0.0
 40
0.0
 40
1.0
 40
1.0
 40
1.0
 40
2.0
 40
2.0
 40
2.0
 40
3.0
 40
3.0
 40
3.0
 40
4.0
 40
4.0
 40
4.0
 40
5.0
 40
5.0
 40
5.0
 40
6.0
 40
6.0
 40
6.0
 40
6.0
 10
75.53819713823351
 20
-141.5107421521223
 30
0.0
 10
75.53819713823351
 20
-141.5317572345824
 30
0.0
 10
75.5400919407504
 20
-141.5699977944686
 30
0.0
 10
75.51787107487054
 20
-141.5699977944686
 30
0.0
 10
75.50856931706036
 20
-141.5699977944686
 30
0.0
 10
75.50116236176707
 20
-141.5634521130467
 30
0.0
 10
75.4918606039569
 20
-141.5465711451689
 30
0.0
 10
75.4918606039569
 20
-141.5465711451689
 30
0.0
 10
75.40108233792057
 20
-141.3646701035477
 30
0.0
 10
75.40108233792057
 20
-141.3646701035477
 30
0.0
 10
75.59004582528652
 20
-141.2354790228509
 30
0.0
 10
75.76230059954901
 20
-140.9584933458368
 30
0.0
 10
75.80295272627497
 20
-140.8864908501951
 30
0.0
 10
75.80295272627497
 20
-140.8864908501951
 30
0.0
 10
75.86599797365503
 20
-141.0663248345251
 30
0.0
 10
75.86599797365503
 20
-141.0663248345251
 30
0.0
 10
75.74938149147933
 20
-141.2630397867329
 30
0.0
 10
75.59555797806291
 20
-141.4470078856452
 30
0.0
 10
75.53819713823351
 20
-141.5107421521223
 30
0.0
  0
SPLINE
  5
B0
330
A9
100
AcDbEntity
  8
_U+30EC_U+30A4_U+30E4_U+30FC 1
370
     0
100
AcDbSpline
210
0.0
220
0.0
230
1.0
 70
    11
 71
     3
 72
    17
 73
    13
 74
     0
 42
0.0000000001
 43
0.0000000001
 12
1.0
 22
0.0
 32
0.0
 13
1.0
 23
0.0
 33
0.0
 40
0.0
 40
0.0
 40
0.0
 40
0.0
 40
1.0
 40
1.0
 40
1.0
 40
2.0
 40
2.0
 40
2.0
 40
3.0
 40
3.0
 40
3.0
 40
4.0
 40
4.0
 40
4.0
 40
4.0
 10
75.76040579703212
 20
-140.6157063450544
 30
0.0
 10
75.70666230746222
 20
-140.5395697348304
 30
0.0
 10
75.59366317554603
 20
-140.4634331246064
 30
0.0
 10
75.50305716428396
 20
-140.4338053034332
 30
0.0
 10
75.50305716428396
 20
-140.4338053034332
 30
0.0
 10
75.586428475027
 20
-140.2687852296897
 30
0.0
 10
75.586428475027
 20
-140.2687852296897
 30
0.0
 10
75.67531193854646
 20
-140.3049587322849
 30
0.0
 10
75.76781275232541
 20
-140.3618028077915
 30
0.0
 10
75.8454996555178
 20
-140.4424180421464
 30
0.0
 10
75.8454996555178
 20
-140.4424180421464
 30
0.0
 10
75.76040579703212
 20
-140.6157063450544
 30
0.0
 10
75.76040579703212
 20
-140.6157063450544
 30
0.0
  0
SPLINE
  5
B1
330
A9
100
AcDbEntity
  8
_U+30EC_U+30A4_U+30E4_U+30FC 1
370
     0
100
AcDbSpline
210
0.0
220
0.0
230
1.0
 70
    11
 71
     3
 72
    23
 73
    19
 74
     0
 42
0.0000000001
 43
0.0000000001
 12
1.0
 22
0.0
 32
0.0
 13
1.0
 23
0.0
 33
0.0
 40
0.0
 40
0.0
 40
0.0
 40
0.0
 40
1.0
 40
1.0
 40
1.0
 40
2.0
 40
2.0
 40
2.0
 40
3.0
 40
3.0
 40
3.0
 40
4.0
 40
4.0
 40
4.0
 40
5.0
 40
5.0
 40
5.0
 40
6.0
 40
6.0
 40
6.0
 40
6.0
 10
76.15659177783586
 20
-141.320228371788
 30
0.0
 10
76.13816051698977
 20
-141.3436550210877
 30
0.0
 10
76.05289440372984
 20
-141.4556206243583
 30
0.0
 10
75.93076576877773
 20
-141.5358913491646
 30
0.0
 10
75.93076576877773
 20
-141.5358913491646
 30
0.0
 10
75.78452146542887
 20
-141.4153130071809
 30
0.0
 10
75.78452146542887
 20
-141.4153130071809
 30
0.0
 10
75.91595185819115
 20
-141.3391763969569
 30
0.0
 10
76.00294051919371
 20
-141.244091761564
 30
0.0
 10
76.04565970321082
 20
-141.1910372910911
 30
0.0
 10
76.04565970321082
 20
-141.1910372910911
 30
0.0
 10
76.19741615933607
 20
-141.2737195827371
 30
0.0
 10
76.19741615933607
 20
-141.2737195827371
 30
0.0
 10
76.20482311462935
 20
-141.2778536973194
 30
0.0
 10
76.21223006992264
 20
-141.2843993787414
 30
0.0
 10
76.21223006992264
 20
-141.2947346651972
 30
0.0
 10
76.21223006992264
 20
-141.320228371788
 30
0.0
 10
76.1807074462326
 20
-141.320228371788
 30
0.0
 10
76.15659177783586
 20
-141.320228371788
 30
0.0
  0
SPLINE
  5
B2
330
A9
100
AcDbEntity
  8
_U+30EC_U+30A4_U+30E4_U+30FC 1
370
     0
100
AcDbSpline
210
0.0
220
0.0
230
1.0
 70
    11
 71
     3
 72
    20
 73
    16
 74
     0
 42
0.0000000001
 43
0.0000000001
 12
1.0
 22
0.0
 32
0.0
 13
1.0
 23
0.0
 33
0.0
 40
0.0
 40
0.0
 40
0.0
 40
0.0
 40
1.0
 40
1.0
 40
1.0
 40
2.0
 40
2.0
 40
2.0
 40
3.0
 40
3.0
 40
3.0
 40
4.0
 40
4.0
 40
4.0
 40
5.0
 40
5.0
 40
5.0
 40
5.0
 10
76.41773001561779
 20
-140.4782470351929
 30
0.0
 10
76.38448484418514
 20
-140.526822881535
 30
0.0
 10
76.33074135461524
 20
-140.6053710585987
 30
0.0
 10
76.20861271966312
 20
-140.7152696045781
 30
0.0
 10
76.27889266756222
 20
-140.7194037191604
 30
0.0
 10
76.3047308837016
 20
-140.7194037191604
 30
0.0
 10
76.32522920183884
 20
-140.7194037191604
 30
0.0
 10
76.32522920183884
 20
-140.7194037191604
 30
0.0
 10
76.52521699475759
 20
-140.7194037191604
 30
0.0
 10
76.52521699475759
 20
-140.7194037191604
 30
0.0
 10
76.55295001341385
 20
-140.7194037191604
 30
0.0
 10
76.59549694265668
 20
-140.7173366618693
 30
0.0
 10
76.66026473777939
 20
-140.7152696045781
 30
0.0
 10
76.56225177122403
 20
-140.6412000516453
 30
0.0
 10
76.5197048419812
 20
-140.5946912625944
 30
0.0
 10
76.41773001561779
 20
-140.4782470351929
 30
0.0
  0
SPLINE
  5
B3
330
A9
100
AcDbEntity
  8
_U+30EC_U+30A4_U+30E4_U+30FC 1
370
     0
100
AcDbSpline
210
0.0
220
0.0
230
1.0
 70
    11
 71
     3
 72
    17
 73
    13
 74
     0
 42
0.0000000001
 43
0.0000000001
 12
1.0
 22
0.0
 32
0.0
 13
1.0
 23
0.0
 33
0.0
 40
0.0
 40
0.0
 40
0.0
 40
0.0
 40
1.0
 40
1.0
 40
1.0
 40
2.0
 40
2.0
 40
2.0
 40
3.0
 40
3.0
 40
3.0
 40
4.0
 40
4.0
 40
4.0
 40
4.0
 10
76.90848386749163
 20
-141.5338242918735
 30
0.0
 10
76.78997258279904
 20
-141.4218586886029
 30
0.0
 10
76.69747176902008
 20
-141.3584689316743
 30
0.0
 10
76.59377439491406
 20
-141.2947346651972
 30
0.0
 10
76.59377439491406
 20
-141.2947346651972
 30
0.0
 10
76.7047064695391
 20
-141.1827690619265
 30
0.0
 10
76.7047064695391
 20
-141.1827690619265
 30
0.0
 10
76.81960040397219
 20
-141.2292778509774
 30
0.0
 10
76.91589082278492
 20
-141.2864664360326
 30
0.0
 10
77.02510034966734
 20
-141.3880967528474
 30
0.0
 10
77.02510034966734
 20
-141.3880967528474
 30
0.0
 10
76.90848386749163
 20
-141.5338242918735
 30
0.0
 10
76.90848386749163
 20
-141.5338242918735
 30
0.0
  0
HATCH
  5
B4
330
A9
100
AcDbEntity
  8
_U+30EC_U+30A4_U+30E4_U+30FC 1
 62
   179
420
  2234388
100
AcDbHatch
 10
0.0
 20
0.0
 30
0.0
210
0.0
220
0.0
230
1.0
  2
SOLID
 70
     1
 71
     0
 91
        7
 92
        1
 93
        1
 72
     4
 94
        3
 73
     0
 74
     1
 95
       17
 96
       13
 40
0.0
 40
0.0
 40
0.0
 40
0.0
 40
1.0
 40
1.0
 40
1.0
 40
2.0
 40
2.0
 40
2.0
 40
3.0
 40
3.0
 40
3.0
 40
4.0
 40
4.0
 40
4.0
 40
4.0
 10
75.6029649333562
 20
-140.9605604031279
 10
75.51046411957725
 20
-140.8547959717307
 10
75.44001191690388
 20
-140.816899921393
 10
75.35853540867772
 20
-140.7848605333802
 10
75.35853540867772
 20
-140.7848605333802
 10
75.45482582749047
 20
-140.6198404596367
 10
75.45482582749047
 20
-140.6198404596367
 10
75.5400919407504
 20
-140.6622151341053
 10
75.6456841173733
 20
-140.740763311169
 10
75.69184839687566
 20
-140.7955403293845
 10
75.69184839687566
 20
-140.7955403293845
 10
75.6029649333562
 20
-140.9605604031279
 10
75.6029649333562
 20
-140.9605604031279
 97
        0
 97
        0
 92
        1
 93
        1
 72
     4
 94
        3
 73
     0
 74
     1
 95
      182
 96
      178
 40
0.0
 40
0.0
 40
0.0
 40
0.0
 40
1.0
 40
1.0
 40
1.0
 40
2.0
 40
2.0
 40
2.0
 40
3.0
 40
3.0
 40
3.0
 40
4.0
 40
4.0
 40
4.0
 40
5.0
 40
5.0
 40
5.0
 40
6.0
 40
6.0
 40
6.0
 40
7.0
 40
7.0
 40
7.0
 40
8.0
 40
8.0
 40
8.0
 40
9.0
 40
9.0
 40
9.0
 40
10.0
 40
10.0
 40
10.0
 40
11.0
 40
11.0
 40
11.0
 40
12.0
 40
12.0
 40
12.0
 40
13.0
 40
13.0
 40
13.0
 40
14.0
 40
14.0
 40
14.0
 40
15.0
 40
15.0
 40
15.0
 40
16.0
 40
16.0
 40
16.0
 40
17.0
 40
17.0
 40
17.0
 40
18.0
 40
18.0
 40
18.0
 40
19.0
 40
19.0
 40
19.0
 40
20.0
 40
20.0
 40
20.0
 40
21.0
 40
21.0
 40
21.0
 40
22.0
 40
22.0
 40
22.0
 40
23.0
 40
23.0
 40
23.0
 40
24.0
 40
24.0
 40
24.0
 40
25.0
 40
25.0
 40
25.0
 40
26.0
 40
26.0
 40
26.0
 40
27.0
 40
27.0
 40
27.0
 40
28.0
 40
28.0
 40
28.0
 40
29.0
 40
29.0
 40
29.0
 40
30.0
 40
30.0
 40
30.0
 40
31.0
 40
31.0
 40
31.0
 40
32.0
 40
32.0
 40
32.0
 40
33.0
 40
33.0
 40
33.0
 40
34.0
 40
34.0
 40
34.0
 40
35.0
 40
35.0
 40
35.0
 40
36.0
 40
36.0
 40
36.0
 40
37.0
 40
37.0
 40
37.0
 40
38.0
 40
38.0
 40
38.0
 40
39.0
 40
39.0
 40
39.0
 40
40.0
 40
40.0
 40
40.0
 40
41.0
 40
41.0
 40
41.0
 40
42.0
 40
42.0
 40
42.0
 40
43.0
 40
43.0
 40
43.0
 40
44.0
 40
44.0
 40
44.0
 40
45.0
 40
45.0
 40
45.0
 40
46.0
 40
46.0
 40
46.0
 40
47.0
 40
47.0
 40
47.0
 40
48.0
 40
48.0
 40
48.0
 40
49.0
 40
49.0
 40
49.0
 40
50.0
 40
50.0
 40
50.0
 40
51.0
 40
51.0
 40
51.0
 40
52.0
 40
52.0
 40
52.0
 40
53.0
 40
53.0
 40
53.0
 40
54.0
 40
54.0
 40
54.0
 40
55.0
 40
55.0
 40
55.0
 40
56.0
 40
56.0
 40
56.0
 40
57.0
 40
57.0
 40
57.0
 40
58.0
 40
58.0
 40
58.0
 40
59.0
 40
59.0
 40
59.0
 40
59.0
 10
76.5178100394643
 20
-142.1387830590834
 10
76.5178100394643
 20
-142.1387830590834
 10
75.96039358995088
 20
-142.1387830590834
 10
75.96039358995088
 20
-142.1387830590834
 10
75.77332490510182
 20
-142.1387830590834
 10
75.58453367251012
 20
-142.1432616832142
 10
75.39746498766105
 20
-142.1560085365096
 10
75.39746498766105
 20
-142.1560085365096
 10
75.39746498766105
 20
-141.9486137882976
 10
75.39746498766105
 20
-141.9486137882976
 10
75.59194062780341
 20
-141.961360641593
 10
75.87512747669095
 20
-141.9654947561753
 10
75.96039358995088
 20
-141.9654947561753
 10
75.96039358995088
 20
-141.9654947561753
 10
76.15297442757634
 20
-141.9654947561753
 10
76.15297442757634
 20
-141.9654947561753
 10
76.15297442757634
 20
-141.9654947561753
 10
76.15297442757634
 20
-141.8239013317315
 10
76.15297442757634
 20
-141.8239013317315
 10
76.15297442757634
 20
-141.8239013317315
 10
76.01224227700389
 20
-141.8239013317315
 10
76.01224227700389
 20
-141.8239013317315
 10
75.86789277617191
 20
-141.8239013317315
 10
75.7233710205657
 20
-141.8280354463138
 10
75.57884926495946
 20
-141.8428493569004
 10
75.57884926495946
 20
-141.8428493569004
 10
75.57884926495946
 20
-141.6333875513972
 10
75.57884926495946
 20
-141.6333875513972
 10
75.72888317334208
 20
-141.6482014619838
 10
75.9455796793643
 20
-141.6523355765661
 10
76.01224227700389
 20
-141.6523355765661
 10
76.01224227700389
 20
-141.6523355765661
 10
76.15297442757634
 20
-141.6523355765661
 10
76.15297442757634
 20
-141.6523355765661
 10
76.14935707731684
 20
-141.5803330809244
 10
76.14935707731684
 20
-141.5741319090509
 10
76.14367266976618
 20
-141.5210774385781
 10
76.14367266976618
 20
-141.5210774385781
 10
76.26597355949254
 20
-141.5358913491646
 10
76.26597355949254
 20
-141.5358913491646
 10
76.26597355949254
 20
-141.5358913491646
 10
76.17898489848999
 20
-141.3646701035477
 10
76.17898489848999
 20
-141.3646701035477
 10
76.21963702521593
 20
-141.3708712754212
 10
76.28440482033862
 20
-141.3794840141343
 10
76.2992187309252
 20
-141.3794840141343
 10
76.34366046268492
 20
-141.3794840141343
 10
76.35847437327149
 20
-141.3584689316743
 10
76.35847437327149
 20
-141.3012803466191
 10
76.35847437327149
 20
-141.3012803466191
 10
76.35847437327149
 20
-141.1638210367577
 10
76.35847437327149
 20
-141.1638210367577
 10
76.35847437327149
 20
-141.1638210367577
 10
76.26597355949254
 20
-141.1638210367577
 10
76.26597355949254
 20
-141.1638210367577
 10
76.14935707731684
 20
-141.1638210367577
 10
76.01224227700389
 20
-141.1638210367577
 10
75.9047552978641
 20
-141.1762233805046
 10
75.9047552978641
 20
-141.1762233805046
 10
75.9047552978641
 20
-140.9860541097188
 10
75.9047552978641
 20
-140.9860541097188
 10
76.0511718559872
 20
-141.0029350775965
 10
76.25305445142286
 20
-141.0050021348876
 10
76.26597355949254
 20
-141.0050021348876
 10
76.26597355949254
 20
-141.0050021348876
 10
76.35847437327149
 20
-141.0050021348876
 10
76.35847437327149
 20
-141.0050021348876
 10
76.35847437327149
 20
-141.0050021348876
 10
76.35847437327149
 20
-140.8737439968996
 10
76.35847437327149
 20
-140.8737439968996
 10
76.35847437327149
 20
-140.8737439968996
 10
76.32522920183884
 20
-140.8737439968996
 10
76.32522920183884
 20
-140.8737439968996
 10
76.28629962285551
 20
-140.8737439968996
 10
76.17709009597309
 20
-140.8782226210305
 10
76.09923093800644
 20
-140.8864908501951
 10
76.09923093800644
 20
-140.8864908501951
 10
76.09923093800644
 20
-140.8062201253887
 10
76.09923093800644
 20
-140.8062201253887
 10
76.05289440372984
 20
-140.8441161757265
 10
76.03084579262423
 20
-140.8589300863131
 10
75.99363876138354
 20
-140.8823567356127
 10
75.99363876138354
 20
-140.8823567356127
 10
75.8289631971886
 20
-140.7531656549159
 10
75.8289631971886
 20
-140.7531656549159
 10
75.89752059734506
 20
-140.7194037191604
 10
76.03446314288375
 20
-140.6560139622318
 10
76.17140568842242
 20
-140.5120089709484
 10
76.24375269361268
 20
-140.4338053034332
 10
76.31231009376914
 20
-140.3490559544961
 10
76.35847437327149
 20
-140.2477701472297
 10
76.35847437327149
 20
-140.2477701472297
 10
76.54364825560367
 20
-140.3090928468672
 10
76.54364825560367
 20
-140.3090928468672
 10
76.56035696870714
 20
-140.3152940187406
 10
76.56965872651732
 20
-140.3239067574538
 10
76.56965872651732
 20
-140.3366536107492
 10
76.56965872651732
 20
-140.3535345786269
 10
76.55846216619025
 20
-140.3597357505004
 10
76.5362413003104
 20
-140.3724826037958
 10
76.60669350298375
 20
-140.4699788060283
 10
76.74914820129882
 20
-140.5671304987124
 10
76.77877602247197
 20
-140.5860785238813
 10
76.91037867000853
 20
-140.6749619874007
 10
77.01028643908076
 20
-140.7025227512827
 10
77.07884383923724
 20
-140.7214707764516
 10
77.07884383923724
 20
-140.7214707764516
 10
76.97514646513122
 20
-140.8906249647773
 10
76.97514646513122
 20
-140.8906249647773
 10
76.90107691219835
 20
-140.8613416531527
 10
76.85663518043862
 20
-140.8420491184353
 10
76.7529378063326
 20
-140.7765923042156
 10
76.7529378063326
 20
-140.7765923042156
 10
76.7529378063326
 20
-140.8864908501951
 10
76.7529378063326
 20
-140.8864908501951
 10
76.68076305591661
 20
-140.8782226210305
 10
76.56965872651732
 20
-140.8737439968996
 10
76.5233221922407
 20
-140.8737439968996
 10
76.5233221922407
 20
-140.8737439968996
 10
76.5233221922407
 20
-141.0050021348876
 10
76.5233221922407
 20
-141.0050021348876
 10
76.5233221922407
 20
-141.0050021348876
 10
76.6289143688636
 20
-141.0050021348876
 10
76.6289143688636
 20
-141.0050021348876
 10
76.63063691660624
 20
-141.0050021348876
 10
76.83441431455876
 20
-141.0029350775965
 10
76.98996037571779
 20
-140.9860541097188
 10
76.98996037571779
 20
-140.9860541097188
 10
76.98996037571779
 20
-141.1762233805046
 10
76.98996037571779
 20
-141.1762233805046
 10
76.8769612438016
 20
-141.1638210367577
 10
76.74001869826292
 20
-141.1638210367577
 10
76.6289143688636
 20
-141.1638210367577
 10
76.6289143688636
 20
-141.1638210367577
 10
76.5233221922407
 20
-141.1638210367577
 10
76.5233221922407
 20
-141.1638210367577
 10
76.5233221922407
 20
-141.1638210367577
 10
76.5233221922407
 20
-141.3901638101386
 10
76.5233221922407
 20
-141.3901638101386
 10
76.5233221922407
 20
-141.5086750948312
 10
76.50110132636084
 20
-141.5445040878778
 10
76.36036917578838
 20
-141.5593179984643
 10
76.3639865260479
 20
-141.5782660236332
 10
76.35847437327149
 20
-141.5889458196375
 10
76.32522920183884
 20
-141.6120279593887
 10
76.32333439932195
 20
-141.6313204941061
 10
76.32333439932195
 20
-141.6375216659795
 10
76.32143959680506
 20
-141.6523355765661
 10
76.32143959680506
 20
-141.6523355765661
 10
76.44184568401454
 20
-141.6523355765661
 10
76.44184568401454
 20
-141.6523355765661
 10
76.58619518484652
 20
-141.6523355765661
 10
76.73261174296962
 20
-141.6482014619838
 10
76.87885604631849
 20
-141.6333875513972
 10
76.87885604631849
 20
-141.6333875513972
 10
76.87885604631849
 20
-141.8407822996093
 10
76.87885604631849
 20
-141.8407822996093
 10
76.68989255895254
 20
-141.8239013317315
 10
76.45855439711801
 20
-141.8239013317315
 10
76.44184568401454
 20
-141.8239013317315
 10
76.44184568401454
 20
-141.8239013317315
 10
76.31954479428818
 20
-141.8239013317315
 10
76.31954479428818
 20
-141.8239013317315
 10
76.31954479428818
 20
-141.8239013317315
 10
76.31954479428818
 20
-141.9654947561753
 10
76.31954479428818
 20
-141.9654947561753
 10
76.31954479428818
 20
-141.9654947561753
 10
76.5178100394643
 20
-141.9654947561753
 10
76.5178100394643
 20
-141.9654947561753
 10
76.70660127205599
 20
-141.9654947561753
 10
76.89728730716458
 20
-141.961360641593
 10
77.08625079453053
 20
-141.9486137882976
 10
77.08625079453053
 20
-141.9486137882976
 10
77.08625079453053
 20
-142.1560085365096
 10
77.08625079453053
 20
-142.1560085365096
 10
76.83992646733516
 20
-142.1387830590834
 10
76.53813610282728
 20
-142.1387830590834
 10
76.5178100394643
 20
-142.1387830590834
 97
        0
 97
        0
 92
        1
 93
        1
 72
     4
 94
        3
 73
     0
 74
     1
 95
       23
 96
       19
 40
0.0
 40
0.0
 40
0.0
 40
0.0
 40
1.0
 40
1.0
 40
1.0
 40
2.0
 40
2.0
 40
2.0
 40
3.0
 40
3.0
 40
3.0
 40
4.0
 40
4.0
 40
4.0
 40
5.0
 40
5.0
 40
5.0
 40
6.0
 40
6.0
 40
6.0
 40
6.0
 10
75.53819713823351
 20
-141.5107421521223
 10
75.53819713823351
 20
-141.5317572345824
 10
75.5400919407504
 20
-141.5699977944686
 10
75.51787107487054
 20
-141.5699977944686
 10
75.50856931706036
 20
-141.5699977944686
 10
75.50116236176707
 20
-141.5634521130467
 10
75.4918606039569
 20
-141.5465711451689
 10
75.4918606039569
 20
-141.5465711451689
 10
75.40108233792057
 20
-141.3646701035477
 10
75.40108233792057
 20
-141.3646701035477
 10
75.59004582528652
 20
-141.2354790228509
 10
75.76230059954901
 20
-140.9584933458368
 10
75.80295272627497
 20
-140.8864908501951
 10
75.80295272627497
 20
-140.8864908501951
 10
75.86599797365503
 20
-141.0663248345251
 10
75.86599797365503
 20
-141.0663248345251
 10
75.74938149147933
 20
-141.2630397867329
 10
75.59555797806291
 20
-141.4470078856452
 10
75.53819713823351
 20
-141.5107421521223
 97
        0
 97
        0
 92
        1
 93
        1
 72
     4
 94
        3
 73
     0
 74
     1
 95
       17
 96
       13
 40
0.0
 40
0.0
 40
0.0
 40
0.0
 40
1.0
 40
1.0
 40
1.0
 40
2.0
 40
2.0
 40
2.0
 40
3.0
 40
3.0
 40
3.0
 40
4.0
 40
4.0
 40
4.0
 40
4.0
 10
75.76040579703212
 20
-140.6157063450544
 10
75.70666230746222
 20
-140.5395697348304
 10
75.59366317554603
 20
-140.4634331246064
 10
75.50305716428396
 20
-140.4338053034332
 10
75.50305716428396
 20
-140.4338053034332
 10
75.586428475027
 20
-140.2687852296897
 10
75.586428475027
 20
-140.2687852296897
 10
75.67531193854646
 20
-140.3049587322849
 10
75.76781275232541
 20
-140.3618028077915
 10
75.8454996555178
 20
-140.4424180421464
 10
75.8454996555178
 20
-140.4424180421464
 10
75.76040579703212
 20
-140.6157063450544
 10
75.76040579703212
 20
-140.6157063450544
 97
        0
 97
        0
 92
        1
 93
        1
 72
     4
 94
        3
 73
     0
 74
     1
 95
       23
 96
       19
 40
0.0
 40
0.0
 40
0.0
 40
0.0
 40
1.0
 40
1.0
 40
1.0
 40
2.0
 40
2.0
 40
2.0
 40
3.0
 40
3.0
 40
3.0
 40
4.0
 40
4.0
 40
4.0
 40
5.0
 40
5.0
 40
5.0
 40
6.0
 40
6.0
 40
6.0
 40
6.0
 10
76.15659177783586
 20
-141.320228371788
 10
76.13816051698977
 20
-141.3436550210877
 10
76.05289440372984
 20
-141.4556206243583
 10
75.93076576877773
 20
-141.5358913491646
 10
75.93076576877773
 20
-141.5358913491646
 10
75.78452146542887
 20
-141.4153130071809
 10
75.78452146542887
 20
-141.4153130071809
 10
75.91595185819115
 20
-141.3391763969569
 10
76.00294051919371
 20
-141.244091761564
 10
76.04565970321082
 20
-141.1910372910911
 10
76.04565970321082
 20
-141.1910372910911
 10
76.19741615933607
 20
-141.2737195827371
 10
76.19741615933607
 20
-141.2737195827371
 10
76.20482311462935
 20
-141.2778536973194
 10
76.21223006992264
 20
-141.2843993787414
 10
76.21223006992264
 20
-141.2947346651972
 10
76.21223006992264
 20
-141.320228371788
 10
76.1807074462326
 20
-141.320228371788
 10
76.15659177783586
 20
-141.320228371788
 97
        0
 97
        0
 92
        1
 93
        1
 72
     4
 94
        3
 73
     0
 74
     1
 95
       20
 96
       16
 40
0.0
 40
0.0
 40
0.0
 40
0.0
 40
1.0
 40
1.0
 40
1.0
 40
2.0
 40
2.0
 40
2.0
 40
3.0
 40
3.0
 40
3.0
 40
4.0
 40
4.0
 40
4.0
 40
5.0
 40
5.0
 40
5.0
 40
5.0
 10
76.41773001561779
 20
-140.4782470351929
 10
76.38448484418514
 20
-140.526822881535
 10
76.33074135461524
 20
-140.6053710585987
 10
76.20861271966312
 20
-140.7152696045781
 10
76.27889266756222
 20
-140.7194037191604
 10
76.3047308837016
 20
-140.7194037191604
 10
76.32522920183884
 20
-140.7194037191604
 10
76.32522920183884
 20
-140.7194037191604
 10
76.52521699475759
 20
-140.7194037191604
 10
76.52521699475759
 20
-140.7194037191604
 10
76.55295001341385
 20
-140.7194037191604
 10
76.59549694265668
 20
-140.7173366618693
 10
76.66026473777939
 20
-140.7152696045781
 10
76.56225177122403
 20
-140.6412000516453
 10
76.5197048419812
 20
-140.5946912625944
 10
76.41773001561779
 20
-140.4782470351929
 97
        0
 97
        0
 92
        1
 93
        1
 72
     4
 94
        3
 73
     0
 74
     1
 95
       17
 96
       13
 40
0.0
 40
0.0
 40
0.0
 40
0.0
 40
1.0
 40
1.0
 40
1.0
 40
2.0
 40
2.0
 40
2.0
 40
3.0
 40
3.0
 40
3.0
 40
4.0
 40
4.0
 40
4.0
 40
4.0
 10
76.90848386749163
 20
-141.5338242918735
 10
76.78997258279904
 20
-141.4218586886029
 10
76.69747176902008
 20
-141.3584689316743
 10
76.59377439491406
 20
-141.2947346651972
 10
76.59377439491406
 20
-141.2947346651972
 10
76.7047064695391
 20
-141.1827690619265
 10
76.7047064695391
 20
-141.1827690619265
 10
76.81960040397219
 20
-141.2292778509774
 10
76.91589082278492
 20
-141.2864664360326
 10
77.02510034966734
 20
-141.3880967528474
 10
77.02510034966734
 20
-141.3880967528474
 10
76.90848386749163
 20
-141.5338242918735
 10
76.90848386749163
 20
-141.5338242918735
 97
        0
 97
        0
 75
     2
 76
     1
 98
        0
  0
SPLINE
  5
B5
330
A9
100
AcDbEntity
  8
_U+30EC_U+30A4_U+30E4_U+30FC 1
370
     0
100
AcDbSpline
210
0.0
220
0.0
230
1.0
 70
    11
 71
     3
 72
   113
 73
   109
 74
     0
 42
0.0000000001
 43
0.0000000001
 12
1.0
 22
0.0
 32
0.0
 13
1.0
 23
0.0
 33
0.0
 40
0.0
 40
0.0
 40
0.0
 40
0.0
 40
1.0
 40
1.0
 40
1.0
 40
2.0
 40
2.0
 40
2.0
 40
3.0
 40
3.0
 40
3.0
 40
4.0
 40
4.0
 40
4.0
 40
5.0
 40
5.0
 40
5.0
 40
6.0
 40
6.0
 40
6.0
 40
7.0
 40
7.0
 40
7.0
 40
8.0
 40
8.0
 40
8.0
 40
9.0
 40
9.0
 40
9.0
 40
10.0
 40
10.0
 40
10.0
 40
11.0
 40
11.0
 40
11.0
 40
12.0
 40
12.0
 40
12.0
 40
13.0
 40
13.0
 40
13.0
 40
14.0
 40
14.0
 40
14.0
 40
15.0
 40
15.0
 40
15.0
 40
16.0
 40
16.0
 40
16.0
 40
17.0
 40
17.0
 40
17.0
 40
18.0
 40
18.0
 40
18.0
 40
19.0
 40
19.0
 40
19.0
 40
20.0
 40
20.0
 40
20.0
 40
21.0
 40
21.0
 40
21.0
 40
22.0
 40
22.0
 40
22.0
 40
23.0
 40
23.0
 40
23.0
 40
24.0
 40
24.0
 40
24.0
 40
25.0
 40
25.0
 40
25.0
 40
26.0
 40
26.0
 40
26.0
 40
27.0
 40
27.0
 40
27.0
 40
28.0
 40
28.0
 40
28.0
 40
29.0
 40
29.0
 40
29.0
 40
30.0
 40
30.0
 40
30.0
 40
31.0
 40
31.0
 40
31.0
 40
32.0
 40
32.0
 40
32.0
 40
33.0
 40
33.0
 40
33.0
 40
34.0
 40
34.0
 40
34.0
 40
35.0
 40
35.0
 40
35.0
 40
36.0
 40
36.0
 40
36.0
 40
36.0
 10
78.5550672546668
 20
-141.5107421521223
 30
0.0
 10
78.5550672546668
 20
-141.5107421521223
 30
0.0
 10
78.64205591566935
 20
-141.6099609020975
 30
0.0
 10
78.64205591566935
 20
-141.6099609020975
 30
0.0
 10
78.65135767347952
 20
-141.6206406981018
 30
0.0
 10
78.6606594312897
 20
-141.6333875513972
 30
0.0
 10
78.6606594312897
 20
-141.6482014619838
 30
0.0
 10
78.6606594312897
 20
-141.6502685192749
 30
0.0
 10
78.6606594312897
 20
-141.6798963404481
 30
0.0
 10
78.62724200508278
 20
-141.6798963404481
 30
0.0
 10
78.61983504978949
 20
-141.6798963404481
 30
0.0
 10
78.58469507583995
 20
-141.6757622258658
 30
0.0
 10
78.57918292306354
 20
-141.6757622258658
 30
0.0
 10
78.54404294911399
 20
-141.7074571043301
 30
0.0
 10
78.50321856761379
 20
-141.7412190400855
 30
0.0
 10
78.41622990661122
 20
-141.7984076251407
 30
0.0
 10
78.54404294911399
 20
-141.906239113829
 30
0.0
 10
78.68288029716956
 20
-141.9634276988841
 30
0.0
 10
78.92179766907164
 20
-142.0013237492219
 30
0.0
 10
78.92179766907164
 20
-142.0013237492219
 30
0.0
 10
78.7901950215351
 20
-142.1770236189696
 30
0.0
 10
78.7901950215351
 20
-142.1770236189696
 30
0.0
 10
78.56057940744319
 20
-142.1050211233279
 30
0.0
 10
78.42363686190451
 20
-142.0161376598085
 30
0.0
 10
78.35697426426492
 20
-141.9634276988841
 30
0.0
 10
78.22554387150265
 20
-141.8617973820693
 30
0.0
 10
78.09962563151676
 20
-141.698844365617
 30
0.0
 10
78.03296303387718
 20
-141.5338242918735
 30
0.0
 10
77.97370739153088
 20
-141.5996256156418
 30
0.0
 10
77.90876734163392
 20
-141.6523355765661
 30
0.0
 10
77.84038219625171
 20
-141.7009114229081
 30
0.0
 10
77.84038219625171
 20
-141.7009114229081
 30
0.0
 10
77.84038219625171
 20
-141.9527479028799
 30
0.0
 10
77.84038219625171
 20
-141.9527479028799
 30
0.0
 10
77.98283689456679
 20
-141.927254196289
 30
0.0
 10
78.14578991101911
 20
-141.8828124645293
 30
0.0
 10
78.20142820310589
 20
-141.8679985539427
 30
0.0
 10
78.20142820310589
 20
-141.8679985539427
 30
0.0
 10
78.17541773219226
 20
-142.037497251817
 30
0.0
 10
78.17541773219226
 20
-142.037497251817
 30
0.0
 10
78.17369518444964
 20
-142.037497251817
 30
0.0
 10
78.15698647134617
 20
-142.0436984236905
 30
0.0
 10
78.15509166882929
 20
-142.0436984236905
 30
0.0
 10
77.98111434682417
 20
-142.0819389835767
 30
0.0
 10
77.70326739593877
 20
-142.1473957977965
 30
0.0
 10
77.53101262167628
 20
-142.1832247908431
 30
0.0
 10
77.52188311864036
 20
-142.2004502682693
 30
0.0
 10
77.50138480050313
 20
-142.2321451467336
 30
0.0
 10
77.48105873714016
 20
-142.2321451467336
 30
0.0
 10
77.45694306874341
 20
-142.2321451467336
 30
0.0
 10
77.4533257184839
 20
-142.2128526120162
 30
0.0
 10
77.45143091596701
 20
-142.1939045868474
 30
0.0
 10
77.45143091596701
 20
-142.1939045868474
 30
0.0
 10
77.42921005008715
 20
-142.0206162839393
 30
0.0
 10
77.42921005008715
 20
-142.0206162839393
 30
0.0
 10
77.49397784520984
 20
-142.0120035452262
 30
0.0
 10
77.58854571627995
 20
-141.9992566919308
 30
0.0
 10
77.6829413325758
 20
-141.9782416094707
 30
0.0
 10
77.6829413325758
 20
-141.9782416094707
 30
0.0
 10
77.6829413325758
 20
-141.8004746824318
 30
0.0
 10
77.6829413325758
 20
-141.8004746824318
 30
0.0
 10
77.55702309258992
 20
-141.8724771780736
 30
0.0
 10
77.47365178184687
 20
-141.9021049992467
 30
0.0
 10
77.3293022810149
 20
-141.9317328204199
 30
0.0
 10
77.3293022810149
 20
-141.9317328204199
 30
0.0
 10
77.223710104392
 20
-141.7622341225456
 30
0.0
 10
77.223710104392
 20
-141.7622341225456
 30
0.0
 10
77.50138480050313
 20
-141.7350178682121
 30
0.0
 10
77.67002222450611
 20
-141.6416557805618
 30
0.0
 10
77.82556828566514
 20
-141.5086750948312
 30
0.0
 10
77.69775524316238
 20
-141.5086750948312
 30
0.0
 10
77.43472220286354
 20
-141.5128092094135
 30
0.0
 10
77.26263968337531
 20
-141.5190103812869
 30
0.0
 10
77.26263968337531
 20
-141.5190103812869
 30
0.0
 10
77.26263968337531
 20
-141.341243454248
 30
0.0
 10
77.26263968337531
 20
-141.341243454248
 30
0.0
 10
77.39768742639711
 20
-141.34778913567
 30
0.0
 10
77.65693086166216
 20
-141.3539903075435
 30
0.0
 10
77.81816133037185
 20
-141.3539903075435
 30
0.0
 10
77.81816133037185
 20
-141.3539903075435
 30
0.0
 10
78.00333521270403
 20
-141.3539903075435
 30
0.0
 10
78.00333521270403
 20
-141.3539903075435
 30
0.0
 10
78.00333521270403
 20
-141.2589056721505
 30
0.0
 10
78.00144041018714
 20
-141.2082627685174
 30
0.0
 10
77.99592825741074
 20
-141.161409469918
 30
0.0
 10
77.99592825741074
 20
-141.161409469918
 30
0.0
 10
78.18471949000244
 20
-141.1786349473442
 30
0.0
 10
78.18471949000244
 20
-141.1786349473442
 30
0.0
 10
78.22726641924527
 20
-141.1827690619265
 30
0.0
 10
78.23467337453856
 20
-141.1975829725131
 30
0.0
 10
78.23467337453856
 20
-141.2123968830997
 30
0.0
 10
78.23467337453856
 20
-141.2378905896905
 30
0.0
 10
78.21985946395198
 20
-141.2461588188551
 30
0.0
 10
78.17541773219226
 20
-141.271652525446
 30
0.0
 10
78.17369518444964
 20
-141.2971462320368
 30
0.0
 10
78.17369518444964
 20
-141.3033474039103
 30
0.0
 10
78.17180038193275
 20
-141.3539903075435
 30
0.0
 10
78.17180038193275
 20
-141.3539903075435
 30
0.0
 10
78.37368297736839
 20
-141.3539903075435
 30
0.0
 10
78.37368297736839
 20
-141.3539903075435
 30
0.0
 10
78.51803247820035
 20
-141.3539903075435
 30
0.0
 10
78.7736585632059
 20
-141.34778913567
 30
0.0
 10
78.93092717210754
 20
-141.341243454248
 30
0.0
 10
78.93092717210754
 20
-141.341243454248
 30
0.0
 10
78.93092717210754
 20
-141.5190103812869
 30
0.0
 10
78.93092717210754
 20
-141.5190103812869
 30
0.0
 10
78.81810029496562
 20
-141.5148762667046
 30
0.0
 10
78.79760197682837
 20
-141.5148762667046
 30
0.0
 10
78.5550672546668
 20
-141.5107421521223
 30
0.0
  0
SPLINE
  5
B6
330
A9
100
AcDbEntity
  8
_U+30EC_U+30A4_U+30E4_U+30FC 1
370
     0
100
AcDbSpline
210
0.0
220
0.0
230
1.0
 70
    11
 71
     3
 72
    23
 73
    19
 74
     0
 42
0.0000000001
 43
0.0000000001
 12
1.0
 22
0.0
 32
0.0
 13
1.0
 23
0.0
 33
0.0
 40
0.0
 40
0.0
 40
0.0
 40
0.0
 40
1.0
 40
1.0
 40
1.0
 40
2.0
 40
2.0
 40
2.0
 40
3.0
 40
3.0
 40
3.0
 40
4.0
 40
4.0
 40
4.0
 40
5.0
 40
5.0
 40
5.0
 40
6.0
 40
6.0
 40
6.0
 40
6.0
 10
77.43110485260404
 20
-141.1593424126268
 30
0.0
 10
77.41629094201745
 20
-141.1996500298043
 30
0.0
 10
77.41077878924106
 20
-141.216530997682
 30
0.0
 10
77.39217527362071
 20
-141.216530997682
 30
0.0
 10
77.37925616555103
 20
-141.216530997682
 30
0.0
 10
77.36995440774085
 20
-141.1996500298043
 30
0.0
 10
77.36444225496444
 20
-141.1869031765088
 30
0.0
 10
77.36444225496444
 20
-141.1869031765088
 30
0.0
 10
77.2774535939619
 20
-141.0218831027654
 30
0.0
 10
77.2774535939619
 20
-141.0218831027654
 30
0.0
 10
77.36633705748133
 20
-140.9901882243011
 30
0.0
 10
77.49776745024361
 20
-140.9350666965371
 30
0.0
 10
77.67174477224873
 20
-140.7724581896333
 30
0.0
 10
77.67174477224873
 20
-140.7724581896333
 30
0.0
 10
77.72187091155912
 20
-140.9457464925414
 30
0.0
 10
77.72187091155912
 20
-140.9457464925414
 30
0.0
 10
77.64039440333296
 20
-141.0284287841874
 30
0.0
 10
77.56253524536632
 20
-141.085272859694
 30
0.0
 10
77.43110485260404
 20
-141.1593424126268
 30
0.0
  0
SPLINE
  5
B7
330
A9
100
AcDbEntity
  8
_U+30EC_U+30A4_U+30E4_U+30FC 1
370
     0
100
AcDbSpline
210
0.0
220
0.0
230
1.0
 70
    11
 71
     3
 72
    17
 73
    13
 74
     0
 42
0.0000000001
 43
0.0000000001
 12
1.0
 22
0.0
 32
0.0
 13
1.0
 23
0.0
 33
0.0
 40
0.0
 40
0.0
 40
0.0
 40
0.0
 40
1.0
 40
1.0
 40
1.0
 40
2.0
 40
2.0
 40
2.0
 40
3.0
 40
3.0
 40
3.0
 40
4.0
 40
4.0
 40
4.0
 40
4.0
 10
77.5644300478832
 20
-140.6939100125696
 30
0.0
 10
77.53841957696956
 20
-140.6539469049407
 30
0.0
 10
77.47916393462327
 20
-140.5564507027081
 30
0.0
 10
77.32000052320473
 20
-140.4465521567286
 30
0.0
 10
77.32000052320473
 20
-140.4465521567286
 30
0.0
 10
77.43110485260404
 20
-140.3132269614495
 30
0.0
 10
77.43110485260404
 20
-140.3132269614495
 30
0.0
 10
77.59405786905636
 20
-140.4148572782643
 30
0.0
 10
77.64401175359248
 20
-140.5037407417838
 30
0.0
 10
77.66812742198923
 20
-140.5461154162524
 30
0.0
 10
77.66812742198923
 20
-140.5461154162524
 30
0.0
 10
77.5644300478832
 20
-140.6939100125696
 30
0.0
 10
77.5644300478832
 20
-140.6939100125696
 30
0.0
  0
SPLINE
  5
B8
330
A9
100
AcDbEntity
  8
_U+30EC_U+30A4_U+30E4_U+30FC 1
370
     0
100
AcDbSpline
210
0.0
220
0.0
230
1.0
 70
    11
 71
     3
 72
    38
 73
    34
 74
     0
 42
0.0000000001
 43
0.0000000001
 12
1.0
 22
0.0
 32
0.0
 13
1.0
 23
0.0
 33
0.0
 40
0.0
 40
0.0
 40
0.0
 40
0.0
 40
1.0
 40
1.0
 40
1.0
 40
2.0
 40
2.0
 40
2.0
 40
3.0
 40
3.0
 40
3.0
 40
4.0
 40
4.0
 40
4.0
 40
5.0
 40
5.0
 40
5.0
 40
6.0
 40
6.0
 40
6.0
 40
7.0
 40
7.0
 40
7.0
 40
8.0
 40
8.0
 40
8.0
 40
9.0
 40
9.0
 40
9.0
 40
10.0
 40
10.0
 40
10.0
 40
11.0
 40
11.0
 40
11.0
 40
11.0
 10
77.88654647575406
 20
-140.3893635716735
 30
0.0
 10
77.88482392801144
 20
-140.4358723607244
 30
0.0
 10
77.88292912549456
 20
-140.5523165881258
 30
0.0
 10
77.88292912549456
 20
-140.5967583198855
 30
0.0
 10
77.88292912549456
 20
-140.5967583198855
 30
0.0
 10
77.88292912549456
 20
-140.9436794352502
 30
0.0
 10
77.88292912549456
 20
-140.9436794352502
 30
0.0
 10
77.88292912549456
 20
-141.0304958414785
 30
0.0
 10
77.88482392801144
 20
-141.1720892659223
 30
0.0
 10
77.89395343104735
 20
-141.292667607906
 30
0.0
 10
77.89395343104735
 20
-141.292667607906
 30
0.0
 10
77.72738306433551
 20
-141.292667607906
 30
0.0
 10
77.72738306433551
 20
-141.292667607906
 30
0.0
 10
77.73100041459503
 20
-141.2292778509774
 30
0.0
 10
77.7347900196288
 20
-141.1762233805046
 30
0.0
 10
77.73668482214569
 20
-141.1214463622891
 30
0.0
 10
77.73840736988832
 20
-140.9988009630142
 30
0.0
 10
77.74030217240521
 20
-140.9839870524276
 30
0.0
 10
77.74030217240521
 20
-140.9395453206679
 30
0.0
 10
77.74030217240521
 20
-140.9395453206679
 30
0.0
 10
77.74030217240521
 20
-140.6177734023456
 30
0.0
 10
77.74030217240521
 20
-140.6177734023456
 30
0.0
 10
77.74030217240521
 20
-140.5629963841301
 30
0.0
 10
77.7292778668524
 20
-140.3239067574538
 30
0.0
 10
77.72738306433551
 20
-140.2729193442721
 30
0.0
 10
77.72738306433551
 20
-140.2729193442721
 30
0.0
 10
77.90325518885753
 20
-140.3004801081541
 30
0.0
 10
77.90325518885753
 20
-140.3004801081541
 30
0.0
 10
77.92185870447787
 20
-140.3025471654452
 30
0.0
 10
77.94959172313413
 20
-140.307025789576
 30
0.0
 10
77.94959172313413
 20
-140.3321749866184
 30
0.0
 10
77.94959172313413
 20
-140.3597357505004
 30
0.0
 10
77.90514999137442
 20
-140.3810953425089
 30
0.0
 10
77.88654647575406
 20
-140.3893635716735
 30
0.0
  0
SPLINE
  5
B9
330
A9
100
AcDbEntity
  8
_U+30EC_U+30A4_U+30E4_U+30FC 1
370
     0
100
AcDbSpline
210
0.0
220
0.0
230
1.0
 70
    11
 71
     3
 72
    83
 73
    79
 74
     0
 42
0.0000000001
 43
0.0000000001
 12
1.0
 22
0.0
 32
0.0
 13
1.0
 23
0.0
 33
0.0
 40
0.0
 40
0.0
 40
0.0
 40
0.0
 40
1.0
 40
1.0
 40
1.0
 40
2.0
 40
2.0
 40
2.0
 40
3.0
 40
3.0
 40
3.0
 40
4.0
 40
4.0
 40
4.0
 40
5.0
 40
5.0
 40
5.0
 40
6.0
 40
6.0
 40
6.0
 40
7.0
 40
7.0
 40
7.0
 40
8.0
 40
8.0
 40
8.0
 40
9.0
 40
9.0
 40
9.0
 40
10.0
 40
10.0
 40
10.0
 40
11.0
 40
11.0
 40
11.0
 40
12.0
 40
12.0
 40
12.0
 40
13.0
 40
13.0
 40
13.0
 40
14.0
 40
14.0
 40
14.0
 40
15.0
 40
15.0
 40
15.0
 40
16.0
 40
16.0
 40
16.0
 40
17.0
 40
17.0
 40
17.0
 40
18.0
 40
18.0
 40
18.0
 40
19.0
 40
19.0
 40
19.0
 40
20.0
 40
20.0
 40
20.0
 40
21.0
 40
21.0
 40
21.0
 40
22.0
 40
22.0
 40
22.0
 40
23.0
 40
23.0
 40
23.0
 40
24.0
 40
24.0
 40
24.0
 40
25.0
 40
25.0
 40
25.0
 40
26.0
 40
26.0
 40
26.0
 40
26.0
 10
78.58848468087372
 20
-140.7111354899958
 30
0.0
 10
78.58848468087372
 20
-140.7111354899958
 30
0.0
 10
78.50321856761379
 20
-140.7111354899958
 30
0.0
 10
78.50321856761379
 20
-140.7111354899958
 30
0.0
 10
78.50321856761379
 20
-140.7111354899958
 30
0.0
 10
78.50321856761379
 20
-140.9584933458368
 30
0.0
 10
78.50321856761379
 20
-140.9584933458368
 30
0.0
 10
78.50321856761379
 20
-140.9584933458368
 30
0.0
 10
78.57539331802977
 20
-140.9584933458368
 30
0.0
 10
78.57539331802977
 20
-140.9584933458368
 30
0.0
 10
78.63292641263344
 20
-140.9584933458368
 30
0.0
 10
78.75505504758554
 20
-140.9543592312545
 30
0.0
 10
78.84204370858811
 20
-140.9457464925414
 30
0.0
 10
78.84204370858811
 20
-140.9457464925414
 30
0.0
 10
78.84204370858811
 20
-141.1255804768714
 30
0.0
 10
78.84204370858811
 20
-141.1255804768714
 30
0.0
 10
78.76056720036195
 20
-141.1173122477068
 30
0.0
 10
78.62913680759966
 20
-141.112833623576
 30
0.0
 10
78.57539331802977
 20
-141.112833623576
 30
0.0
 10
78.57539331802977
 20
-141.112833623576
 30
0.0
 10
78.30874292747143
 20
-141.112833623576
 30
0.0
 10
78.30874292747143
 20
-141.112833623576
 30
0.0
 10
78.26257864796908
 20
-141.112833623576
 30
0.0
 10
78.13476560546631
 20
-141.1173122477068
 30
0.0
 10
78.04209253691309
 20
-141.1255804768714
 30
0.0
 10
78.04209253691309
 20
-141.1255804768714
 30
0.0
 10
78.04209253691309
 20
-140.9457464925414
 30
0.0
 10
78.04209253691309
 20
-140.9457464925414
 30
0.0
 10
78.12925345268991
 20
-140.9543592312545
 30
0.0
 10
78.25138208764201
 20
-140.9584933458368
 30
0.0
 10
78.30874292747143
 20
-140.9584933458368
 30
0.0
 10
78.30874292747143
 20
-140.9584933458368
 30
0.0
 10
78.34767250645476
 20
-140.9584933458368
 30
0.0
 10
78.34767250645476
 20
-140.9584933458368
 30
0.0
 10
78.34767250645476
 20
-140.9584933458368
 30
0.0
 10
78.34767250645476
 20
-140.7111354899958
 30
0.0
 10
78.34767250645476
 20
-140.7111354899958
 30
0.0
 10
78.34767250645476
 20
-140.7111354899958
 30
0.0
 10
78.28290471133205
 20
-140.7111354899958
 30
0.0
 10
78.28290471133205
 20
-140.7111354899958
 30
0.0
 10
78.22916122176215
 20
-140.7111354899958
 30
0.0
 10
78.0829169184133
 20
-140.7152696045781
 30
0.0
 10
77.9773247417904
 20
-140.7235378337427
 30
0.0
 10
77.9773247417904
 20
-140.7235378337427
 30
0.0
 10
77.9773247417904
 20
-140.5461154162524
 30
0.0
 10
77.9773247417904
 20
-140.5461154162524
 30
0.0
 10
78.0774047656369
 20
-140.5523165881258
 30
0.0
 10
78.21624211369247
 20
-140.5564507027081
 30
0.0
 10
78.28290471133205
 20
-140.5564507027081
 30
0.0
 10
78.28290471133205
 20
-140.5564507027081
 30
0.0
 10
78.34577770393787
 20
-140.5564507027081
 30
0.0
 10
78.34577770393787
 20
-140.5564507027081
 30
0.0
 10
78.34216035367835
 20
-140.4041774822601
 30
0.0
 10
78.34026555116147
 20
-140.3704155465046
 30
0.0
 10
78.33475339838506
 20
-140.2773979684029
 30
0.0
 10
78.33475339838506
 20
-140.2773979684029
 30
0.0
 10
78.51992728071724
 20
-140.3004801081541
 30
0.0
 10
78.51992728071724
 20
-140.3004801081541
 30
0.0
 10
78.5421481465971
 20
-140.3025471654452
 30
0.0
 10
78.56247420996009
 20
-140.307025789576
 30
0.0
 10
78.56247420996009
 20
-140.3301079293272
 30
0.0
 10
78.56247420996009
 20
-140.3618028077915
 30
0.0
 10
78.52354463097676
 20
-140.3786837756692
 30
0.0
 10
78.50321856761379
 20
-140.3872965143823
 30
0.0
 10
78.50321856761379
 20
-140.3872965143823
 30
0.0
 10
78.50321856761379
 20
-140.5564507027081
 30
0.0
 10
78.50321856761379
 20
-140.5564507027081
 30
0.0
 10
78.50321856761379
 20
-140.5564507027081
 30
0.0
 10
78.58848468087372
 20
-140.5564507027081
 30
0.0
 10
78.58848468087372
 20
-140.5564507027081
 30
0.0
 10
78.6551472785133
 20
-140.5564507027081
 30
0.0
 10
78.79398462656887
 20
-140.5523165881258
 30
0.0
 10
78.895787198158
 20
-140.5461154162524
 30
0.0
 10
78.895787198158
 20
-140.5461154162524
 30
0.0
 10
78.895787198158
 20
-140.7235378337427
 30
0.0
 10
78.895787198158
 20
-140.7235378337427
 30
0.0
 10
78.80139158186216
 20
-140.7173366618693
 30
0.0
 10
78.64946287096264
 20
-140.7111354899958
 30
0.0
 10
78.58848468087372
 20
-140.7111354899958
 30
0.0
  0
SPLINE
  5
BA
330
A9
100
AcDbEntity
  8
_U+30EC_U+30A4_U+30E4_U+30FC 1
370
     0
100
AcDbSpline
210
0.0
220
0.0
230
1.0
 70
    11
 71
     3
 72
    17
 73
    13
 74
     0
 42
0.0000000001
 43
0.0000000001
 12
1.0
 22
0.0
 32
0.0
 13
1.0
 23
0.0
 33
0.0
 40
0.0
 40
0.0
 40
0.0
 40
0.0
 40
1.0
 40
1.0
 40
1.0
 40
2.0
 40
2.0
 40
2.0
 40
3.0
 40
3.0
 40
3.0
 40
4.0
 40
4.0
 40
4.0
 40
4.0
 10
78.37368297736839
 20
-141.5086750948312
 30
0.0
 10
78.37368297736839
 20
-141.5086750948312
 30
0.0
 10
78.1959160503295
 20
-141.5086750948312
 30
0.0
 10
78.1959160503295
 20
-141.5086750948312
 30
0.0
 10
78.21985946395198
 20
-141.5679307371775
 30
0.0
 10
78.26809080074548
 20
-141.6395887232707
 30
0.0
 10
78.29220646914223
 20
-141.6692165444438
 30
0.0
 10
78.31614988276472
 20
-141.6544026338572
 30
0.0
 10
78.41622990661122
 20
-141.5910128769286
 30
0.0
 10
78.4958116123205
 20
-141.5086750948312
 30
0.0
 10
78.4958116123205
 20
-141.5086750948312
 30
0.0
 10
78.37368297736839
 20
-141.5086750948312
 30
0.0
 10
78.37368297736839
 20
-141.5086750948312
 30
0.0
  0
HATCH
  5
BB
330
A9
100
AcDbEntity
  8
_U+30EC_U+30A4_U+30E4_U+30FC 1
 62
   179
420
  2234388
100
AcDbHatch
 10
0.0
 20
0.0
 30
0.0
210
0.0
220
0.0
230
1.0
  2
SOLID
 70
     1
 71
     0
 91
        6
 92
        1
 93
        1
 72
     4
 94
        3
 73
     0
 74
     1
 95
      113
 96
      109
 40
0.0
 40
0.0
 40
0.0
 40
0.0
 40
1.0
 40
1.0
 40
1.0
 40
2.0
 40
2.0
 40
2.0
 40
3.0
 40
3.0
 40
3.0
 40
4.0
 40
4.0
 40
4.0
 40
5.0
 40
5.0
 40
5.0
 40
6.0
 40
6.0
 40
6.0
 40
7.0
 40
7.0
 40
7.0
 40
8.0
 40
8.0
 40
8.0
 40
9.0
 40
9.0
 40
9.0
 40
10.0
 40
10.0
 40
10.0
 40
11.0
 40
11.0
 40
11.0
 40
12.0
 40
12.0
 40
12.0
 40
13.0
 40
13.0
 40
13.0
 40
14.0
 40
14.0
 40
14.0
 40
15.0
 40
15.0
 40
15.0
 40
16.0
 40
16.0
 40
16.0
 40
17.0
 40
17.0
 40
17.0
 40
18.0
 40
18.0
 40
18.0
 40
19.0
 40
19.0
 40
19.0
 40
20.0
 40
20.0
 40
20.0
 40
21.0
 40
21.0
 40
21.0
 40
22.0
 40
22.0
 40
22.0
 40
23.0
 40
23.0
 40
23.0
 40
24.0
 40
24.0
 40
24.0
 40
25.0
 40
25.0
 40
25.0
 40
26.0
 40
26.0
 40
26.0
 40
27.0
 40
27.0
 40
27.0
 40
28.0
 40
28.0
 40
28.0
 40
29.0
 40
29.0
 40
29.0
 40
30.0
 40
30.0
 40
30.0
 40
31.0
 40
31.0
 40
31.0
 40
32.0
 40
32.0
 40
32.0
 40
33.0
 40
33.0
 40
33.0
 40
34.0
 40
34.0
 40
34.0
 40
35.0
 40
35.0
 40
35.0
 40
36.0
 40
36.0
 40
36.0
 40
36.0
 10
78.5550672546668
 20
-141.5107421521223
 10
78.5550672546668
 20
-141.5107421521223
 10
78.64205591566935
 20
-141.6099609020975
 10
78.64205591566935
 20
-141.6099609020975
 10
78.65135767347952
 20
-141.6206406981018
 10
78.6606594312897
 20
-141.6333875513972
 10
78.6606594312897
 20
-141.6482014619838
 10
78.6606594312897
 20
-141.6502685192749
 10
78.6606594312897
 20
-141.6798963404481
 10
78.62724200508278
 20
-141.6798963404481
 10
78.61983504978949
 20
-141.6798963404481
 10
78.58469507583995
 20
-141.6757622258658
 10
78.57918292306354
 20
-141.6757622258658
 10
78.54404294911399
 20
-141.7074571043301
 10
78.50321856761379
 20
-141.7412190400855
 10
78.41622990661122
 20
-141.7984076251407
 10
78.54404294911399
 20
-141.906239113829
 10
78.68288029716956
 20
-141.9634276988841
 10
78.92179766907164
 20
-142.0013237492219
 10
78.92179766907164
 20
-142.0013237492219
 10
78.7901950215351
 20
-142.1770236189696
 10
78.7901950215351
 20
-142.1770236189696
 10
78.56057940744319
 20
-142.1050211233279
 10
78.42363686190451
 20
-142.0161376598085
 10
78.35697426426492
 20
-141.9634276988841
 10
78.22554387150265
 20
-141.8617973820693
 10
78.09962563151676
 20
-141.698844365617
 10
78.03296303387718
 20
-141.5338242918735
 10
77.97370739153088
 20
-141.5996256156418
 10
77.90876734163392
 20
-141.6523355765661
 10
77.84038219625171
 20
-141.7009114229081
 10
77.84038219625171
 20
-141.7009114229081
 10
77.84038219625171
 20
-141.9527479028799
 10
77.84038219625171
 20
-141.9527479028799
 10
77.98283689456679
 20
-141.927254196289
 10
78.14578991101911
 20
-141.8828124645293
 10
78.20142820310589
 20
-141.8679985539427
 10
78.20142820310589
 20
-141.8679985539427
 10
78.17541773219226
 20
-142.037497251817
 10
78.17541773219226
 20
-142.037497251817
 10
78.17369518444964
 20
-142.037497251817
 10
78.15698647134617
 20
-142.0436984236905
 10
78.15509166882929
 20
-142.0436984236905
 10
77.98111434682417
 20
-142.0819389835767
 10
77.70326739593877
 20
-142.1473957977965
 10
77.53101262167628
 20
-142.1832247908431
 10
77.52188311864036
 20
-142.2004502682693
 10
77.50138480050313
 20
-142.2321451467336
 10
77.48105873714016
 20
-142.2321451467336
 10
77.45694306874341
 20
-142.2321451467336
 10
77.4533257184839
 20
-142.2128526120162
 10
77.45143091596701
 20
-142.1939045868474
 10
77.45143091596701
 20
-142.1939045868474
 10
77.42921005008715
 20
-142.0206162839393
 10
77.42921005008715
 20
-142.0206162839393
 10
77.49397784520984
 20
-142.0120035452262
 10
77.58854571627995
 20
-141.9992566919308
 10
77.6829413325758
 20
-141.9782416094707
 10
77.6829413325758
 20
-141.9782416094707
 10
77.6829413325758
 20
-141.8004746824318
 10
77.6829413325758
 20
-141.8004746824318
 10
77.55702309258992
 20
-141.8724771780736
 10
77.47365178184687
 20
-141.9021049992467
 10
77.3293022810149
 20
-141.9317328204199
 10
77.3293022810149
 20
-141.9317328204199
 10
77.223710104392
 20
-141.7622341225456
 10
77.223710104392
 20
-141.7622341225456
 10
77.50138480050313
 20
-141.7350178682121
 10
77.67002222450611
 20
-141.6416557805618
 10
77.82556828566514
 20
-141.5086750948312
 10
77.69775524316238
 20
-141.5086750948312
 10
77.43472220286354
 20
-141.5128092094135
 10
77.26263968337531
 20
-141.5190103812869
 10
77.26263968337531
 20
-141.5190103812869
 10
77.26263968337531
 20
-141.341243454248
 10
77.26263968337531
 20
-141.341243454248
 10
77.39768742639711
 20
-141.34778913567
 10
77.65693086166216
 20
-141.3539903075435
 10
77.81816133037185
 20
-141.3539903075435
 10
77.81816133037185
 20
-141.3539903075435
 10
78.00333521270403
 20
-141.3539903075435
 10
78.00333521270403
 20
-141.3539903075435
 10
78.00333521270403
 20
-141.2589056721505
 10
78.00144041018714
 20
-141.2082627685174
 10
77.99592825741074
 20
-141.161409469918
 10
77.99592825741074
 20
-141.161409469918
 10
78.18471949000244
 20
-141.1786349473442
 10
78.18471949000244
 20
-141.1786349473442
 10
78.22726641924527
 20
-141.1827690619265
 10
78.23467337453856
 20
-141.1975829725131
 10
78.23467337453856
 20
-141.2123968830997
 10
78.23467337453856
 20
-141.2378905896905
 10
78.21985946395198
 20
-141.2461588188551
 10
78.17541773219226
 20
-141.271652525446
 10
78.17369518444964
 20
-141.2971462320368
 10
78.17369518444964
 20
-141.3033474039103
 10
78.17180038193275
 20
-141.3539903075435
 10
78.17180038193275
 20
-141.3539903075435
 10
78.37368297736839
 20
-141.3539903075435
 10
78.37368297736839
 20
-141.3539903075435
 10
78.51803247820035
 20
-141.3539903075435
 10
78.7736585632059
 20
-141.34778913567
 10
78.93092717210754
 20
-141.341243454248
 10
78.93092717210754
 20
-141.341243454248
 10
78.93092717210754
 20
-141.5190103812869
 10
78.93092717210754
 20
-141.5190103812869
 10
78.81810029496562
 20
-141.5148762667046
 10
78.79760197682837
 20
-141.5148762667046
 10
78.5550672546668
 20
-141.5107421521223
 97
        0
 97
        0
 92
        1
 93
        1
 72
     4
 94
        3
 73
     0
 74
     1
 95
       23
 96
       19
 40
0.0
 40
0.0
 40
0.0
 40
0.0
 40
1.0
 40
1.0
 40
1.0
 40
2.0
 40
2.0
 40
2.0
 40
3.0
 40
3.0
 40
3.0
 40
4.0
 40
4.0
 40
4.0
 40
5.0
 40
5.0
 40
5.0
 40
6.0
 40
6.0
 40
6.0
 40
6.0
 10
77.43110485260404
 20
-141.1593424126268
 10
77.41629094201745
 20
-141.1996500298043
 10
77.41077878924106
 20
-141.216530997682
 10
77.39217527362071
 20
-141.216530997682
 10
77.37925616555103
 20
-141.216530997682
 10
77.36995440774085
 20
-141.1996500298043
 10
77.36444225496444
 20
-141.1869031765088
 10
77.36444225496444
 20
-141.1869031765088
 10
77.2774535939619
 20
-141.0218831027654
 10
77.2774535939619
 20
-141.0218831027654
 10
77.36633705748133
 20
-140.9901882243011
 10
77.49776745024361
 20
-140.9350666965371
 10
77.67174477224873
 20
-140.7724581896333
 10
77.67174477224873
 20
-140.7724581896333
 10
77.72187091155912
 20
-140.9457464925414
 10
77.72187091155912
 20
-140.9457464925414
 10
77.64039440333296
 20
-141.0284287841874
 10
77.56253524536632
 20
-141.085272859694
 10
77.43110485260404
 20
-141.1593424126268
 97
        0
 97
        0
 92
        1
 93
        1
 72
     4
 94
        3
 73
     0
 74
     1
 95
       17
 96
       13
 40
0.0
 40
0.0
 40
0.0
 40
0.0
 40
1.0
 40
1.0
 40
1.0
 40
2.0
 40
2.0
 40
2.0
 40
3.0
 40
3.0
 40
3.0
 40
4.0
 40
4.0
 40
4.0
 40
4.0
 10
77.5644300478832
 20
-140.6939100125696
 10
77.53841957696956
 20
-140.6539469049407
 10
77.47916393462327
 20
-140.5564507027081
 10
77.32000052320473
 20
-140.4465521567286
 10
77.32000052320473
 20
-140.4465521567286
 10
77.43110485260404
 20
-140.3132269614495
 10
77.43110485260404
 20
-140.3132269614495
 10
77.59405786905636
 20
-140.4148572782643
 10
77.64401175359248
 20
-140.5037407417838
 10
77.66812742198923
 20
-140.5461154162524
 10
77.66812742198923
 20
-140.5461154162524
 10
77.5644300478832
 20
-140.6939100125696
 10
77.5644300478832
 20
-140.6939100125696
 97
        0
 97
        0
 92
        1
 93
        1
 72
     4
 94
        3
 73
     0
 74
     1
 95
       38
 96
       34
 40
0.0
 40
0.0
 40
0.0
 40
0.0
 40
1.0
 40
1.0
 40
1.0
 40
2.0
 40
2.0
 40
2.0
 40
3.0
 40
3.0
 40
3.0
 40
4.0
 40
4.0
 40
4.0
 40
5.0
 40
5.0
 40
5.0
 40
6.0
 40
6.0
 40
6.0
 40
7.0
 40
7.0
 40
7.0
 40
8.0
 40
8.0
 40
8.0
 40
9.0
 40
9.0
 40
9.0
 40
10.0
 40
10.0
 40
10.0
 40
11.0
 40
11.0
 40
11.0
 40
11.0
 10
77.88654647575406
 20
-140.3893635716735
 10
77.88482392801144
 20
-140.4358723607244
 10
77.88292912549456
 20
-140.5523165881258
 10
77.88292912549456
 20
-140.5967583198855
 10
77.88292912549456
 20
-140.5967583198855
 10
77.88292912549456
 20
-140.9436794352502
 10
77.88292912549456
 20
-140.9436794352502
 10
77.88292912549456
 20
-141.0304958414785
 10
77.88482392801144
 20
-141.1720892659223
 10
77.89395343104735
 20
-141.292667607906
 10
77.89395343104735
 20
-141.292667607906
 10
77.72738306433551
 20
-141.292667607906
 10
77.72738306433551
 20
-141.292667607906
 10
77.73100041459503
 20
-141.2292778509774
 10
77.7347900196288
 20
-141.1762233805046
 10
77.73668482214569
 20
-141.1214463622891
 10
77.73840736988832
 20
-140.9988009630142
 10
77.74030217240521
 20
-140.9839870524276
 10
77.74030217240521
 20
-140.9395453206679
 10
77.74030217240521
 20
-140.9395453206679
 10
77.74030217240521
 20
-140.6177734023456
 10
77.74030217240521
 20
-140.6177734023456
 10
77.74030217240521
 20
-140.5629963841301
 10
77.7292778668524
 20
-140.3239067574538
 10
77.72738306433551
 20
-140.2729193442721
 10
77.72738306433551
 20
-140.2729193442721
 10
77.90325518885753
 20
-140.3004801081541
 10
77.90325518885753
 20
-140.3004801081541
 10
77.92185870447787
 20
-140.3025471654452
 10
77.94959172313413
 20
-140.307025789576
 10
77.94959172313413
 20
-140.3321749866184
 10
77.94959172313413
 20
-140.3597357505004
 10
77.90514999137442
 20
-140.3810953425089
 10
77.88654647575406
 20
-140.3893635716735
 97
        0
 97
        0
 92
        1
 93
        1
 72
     4
 94
        3
 73
     0
 74
     1
 95
       83
 96
       79
 40
0.0
 40
0.0
 40
0.0
 40
0.0
 40
1.0
 40
1.0
 40
1.0
 40
2.0
 40
2.0
 40
2.0
 40
3.0
 40
3.0
 40
3.0
 40
4.0
 40
4.0
 40
4.0
 40
5.0
 40
5.0
 40
5.0
 40
6.0
 40
6.0
 40
6.0
 40
7.0
 40
7.0
 40
7.0
 40
8.0
 40
8.0
 40
8.0
 40
9.0
 40
9.0
 40
9.0
 40
10.0
 40
10.0
 40
10.0
 40
11.0
 40
11.0
 40
11.0
 40
12.0
 40
12.0
 40
12.0
 40
13.0
 40
13.0
 40
13.0
 40
14.0
 40
14.0
 40
14.0
 40
15.0
 40
15.0
 40
15.0
 40
16.0
 40
16.0
 40
16.0
 40
17.0
 40
17.0
 40
17.0
 40
18.0
 40
18.0
 40
18.0
 40
19.0
 40
19.0
 40
19.0
 40
20.0
 40
20.0
 40
20.0
 40
21.0
 40
21.0
 40
21.0
 40
22.0
 40
22.0
 40
22.0
 40
23.0
 40
23.0
 40
23.0
 40
24.0
 40
24.0
 40
24.0
 40
25.0
 40
25.0
 40
25.0
 40
26.0
 40
26.0
 40
26.0
 40
26.0
 10
78.58848468087372
 20
-140.7111354899958
 10
78.58848468087372
 20
-140.7111354899958
 10
78.50321856761379
 20
-140.7111354899958
 10
78.50321856761379
 20
-140.7111354899958
 10
78.50321856761379
 20
-140.7111354899958
 10
78.50321856761379
 20
-140.9584933458368
 10
78.50321856761379
 20
-140.9584933458368
 10
78.50321856761379
 20
-140.9584933458368
 10
78.57539331802977
 20
-140.9584933458368
 10
78.57539331802977
 20
-140.9584933458368
 10
78.63292641263344
 20
-140.9584933458368
 10
78.75505504758554
 20
-140.9543592312545
 10
78.84204370858811
 20
-140.9457464925414
 10
78.84204370858811
 20
-140.9457464925414
 10
78.84204370858811
 20
-141.1255804768714
 10
78.84204370858811
 20
-141.1255804768714
 10
78.76056720036195
 20
-141.1173122477068
 10
78.62913680759966
 20
-141.112833623576
 10
78.57539331802977
 20
-141.112833623576
 10
78.57539331802977
 20
-141.112833623576
 10
78.30874292747143
 20
-141.112833623576
 10
78.30874292747143
 20
-141.112833623576
 10
78.26257864796908
 20
-141.112833623576
 10
78.13476560546631
 20
-141.1173122477068
 10
78.04209253691309
 20
-141.1255804768714
 10
78.04209253691309
 20
-141.1255804768714
 10
78.04209253691309
 20
-140.9457464925414
 10
78.04209253691309
 20
-140.9457464925414
 10
78.12925345268991
 20
-140.9543592312545
 10
78.25138208764201
 20
-140.9584933458368
 10
78.30874292747143
 20
-140.9584933458368
 10
78.30874292747143
 20
-140.9584933458368
 10
78.34767250645476
 20
-140.9584933458368
 10
78.34767250645476
 20
-140.9584933458368
 10
78.34767250645476
 20
-140.9584933458368
 10
78.34767250645476
 20
-140.7111354899958
 10
78.34767250645476
 20
-140.7111354899958
 10
78.34767250645476
 20
-140.7111354899958
 10
78.28290471133205
 20
-140.7111354899958
 10
78.28290471133205
 20
-140.7111354899958
 10
78.22916122176215
 20
-140.7111354899958
 10
78.0829169184133
 20
-140.7152696045781
 10
77.9773247417904
 20
-140.7235378337427
 10
77.9773247417904
 20
-140.7235378337427
 10
77.9773247417904
 20
-140.5461154162524
 10
77.9773247417904
 20
-140.5461154162524
 10
78.0774047656369
 20
-140.5523165881258
 10
78.21624211369247
 20
-140.5564507027081
 10
78.28290471133205
 20
-140.5564507027081
 10
78.28290471133205
 20
-140.5564507027081
 10
78.34577770393787
 20
-140.5564507027081
 10
78.34577770393787
 20
-140.5564507027081
 10
78.34216035367835
 20
-140.4041774822601
 10
78.34026555116147
 20
-140.3704155465046
 10
78.33475339838506
 20
-140.2773979684029
 10
78.33475339838506
 20
-140.2773979684029
 10
78.51992728071724
 20
-140.3004801081541
 10
78.51992728071724
 20
-140.3004801081541
 10
78.5421481465971
 20
-140.3025471654452
 10
78.56247420996009
 20
-140.307025789576
 10
78.56247420996009
 20
-140.3301079293272
 10
78.56247420996009
 20
-140.3618028077915
 10
78.52354463097676
 20
-140.3786837756692
 10
78.50321856761379
 20
-140.3872965143823
 10
78.50321856761379
 20
-140.3872965143823
 10
78.50321856761379
 20
-140.5564507027081
 10
78.50321856761379
 20
-140.5564507027081
 10
78.50321856761379
 20
-140.5564507027081
 10
78.58848468087372
 20
-140.5564507027081
 10
78.58848468087372
 20
-140.5564507027081
 10
78.6551472785133
 20
-140.5564507027081
 10
78.79398462656887
 20
-140.5523165881258
 10
78.895787198158
 20
-140.5461154162524
 10
78.895787198158
 20
-140.5461154162524
 10
78.895787198158
 20
-140.7235378337427
 10
78.895787198158
 20
-140.7235378337427
 10
78.80139158186216
 20
-140.7173366618693
 10
78.64946287096264
 20
-140.7111354899958
 10
78.58848468087372
 20
-140.7111354899958
 97
        0
 97
        0
 92
        1
 93
        1
 72
     4
 94
        3
 73
     0
 74
     1
 95
       17
 96
       13
 40
0.0
 40
0.0
 40
0.0
 40
0.0
 40
1.0
 40
1.0
 40
1.0
 40
2.0
 40
2.0
 40
2.0
 40
3.0
 40
3.0
 40
3.0
 40
4.0
 40
4.0
 40
4.0
 40
4.0
 10
78.37368297736839
 20
-141.5086750948312
 10
78.37368297736839
 20
-141.5086750948312
 10
78.1959160503295
 20
-141.5086750948312
 10
78.1959160503295
 20
-141.5086750948312
 10
78.21985946395198
 20
-141.5679307371775
 10
78.26809080074548
 20
-141.6395887232707
 10
78.29220646914223
 20
-141.6692165444438
 10
78.31614988276472
 20
-141.6544026338572
 10
78.41622990661122
 20
-141.5910128769286
 10
78.4958116123205
 20
-141.5086750948312
 10
78.4958116123205
 20
-141.5086750948312
 10
78.37368297736839
 20
-141.5086750948312
 10
78.37368297736839
 20
-141.5086750948312
 97
        0
 97
        0
 75
     2
 76
     1
 98
        0
  0
SPLINE
  5
BC
330
A9
100
AcDbEntity
  8
_U+30EC_U+30A4_U+30E4_U+30FC 1
370
     0
100
AcDbSpline
210
0.0
220
0.0
230
1.0
 70
    11
 71
     3
 72
    77
 73
    73
 74
     0
 42
0.0000000001
 43
0.0000000001
 12
1.0
 22
0.0
 32
0.0
 13
1.0
 23
0.0
 33
0.0
 40
0.0
 40
0.0
 40
0.0
 40
0.0
 40
1.0
 40
1.0
 40
1.0
 40
2.0
 40
2.0
 40
2.0
 40
3.0
 40
3.0
 40
3.0
 40
4.0
 40
4.0
 40
4.0
 40
5.0
 40
5.0
 40
5.0
 40
6.0
 40
6.0
 40
6.0
 40
7.0
 40
7.0
 40
7.0
 40
8.0
 40
8.0
 40
8.0
 40
9.0
 40
9.0
 40
9.0
 40
10.0
 40
10.0
 40
10.0
 40
11.0
 40
11.0
 40
11.0
 40
12.0
 40
12.0
 40
12.0
 40
13.0
 40
13.0
 40
13.0
 40
14.0
 40
14.0
 40
14.0
 40
15.0
 40
15.0
 40
15.0
 40
16.0
 40
16.0
 40
16.0
 40
17.0
 40
17.0
 40
17.0
 40
18.0
 40
18.0
 40
18.0
 40
19.0
 40
19.0
 40
19.0
 40
20.0
 40
20.0
 40
20.0
 40
21.0
 40
21.0
 40
21.0
 40
22.0
 40
22.0
 40
22.0
 40
23.0
 40
23.0
 40
23.0
 40
24.0
 40
24.0
 40
24.0
 40
24.0
 10
80.55528969340284
 20
-142.1387830590834
 30
0.0
 10
80.5146375666769
 20
-142.1642767656742
 30
0.0
 10
80.40542803979449
 20
-142.1770236189696
 30
0.0
 10
80.33687063963801
 20
-142.1770236189696
 30
0.0
 10
80.32567407931094
 20
-142.1770236189696
 30
0.0
 10
80.30345321343108
 20
-142.1770236189696
 30
0.0
 10
80.27382539225793
 20
-142.1728895043873
 30
0.0
 10
80.27382539225793
 20
-142.1728895043873
 30
0.0
 10
80.18873153377227
 20
-141.9465467310064
 30
0.0
 10
80.18873153377227
 20
-141.9465467310064
 30
0.0
 10
80.21456974991163
 20
-141.9527479028799
 30
0.0
 10
80.26469588922203
 20
-141.961360641593
 30
0.0
 10
80.36649846081116
 20
-141.961360641593
 30
0.0
 10
80.43505586096762
 20
-141.961360641593
 30
0.0
 10
80.43677840871025
 20
-141.9189859671244
 30
0.0
 10
80.43677840871025
 20
-141.8617973820693
 30
0.0
 10
80.43677840871025
 20
-141.8617973820693
 30
0.0
 10
80.43677840871025
 20
-141.5128092094135
 30
0.0
 10
80.43677840871025
 20
-141.5128092094135
 30
0.0
 10
80.43677840871025
 20
-141.5128092094135
 30
0.0
 10
80.03508027513013
 20
-141.5128092094135
 30
0.0
 10
80.03508027513013
 20
-141.5128092094135
 30
0.0
 10
80.03680282287274
 20
-141.6502685192749
 30
0.0
 10
80.03869762538963
 20
-141.8490505287739
 30
0.0
 10
80.04420977816604
 20
-141.982375724053
 30
0.0
 10
80.04610458068292
 20
-142.009936487935
 30
0.0
 10
80.04610458068292
 20
-142.0543782196947
 30
0.0
 10
80.05730114100999
 20
-142.1157009193322
 30
0.0
 10
80.05730114100999
 20
-142.1157009193322
 30
0.0
 10
79.84611678776417
 20
-142.1157009193322
 30
0.0
 10
79.84611678776417
 20
-142.1157009193322
 30
0.0
 10
79.86833765364403
 20
-141.9909884627662
 30
0.0
 10
79.86833765364403
 20
-141.6502685192749
 30
0.0
 10
79.86833765364403
 20
-141.5128092094135
 30
0.0
 10
79.86833765364403
 20
-141.5128092094135
 30
0.0
 10
79.4812811758762
 20
-141.5128092094135
 30
0.0
 10
79.4812811758762
 20
-141.5128092094135
 30
0.0
 10
79.46095511251323
 20
-141.7202039576255
 30
0.0
 10
79.40359427268383
 20
-141.9885768959265
 30
0.0
 10
79.23133949842133
 20
-142.1728895043873
 30
0.0
 10
79.23133949842133
 20
-142.1728895043873
 30
0.0
 10
79.06649167945213
 20
-142.0502441051125
 30
0.0
 10
79.06649167945213
 20
-142.0502441051125
 30
0.0
 10
79.28870033825075
 20
-141.830102503605
 30
0.0
 10
79.31660561168127
 20
-141.4979952988269
 30
0.0
 10
79.31660561168127
 20
-141.1658880940488
 30
0.0
 10
79.31660561168127
 20
-141.1658880940488
 30
0.0
 10
79.31660561168127
 20
-140.7300835151647
 30
0.0
 10
79.31660561168127
 20
-140.7300835151647
 30
0.0
 10
79.31660561168127
 20
-140.6939100125696
 30
0.0
 10
79.31471080916438
 20
-140.4613660673152
 30
0.0
 10
79.30730385387109
 20
-140.3597357505004
 30
0.0
 10
79.4294324888232
 20
-140.3704155465046
 30
0.0
 10
79.64061684206902
 20
-140.3704155465046
 30
0.0
 10
79.7665350820549
 20
-140.3704155465046
 30
0.0
 10
79.7665350820549
 20
-140.3704155465046
 30
0.0
 10
80.1684054704093
 20
-140.3704155465046
 30
0.0
 10
80.1684054704093
 20
-140.3704155465046
 30
0.0
 10
80.18132457847898
 20
-140.3704155465046
 30
0.0
 10
80.48690454802063
 20
-140.3704155465046
 30
0.0
 10
80.6257418960762
 20
-140.3597357505004
 30
0.0
 10
80.62384709355932
 20
-140.4127902209732
 30
0.0
 10
80.61833494078292
 20
-140.5733316705858
 30
0.0
 10
80.61833494078292
 20
-140.6243190837675
 30
0.0
 10
80.61833494078292
 20
-140.6243190837675
 30
0.0
 10
80.61833494078292
 20
-141.2313449082686
 30
0.0
 10
80.61833494078292
 20
-141.2313449082686
 30
0.0
 10
80.61833494078292
 20
-141.2502929334374
 30
0.0
 10
80.6276366985931
 20
-141.8214897648919
 30
0.0
 10
80.6276366985931
 20
-141.933799877711
 30
0.0
 10
80.6276366985931
 20
-141.9909884627662
 30
0.0
 10
80.6276366985931
 20
-142.0922742700325
 30
0.0
 10
80.55528969340284
 20
-142.1387830590834
 30
0.0
  0
POLYLINE
  5
BD
330
A9
100
AcDbEntity
  8
_U+30EC_U+30A4_U+30E4_U+30FC 1
370
     0
100
AcDb2dPolyline
 66
     1
 10
0.0
 20
0.0
 30
0.0
  0
VERTEX
  5
BE
330
BD
100
AcDbEntity
  8
_U+30EC_U+30A4_U+30E4_U+30FC 1
370
     0
100
AcDbVertex
100
AcDb2dVertex
 10
79.86833765364403
 20
-140.5523165881258
 30
0.0
  0
VERTEX
  5
BF
330
BD
100
AcDbEntity
  8
_U+30EC_U+30A4_U+30E4_U+30FC 1
370
     0
100
AcDbVertex
100
AcDb2dVertex
 10
79.48507078091
 20
-140.5523165881258
 30
0.0
  0
VERTEX
  5
C0
330
BD
100
AcDbEntity
  8
_U+30EC_U+30A4_U+30E4_U+30FC 1
370
     0
100
AcDbVertex
100
AcDb2dVertex
 10
79.48507078091
 20
-140.8568630290219
 30
0.0
  0
VERTEX
  5
C1
330
BD
100
AcDbEntity
  8
_U+30EC_U+30A4_U+30E4_U+30FC 1
370
     0
100
AcDbVertex
100
AcDb2dVertex
 10
79.86833765364403
 20
-140.8568630290219
 30
0.0
  0
VERTEX
  5
C2
330
BD
100
AcDbEntity
  8
_U+30EC_U+30A4_U+30E4_U+30FC 1
370
     0
100
AcDbVertex
100
AcDb2dVertex
 10
79.86833765364403
 20
-140.5523165881258
 30
0.0
  0
SEQEND
  5
C3
330
BD
100
AcDbEntity
  8
_U+30EC_U+30A4_U+30E4_U+30FC 1
370
     0
  0
POLYLINE
  5
C4
330
A9
100
AcDbEntity
  8
_U+30EC_U+30A4_U+30E4_U+30FC 1
370
     0
100
AcDb2dPolyline
 66
     1
 10
0.0
 20
0.0
 30
0.0
  0
VERTEX
  5
C5
330
C4
100
AcDbEntity
  8
_U+30EC_U+30A4_U+30E4_U+30FC 1
370
     0
100
AcDbVertex
100
AcDb2dVertex
 10
79.86833765364403
 20
-141.0239501600565
 30
0.0
  0
VERTEX
  5
C6
330
C4
100
AcDbEntity
  8
_U+30EC_U+30A4_U+30E4_U+30FC 1
370
     0
100
AcDbVertex
100
AcDb2dVertex
 10
79.48507078091
 20
-141.0239501600565
 30
0.0
  0
VERTEX
  5
C7
330
C4
100
AcDbEntity
  8
_U+30EC_U+30A4_U+30E4_U+30FC 1
370
     0
100
AcDbVertex
100
AcDb2dVertex
 10
79.48507078091
 20
-141.3329752250834
 30
0.0
  0
VERTEX
  5
C8
330
C4
100
AcDbEntity
  8
_U+30EC_U+30A4_U+30E4_U+30FC 1
370
     0
100
AcDbVertex
100
AcDb2dVertex
 10
79.86833765364403
 20
-141.3329752250834
 30
0.0
  0
VERTEX
  5
C9
330
C4
100
AcDbEntity
  8
_U+30EC_U+30A4_U+30E4_U+30FC 1
370
     0
100
AcDbVertex
100
AcDb2dVertex
 10
79.86833765364403
 20
-141.0239501600565
 30
0.0
  0
SEQEND
  5
CA
330
C4
100
AcDbEntity
  8
_U+30EC_U+30A4_U+30E4_U+30FC 1
370
     0
  0
POLYLINE
  5
CB
330
A9
100
AcDbEntity
  8
_U+30EC_U+30A4_U+30E4_U+30FC 1
370
     0
100
AcDb2dPolyline
 66
     1
 10
0.0
 20
0.0
 30
0.0
  0
VERTEX
  5
CC
330
CB
100
AcDbEntity
  8
_U+30EC_U+30A4_U+30E4_U+30FC 1
370
     0
100
AcDbVertex
100
AcDb2dVertex
 10
80.43677840871025
 20
-140.5523165881258
 30
0.0
  0
VERTEX
  5
CD
330
CB
100
AcDbEntity
  8
_U+30EC_U+30A4_U+30E4_U+30FC 1
370
     0
100
AcDbVertex
100
AcDb2dVertex
 10
80.03508027513013
 20
-140.5523165881258
 30
0.0
  0
VERTEX
  5
CE
330
CB
100
AcDbEntity
  8
_U+30EC_U+30A4_U+30E4_U+30FC 1
370
     0
100
AcDbVertex
100
AcDb2dVertex
 10
80.03508027513013
 20
-140.8568630290219
 30
0.0
  0
VERTEX
  5
CF
330
CB
100
AcDbEntity
  8
_U+30EC_U+30A4_U+30E4_U+30FC 1
370
     0
100
AcDbVertex
100
AcDb2dVertex
 10
80.43677840871025
 20
-140.8568630290219
 30
0.0
  0
VERTEX
  5
D0
330
CB
100
AcDbEntity
  8
_U+30EC_U+30A4_U+30E4_U+30FC 1
370
     0
100
AcDbVertex
100
AcDb2dVertex
 10
80.43677840871025
 20
-140.5523165881258
 30
0.0
  0
SEQEND
  5
D1
330
CB
100
AcDbEntity
  8
_U+30EC_U+30A4_U+30E4_U+30FC 1
370
     0
  0
POLYLINE
  5
D2
330
A9
100
AcDbEntity
  8
_U+30EC_U+30A4_U+30E4_U+30FC 1
370
     0
100
AcDb2dPolyline
 66
     1
 10
0.0
 20
0.0
 30
0.0
  0
VERTEX
  5
D3
330
D2
100
AcDbEntity
  8
_U+30EC_U+30A4_U+30E4_U+30FC 1
370
     0
100
AcDbVertex
100
AcDb2dVertex
 10
80.43677840871025
 20
-141.0239501600565
 30
0.0
  0
VERTEX
  5
D4
330
D2
100
AcDbEntity
  8
_U+30EC_U+30A4_U+30E4_U+30FC 1
370
     0
100
AcDbVertex
100
AcDb2dVertex
 10
80.03508027513013
 20
-141.0239501600565
 30
0.0
  0
VERTEX
  5
D5
330
D2
100
AcDbEntity
  8
_U+30EC_U+30A4_U+30E4_U+30FC 1
370
     0
100
AcDbVertex
100
AcDb2dVertex
 10
80.03508027513013
 20
-141.3329752250834
 30
0.0
  0
VERTEX
  5
D6
330
D2
100
AcDbEntity
  8
_U+30EC_U+30A4_U+30E4_U+30FC 1
370
     0
100
AcDbVertex
100
AcDb2dVertex
 10
80.43677840871025
 20
-141.3329752250834
 30
0.0
  0
VERTEX
  5
D7
330
D2
100
AcDbEntity
  8
_U+30EC_U+30A4_U+30E4_U+30FC 1
370
     0
100
AcDbVertex
100
AcDb2dVertex
 10
80.43677840871025
 20
-141.0239501600565
 30
0.0
  0
SEQEND
  5
D8
330
D2
100
AcDbEntity
  8
_U+30EC_U+30A4_U+30E4_U+30FC 1
370
     0
  0
HATCH
  5
D9
330
A9
100
AcDbEntity
  8
_U+30EC_U+30A4_U+30E4_U+30FC 1
 62
   179
420
  2234388
100
AcDbHatch
 10
0.0
 20
0.0
 30
0.0
210
0.0
220
0.0
230
1.0
  2
SOLID
 70
     1
 71
     0
 91
        5
 92
        1
 93
        1
 72
     4
 94
        3
 73
     0
 74
     1
 95
       77
 96
       73
 40
0.0
 40
0.0
 40
0.0
 40
0.0
 40
1.0
 40
1.0
 40
1.0
 40
2.0
 40
2.0
 40
2.0
 40
3.0
 40
3.0
 40
3.0
 40
4.0
 40
4.0
 40
4.0
 40
5.0
 40
5.0
 40
5.0
 40
6.0
 40
6.0
 40
6.0
 40
7.0
 40
7.0
 40
7.0
 40
8.0
 40
8.0
 40
8.0
 40
9.0
 40
9.0
 40
9.0
 40
10.0
 40
10.0
 40
10.0
 40
11.0
 40
11.0
 40
11.0
 40
12.0
 40
12.0
 40
12.0
 40
13.0
 40
13.0
 40
13.0
 40
14.0
 40
14.0
 40
14.0
 40
15.0
 40
15.0
 40
15.0
 40
16.0
 40
16.0
 40
16.0
 40
17.0
 40
17.0
 40
17.0
 40
18.0
 40
18.0
 40
18.0
 40
19.0
 40
19.0
 40
19.0
 40
20.0
 40
20.0
 40
20.0
 40
21.0
 40
21.0
 40
21.0
 40
22.0
 40
22.0
 40
22.0
 40
23.0
 40
23.0
 40
23.0
 40
24.0
 40
24.0
 40
24.0
 40
24.0
 10
80.55528969340284
 20
-142.1387830590834
 10
80.5146375666769
 20
-142.1642767656742
 10
80.40542803979449
 20
-142.1770236189696
 10
80.33687063963801
 20
-142.1770236189696
 10
80.32567407931094
 20
-142.1770236189696
 10
80.30345321343108
 20
-142.1770236189696
 10
80.27382539225793
 20
-142.1728895043873
 10
80.27382539225793
 20
-142.1728895043873
 10
80.18873153377227
 20
-141.9465467310064
 10
80.18873153377227
 20
-141.9465467310064
 10
80.21456974991163
 20
-141.9527479028799
 10
80.26469588922203
 20
-141.961360641593
 10
80.36649846081116
 20
-141.961360641593
 10
80.43505586096762
 20
-141.961360641593
 10
80.43677840871025
 20
-141.9189859671244
 10
80.43677840871025
 20
-141.8617973820693
 10
80.43677840871025
 20
-141.8617973820693
 10
80.43677840871025
 20
-141.5128092094135
 10
80.43677840871025
 20
-141.5128092094135
 10
80.43677840871025
 20
-141.5128092094135
 10
80.03508027513013
 20
-141.5128092094135
 10
80.03508027513013
 20
-141.5128092094135
 10
80.03680282287274
 20
-141.6502685192749
 10
80.03869762538963
 20
-141.8490505287739
 10
80.04420977816604
 20
-141.982375724053
 10
80.04610458068292
 20
-142.009936487935
 10
80.04610458068292
 20
-142.0543782196947
 10
80.05730114100999
 20
-142.1157009193322
 10
80.05730114100999
 20
-142.1157009193322
 10
79.84611678776417
 20
-142.1157009193322
 10
79.84611678776417
 20
-142.1157009193322
 10
79.86833765364403
 20
-141.9909884627662
 10
79.86833765364403
 20
-141.6502685192749
 10
79.86833765364403
 20
-141.5128092094135
 10
79.86833765364403
 20
-141.5128092094135
 10
79.4812811758762
 20
-141.5128092094135
 10
79.4812811758762
 20
-141.5128092094135
 10
79.46095511251323
 20
-141.7202039576255
 10
79.40359427268383
 20
-141.9885768959265
 10
79.23133949842133
 20
-142.1728895043873
 10
79.23133949842133
 20
-142.1728895043873
 10
79.06649167945213
 20
-142.0502441051125
 10
79.06649167945213
 20
-142.0502441051125
 10
79.28870033825075
 20
-141.830102503605
 10
79.31660561168127
 20
-141.4979952988269
 10
79.31660561168127
 20
-141.1658880940488
 10
79.31660561168127
 20
-141.1658880940488
 10
79.31660561168127
 20
-140.7300835151647
 10
79.31660561168127
 20
-140.7300835151647
 10
79.31660561168127
 20
-140.6939100125696
 10
79.31471080916438
 20
-140.4613660673152
 10
79.30730385387109
 20
-140.3597357505004
 10
79.4294324888232
 20
-140.3704155465046
 10
79.64061684206902
 20
-140.3704155465046
 10
79.7665350820549
 20
-140.3704155465046
 10
79.7665350820549
 20
-140.3704155465046
 10
80.1684054704093
 20
-140.3704155465046
 10
80.1684054704093
 20
-140.3704155465046
 10
80.18132457847898
 20
-140.3704155465046
 10
80.48690454802063
 20
-140.3704155465046
 10
80.6257418960762
 20
-140.3597357505004
 10
80.62384709355932
 20
-140.4127902209732
 10
80.61833494078292
 20
-140.5733316705858
 10
80.61833494078292
 20
-140.6243190837675
 10
80.61833494078292
 20
-140.6243190837675
 10
80.61833494078292
 20
-141.2313449082686
 10
80.61833494078292
 20
-141.2313449082686
 10
80.61833494078292
 20
-141.2502929334374
 10
80.6276366985931
 20
-141.8214897648919
 10
80.6276366985931
 20
-141.933799877711
 10
80.6276366985931
 20
-141.9909884627662
 10
80.6276366985931
 20
-142.0922742700325
 10
80.55528969340284
 20
-142.1387830590834
 97
        0
 97
        0
 92
        1
 93
        4
 72
     1
 10
79.86833765364403
 20
-140.5523165881258
 11
79.48507078091
 21
-140.5523165881258
 72
     1
 10
79.48507078091
 20
-140.5523165881258
 11
79.48507078091
 21
-140.8568630290219
 72
     1
 10
79.48507078091
 20
-140.8568630290219
 11
79.86833765364403
 21
-140.8568630290219
 72
     1
 10
79.86833765364403
 20
-140.8568630290219
 11
79.86833765364403
 21
-140.5523165881258
 97
        0
 92
        1
 93
        4
 72
     1
 10
79.86833765364403
 20
-141.0239501600565
 11
79.48507078091
 21
-141.0239501600565
 72
     1
 10
79.48507078091
 20
-141.0239501600565
 11
79.48507078091
 21
-141.3329752250834
 72
     1
 10
79.48507078091
 20
-141.3329752250834
 11
79.86833765364403
 21
-141.3329752250834
 72
     1
 10
79.86833765364403
 20
-141.3329752250834
 11
79.86833765364403
 21
-141.0239501600565
 97
        0
 92
        1
 93
        4
 72
     1
 10
80.43677840871025
 20
-140.5523165881258
 11
80.03508027513013
 21
-140.5523165881258
 72
     1
 10
80.03508027513013
 20
-140.5523165881258
 11
80.03508027513013
 21
-140.8568630290219
 72
     1
 10
80.03508027513013
 20
-140.8568630290219
 11
80.43677840871025
 21
-140.8568630290219
 72
     1
 10
80.43677840871025
 20
-140.8568630290219
 11
80.43677840871025
 21
-140.5523165881258
 97
        0
 92
        1
 93
        4
 72
     1
 10
80.43677840871025
 20
-141.0239501600565
 11
80.03508027513013
 21
-141.0239501600565
 72
     1
 10
80.03508027513013
 20
-141.0239501600565
 11
80.03508027513013
 21
-141.3329752250834
 72
     1
 10
80.03508027513013
 20
-141.3329752250834
 11
80.43677840871025
 21
-141.3329752250834
 72
     1
 10
80.43677840871025
 20
-141.3329752250834
 11
80.43677840871025
 21
-141.0239501600565
 97
        0
 75
     2
 76
     1
 98
        0
  0
SPLINE
  5
DA
330
A9
100
AcDbEntity
  8
_U+30EC_U+30A4_U+30E4_U+30FC 1
370
     0
100
AcDbSpline
210
0.0
220
0.0
230
1.0
 70
    11
 71
     3
 72
    44
 73
    40
 74
     0
 42
0.0000000001
 43
0.0000000001
 12
1.0
 22
0.0
 32
0.0
 13
1.0
 23
0.0
 33
0.0
 40
0.0
 40
0.0
 40
0.0
 40
0.0
 40
1.0
 40
1.0
 40
1.0
 40
2.0
 40
2.0
 40
2.0
 40
3.0
 40
3.0
 40
3.0
 40
4.0
 40
4.0
 40
4.0
 40
5.0
 40
5.0
 40
5.0
 40
6.0
 40
6.0
 40
6.0
 40
7.0
 40
7.0
 40
7.0
 40
8.0
 40
8.0
 40
8.0
 40
9.0
 40
9.0
 40
9.0
 40
10.0
 40
10.0
 40
10.0
 40
11.0
 40
11.0
 40
11.0
 40
12.0
 40
12.0
 40
12.0
 40
13.0
 40
13.0
 40
13.0
 40
13.0
 10
82.19997827806112
 20
-140.8885579074862
 30
0.0
 10
82.1017930567315
 20
-141.2568386148594
 30
0.0
 10
82.05735132497178
 20
-141.4153130071809
 30
0.0
 10
81.88526880548355
 20
-141.6650824298615
 30
0.0
 10
81.72403833677386
 20
-141.8955593178247
 30
0.0
 10
81.51664358856182
 20
-142.0819389835767
 30
0.0
 10
81.27221406388334
 20
-142.1749565616785
 30
0.0
 10
81.27221406388334
 20
-142.1749565616785
 30
0.0
 10
81.10374889465463
 20
-141.9951225773484
 30
0.0
 10
81.10374889465463
 20
-141.9951225773484
 30
0.0
 10
81.66478269442756
 20
-141.8428493569004
 30
0.0
 10
81.95365395086576
 20
-141.2864664360326
 30
0.0
 10
82.00929224295254
 20
-140.8465277425661
 30
0.0
 10
82.00929224295254
 20
-140.8465277425661
 30
0.0
 10
81.33887666152292
 20
-140.8465277425661
 30
0.0
 10
81.33887666152292
 20
-140.8465277425661
 30
0.0
 10
81.25740015329677
 20
-140.8465277425661
 30
0.0
 10
81.09634193936134
 20
-140.8506618571485
 30
0.0
 10
80.95939939382265
 20
-140.8696098823173
 30
0.0
 10
80.95939939382265
 20
-140.8696098823173
 30
0.0
 10
80.95939939382265
 20
-140.6494682808099
 30
0.0
 10
80.95939939382265
 20
-140.6494682808099
 30
0.0
 10
81.03519149449815
 20
-140.6708278728184
 30
0.0
 10
81.25567760555414
 20
-140.6708278728184
 30
0.0
 10
81.3426662665567
 20
-140.6708278728184
 30
0.0
 10
81.3426662665567
 20
-140.6708278728184
 30
0.0
 10
81.72042098651434
 20
-140.6708278728184
 30
0.0
 10
81.72042098651434
 20
-140.6708278728184
 30
0.0
 10
81.75745576298078
 20
-140.6708278728184
 30
0.0
 10
81.96295570867593
 20
-140.6687608155273
 30
0.0
 10
81.99637313488286
 20
-140.6622151341053
 30
0.0
 10
82.03340791134929
 20
-140.6560139622318
 30
0.0
 10
82.03513045909192
 20
-140.6539469049407
 30
0.0
 10
82.08887394866181
 20
-140.6136392877633
 30
0.0
 10
82.08887394866181
 20
-140.6136392877633
 30
0.0
 10
82.25372176763102
 20
-140.7679795655025
 30
0.0
 10
82.25372176763102
 20
-140.7679795655025
 30
0.0
 10
82.22771129671739
 20
-140.7976073866756
 30
0.0
 10
82.21479218864769
 20
-140.8293022651399
 30
0.0
 10
82.19997827806112
 20
-140.8885579074862
 30
0.0
  0
SPLINE
  5
DB
330
A9
100
AcDbEntity
  8
_U+30EC_U+30A4_U+30E4_U+30FC 1
370
     0
100
AcDbSpline
210
0.0
220
0.0
230
1.0
 70
    11
 71
     3
 72
    17
 73
    13
 74
     0
 42
0.0000000001
 43
0.0000000001
 12
1.0
 22
0.0
 32
0.0
 13
1.0
 23
0.0
 33
0.0
 40
0.0
 40
0.0
 40
0.0
 40
0.0
 40
1.0
 40
1.0
 40
1.0
 40
2.0
 40
2.0
 40
2.0
 40
3.0
 40
3.0
 40
3.0
 40
4.0
 40
4.0
 40
4.0
 40
4.0
 10
82.38325735787642
 20
-140.6897758979873
 30
0.0
 10
82.2721530284771
 20
-140.6897758979873
 30
0.0
 10
82.18326956495766
 20
-140.5881455811724
 30
0.0
 10
82.18326956495766
 20
-140.4613660673152
 30
0.0
 10
82.18326956495766
 20
-140.334586553458
 30
0.0
 10
82.2721530284771
 20
-140.230889179352
 30
0.0
 10
82.38325735787642
 20
-140.230889179352
 30
0.0
 10
82.49436168727571
 20
-140.230889179352
 30
0.0
 10
82.58513995331205
 20
-140.334586553458
 30
0.0
 10
82.58513995331205
 20
-140.4613660673152
 30
0.0
 10
82.58513995331205
 20
-140.5881455811724
 30
0.0
 10
82.49436168727571
 20
-140.6897758979873
 30
0.0
 10
82.38325735787642
 20
-140.6897758979873
 30
0.0
  0
SPLINE
  5
DC
330
A9
100
AcDbEntity
  8
_U+30EC_U+30A4_U+30E4_U+30FC 1
370
     0
100
AcDbSpline
210
0.0
220
0.0
230
1.0
 70
    11
 71
     3
 72
    17
 73
    13
 74
     0
 42
0.0000000001
 43
0.0000000001
 12
1.0
 22
0.0
 32
0.0
 13
1.0
 23
0.0
 33
0.0
 40
0.0
 40
0.0
 40
0.0
 40
0.0
 40
1.0
 40
1.0
 40
1.0
 40
2.0
 40
2.0
 40
2.0
 40
3.0
 40
3.0
 40
3.0
 40
4.0
 40
4.0
 40
4.0
 40
4.0
 10
82.38153481013379
 20
-140.3597357505004
 30
0.0
 10
82.3333034733403
 20
-140.3597357505004
 30
0.0
 10
82.29437389435697
 20
-140.4041774822601
 30
0.0
 10
82.29437389435697
 20
-140.4592990100241
 30
0.0
 10
82.29437389435697
 20
-140.5164875950792
 30
0.0
 10
82.3333034733403
 20
-140.5650634414212
 30
0.0
 10
82.3851521603933
 20
-140.5650634414212
 30
0.0
 10
82.43700084744631
 20
-140.5650634414212
 30
0.0
 10
82.47214082139585
 20
-140.5140760282395
 30
0.0
 10
82.47214082139585
 20
-140.4613660673152
 30
0.0
 10
82.47214082139585
 20
-140.4041774822601
 30
0.0
 10
82.43148869466991
 20
-140.3597357505004
 30
0.0
 10
82.38153481013379
 20
-140.3597357505004
 30
0.0
  0
HATCH
  5
DD
330
A9
100
AcDbEntity
  8
_U+30EC_U+30A4_U+30E4_U+30FC 1
 62
   179
420
  2234388
100
AcDbHatch
 10
0.0
 20
0.0
 30
0.0
210
0.0
220
0.0
230
1.0
  2
SOLID
 70
     1
 71
     0
 91
        3
 92
        1
 93
        1
 72
     4
 94
        3
 73
     0
 74
     1
 95
       44
 96
       40
 40
0.0
 40
0.0
 40
0.0
 40
0.0
 40
1.0
 40
1.0
 40
1.0
 40
2.0
 40
2.0
 40
2.0
 40
3.0
 40
3.0
 40
3.0
 40
4.0
 40
4.0
 40
4.0
 40
5.0
 40
5.0
 40
5.0
 40
6.0
 40
6.0
 40
6.0
 40
7.0
 40
7.0
 40
7.0
 40
8.0
 40
8.0
 40
8.0
 40
9.0
 40
9.0
 40
9.0
 40
10.0
 40
10.0
 40
10.0
 40
11.0
 40
11.0
 40
11.0
 40
12.0
 40
12.0
 40
12.0
 40
13.0
 40
13.0
 40
13.0
 40
13.0
 10
82.19997827806112
 20
-140.8885579074862
 10
82.1017930567315
 20
-141.2568386148594
 10
82.05735132497178
 20
-141.4153130071809
 10
81.88526880548355
 20
-141.6650824298615
 10
81.72403833677386
 20
-141.8955593178247
 10
81.51664358856182
 20
-142.0819389835767
 10
81.27221406388334
 20
-142.1749565616785
 10
81.27221406388334
 20
-142.1749565616785
 10
81.10374889465463
 20
-141.9951225773484
 10
81.10374889465463
 20
-141.9951225773484
 10
81.66478269442756
 20
-141.8428493569004
 10
81.95365395086576
 20
-141.2864664360326
 10
82.00929224295254
 20
-140.8465277425661
 10
82.00929224295254
 20
-140.8465277425661
 10
81.33887666152292
 20
-140.8465277425661
 10
81.33887666152292
 20
-140.8465277425661
 10
81.25740015329677
 20
-140.8465277425661
 10
81.09634193936134
 20
-140.8506618571485
 10
80.95939939382265
 20
-140.8696098823173
 10
80.95939939382265
 20
-140.8696098823173
 10
80.95939939382265
 20
-140.6494682808099
 10
80.95939939382265
 20
-140.6494682808099
 10
81.03519149449815
 20
-140.6708278728184
 10
81.25567760555414
 20
-140.6708278728184
 10
81.3426662665567
 20
-140.6708278728184
 10
81.3426662665567
 20
-140.6708278728184
 10
81.72042098651434
 20
-140.6708278728184
 10
81.72042098651434
 20
-140.6708278728184
 10
81.75745576298078
 20
-140.6708278728184
 10
81.96295570867593
 20
-140.6687608155273
 10
81.99637313488286
 20
-140.6622151341053
 10
82.03340791134929
 20
-140.6560139622318
 10
82.03513045909192
 20
-140.6539469049407
 10
82.08887394866181
 20
-140.6136392877633
 10
82.08887394866181
 20
-140.6136392877633
 10
82.25372176763102
 20
-140.7679795655025
 10
82.25372176763102
 20
-140.7679795655025
 10
82.22771129671739
 20
-140.7976073866756
 10
82.21479218864769
 20
-140.8293022651399
 10
82.19997827806112
 20
-140.8885579074862
 97
        0
 97
        0
 92
        1
 93
        1
 72
     4
 94
        3
 73
     0
 74
     1
 95
       17
 96
       13
 40
0.0
 40
0.0
 40
0.0
 40
0.0
 40
1.0
 40
1.0
 40
1.0
 40
2.0
 40
2.0
 40
2.0
 40
3.0
 40
3.0
 40
3.0
 40
4.0
 40
4.0
 40
4.0
 40
4.0
 10
82.38325735787642
 20
-140.6897758979873
 10
82.2721530284771
 20
-140.6897758979873
 10
82.18326956495766
 20
-140.5881455811724
 10
82.18326956495766
 20
-140.4613660673152
 10
82.18326956495766
 20
-140.334586553458
 10
82.2721530284771
 20
-140.230889179352
 10
82.38325735787642
 20
-140.230889179352
 10
82.49436168727571
 20
-140.230889179352
 10
82.58513995331205
 20
-140.334586553458
 10
82.58513995331205
 20
-140.4613660673152
 10
82.58513995331205
 20
-140.5881455811724
 10
82.49436168727571
 20
-140.6897758979873
 10
82.38325735787642
 20
-140.6897758979873
 97
        0
 97
        0
 92
        1
 93
        1
 72
     4
 94
        3
 73
     0
 74
     1
 95
       17
 96
       13
 40
0.0
 40
0.0
 40
0.0
 40
0.0
 40
1.0
 40
1.0
 40
1.0
 40
2.0
 40
2.0
 40
2.0
 40
3.0
 40
3.0
 40
3.0
 40
4.0
 40
4.0
 40
4.0
 40
4.0
 10
82.38153481013379
 20
-140.3597357505004
 10
82.3333034733403
 20
-140.3597357505004
 10
82.29437389435697
 20
-140.4041774822601
 10
82.29437389435697
 20
-140.4592990100241
 10
82.29437389435697
 20
-140.5164875950792
 10
82.3333034733403
 20
-140.5650634414212
 10
82.3851521603933
 20
-140.5650634414212
 10
82.43700084744631
 20
-140.5650634414212
 10
82.47214082139585
 20
-140.5140760282395
 10
82.47214082139585
 20
-140.4613660673152
 10
82.47214082139585
 20
-140.4041774822601
 10
82.43148869466991
 20
-140.3597357505004
 10
82.38153481013379
 20
-140.3597357505004
 97
        0
 97
        0
 75
     2
 76
     1
 98
        0
  0
SPLINE
  5
DE
330
A9
100
AcDbEntity
  8
_U+30EC_U+30A4_U+30E4_U+30FC 1
370
     0
100
AcDbSpline
210
0.0
220
0.0
230
1.0
 70
    11
 71
     3
 72
    50
 73
    46
 74
     0
 42
0.0000000001
 43
0.0000000001
 12
1.0
 22
0.0
 32
0.0
 13
1.0
 23
0.0
 33
0.0
 40
0.0
 40
0.0
 40
0.0
 40
0.0
 40
1.0
 40
1.0
 40
1.0
 40
2.0
 40
2.0
 40
2.0
 40
3.0
 40
3.0
 40
3.0
 40
4.0
 40
4.0
 40
4.0
 40
5.0
 40
5.0
 40
5.0
 40
6.0
 40
6.0
 40
6.0
 40
7.0
 40
7.0
 40
7.0
 40
8.0
 40
8.0
 40
8.0
 40
9.0
 40
9.0
 40
9.0
 40
10.0
 40
10.0
 40
10.0
 40
11.0
 40
11.0
 40
11.0
 40
12.0
 40
12.0
 40
12.0
 40
13.0
 40
13.0
 40
13.0
 40
14.0
 40
14.0
 40
14.0
 40
15.0
 40
15.0
 40
15.0
 40
15.0
 10
83.95559893734443
 20
-141.1975829725131
 30
0.0
 10
83.88721379196222
 20
-141.375349899552
 30
0.0
 10
83.76870250726964
 20
-141.5824001382155
 30
0.0
 10
83.64829642006015
 20
-141.7222710149167
 30
0.0
 10
83.50015731419441
 20
-141.8934922605336
 30
0.0
 10
83.35753036110506
 20
-141.982375724053
 30
0.0
 10
83.07796086247704
 20
-142.1239691484968
 30
0.0
 10
83.07796086247704
 20
-142.1239691484968
 30
0.0
 10
82.9298217566113
 20
-141.9358669350021
 30
0.0
 10
82.9298217566113
 20
-141.9358669350021
 30
0.0
 10
83.09277477306361
 20
-141.9124402857024
 30
0.0
 10
83.24280868144625
 20
-141.8259683890227
 30
0.0
 10
83.37613387672542
 20
-141.7202039576255
 30
0.0
 10
83.60574949081732
 20
-141.5383029160043
 30
0.0
 10
83.77231985752914
 20
-141.2251437363951
 30
0.0
 10
83.81486678677199
 20
-141.0432426947739
 30
0.0
 10
83.81486678677199
 20
-141.0432426947739
 30
0.0
 10
83.22799477085967
 20
-141.0432426947739
 30
0.0
 10
83.22799477085967
 20
-141.0432426947739
 30
0.0
 10
83.08898516802984
 20
-141.0432426947739
 30
0.0
 10
82.83353133779856
 20
-141.0515109239385
 30
0.0
 10
82.70020614251939
 20
-141.0683918918162
 30
0.0
 10
82.70020614251939
 20
-141.0683918918162
 30
0.0
 10
82.70020614251939
 20
-140.8399820611442
 30
0.0
 10
82.70020614251939
 20
-140.8399820611442
 30
0.0
 10
82.72983396369254
 20
-140.8465277425661
 30
0.0
 10
82.7520548295724
 20
-140.8527289144396
 30
0.0
 10
82.79839136384902
 20
-140.8568630290219
 30
0.0
 10
82.88727482736846
 20
-140.8634087104439
 30
0.0
 10
83.05935734685669
 20
-140.865475767735
 30
0.0
 10
83.13342689978957
 20
-140.865475767735
 30
0.0
 10
83.13342689978957
 20
-140.865475767735
 30
0.0
 10
83.57612166964417
 20
-140.865475767735
 30
0.0
 10
83.57612166964417
 20
-140.865475767735
 30
0.0
 10
83.63537731199047
 20
-140.865475767735
 30
0.0
 10
83.76301809971898
 20
-140.8613416531527
 30
0.0
 10
83.81676158928887
 20
-140.8547959717307
 30
0.0
 10
83.87980683666895
 20
-140.8465277425661
 30
0.0
 10
83.90375025029142
 20
-140.8317138319796
 30
0.0
 10
83.93337807146457
 20
-140.8082871826799
 30
0.0
 10
83.93337807146457
 20
-140.8082871826799
 30
0.0
 10
84.07789982707081
 20
-140.9753743137145
 30
0.0
 10
84.07789982707081
 20
-140.9753743137145
 30
0.0
 10
84.01674938220762
 20
-141.0432426947739
 30
0.0
 10
83.97609725548168
 20
-141.1469400688799
 30
0.0
 10
83.95559893734443
 20
-141.1975829725131
 30
0.0
  0
SPLINE
  5
DF
330
A9
100
AcDbEntity
  8
_U+30EC_U+30A4_U+30E4_U+30FC 1
370
     0
100
AcDbSpline
210
0.0
220
0.0
230
1.0
 70
    11
 71
     3
 72
    29
 73
    25
 74
     0
 42
0.0000000001
 43
0.0000000001
 12
1.0
 22
0.0
 32
0.0
 13
1.0
 23
0.0
 33
0.0
 40
0.0
 40
0.0
 40
0.0
 40
0.0
 40
1.0
 40
1.0
 40
1.0
 40
2.0
 40
2.0
 40
2.0
 40
3.0
 40
3.0
 40
3.0
 40
4.0
 40
4.0
 40
4.0
 40
5.0
 40
5.0
 40
5.0
 40
6.0
 40
6.0
 40
6.0
 40
7.0
 40
7.0
 40
7.0
 40
8.0
 40
8.0
 40
8.0
 40
8.0
 10
83.52427298259116
 20
-140.5712646132947
 30
0.0
 10
83.52427298259116
 20
-140.5712646132947
 30
0.0
 10
83.22609996834278
 20
-140.5712646132947
 30
0.0
 10
83.22609996834278
 20
-140.5712646132947
 30
0.0
 10
83.12601994449628
 20
-140.5712646132947
 30
0.0
 10
83.02421737290715
 20
-140.5757432374255
 30
0.0
 10
82.9243096038349
 20
-140.5905571480121
 30
0.0
 10
82.9243096038349
 20
-140.5905571480121
 30
0.0
 10
82.9243096038349
 20
-140.3810953425089
 30
0.0
 10
82.9243096038349
 20
-140.3810953425089
 30
0.0
 10
83.02800697794092
 20
-140.3959092530955
 30
0.0
 10
83.17976343406617
 20
-140.4000433676778
 30
0.0
 10
83.22609996834278
 20
-140.4000433676778
 30
0.0
 10
83.22609996834278
 20
-140.4000433676778
 30
0.0
 10
83.52427298259116
 20
-140.4000433676778
 30
0.0
 10
83.52427298259116
 20
-140.4000433676778
 30
0.0
 10
83.62607555418029
 20
-140.4000433676778
 30
0.0
 10
83.72787812576942
 20
-140.3959092530955
 30
0.0
 10
83.82968069735855
 20
-140.3810953425089
 30
0.0
 10
83.82968069735855
 20
-140.3810953425089
 30
0.0
 10
83.82968069735855
 20
-140.5905571480121
 30
0.0
 10
83.82968069735855
 20
-140.5905571480121
 30
0.0
 10
83.69825030459627
 20
-140.5712646132947
 30
0.0
 10
83.53719209066084
 20
-140.5712646132947
 30
0.0
 10
83.52427298259116
 20
-140.5712646132947
 30
0.0
  0
HATCH
  5
E0
330
A9
100
AcDbEntity
  8
_U+30EC_U+30A4_U+30E4_U+30FC 1
 62
   179
420
  2234388
100
AcDbHatch
 10
0.0
 20
0.0
 30
0.0
210
0.0
220
0.0
230
1.0
  2
SOLID
 70
     1
 71
     0
 91
        2
 92
        1
 93
        1
 72
     4
 94
        3
 73
     0
 74
     1
 95
       50
 96
       46
 40
0.0
 40
0.0
 40
0.0
 40
0.0
 40
1.0
 40
1.0
 40
1.0
 40
2.0
 40
2.0
 40
2.0
 40
3.0
 40
3.0
 40
3.0
 40
4.0
 40
4.0
 40
4.0
 40
5.0
 40
5.0
 40
5.0
 40
6.0
 40
6.0
 40
6.0
 40
7.0
 40
7.0
 40
7.0
 40
8.0
 40
8.0
 40
8.0
 40
9.0
 40
9.0
 40
9.0
 40
10.0
 40
10.0
 40
10.0
 40
11.0
 40
11.0
 40
11.0
 40
12.0
 40
12.0
 40
12.0
 40
13.0
 40
13.0
 40
13.0
 40
14.0
 40
14.0
 40
14.0
 40
15.0
 40
15.0
 40
15.0
 40
15.0
 10
83.95559893734443
 20
-141.1975829725131
 10
83.88721379196222
 20
-141.375349899552
 10
83.76870250726964
 20
-141.5824001382155
 10
83.64829642006015
 20
-141.7222710149167
 10
83.50015731419441
 20
-141.8934922605336
 10
83.35753036110506
 20
-141.982375724053
 10
83.07796086247704
 20
-142.1239691484968
 10
83.07796086247704
 20
-142.1239691484968
 10
82.9298217566113
 20
-141.9358669350021
 10
82.9298217566113
 20
-141.9358669350021
 10
83.09277477306361
 20
-141.9124402857024
 10
83.24280868144625
 20
-141.8259683890227
 10
83.37613387672542
 20
-141.7202039576255
 10
83.60574949081732
 20
-141.5383029160043
 10
83.77231985752914
 20
-141.2251437363951
 10
83.81486678677199
 20
-141.0432426947739
 10
83.81486678677199
 20
-141.0432426947739
 10
83.22799477085967
 20
-141.0432426947739
 10
83.22799477085967
 20
-141.0432426947739
 10
83.08898516802984
 20
-141.0432426947739
 10
82.83353133779856
 20
-141.0515109239385
 10
82.70020614251939
 20
-141.0683918918162
 10
82.70020614251939
 20
-141.0683918918162
 10
82.70020614251939
 20
-140.8399820611442
 10
82.70020614251939
 20
-140.8399820611442
 10
82.72983396369254
 20
-140.8465277425661
 10
82.7520548295724
 20
-140.8527289144396
 10
82.79839136384902
 20
-140.8568630290219
 10
82.88727482736846
 20
-140.8634087104439
 10
83.05935734685669
 20
-140.865475767735
 10
83.13342689978957
 20
-140.865475767735
 10
83.13342689978957
 20
-140.865475767735
 10
83.57612166964417
 20
-140.865475767735
 10
83.57612166964417
 20
-140.865475767735
 10
83.63537731199047
 20
-140.865475767735
 10
83.76301809971898
 20
-140.8613416531527
 10
83.81676158928887
 20
-140.8547959717307
 10
83.87980683666895
 20
-140.8465277425661
 10
83.90375025029142
 20
-140.8317138319796
 10
83.93337807146457
 20
-140.8082871826799
 10
83.93337807146457
 20
-140.8082871826799
 10
84.07789982707081
 20
-140.9753743137145
 10
84.07789982707081
 20
-140.9753743137145
 10
84.01674938220762
 20
-141.0432426947739
 10
83.97609725548168
 20
-141.1469400688799
 10
83.95559893734443
 20
-141.1975829725131
 97
        0
 97
        0
 92
        1
 93
        1
 72
     4
 94
        3
 73
     0
 74
     1
 95
       29
 96
       25
 40
0.0
 40
0.0
 40
0.0
 40
0.0
 40
1.0
 40
1.0
 40
1.0
 40
2.0
 40
2.0
 40
2.0
 40
3.0
 40
3.0
 40
3.0
 40
4.0
 40
4.0
 40
4.0
 40
5.0
 40
5.0
 40
5.0
 40
6.0
 40
6.0
 40
6.0
 40
7.0
 40
7.0
 40
7.0
 40
8.0
 40
8.0
 40
8.0
 40
8.0
 10
83.52427298259116
 20
-140.5712646132947
 10
83.52427298259116
 20
-140.5712646132947
 10
83.22609996834278
 20
-140.5712646132947
 10
83.22609996834278
 20
-140.5712646132947
 10
83.12601994449628
 20
-140.5712646132947
 10
83.02421737290715
 20
-140.5757432374255
 10
82.9243096038349
 20
-140.5905571480121
 10
82.9243096038349
 20
-140.5905571480121
 10
82.9243096038349
 20
-140.3810953425089
 10
82.9243096038349
 20
-140.3810953425089
 10
83.02800697794092
 20
-140.3959092530955
 10
83.17976343406617
 20
-140.4000433676778
 10
83.22609996834278
 20
-140.4000433676778
 10
83.22609996834278
 20
-140.4000433676778
 10
83.52427298259116
 20
-140.4000433676778
 10
83.52427298259116
 20
-140.4000433676778
 10
83.62607555418029
 20
-140.4000433676778
 10
83.72787812576942
 20
-140.3959092530955
 10
83.82968069735855
 20
-140.3810953425089
 10
83.82968069735855
 20
-140.3810953425089
 10
83.82968069735855
 20
-140.5905571480121
 10
83.82968069735855
 20
-140.5905571480121
 10
83.69825030459627
 20
-140.5712646132947
 10
83.53719209066084
 20
-140.5712646132947
 10
83.52427298259116
 20
-140.5712646132947
 97
        0
 97
        0
 75
     2
 76
     1
 98
        0
  0
SPLINE
  5
E1
330
A9
100
AcDbEntity
  8
_U+30EC_U+30A4_U+30E4_U+30FC 1
370
     0
100
AcDbSpline
210
0.0
220
0.0
230
1.0
 70
    11
 71
     3
 72
    50
 73
    46
 74
     0
 42
0.0000000001
 43
0.0000000001
 12
1.0
 22
0.0
 32
0.0
 13
1.0
 23
0.0
 33
0.0
 40
0.0
 40
0.0
 40
0.0
 40
0.0
 40
1.0
 40
1.0
 40
1.0
 40
2.0
 40
2.0
 40
2.0
 40
3.0
 40
3.0
 40
3.0
 40
4.0
 40
4.0
 40
4.0
 40
5.0
 40
5.0
 40
5.0
 40
6.0
 40
6.0
 40
6.0
 40
7.0
 40
7.0
 40
7.0
 40
8.0
 40
8.0
 40
8.0
 40
9.0
 40
9.0
 40
9.0
 40
10.0
 40
10.0
 40
10.0
 40
11.0
 40
11.0
 40
11.0
 40
12.0
 40
12.0
 40
12.0
 40
13.0
 40
13.0
 40
13.0
 40
14.0
 40
14.0
 40
14.0
 40
15.0
 40
15.0
 40
15.0
 40
15.0
 10
85.45369870910532
 20
-140.5564507027081
 30
0.0
 10
85.27041962929003
 20
-140.7700466227936
 30
0.0
 10
85.20754663668423
 20
-140.8420491184353
 30
0.0
 10
85.08335094444097
 20
-140.9605604031279
 30
0.0
 10
85.08335094444097
 20
-140.9605604031279
 30
0.0
 10
85.08335094444097
 20
-141.52762312
 30
0.0
 10
85.08335094444097
 20
-141.52762312
 30
0.0
 10
85.08335094444097
 20
-141.6778292831569
 30
0.0
 10
85.08903535199164
 20
-141.6967773083258
 30
0.0
 10
85.09265270225114
 20
-141.8745442353647
 30
0.0
 10
85.09454750476803
 20
-142.0058023733527
 30
0.0
 10
85.10005965754443
 20
-142.0543782196947
 30
0.0
 10
85.10557181032084
 20
-142.113633862041
 30
0.0
 10
85.10557181032084
 20
-142.113633862041
 30
0.0
 10
84.90747881991896
 20
-142.113633862041
 30
0.0
 10
84.90747881991896
 20
-142.113633862041
 30
0.0
 10
84.91126842495274
 20
-142.0691921302813
 30
0.0
 10
84.91488577521226
 20
-142.0226833412304
 30
0.0
 10
84.91488577521226
 20
-142.0140706025173
 30
0.0
 10
84.91488577521226
 20
-141.933799877711
 30
0.0
 10
84.91867538024603
 20
-141.5824001382155
 30
0.0
 10
84.91867538024603
 20
-141.5107421521223
 30
0.0
 10
84.91867538024603
 20
-141.5107421521223
 30
0.0
 10
84.91867538024603
 20
-141.1045653944114
 30
0.0
 10
84.91867538024603
 20
-141.1045653944114
 30
0.0
 10
84.75933971405323
 20
-141.2292778509774
 30
0.0
 10
84.58897974230761
 20
-141.3391763969569
 30
0.0
 10
84.41121281526873
 20
-141.4259928031852
 30
0.0
 10
84.41121281526873
 20
-141.4259928031852
 30
0.0
 10
84.23344588822984
 20
-141.2630397867329
 30
0.0
 10
84.23344588822984
 20
-141.2630397867329
 30
0.0
 10
84.34093286736963
 20
-141.2272107936863
 30
0.0
 10
84.56486407391087
 20
-141.1531412407534
 30
0.0
 10
84.86682669319302
 20
-140.8971706461993
 30
0.0
 10
85.05561792578472
 20
-140.7383517443293
 30
0.0
 10
85.22408309501343
 20
-140.5502495308347
 30
0.0
 10
85.3574082902926
 20
-140.3301079293272
 30
0.0
 10
85.3574082902926
 20
-140.3301079293272
 30
0.0
 10
85.52604571429558
 20
-140.4741129206107
 30
0.0
 10
85.52604571429558
 20
-140.4741129206107
 30
0.0
 10
85.53707001984837
 20
-140.4847927166149
 30
0.0
 10
85.54447697514166
 20
-140.499262117653
 30
0.0
 10
85.54447697514166
 20
-140.5120089709484
 30
0.0
 10
85.54447697514166
 20
-140.5523165881258
 30
0.0
 10
85.511231803709
 20
-140.5523165881258
 30
0.0
 10
85.45369870910532
 20
-140.5564507027081
 30
0.0
  0
HATCH
  5
E2
330
A9
100
AcDbEntity
  8
_U+30EC_U+30A4_U+30E4_U+30FC 1
 62
   179
420
  2234388
100
AcDbHatch
 10
0.0
 20
0.0
 30
0.0
210
0.0
220
0.0
230
1.0
  2
SOLID
 70
     1
 71
     0
 91
        1
 92
        1
 93
        1
 72
     4
 94
        3
 73
     0
 74
     1
 95
       50
 96
       46
 40
0.0
 40
0.0
 40
0.0
 40
0.0
 40
1.0
 40
1.0
 40
1.0
 40
2.0
 40
2.0
 40
2.0
 40
3.0
 40
3.0
 40
3.0
 40
4.0
 40
4.0
 40
4.0
 40
5.0
 40
5.0
 40
5.0
 40
6.0
 40
6.0
 40
6.0
 40
7.0
 40
7.0
 40
7.0
 40
8.0
 40
8.0
 40
8.0
 40
9.0
 40
9.0
 40
9.0
 40
10.0
 40
10.0
 40
10.0
 40
11.0
 40
11.0
 40
11.0
 40
12.0
 40
12.0
 40
12.0
 40
13.0
 40
13.0
 40
13.0
 40
14.0
 40
14.0
 40
14.0
 40
15.0
 40
15.0
 40
15.0
 40
15.0
 10
85.45369870910532
 20
-140.5564507027081
 10
85.27041962929003
 20
-140.7700466227936
 10
85.20754663668423
 20
-140.8420491184353
 10
85.08335094444097
 20
-140.9605604031279
 10
85.08335094444097
 20
-140.9605604031279
 10
85.08335094444097
 20
-141.52762312
 10
85.08335094444097
 20
-141.52762312
 10
85.08335094444097
 20
-141.6778292831569
 10
85.08903535199164
 20
-141.6967773083258
 10
85.09265270225114
 20
-141.8745442353647
 10
85.09454750476803
 20
-142.0058023733527
 10
85.10005965754443
 20
-142.0543782196947
 10
85.10557181032084
 20
-142.113633862041
 10
85.10557181032084
 20
-142.113633862041
 10
84.90747881991896
 20
-142.113633862041
 10
84.90747881991896
 20
-142.113633862041
 10
84.91126842495274
 20
-142.0691921302813
 10
84.91488577521226
 20
-142.0226833412304
 10
84.91488577521226
 20
-142.0140706025173
 10
84.91488577521226
 20
-141.933799877711
 10
84.91867538024603
 20
-141.5824001382155
 10
84.91867538024603
 20
-141.5107421521223
 10
84.91867538024603
 20
-141.5107421521223
 10
84.91867538024603
 20
-141.1045653944114
 10
84.91867538024603
 20
-141.1045653944114
 10
84.75933971405323
 20
-141.2292778509774
 10
84.58897974230761
 20
-141.3391763969569
 10
84.41121281526873
 20
-141.4259928031852
 10
84.41121281526873
 20
-141.4259928031852
 10
84.23344588822984
 20
-141.2630397867329
 10
84.23344588822984
 20
-141.2630397867329
 10
84.34093286736963
 20
-141.2272107936863
 10
84.56486407391087
 20
-141.1531412407534
 10
84.86682669319302
 20
-140.8971706461993
 10
85.05561792578472
 20
-140.7383517443293
 10
85.22408309501343
 20
-140.5502495308347
 10
85.3574082902926
 20
-140.3301079293272
 10
85.3574082902926
 20
-140.3301079293272
 10
85.52604571429558
 20
-140.4741129206107
 10
85.52604571429558
 20
-140.4741129206107
 10
85.53707001984837
 20
-140.4847927166149
 10
85.54447697514166
 20
-140.499262117653
 10
85.54447697514166
 20
-140.5120089709484
 10
85.54447697514166
 20
-140.5523165881258
 10
85.511231803709
 20
-140.5523165881258
 10
85.45369870910532
 20
-140.5564507027081
 97
        0
 97
        0
 75
     2
 76
     1
 98
        0
  0
SPLINE
  5
E3
330
A9
100
AcDbEntity
  8
_U+30EC_U+30A4_U+30E4_U+30FC 1
370
     0
100
AcDbSpline
210
0.0
220
0.0
230
1.0
 70
    11
 71
     3
 72
    50
 73
    46
 74
     0
 42
0.0000000001
 43
0.0000000001
 12
1.0
 22
0.0
 32
0.0
 13
1.0
 23
0.0
 33
0.0
 40
0.0
 40
0.0
 40
0.0
 40
0.0
 40
1.0
 40
1.0
 40
1.0
 40
2.0
 40
2.0
 40
2.0
 40
3.0
 40
3.0
 40
3.0
 40
4.0
 40
4.0
 40
4.0
 40
5.0
 40
5.0
 40
5.0
 40
6.0
 40
6.0
 40
6.0
 40
7.0
 40
7.0
 40
7.0
 40
8.0
 40
8.0
 40
8.0
 40
9.0
 40
9.0
 40
9.0
 40
10.0
 40
10.0
 40
10.0
 40
11.0
 40
11.0
 40
11.0
 40
12.0
 40
12.0
 40
12.0
 40
13.0
 40
13.0
 40
13.0
 40
14.0
 40
14.0
 40
14.0
 40
15.0
 40
15.0
 40
15.0
 40
15.0
 10
86.9500759331236
 20
-141.0832058024028
 30
0.0
 10
86.8963324435537
 20
-141.1552082980445
 30
0.0
 10
86.66861163197868
 20
-141.4725015922361
 30
0.0
 10
86.6184854926683
 20
-141.5358913491646
 30
0.0
 10
86.69255504560117
 20
-141.6333875513972
 30
0.0
 10
86.7369967773609
 20
-141.6967773083258
 30
0.0
 10
86.79452987196457
 20
-141.7877278291364
 30
0.0
 10
86.79452987196457
 20
-141.7877278291364
 30
0.0
 10
86.63329940325487
 20
-141.9251871389979
 30
0.0
 10
86.63329940325487
 20
-141.9251871389979
 30
0.0
 10
86.51478811856228
 20
-141.7136582762035
 30
0.0
 10
86.36492646495391
 20
-141.4893825601138
 30
0.0
 10
86.10740557743149
 20
-141.2906005506149
 30
0.0
 10
86.10740557743149
 20
-141.2906005506149
 30
0.0
 10
86.23711342245115
 20
-141.1362602728757
 30
0.0
 10
86.23711342245115
 20
-141.1362602728757
 30
0.0
 10
86.33340384126387
 20
-141.216530997682
 30
0.0
 10
86.42418210730021
 20
-141.3054144612014
 30
0.0
 10
86.50927596578587
 20
-141.4004990965943
 30
0.0
 10
86.56853160813218
 20
-141.3243624863703
 30
0.0
 10
86.74629853517106
 20
-141.0811387451117
 30
0.0
 10
86.86291501734678
 20
-140.8527289144396
 30
0.0
 10
86.86291501734678
 20
-140.8527289144396
 30
0.0
 10
86.27414819891757
 20
-140.8527289144396
 30
0.0
 10
86.27414819891757
 20
-140.8527289144396
 30
0.0
 10
86.16493867203516
 20
-140.8527289144396
 30
0.0
 10
85.94445256097917
 20
-140.8613416531527
 30
0.0
 10
85.76117348116388
 20
-140.8716769396085
 30
0.0
 10
85.76117348116388
 20
-140.8716769396085
 30
0.0
 10
85.76117348116388
 20
-140.6518798476495
 30
0.0
 10
85.76117348116388
 20
-140.6518798476495
 30
0.0
 10
85.92223169509931
 20
-140.6708278728184
 30
0.0
 10
86.10189342465509
 20
-140.6749619874007
 30
0.0
 10
86.2667412436243
 20
-140.6749619874007
 30
0.0
 10
86.2667412436243
 20
-140.6749619874007
 30
0.0
 10
86.70736895618775
 20
-140.6749619874007
 30
0.0
 10
86.70736895618775
 20
-140.6749619874007
 30
0.0
 10
87.00364716791923
 20
-140.6749619874007
 30
0.0
 10
87.04257674690255
 20
-140.6601480768141
 30
0.0
 10
87.11475149731854
 20
-140.6198404596367
 30
0.0
 10
87.11475149731854
 20
-140.6198404596367
 30
0.0
 10
87.26116805544166
 20
-140.7786593615067
 30
0.0
 10
87.26116805544166
 20
-140.7786593615067
 30
0.0
 10
87.12784286016249
 20
-140.8506618571485
 30
0.0
 10
87.00192462017661
 20
-141.0136148736008
 30
0.0
 10
86.9500759331236
 20
-141.0832058024028
 30
0.0
  0
HATCH
  5
E4
330
A9
100
AcDbEntity
  8
_U+30EC_U+30A4_U+30E4_U+30FC 1
 62
   179
420
  2234388
100
AcDbHatch
 10
0.0
 20
0.0
 30
0.0
210
0.0
220
0.0
230
1.0
  2
SOLID
 70
     1
 71
     0
 91
        1
 92
        1
 93
        1
 72
     4
 94
        3
 73
     0
 74
     1
 95
       50
 96
       46
 40
0.0
 40
0.0
 40
0.0
 40
0.0
 40
1.0
 40
1.0
 40
1.0
 40
2.0
 40
2.0
 40
2.0
 40
3.0
 40
3.0
 40
3.0
 40
4.0
 40
4.0
 40
4.0
 40
5.0
 40
5.0
 40
5.0
 40
6.0
 40
6.0
 40
6.0
 40
7.0
 40
7.0
 40
7.0
 40
8.0
 40
8.0
 40
8.0
 40
9.0
 40
9.0
 40
9.0
 40
10.0
 40
10.0
 40
10.0
 40
11.0
 40
11.0
 40
11.0
 40
12.0
 40
12.0
 40
12.0
 40
13.0
 40
13.0
 40
13.0
 40
14.0
 40
14.0
 40
14.0
 40
15.0
 40
15.0
 40
15.0
 40
15.0
 10
86.9500759331236
 20
-141.0832058024028
 10
86.8963324435537
 20
-141.1552082980445
 10
86.66861163197868
 20
-141.4725015922361
 10
86.6184854926683
 20
-141.5358913491646
 10
86.69255504560117
 20
-141.6333875513972
 10
86.7369967773609
 20
-141.6967773083258
 10
86.79452987196457
 20
-141.7877278291364
 10
86.79452987196457
 20
-141.7877278291364
 10
86.63329940325487
 20
-141.9251871389979
 10
86.63329940325487
 20
-141.9251871389979
 10
86.51478811856228
 20
-141.7136582762035
 10
86.36492646495391
 20
-141.4893825601138
 10
86.10740557743149
 20
-141.2906005506149
 10
86.10740557743149
 20
-141.2906005506149
 10
86.23711342245115
 20
-141.1362602728757
 10
86.23711342245115
 20
-141.1362602728757
 10
86.33340384126387
 20
-141.216530997682
 10
86.42418210730021
 20
-141.3054144612014
 10
86.50927596578587
 20
-141.4004990965943
 10
86.56853160813218
 20
-141.3243624863703
 10
86.74629853517106
 20
-141.0811387451117
 10
86.86291501734678
 20
-140.8527289144396
 10
86.86291501734678
 20
-140.8527289144396
 10
86.27414819891757
 20
-140.8527289144396
 10
86.27414819891757
 20
-140.8527289144396
 10
86.16493867203516
 20
-140.8527289144396
 10
85.94445256097917
 20
-140.8613416531527
 10
85.76117348116388
 20
-140.8716769396085
 10
85.76117348116388
 20
-140.8716769396085
 10
85.76117348116388
 20
-140.6518798476495
 10
85.76117348116388
 20
-140.6518798476495
 10
85.92223169509931
 20
-140.6708278728184
 10
86.10189342465509
 20
-140.6749619874007
 10
86.2667412436243
 20
-140.6749619874007
 10
86.2667412436243
 20
-140.6749619874007
 10
86.70736895618775
 20
-140.6749619874007
 10
86.70736895618775
 20
-140.6749619874007
 10
87.00364716791923
 20
-140.6749619874007
 10
87.04257674690255
 20
-140.6601480768141
 10
87.11475149731854
 20
-140.6198404596367
 10
87.11475149731854
 20
-140.6198404596367
 10
87.26116805544166
 20
-140.7786593615067
 10
87.26116805544166
 20
-140.7786593615067
 10
87.12784286016249
 20
-140.8506618571485
 10
87.00192462017661
 20
-141.0136148736008
 10
86.9500759331236
 20
-141.0832058024028
 97
        0
 97
        0
 75
     2
 76
     1
 98
        0
  0
SPLINE
  5
E5
330
A9
100
AcDbEntity
  8
_U+30EC_U+30A4_U+30E4_U+30FC 1
370
     0
100
AcDbSpline
210
0.0
220
0.0
230
1.0
 70
    11
 71
     3
 72
    29
 73
    25
 74
     0
 42
0.0000000001
 43
0.0000000001
 12
1.0
 22
0.0
 32
0.0
 13
1.0
 23
0.0
 33
0.0
 40
0.0
 40
0.0
 40
0.0
 40
0.0
 40
1.0
 40
1.0
 40
1.0
 40
2.0
 40
2.0
 40
2.0
 40
3.0
 40
3.0
 40
3.0
 40
4.0
 40
4.0
 40
4.0
 40
5.0
 40
5.0
 40
5.0
 40
6.0
 40
6.0
 40
6.0
 40
7.0
 40
7.0
 40
7.0
 40
8.0
 40
8.0
 40
8.0
 40
8.0
 10
88.37238360420899
 20
-141.3264295436614
 30
0.0
 10
88.37238360420899
 20
-141.3264295436614
 30
0.0
 10
87.94829234997474
 20
-141.3264295436614
 30
0.0
 10
87.94829234997474
 20
-141.3264295436614
 30
0.0
 10
87.92417668157799
 20
-141.3264295436614
 30
0.0
 10
87.64650198546686
 20
-141.3264295436614
 30
0.0
 10
87.46132810313468
 20
-141.3519232502523
 30
0.0
 10
87.46132810313468
 20
-141.3519232502523
 30
0.0
 10
87.46132810313468
 20
-141.1214463622891
 30
0.0
 10
87.46132810313468
 20
-141.1214463622891
 30
0.0
 10
87.60016545119024
 20
-141.1445285020403
 30
0.0
 10
87.76690807267633
 20
-141.1469400688799
 30
0.0
 10
87.94829234997474
 20
-141.1469400688799
 30
0.0
 10
87.94829234997474
 20
-141.1469400688799
 30
0.0
 10
88.37238360420899
 20
-141.1469400688799
 30
0.0
 10
88.37238360420899
 20
-141.1469400688799
 30
0.0
 10
88.53533662066131
 20
-141.1469400688799
 30
0.0
 10
88.69828963711363
 20
-141.1445285020403
 30
0.0
 10
88.85934785104905
 20
-141.1214463622891
 30
0.0
 10
88.85934785104905
 20
-141.1214463622891
 30
0.0
 10
88.85934785104905
 20
-141.3519232502523
 30
0.0
 10
88.85934785104905
 20
-141.3519232502523
 30
0.0
 10
88.69828963711363
 20
-141.3288411105011
 30
0.0
 10
88.48159313109142
 20
-141.3264295436614
 30
0.0
 10
88.37238360420899
 20
-141.3264295436614
 30
0.0
  0
HATCH
  5
E6
330
A9
100
AcDbEntity
  8
_U+30EC_U+30A4_U+30E4_U+30FC 1
 62
   179
420
  2234388
100
AcDbHatch
 10
0.0
 20
0.0
 30
0.0
210
0.0
220
0.0
230
1.0
  2
SOLID
 70
     1
 71
     0
 91
        1
 92
        1
 93
        1
 72
     4
 94
        3
 73
     0
 74
     1
 95
       29
 96
       25
 40
0.0
 40
0.0
 40
0.0
 40
0.0
 40
1.0
 40
1.0
 40
1.0
 40
2.0
 40
2.0
 40
2.0
 40
3.0
 40
3.0
 40
3.0
 40
4.0
 40
4.0
 40
4.0
 40
5.0
 40
5.0
 40
5.0
 40
6.0
 40
6.0
 40
6.0
 40
7.0
 40
7.0
 40
7.0
 40
8.0
 40
8.0
 40
8.0
 40
8.0
 10
88.37238360420899
 20
-141.3264295436614
 10
88.37238360420899
 20
-141.3264295436614
 10
87.94829234997474
 20
-141.3264295436614
 10
87.94829234997474
 20
-141.3264295436614
 10
87.92417668157799
 20
-141.3264295436614
 10
87.64650198546686
 20
-141.3264295436614
 10
87.46132810313468
 20
-141.3519232502523
 10
87.46132810313468
 20
-141.3519232502523
 10
87.46132810313468
 20
-141.1214463622891
 10
87.46132810313468
 20
-141.1214463622891
 10
87.60016545119024
 20
-141.1445285020403
 10
87.76690807267633
 20
-141.1469400688799
 10
87.94829234997474
 20
-141.1469400688799
 10
87.94829234997474
 20
-141.1469400688799
 10
88.37238360420899
 20
-141.1469400688799
 10
88.37238360420899
 20
-141.1469400688799
 10
88.53533662066131
 20
-141.1469400688799
 10
88.69828963711363
 20
-141.1445285020403
 10
88.85934785104905
 20
-141.1214463622891
 10
88.85934785104905
 20
-141.1214463622891
 10
88.85934785104905
 20
-141.3519232502523
 10
88.85934785104905
 20
-141.3519232502523
 10
88.69828963711363
 20
-141.3288411105011
 10
88.48159313109142
 20
-141.3264295436614
 10
88.37238360420899
 20
-141.3264295436614
 97
        0
 97
        0
 75
     2
 76
     1
 98
        0
  0
ENDBLK
  5
AC
330
A9
100
AcDbEntity
  8
0
100
AcDbBlockEnd
  0
ENDSEC
  0
SECTION
  2
ENTITIES
  0
POLYLINE
  5
41
330
1F
100
AcDbEntity
  8
_U+30EC_U+30A4_U+30E4_U+30FC 1
 62
   179
420
  2234388
370
    25
100
AcDb2dPolyline
 66
     1
 10
0.0
 20
0.0
 30
0.0
  0
VERTEX
  5
42
330
41
100
AcDbEntity
  8
_U+30EC_U+30A4_U+30E4_U+30FC 1
 62
   179
420
  2234388
370
    25
100
AcDbVertex
100
AcDb2dVertex
 10
102.0151462862657
 20
-133.2659330222388
 30
0.0
  0
VERTEX
  5
43
330
41
100
AcDbEntity
  8
_U+30EC_U+30A4_U+30E4_U+30FC 1
 62
   179
420
  2234388
370
    25
100
AcDbVertex
100
AcDb2dVertex
 10
102.0151462862657
 20
-134.765944132975
 30
0.0
  0
SEQEND
  5
44
330
41
100
AcDbEntity
  8
_U+30EC_U+30A4_U+30E4_U+30FC 1
 62
   179
420
  2234388
370
    25
  0
POLYLINE
  5
45
330
1F
100
AcDbEntity
  8
_U+30EC_U+30A4_U+30E4_U+30FC 1
 62
   179
420
  2234388
370
    25
100
AcDb2dPolyline
 66
     1
 10
0.0
 20
0.0
 30
0.0
  0
VERTEX
  5
46
330
45
100
AcDbEntity
  8
_U+30EC_U+30A4_U+30E4_U+30FC 1
 62
   179
420
  2234388
370
    25
100
AcDbVertex
100
AcDb2dVertex
 10
82.01532790761466
 20
-134.765944132975
 30
0.0
  0
VERTEX
  5
47
330
45
100
AcDbEntity
  8
_U+30EC_U+30A4_U+30E4_U+30FC 1
 62
   179
420
  2234388
370
    25
100
AcDbVertex
100
AcDb2dVertex
 10
102.0151462862657
 20
-134.765944132975
 30
0.0
  0
SEQEND
  5
48
330
45
100
AcDbEntity
  8
_U+30EC_U+30A4_U+30E4_U+30FC 1
 62
   179
420
  2234388
370
    25
  0
POLYLINE
  5
49
330
1F
100
AcDbEntity
  8
_U+30EC_U+30A4_U+30E4_U+30FC 1
 62
   179
420
  2234388
370
    25
100
AcDb2dPolyline
 66
     1
 10
0.0
 20
0.0
 30
0.0
  0
VERTEX
  5
4A
330
49
100
AcDbEntity
  8
_U+30EC_U+30A4_U+30E4_U+30FC 1
 62
   179
420
  2234388
370
    25
100
AcDbVertex
100
AcDb2dVertex
 10
82.01532790761466
 20
-114.7654196935309
 30
0.0
  0
VERTEX
  5
4B
330
49
100
AcDbEntity
  8
_U+30EC_U+30A4_U+30E4_U+30FC 1
 62
   179
420
  2234388
370
    25
100
AcDbVertex
100
AcDb2dVertex
 10
82.01532790761466
 20
-134.765944132975
 30
0.0
  0
SEQEND
  5
4C
330
49
100
AcDbEntity
  8
_U+30EC_U+30A4_U+30E4_U+30FC 1
 62
   179
420
  2234388
370
    25
  0
POLYLINE
  5
4D
330
1F
100
AcDbEntity
  8
_U+30EC_U+30A4_U+30E4_U+30FC 1
 62
   179
420
  2234388
370
    25
100
AcDb2dPolyline
 66
     1
 10
0.0
 20
0.0
 30
0.0
  0
VERTEX
  5
4E
330
4D
100
AcDbEntity
  8
_U+30EC_U+30A4_U+30E4_U+30FC 1
 62
   179
420
  2234388
370
    25
100
AcDbVertex
100
AcDb2dVertex
 10
82.01532790761466
 20
-114.7654196935309
 30
0.0
  0
VERTEX
  5
4F
330
4D
100
AcDbEntity
  8
_U+30EC_U+30A4_U+30E4_U+30FC 1
 62
   179
420
  2234388
370
    25
100
AcDbVertex
100
AcDb2dVertex
 10
83.51530370268043
 20
-114.7654196935309
 30
0.0
  0
SEQEND
  5
50
330
4D
100
AcDbEntity
  8
_U+30EC_U+30A4_U+30E4_U+30FC 1
 62
   179
420
  2234388
370
    25
  0
POLYLINE
  5
51
330
1F
100
AcDbEntity
  8
_U+30EC_U+30A4_U+30E4_U+30FC 1
 62
   179
420
  2234388
370
    25
100
AcDb2dPolyline
 66
     1
 10
0.0
 20
0.0
 30
0.0
  0
VERTEX
  5
52
330
51
100
AcDbEntity
  8
_U+30EC_U+30A4_U+30E4_U+30FC 1
 62
   179
420
  2234388
370
    25
100
AcDbVertex
100
AcDb2dVertex
 10
83.51530370268043
 20
-114.7654196935309
 30
0.0
  0
VERTEX
  5
53
330
51
100
AcDbEntity
  8
_U+30EC_U+30A4_U+30E4_U+30FC 1
 62
   179
420
  2234388
370
    25
100
AcDbVertex
100
AcDb2dVertex
 10
83.51530370268043
 20
-133.2659330222388
 30
0.0
  0
SEQEND
  5
54
330
51
100
AcDbEntity
  8
_U+30EC_U+30A4_U+30E4_U+30FC 1
 62
   179
420
  2234388
370
    25
  0
POLYLINE
  5
55
330
1F
100
AcDbEntity
  8
_U+30EC_U+30A4_U+30E4_U+30FC 1
 62
   179
420
  2234388
370
    25
100
AcDb2dPolyline
 66
     1
 10
0.0
 20
0.0
 30
0.0
  0
VERTEX
  5
56
330
55
100
AcDbEntity
  8
_U+30EC_U+30A4_U+30E4_U+30FC 1
 62
   179
420
  2234388
370
    25
100
AcDbVertex
100
AcDb2dVertex
 10
83.51530370268043
 20
-133.2659330222388
 30
0.0
  0
VERTEX
  5
57
330
55
100
AcDbEntity
  8
_U+30EC_U+30A4_U+30E4_U+30FC 1
 62
   179
420
  2234388
370
    25
100
AcDbVertex
100
AcDb2dVertex
 10
102.0151462862657
 20
-133.2659330222388
 30
0.0
  0
SEQEND
  5
58
330
55
100
AcDbEntity
  8
_U+30EC_U+30A4_U+30E4_U+30FC 1
 62
   179
420
  2234388
370
    25
  0
SPLINE
  5
59
330
1F
100
AcDbEntity
  8
_U+30EC_U+30A4_U+30E4_U+30FC 1
 62
   179
420
  2234388
370
     9
100
AcDbSpline
210
0.0
220
0.0
230
1.0
 70
    11
 71
     3
 72
    17
 73
    13
 74
     0
 42
0.0000000001
 43
0.0000000001
 12
1.0
 22
0.0
 32
0.0
 13
1.0
 23
0.0
 33
0.0
 40
0.0
 40
0.0
 40
0.0
 40
0.0
 40
1.0
 40
1.0
 40
1.0
 40
2.0
 40
2.0
 40
2.0
 40
3.0
 40
3.0
 40
3.0
 40
4.0
 40
4.0
 40
4.0
 40
4.0
 10
106.1151295149997
 20
-134.765944132975
 30
0.0
 10
106.1151295149997
 20
-134.7101346885446
 30
0.0
 10
106.0703620161418
 20
-134.6653319107779
 30
0.0
 10
106.0152228508819
 20
-134.6653319107779
 30
0.0
 10
105.9601189633988
 20
-134.6653319107779
 30
0.0
 10
105.9153161867641
 20
-134.7101346885446
 30
0.0
 10
105.9153161867641
 20
-134.765944132975
 30
0.0
 10
105.9153161867641
 20
-134.8210480218506
 30
0.0
 10
105.9601189633988
 20
-134.8658507996167
 30
0.0
 10
106.0152228508819
 20
-134.8658507996167
 30
0.0
 10
106.0703620161418
 20
-134.8658507996167
 30
0.0
 10
106.1151295149997
 20
-134.8210480218506
 30
0.0
 10
106.1151295149997
 20
-134.765944132975
 30
0.0
  0
SPLINE
  5
5A
330
1F
100
AcDbEntity
  8
_U+30EC_U+30A4_U+30E4_U+30FC 1
 62
   179
420
  2234388
370
     9
100
AcDbSpline
210
0.0
220
0.0
230
1.0
 70
    11
 71
     3
 72
    17
 73
    13
 74
     0
 42
0.0000000001
 43
0.0000000001
 12
1.0
 22
0.0
 32
0.0
 13
1.0
 23
0.0
 33
0.0
 40
0.0
 40
0.0
 40
0.0
 40
0.0
 40
1.0
 40
1.0
 40
1.0
 40
2.0
 40
2.0
 40
2.0
 40
3.0
 40
3.0
 40
3.0
 40
4.0
 40
4.0
 40
4.0
 40
4.0
 10
102.1150555300265
 20
-138.7657032986419
 30
0.0
 10
102.1150555300265
 20
-138.7105641319888
 30
0.0
 10
102.0702527522604
 20
-138.6657966320003
 30
0.0
 10
102.0151462862657
 20
-138.6657966320003
 30
0.0
 10
101.9600071210057
 20
-138.6657966320003
 30
0.0
 10
101.9152396221479
 20
-138.7105641319888
 30
0.0
 10
101.9152396221479
 20
-138.7657032986419
 30
0.0
 10
101.9152396221479
 20
-138.8208071875168
 30
0.0
 10
101.9600071210057
 20
-138.8656099652835
 30
0.0
 10
102.0151462862657
 20
-138.8656099652835
 30
0.0
 10
102.0702527522604
 20
-138.8656099652835
 30
0.0
 10
102.1150555300265
 20
-138.8208071875168
 30
0.0
 10
102.1150555300265
 20
-138.7657032986419
 30
0.0
  0
SPLINE
  5
5B
330
1F
100
AcDbEntity
  8
_U+30EC_U+30A4_U+30E4_U+30FC 1
 62
   179
420
  2234388
370
     9
100
AcDbSpline
210
0.0
220
0.0
230
1.0
 70
    11
 71
     3
 72
    17
 73
    13
 74
     0
 42
0.0000000001
 43
0.0000000001
 12
1.0
 22
0.0
 32
0.0
 13
1.0
 23
0.0
 33
0.0
 40
0.0
 40
0.0
 40
0.0
 40
0.0
 40
1.0
 40
1.0
 40
1.0
 40
2.0
 40
2.0
 40
2.0
 40
3.0
 40
3.0
 40
3.0
 40
4.0
 40
4.0
 40
4.0
 40
4.0
 10
82.1152345717325
 20
-138.7657032986419
 30
0.0
 10
82.1152345717325
 20
-138.7105641319888
 30
0.0
 10
82.07043179509773
 20
-138.6657966320003
 30
0.0
 10
82.01532790761466
 20
-138.6657966320003
 30
0.0
 10
81.96018874235472
 20
-138.6657966320003
 30
0.0
 10
81.91542124349684
 20
-138.7105641319888
 30
0.0
 10
81.91542124349684
 20
-138.7657032986419
 30
0.0
 10
81.91542124349684
 20
-138.8208071875168
 30
0.0
 10
81.96018874235472
 20
-138.8656099652835
 30
0.0
 10
82.01532790761466
 20
-138.8656099652835
 30
0.0
 10
82.07043179509773
 20
-138.8656099652835
 30
0.0
 10
82.1152345717325
 20
-138.8208071875168
 30
0.0
 10
82.1152345717325
 20
-138.7657032986419
 30
0.0
  0
SPLINE
  5
5C
330
1F
100
AcDbEntity
  8
_U+30EC_U+30A4_U+30E4_U+30FC 1
 62
   179
420
  2234388
370
     9
100
AcDbSpline
210
0.0
220
0.0
230
1.0
 70
    11
 71
     3
 72
    17
 73
    13
 74
     0
 42
0.0000000001
 43
0.0000000001
 12
1.0
 22
0.0
 32
0.0
 13
1.0
 23
0.0
 33
0.0
 40
0.0
 40
0.0
 40
0.0
 40
0.0
 40
1.0
 40
1.0
 40
1.0
 40
2.0
 40
2.0
 40
2.0
 40
3.0
 40
3.0
 40
3.0
 40
4.0
 40
4.0
 40
4.0
 40
4.0
 10
78.11512272933942
 20
-134.765944132975
 30
0.0
 10
78.11512272933942
 20
-134.7101346885446
 30
0.0
 10
78.07035523048152
 20
-134.6653319107779
 30
0.0
 10
78.01521606522158
 20
-134.6653319107779
 30
0.0
 10
77.95975939996973
 20
-134.6653319107779
 30
0.0
 10
77.91495662333496
 20
-134.7101346885446
 30
0.0
 10
77.91495662333496
 20
-134.765944132975
 30
0.0
 10
77.91495662333496
 20
-134.8210480218506
 30
0.0
 10
77.95975939996973
 20
-134.8658507996167
 30
0.0
 10
78.01521606522158
 20
-134.8658507996167
 30
0.0
 10
78.07035523048152
 20
-134.8658507996167
 30
0.0
 10
78.11512272933942
 20
-134.8210480218506
 30
0.0
 10
78.11512272933942
 20
-134.765944132975
 30
0.0
  0
SPLINE
  5
5D
330
1F
100
AcDbEntity
  8
_U+30EC_U+30A4_U+30E4_U+30FC 1
 62
   179
420
  2234388
370
     9
100
AcDbSpline
210
0.0
220
0.0
230
1.0
 70
    11
 71
     3
 72
    17
 73
    13
 74
     0
 42
0.0000000001
 43
0.0000000001
 12
1.0
 22
0.0
 32
0.0
 13
1.0
 23
0.0
 33
0.0
 40
0.0
 40
0.0
 40
0.0
 40
0.0
 40
1.0
 40
1.0
 40
1.0
 40
2.0
 40
2.0
 40
2.0
 40
3.0
 40
3.0
 40
3.0
 40
4.0
 40
4.0
 40
4.0
 40
4.0
 10
78.11512272933942
 20
-114.7654196935309
 30
0.0
 10
78.11512272933942
 20
-114.7103158046557
 30
0.0
 10
78.07035523048152
 20
-114.6655130268893
 30
0.0
 10
78.01521606522158
 20
-114.6655130268893
 30
0.0
 10
77.95975939996973
 20
-114.6655130268893
 30
0.0
 10
77.91495662333496
 20
-114.7103158046557
 30
0.0
 10
77.91495662333496
 20
-114.7654196935309
 30
0.0
 10
77.91495662333496
 20
-114.8209116379614
 30
0.0
 10
77.95975939996973
 20
-114.8653263601725
 30
0.0
 10
78.01521606522158
 20
-114.8653263601725
 30
0.0
 10
78.07035523048152
 20
-114.8653263601725
 30
0.0
 10
78.11512272933942
 20
-114.8209116379614
 30
0.0
 10
78.11512272933942
 20
-114.7654196935309
 30
0.0
  0
SPLINE
  5
5E
330
1F
100
AcDbEntity
  8
_U+30EC_U+30A4_U+30E4_U+30FC 1
 62
   179
420
  2234388
370
     9
100
AcDbSpline
210
0.0
220
0.0
230
1.0
 70
    11
 71
     3
 72
    17
 73
    13
 74
     0
 42
0.0000000001
 43
0.0000000001
 12
1.0
 22
0.0
 32
0.0
 13
1.0
 23
0.0
 33
0.0
 40
0.0
 40
0.0
 40
0.0
 40
0.0
 40
1.0
 40
1.0
 40
1.0
 40
2.0
 40
2.0
 40
2.0
 40
3.0
 40
3.0
 40
3.0
 40
4.0
 40
4.0
 40
4.0
 40
4.0
 10
106.1151295149997
 20
-133.2659330222388
 30
0.0
 10
106.1151295149997
 20
-133.2101235778083
 30
0.0
 10
106.0703620161418
 20
-133.1653560778198
 30
0.0
 10
106.0152228508819
 20
-133.1653560778198
 30
0.0
 10
105.9601189633988
 20
-133.1653560778198
 30
0.0
 10
105.9153161867641
 20
-133.2101235778083
 30
0.0
 10
105.9153161867641
 20
-133.2659330222388
 30
0.0
 10
105.9153161867641
 20
-133.3210721888918
 30
0.0
 10
105.9601189633988
 20
-133.365839688881
 30
0.0
 10
106.0152228508819
 20
-133.365839688881
 30
0.0
 10
106.0703620161418
 20
-133.365839688881
 30
0.0
 10
106.1151295149997
 20
-133.3210721888918
 30
0.0
 10
106.1151295149997
 20
-133.2659330222388
 30
0.0
  0
POLYLINE
  5
5F
330
1F
100
AcDbEntity
  8
_U+30EC_U+30A4_U+30E4_U+30FC 1
 62
   179
420
  2234388
370
     9
100
AcDb2dPolyline
 66
     1
 10
0.0
 20
0.0
 30
0.0
  0
VERTEX
  5
60
330
5F
100
AcDbEntity
  8
_U+30EC_U+30A4_U+30E4_U+30FC 1
 62
   179
420
  2234388
370
     9
100
AcDbVertex
100
AcDb2dVertex
 10
106.0152228508819
 20
-133.2659330222388
 30
0.0
  0
VERTEX
  5
61
330
5F
100
AcDbEntity
  8
_U+30EC_U+30A4_U+30E4_U+30FC 1
 62
   179
420
  2234388
370
     9
100
AcDbVertex
100
AcDb2dVertex
 10
106.0152228508819
 20
-127.5994399681002
 30
0.0
  0
SEQEND
  5
62
330
5F
100
AcDbEntity
  8
_U+30EC_U+30A4_U+30E4_U+30FC 1
 62
   179
420
  2234388
370
     9
  0
POLYLINE
  5
63
330
1F
100
AcDbEntity
  8
_U+30EC_U+30A4_U+30E4_U+30FC 1
 62
   179
420
  2234388
370
     9
100
AcDb2dPolyline
 66
     1
 10
0.0
 20
0.0
 30
0.0
  0
VERTEX
  5
64
330
63
100
AcDbEntity
  8
_U+30EC_U+30A4_U+30E4_U+30FC 1
 62
   179
420
  2234388
370
     9
100
AcDbVertex
100
AcDb2dVertex
 10
106.0152228508819
 20
-133.2659330222388
 30
0.0
  0
VERTEX
  5
65
330
63
100
AcDbEntity
  8
_U+30EC_U+30A4_U+30E4_U+30FC 1
 62
   179
420
  2234388
370
     9
100
AcDbVertex
100
AcDb2dVertex
 10
106.0152228508819
 20
-135.7657163549476
 30
0.0
  0
SEQEND
  5
66
330
63
100
AcDbEntity
  8
_U+30EC_U+30A4_U+30E4_U+30FC 1
 62
   179
420
  2234388
370
     9
  0
POLYLINE
  5
67
330
1F
100
AcDbEntity
  8
_U+30EC_U+30A4_U+30E4_U+30FC 1
 62
   179
420
  2234388
370
     9
100
AcDb2dPolyline
 66
     1
 10
0.0
 20
0.0
 30
0.0
  0
VERTEX
  5
68
330
67
100
AcDbEntity
  8
_U+30EC_U+30A4_U+30E4_U+30FC 1
 62
   179
420
  2234388
370
     9
100
AcDbVertex
100
AcDb2dVertex
 10
104.5552194183058
 20
-133.2659330222388
 30
0.0
  0
VERTEX
  5
69
330
67
100
AcDbEntity
  8
_U+30EC_U+30A4_U+30E4_U+30FC 1
 62
   179
420
  2234388
370
     9
100
AcDbVertex
100
AcDb2dVertex
 10
107.0153478253666
 20
-133.2659330222388
 30
0.0
  0
SEQEND
  5
6A
330
67
100
AcDbEntity
  8
_U+30EC_U+30A4_U+30E4_U+30FC 1
 62
   179
420
  2234388
370
     9
  0
POLYLINE
  5
6B
330
1F
100
AcDbEntity
  8
_U+30EC_U+30A4_U+30E4_U+30FC 1
 62
   179
420
  2234388
370
     9
100
AcDb2dPolyline
 66
     1
 10
0.0
 20
0.0
 30
0.0
  0
VERTEX
  5
6C
330
6B
100
AcDbEntity
  8
_U+30EC_U+30A4_U+30E4_U+30FC 1
 62
   179
420
  2234388
370
     9
100
AcDbVertex
100
AcDb2dVertex
 10
104.5552194183058
 20
-134.765944132975
 30
0.0
  0
VERTEX
  5
6D
330
6B
100
AcDbEntity
  8
_U+30EC_U+30A4_U+30E4_U+30FC 1
 62
   179
420
  2234388
370
     9
100
AcDbVertex
100
AcDb2dVertex
 10
107.0153478253666
 20
-134.765944132975
 30
0.0
  0
SEQEND
  5
6E
330
6B
100
AcDbEntity
  8
_U+30EC_U+30A4_U+30E4_U+30FC 1
 62
   179
420
  2234388
370
     9
  0
INSERT
  5
70
330
1F
100
AcDbEntity
  8
_U+30EC_U+30A4_U+30E4_U+30FC 1
100
AcDbBlockReference
  2
block 2
 10
0.0
 20
0.0
 30
0.0
  0
POLYLINE
  5
7F
330
1F
100
AcDbEntity
  8
_U+30EC_U+30A4_U+30E4_U+30FC 1
 62
   179
420
  2234388
370
     9
100
AcDb2dPolyline
 66
     1
 10
0.0
 20
0.0
 30
0.0
  0
VERTEX
  5
80
330
7F
100
AcDbEntity
  8
_U+30EC_U+30A4_U+30E4_U+30FC 1
 62
   179
420
  2234388
370
     9
100
AcDbVertex
100
AcDb2dVertex
 10
78.01521606522158
 20
-114.7654196935309
 30
0.0
  0
VERTEX
  5
81
330
7F
100
AcDbEntity
  8
_U+30EC_U+30A4_U+30E4_U+30FC 1
 62
   179
420
  2234388
370
     9
100
AcDbVertex
100
AcDb2dVertex
 10
78.01521606522158
 20
-134.765944132975
 30
0.0
  0
SEQEND
  5
82
330
7F
100
AcDbEntity
  8
_U+30EC_U+30A4_U+30E4_U+30FC 1
 62
   179
420
  2234388
370
     9
  0
POLYLINE
  5
83
330
1F
100
AcDbEntity
  8
_U+30EC_U+30A4_U+30E4_U+30FC 1
 62
   179
420
  2234388
370
     9
100
AcDb2dPolyline
 66
     1
 10
0.0
 20
0.0
 30
0.0
  0
VERTEX
  5
84
330
83
100
AcDbEntity
  8
_U+30EC_U+30A4_U+30E4_U+30FC 1
 62
   179
420
  2234388
370
     9
100
AcDbVertex
100
AcDb2dVertex
 10
79.47525741686171
 20
-114.7654196935309
 30
0.0
  0
VERTEX
  5
85
330
83
100
AcDbEntity
  8
_U+30EC_U+30A4_U+30E4_U+30FC 1
 62
   179
420
  2234388
370
     9
100
AcDbVertex
100
AcDb2dVertex
 10
77.01509109073689
 20
-114.7654196935309
 30
0.0
  0
SEQEND
  5
86
330
83
100
AcDbEntity
  8
_U+30EC_U+30A4_U+30E4_U+30FC 1
 62
   179
420
  2234388
370
     9
  0
POLYLINE
  5
87
330
1F
100
AcDbEntity
  8
_U+30EC_U+30A4_U+30E4_U+30FC 1
 62
   179
420
  2234388
370
     9
100
AcDb2dPolyline
 66
     1
 10
0.0
 20
0.0
 30
0.0
  0
VERTEX
  5
88
330
87
100
AcDbEntity
  8
_U+30EC_U+30A4_U+30E4_U+30FC 1
 62
   179
420
  2234388
370
     9
100
AcDbVertex
100
AcDb2dVertex
 10
79.47525741686171
 20
-134.765944132975
 30
0.0
  0
VERTEX
  5
89
330
87
100
AcDbEntity
  8
_U+30EC_U+30A4_U+30E4_U+30FC 1
 62
   179
420
  2234388
370
     9
100
AcDbVertex
100
AcDb2dVertex
 10
77.01509109073689
 20
-134.765944132975
 30
0.0
  0
SEQEND
  5
8A
330
87
100
AcDbEntity
  8
_U+30EC_U+30A4_U+30E4_U+30FC 1
 62
   179
420
  2234388
370
     9
  0
INSERT
  5
8C
330
1F
100
AcDbEntity
  8
_U+30EC_U+30A4_U+30E4_U+30FC 1
100
AcDbBlockReference
  2
block 3
 10
0.0
 20
0.0
 30
0.0
  0
POLYLINE
  5
94
330
1F
100
AcDbEntity
  8
_U+30EC_U+30A4_U+30E4_U+30FC 1
 62
   179
420
  2234388
370
     9
100
AcDb2dPolyline
 66
     1
 10
0.0
 20
0.0
 30
0.0
  0
VERTEX
  5
95
330
94
100
AcDbEntity
  8
_U+30EC_U+30A4_U+30E4_U+30FC 1
 62
   179
420
  2234388
370
     9
100
AcDbVertex
100
AcDb2dVertex
 10
82.01532790761466
 20
-138.7657032986419
 30
0.0
  0
VERTEX
  5
96
330
94
100
AcDbEntity
  8
_U+30EC_U+30A4_U+30E4_U+30FC 1
 62
   179
420
  2234388
370
     9
100
AcDbVertex
100
AcDb2dVertex
 10
102.0151462862657
 20
-138.7657032986419
 30
0.0
  0
SEQEND
  5
97
330
94
100
AcDbEntity
  8
_U+30EC_U+30A4_U+30E4_U+30FC 1
 62
   179
420
  2234388
370
     9
  0
POLYLINE
  5
98
330
1F
100
AcDbEntity
  8
_U+30EC_U+30A4_U+30E4_U+30FC 1
 62
   179
420
  2234388
370
     9
100
AcDb2dPolyline
 66
     1
 10
0.0
 20
0.0
 30
0.0
  0
VERTEX
  5
99
330
98
100
AcDbEntity
  8
_U+30EC_U+30A4_U+30E4_U+30FC 1
 62
   179
420
  2234388
370
     9
100
AcDbVertex
100
AcDb2dVertex
 10
82.01532790761466
 20
-137.3056619101182
 30
0.0
  0
VERTEX
  5
9A
330
98
100
AcDbEntity
  8
_U+30EC_U+30A4_U+30E4_U+30FC 1
 62
   179
420
  2234388
370
     9
100
AcDbVertex
100
AcDb2dVertex
 10
82.01532790761466
 20
-139.7654402428363
 30
0.0
  0
SEQEND
  5
9B
330
98
100
AcDbEntity
  8
_U+30EC_U+30A4_U+30E4_U+30FC 1
 62
   179
420
  2234388
370
     9
  0
POLYLINE
  5
9C
330
1F
100
AcDbEntity
  8
_U+30EC_U+30A4_U+30E4_U+30FC 1
 62
   179
420
  2234388
370
     9
100
AcDb2dPolyline
 66
     1
 10
0.0
 20
0.0
 30
0.0
  0
VERTEX
  5
9D
330
9C
100
AcDbEntity
  8
_U+30EC_U+30A4_U+30E4_U+30FC 1
 62
   179
420
  2234388
370
     9
100
AcDbVertex
100
AcDb2dVertex
 10
102.0151462862657
 20
-137.3056619101182
 30
0.0
  0
VERTEX
  5
9E
330
9C
100
AcDbEntity
  8
_U+30EC_U+30A4_U+30E4_U+30FC 1
 62
   179
420
  2234388
370
     9
100
AcDbVertex
100
AcDb2dVertex
 10
102.0151462862657
 20
-139.7654402428363
 30
0.0
  0
SEQEND
  5
9F
330
9C
100
AcDbEntity
  8
_U+30EC_U+30A4_U+30E4_U+30FC 1
 62
   179
420
  2234388
370
     9
  0
INSERT
  5
A1
330
1F
100
AcDbEntity
  8
_U+30EC_U+30A4_U+30E4_U+30FC 1
100
AcDbBlockReference
  2
block 4
 10
0.0
 20
0.0
 30
0.0
  0
INSERT
  5
AA
330
1F
100
AcDbEntity
  8
_U+30EC_U+30A4_U+30E4_U+30FC 1
100
AcDbBlockReference
  2
block 5
 10
0.0
 20
0.0
 30
0.0
  0
POLYLINE
  5
E7
330
1F
100
AcDbEntity
  8
_U+30EC_U+30A4_U+30E4_U+30FC 1
 62
   179
420
  2234388
370
     9
100
AcDb2dPolyline
 66
     1
 10
0.0
 20
0.0
 30
0.0
  0
VERTEX
  5
E8
330
E7
100
AcDbEntity
  8
_U+30EC_U+30A4_U+30E4_U+30FC 1
 62
   179
420
  2234388
370
     9
100
AcDbVertex
100
AcDb2dVertex
 10
80.81574442424045
 20
-135.2041646884212
 30
0.0
  0
VERTEX
  5
E9
330
E7
100
AcDbEntity
  8
_U+30EC_U+30A4_U+30E4_U+30FC 1
 62
   179
420
  2234388
370
     9
100
AcDbVertex
100
AcDb2dVertex
 10
77.2542038624144
 20
-139.8023055206053
 30
0.0
  0
SEQEND
  5
EA
330
E7
100
AcDbEntity
  8
_U+30EC_U+30A4_U+30E4_U+30FC 1
 62
   179
420
  2234388
370
     9
  0
POLYLINE
  5
EB
330
1F
100
AcDbEntity
  8
_U+30EC_U+30A4_U+30E4_U+30FC 1
  6
AI-Linetype-1
 62
   154
420
    23468
370
    25
100
AcDb2dPolyline
 66
     1
 10
0.0
 20
0.0
 30
0.0
  0
VERTEX
  5
EC
330
EB
100
AcDbEntity
  8
_U+30EC_U+30A4_U+30E4_U+30FC 1
  6
AI-Linetype-1
 62
   154
420
    23468
370
    25
100
AcDbVertex
100
AcDb2dVertex
 10
83.60850758919149
 20
-114.0640269159286
 30
0.0
  0
VERTEX
  5
ED
330
EB
100
AcDbEntity
  8
_U+30EC_U+30A4_U+30E4_U+30FC 1
  6
AI-Linetype-1
 62
   154
420
    23468
370
    25
100
AcDbVertex
100
AcDb2dVertex
 10
81.30511570351146
 20
-114.0640269159286
 30
0.0
  0
VERTEX
  5
EE
330
EB
100
AcDbEntity
  8
_U+30EC_U+30A4_U+30E4_U+30FC 1
  6
AI-Linetype-1
 62
   154
420
    23468
370
    25
100
AcDbVertex
100
AcDb2dVertex
 10
81.30511570351146
 20
-135.4866338550172
 30
0.0
  0
VERTEX
  5
EF
330
EB
100
AcDbEntity
  8
_U+30EC_U+30A4_U+30E4_U+30FC 1
  6
AI-Linetype-1
 62
   154
420
    23468
370
    25
100
AcDbVertex
100
AcDb2dVertex
 10
102.7203490460522
 20
-135.4866338550172
 30
0.0
  0
VERTEX
  5
F0
330
EB
100
AcDbEntity
  8
_U+30EC_U+30A4_U+30E4_U+30FC 1
  6
AI-Linetype-1
 62
   154
420
    23468
370
    25
100
AcDbVertex
100
AcDb2dVertex
 10
102.7203490460522
 20
-132.7350377445937
 30
0.0
  0
SEQEND
  5
F2
330
EB
100
AcDbEntity
  8
_U+30EC_U+30A4_U+30E4_U+30FC 1
  6
AI-Linetype-1
 62
   154
420
    23468
370
    25
  0
ENDSEC
  0
SECTION
  2
OBJECTS
  0
DICTIONARY
  5
C
330
0
100
AcDbDictionary
281
     1
  3
ACAD_GROUP
350
D
  3
ACAD_LAYOUT
350
1A
  3
ACAD_MATERIAL
350
3B
  3
ACAD_MLEADERSTYLE
350
F4
  3
ACAD_MLINESTYLE
350
17
  3
ACAD_PLOTSETTINGS
350
19
  3
ACAD_PLOTSTYLENAME
350
E
  3
ACAD_TABLESTYLE
350
F3
  3
ACAD_VISUALSTYLE
350
2A
  0
SUN
  5
3F
330
29
100
AcDbSun
 90
        1
290
     0
 63
     7
421
 16777215
 40
1.0
291
     1
 91
  2455826
 92
 54000000
292
     0
 70
     2
 71
   256
280
     1
  0
DICTIONARY
  5
D
102
{ACAD_REACTORS
330
C
102
}
330
C
100
AcDbDictionary
281
     1
  0
DICTIONARY
  5
1A
102
{ACAD_REACTORS
330
C
102
}
330
C
100
AcDbDictionary
281
     1
  3
Layout1
350
1E
  3
Layout2
350
26
  3
Model
350
22
  0
DICTIONARY
  5
3B
102
{ACAD_REACTORS
330
C
102
}
330
C
100
AcDbDictionary
281
     1
  3
ByBlock
350
3D
  3
ByLayer
350
3C
  3
Global
350
3E
  0
DICTIONARY
  5
F4
102
{ACAD_REACTORS
330
C
102
}
330
C
100
AcDbDictionary
281
     1
  0
DICTIONARY
  5
17
102
{ACAD_REACTORS
330
C
102
}
330
C
100
AcDbDictionary
281
     1
  3
Standard
350
18
  0
DICTIONARY
  5
19
102
{ACAD_REACTORS
330
C
102
}
330
C
100
AcDbDictionary
281
     1
  0
ACDBDICTIONARYWDFLT
  5
E
102
{ACAD_REACTORS
330
C
102
}
330
C
100
AcDbDictionary
281
     1
  3
Normal
350
F
100
AcDbDictionaryWithDefault
340
F
  0
DICTIONARY
  5
F3
102
{ACAD_REACTORS
330
C
102
}
330
C
100
AcDbDictionary
281
     1
  0
DICTIONARY
  5
2A
102
{ACAD_REACTORS
330
C
102
}
330
C
100
AcDbDictionary
281
     1
  3
2dWireframe
350
2F
  3
3D Hidden
350
31
  3
3dWireframe
350
30
  3
Basic
350
32
  3
Brighten
350
36
  3
ColorChange
350
3A
  3
Conceptual
350
34
  3
Dim
350
35
  3
Facepattern
350
39
  3
Flat
350
2B
  3
FlatWithEdges
350
2C
  3
Gouraud
350
2D
  3
GouraudWithEdges
350
2E
  3
Linepattern
350
38
  3
Realistic
350
33
  3
Thicken
350
37
  0
LAYOUT
  5
1E
102
{ACAD_REACTORS
330
1A
102
}
330
1A
100
AcDbPlotSettings
  1

  2
none_device
  4

  6

 40
0.0
 41
0.0
 42
0.0
 43
0.0
 44
0.0
 45
0.0
 46
0.0
 47
0.0
 48
0.0
 49
0.0
140
0.0
141
0.0
142
1.0
143
1.0
 70
   688
 72
     0
 73
     0
 74
     5
  7

 75
    16
 76
     0
 77
     2
 78
   300
147
1.0
148
0.0
149
0.0
100
AcDbLayout
  1
Layout1
 70
     1
 71
     1
 10
0.0
 20
0.0
 11
12.0
 21
9.0
 12
0.0
 22
0.0
 32
0.0
 14
1.000000000000000E+20
 24
1.000000000000000E+20
 34
1.000000000000000E+20
 15
-1.000000000000000E+20
 25
-1.000000000000000E+20
 35
-1.000000000000000E+20
146
0.0
 13
0.0
 23
0.0
 33
0.0
 16
1.0
 26
0.0
 36
0.0
 17
0.0
 27
1.0
 37
0.0
 76
     0
330
1B
  0
LAYOUT
  5
26
102
{ACAD_REACTORS
330
1A
102
}
330
1A
100
AcDbPlotSettings
  1

  2
none_device
  4

  6

 40
0.0
 41
0.0
 42
0.0
 43
0.0
 44
0.0
 45
0.0
 46
0.0
 47
0.0
 48
0.0
 49
0.0
140
0.0
141
0.0
142
1.0
143
1.0
 70
   688
 72
     0
 73
     0
 74
     5
  7

 75
    16
 76
     0
 77
     2
 78
   300
147
1.0
148
0.0
149
0.0
100
AcDbLayout
  1
Layout2
 70
     1
 71
     2
 10
0.0
 20
0.0
 11
0.0
 21
0.0
 12
0.0
 22
0.0
 32
0.0
 14
0.0
 24
0.0
 34
0.0
 15
0.0
 25
0.0
 35
0.0
146
0.0
 13
0.0
 23
0.0
 33
0.0
 16
1.0
 26
0.0
 36
0.0
 17
0.0
 27
1.0
 37
0.0
 76
     0
330
23
  0
LAYOUT
  5
22
102
{ACAD_REACTORS
330
1A
102
}
330
1A
100
AcDbPlotSettings
  1

  2
none_device
  4

  6

 40
0.0
 41
0.0
 42
0.0
 43
0.0
 44
0.0
 45
0.0
 46
0.0
 47
0.0
 48
0.0
 49
0.0
140
0.0
141
0.0
142
1.0
143
1.0
 70
  1712
 72
     0
 73
     0
 74
     0
  7

 75
     0
 76
     0
 77
     2
 78
   300
147
1.0
148
0.0
149
0.0
100
AcDbLayout
  1
Model
 70
     1
 71
     0
 10
0.0
 20
0.0
 11
12.0
 21
9.0
 12
0.0
 22
0.0
 32
0.0
 14
1.000000000000000E+20
 24
1.000000000000000E+20
 34
1.000000000000000E+20
 15
-1.000000000000000E+20
 25
-1.000000000000000E+20
 35
-1.000000000000000E+20
146
0.0
 13
0.0
 23
0.0
 33
0.0
 16
1.0
 26
0.0
 36
0.0
 17
0.0
 27
1.0
 37
0.0
 76
     0
330
1F
331
29
  0
MATERIAL
  5
3D
102
{ACAD_REACTORS
330
3B
102
}
330
3B
100
AcDbMaterial
  1
ByBlock
 72
     1
 94
      127
  0
MATERIAL
  5
3C
102
{ACAD_REACTORS
330
3B
102
}
330
3B
100
AcDbMaterial
  1
ByLayer
 72
     1
 94
      127
  0
MATERIAL
  5
3E
102
{ACAD_REACTORS
330
3B
102
}
330
3B
100
AcDbMaterial
  1
Global
 72
     1
 94
      127
  0
MLINESTYLE
  5
18
102
{ACAD_REACTORS
330
17
102
}
330
17
100
AcDbMlineStyle
  2
Standard
 70
     0
  3

 62
   256
 51
90.0
 52
90.0
 71
     2
 49
0.5
 62
   256
  6
BYLAYER
 49
-0.5
 62
   256
  6
BYLAYER
  0
ACDBPLACEHOLDER
  5
F
102
{ACAD_REACTORS
330
E
102
}
330
E
  0
VISUALSTYLE
  5
2F
102
{ACAD_REACTORS
330
2A
102
}
330
2A
100
AcDbVisualStyle
  2
2dWireframe
 70
     4
177
     2
291
     0
 71
     0
176
     1
 72
     2
176
     1
 73
     0
176
     1
 90
        0
176
     1
 40
-0.6
176
     1
 41
-30.0
176
     1
 62
     5
 63
     7
421
 16777215
176
     1
 74
     1
176
     1
 91
        4
176
     1
 64
     7
176
     1
 65
   257
176
     1
 75
     1
176
     1
175
     1
176
     1
 42
1.0
176
     1
 92
        0
176
     1
 66
   257
176
     1
 43
1.0
176
     1
 76
     1
176
     1
 77
     6
176
     1
 78
     2
176
     1
 67
     7
176
     1
 79
     5
176
     1
170
     0
176
     1
171
     0
176
     1
290
     0
176
     1
 93
        1
176
     1
 44
0.0
176
     1
173
     0
176
     1
  0
VISUALSTYLE
  5
31
102
{ACAD_REACTORS
330
2A
102
}
330
2A
100
AcDbVisualStyle
  2
3D Hidden
 70
     6
177
     2
291
     0
 71
     1
176
     1
 72
     2
176
     1
 73
     2
176
     1
 90
        0
176
     1
 40
-0.6
176
     1
 41
-30.0
176
     1
 62
     5
 63
     7
421
 16777215
176
     1
 74
     2
176
     1
 91
        2
176
     1
 64
     7
176
     1
 65
   257
176
     1
 75
     2
176
     1
175
     1
176
     1
 42
40.0
176
     1
 92
        0
176
     1
 66
   257
176
     1
 43
1.0
176
     1
 76
     1
176
     1
 77
     6
176
     1
 78
     2
176
     1
 67
     7
176
     1
 79
     3
176
     1
170
     0
176
     1
171
     0
176
     1
290
     0
176
     1
 93
        1
176
     1
 44
0.0
176
     1
173
     0
176
     1
  0
VISUALSTYLE
  5
30
102
{ACAD_REACTORS
330
2A
102
}
330
2A
100
AcDbVisualStyle
  2
3dWireframe
 70
     5
177
     2
291
     0
 71
     0
176
     1
 72
     2
176
     1
 73
     0
176
     1
 90
        0
176
     1
 40
-0.6
176
     1
 41
-30.0
176
     1
 62
     5
 63
     7
421
 16777215
176
     1
 74
     1
176
     1
 91
        4
176
     1
 64
     7
176
     1
 65
   257
176
     1
 75
     1
176
     1
175
     1
176
     1
 42
1.0
176
     1
 92
        0
176
     1
 66
   257
176
     1
 43
1.0
176
     1
 76
     1
176
     1
 77
     6
176
     1
 78
     2
176
     1
 67
     7
176
     1
 79
     5
176
     1
170
     0
176
     1
171
     0
176
     1
290
     0
176
     1
 93
        1
176
     1
 44
0.0
176
     1
173
     0
176
     1
  0
VISUALSTYLE
  5
32
102
{ACAD_REACTORS
330
2A
102
}
330
2A
100
AcDbVisualStyle
  2
Basic
 70
     7
177
     2
291
     1
 71
     1
176
     1
 72
     0
176
     1
 73
     1
176
     1
 90
        0
176
     1
 40
-0.6
176
     1
 41
-30.0
176
     1
 62
     5
 63
     7
421
 16777215
176
     1
 74
     0
176
     1
 91
        4
176
     1
 64
     7
176
     1
 65
   257
176
     1
 75
     1
176
     1
175
     1
176
     1
 42
1.0
176
     1
 92
        8
176
     1
 66
     7
176
     1
 43
1.0
176
     1
 76
     1
176
     1
 77
     6
176
     1
 78
     2
176
     1
 67
     7
176
     1
 79
     5
176
     1
170
     0
176
     1
171
     0
176
     1
290
     0
176
     1
 93
        1
176
     1
 44
0.0
176
     1
173
     0
176
     1
  0
VISUALSTYLE
  5
36
102
{ACAD_REACTORS
330
2A
102
}
330
2A
100
AcDbVisualStyle
  2
Brighten
 70
    12
177
     2
291
     1
 71
     2
176
     1
 72
     2
176
     1
 73
     0
176
     1
 90
        0
176
     1
 40
-0.6
176
     1
 41
-30.0
176
     1
 62
     5
 63
     7
421
 16777215
176
     1
 74
     1
176
     1
 91
        4
176
     1
 64
     7
176
     1
 65
   257
176
     1
 75
     1
176
     1
175
     1
176
     1
 42
1.0
176
     1
 92
        8
176
     1
 66
     7
176
     1
 43
1.0
176
     1
 76
     1
176
     1
 77
     6
176
     1
 78
     2
176
     1
 67
     7
176
     1
 79
     5
176
     1
170
     0
176
     1
171
     0
176
     1
290
     0
176
     1
 93
        1
176
     1
 44
50.0
176
     1
173
     0
176
     1
  0
VISUALSTYLE
  5
3A
102
{ACAD_REACTORS
330
2A
102
}
330
2A
100
AcDbVisualStyle
  2
ColorChange
 70
    16
177
     2
291
     1
 71
     2
176
     1
 72
     2
176
     1
 73
     3
176
     1
 90
        0
176
     1
 40
-0.6
176
     1
 41
-30.0
176
     1
 62
     5
 63
     8
421
  8421504
176
     1
 74
     1
176
     1
 91
        4
176
     1
 64
     7
176
     1
 65
   257
176
     1
 75
     1
176
     1
175
     1
176
     1
 42
1.0
176
     1
 92
        8
176
     1
 66
     8
424
  8421504
176
     1
 43
1.0
176
     1
 76
     1
176
     1
 77
     6
176
     1
 78
     2
176
     1
 67
     7
176
     1
 79
     5
176
     1
170
     0
176
     1
171
     0
176
     1
290
     0
176
     1
 93
        1
176
     1
 44
0.0
176
     1
173
     0
176
     1
  0
VISUALSTYLE
  5
34
102
{ACAD_REACTORS
330
2A
102
}
330
2A
100
AcDbVisualStyle
  2
Conceptual
 70
     9
177
     2
291
     0
 71
     3
176
     1
 72
     2
176
     1
 73
     0
176
     1
 90
        0
176
     1
 40
-0.6
176
     1
 41
-30.0
176
     1
 62
     5
 63
     7
421
 16777215
176
     1
 74
     2
176
     1
 91
        2
176
     1
 64
     7
176
     1
 65
   257
176
     1
 75
     1
176
     1
175
     1
176
     1
 42
40.0
176
     1
 92
        8
176
     1
 66
     7
176
     1
 43
1.0
176
     1
 76
     1
176
     1
 77
     6
176
     1
 78
     2
176
     1
 67
     7
176
     1
 79
     3
176
     1
170
     0
176
     1
171
     0
176
     1
290
     0
176
     1
 93
        1
176
     1
 44
0.0
176
     1
173
     0
176
     1
  0
VISUALSTYLE
  5
35
102
{ACAD_REACTORS
330
2A
102
}
330
2A
100
AcDbVisualStyle
  2
Dim
 70
    11
177
     2
291
     1
 71
     2
176
     1
 72
     2
176
     1
 73
     0
176
     1
 90
        0
176
     1
 40
-0.6
176
     1
 41
-30.0
176
     1
 62
     5
 63
     7
421
 16777215
176
     1
 74
     1
176
     1
 91
        4
176
     1
 64
     7
176
     1
 65
   257
176
     1
 75
     1
176
     1
175
     1
176
     1
 42
1.0
176
     1
 92
        8
176
     1
 66
     7
176
     1
 43
1.0
176
     1
 76
     1
176
     1
 77
     6
176
     1
 78
     2
176
     1
 67
     7
176
     1
 79
     5
176
     1
170
     0
176
     1
171
     0
176
     1
290
     0
176
     1
 93
        1
176
     1
 44
-50.0
176
     1
173
     0
176
     1
  0
VISUALSTYLE
  5
39
102
{ACAD_REACTORS
330
2A
102
}
330
2A
100
AcDbVisualStyle
  2
Facepattern
 70
    15
177
     2
291
     1
 71
     2
176
     1
 72
     2
176
     1
 73
     0
176
     1
 90
        0
176
     1
 40
-0.6
176
     1
 41
-30.0
176
     1
 62
     5
 63
     7
421
 16777215
176
     1
 74
     1
176
     1
 91
        4
176
     1
 64
     7
176
     1
 65
   257
176
     1
 75
     1
176
     1
175
     1
176
     1
 42
1.0
176
     1
 92
        8
176
     1
 66
     7
176
     1
 43
1.0
176
     1
 76
     1
176
     1
 77
     6
176
     1
 78
     2
176
     1
 67
     7
176
     1
 79
     5
176
     1
170
     0
176
     1
171
     0
176
     1
290
     0
176
     1
 93
        1
176
     1
 44
0.0
176
     1
173
     0
176
     1
  0
VISUALSTYLE
  5
2B
102
{ACAD_REACTORS
330
2A
102
}
330
2A
100
AcDbVisualStyle
  2
Flat
 70
     0
177
     2
291
     1
 71
     2
176
     1
 72
     1
176
     1
 73
     1
176
     1
 90
        2
176
     1
 40
-0.6
176
     1
 41
30.0
176
     1
 62
     5
 63
     7
421
 16777215
176
     1
 74
     0
176
     1
 91
        4
176
     1
 64
     7
176
     1
 65
   257
176
     1
 75
     1
176
     1
175
     1
176
     1
 42
1.0
176
     1
 92
        8
176
     1
 66
     7
176
     1
 43
1.0
176
     1
 76
     1
176
     1
 77
     6
176
     1
 78
     2
176
     1
 67
     7
176
     1
 79
     5
176
     1
170
     0
176
     1
171
     0
176
     1
290
     0
176
     1
 93
       13
176
     1
 44
0.0
176
     1
173
     0
176
     1
  0
VISUALSTYLE
  5
2C
102
{ACAD_REACTORS
330
2A
102
}
330
2A
100
AcDbVisualStyle
  2
FlatWithEdges
 70
     1
177
     2
291
     1
 71
     2
176
     1
 72
     1
176
     1
 73
     1
176
     1
 90
        2
176
     1
 40
-0.6
176
     1
 41
30.0
176
     1
 62
     5
 63
     7
421
 16777215
176
     1
 74
     1
176
     1
 91
        4
176
     1
 64
     7
176
     1
 65
   257
176
     1
 75
     1
176
     1
175
     1
176
     1
 42
1.0
176
     1
 92
        0
176
     1
 66
   257
176
     1
 43
1.0
176
     1
 76
     1
176
     1
 77
     6
176
     1
 78
     2
176
     1
 67
     7
176
     1
 79
     5
176
     1
170
     0
176
     1
171
     0
176
     1
290
     0
176
     1
 93
       13
176
     1
 44
0.0
176
     1
173
     0
176
     1
  0
VISUALSTYLE
  5
2D
102
{ACAD_REACTORS
330
2A
102
}
330
2A
100
AcDbVisualStyle
  2
Gouraud
 70
     2
177
     2
291
     1
 71
     2
176
     1
 72
     2
176
     1
 73
     1
176
     1
 90
        2
176
     1
 40
-0.6
176
     1
 41
30.0
176
     1
 62
     5
 63
     7
421
 16777215
176
     1
 74
     0
176
     1
 91
        4
176
     1
 64
     7
176
     1
 65
   257
176
     1
 75
     1
176
     1
175
     1
176
     1
 42
1.0
176
     1
 92
        0
176
     1
 66
     7
176
     1
 43
1.0
176
     1
 76
     1
176
     1
 77
     6
176
     1
 78
     2
176
     1
 67
     7
176
     1
 79
     5
176
     1
170
     0
176
     1
171
     0
176
     1
290
     0
176
     1
 93
       13
176
     1
 44
0.0
176
     1
173
     0
176
     1
  0
VISUALSTYLE
  5
2E
102
{ACAD_REACTORS
330
2A
102
}
330
2A
100
AcDbVisualStyle
  2
GouraudWithEdges
 70
     3
177
     2
291
     1
 71
     2
176
     1
 72
     2
176
     1
 73
     1
176
     1
 90
        2
176
     1
 40
-0.6
176
     1
 41
30.0
176
     1
 62
     5
 63
     7
421
 16777215
176
     1
 74
     1
176
     1
 91
        4
176
     1
 64
     7
176
     1
 65
   257
176
     1
 75
     1
176
     1
175
     1
176
     1
 42
1.0
176
     1
 92
        0
176
     1
 66
   257
176
     1
 43
1.0
176
     1
 76
     1
176
     1
 77
     6
176
     1
 78
     2
176
     1
 67
     7
176
     1
 79
     5
176
     1
170
     0
176
     1
171
     0
176
     1
290
     0
176
     1
 93
       13
176
     1
 44
0.0
176
     1
173
     0
176
     1
  0
VISUALSTYLE
  5
38
102
{ACAD_REACTORS
330
2A
102
}
330
2A
100
AcDbVisualStyle
  2
Linepattern
 70
    14
177
     2
291
     1
 71
     2
176
     1
 72
     2
176
     1
 73
     0
176
     1
 90
        0
176
     1
 40
-0.6
176
     1
 41
-30.0
176
     1
 62
     5
 63
     7
421
 16777215
176
     1
 74
     1
176
     1
 91
        4
176
     1
 64
     7
176
     1
 65
   257
176
     1
 75
     7
176
     1
175
     7
176
     1
 42
1.0
176
     1
 92
        8
176
     1
 66
     7
176
     1
 43
1.0
176
     1
 76
     1
176
     1
 77
     6
176
     1
 78
     2
176
     1
 67
     7
176
     1
 79
     5
176
     1
170
     0
176
     1
171
     0
176
     1
290
     0
176
     1
 93
        1
176
     1
 44
0.0
176
     1
173
     0
176
     1
  0
VISUALSTYLE
  5
33
102
{ACAD_REACTORS
330
2A
102
}
330
2A
100
AcDbVisualStyle
  2
Realistic
 70
     8
177
     2
291
     0
 71
     2
176
     1
 72
     2
176
     1
 73
     0
176
     1
 90
        0
176
     1
 40
-0.6
176
     1
 41
-30.0
176
     1
 62
     5
 63
     7
421
 16777215
176
     1
 74
     1
176
     1
 91
        0
176
     1
 64
     7
176
     1
 65
   257
176
     1
 75
     1
176
     1
175
     1
176
     1
 42
1.0
176
     1
 92
        8
176
     1
 66
     8
424
  7895160
176
     1
 43
1.0
176
     1
 76
     1
176
     1
 77
     6
176
     1
 78
     2
176
     1
 67
     7
176
     1
 79
     5
176
     1
170
     0
176
     1
171
     0
176
     1
290
     0
176
     1
 93
       13
176
     1
 44
0.0
176
     1
173
     0
176
     1
  0
VISUALSTYLE
  5
37
102
{ACAD_REACTORS
330
2A
102
}
330
2A
100
AcDbVisualStyle
  2
Thicken
 70
    13
177
     2
291
     1
 71
     2
176
     1
 72
     2
176
     1
 73
     0
176
     1
 90
        0
176
     1
 40
-0.6
176
     1
 41
-30.0
176
     1
 62
     5
 63
     7
421
 16777215
176
     1
 74
     1
176
     1
 91
        4
176
     1
 64
     7
176
     1
 65
   257
176
     1
 75
     1
176
     1
175
     1
176
     1
 42
1.0
176
     1
 92
       12
176
     1
 66
     7
176
     1
 43
1.0
176
     1
 76
     1
176
     1
 77
     6
176
     1
 78
     2
176
     1
 67
     7
176
     1
 79
     5
176
     1
170
     0
176
     1
171
     0
176
     1
290
     0
176
     1
 93
        1
176
     1
 44
0.0
176
     1
173
     0
176
     1
  0
ENDSEC
  0
EOF
