  0
SECTION
  2
HEADER
  9
$ACADVER
  1
AC1024
  9
$ACADMAINTVER
 70
     6
  9
$DWGCODEPAGE
  3
UNDEFINED
  9
$INSBASE
 10
0.0
 20
0.0
 30
0.0
  9
$EXTMIN
 10
1.000000000000000E+20
 20
1.000000000000000E+20
 30
1.000000000000000E+20
  9
$EXTMAX
 10
-1.000000000000000E+20
 20
-1.000000000000000E+20
 30
-1.000000000000000E+20
  9
$LIMMIN
 10
0.0
 20
0.0
  9
$LIMMAX
 10
12.0
 20
9.0
  9
$ORTHOMODE
 70
     0
  9
$REGENMODE
 70
     1
  9
$FILLMODE
 70
     1
  9
$QTEXTMODE
 70
     0
  9
$MIRRTEXT
 70
     1
  9
$LTSCALE
 40
1.0
  9
$ATTMODE
 70
     1
  9
$TEXTSIZE
 40
0.2
  9
$TRACEWID
 40
0.05
  9
$TEXTSTYLE
  7
Standard
  9
$CLAYER
  8
0
  9
$CELTYPE
  6
ByLayer
  9
$CECOLOR
 62
   256
  9
$CELTSCALE
 40
1.0
  9
$DISPSILH
 70
     0
  9
$DIMSCALE
 40
1.0
  9
$DIMASZ
 40
0.18
  9
$DIMEXO
 40
0.0625
  9
$DIMDLI
 40
0.38
  9
$DIMRND
 40
0.0
  9
$DIMDLE
 40
0.0
  9
$DIMEXE
 40
0.18
  9
$DIMTP
 40
0.0
  9
$DIMTM
 40
0.0
  9
$DIMTXT
 40
0.18
  9
$DIMCEN
 40
0.09
  9
$DIMTSZ
 40
0.0
  9
$DIMTOL
 70
     0
  9
$DIMLIM
 70
     0
  9
$DIMTIH
 70
     1
  9
$DIMTOH
 70
     1
  9
$DIMSE1
 70
     0
  9
$DIMSE2
 70
     0
  9
$DIMTAD
 70
     0
  9
$DIMZIN
 70
     0
  9
$DIMBLK
  1

  9
$DIMASO
 70
     1
  9
$DIMSHO
 70
     1
  9
$DIMPOST
  1

  9
$DIMAPOST
  1

  9
$DIMALT
 70
     0
  9
$DIMALTD
 70
     2
  9
$DIMALTF
 40
25.4
  9
$DIMLFAC
 40
1.0
  9
$DIMTOFL
 70
     0
  9
$DIMTVP
 40
0.0
  9
$DIMTIX
 70
     0
  9
$DIMSOXD
 70
     0
  9
$DIMSAH
 70
     0
  9
$DIMBLK1
  1

  9
$DIMBLK2
  1

  9
$DIMSTYLE
  2
Standard
  9
$DIMCLRD
 70
     0
  9
$DIMCLRE
 70
     0
  9
$DIMCLRT
 70
     0
  9
$DIMTFAC
 40
1.0
  9
$DIMGAP
 40
0.09
  9
$DIMJUST
 70
     0
  9
$DIMSD1
 70
     0
  9
$DIMSD2
 70
     0
  9
$DIMTOLJ
 70
     1
  9
$DIMTZIN
 70
     0
  9
$DIMALTZ
 70
     0
  9
$DIMALTTZ
 70
     0
  9
$DIMUPT
 70
     0
  9
$DIMDEC
 70
     4
  9
$DIMTDEC
 70
     4
  9
$DIMALTU
 70
     2
  9
$DIMALTTD
 70
     2
  9
$DIMTXSTY
  7
Standard
  9
$DIMAUNIT
 70
     0
  9
$DIMADEC
 70
     0
  9
$DIMALTRND
 40
0.0
  9
$DIMAZIN
 70
     0
  9
$DIMDSEP
 70
    46
  9
$DIMATFIT
 70
     3
  9
$DIMFRAC
 70
     0
  9
$DIMLDRBLK
  1

  9
$DIMLUNIT
 70
     2
  9
$DIMLWD
 70
    -2
  9
$DIMLWE
 70
    -2
  9
$DIMTMOVE
 70
     0
  9
$DIMFXL
 40
1.0
  9
$DIMFXLON
 70
     0
  9
$DIMJOGANG
 40
0.7853981633974483
  9
$DIMTFILL
 70
     0
  9
$DIMTFILLCLR
 70
     0
  9
$DIMARCSYM
 70
     0
  9
$DIMLTYPE
  6

  9
$DIMLTEX1
  6

  9
$DIMLTEX2
  6

  9
$DIMTXTDIRECTION
 70
     0
  9
$LUNITS
 70
     2
  9
$LUPREC
 70
     4
  9
$SKETCHINC
 40
0.1
  9
$FILLETRAD
 40
0.5
  9
$AUNITS
 70
     0
  9
$AUPREC
 70
     0
  9
$MENU
  1
.
  9
$ELEVATION
 40
0.0
  9
$PELEVATION
 40
0.0
  9
$THICKNESS
 40
0.0
  9
$LIMCHECK
 70
     0
  9
$CHAMFERA
 40
0.5
  9
$CHAMFERB
 40
0.5
  9
$CHAMFERC
 40
1.0
  9
$CHAMFERD
 40
0.0
  9
$SKPOLY
 70
     0
  9
$TDCREATE
 40
2457917.595543982
  9
$TDUCREATE
 40
2457917.220543982
  9
$TDUPDATE
 40
2457917.595543982
  9
$TDUUPDATE
 40
2457917.220543982
  9
$TDINDWG
 40
0.0000000116
  9
$TDUSRTIMER
 40
0.0000000116
  9
$USRTIMER
 70
     1
  9
$ANGBASE
 50
0.0
  9
$ANGDIR
 70
     0
  9
$PDMODE
 70
     0
  9
$PDSIZE
 40
0.0
  9
$PLINEWID
 40
0.0
  9
$SPLFRAME
 70
     0
  9
$SPLINETYPE
 70
     6
  9
$SPLINESEGS
 70
     8
  9
$HANDSEED
  5
AC
  9
$SURFTAB1
 70
     6
  9
$SURFTAB2
 70
     6
  9
$SURFTYPE
 70
     6
  9
$SURFU
 70
     6
  9
$SURFV
 70
     6
  9
$UCSBASE
  2

  9
$UCSNAME
  2

  9
$UCSORG
 10
0.0
 20
0.0
 30
0.0
  9
$UCSXDIR
 10
1.0
 20
0.0
 30
0.0
  9
$UCSYDIR
 10
0.0
 20
1.0
 30
0.0
  9
$UCSORTHOREF
  2

  9
$UCSORTHOVIEW
 70
     0
  9
$UCSORGTOP
 10
0.0
 20
0.0
 30
0.0
  9
$UCSORGBOTTOM
 10
0.0
 20
0.0
 30
0.0
  9
$UCSORGLEFT
 10
0.0
 20
0.0
 30
0.0
  9
$UCSORGRIGHT
 10
0.0
 20
0.0
 30
0.0
  9
$UCSORGFRONT
 10
0.0
 20
0.0
 30
0.0
  9
$UCSORGBACK
 10
0.0
 20
0.0
 30
0.0
  9
$PUCSBASE
  2

  9
$PUCSNAME
  2

  9
$PUCSORG
 10
0.0
 20
0.0
 30
0.0
  9
$PUCSXDIR
 10
1.0
 20
0.0
 30
0.0
  9
$PUCSYDIR
 10
0.0
 20
1.0
 30
0.0
  9
$PUCSORTHOREF
  2

  9
$PUCSORTHOVIEW
 70
     0
  9
$PUCSORGTOP
 10
0.0
 20
0.0
 30
0.0
  9
$PUCSORGBOTTOM
 10
0.0
 20
0.0
 30
0.0
  9
$PUCSORGLEFT
 10
0.0
 20
0.0
 30
0.0
  9
$PUCSORGRIGHT
 10
0.0
 20
0.0
 30
0.0
  9
$PUCSORGFRONT
 10
0.0
 20
0.0
 30
0.0
  9
$PUCSORGBACK
 10
0.0
 20
0.0
 30
0.0
  9
$USERI1
 70
     0
  9
$USERI2
 70
     0
  9
$USERI3
 70
     0
  9
$USERI4
 70
     0
  9
$USERI5
 70
     0
  9
$USERR1
 40
0.0
  9
$USERR2
 40
0.0
  9
$USERR3
 40
0.0
  9
$USERR4
 40
0.0
  9
$USERR5
 40
0.0
  9
$WORLDVIEW
 70
     1
  9
$SHADEDGE
 70
     3
  9
$SHADEDIF
 70
    70
  9
$TILEMODE
 70
     1
  9
$MAXACTVP
 70
    64
  9
$PINSBASE
 10
0.0
 20
0.0
 30
0.0
  9
$PLIMCHECK
 70
     0
  9
$PEXTMIN
 10
1.000000000000000E+20
 20
1.000000000000000E+20
 30
1.000000000000000E+20
  9
$PEXTMAX
 10
-1.000000000000000E+20
 20
-1.000000000000000E+20
 30
-1.000000000000000E+20
  9
$PLIMMIN
 10
0.0
 20
0.0
  9
$PLIMMAX
 10
12.0
 20
9.0
  9
$UNITMODE
 70
     0
  9
$VISRETAIN
 70
     1
  9
$PLINEGEN
 70
     0
  9
$PSLTSCALE
 70
     1
  9
$TREEDEPTH
 70
  3020
  9
$CMLSTYLE
  2
Standard
  9
$CMLJUST
 70
     0
  9
$CMLSCALE
 40
1.0
  9
$PROXYGRAPHICS
 70
     1
  9
$MEASUREMENT
 70
     0
  9
$CELWEIGHT
370
    -1
  9
$ENDCAPS
280
     0
  9
$JOINSTYLE
280
     0
  9
$LWDISPLAY
290
     1
  9
$INSUNITS
 70
     1
  9
$HYPERLINKBASE
  1

  9
$STYLESHEET
  1

  9
$XEDIT
290
     1
  9
$CEPSNTYPE
380
     0
  9
$PSTYLEMODE
290
     1
  9
$FINGERPRINTGUID
  2
{C99A2762-C6AA-1140-0F01-940D703FC54C}
  9
$VERSIONGUID
  2
{FAEB1C32-E019-11D5-929B-00C0DF256EC4}
  9
$EXTNAMES
290
     1
  9
$PSVPSCALE
 40
0.0
  9
$OLESTARTUP
290
     0
  9
$SORTENTS
280
   127
  9
$INDEXCTL
280
     0
  9
$HIDETEXT
280
     1
  9
$XCLIPFRAME
280
     2
  9
$HALOGAP
280
     0
  9
$OBSCOLOR
 70
   257
  9
$OBSLTYPE
280
     0
  9
$INTERSECTIONDISPLAY
280
     0
  9
$INTERSECTIONCOLOR
 70
   257
  9
$DIMASSOC
280
     2
  9
$PROJECTNAME
  1

  9
$CAMERADISPLAY
290
     0
  9
$LENSLENGTH
 40
50.0
  9
$CAMERAHEIGHT
 40
0.0
  9
$STEPSPERSEC
 40
2.0
  9
$STEPSIZE
 40
6.0
  9
$3DDWFPREC
 40
2.0
  9
$PSOLWIDTH
 40
0.25
  9
$PSOLHEIGHT
 40
4.0
  9
$LOFTANG1
 40
1.570796326794897
  9
$LOFTANG2
 40
1.570796326794897
  9
$LOFTMAG1
 40
0.0
  9
$LOFTMAG2
 40
0.0
  9
$LOFTPARAM
 70
     7
  9
$LOFTNORMALS
280
     1
  9
$LATITUDE
 40
37.795
  9
$LONGITUDE
 40
-122.394
  9
$NORTHDIRECTION
 40
0.0
  9
$TIMEZONE
 70
 -8000
  9
$LIGHTGLYPHDISPLAY
280
     1
  9
$TILEMODELIGHTSYNCH
280
     1
  9
$CMATERIAL
347
3C
  9
$SOLIDHIST
280
     1
  9
$SHOWHIST
280
     1
  9
$DWFFRAME
280
     2
  9
$DGNFRAME
280
     2
  9
$REALWORLDSCALE
290
     1
  9
$INTERFERECOLOR
 62
   256
  9
$CSHADOW
280
     0
  9
$SHADOWPLANELOCATION
 40
0.0
  0
ENDSEC
  0
SECTION
  2
CLASSES
  0
CLASS
  1
ACDBDICTIONARYWDFLT
  2
AcDbDictionaryWithDefault
  3
ObjectDBX Classes
 90
        0
 91
        4
280
     0
281
     0
  0
CLASS
  1
VISUALSTYLE
  2
AcDbVisualStyle
  3
ObjectDBX Classes
 90
     4095
 91
        4
280
     0
281
     0
  0
CLASS
  1
MATERIAL
  2
AcDbMaterial
  3
ObjectDBX Classes
 90
     1153
 91
        4
280
     0
281
     0
  0
CLASS
  1
SUN
  2
AcDbSun
  3
SCENEOE
 90
     1024
 91
        4
280
     0
281
     0
  0
ENDSEC
  0
SECTION
  2
TABLES
  0
TABLE
  2
VPORT
  5
8
330
0
100
AcDbSymbolTable
 70
     1
  0
VPORT
  5
29
330
8
100
AcDbSymbolTableRecord
100
AcDbViewportTableRecord
  2
*Active
 70
     0
 10
0.0
 20
0.0
 11
1.0
 21
1.0
 12
0.0
 22
0.0
 13
0.0
 23
0.0
 14
0.5
 24
0.5
 15
0.5
 25
0.5
 16
0.0
 26
0.0
 36
1.0
 17
91.00082462281999
 27
-128.4993055234307
 37
0.0
 40
256.9986110468615
 41
0.7081814508812795
 42
50.0
 43
0.0
 44
0.0
 50
0.0
 51
0.0
 71
     0
 72
   100
 73
     1
 74
     3
 75
     0
 76
     0
 77
     0
 78
     0
281
     0
 65
     1
110
0.0
120
0.0
130
0.0
111
1.0
121
0.0
131
0.0
112
0.0
122
1.0
132
0.0
 79
     0
146
0.0
 60
     3
 61
     5
292
     1
282
     1
141
0.0
142
0.0
 63
   250
361
3F
  0
ENDTAB
  0
TABLE
  2
LTYPE
  5
5
330
0
100
AcDbSymbolTable
 70
     1
  0
LTYPE
  5
14
330
5
100
AcDbSymbolTableRecord
100
AcDbLinetypeTableRecord
  2
ByBlock
 70
     0
  3

 72
    65
 73
     0
 40
0.0
  0
LTYPE
  5
15
330
5
100
AcDbSymbolTableRecord
100
AcDbLinetypeTableRecord
  2
ByLayer
 70
     0
  3

 72
    65
 73
     0
 40
0.0
  0
LTYPE
  5
16
330
5
100
AcDbSymbolTableRecord
100
AcDbLinetypeTableRecord
  2
Continuous
 70
     0
  3
Solid line
 72
    65
 73
     0
 40
0.0
  0
ENDTAB
  0
TABLE
  2
LAYER
  5
2
330
0
100
AcDbSymbolTable
 70
     2
  0
LAYER
  5
10
330
2
100
AcDbSymbolTableRecord
100
AcDbLayerTableRecord
  2
0
 70
     0
 62
     7
  6
Continuous
370
    -3
390
F
347
3E
  0
LAYER
  5
40
330
2
100
AcDbSymbolTableRecord
100
AcDbLayerTableRecord
  2
_U+30EC_U+30A4_U+30E4_U+30FC 1
 70
     0
 62
     7
  6
Continuous
370
    -3
390
F
347
3E
  0
ENDTAB
  0
TABLE
  2
STYLE
  5
3
330
0
100
AcDbSymbolTable
 70
     1
  0
STYLE
  5
11
330
3
100
AcDbSymbolTableRecord
100
AcDbTextStyleTableRecord
  2
Standard
 70
     0
 40
0.0
 41
1.0
 50
0.0
 71
     0
 42
0.2
  3
txt
  4

  0
ENDTAB
  0
TABLE
  2
VIEW
  5
6
330
0
100
AcDbSymbolTable
 70
     0
  0
ENDTAB
  0
TABLE
  2
UCS
  5
7
330
0
100
AcDbSymbolTable
 70
     0
  0
ENDTAB
  0
TABLE
  2
APPID
  5
9
330
0
100
AcDbSymbolTable
 70
     1
  0
APPID
  5
12
330
9
100
AcDbSymbolTableRecord
100
AcDbRegAppTableRecord
  2
ACAD
 70
     0
  0
ENDTAB
  0
TABLE
  2
DIMSTYLE
  5
A
330
0
100
AcDbSymbolTable
 70
     1
100
AcDbDimStyleTable
  0
DIMSTYLE
105
27
330
A
100
AcDbSymbolTableRecord
100
AcDbDimStyleTableRecord
  2
Standard
 70
     0
178
     0
340
11
  0
ENDTAB
  0
TABLE
  2
BLOCK_RECORD
  5
1
330
0
100
AcDbSymbolTable
 70
     4
  0
BLOCK_RECORD
  5
1F
330
1
100
AcDbSymbolTableRecord
100
AcDbBlockTableRecord
  2
*Model_Space
340
22
 70
     0
280
     1
281
     0
  0
BLOCK_RECORD
  5
1B
330
1
100
AcDbSymbolTableRecord
100
AcDbBlockTableRecord
  2
*Paper_Space
340
1E
 70
     0
280
     1
281
     0
  0
BLOCK_RECORD
  5
23
330
1
100
AcDbSymbolTableRecord
100
AcDbBlockTableRecord
  2
*Paper_Space0
340
26
 70
     0
280
     1
281
     0
  0
BLOCK_RECORD
  5
6F
330
1
100
AcDbSymbolTableRecord
100
AcDbBlockTableRecord
  2
block 2
340
0
102
{BLKREFS
331
70
102
}
 70
     0
280
     1
281
     0
  0
BLOCK_RECORD
  5
8E
330
1
100
AcDbSymbolTableRecord
100
AcDbBlockTableRecord
  2
block 3
340
0
102
{BLKREFS
331
8F
102
}
 70
     0
280
     1
281
     0
  0
BLOCK_RECORD
  5
A2
330
1
100
AcDbSymbolTableRecord
100
AcDbBlockTableRecord
  2
block 4
340
0
102
{BLKREFS
331
A3
102
}
 70
     0
280
     1
281
     0
  0
ENDTAB
  0
ENDSEC
  0
SECTION
  2
BLOCKS
  0
BLOCK
  5
20
330
1F
100
AcDbEntity
  8
0
100
AcDbBlockBegin
  2
*Model_Space
 70
     0
 10
0.0
 20
0.0
 30
0.0
  3
*Model_Space
  1

  0
ENDBLK
  5
21
330
1F
100
AcDbEntity
  8
0
100
AcDbBlockEnd
  0
BLOCK
  5
1C
330
1B
100
AcDbEntity
 67
     1
  8
0
100
AcDbBlockBegin
  2
*Paper_Space
 70
     0
 10
0.0
 20
0.0
 30
0.0
  3
*Paper_Space
  1

  0
ENDBLK
  5
1D
330
1B
100
AcDbEntity
 67
     1
  8
0
100
AcDbBlockEnd
  0
BLOCK
  5
24
330
23
100
AcDbEntity
  8
0
100
AcDbBlockBegin
  2
*Paper_Space0
 70
     0
 10
0.0
 20
0.0
 30
0.0
  3
*Paper_Space0
  1

  0
ENDBLK
  5
25
330
23
100
AcDbEntity
  8
0
100
AcDbBlockEnd
  0
BLOCK
  5
71
330
6F
100
AcDbEntity
  8
0
100
AcDbBlockBegin
  2
block 2
 70
     0
 10
0.0
 20
0.0
 30
0.0
  3
block 2
  1

  0
SPLINE
  5
73
330
6F
100
AcDbEntity
  8
_U+30EC_U+30A4_U+30E4_U+30FC 1
370
     0
100
AcDbSpline
210
0.0
220
0.0
230
1.0
 70
    11
 71
     3
 72
    29
 73
    25
 74
     0
 42
0.0000000001
 43
0.0000000001
 12
1.0
 22
0.0
 32
0.0
 13
1.0
 23
0.0
 33
0.0
 40
0.0
 40
0.0
 40
0.0
 40
0.0
 40
1.0
 40
1.0
 40
1.0
 40
2.0
 40
2.0
 40
2.0
 40
3.0
 40
3.0
 40
3.0
 40
4.0
 40
4.0
 40
4.0
 40
5.0
 40
5.0
 40
5.0
 40
6.0
 40
6.0
 40
6.0
 40
7.0
 40
7.0
 40
7.0
 40
8.0
 40
8.0
 40
8.0
 40
8.0
 10
101.4839002567471
 20
-128.6965372399613
 30
0.0
 10
101.6933620622503
 20
-128.7897270728373
 30
0.0
 10
101.7123100874192
 20
-128.9399332359942
 30
0.0
 10
101.7123100874192
 20
-129.0405300241635
 30
0.0
 10
101.7123100874192
 20
-129.1797118817676
 30
0.0
 10
101.6658012983683
 20
-129.3023572810425
 30
0.0
 10
101.4839002567471
 20
-129.3846950631399
 30
0.0
 10
101.2892523618305
 20
-129.4742675457564
 30
0.0
 10
101.0522297924453
 20
-129.4908040040856
 30
0.0
 10
100.8896212855415
 20
-129.4908040040856
 30
0.0
 10
100.745616294258
 20
-129.4908040040856
 30
0.0
 10
100.4937798142863
 20
-129.4759900934991
 30
0.0
 10
100.2949978047874
 20
-129.3846950631399
 30
0.0
 10
100.0920816807061
 20
-129.2913329754897
 30
0.0
 10
100.0686550314065
 20
-129.1521511178856
 30
0.0
 10
100.0686550314065
 20
-129.0405300241635
 30
0.0
 10
100.0686550314065
 20
-128.9034152238505
 30
0.0
 10
100.1130967631662
 20
-128.7787027672845
 30
0.0
 10
100.2949978047874
 20
-128.6965372399613
 30
0.0
 10
100.4875786424128
 20
-128.6107543623786
 30
0.0
 10
100.7159884730849
 20
-128.5904282990156
 30
0.0
 10
100.8896212855415
 20
-128.5904282990156
 30
0.0
 10
101.0608425311584
 20
-128.5904282990156
 30
0.0
 10
101.2913194191216
 20
-128.6086873050874
 30
0.0
 10
101.4839002567471
 20
-128.6965372399613
 30
0.0
  0
SPLINE
  5
74
330
6F
100
AcDbEntity
  8
_U+30EC_U+30A4_U+30E4_U+30FC 1
370
     0
100
AcDbSpline
210
0.0
220
0.0
230
1.0
 70
    11
 71
     3
 72
    17
 73
    13
 74
     0
 42
0.0000000001
 43
0.0000000001
 12
1.0
 22
0.0
 32
0.0
 13
1.0
 23
0.0
 33
0.0
 40
0.0
 40
0.0
 40
0.0
 40
0.0
 40
1.0
 40
1.0
 40
1.0
 40
2.0
 40
2.0
 40
2.0
 40
3.0
 40
3.0
 40
3.0
 40
4.0
 40
4.0
 40
4.0
 40
4.0
 10
100.2612358690319
 20
-129.0405300241635
 30
0.0
 10
100.2612358690319
 20
-129.2565375110887
 30
0.0
 10
100.544767227468
 20
-129.2968451282661
 30
0.0
 10
100.8896212855415
 20
-129.2968451282661
 30
0.0
 10
101.2089816370242
 20
-129.2968451282661
 30
0.0
 10
101.5176621925025
 20
-129.2658392688988
 30
0.0
 10
101.5176621925025
 20
-129.0405300241635
 30
0.0
 10
101.5176621925025
 20
-128.8265895945295
 30
0.0
 10
101.2365424009061
 20
-128.7842149200609
 30
0.0
 10
100.8896212855415
 20
-128.7842149200609
 30
0.0
 10
100.5699164245103
 20
-128.7842149200609
 30
0.0
 10
100.2612358690319
 20
-128.8172878367193
 30
0.0
 10
100.2612358690319
 20
-129.0405300241635
 30
0.0
  0
HATCH
  5
75
330
6F
100
AcDbEntity
  8
_U+30EC_U+30A4_U+30E4_U+30FC 1
 62
   179
420
  2234388
100
AcDbHatch
 10
0.0
 20
0.0
 30
0.0
210
0.0
220
0.0
230
1.0
  2
SOLID
 70
     1
 71
     0
 91
        2
 92
        1
 93
        1
 72
     4
 94
        3
 73
     0
 74
     1
 95
       29
 96
       25
 40
0.0
 40
0.0
 40
0.0
 40
0.0
 40
1.0
 40
1.0
 40
1.0
 40
2.0
 40
2.0
 40
2.0
 40
3.0
 40
3.0
 40
3.0
 40
4.0
 40
4.0
 40
4.0
 40
5.0
 40
5.0
 40
5.0
 40
6.0
 40
6.0
 40
6.0
 40
7.0
 40
7.0
 40
7.0
 40
8.0
 40
8.0
 40
8.0
 40
8.0
 10
101.4839002567471
 20
-128.6965372399613
 10
101.6933620622503
 20
-128.7897270728373
 10
101.7123100874192
 20
-128.9399332359942
 10
101.7123100874192
 20
-129.0405300241635
 10
101.7123100874192
 20
-129.1797118817676
 10
101.6658012983683
 20
-129.3023572810425
 10
101.4839002567471
 20
-129.3846950631399
 10
101.2892523618305
 20
-129.4742675457564
 10
101.0522297924453
 20
-129.4908040040856
 10
100.8896212855415
 20
-129.4908040040856
 10
100.745616294258
 20
-129.4908040040856
 10
100.4937798142863
 20
-129.4759900934991
 10
100.2949978047874
 20
-129.3846950631399
 10
100.0920816807061
 20
-129.2913329754897
 10
100.0686550314065
 20
-129.1521511178856
 10
100.0686550314065
 20
-129.0405300241635
 10
100.0686550314065
 20
-128.9034152238505
 10
100.1130967631662
 20
-128.7787027672845
 10
100.2949978047874
 20
-128.6965372399613
 10
100.4875786424128
 20
-128.6107543623786
 10
100.7159884730849
 20
-128.5904282990156
 10
100.8896212855415
 20
-128.5904282990156
 10
101.0608425311584
 20
-128.5904282990156
 10
101.2913194191216
 20
-128.6086873050874
 10
101.4839002567471
 20
-128.6965372399613
 97
        0
 97
        0
 92
        1
 93
        1
 72
     4
 94
        3
 73
     0
 74
     1
 95
       17
 96
       13
 40
0.0
 40
0.0
 40
0.0
 40
0.0
 40
1.0
 40
1.0
 40
1.0
 40
2.0
 40
2.0
 40
2.0
 40
3.0
 40
3.0
 40
3.0
 40
4.0
 40
4.0
 40
4.0
 40
4.0
 10
100.2612358690319
 20
-129.0405300241635
 10
100.2612358690319
 20
-129.2565375110887
 10
100.544767227468
 20
-129.2968451282661
 10
100.8896212855415
 20
-129.2968451282661
 10
101.2089816370242
 20
-129.2968451282661
 10
101.5176621925025
 20
-129.2658392688988
 10
101.5176621925025
 20
-129.0405300241635
 10
101.5176621925025
 20
-128.8265895945295
 10
101.2365424009061
 20
-128.7842149200609
 10
100.8896212855415
 20
-128.7842149200609
 10
100.5699164245103
 20
-128.7842149200609
 10
100.2612358690319
 20
-128.8172878367193
 10
100.2612358690319
 20
-129.0405300241635
 97
        0
 97
        0
 75
     2
 76
     1
 98
        0
  0
POLYLINE
  5
76
330
6F
100
AcDbEntity
  8
_U+30EC_U+30A4_U+30E4_U+30FC 1
370
     0
100
AcDb2dPolyline
 66
     1
 10
0.0
 20
0.0
 30
0.0
  0
VERTEX
  5
77
330
76
100
AcDbEntity
  8
_U+30EC_U+30A4_U+30E4_U+30FC 1
370
     0
100
AcDbVertex
100
AcDb2dVertex
 10
101.661667183786
 20
-128.4040486332636
 30
0.0
  0
VERTEX
  5
78
330
76
100
AcDbEntity
  8
_U+30EC_U+30A4_U+30E4_U+30FC 1
370
     0
100
AcDbVertex
100
AcDb2dVertex
 10
101.4098307038142
 20
-128.4040486332636
 30
0.0
  0
VERTEX
  5
79
330
76
100
AcDbEntity
  8
_U+30EC_U+30A4_U+30E4_U+30FC 1
370
     0
100
AcDbVertex
100
AcDb2dVertex
 10
101.4098307038142
 20
-128.1863185985958
 30
0.0
  0
VERTEX
  5
7A
330
76
100
AcDbEntity
  8
_U+30EC_U+30A4_U+30E4_U+30FC 1
370
     0
100
AcDbVertex
100
AcDb2dVertex
 10
101.661667183786
 20
-128.1863185985958
 30
0.0
  0
VERTEX
  5
7B
330
76
100
AcDbEntity
  8
_U+30EC_U+30A4_U+30E4_U+30FC 1
370
     0
100
AcDbVertex
100
AcDb2dVertex
 10
101.661667183786
 20
-128.4040486332636
 30
0.0
  0
SEQEND
  5
7C
330
76
100
AcDbEntity
  8
_U+30EC_U+30A4_U+30E4_U+30FC 1
370
     0
  0
HATCH
  5
7D
330
6F
100
AcDbEntity
  8
_U+30EC_U+30A4_U+30E4_U+30FC 1
 62
   179
420
  2234388
100
AcDbHatch
 10
0.0
 20
0.0
 30
0.0
210
0.0
220
0.0
230
1.0
  2
SOLID
 70
     1
 71
     0
 91
        1
 92
        1
 93
        4
 72
     1
 10
101.661667183786
 20
-128.4040486332636
 11
101.4098307038142
 21
-128.4040486332636
 72
     1
 10
101.4098307038142
 20
-128.4040486332636
 11
101.4098307038142
 21
-128.1863185985958
 72
     1
 10
101.4098307038142
 20
-128.1863185985958
 11
101.661667183786
 21
-128.1863185985958
 72
     1
 10
101.661667183786
 20
-128.1863185985958
 11
101.661667183786
 21
-128.4040486332636
 97
        0
 75
     2
 76
     1
 98
        0
  0
SPLINE
  5
7E
330
6F
100
AcDbEntity
  8
_U+30EC_U+30A4_U+30E4_U+30FC 1
370
     0
100
AcDbSpline
210
0.0
220
0.0
230
1.0
 70
    11
 71
     3
 72
    29
 73
    25
 74
     0
 42
0.0000000001
 43
0.0000000001
 12
1.0
 22
0.0
 32
0.0
 13
1.0
 23
0.0
 33
0.0
 40
0.0
 40
0.0
 40
0.0
 40
0.0
 40
1.0
 40
1.0
 40
1.0
 40
2.0
 40
2.0
 40
2.0
 40
3.0
 40
3.0
 40
3.0
 40
4.0
 40
4.0
 40
4.0
 40
5.0
 40
5.0
 40
5.0
 40
6.0
 40
6.0
 40
6.0
 40
7.0
 40
7.0
 40
7.0
 40
8.0
 40
8.0
 40
8.0
 40
8.0
 10
101.7123100874192
 20
-127.5496649529216
 30
0.0
 10
101.7123100874192
 20
-127.7804863504333
 30
0.0
 10
101.5748507775577
 20
-127.9999389328438
 30
0.0
 10
101.2258626049019
 20
-127.9999389328438
 30
0.0
 10
100.9698920103478
 20
-127.9999389328438
 30
0.0
 10
100.8748073749549
 20
-127.8772935335689
 30
0.0
 10
100.8134846753175
 20
-127.7856539936612
 30
0.0
 10
100.7542290329712
 20
-127.8938299918981
 30
0.0
 10
100.6398518628609
 20
-127.9596313156663
 30
0.0
 10
100.4789659036997
 20
-127.9596313156663
 30
0.0
 10
100.2040472839768
 20
-127.9596313156663
 30
0.0
 10
100.0686550314065
 20
-127.7877210509524
 30
0.0
 10
100.0686550314065
 20
-127.5496649529216
 30
0.0
 10
100.0686550314065
 20
-127.3043741543718
 30
0.0
 10
100.2126600226899
 20
-127.1396985901769
 30
0.0
 10
100.4789659036997
 20
-127.1396985901769
 30
0.0
 10
100.6398518628609
 20
-127.1396985901769
 30
0.0
 10
100.7542290329712
 20
-127.2075669712363
 30
0.0
 10
100.8134846753175
 20
-127.3153984599246
 30
0.0
 10
100.8641275789506
 20
-127.2385728306036
 30
0.0
 10
100.9592122143435
 20
-127.1014580302906
 30
0.0
 10
101.2217284903196
 20
-127.1014580302906
 30
0.0
 10
101.5962103695662
 20
-127.1014580302906
 30
0.0
 10
101.7123100874192
 20
-127.3429592238066
 30
0.0
 10
101.7123100874192
 20
-127.5496649529216
 30
0.0
  0
SPLINE
  5
7F
330
6F
100
AcDbEntity
  8
_U+30EC_U+30A4_U+30E4_U+30FC 1
370
     0
100
AcDbSpline
210
0.0
220
0.0
230
1.0
 70
    11
 71
     3
 72
    17
 73
    13
 74
     0
 42
0.0000000001
 43
0.0000000001
 12
1.0
 22
0.0
 32
0.0
 13
1.0
 23
0.0
 33
0.0
 40
0.0
 40
0.0
 40
0.0
 40
0.0
 40
1.0
 40
1.0
 40
1.0
 40
2.0
 40
2.0
 40
2.0
 40
3.0
 40
3.0
 40
3.0
 40
4.0
 40
4.0
 40
4.0
 40
4.0
 10
100.2612358690319
 20
-127.5496649529216
 30
0.0
 10
100.2612358690319
 20
-127.692291906011
 30
0.0
 10
100.3563205044248
 20
-127.7656724398468
 30
0.0
 10
100.4917127569951
 20
-127.7656724398468
 30
0.0
 10
100.61435815627
 20
-127.7656724398468
 30
0.0
 10
100.7328694409626
 20
-127.7033162115638
 30
0.0
 10
100.7328694409626
 20
-127.5496649529216
 30
0.0
 10
100.7328694409626
 20
-127.3960136942795
 30
0.0
 10
100.61435815627
 20
-127.3336574659965
 30
0.0
 10
100.4917127569951
 20
-127.3336574659965
 30
0.0
 10
100.3563205044248
 20
-127.3336574659965
 30
0.0
 10
100.2612358690319
 20
-127.4087605475749
 30
0.0
 10
100.2612358690319
 20
-127.5496649529216
 30
0.0
  0
SPLINE
  5
80
330
6F
100
AcDbEntity
  8
_U+30EC_U+30A4_U+30E4_U+30FC 1
370
     0
100
AcDbSpline
210
0.0
220
0.0
230
1.0
 70
    11
 71
     3
 72
    17
 73
    13
 74
     0
 42
0.0000000001
 43
0.0000000001
 12
1.0
 22
0.0
 32
0.0
 13
1.0
 23
0.0
 33
0.0
 40
0.0
 40
0.0
 40
0.0
 40
0.0
 40
1.0
 40
1.0
 40
1.0
 40
2.0
 40
2.0
 40
2.0
 40
3.0
 40
3.0
 40
3.0
 40
4.0
 40
4.0
 40
4.0
 40
4.0
 10
100.9213161640058
 20
-127.5496649529216
 30
0.0
 10
100.9213161640058
 20
-127.6740328999391
 30
0.0
 10
101.0081325702341
 20
-127.8059800570242
 30
0.0
 10
101.2110486943153
 20
-127.8059800570242
 30
0.0
 10
101.4163763852362
 20
-127.8059800570242
 30
0.0
 10
101.5176621925025
 20
-127.6960815110447
 30
0.0
 10
101.5176621925025
 20
-127.5496649529216
 30
0.0
 10
101.5176621925025
 20
-127.3887789937605
 30
0.0
 10
101.3950167932276
 20
-127.293349848819
 30
0.0
 10
101.2172498661888
 20
-127.293349848819
 30
0.0
 10
100.9953857169387
 20
-127.293349848819
 30
0.0
 10
100.9213161640058
 20
-127.4342542541658
 30
0.0
 10
100.9213161640058
 20
-127.5496649529216
 30
0.0
  0
HATCH
  5
81
330
6F
100
AcDbEntity
  8
_U+30EC_U+30A4_U+30E4_U+30FC 1
 62
   179
420
  2234388
100
AcDbHatch
 10
0.0
 20
0.0
 30
0.0
210
0.0
220
0.0
230
1.0
  2
SOLID
 70
     1
 71
     0
 91
        3
 92
        1
 93
        1
 72
     4
 94
        3
 73
     0
 74
     1
 95
       29
 96
       25
 40
0.0
 40
0.0
 40
0.0
 40
0.0
 40
1.0
 40
1.0
 40
1.0
 40
2.0
 40
2.0
 40
2.0
 40
3.0
 40
3.0
 40
3.0
 40
4.0
 40
4.0
 40
4.0
 40
5.0
 40
5.0
 40
5.0
 40
6.0
 40
6.0
 40
6.0
 40
7.0
 40
7.0
 40
7.0
 40
8.0
 40
8.0
 40
8.0
 40
8.0
 10
101.7123100874192
 20
-127.5496649529216
 10
101.7123100874192
 20
-127.7804863504333
 10
101.5748507775577
 20
-127.9999389328438
 10
101.2258626049019
 20
-127.9999389328438
 10
100.9698920103478
 20
-127.9999389328438
 10
100.8748073749549
 20
-127.8772935335689
 10
100.8134846753175
 20
-127.7856539936612
 10
100.7542290329712
 20
-127.8938299918981
 10
100.6398518628609
 20
-127.9596313156663
 10
100.4789659036997
 20
-127.9596313156663
 10
100.2040472839768
 20
-127.9596313156663
 10
100.0686550314065
 20
-127.7877210509524
 10
100.0686550314065
 20
-127.5496649529216
 10
100.0686550314065
 20
-127.3043741543718
 10
100.2126600226899
 20
-127.1396985901769
 10
100.4789659036997
 20
-127.1396985901769
 10
100.6398518628609
 20
-127.1396985901769
 10
100.7542290329712
 20
-127.2075669712363
 10
100.8134846753175
 20
-127.3153984599246
 10
100.8641275789506
 20
-127.2385728306036
 10
100.9592122143435
 20
-127.1014580302906
 10
101.2217284903196
 20
-127.1014580302906
 10
101.5962103695662
 20
-127.1014580302906
 10
101.7123100874192
 20
-127.3429592238066
 10
101.7123100874192
 20
-127.5496649529216
 97
        0
 97
        0
 92
        1
 93
        1
 72
     4
 94
        3
 73
     0
 74
     1
 95
       17
 96
       13
 40
0.0
 40
0.0
 40
0.0
 40
0.0
 40
1.0
 40
1.0
 40
1.0
 40
2.0
 40
2.0
 40
2.0
 40
3.0
 40
3.0
 40
3.0
 40
4.0
 40
4.0
 40
4.0
 40
4.0
 10
100.2612358690319
 20
-127.5496649529216
 10
100.2612358690319
 20
-127.692291906011
 10
100.3563205044248
 20
-127.7656724398468
 10
100.4917127569951
 20
-127.7656724398468
 10
100.61435815627
 20
-127.7656724398468
 10
100.7328694409626
 20
-127.7033162115638
 10
100.7328694409626
 20
-127.5496649529216
 10
100.7328694409626
 20
-127.3960136942795
 10
100.61435815627
 20
-127.3336574659965
 10
100.4917127569951
 20
-127.3336574659965
 10
100.3563205044248
 20
-127.3336574659965
 10
100.2612358690319
 20
-127.4087605475749
 10
100.2612358690319
 20
-127.5496649529216
 97
        0
 97
        0
 92
        1
 93
        1
 72
     4
 94
        3
 73
     0
 74
     1
 95
       17
 96
       13
 40
0.0
 40
0.0
 40
0.0
 40
0.0
 40
1.0
 40
1.0
 40
1.0
 40
2.0
 40
2.0
 40
2.0
 40
3.0
 40
3.0
 40
3.0
 40
4.0
 40
4.0
 40
4.0
 40
4.0
 10
100.9213161640058
 20
-127.5496649529216
 10
100.9213161640058
 20
-127.6740328999391
 10
101.0081325702341
 20
-127.8059800570242
 10
101.2110486943153
 20
-127.8059800570242
 10
101.4163763852362
 20
-127.8059800570242
 10
101.5176621925025
 20
-127.6960815110447
 10
101.5176621925025
 20
-127.5496649529216
 10
101.5176621925025
 20
-127.3887789937605
 10
101.3950167932276
 20
-127.293349848819
 10
101.2172498661888
 20
-127.293349848819
 10
100.9953857169387
 20
-127.293349848819
 10
100.9213161640058
 20
-127.4342542541658
 10
100.9213161640058
 20
-127.5496649529216
 97
        0
 97
        0
 75
     2
 76
     1
 98
        0
  0
ENDBLK
  5
72
330
6F
100
AcDbEntity
  8
0
100
AcDbBlockEnd
  0
BLOCK
  5
90
330
8E
100
AcDbEntity
  8
0
100
AcDbBlockBegin
  2
block 3
 70
     0
 10
0.0
 20
0.0
 30
0.0
  3
block 3
  1

  0
SPLINE
  5
92
330
8E
100
AcDbEntity
  8
_U+30EC_U+30A4_U+30E4_U+30FC 1
370
     0
100
AcDbSpline
210
0.0
220
0.0
230
1.0
 70
    11
 71
     3
 72
    26
 73
    22
 74
     0
 42
0.0000000001
 43
0.0000000001
 12
1.0
 22
0.0
 32
0.0
 13
1.0
 23
0.0
 33
0.0
 40
0.0
 40
0.0
 40
0.0
 40
0.0
 40
1.0
 40
1.0
 40
1.0
 40
2.0
 40
2.0
 40
2.0
 40
3.0
 40
3.0
 40
3.0
 40
4.0
 40
4.0
 40
4.0
 40
5.0
 40
5.0
 40
5.0
 40
6.0
 40
6.0
 40
6.0
 40
7.0
 40
7.0
 40
7.0
 40
7.0
 10
80.6615708891228
 20
-126.4058932518187
 30
0.0
 10
80.6615708891228
 20
-126.4058932518187
 30
0.0
 10
79.55724553132598
 20
-126.4058932518187
 30
0.0
 10
79.55724553132598
 20
-126.4058932518187
 30
0.0
 10
79.55724553132598
 20
-126.4058932518187
 30
0.0
 10
79.55724553132598
 20
-126.6914916675459
 30
0.0
 10
79.55724553132598
 20
-126.6914916675459
 30
0.0
 10
79.55724553132598
 20
-126.6914916675459
 30
0.0
 10
79.40910642546022
 20
-126.6914916675459
 30
0.0
 10
79.40910642546022
 20
-126.6914916675459
 30
0.0
 10
79.39446476964791
 20
-126.4041707040761
 30
0.0
 10
79.2315117531956
 20
-126.3638630868986
 30
0.0
 10
79.11730683785956
 20
-126.3383693803078
 30
0.0
 10
79.11730683785956
 20
-126.3383693803078
 30
0.0
 10
79.11730683785956
 20
-126.2119343759991
 30
0.0
 10
79.11730683785956
 20
-126.2119343759991
 30
0.0
 10
79.11730683785956
 20
-126.2119343759991
 30
0.0
 10
80.6615708891228
 20
-126.2119343759991
 30
0.0
 10
80.6615708891228
 20
-126.2119343759991
 30
0.0
 10
80.6615708891228
 20
-126.2119343759991
 30
0.0
 10
80.6615708891228
 20
-126.4058932518187
 30
0.0
 10
80.6615708891228
 20
-126.4058932518187
 30
0.0
  0
HATCH
  5
93
330
8E
100
AcDbEntity
  8
_U+30EC_U+30A4_U+30E4_U+30FC 1
 62
   179
420
  2234388
100
AcDbHatch
 10
0.0
 20
0.0
 30
0.0
210
0.0
220
0.0
230
1.0
  2
SOLID
 70
     1
 71
     0
 91
        1
 92
        1
 93
        1
 72
     4
 94
        3
 73
     0
 74
     1
 95
       26
 96
       22
 40
0.0
 40
0.0
 40
0.0
 40
0.0
 40
1.0
 40
1.0
 40
1.0
 40
2.0
 40
2.0
 40
2.0
 40
3.0
 40
3.0
 40
3.0
 40
4.0
 40
4.0
 40
4.0
 40
5.0
 40
5.0
 40
5.0
 40
6.0
 40
6.0
 40
6.0
 40
7.0
 40
7.0
 40
7.0
 40
7.0
 10
80.6615708891228
 20
-126.4058932518187
 10
80.6615708891228
 20
-126.4058932518187
 10
79.55724553132598
 20
-126.4058932518187
 10
79.55724553132598
 20
-126.4058932518187
 10
79.55724553132598
 20
-126.4058932518187
 10
79.55724553132598
 20
-126.6914916675459
 10
79.55724553132598
 20
-126.6914916675459
 10
79.55724553132598
 20
-126.6914916675459
 10
79.40910642546022
 20
-126.6914916675459
 10
79.40910642546022
 20
-126.6914916675459
 10
79.39446476964791
 20
-126.4041707040761
 10
79.2315117531956
 20
-126.3638630868986
 10
79.11730683785956
 20
-126.3383693803078
 10
79.11730683785956
 20
-126.3383693803078
 10
79.11730683785956
 20
-126.2119343759991
 10
79.11730683785956
 20
-126.2119343759991
 10
79.11730683785956
 20
-126.2119343759991
 10
80.6615708891228
 20
-126.2119343759991
 10
80.6615708891228
 20
-126.2119343759991
 10
80.6615708891228
 20
-126.2119343759991
 10
80.6615708891228
 20
-126.4058932518187
 10
80.6615708891228
 20
-126.4058932518187
 97
        0
 97
        0
 75
     2
 76
     1
 98
        0
  0
SPLINE
  5
94
330
8E
100
AcDbEntity
  8
_U+30EC_U+30A4_U+30E4_U+30FC 1
370
     0
100
AcDbSpline
210
0.0
220
0.0
230
1.0
 70
    11
 71
     3
 72
    62
 73
    58
 74
     0
 42
0.0000000001
 43
0.0000000001
 12
1.0
 22
0.0
 32
0.0
 13
1.0
 23
0.0
 33
0.0
 40
0.0
 40
0.0
 40
0.0
 40
0.0
 40
1.0
 40
1.0
 40
1.0
 40
2.0
 40
2.0
 40
2.0
 40
3.0
 40
3.0
 40
3.0
 40
4.0
 40
4.0
 40
4.0
 40
5.0
 40
5.0
 40
5.0
 40
6.0
 40
6.0
 40
6.0
 40
7.0
 40
7.0
 40
7.0
 40
8.0
 40
8.0
 40
8.0
 40
9.0
 40
9.0
 40
9.0
 40
10.0
 40
10.0
 40
10.0
 40
11.0
 40
11.0
 40
11.0
 40
12.0
 40
12.0
 40
12.0
 40
13.0
 40
13.0
 40
13.0
 40
14.0
 40
14.0
 40
14.0
 40
15.0
 40
15.0
 40
15.0
 40
16.0
 40
16.0
 40
16.0
 40
17.0
 40
17.0
 40
17.0
 40
18.0
 40
18.0
 40
18.0
 40
19.0
 40
19.0
 40
19.0
 40
19.0
 10
80.71238604753025
 20
-125.3537610906234
 30
0.0
 10
80.71238604753025
 20
-125.4360988727208
 30
0.0
 10
80.69119871029595
 20
-125.6248901053125
 30
0.0
 10
80.5049912993182
 20
-125.7327215940009
 30
0.0
 10
80.39285344127332
 20
-125.7968003700265
 30
0.0
 10
80.29346243652385
 20
-125.8005899750603
 30
0.0
 10
80.20888534236097
 20
-125.8040350705455
 30
0.0
 10
80.20888534236097
 20
-125.8040350705455
 30
0.0
 10
80.20888534236097
 20
-125.6138657997597
 30
0.0
 10
80.20888534236097
 20
-125.6138657997597
 30
0.0
 10
80.28295489529386
 20
-125.6117987424686
 30
0.0
 10
80.51773815261363
 20
-125.6028414942069
 30
0.0
 10
80.51773815261363
 20
-125.3575506956571
 30
0.0
 10
80.51773815261363
 20
-125.238694901416
 30
0.0
 10
80.44797496903732
 20
-125.106747744331
 30
0.0
 10
80.21939288359098
 20
-125.106747744331
 30
0.0
 10
80.10312091096381
 20
-125.106747744331
 30
0.0
 10
80.05437280984752
 20
-125.1398206609894
 30
0.0
 10
80.02267793138323
 20
-125.1673814248714
 30
0.0
 10
79.94860837845034
 20
-125.2311156913485
 30
0.0
 10
79.93603377992919
 20
-125.3320569890663
 30
0.0
 10
79.93603377992919
 20
-125.3795993067627
 30
0.0
 10
79.93603377992919
 20
-125.3961357650919
 30
0.0
 10
79.93810083722033
 20
-125.4271416244592
 30
0.0
 10
79.94223495180263
 20
-125.4509127833074
 30
0.0
 10
79.94223495180263
 20
-125.4509127833074
 30
0.0
 10
79.74775931166029
 20
-125.4509127833074
 30
0.0
 10
79.74775931166029
 20
-125.4509127833074
 30
0.0
 10
79.75396048353373
 20
-125.417839866649
 30
0.0
 10
79.75619979559914
 20
-125.3813218545054
 30
0.0
 10
79.75619979559914
 20
-125.375809701729
 30
0.0
 10
79.75619979559914
 20
-125.3189656262224
 30
0.0
 10
79.73501245836486
 20
-125.1470553615084
 30
0.0
 10
79.49798988897967
 20
-125.1470553615084
 30
0.0
 10
79.32039521671504
 20
-125.1470553615084
 30
0.0
 10
79.26527368895104
 20
-125.2603990029731
 30
0.0
 10
79.26527368895104
 20
-125.3558281479145
 30
0.0
 10
79.26527368895104
 20
-125.5845824881351
 30
0.0
 10
79.49798988897967
 20
-125.5918171886541
 30
0.0
 10
79.5699923846214
 20
-125.5956067936879
 30
0.0
 10
79.5699923846214
 20
-125.5956067936879
 30
0.0
 10
79.5699923846214
 20
-125.7713066634357
 30
0.0
 10
79.5699923846214
 20
-125.7713066634357
 30
0.0
 10
79.44510767328109
 20
-125.7637274533681
 30
0.0
 10
79.06855873674328
 20
-125.7399562945199
 30
0.0
 10
79.06855873674328
 20
-125.3448038423617
 30
0.0
 10
79.06855873674328
 20
-125.1508449665422
 30
0.0
 10
79.19551050537474
 20
-124.942072180136
 30
0.0
 10
79.49161646233196
 20
-124.942072180136
 30
0.0
 10
79.67782387330972
 20
-124.942072180136
 30
0.0
 10
79.76033391018144
 20
-125.0244099622335
 30
0.0
 10
79.8216566098189
 20
-125.1105373493647
 30
0.0
 10
79.8492173737009
 20
-125.0574828788919
 30
0.0
 10
79.92966035328148
 20
-124.900042015216
 30
0.0
 10
80.20681828506983
 20
-124.900042015216
 30
0.0
 10
80.54529891649563
 20
-124.900042015216
 30
0.0
 10
80.71238604753025
 20
-125.11398244485
 30
0.0
 10
80.71238604753025
 20
-125.3537610906234
 30
0.0
  0
HATCH
  5
95
330
8E
100
AcDbEntity
  8
_U+30EC_U+30A4_U+30E4_U+30FC 1
 62
   179
420
  2234388
100
AcDbHatch
 10
0.0
 20
0.0
 30
0.0
210
0.0
220
0.0
230
1.0
  2
SOLID
 70
     1
 71
     0
 91
        1
 92
        1
 93
        1
 72
     4
 94
        3
 73
     0
 74
     1
 95
       62
 96
       58
 40
0.0
 40
0.0
 40
0.0
 40
0.0
 40
1.0
 40
1.0
 40
1.0
 40
2.0
 40
2.0
 40
2.0
 40
3.0
 40
3.0
 40
3.0
 40
4.0
 40
4.0
 40
4.0
 40
5.0
 40
5.0
 40
5.0
 40
6.0
 40
6.0
 40
6.0
 40
7.0
 40
7.0
 40
7.0
 40
8.0
 40
8.0
 40
8.0
 40
9.0
 40
9.0
 40
9.0
 40
10.0
 40
10.0
 40
10.0
 40
11.0
 40
11.0
 40
11.0
 40
12.0
 40
12.0
 40
12.0
 40
13.0
 40
13.0
 40
13.0
 40
14.0
 40
14.0
 40
14.0
 40
15.0
 40
15.0
 40
15.0
 40
16.0
 40
16.0
 40
16.0
 40
17.0
 40
17.0
 40
17.0
 40
18.0
 40
18.0
 40
18.0
 40
19.0
 40
19.0
 40
19.0
 40
19.0
 10
80.71238604753025
 20
-125.3537610906234
 10
80.71238604753025
 20
-125.4360988727208
 10
80.69119871029595
 20
-125.6248901053125
 10
80.5049912993182
 20
-125.7327215940009
 10
80.39285344127332
 20
-125.7968003700265
 10
80.29346243652385
 20
-125.8005899750603
 10
80.20888534236097
 20
-125.8040350705455
 10
80.20888534236097
 20
-125.8040350705455
 10
80.20888534236097
 20
-125.6138657997597
 10
80.20888534236097
 20
-125.6138657997597
 10
80.28295489529386
 20
-125.6117987424686
 10
80.51773815261363
 20
-125.6028414942069
 10
80.51773815261363
 20
-125.3575506956571
 10
80.51773815261363
 20
-125.238694901416
 10
80.44797496903732
 20
-125.106747744331
 10
80.21939288359098
 20
-125.106747744331
 10
80.10312091096381
 20
-125.106747744331
 10
80.05437280984752
 20
-125.1398206609894
 10
80.02267793138323
 20
-125.1673814248714
 10
79.94860837845034
 20
-125.2311156913485
 10
79.93603377992919
 20
-125.3320569890663
 10
79.93603377992919
 20
-125.3795993067627
 10
79.93603377992919
 20
-125.3961357650919
 10
79.93810083722033
 20
-125.4271416244592
 10
79.94223495180263
 20
-125.4509127833074
 10
79.94223495180263
 20
-125.4509127833074
 10
79.74775931166029
 20
-125.4509127833074
 10
79.74775931166029
 20
-125.4509127833074
 10
79.75396048353373
 20
-125.417839866649
 10
79.75619979559914
 20
-125.3813218545054
 10
79.75619979559914
 20
-125.375809701729
 10
79.75619979559914
 20
-125.3189656262224
 10
79.73501245836486
 20
-125.1470553615084
 10
79.49798988897967
 20
-125.1470553615084
 10
79.32039521671504
 20
-125.1470553615084
 10
79.26527368895104
 20
-125.2603990029731
 10
79.26527368895104
 20
-125.3558281479145
 10
79.26527368895104
 20
-125.5845824881351
 10
79.49798988897967
 20
-125.5918171886541
 10
79.5699923846214
 20
-125.5956067936879
 10
79.5699923846214
 20
-125.5956067936879
 10
79.5699923846214
 20
-125.7713066634357
 10
79.5699923846214
 20
-125.7713066634357
 10
79.44510767328109
 20
-125.7637274533681
 10
79.06855873674328
 20
-125.7399562945199
 10
79.06855873674328
 20
-125.3448038423617
 10
79.06855873674328
 20
-125.1508449665422
 10
79.19551050537474
 20
-124.942072180136
 10
79.49161646233196
 20
-124.942072180136
 10
79.67782387330972
 20
-124.942072180136
 10
79.76033391018144
 20
-125.0244099622335
 10
79.8216566098189
 20
-125.1105373493647
 10
79.8492173737009
 20
-125.0574828788919
 10
79.92966035328148
 20
-124.900042015216
 10
80.20681828506983
 20
-124.900042015216
 10
80.54529891649563
 20
-124.900042015216
 10
80.71238604753025
 20
-125.11398244485
 10
80.71238604753025
 20
-125.3537610906234
 97
        0
 97
        0
 75
     2
 76
     1
 98
        0
  0
ENDBLK
  5
91
330
8E
100
AcDbEntity
  8
0
100
AcDbBlockEnd
  0
BLOCK
  5
A4
330
A2
100
AcDbEntity
  8
0
100
AcDbBlockBegin
  2
block 4
 70
     0
 10
0.0
 20
0.0
 30
0.0
  3
block 4
  1

  0
SPLINE
  5
A6
330
A2
100
AcDbEntity
  8
_U+30EC_U+30A4_U+30E4_U+30FC 1
370
     0
100
AcDbSpline
210
0.0
220
0.0
230
1.0
 70
    11
 71
     3
 72
    26
 73
    22
 74
     0
 42
0.0000000001
 43
0.0000000001
 12
1.0
 22
0.0
 32
0.0
 13
1.0
 23
0.0
 33
0.0
 40
0.0
 40
0.0
 40
0.0
 40
0.0
 40
1.0
 40
1.0
 40
1.0
 40
2.0
 40
2.0
 40
2.0
 40
3.0
 40
3.0
 40
3.0
 40
4.0
 40
4.0
 40
4.0
 40
5.0
 40
5.0
 40
5.0
 40
6.0
 40
6.0
 40
6.0
 40
7.0
 40
7.0
 40
7.0
 40
7.0
 10
91.20752493379534
 20
-135.7581217108522
 30
0.0
 10
91.20752493379534
 20
-135.7581217108522
 30
0.0
 10
91.20752493379534
 20
-134.6543131173781
 30
0.0
 10
91.20752493379534
 20
-134.6543131173781
 30
0.0
 10
91.20752493379534
 20
-134.6543131173781
 30
0.0
 10
90.92192651806813
 20
-134.6543131173781
 30
0.0
 10
90.92192651806813
 20
-134.6543131173781
 30
0.0
 10
90.92192651806813
 20
-134.6543131173781
 30
0.0
 10
90.92192651806813
 20
-134.5061740115123
 30
0.0
 10
90.92192651806813
 20
-134.5061740115123
 30
0.0
 10
91.20924748153797
 20
-134.4910155913772
 30
0.0
 10
91.24955509871539
 20
-134.3284070844735
 30
0.0
 10
91.27504880530624
 20
-134.2140299143632
 30
0.0
 10
91.27504880530624
 20
-134.2140299143632
 30
0.0
 10
91.40148380961492
 20
-134.2140299143632
 30
0.0
 10
91.40148380961492
 20
-134.2140299143632
 30
0.0
 10
91.40148380961492
 20
-134.2140299143632
 30
0.0
 10
91.40148380961492
 20
-135.7581217108522
 30
0.0
 10
91.40148380961492
 20
-135.7581217108522
 30
0.0
 10
91.40148380961492
 20
-135.7581217108522
 30
0.0
 10
91.20752493379534
 20
-135.7581217108522
 30
0.0
 10
91.20752493379534
 20
-135.7581217108522
 30
0.0
  0
HATCH
  5
A7
330
A2
100
AcDbEntity
  8
_U+30EC_U+30A4_U+30E4_U+30FC 1
 62
   179
420
  2234388
100
AcDbHatch
 10
0.0
 20
0.0
 30
0.0
210
0.0
220
0.0
230
1.0
  2
SOLID
 70
     1
 71
     0
 91
        1
 92
        1
 93
        1
 72
     4
 94
        3
 73
     0
 74
     1
 95
       26
 96
       22
 40
0.0
 40
0.0
 40
0.0
 40
0.0
 40
1.0
 40
1.0
 40
1.0
 40
2.0
 40
2.0
 40
2.0
 40
3.0
 40
3.0
 40
3.0
 40
4.0
 40
4.0
 40
4.0
 40
5.0
 40
5.0
 40
5.0
 40
6.0
 40
6.0
 40
6.0
 40
7.0
 40
7.0
 40
7.0
 40
7.0
 10
91.20752493379534
 20
-135.7581217108522
 10
91.20752493379534
 20
-135.7581217108522
 10
91.20752493379534
 20
-134.6543131173781
 10
91.20752493379534
 20
-134.6543131173781
 10
91.20752493379534
 20
-134.6543131173781
 10
90.92192651806813
 20
-134.6543131173781
 10
90.92192651806813
 20
-134.6543131173781
 10
90.92192651806813
 20
-134.6543131173781
 10
90.92192651806813
 20
-134.5061740115123
 10
90.92192651806813
 20
-134.5061740115123
 10
91.20924748153797
 20
-134.4910155913772
 10
91.24955509871539
 20
-134.3284070844735
 10
91.27504880530624
 20
-134.2140299143632
 10
91.27504880530624
 20
-134.2140299143632
 10
91.40148380961492
 20
-134.2140299143632
 10
91.40148380961492
 20
-134.2140299143632
 10
91.40148380961492
 20
-134.2140299143632
 10
91.40148380961492
 20
-135.7581217108522
 10
91.40148380961492
 20
-135.7581217108522
 10
91.40148380961492
 20
-135.7581217108522
 10
91.20752493379534
 20
-135.7581217108522
 10
91.20752493379534
 20
-135.7581217108522
 97
        0
 97
        0
 75
     2
 76
     1
 98
        0
  0
SPLINE
  5
A8
330
A2
100
AcDbEntity
  8
_U+30EC_U+30A4_U+30E4_U+30FC 1
370
     0
100
AcDbSpline
210
0.0
220
0.0
230
1.0
 70
    11
 71
     3
 72
    62
 73
    58
 74
     0
 42
0.0000000001
 43
0.0000000001
 12
1.0
 22
0.0
 32
0.0
 13
1.0
 23
0.0
 33
0.0
 40
0.0
 40
0.0
 40
0.0
 40
0.0
 40
1.0
 40
1.0
 40
1.0
 40
2.0
 40
2.0
 40
2.0
 40
3.0
 40
3.0
 40
3.0
 40
4.0
 40
4.0
 40
4.0
 40
5.0
 40
5.0
 40
5.0
 40
6.0
 40
6.0
 40
6.0
 40
7.0
 40
7.0
 40
7.0
 40
8.0
 40
8.0
 40
8.0
 40
9.0
 40
9.0
 40
9.0
 40
10.0
 40
10.0
 40
10.0
 40
11.0
 40
11.0
 40
11.0
 40
12.0
 40
12.0
 40
12.0
 40
13.0
 40
13.0
 40
13.0
 40
14.0
 40
14.0
 40
14.0
 40
15.0
 40
15.0
 40
15.0
 40
16.0
 40
16.0
 40
16.0
 40
17.0
 40
17.0
 40
17.0
 40
18.0
 40
18.0
 40
18.0
 40
19.0
 40
19.0
 40
19.0
 40
19.0
 10
92.25965709499064
 20
-135.8091091240339
 30
0.0
 10
92.17731931289318
 20
-135.8091091240339
 30
0.0
 10
91.98852808030148
 20
-135.7877495320253
 30
0.0
 10
91.88069659161316
 20
-135.6017143758218
 30
0.0
 10
91.81661781558752
 20
-135.4894042630027
 30
0.0
 10
91.81282821055375
 20
-135.3901855130275
 30
0.0
 10
91.80938311506848
 20
-135.3054361640903
 30
0.0
 10
91.80938311506848
 20
-135.3054361640903
 30
0.0
 10
91.99955238585429
 20
-135.3054361640903
 30
0.0
 10
91.99955238585429
 20
-135.3054361640903
 30
0.0
 10
92.00161944314543
 20
-135.3798502265717
 30
0.0
 10
92.01057669140708
 20
-135.6141167195687
 30
0.0
 10
92.25586748995687
 20
-135.6141167195687
 30
0.0
 10
92.37472328419798
 20
-135.6141167195687
 30
0.0
 10
92.50667044128306
 20
-135.5445257907666
 30
0.0
 10
92.50667044128306
 20
-135.3164604696431
 30
0.0
 10
92.50667044128306
 20
-135.2000162422417
 30
0.0
 10
92.47359752462467
 20
-135.1510958863511
 30
0.0
 10
92.44603676074266
 20
-135.1194010078868
 30
0.0
 10
92.38230249426555
 20
-135.0456759645025
 30
0.0
 10
92.28136119654772
 20
-135.0325846016585
 30
0.0
 10
92.23381887885127
 20
-135.0325846016585
 30
0.0
 10
92.21728242052207
 20
-135.0325846016585
 30
0.0
 10
92.18627656115483
 20
-135.0346516589497
 30
0.0
 10
92.1625054023066
 20
-135.038785773532
 30
0.0
 10
92.1625054023066
 20
-135.038785773532
 30
0.0
 10
92.1625054023066
 20
-134.8444823881639
 30
0.0
 10
92.1625054023066
 20
-134.8444823881639
 30
0.0
 10
92.195578318965
 20
-134.8506835600373
 30
0.0
 10
92.23209633110865
 20
-134.8527506173285
 30
0.0
 10
92.23760848388504
 20
-134.8527506173285
 30
0.0
 10
92.29445255939167
 20
-134.8527506173285
 30
0.0
 10
92.46636282410563
 20
-134.8313910253199
 30
0.0
 10
92.46636282410563
 20
-134.5950574750318
 30
0.0
 10
92.46636282410563
 20
-134.4172905479929
 30
0.0
 10
92.35301918264092
 20
-134.3621690202289
 30
0.0
 10
92.2575900376995
 20
-134.3621690202289
 30
0.0
 10
92.02883569747891
 20
-134.3621690202289
 30
0.0
 10
92.02160099695988
 20
-134.5950574750318
 30
0.0
 10
92.0178113919261
 20
-134.666715461125
 30
0.0
 10
92.0178113919261
 20
-134.666715461125
 30
0.0
 10
91.84211152217837
 20
-134.666715461125
 30
0.0
 10
91.84211152217837
 20
-134.666715461125
 30
0.0
 10
91.84969073224592
 20
-134.5420030045589
 30
0.0
 10
91.87346189109414
 20
-134.1651095584726
 30
0.0
 10
92.2686143432523
 20
-134.1651095584726
 30
0.0
 10
92.46257321907186
 20
-134.1651095584726
 30
0.0
 10
92.671346005478
 20
-134.2925780914269
 30
0.0
 10
92.671346005478
 20
-134.5881672840613
 30
0.0
 10
92.671346005478
 20
-134.7748914593618
 30
0.0
 10
92.58900822338053
 20
-134.8568847319108
 30
0.0
 10
92.50288083624929
 20
-134.9182074315482
 30
0.0
 10
92.55593530672213
 20
-134.9457681954302
 30
0.0
 10
92.71337617039805
 20
-135.0263834297851
 30
0.0
 10
92.71337617039805
 20
-135.3033691067992
 30
0.0
 10
92.71337617039805
 20
-135.6416774834507
 30
0.0
 10
92.49943574076403
 20
-135.8091091240339
 30
0.0
 10
92.25965709499064
 20
-135.8091091240339
 30
0.0
  0
HATCH
  5
A9
330
A2
100
AcDbEntity
  8
_U+30EC_U+30A4_U+30E4_U+30FC 1
 62
   179
420
  2234388
100
AcDbHatch
 10
0.0
 20
0.0
 30
0.0
210
0.0
220
0.0
230
1.0
  2
SOLID
 70
     1
 71
     0
 91
        1
 92
        1
 93
        1
 72
     4
 94
        3
 73
     0
 74
     1
 95
       62
 96
       58
 40
0.0
 40
0.0
 40
0.0
 40
0.0
 40
1.0
 40
1.0
 40
1.0
 40
2.0
 40
2.0
 40
2.0
 40
3.0
 40
3.0
 40
3.0
 40
4.0
 40
4.0
 40
4.0
 40
5.0
 40
5.0
 40
5.0
 40
6.0
 40
6.0
 40
6.0
 40
7.0
 40
7.0
 40
7.0
 40
8.0
 40
8.0
 40
8.0
 40
9.0
 40
9.0
 40
9.0
 40
10.0
 40
10.0
 40
10.0
 40
11.0
 40
11.0
 40
11.0
 40
12.0
 40
12.0
 40
12.0
 40
13.0
 40
13.0
 40
13.0
 40
14.0
 40
14.0
 40
14.0
 40
15.0
 40
15.0
 40
15.0
 40
16.0
 40
16.0
 40
16.0
 40
17.0
 40
17.0
 40
17.0
 40
18.0
 40
18.0
 40
18.0
 40
19.0
 40
19.0
 40
19.0
 40
19.0
 10
92.25965709499064
 20
-135.8091091240339
 10
92.17731931289318
 20
-135.8091091240339
 10
91.98852808030148
 20
-135.7877495320253
 10
91.88069659161316
 20
-135.6017143758218
 10
91.81661781558752
 20
-135.4894042630027
 10
91.81282821055375
 20
-135.3901855130275
 10
91.80938311506848
 20
-135.3054361640903
 10
91.80938311506848
 20
-135.3054361640903
 10
91.99955238585429
 20
-135.3054361640903
 10
91.99955238585429
 20
-135.3054361640903
 10
92.00161944314543
 20
-135.3798502265717
 10
92.01057669140708
 20
-135.6141167195687
 10
92.25586748995687
 20
-135.6141167195687
 10
92.37472328419798
 20
-135.6141167195687
 10
92.50667044128306
 20
-135.5445257907666
 10
92.50667044128306
 20
-135.3164604696431
 10
92.50667044128306
 20
-135.2000162422417
 10
92.47359752462467
 20
-135.1510958863511
 10
92.44603676074266
 20
-135.1194010078868
 10
92.38230249426555
 20
-135.0456759645025
 10
92.28136119654772
 20
-135.0325846016585
 10
92.23381887885127
 20
-135.0325846016585
 10
92.21728242052207
 20
-135.0325846016585
 10
92.18627656115483
 20
-135.0346516589497
 10
92.1625054023066
 20
-135.038785773532
 10
92.1625054023066
 20
-135.038785773532
 10
92.1625054023066
 20
-134.8444823881639
 10
92.1625054023066
 20
-134.8444823881639
 10
92.195578318965
 20
-134.8506835600373
 10
92.23209633110865
 20
-134.8527506173285
 10
92.23760848388504
 20
-134.8527506173285
 10
92.29445255939167
 20
-134.8527506173285
 10
92.46636282410563
 20
-134.8313910253199
 10
92.46636282410563
 20
-134.5950574750318
 10
92.46636282410563
 20
-134.4172905479929
 10
92.35301918264092
 20
-134.3621690202289
 10
92.2575900376995
 20
-134.3621690202289
 10
92.02883569747891
 20
-134.3621690202289
 10
92.02160099695988
 20
-134.5950574750318
 10
92.0178113919261
 20
-134.666715461125
 10
92.0178113919261
 20
-134.666715461125
 10
91.84211152217837
 20
-134.666715461125
 10
91.84211152217837
 20
-134.666715461125
 10
91.84969073224592
 20
-134.5420030045589
 10
91.87346189109414
 20
-134.1651095584726
 10
92.2686143432523
 20
-134.1651095584726
 10
92.46257321907186
 20
-134.1651095584726
 10
92.671346005478
 20
-134.2925780914269
 10
92.671346005478
 20
-134.5881672840613
 10
92.671346005478
 20
-134.7748914593618
 10
92.58900822338053
 20
-134.8568847319108
 10
92.50288083624929
 20
-134.9182074315482
 10
92.55593530672213
 20
-134.9457681954302
 10
92.71337617039805
 20
-135.0263834297851
 10
92.71337617039805
 20
-135.3033691067992
 10
92.71337617039805
 20
-135.6416774834507
 10
92.49943574076403
 20
-135.8091091240339
 10
92.25965709499064
 20
-135.8091091240339
 97
        0
 97
        0
 75
     2
 76
     1
 98
        0
  0
ENDBLK
  5
A5
330
A2
100
AcDbEntity
  8
0
100
AcDbBlockEnd
  0
ENDSEC
  0
SECTION
  2
ENTITIES
  0
POLYLINE
  5
41
330
1F
100
AcDbEntity
  8
_U+30EC_U+30A4_U+30E4_U+30FC 1
 62
   179
420
  2234388
370
    25
100
AcDb2dPolyline
 66
     1
 10
0.0
 20
0.0
 30
0.0
  0
VERTEX
  5
42
330
41
100
AcDbEntity
  8
_U+30EC_U+30A4_U+30E4_U+30FC 1
 62
   179
420
  2234388
370
    25
100
AcDbVertex
100
AcDb2dVertex
 10
98.25756915990723
 20
-131.555807467111
 30
0.0
  0
VERTEX
  5
43
330
41
100
AcDbEntity
  8
_U+30EC_U+30A4_U+30E4_U+30FC 1
 62
   179
420
  2234388
370
    25
100
AcDbVertex
100
AcDb2dVertex
 10
98.25756915990723
 20
-132.3557310780221
 30
0.0
  0
SEQEND
  5
44
330
41
100
AcDbEntity
  8
_U+30EC_U+30A4_U+30E4_U+30FC 1
 62
   179
420
  2234388
370
    25
  0
POLYLINE
  5
45
330
1F
100
AcDbEntity
  8
_U+30EC_U+30A4_U+30E4_U+30FC 1
 62
   179
420
  2234388
370
    25
100
AcDb2dPolyline
 66
     1
 10
0.0
 20
0.0
 30
0.0
  0
VERTEX
  5
46
330
45
100
AcDbEntity
  8
_U+30EC_U+30A4_U+30E4_U+30FC 1
 62
   179
420
  2234388
370
    25
100
AcDbVertex
100
AcDb2dVertex
 10
85.25767310267332
 20
-132.3557310780221
 30
0.0
  0
VERTEX
  5
47
330
45
100
AcDbEntity
  8
_U+30EC_U+30A4_U+30E4_U+30FC 1
 62
   179
420
  2234388
370
    25
100
AcDbVertex
100
AcDb2dVertex
 10
98.25756915990723
 20
-132.3557310780221
 30
0.0
  0
SEQEND
  5
48
330
45
100
AcDbEntity
  8
_U+30EC_U+30A4_U+30E4_U+30FC 1
 62
   179
420
  2234388
370
    25
  0
POLYLINE
  5
49
330
1F
100
AcDbEntity
  8
_U+30EC_U+30A4_U+30E4_U+30FC 1
 62
   179
420
  2234388
370
    25
100
AcDb2dPolyline
 66
     1
 10
0.0
 20
0.0
 30
0.0
  0
VERTEX
  5
4A
330
49
100
AcDbEntity
  8
_U+30EC_U+30A4_U+30E4_U+30FC 1
 62
   179
420
  2234388
370
    25
100
AcDbVertex
100
AcDb2dVertex
 10
85.25767310267332
 20
-119.3548116368279
 30
0.0
  0
VERTEX
  5
4B
330
49
100
AcDbEntity
  8
_U+30EC_U+30A4_U+30E4_U+30FC 1
 62
   179
420
  2234388
370
    25
100
AcDbVertex
100
AcDb2dVertex
 10
85.25767310267332
 20
-132.3557310780221
 30
0.0
  0
SEQEND
  5
4C
330
49
100
AcDbEntity
  8
_U+30EC_U+30A4_U+30E4_U+30FC 1
 62
   179
420
  2234388
370
    25
  0
POLYLINE
  5
4D
330
1F
100
AcDbEntity
  8
_U+30EC_U+30A4_U+30E4_U+30FC 1
 62
   179
420
  2234388
370
    25
100
AcDb2dPolyline
 66
     1
 10
0.0
 20
0.0
 30
0.0
  0
VERTEX
  5
4E
330
4D
100
AcDbEntity
  8
_U+30EC_U+30A4_U+30E4_U+30FC 1
 62
   179
420
  2234388
370
    25
100
AcDbVertex
100
AcDb2dVertex
 10
85.25767310267332
 20
-119.3548116368279
 30
0.0
  0
VERTEX
  5
4F
330
4D
100
AcDbEntity
  8
_U+30EC_U+30A4_U+30E4_U+30FC 1
 62
   179
420
  2234388
370
    25
100
AcDbVertex
100
AcDb2dVertex
 10
86.05763197115357
 20
-119.3548116368279
 30
0.0
  0
SEQEND
  5
50
330
4D
100
AcDbEntity
  8
_U+30EC_U+30A4_U+30E4_U+30FC 1
 62
   179
420
  2234388
370
    25
  0
POLYLINE
  5
51
330
1F
100
AcDbEntity
  8
_U+30EC_U+30A4_U+30E4_U+30FC 1
 62
   179
420
  2234388
370
    25
100
AcDb2dPolyline
 66
     1
 10
0.0
 20
0.0
 30
0.0
  0
VERTEX
  5
52
330
51
100
AcDbEntity
  8
_U+30EC_U+30A4_U+30E4_U+30FC 1
 62
   179
420
  2234388
370
    25
100
AcDbVertex
100
AcDb2dVertex
 10
86.05763197115357
 20
-119.3548116368279
 30
0.0
  0
VERTEX
  5
53
330
51
100
AcDbEntity
  8
_U+30EC_U+30A4_U+30E4_U+30FC 1
 62
   179
420
  2234388
370
    25
100
AcDbVertex
100
AcDb2dVertex
 10
86.05763197115357
 20
-131.555807467111
 30
0.0
  0
SEQEND
  5
54
330
51
100
AcDbEntity
  8
_U+30EC_U+30A4_U+30E4_U+30FC 1
 62
   179
420
  2234388
370
    25
  0
POLYLINE
  5
55
330
1F
100
AcDbEntity
  8
_U+30EC_U+30A4_U+30E4_U+30FC 1
 62
   179
420
  2234388
370
    25
100
AcDb2dPolyline
 66
     1
 10
0.0
 20
0.0
 30
0.0
  0
VERTEX
  5
56
330
55
100
AcDbEntity
  8
_U+30EC_U+30A4_U+30E4_U+30FC 1
 62
   179
420
  2234388
370
    25
100
AcDbVertex
100
AcDb2dVertex
 10
86.05763197115357
 20
-131.555807467111
 30
0.0
  0
VERTEX
  5
57
330
55
100
AcDbEntity
  8
_U+30EC_U+30A4_U+30E4_U+30FC 1
 62
   179
420
  2234388
370
    25
100
AcDbVertex
100
AcDb2dVertex
 10
98.25756915990723
 20
-131.555807467111
 30
0.0
  0
SEQEND
  5
58
330
55
100
AcDbEntity
  8
_U+30EC_U+30A4_U+30E4_U+30FC 1
 62
   179
420
  2234388
370
    25
  0
SPLINE
  5
59
330
1F
100
AcDbEntity
  8
_U+30EC_U+30A4_U+30E4_U+30FC 1
 62
   179
420
  2234388
370
     9
100
AcDbSpline
210
0.0
220
0.0
230
1.0
 70
    11
 71
     3
 72
    17
 73
    13
 74
     0
 42
0.0000000001
 43
0.0000000001
 12
1.0
 22
0.0
 32
0.0
 13
1.0
 23
0.0
 33
0.0
 40
0.0
 40
0.0
 40
0.0
 40
0.0
 40
1.0
 40
1.0
 40
1.0
 40
2.0
 40
2.0
 40
2.0
 40
3.0
 40
3.0
 40
3.0
 40
4.0
 40
4.0
 40
4.0
 40
4.0
 10
102.3572348886494
 20
-132.3557310780221
 30
0.0
 10
102.3572348886494
 20
-132.2999216335917
 30
0.0
 10
102.3124321120146
 20
-132.2551541336032
 30
0.0
 10
102.2573282245315
 20
-132.2551541336032
 30
0.0
 10
102.2021916411162
 20
-132.2551541336032
 30
0.0
 10
102.1574215604137
 20
-132.2999216335917
 30
0.0
 10
102.1574215604137
 20
-132.3557310780221
 30
0.0
 10
102.1574215604137
 20
-132.4108702446752
 30
0.0
 10
102.2021916411162
 20
-132.4556377446638
 30
0.0
 10
102.2573282245315
 20
-132.4556377446638
 30
0.0
 10
102.3124321120146
 20
-132.4556377446638
 30
0.0
 10
102.3572348886494
 20
-132.4108702446752
 30
0.0
 10
102.3572348886494
 20
-132.3557310780221
 30
0.0
  0
SPLINE
  5
5A
330
1F
100
AcDbEntity
  8
_U+30EC_U+30A4_U+30E4_U+30FC 1
 62
   179
420
  2234388
370
     9
100
AcDbSpline
210
0.0
220
0.0
230
1.0
 70
    11
 71
     3
 72
    17
 73
    13
 74
     0
 42
0.0000000001
 43
0.0000000001
 12
1.0
 22
0.0
 32
0.0
 13
1.0
 23
0.0
 33
0.0
 40
0.0
 40
0.0
 40
0.0
 40
0.0
 40
1.0
 40
1.0
 40
1.0
 40
2.0
 40
2.0
 40
2.0
 40
3.0
 40
3.0
 40
3.0
 40
4.0
 40
4.0
 40
4.0
 40
4.0
 10
98.35747582402507
 20
-136.355490243689
 30
0.0
 10
98.35747582402507
 20
-136.3003863548141
 30
0.0
 10
98.3126730473903
 20
-136.2555835770474
 30
0.0
 10
98.25756915990723
 20
-136.2555835770474
 30
0.0
 10
98.20242999464729
 20
-136.2555835770474
 30
0.0
 10
98.1576624957894
 20
-136.3003863548141
 30
0.0
 10
98.1576624957894
 20
-136.355490243689
 30
0.0
 10
98.1576624957894
 20
-136.4106294103421
 30
0.0
 10
98.20242999464729
 20
-136.4553969103307
 30
0.0
 10
98.25756915990723
 20
-136.4553969103307
 30
0.0
 10
98.3126730473903
 20
-136.4553969103307
 30
0.0
 10
98.35747582402507
 20
-136.4106294103421
 30
0.0
 10
98.35747582402507
 20
-136.355490243689
 30
0.0
  0
SPLINE
  5
5B
330
1F
100
AcDbEntity
  8
_U+30EC_U+30A4_U+30E4_U+30FC 1
 62
   179
420
  2234388
370
     9
100
AcDbSpline
210
0.0
220
0.0
230
1.0
 70
    11
 71
     3
 72
    17
 73
    13
 74
     0
 42
0.0000000001
 43
0.0000000001
 12
1.0
 22
0.0
 32
0.0
 13
1.0
 23
0.0
 33
0.0
 40
0.0
 40
0.0
 40
0.0
 40
0.0
 40
1.0
 40
1.0
 40
1.0
 40
2.0
 40
2.0
 40
2.0
 40
3.0
 40
3.0
 40
3.0
 40
4.0
 40
4.0
 40
4.0
 40
4.0
 10
85.35757976679116
 20
-136.355490243689
 30
0.0
 10
85.35757976679116
 20
-136.3003863548141
 30
0.0
 10
85.3127769901564
 20
-136.2555835770474
 30
0.0
 10
85.25767310267332
 20
-136.2555835770474
 30
0.0
 10
85.20253608981056
 20
-136.2555835770474
 30
0.0
 10
85.1577664385555
 20
-136.3003863548141
 30
0.0
 10
85.1577664385555
 20
-136.355490243689
 30
0.0
 10
85.1577664385555
 20
-136.4106294103421
 30
0.0
 10
85.20253608981056
 20
-136.4553969103307
 30
0.0
 10
85.25767310267332
 20
-136.4553969103307
 30
0.0
 10
85.3127769901564
 20
-136.4553969103307
 30
0.0
 10
85.35757976679116
 20
-136.4106294103421
 30
0.0
 10
85.35757976679116
 20
-136.355490243689
 30
0.0
  0
SPLINE
  5
5C
330
1F
100
AcDbEntity
  8
_U+30EC_U+30A4_U+30E4_U+30FC 1
 62
   179
420
  2234388
370
     9
100
AcDbSpline
210
0.0
220
0.0
230
1.0
 70
    11
 71
     3
 72
    17
 73
    13
 74
     0
 42
0.0000000001
 43
0.0000000001
 12
1.0
 22
0.0
 32
0.0
 13
1.0
 23
0.0
 33
0.0
 40
0.0
 40
0.0
 40
0.0
 40
0.0
 40
1.0
 40
1.0
 40
1.0
 40
2.0
 40
2.0
 40
2.0
 40
3.0
 40
3.0
 40
3.0
 40
4.0
 40
4.0
 40
4.0
 40
4.0
 10
81.35746792439808
 20
-132.3557310780221
 30
0.0
 10
81.35746792439808
 20
-132.2999216335917
 30
0.0
 10
81.31270042554019
 20
-132.2551541336032
 30
0.0
 10
81.25756126028024
 20
-132.2551541336032
 30
0.0
 10
81.20210459502839
 20
-132.2551541336032
 30
0.0
 10
81.15730181839362
 20
-132.2999216335917
 30
0.0
 10
81.15730181839362
 20
-132.3557310780221
 30
0.0
 10
81.15730181839362
 20
-132.4108702446752
 30
0.0
 10
81.20210459502839
 20
-132.4556377446638
 30
0.0
 10
81.25756126028024
 20
-132.4556377446638
 30
0.0
 10
81.31270042554019
 20
-132.4556377446638
 30
0.0
 10
81.35746792439808
 20
-132.4108702446752
 30
0.0
 10
81.35746792439808
 20
-132.3557310780221
 30
0.0
  0
SPLINE
  5
5D
330
1F
100
AcDbEntity
  8
_U+30EC_U+30A4_U+30E4_U+30FC 1
 62
   179
420
  2234388
370
     9
100
AcDbSpline
210
0.0
220
0.0
230
1.0
 70
    11
 71
     3
 72
    17
 73
    13
 74
     0
 42
0.0000000001
 43
0.0000000001
 12
1.0
 22
0.0
 32
0.0
 13
1.0
 23
0.0
 33
0.0
 40
0.0
 40
0.0
 40
0.0
 40
0.0
 40
1.0
 40
1.0
 40
1.0
 40
2.0
 40
2.0
 40
2.0
 40
3.0
 40
3.0
 40
3.0
 40
4.0
 40
4.0
 40
4.0
 40
4.0
 10
81.35746792439808
 20
-119.3548116368279
 30
0.0
 10
81.35746792439808
 20
-119.299707747953
 30
0.0
 10
81.31270042554019
 20
-119.2549049701863
 30
0.0
 10
81.25756126028024
 20
-119.2549049701863
 30
0.0
 10
81.20210459502839
 20
-119.2549049701863
 30
0.0
 10
81.15730181839362
 20
-119.299707747953
 30
0.0
 10
81.15730181839362
 20
-119.3548116368279
 30
0.0
 10
81.15730181839362
 20
-119.4102683034809
 30
0.0
 10
81.20210459502839
 20
-119.4547183034695
 30
0.0
 10
81.25756126028024
 20
-119.4547183034695
 30
0.0
 10
81.31270042554019
 20
-119.4547183034695
 30
0.0
 10
81.35746792439808
 20
-119.4102683034809
 30
0.0
 10
81.35746792439808
 20
-119.3548116368279
 30
0.0
  0
SPLINE
  5
5E
330
1F
100
AcDbEntity
  8
_U+30EC_U+30A4_U+30E4_U+30FC 1
 62
   179
420
  2234388
370
     9
100
AcDbSpline
210
0.0
220
0.0
230
1.0
 70
    11
 71
     3
 72
    17
 73
    13
 74
     0
 42
0.0000000001
 43
0.0000000001
 12
1.0
 22
0.0
 32
0.0
 13
1.0
 23
0.0
 33
0.0
 40
0.0
 40
0.0
 40
0.0
 40
0.0
 40
1.0
 40
1.0
 40
1.0
 40
2.0
 40
2.0
 40
2.0
 40
3.0
 40
3.0
 40
3.0
 40
4.0
 40
4.0
 40
4.0
 40
4.0
 10
102.3572348886494
 20
-131.555807467111
 30
0.0
 10
102.3572348886494
 20
-131.4999980226806
 30
0.0
 10
102.3124321120146
 20
-131.4551952449139
 30
0.0
 10
102.2573282245315
 20
-131.4551952449139
 30
0.0
 10
102.2021916411162
 20
-131.4551952449139
 30
0.0
 10
102.1574215604137
 20
-131.4999980226806
 30
0.0
 10
102.1574215604137
 20
-131.555807467111
 30
0.0
 10
102.1574215604137
 20
-131.610911355986
 30
0.0
 10
102.2021916411162
 20
-131.6557141337527
 30
0.0
 10
102.2573282245315
 20
-131.6557141337527
 30
0.0
 10
102.3124321120146
 20
-131.6557141337527
 30
0.0
 10
102.3572348886494
 20
-131.610911355986
 30
0.0
 10
102.3572348886494
 20
-131.555807467111
 30
0.0
  0
POLYLINE
  5
5F
330
1F
100
AcDbEntity
  8
_U+30EC_U+30A4_U+30E4_U+30FC 1
 62
   179
420
  2234388
370
     9
100
AcDb2dPolyline
 66
     1
 10
0.0
 20
0.0
 30
0.0
  0
VERTEX
  5
60
330
5F
100
AcDbEntity
  8
_U+30EC_U+30A4_U+30E4_U+30FC 1
 62
   179
420
  2234388
370
     9
100
AcDbVertex
100
AcDb2dVertex
 10
102.2573282245315
 20
-131.555807467111
 30
0.0
  0
VERTEX
  5
61
330
5F
100
AcDbEntity
  8
_U+30EC_U+30A4_U+30E4_U+30FC 1
 62
   179
420
  2234388
370
     9
100
AcDbVertex
100
AcDb2dVertex
 10
102.2573282245315
 20
-125.889490801861
 30
0.0
  0
SEQEND
  5
62
330
5F
100
AcDbEntity
  8
_U+30EC_U+30A4_U+30E4_U+30FC 1
 62
   179
420
  2234388
370
     9
  0
POLYLINE
  5
63
330
1F
100
AcDbEntity
  8
_U+30EC_U+30A4_U+30E4_U+30FC 1
 62
   179
420
  2234388
370
     9
100
AcDb2dPolyline
 66
     1
 10
0.0
 20
0.0
 30
0.0
  0
VERTEX
  5
64
330
63
100
AcDbEntity
  8
_U+30EC_U+30A4_U+30E4_U+30FC 1
 62
   179
420
  2234388
370
     9
100
AcDbVertex
100
AcDb2dVertex
 10
102.2573282245315
 20
-131.555807467111
 30
0.0
  0
VERTEX
  5
65
330
63
100
AcDbEntity
  8
_U+30EC_U+30A4_U+30E4_U+30FC 1
 62
   179
420
  2234388
370
     9
100
AcDbVertex
100
AcDb2dVertex
 10
102.2573282245315
 20
-133.3555032999947
 30
0.0
  0
SEQEND
  5
66
330
63
100
AcDbEntity
  8
_U+30EC_U+30A4_U+30E4_U+30FC 1
 62
   179
420
  2234388
370
     9
  0
POLYLINE
  5
67
330
1F
100
AcDbEntity
  8
_U+30EC_U+30A4_U+30E4_U+30FC 1
 62
   179
420
  2234388
370
     9
100
AcDb2dPolyline
 66
     1
 10
0.0
 20
0.0
 30
0.0
  0
VERTEX
  5
68
330
67
100
AcDbEntity
  8
_U+30EC_U+30A4_U+30E4_U+30FC 1
 62
   179
420
  2234388
370
     9
100
AcDbVertex
100
AcDb2dVertex
 10
100.7972868728914
 20
-131.555807467111
 30
0.0
  0
VERTEX
  5
69
330
67
100
AcDbEntity
  8
_U+30EC_U+30A4_U+30E4_U+30FC 1
 62
   179
420
  2234388
370
     9
100
AcDbVertex
100
AcDb2dVertex
 10
103.2577706990081
 20
-131.555807467111
 30
0.0
  0
SEQEND
  5
6A
330
67
100
AcDbEntity
  8
_U+30EC_U+30A4_U+30E4_U+30FC 1
 62
   179
420
  2234388
370
     9
  0
POLYLINE
  5
6B
330
1F
100
AcDbEntity
  8
_U+30EC_U+30A4_U+30E4_U+30FC 1
 62
   179
420
  2234388
370
     9
100
AcDb2dPolyline
 66
     1
 10
0.0
 20
0.0
 30
0.0
  0
VERTEX
  5
6C
330
6B
100
AcDbEntity
  8
_U+30EC_U+30A4_U+30E4_U+30FC 1
 62
   179
420
  2234388
370
     9
100
AcDbVertex
100
AcDb2dVertex
 10
100.7972868728914
 20
-132.3557310780221
 30
0.0
  0
VERTEX
  5
6D
330
6B
100
AcDbEntity
  8
_U+30EC_U+30A4_U+30E4_U+30FC 1
 62
   179
420
  2234388
370
     9
100
AcDbVertex
100
AcDb2dVertex
 10
103.2577706990081
 20
-132.3557310780221
 30
0.0
  0
SEQEND
  5
6E
330
6B
100
AcDbEntity
  8
_U+30EC_U+30A4_U+30E4_U+30FC 1
 62
   179
420
  2234388
370
     9
  0
INSERT
  5
70
330
1F
100
AcDbEntity
  8
_U+30EC_U+30A4_U+30E4_U+30FC 1
100
AcDbBlockReference
  2
block 2
 10
0.0
 20
0.0
 30
0.0
  0
POLYLINE
  5
82
330
1F
100
AcDbEntity
  8
_U+30EC_U+30A4_U+30E4_U+30FC 1
 62
   179
420
  2234388
370
     9
100
AcDb2dPolyline
 66
     1
 10
0.0
 20
0.0
 30
0.0
  0
VERTEX
  5
83
330
82
100
AcDbEntity
  8
_U+30EC_U+30A4_U+30E4_U+30FC 1
 62
   179
420
  2234388
370
     9
100
AcDbVertex
100
AcDb2dVertex
 10
81.25756126028024
 20
-119.3548116368279
 30
0.0
  0
VERTEX
  5
84
330
82
100
AcDbEntity
  8
_U+30EC_U+30A4_U+30E4_U+30FC 1
 62
   179
420
  2234388
370
     9
100
AcDbVertex
100
AcDb2dVertex
 10
81.25756126028024
 20
-132.3557310780221
 30
0.0
  0
SEQEND
  5
85
330
82
100
AcDbEntity
  8
_U+30EC_U+30A4_U+30E4_U+30FC 1
 62
   179
420
  2234388
370
     9
  0
POLYLINE
  5
86
330
1F
100
AcDbEntity
  8
_U+30EC_U+30A4_U+30E4_U+30FC 1
 62
   179
420
  2234388
370
     9
100
AcDb2dPolyline
 66
     1
 10
0.0
 20
0.0
 30
0.0
  0
VERTEX
  5
87
330
86
100
AcDbEntity
  8
_U+30EC_U+30A4_U+30E4_U+30FC 1
 62
   179
420
  2234388
370
     9
100
AcDbVertex
100
AcDb2dVertex
 10
82.71760261192037
 20
-119.3548116368279
 30
0.0
  0
VERTEX
  5
88
330
86
100
AcDbEntity
  8
_U+30EC_U+30A4_U+30E4_U+30FC 1
 62
   179
420
  2234388
370
     9
100
AcDbVertex
100
AcDb2dVertex
 10
80.25747156357242
 20
-119.3548116368279
 30
0.0
  0
SEQEND
  5
89
330
86
100
AcDbEntity
  8
_U+30EC_U+30A4_U+30E4_U+30FC 1
 62
   179
420
  2234388
370
     9
  0
POLYLINE
  5
8A
330
1F
100
AcDbEntity
  8
_U+30EC_U+30A4_U+30E4_U+30FC 1
 62
   179
420
  2234388
370
     9
100
AcDb2dPolyline
 66
     1
 10
0.0
 20
0.0
 30
0.0
  0
VERTEX
  5
8B
330
8A
100
AcDbEntity
  8
_U+30EC_U+30A4_U+30E4_U+30FC 1
 62
   179
420
  2234388
370
     9
100
AcDbVertex
100
AcDb2dVertex
 10
82.71760261192037
 20
-132.3557310780221
 30
0.0
  0
VERTEX
  5
8C
330
8A
100
AcDbEntity
  8
_U+30EC_U+30A4_U+30E4_U+30FC 1
 62
   179
420
  2234388
370
     9
100
AcDbVertex
100
AcDb2dVertex
 10
80.25747156357242
 20
-132.3557310780221
 30
0.0
  0
SEQEND
  5
8D
330
8A
100
AcDbEntity
  8
_U+30EC_U+30A4_U+30E4_U+30FC 1
 62
   179
420
  2234388
370
     9
  0
INSERT
  5
8F
330
1F
100
AcDbEntity
  8
_U+30EC_U+30A4_U+30E4_U+30FC 1
100
AcDbBlockReference
  2
block 3
 10
0.0
 20
0.0
 30
0.0
  0
POLYLINE
  5
96
330
1F
100
AcDbEntity
  8
_U+30EC_U+30A4_U+30E4_U+30FC 1
 62
   179
420
  2234388
370
     9
100
AcDb2dPolyline
 66
     1
 10
0.0
 20
0.0
 30
0.0
  0
VERTEX
  5
97
330
96
100
AcDbEntity
  8
_U+30EC_U+30A4_U+30E4_U+30FC 1
 62
   179
420
  2234388
370
     9
100
AcDbVertex
100
AcDb2dVertex
 10
85.25767310267332
 20
-136.355490243689
 30
0.0
  0
VERTEX
  5
98
330
96
100
AcDbEntity
  8
_U+30EC_U+30A4_U+30E4_U+30FC 1
 62
   179
420
  2234388
370
     9
100
AcDbVertex
100
AcDb2dVertex
 10
98.25756915990723
 20
-136.355490243689
 30
0.0
  0
SEQEND
  5
99
330
96
100
AcDbEntity
  8
_U+30EC_U+30A4_U+30E4_U+30FC 1
 62
   179
420
  2234388
370
     9
  0
POLYLINE
  5
9A
330
1F
100
AcDbEntity
  8
_U+30EC_U+30A4_U+30E4_U+30FC 1
 62
   179
420
  2234388
370
     9
100
AcDb2dPolyline
 66
     1
 10
0.0
 20
0.0
 30
0.0
  0
VERTEX
  5
9B
330
9A
100
AcDbEntity
  8
_U+30EC_U+30A4_U+30E4_U+30FC 1
 62
   179
420
  2234388
370
     9
100
AcDbVertex
100
AcDb2dVertex
 10
85.25767310267332
 20
-134.8954841329428
 30
0.0
  0
VERTEX
  5
9C
330
9A
100
AcDbEntity
  8
_U+30EC_U+30A4_U+30E4_U+30FC 1
 62
   179
420
  2234388
370
     9
100
AcDbVertex
100
AcDb2dVertex
 10
85.25767310267332
 20
-137.3552624656609
 30
0.0
  0
SEQEND
  5
9D
330
9A
100
AcDbEntity
  8
_U+30EC_U+30A4_U+30E4_U+30FC 1
 62
   179
420
  2234388
370
     9
  0
POLYLINE
  5
9E
330
1F
100
AcDbEntity
  8
_U+30EC_U+30A4_U+30E4_U+30FC 1
 62
   179
420
  2234388
370
     9
100
AcDb2dPolyline
 66
     1
 10
0.0
 20
0.0
 30
0.0
  0
VERTEX
  5
9F
330
9E
100
AcDbEntity
  8
_U+30EC_U+30A4_U+30E4_U+30FC 1
 62
   179
420
  2234388
370
     9
100
AcDbVertex
100
AcDb2dVertex
 10
98.25756915990723
 20
-134.8954841329428
 30
0.0
  0
VERTEX
  5
A0
330
9E
100
AcDbEntity
  8
_U+30EC_U+30A4_U+30E4_U+30FC 1
 62
   179
420
  2234388
370
     9
100
AcDbVertex
100
AcDb2dVertex
 10
98.25756915990723
 20
-137.3552624656609
 30
0.0
  0
SEQEND
  5
A1
330
9E
100
AcDbEntity
  8
_U+30EC_U+30A4_U+30E4_U+30FC 1
 62
   179
420
  2234388
370
     9
  0
INSERT
  5
A3
330
1F
100
AcDbEntity
  8
_U+30EC_U+30A4_U+30E4_U+30FC 1
100
AcDbBlockReference
  2
block 4
 10
0.0
 20
0.0
 30
0.0
  0
ENDSEC
  0
SECTION
  2
OBJECTS
  0
DICTIONARY
  5
C
330
0
100
AcDbDictionary
281
     1
  3
ACAD_GROUP
350
D
  3
ACAD_LAYOUT
350
1A
  3
ACAD_MATERIAL
350
3B
  3
ACAD_MLEADERSTYLE
350
AB
  3
ACAD_MLINESTYLE
350
17
  3
ACAD_PLOTSETTINGS
350
19
  3
ACAD_PLOTSTYLENAME
350
E
  3
ACAD_TABLESTYLE
350
AA
  3
ACAD_VISUALSTYLE
350
2A
  0
SUN
  5
3F
330
29
100
AcDbSun
 90
        1
290
     0
 63
     7
421
 16777215
 40
1.0
291
     1
 91
  2455826
 92
 54000000
292
     0
 70
     2
 71
   256
280
     1
  0
DICTIONARY
  5
D
102
{ACAD_REACTORS
330
C
102
}
330
C
100
AcDbDictionary
281
     1
  0
DICTIONARY
  5
1A
102
{ACAD_REACTORS
330
C
102
}
330
C
100
AcDbDictionary
281
     1
  3
Layout1
350
1E
  3
Layout2
350
26
  3
Model
350
22
  0
DICTIONARY
  5
3B
102
{ACAD_REACTORS
330
C
102
}
330
C
100
AcDbDictionary
281
     1
  3
ByBlock
350
3D
  3
ByLayer
350
3C
  3
Global
350
3E
  0
DICTIONARY
  5
AB
102
{ACAD_REACTORS
330
C
102
}
330
C
100
AcDbDictionary
281
     1
  0
DICTIONARY
  5
17
102
{ACAD_REACTORS
330
C
102
}
330
C
100
AcDbDictionary
281
     1
  3
Standard
350
18
  0
DICTIONARY
  5
19
102
{ACAD_REACTORS
330
C
102
}
330
C
100
AcDbDictionary
281
     1
  0
ACDBDICTIONARYWDFLT
  5
E
102
{ACAD_REACTORS
330
C
102
}
330
C
100
AcDbDictionary
281
     1
  3
Normal
350
F
100
AcDbDictionaryWithDefault
340
F
  0
DICTIONARY
  5
AA
102
{ACAD_REACTORS
330
C
102
}
330
C
100
AcDbDictionary
281
     1
  0
DICTIONARY
  5
2A
102
{ACAD_REACTORS
330
C
102
}
330
C
100
AcDbDictionary
281
     1
  3
2dWireframe
350
2F
  3
3D Hidden
350
31
  3
3dWireframe
350
30
  3
Basic
350
32
  3
Brighten
350
36
  3
ColorChange
350
3A
  3
Conceptual
350
34
  3
Dim
350
35
  3
Facepattern
350
39
  3
Flat
350
2B
  3
FlatWithEdges
350
2C
  3
Gouraud
350
2D
  3
GouraudWithEdges
350
2E
  3
Linepattern
350
38
  3
Realistic
350
33
  3
Thicken
350
37
  0
LAYOUT
  5
1E
102
{ACAD_REACTORS
330
1A
102
}
330
1A
100
AcDbPlotSettings
  1

  2
none_device
  4

  6

 40
0.0
 41
0.0
 42
0.0
 43
0.0
 44
0.0
 45
0.0
 46
0.0
 47
0.0
 48
0.0
 49
0.0
140
0.0
141
0.0
142
1.0
143
1.0
 70
   688
 72
     0
 73
     0
 74
     5
  7

 75
    16
 76
     0
 77
     2
 78
   300
147
1.0
148
0.0
149
0.0
100
AcDbLayout
  1
Layout1
 70
     1
 71
     1
 10
0.0
 20
0.0
 11
12.0
 21
9.0
 12
0.0
 22
0.0
 32
0.0
 14
1.000000000000000E+20
 24
1.000000000000000E+20
 34
1.000000000000000E+20
 15
-1.000000000000000E+20
 25
-1.000000000000000E+20
 35
-1.000000000000000E+20
146
0.0
 13
0.0
 23
0.0
 33
0.0
 16
1.0
 26
0.0
 36
0.0
 17
0.0
 27
1.0
 37
0.0
 76
     0
330
1B
  0
LAYOUT
  5
26
102
{ACAD_REACTORS
330
1A
102
}
330
1A
100
AcDbPlotSettings
  1

  2
none_device
  4

  6

 40
0.0
 41
0.0
 42
0.0
 43
0.0
 44
0.0
 45
0.0
 46
0.0
 47
0.0
 48
0.0
 49
0.0
140
0.0
141
0.0
142
1.0
143
1.0
 70
   688
 72
     0
 73
     0
 74
     5
  7

 75
    16
 76
     0
 77
     2
 78
   300
147
1.0
148
0.0
149
0.0
100
AcDbLayout
  1
Layout2
 70
     1
 71
     2
 10
0.0
 20
0.0
 11
0.0
 21
0.0
 12
0.0
 22
0.0
 32
0.0
 14
0.0
 24
0.0
 34
0.0
 15
0.0
 25
0.0
 35
0.0
146
0.0
 13
0.0
 23
0.0
 33
0.0
 16
1.0
 26
0.0
 36
0.0
 17
0.0
 27
1.0
 37
0.0
 76
     0
330
23
  0
LAYOUT
  5
22
102
{ACAD_REACTORS
330
1A
102
}
330
1A
100
AcDbPlotSettings
  1

  2
none_device
  4

  6

 40
0.0
 41
0.0
 42
0.0
 43
0.0
 44
0.0
 45
0.0
 46
0.0
 47
0.0
 48
0.0
 49
0.0
140
0.0
141
0.0
142
1.0
143
1.0
 70
  1712
 72
     0
 73
     0
 74
     0
  7

 75
     0
 76
     0
 77
     2
 78
   300
147
1.0
148
0.0
149
0.0
100
AcDbLayout
  1
Model
 70
     1
 71
     0
 10
0.0
 20
0.0
 11
12.0
 21
9.0
 12
0.0
 22
0.0
 32
0.0
 14
1.000000000000000E+20
 24
1.000000000000000E+20
 34
1.000000000000000E+20
 15
-1.000000000000000E+20
 25
-1.000000000000000E+20
 35
-1.000000000000000E+20
146
0.0
 13
0.0
 23
0.0
 33
0.0
 16
1.0
 26
0.0
 36
0.0
 17
0.0
 27
1.0
 37
0.0
 76
     0
330
1F
331
29
  0
MATERIAL
  5
3D
102
{ACAD_REACTORS
330
3B
102
}
330
3B
100
AcDbMaterial
  1
ByBlock
 72
     1
 94
      127
  0
MATERIAL
  5
3C
102
{ACAD_REACTORS
330
3B
102
}
330
3B
100
AcDbMaterial
  1
ByLayer
 72
     1
 94
      127
  0
MATERIAL
  5
3E
102
{ACAD_REACTORS
330
3B
102
}
330
3B
100
AcDbMaterial
  1
Global
 72
     1
 94
      127
  0
MLINESTYLE
  5
18
102
{ACAD_REACTORS
330
17
102
}
330
17
100
AcDbMlineStyle
  2
Standard
 70
     0
  3

 62
   256
 51
90.0
 52
90.0
 71
     2
 49
0.5
 62
   256
  6
BYLAYER
 49
-0.5
 62
   256
  6
BYLAYER
  0
ACDBPLACEHOLDER
  5
F
102
{ACAD_REACTORS
330
E
102
}
330
E
  0
VISUALSTYLE
  5
2F
102
{ACAD_REACTORS
330
2A
102
}
330
2A
100
AcDbVisualStyle
  2
2dWireframe
 70
     4
177
     2
291
     0
 71
     0
176
     1
 72
     2
176
     1
 73
     0
176
     1
 90
        0
176
     1
 40
-0.6
176
     1
 41
-30.0
176
     1
 62
     5
 63
     7
421
 16777215
176
     1
 74
     1
176
     1
 91
        4
176
     1
 64
     7
176
     1
 65
   257
176
     1
 75
     1
176
     1
175
     1
176
     1
 42
1.0
176
     1
 92
        0
176
     1
 66
   257
176
     1
 43
1.0
176
     1
 76
     1
176
     1
 77
     6
176
     1
 78
     2
176
     1
 67
     7
176
     1
 79
     5
176
     1
170
     0
176
     1
171
     0
176
     1
290
     0
176
     1
 93
        1
176
     1
 44
0.0
176
     1
173
     0
176
     1
  0
VISUALSTYLE
  5
31
102
{ACAD_REACTORS
330
2A
102
}
330
2A
100
AcDbVisualStyle
  2
3D Hidden
 70
     6
177
     2
291
     0
 71
     1
176
     1
 72
     2
176
     1
 73
     2
176
     1
 90
        0
176
     1
 40
-0.6
176
     1
 41
-30.0
176
     1
 62
     5
 63
     7
421
 16777215
176
     1
 74
     2
176
     1
 91
        2
176
     1
 64
     7
176
     1
 65
   257
176
     1
 75
     2
176
     1
175
     1
176
     1
 42
40.0
176
     1
 92
        0
176
     1
 66
   257
176
     1
 43
1.0
176
     1
 76
     1
176
     1
 77
     6
176
     1
 78
     2
176
     1
 67
     7
176
     1
 79
     3
176
     1
170
     0
176
     1
171
     0
176
     1
290
     0
176
     1
 93
        1
176
     1
 44
0.0
176
     1
173
     0
176
     1
  0
VISUALSTYLE
  5
30
102
{ACAD_REACTORS
330
2A
102
}
330
2A
100
AcDbVisualStyle
  2
3dWireframe
 70
     5
177
     2
291
     0
 71
     0
176
     1
 72
     2
176
     1
 73
     0
176
     1
 90
        0
176
     1
 40
-0.6
176
     1
 41
-30.0
176
     1
 62
     5
 63
     7
421
 16777215
176
     1
 74
     1
176
     1
 91
        4
176
     1
 64
     7
176
     1
 65
   257
176
     1
 75
     1
176
     1
175
     1
176
     1
 42
1.0
176
     1
 92
        0
176
     1
 66
   257
176
     1
 43
1.0
176
     1
 76
     1
176
     1
 77
     6
176
     1
 78
     2
176
     1
 67
     7
176
     1
 79
     5
176
     1
170
     0
176
     1
171
     0
176
     1
290
     0
176
     1
 93
        1
176
     1
 44
0.0
176
     1
173
     0
176
     1
  0
VISUALSTYLE
  5
32
102
{ACAD_REACTORS
330
2A
102
}
330
2A
100
AcDbVisualStyle
  2
Basic
 70
     7
177
     2
291
     1
 71
     1
176
     1
 72
     0
176
     1
 73
     1
176
     1
 90
        0
176
     1
 40
-0.6
176
     1
 41
-30.0
176
     1
 62
     5
 63
     7
421
 16777215
176
     1
 74
     0
176
     1
 91
        4
176
     1
 64
     7
176
     1
 65
   257
176
     1
 75
     1
176
     1
175
     1
176
     1
 42
1.0
176
     1
 92
        8
176
     1
 66
     7
176
     1
 43
1.0
176
     1
 76
     1
176
     1
 77
     6
176
     1
 78
     2
176
     1
 67
     7
176
     1
 79
     5
176
     1
170
     0
176
     1
171
     0
176
     1
290
     0
176
     1
 93
        1
176
     1
 44
0.0
176
     1
173
     0
176
     1
  0
VISUALSTYLE
  5
36
102
{ACAD_REACTORS
330
2A
102
}
330
2A
100
AcDbVisualStyle
  2
Brighten
 70
    12
177
     2
291
     1
 71
     2
176
     1
 72
     2
176
     1
 73
     0
176
     1
 90
        0
176
     1
 40
-0.6
176
     1
 41
-30.0
176
     1
 62
     5
 63
     7
421
 16777215
176
     1
 74
     1
176
     1
 91
        4
176
     1
 64
     7
176
     1
 65
   257
176
     1
 75
     1
176
     1
175
     1
176
     1
 42
1.0
176
     1
 92
        8
176
     1
 66
     7
176
     1
 43
1.0
176
     1
 76
     1
176
     1
 77
     6
176
     1
 78
     2
176
     1
 67
     7
176
     1
 79
     5
176
     1
170
     0
176
     1
171
     0
176
     1
290
     0
176
     1
 93
        1
176
     1
 44
50.0
176
     1
173
     0
176
     1
  0
VISUALSTYLE
  5
3A
102
{ACAD_REACTORS
330
2A
102
}
330
2A
100
AcDbVisualStyle
  2
ColorChange
 70
    16
177
     2
291
     1
 71
     2
176
     1
 72
     2
176
     1
 73
     3
176
     1
 90
        0
176
     1
 40
-0.6
176
     1
 41
-30.0
176
     1
 62
     5
 63
     8
421
  8421504
176
     1
 74
     1
176
     1
 91
        4
176
     1
 64
     7
176
     1
 65
   257
176
     1
 75
     1
176
     1
175
     1
176
     1
 42
1.0
176
     1
 92
        8
176
     1
 66
     8
424
  8421504
176
     1
 43
1.0
176
     1
 76
     1
176
     1
 77
     6
176
     1
 78
     2
176
     1
 67
     7
176
     1
 79
     5
176
     1
170
     0
176
     1
171
     0
176
     1
290
     0
176
     1
 93
        1
176
     1
 44
0.0
176
     1
173
     0
176
     1
  0
VISUALSTYLE
  5
34
102
{ACAD_REACTORS
330
2A
102
}
330
2A
100
AcDbVisualStyle
  2
Conceptual
 70
     9
177
     2
291
     0
 71
     3
176
     1
 72
     2
176
     1
 73
     0
176
     1
 90
        0
176
     1
 40
-0.6
176
     1
 41
-30.0
176
     1
 62
     5
 63
     7
421
 16777215
176
     1
 74
     2
176
     1
 91
        2
176
     1
 64
     7
176
     1
 65
   257
176
     1
 75
     1
176
     1
175
     1
176
     1
 42
40.0
176
     1
 92
        8
176
     1
 66
     7
176
     1
 43
1.0
176
     1
 76
     1
176
     1
 77
     6
176
     1
 78
     2
176
     1
 67
     7
176
     1
 79
     3
176
     1
170
     0
176
     1
171
     0
176
     1
290
     0
176
     1
 93
        1
176
     1
 44
0.0
176
     1
173
     0
176
     1
  0
VISUALSTYLE
  5
35
102
{ACAD_REACTORS
330
2A
102
}
330
2A
100
AcDbVisualStyle
  2
Dim
 70
    11
177
     2
291
     1
 71
     2
176
     1
 72
     2
176
     1
 73
     0
176
     1
 90
        0
176
     1
 40
-0.6
176
     1
 41
-30.0
176
     1
 62
     5
 63
     7
421
 16777215
176
     1
 74
     1
176
     1
 91
        4
176
     1
 64
     7
176
     1
 65
   257
176
     1
 75
     1
176
     1
175
     1
176
     1
 42
1.0
176
     1
 92
        8
176
     1
 66
     7
176
     1
 43
1.0
176
     1
 76
     1
176
     1
 77
     6
176
     1
 78
     2
176
     1
 67
     7
176
     1
 79
     5
176
     1
170
     0
176
     1
171
     0
176
     1
290
     0
176
     1
 93
        1
176
     1
 44
-50.0
176
     1
173
     0
176
     1
  0
VISUALSTYLE
  5
39
102
{ACAD_REACTORS
330
2A
102
}
330
2A
100
AcDbVisualStyle
  2
Facepattern
 70
    15
177
     2
291
     1
 71
     2
176
     1
 72
     2
176
     1
 73
     0
176
     1
 90
        0
176
     1
 40
-0.6
176
     1
 41
-30.0
176
     1
 62
     5
 63
     7
421
 16777215
176
     1
 74
     1
176
     1
 91
        4
176
     1
 64
     7
176
     1
 65
   257
176
     1
 75
     1
176
     1
175
     1
176
     1
 42
1.0
176
     1
 92
        8
176
     1
 66
     7
176
     1
 43
1.0
176
     1
 76
     1
176
     1
 77
     6
176
     1
 78
     2
176
     1
 67
     7
176
     1
 79
     5
176
     1
170
     0
176
     1
171
     0
176
     1
290
     0
176
     1
 93
        1
176
     1
 44
0.0
176
     1
173
     0
176
     1
  0
VISUALSTYLE
  5
2B
102
{ACAD_REACTORS
330
2A
102
}
330
2A
100
AcDbVisualStyle
  2
Flat
 70
     0
177
     2
291
     1
 71
     2
176
     1
 72
     1
176
     1
 73
     1
176
     1
 90
        2
176
     1
 40
-0.6
176
     1
 41
30.0
176
     1
 62
     5
 63
     7
421
 16777215
176
     1
 74
     0
176
     1
 91
        4
176
     1
 64
     7
176
     1
 65
   257
176
     1
 75
     1
176
     1
175
     1
176
     1
 42
1.0
176
     1
 92
        8
176
     1
 66
     7
176
     1
 43
1.0
176
     1
 76
     1
176
     1
 77
     6
176
     1
 78
     2
176
     1
 67
     7
176
     1
 79
     5
176
     1
170
     0
176
     1
171
     0
176
     1
290
     0
176
     1
 93
       13
176
     1
 44
0.0
176
     1
173
     0
176
     1
  0
VISUALSTYLE
  5
2C
102
{ACAD_REACTORS
330
2A
102
}
330
2A
100
AcDbVisualStyle
  2
FlatWithEdges
 70
     1
177
     2
291
     1
 71
     2
176
     1
 72
     1
176
     1
 73
     1
176
     1
 90
        2
176
     1
 40
-0.6
176
     1
 41
30.0
176
     1
 62
     5
 63
     7
421
 16777215
176
     1
 74
     1
176
     1
 91
        4
176
     1
 64
     7
176
     1
 65
   257
176
     1
 75
     1
176
     1
175
     1
176
     1
 42
1.0
176
     1
 92
        0
176
     1
 66
   257
176
     1
 43
1.0
176
     1
 76
     1
176
     1
 77
     6
176
     1
 78
     2
176
     1
 67
     7
176
     1
 79
     5
176
     1
170
     0
176
     1
171
     0
176
     1
290
     0
176
     1
 93
       13
176
     1
 44
0.0
176
     1
173
     0
176
     1
  0
VISUALSTYLE
  5
2D
102
{ACAD_REACTORS
330
2A
102
}
330
2A
100
AcDbVisualStyle
  2
Gouraud
 70
     2
177
     2
291
     1
 71
     2
176
     1
 72
     2
176
     1
 73
     1
176
     1
 90
        2
176
     1
 40
-0.6
176
     1
 41
30.0
176
     1
 62
     5
 63
     7
421
 16777215
176
     1
 74
     0
176
     1
 91
        4
176
     1
 64
     7
176
     1
 65
   257
176
     1
 75
     1
176
     1
175
     1
176
     1
 42
1.0
176
     1
 92
        0
176
     1
 66
     7
176
     1
 43
1.0
176
     1
 76
     1
176
     1
 77
     6
176
     1
 78
     2
176
     1
 67
     7
176
     1
 79
     5
176
     1
170
     0
176
     1
171
     0
176
     1
290
     0
176
     1
 93
       13
176
     1
 44
0.0
176
     1
173
     0
176
     1
  0
VISUALSTYLE
  5
2E
102
{ACAD_REACTORS
330
2A
102
}
330
2A
100
AcDbVisualStyle
  2
GouraudWithEdges
 70
     3
177
     2
291
     1
 71
     2
176
     1
 72
     2
176
     1
 73
     1
176
     1
 90
        2
176
     1
 40
-0.6
176
     1
 41
30.0
176
     1
 62
     5
 63
     7
421
 16777215
176
     1
 74
     1
176
     1
 91
        4
176
     1
 64
     7
176
     1
 65
   257
176
     1
 75
     1
176
     1
175
     1
176
     1
 42
1.0
176
     1
 92
        0
176
     1
 66
   257
176
     1
 43
1.0
176
     1
 76
     1
176
     1
 77
     6
176
     1
 78
     2
176
     1
 67
     7
176
     1
 79
     5
176
     1
170
     0
176
     1
171
     0
176
     1
290
     0
176
     1
 93
       13
176
     1
 44
0.0
176
     1
173
     0
176
     1
  0
VISUALSTYLE
  5
38
102
{ACAD_REACTORS
330
2A
102
}
330
2A
100
AcDbVisualStyle
  2
Linepattern
 70
    14
177
     2
291
     1
 71
     2
176
     1
 72
     2
176
     1
 73
     0
176
     1
 90
        0
176
     1
 40
-0.6
176
     1
 41
-30.0
176
     1
 62
     5
 63
     7
421
 16777215
176
     1
 74
     1
176
     1
 91
        4
176
     1
 64
     7
176
     1
 65
   257
176
     1
 75
     7
176
     1
175
     7
176
     1
 42
1.0
176
     1
 92
        8
176
     1
 66
     7
176
     1
 43
1.0
176
     1
 76
     1
176
     1
 77
     6
176
     1
 78
     2
176
     1
 67
     7
176
     1
 79
     5
176
     1
170
     0
176
     1
171
     0
176
     1
290
     0
176
     1
 93
        1
176
     1
 44
0.0
176
     1
173
     0
176
     1
  0
VISUALSTYLE
  5
33
102
{ACAD_REACTORS
330
2A
102
}
330
2A
100
AcDbVisualStyle
  2
Realistic
 70
     8
177
     2
291
     0
 71
     2
176
     1
 72
     2
176
     1
 73
     0
176
     1
 90
        0
176
     1
 40
-0.6
176
     1
 41
-30.0
176
     1
 62
     5
 63
     7
421
 16777215
176
     1
 74
     1
176
     1
 91
        0
176
     1
 64
     7
176
     1
 65
   257
176
     1
 75
     1
176
     1
175
     1
176
     1
 42
1.0
176
     1
 92
        8
176
     1
 66
     8
424
  7895160
176
     1
 43
1.0
176
     1
 76
     1
176
     1
 77
     6
176
     1
 78
     2
176
     1
 67
     7
176
     1
 79
     5
176
     1
170
     0
176
     1
171
     0
176
     1
290
     0
176
     1
 93
       13
176
     1
 44
0.0
176
     1
173
     0
176
     1
  0
VISUALSTYLE
  5
37
102
{ACAD_REACTORS
330
2A
102
}
330
2A
100
AcDbVisualStyle
  2
Thicken
 70
    13
177
     2
291
     1
 71
     2
176
     1
 72
     2
176
     1
 73
     0
176
     1
 90
        0
176
     1
 40
-0.6
176
     1
 41
-30.0
176
     1
 62
     5
 63
     7
421
 16777215
176
     1
 74
     1
176
     1
 91
        4
176
     1
 64
     7
176
     1
 65
   257
176
     1
 75
     1
176
     1
175
     1
176
     1
 42
1.0
176
     1
 92
       12
176
     1
 66
     7
176
     1
 43
1.0
176
     1
 76
     1
176
     1
 77
     6
176
     1
 78
     2
176
     1
 67
     7
176
     1
 79
     5
176
     1
170
     0
176
     1
171
     0
176
     1
290
     0
176
     1
 93
        1
176
     1
 44
0.0
176
     1
173
     0
176
     1
  0
ENDSEC
  0
EOF
