  0
SECTION
  2
HEADER
  9
$ACADVER
  1
AC1024
  9
$ACADMAINTVER
 70
   226
  9
$DWGCODEPAGE
  3
ANSI_932
  9
$INSBASE
 10
0.0
 20
0.0
 30
0.0
  9
$EXTMIN
 10
1.000000000000000E+20
 20
1.000000000000000E+20
 30
1.000000000000000E+20
  9
$EXTMAX
 10
-1.000000000000000E+20
 20
-1.000000000000000E+20
 30
-1.000000000000000E+20
  9
$LIMMIN
 10
0.0
 20
0.0
  9
$LIMMAX
 10
12.0
 20
9.0
  9
$ORTHOMODE
 70
     0
  9
$REGENMODE
 70
     1
  9
$FILLMODE
 70
     1
  9
$QTEXTMODE
 70
     0
  9
$MIRRTEXT
 70
     0
  9
$LTSCALE
 40
1.0
  9
$ATTMODE
 70
     1
  9
$TEXTSIZE
 40
0.2
  9
$TRACEWID
 40
0.05
  9
$TEXTSTYLE
  7
Standard
  9
$CLAYER
  8
0
  9
$CELTYPE
  6
ByLayer
  9
$CECOLOR
 62
   256
  9
$CELTSCALE
 40
1.0
  9
$DISPSILH
 70
     0
  9
$DIMSCALE
 40
1.0
  9
$DIMASZ
 40
0.18
  9
$DIMEXO
 40
0.0625
  9
$DIMDLI
 40
0.38
  9
$DIMRND
 40
0.0
  9
$DIMDLE
 40
0.0
  9
$DIMEXE
 40
0.18
  9
$DIMTP
 40
0.0
  9
$DIMTM
 40
0.0
  9
$DIMTXT
 40
0.18
  9
$DIMCEN
 40
0.09
  9
$DIMTSZ
 40
0.0
  9
$DIMTOL
 70
     0
  9
$DIMLIM
 70
     0
  9
$DIMTIH
 70
     1
  9
$DIMTOH
 70
     1
  9
$DIMSE1
 70
     0
  9
$DIMSE2
 70
     0
  9
$DIMTAD
 70
     0
  9
$DIMZIN
 70
     0
  9
$DIMBLK
  1

  9
$DIMASO
 70
     1
  9
$DIMSHO
 70
     1
  9
$DIMPOST
  1

  9
$DIMAPOST
  1

  9
$DIMALT
 70
     0
  9
$DIMALTD
 70
     2
  9
$DIMALTF
 40
25.4
  9
$DIMLFAC
 40
1.0
  9
$DIMTOFL
 70
     0
  9
$DIMTVP
 40
0.0
  9
$DIMTIX
 70
     0
  9
$DIMSOXD
 70
     0
  9
$DIMSAH
 70
     0
  9
$DIMBLK1
  1

  9
$DIMBLK2
  1

  9
$DIMSTYLE
  2
Standard
  9
$DIMCLRD
 70
     0
  9
$DIMCLRE
 70
     0
  9
$DIMCLRT
 70
     0
  9
$DIMTFAC
 40
1.0
  9
$DIMGAP
 40
0.09
  9
$DIMJUST
 70
     0
  9
$DIMSD1
 70
     0
  9
$DIMSD2
 70
     0
  9
$DIMTOLJ
 70
     1
  9
$DIMTZIN
 70
     0
  9
$DIMALTZ
 70
     0
  9
$DIMALTTZ
 70
     0
  9
$DIMUPT
 70
     0
  9
$DIMDEC
 70
     4
  9
$DIMTDEC
 70
     4
  9
$DIMALTU
 70
     2
  9
$DIMALTTD
 70
     2
  9
$DIMTXSTY
  7
Standard
  9
$DIMAUNIT
 70
     0
  9
$DIMADEC
 70
     0
  9
$DIMALTRND
 40
0.0
  9
$DIMAZIN
 70
     0
  9
$DIMDSEP
 70
    46
  9
$DIMATFIT
 70
     3
  9
$DIMFRAC
 70
     0
  9
$DIMLDRBLK
  1

  9
$DIMLUNIT
 70
     2
  9
$DIMLWD
 70
    -2
  9
$DIMLWE
 70
    -2
  9
$DIMTMOVE
 70
     0
  9
$DIMFXL
 40
1.0
  9
$DIMFXLON
 70
     0
  9
$DIMJOGANG
 40
0.7853981633974483
  9
$DIMTFILL
 70
     0
  9
$DIMTFILLCLR
 70
     0
  9
$DIMARCSYM
 70
     0
  9
$DIMLTYPE
  6

  9
$DIMLTEX1
  6

  9
$DIMLTEX2
  6

  9
$DIMTXTDIRECTION
 70
     0
  9
$LUNITS
 70
     2
  9
$LUPREC
 70
     4
  9
$SKETCHINC
 40
0.1
  9
$FILLETRAD
 40
0.0
  9
$AUNITS
 70
     0
  9
$AUPREC
 70
     0
  9
$MENU
  1
.
  9
$ELEVATION
 40
0.0
  9
$PELEVATION
 40
0.0
  9
$THICKNESS
 40
0.0
  9
$LIMCHECK
 70
     0
  9
$CHAMFERA
 40
0.0
  9
$CHAMFERB
 40
0.0
  9
$CHAMFERC
 40
0.0
  9
$CHAMFERD
 40
0.0
  9
$SKPOLY
 70
     0
  9
$TDCREATE
 40
2459569.488993056
  9
$TDUCREATE
 40
2459569.113993055
  9
$TDUPDATE
 40
2459569.488993056
  9
$TDUUPDATE
 40
2459569.113993055
  9
$TDINDWG
 40
0.0000000000
  9
$TDUSRTIMER
 40
0.0000000000
  9
$USRTIMER
 70
     1
  9
$ANGBASE
 50
0.0
  9
$ANGDIR
 70
     0
  9
$PDMODE
 70
     0
  9
$PDSIZE
 40
0.0
  9
$PLINEWID
 40
0.0
  9
$SPLFRAME
 70
     0
  9
$SPLINETYPE
 70
     6
  9
$SPLINESEGS
 70
     8
  9
$HANDSEED
  5
116
  9
$SURFTAB1
 70
     6
  9
$SURFTAB2
 70
     6
  9
$SURFTYPE
 70
     6
  9
$SURFU
 70
     6
  9
$SURFV
 70
     6
  9
$UCSBASE
  2

  9
$UCSNAME
  2

  9
$UCSORG
 10
0.0
 20
0.0
 30
0.0
  9
$UCSXDIR
 10
1.0
 20
0.0
 30
0.0
  9
$UCSYDIR
 10
0.0
 20
1.0
 30
0.0
  9
$UCSORTHOREF
  2

  9
$UCSORTHOVIEW
 70
     0
  9
$UCSORGTOP
 10
0.0
 20
0.0
 30
0.0
  9
$UCSORGBOTTOM
 10
0.0
 20
0.0
 30
0.0
  9
$UCSORGLEFT
 10
0.0
 20
0.0
 30
0.0
  9
$UCSORGRIGHT
 10
0.0
 20
0.0
 30
0.0
  9
$UCSORGFRONT
 10
0.0
 20
0.0
 30
0.0
  9
$UCSORGBACK
 10
0.0
 20
0.0
 30
0.0
  9
$PUCSBASE
  2

  9
$PUCSNAME
  2

  9
$PUCSORG
 10
0.0
 20
0.0
 30
0.0
  9
$PUCSXDIR
 10
1.0
 20
0.0
 30
0.0
  9
$PUCSYDIR
 10
0.0
 20
1.0
 30
0.0
  9
$PUCSORTHOREF
  2

  9
$PUCSORTHOVIEW
 70
     0
  9
$PUCSORGTOP
 10
0.0
 20
0.0
 30
0.0
  9
$PUCSORGBOTTOM
 10
0.0
 20
0.0
 30
0.0
  9
$PUCSORGLEFT
 10
0.0
 20
0.0
 30
0.0
  9
$PUCSORGRIGHT
 10
0.0
 20
0.0
 30
0.0
  9
$PUCSORGFRONT
 10
0.0
 20
0.0
 30
0.0
  9
$PUCSORGBACK
 10
0.0
 20
0.0
 30
0.0
  9
$USERI1
 70
     0
  9
$USERI2
 70
     0
  9
$USERI3
 70
     0
  9
$USERI4
 70
     0
  9
$USERI5
 70
     0
  9
$USERR1
 40
0.0
  9
$USERR2
 40
0.0
  9
$USERR3
 40
0.0
  9
$USERR4
 40
0.0
  9
$USERR5
 40
0.0
  9
$WORLDVIEW
 70
     1
  9
$SHADEDGE
 70
     3
  9
$SHADEDIF
 70
    70
  9
$TILEMODE
 70
     1
  9
$MAXACTVP
 70
    64
  9
$PINSBASE
 10
0.0
 20
0.0
 30
0.0
  9
$PLIMCHECK
 70
     0
  9
$PEXTMIN
 10
1.000000000000000E+20
 20
1.000000000000000E+20
 30
1.000000000000000E+20
  9
$PEXTMAX
 10
-1.000000000000000E+20
 20
-1.000000000000000E+20
 30
-1.000000000000000E+20
  9
$PLIMMIN
 10
0.0
 20
0.0
  9
$PLIMMAX
 10
12.0
 20
9.0
  9
$UNITMODE
 70
     0
  9
$VISRETAIN
 70
     1
  9
$PLINEGEN
 70
     0
  9
$PSLTSCALE
 70
     1
  9
$TREEDEPTH
 70
  3020
  9
$CMLSTYLE
  2
Standard
  9
$CMLJUST
 70
     0
  9
$CMLSCALE
 40
1.0
  9
$PROXYGRAPHICS
 70
     1
  9
$MEASUREMENT
 70
     0
  9
$CELWEIGHT
370
    -1
  9
$ENDCAPS
280
     0
  9
$JOINSTYLE
280
     0
  9
$LWDISPLAY
290
     1
  9
$INSUNITS
 70
     4
  9
$HYPERLINKBASE
  1

  9
$STYLESHEET
  1

  9
$XEDIT
290
     1
  9
$CEPSNTYPE
380
     0
  9
$PSTYLEMODE
290
     1
  9
$FINGERPRINTGUID
  2
{49C9FB41-1DAC-2F4A-A892-9DDF16735CD7}
  9
$VERSIONGUID
  2
{9ED18B2C-226C-5443-ACD3-B711C61B13CD}
  9
$EXTNAMES
290
     1
  9
$PSVPSCALE
 40
0.0
  9
$OLESTARTUP
290
     0
  9
$SORTENTS
280
   127
  9
$INDEXCTL
280
     0
  9
$HIDETEXT
280
     1
  9
$XCLIPFRAME
280
     2
  9
$HALOGAP
280
     0
  9
$OBSCOLOR
 70
   257
  9
$OBSLTYPE
280
     0
  9
$INTERSECTIONDISPLAY
280
     0
  9
$INTERSECTIONCOLOR
 70
   257
  9
$DIMASSOC
280
     2
  9
$PROJECTNAME
  1

  9
$CAMERADISPLAY
290
     0
  9
$LENSLENGTH
 40
50.0
  9
$CAMERAHEIGHT
 40
0.0
  9
$STEPSPERSEC
 40
2.0
  9
$STEPSIZE
 40
6.0
  9
$3DDWFPREC
 40
2.0
  9
$PSOLWIDTH
 40
0.25
  9
$PSOLHEIGHT
 40
4.0
  9
$LOFTANG1
 40
1.570796326794896
  9
$LOFTANG2
 40
1.570796326794896
  9
$LOFTMAG1
 40
0.0
  9
$LOFTMAG2
 40
0.0
  9
$LOFTPARAM
 70
     7
  9
$LOFTNORMALS
280
     1
  9
$LATITUDE
 40
37.795
  9
$LONGITUDE
 40
-122.394
  9
$NORTHDIRECTION
 40
0.0
  9
$TIMEZONE
 70
 -8000
  9
$LIGHTGLYPHDISPLAY
280
     1
  9
$TILEMODELIGHTSYNCH
280
     1
  9
$CMATERIAL
347
11
  9
$SOLIDHIST
280
     0
  9
$SHOWHIST
280
     1
  9
$DWFFRAME
280
     2
  9
$DGNFRAME
280
     0
  9
$REALWORLDSCALE
290
     1
  9
$INTERFERECOLOR
 62
     1
  9
$INTERFEREOBJVS
345
33
  9
$INTERFEREVPVS
346
30
  9
$CSHADOW
280
     0
  9
$SHADOWPLANELOCATION
 40
0.0
  0
ENDSEC
  0
SECTION
  2
CLASSES
  0
CLASS
  1
ACDBDICTIONARYWDFLT
  2
AcDbDictionaryWithDefault
  3
ObjectDBX Classes
 90
        0
 91
        1
280
     0
281
     0
  0
CLASS
  1
MATERIAL
  2
AcDbMaterial
  3
ObjectDBX Classes
 90
     1153
 91
        3
280
     0
281
     0
  0
CLASS
  1
VISUALSTYLE
  2
AcDbVisualStyle
  3
ObjectDBX Classes
 90
     4095
 91
       24
280
     0
281
     0
  0
CLASS
  1
SCALE
  2
AcDbScale
  3
ObjectDBX Classes
 90
     1153
 91
       17
280
     0
281
     0
  0
CLASS
  1
TABLESTYLE
  2
AcDbTableStyle
  3
ObjectDBX Classes
 90
     4095
 91
        1
280
     0
281
     0
  0
CLASS
  1
MLEADERSTYLE
  2
AcDbMLeaderStyle
  3
ACDB_MLEADERSTYLE_CLASS
 90
     4095
 91
        1
280
     0
281
     0
  0
CLASS
  1
ACDBSECTIONVIEWSTYLE
  2
AcDbSectionViewStyle
  3
ObjectDBX Classes
 90
     1025
 91
        1
280
     0
281
     0
  0
CLASS
  1
ACDBDETAILVIEWSTYLE
  2
AcDbDetailViewStyle
  3
ObjectDBX Classes
 90
     1025
 91
        1
280
     0
281
     0
  0
CLASS
  1
DICTIONARYVAR
  2
AcDbDictionaryVar
  3
ObjectDBX Classes
 90
        0
 91
        5
280
     0
281
     0
  0
CLASS
  1
CELLSTYLEMAP
  2
AcDbCellStyleMap
  3
ObjectDBX Classes
 90
     1152
 91
        1
280
     0
281
     0
  0
ENDSEC
  0
SECTION
  2
TABLES
  0
TABLE
  2
VPORT
  5
8
330
0
100
AcDbSymbolTable
 70
     1
  0
VPORT
  5
57
330
8
100
AcDbSymbolTableRecord
100
AcDbViewportTableRecord
  2
*Active
 70
     0
 10
0.0
 20
0.0
 11
1.0
 21
1.0
 12
0.0
 22
0.0
 13
0.0
 23
0.0
 14
1.0
 24
1.0
 15
0.0
 25
0.0
 16
0.0
 26
0.0
 36
1.0
 17
104.9999999737534
 27
-148.4999999628701
 37
0.0
 40
302.939999924255
 41
0.7070707070707534
 42
50.0
 43
0.0
 44
0.0
 50
0.0
 51
0.0
 71
     0
 72
   100
 73
     1
 74
     0
 75
     1
 76
     0
 77
     0
 78
     0
281
     0
 65
     1
110
0.0
120
0.0
130
0.0
111
1.0
121
0.0
131
0.0
112
0.0
122
1.0
132
0.0
 79
     0
146
0.0
 60
     3
 61
     5
292
     1
282
     1
141
0.0
142
0.0
 63
   250
421
  3355443
  0
ENDTAB
  0
TABLE
  2
LTYPE
  5
5
330
0
100
AcDbSymbolTable
 70
     3
  0
LTYPE
  5
5B
330
5
100
AcDbSymbolTableRecord
100
AcDbLinetypeTableRecord
  2
ByBlock
 70
     0
  3

 72
    65
 73
     0
 40
0.0
  0
LTYPE
  5
5C
330
5
100
AcDbSymbolTableRecord
100
AcDbLinetypeTableRecord
  2
ByLayer
 70
     0
  3

 72
    65
 73
     0
 40
0.0
  0
LTYPE
  5
5D
330
5
100
AcDbSymbolTableRecord
100
AcDbLinetypeTableRecord
  2
Continuous
 70
     0
  3
Solid line
 72
    65
 73
     0
 40
0.0
  0
LTYPE
  5
D4
330
5
100
AcDbSymbolTableRecord
100
AcDbLinetypeTableRecord
  2
AI-Linetype-0
 70
     0
  3
Adobe Illustrator Linetype No. 0
 72
    65
 73
     2
 40
1.411111110758333
 49
0.7055555553791667
 74
     0
 49
-0.7055555553791667
 74
     0
  0
LTYPE
  5
D6
330
5
100
AcDbSymbolTableRecord
100
AcDbLinetypeTableRecord
  2
AI-Linetype-1
 70
     0
  3
Adobe Illustrator Linetype No. 1
 72
    65
 73
     2
 40
1.411111110758333
 49
0.7055555553791667
 74
     0
 49
-0.7055555553791667
 74
     0
  0
ENDTAB
  0
TABLE
  2
LAYER
  5
2
330
0
100
AcDbSymbolTable
 70
     2
  0
LAYER
  5
54
330
2
100
AcDbSymbolTableRecord
100
AcDbLayerTableRecord
  2
0
 70
     0
 62
     7
  6
Continuous
370
    -3
390
F
347
21
  0
LAYER
  5
78
330
2
100
AcDbSymbolTableRecord
100
AcDbLayerTableRecord
  2
レイヤー 1
 70
     0
 62
     7
  6
Continuous
370
     0
390
F
347
21
  0
ENDTAB
  0
TABLE
  2
STYLE
  5
3
330
0
100
AcDbSymbolTable
 70
     2
  0
STYLE
  5
55
330
3
100
AcDbSymbolTableRecord
100
AcDbTextStyleTableRecord
  2
Standard
 70
     0
 40
0.0
 41
1.0
 50
0.0
 71
     0
 42
0.2
  3
txt
  4

  0
STYLE
  5
5A
330
3
100
AcDbSymbolTableRecord
100
AcDbTextStyleTableRecord
  2
Annotative
 70
     0
 40
0.0
 41
1.0
 50
0.0
 71
     0
 42
0.2
  3
txt
  4

1001
AcadAnnotative
1000
AnnotativeData
1002
{
1070
     1
1070
     1
1002
}
  0
ENDTAB
  0
TABLE
  2
VIEW
  5
6
330
0
100
AcDbSymbolTable
 70
     0
  0
ENDTAB
  0
TABLE
  2
UCS
  5
7
330
0
100
AcDbSymbolTable
 70
     0
  0
ENDTAB
  0
TABLE
  2
APPID
  5
9
330
0
100
AcDbSymbolTable
 70
     2
  0
APPID
  5
56
330
9
100
AcDbSymbolTableRecord
100
AcDbRegAppTableRecord
  2
ACAD
 70
     0
  0
APPID
  5
5E
330
9
100
AcDbSymbolTableRecord
100
AcDbRegAppTableRecord
  2
AcadAnnotative
 70
     0
  0
ENDTAB
  0
TABLE
  2
DIMSTYLE
  5
A
330
0
100
AcDbSymbolTable
 70
     2
100
AcDbDimStyleTable
 71
     0
  0
DIMSTYLE
105
58
330
A
100
AcDbSymbolTableRecord
100
AcDbDimStyleTableRecord
  2
Standard
 70
     0
340
55
  0
DIMSTYLE
105
59
330
A
100
AcDbSymbolTableRecord
100
AcDbDimStyleTableRecord
  2
Annotative
 70
     0
340
55
1001
AcadAnnotative
1000
AnnotativeData
1002
{
1070
     1
1070
     1
1002
}
  0
ENDTAB
  0
TABLE
  2
BLOCK_RECORD
  5
1
330
0
100
AcDbSymbolTable
 70
     9
  0
BLOCK_RECORD
  5
70
330
1
100
AcDbSymbolTableRecord
100
AcDbBlockTableRecord
  2
*Model_Space
340
73
 70
     0
280
     1
281
     0
  0
BLOCK_RECORD
  5
6C
330
1
100
AcDbSymbolTableRecord
100
AcDbBlockTableRecord
  2
*Paper_Space
340
6F
 70
     0
280
     1
281
     0
  0
BLOCK_RECORD
  5
74
330
1
100
AcDbSymbolTableRecord
100
AcDbBlockTableRecord
  2
*Paper_Space0
340
77
 70
     0
280
     1
281
     0
  0
BLOCK_RECORD
  5
79
330
1
100
AcDbSymbolTableRecord
100
AcDbBlockTableRecord
  2
Block_0
340
0
102
{BLKREFS
331
7A
102
}
 70
     0
280
     1
281
     0
  0
BLOCK_RECORD
  5
8D
330
1
100
AcDbSymbolTableRecord
100
AcDbBlockTableRecord
  2
Block_1
340
0
102
{BLKREFS
331
8E
102
}
 70
     0
280
     1
281
     0
  0
BLOCK_RECORD
  5
96
330
1
100
AcDbSymbolTableRecord
100
AcDbBlockTableRecord
  2
Block_2
340
0
102
{BLKREFS
331
97
102
}
 70
     0
280
     1
281
     0
  0
BLOCK_RECORD
  5
9A
330
1
100
AcDbSymbolTableRecord
100
AcDbBlockTableRecord
  2
Block_3
340
0
102
{BLKREFS
331
9B
102
}
 70
     0
280
     1
281
     0
  0
BLOCK_RECORD
  5
A6
330
1
100
AcDbSymbolTableRecord
100
AcDbBlockTableRecord
  2
Block_4
340
0
102
{BLKREFS
331
A7
102
}
 70
     0
280
     1
281
     0
  0
BLOCK_RECORD
  5
AA
330
1
100
AcDbSymbolTableRecord
100
AcDbBlockTableRecord
  2
Block_5
340
0
102
{BLKREFS
331
AB
102
}
 70
     0
280
     1
281
     0
  0
BLOCK_RECORD
  5
B9
330
1
100
AcDbSymbolTableRecord
100
AcDbBlockTableRecord
  2
Block_6
340
0
102
{BLKREFS
331
BA
102
}
 70
     0
280
     1
281
     0
  0
BLOCK_RECORD
  5
BD
330
1
100
AcDbSymbolTableRecord
100
AcDbBlockTableRecord
  2
Block_7
340
0
102
{BLKREFS
331
BE
102
}
 70
     0
280
     1
281
     0
  0
ENDTAB
  0
ENDSEC
  0
SECTION
  2
BLOCKS
  0
BLOCK
  5
71
330
70
100
AcDbEntity
  8
0
100
AcDbBlockBegin
  2
*Model_Space
 70
     0
 10
0.0
 20
0.0
 30
0.0
  3
*Model_Space
  1

  0
ENDBLK
  5
72
330
70
100
AcDbEntity
  8
0
100
AcDbBlockEnd
  0
BLOCK
  5
6D
330
6C
100
AcDbEntity
 67
     1
  8
0
100
AcDbBlockBegin
  2
*Paper_Space
 70
     0
 10
0.0
 20
0.0
 30
0.0
  3
*Paper_Space
  1

  0
ENDBLK
  5
6E
330
6C
100
AcDbEntity
 67
     1
  8
0
100
AcDbBlockEnd
  0
BLOCK
  5
75
330
74
100
AcDbEntity
 67
     1
  8
0
100
AcDbBlockBegin
  2
*Paper_Space0
 70
     0
 10
0.0
 20
0.0
 30
0.0
  3
*Paper_Space0
  1

  0
ENDBLK
  5
76
330
74
100
AcDbEntity
 67
     1
  8
0
100
AcDbBlockEnd
  0
BLOCK
  5
7B
330
79
100
AcDbEntity
  8
0
100
AcDbBlockBegin
  2
Block_0
 70
     0
 10
0.0
 20
0.0
 30
0.0
  3
Block_0
  1

  0
LINE
  5
7D
330
79
100
AcDbEntity
  8
レイヤー 1
 62
   250
420
  2299925
370
    25
100
AcDbLine
 10
110.7128776843712
 20
-150.195383452156
 30
0.0
 11
110.7128776843712
 21
-151.1954731741275
 31
0.0
  0
LINE
  5
7E
330
79
100
AcDbEntity
  8
レイヤー 1
 62
   250
420
  2299925
370
    25
100
AcDbLine
 10
100.7128271313157
 20
-151.1954731741275
 30
0.0
 11
110.7128776843712
 21
-151.1954731741275
 31
0.0
  0
LINE
  5
7F
330
79
100
AcDbEntity
  8
レイヤー 1
 62
   250
420
  2299925
370
    25
100
AcDbLine
 10
101.7129168532882
 20
-150.195383452156
 30
0.0
 11
110.7128776843712
 21
-150.195383452156
 31
0.0
  0
LINE
  5
80
330
79
100
AcDbEntity
  8
レイヤー 1
 62
   250
420
  2299925
370
    25
100
AcDbLine
 10
100.7128271313157
 20
-141.1954226210723
 30
0.0
 11
101.7129168532882
 21
-141.1954226210723
 31
0.0
  0
LINE
  5
81
330
79
100
AcDbEntity
  8
レイヤー 1
 62
   250
420
  2299925
370
    25
100
AcDbLine
 10
100.7128271313157
 20
-141.1954226210723
 30
0.0
 11
100.7128271313157
 21
-151.1954731741275
 31
0.0
  0
LINE
  5
82
330
79
100
AcDbEntity
  8
レイヤー 1
 62
   250
420
  2299925
370
    25
100
AcDbLine
 10
101.7129168532882
 20
-141.1954226210723
 30
0.0
 11
101.7129168532882
 21
-150.195383452156
 31
0.0
  0
CIRCLE
  5
83
330
79
100
AcDbEntity
  8
レイヤー 1
 62
   250
420
  2299925
370
     9
100
AcDbCircle
 10
114.712988706773
 20
-150.1953834521557
 30
0.0
 40
0.0999066653798969
  0
SPLINE
  5
84
330
79
100
AcDbEntity
  8
レイヤー 1
 62
   250
420
  2299925
370
     9
100
AcDbSpline
210
0.0
220
0.0
230
1.0
 70
     9
 71
     3
 72
    17
 73
    13
 74
     0
 42
0.0000000001
 43
0.0000000001
 40
0.0
 40
0.0
 40
0.0
 40
0.0
 40
1.0
 40
1.0
 40
1.0
 40
2.0
 40
2.0
 40
2.0
 40
3.0
 40
3.0
 40
3.0
 40
4.0
 40
4.0
 40
4.0
 40
4.0
 10
114.8128953708908
 20
-151.1954731741275
 30
0.0
 10
114.8128953708908
 20
-151.1400165074748
 30
0.0
 10
114.768127872033
 20
-151.0952490074863
 30
0.0
 10
114.712988706773
 20
-151.0952490074863
 30
0.0
 10
114.65788481929
 20
-151.0952490074863
 30
0.0
 10
114.6130820426552
 20
-151.1400165074748
 30
0.0
 10
114.6130820426552
 20
-151.1954731741275
 30
0.0
 10
114.6130820426552
 20
-151.2506123407806
 30
0.0
 10
114.65788481929
 20
-151.2953798407698
 30
0.0
 10
114.712988706773
 20
-151.2953798407698
 30
0.0
 10
114.768127872033
 20
-151.2953798407698
 30
0.0
 10
114.8128953708908
 20
-151.2506123407806
 30
0.0
 10
114.8128953708908
 20
-151.1954731741275
 30
0.0
  0
CIRCLE
  5
85
330
79
100
AcDbEntity
  8
レイヤー 1
 62
   250
420
  2299925
370
     9
100
AcDbCircle
 10
110.7128776843715
 20
-155.1952323397944
 30
0.0
 40
0.0999066666414772
  0
SPLINE
  5
86
330
79
100
AcDbEntity
  8
レイヤー 1
 62
   250
420
  2299925
370
     9
100
AcDbSpline
210
0.0
220
0.0
230
1.0
 70
     9
 71
     3
 72
    17
 73
    13
 74
     0
 42
0.0000000001
 43
0.0000000001
 40
0.0
 40
0.0
 40
0.0
 40
0.0
 40
1.0
 40
1.0
 40
1.0
 40
2.0
 40
2.0
 40
2.0
 40
3.0
 40
3.0
 40
3.0
 40
4.0
 40
4.0
 40
4.0
 40
4.0
 10
96.81297463229114
 20
-141.1954226210723
 30
0.0
 10
96.81297463229114
 20
-141.1399306766418
 30
0.0
 10
96.76817185452408
 20
-141.0951631766529
 30
0.0
 10
96.71306796564884
 20
-141.0951631766529
 30
0.0
 10
96.6579287989961
 20
-141.0951631766529
 30
0.0
 10
96.61316129900722
 20
-141.1399306766418
 30
0.0
 10
96.61316129900722
 20
-141.1954226210723
 30
0.0
 10
96.61316129900722
 20
-141.2505265099473
 30
0.0
 10
96.6579287989961
 20
-141.295329287714
 30
0.0
 10
96.71306796564884
 20
-141.295329287714
 30
0.0
 10
96.76817185452408
 20
-141.295329287714
 30
0.0
 10
96.81297463229114
 20
-141.2505265099473
 30
0.0
 10
96.81297463229114
 20
-141.1954226210723
 30
0.0
  0
SPLINE
  5
87
330
79
100
AcDbEntity
  8
レイヤー 1
 62
   250
420
  2299925
370
     9
100
AcDbSpline
210
0.0
220
0.0
230
1.0
 70
     9
 71
     3
 72
    17
 73
    13
 74
     0
 42
0.0000000001
 43
0.0000000001
 40
0.0
 40
0.0
 40
0.0
 40
0.0
 40
1.0
 40
1.0
 40
1.0
 40
2.0
 40
2.0
 40
2.0
 40
3.0
 40
3.0
 40
3.0
 40
4.0
 40
4.0
 40
4.0
 40
4.0
 10
96.81297463229114
 20
-151.1954731741275
 30
0.0
 10
96.81297463229114
 20
-151.1400165074748
 30
0.0
 10
96.76817185452408
 20
-151.0952490074863
 30
0.0
 10
96.71306796564884
 20
-151.0952490074863
 30
0.0
 10
96.6579287989961
 20
-151.0952490074863
 30
0.0
 10
96.61316129900722
 20
-151.1400165074748
 30
0.0
 10
96.61316129900722
 20
-151.1954731741275
 30
0.0
 10
96.61316129900722
 20
-151.2506123407806
 30
0.0
 10
96.6579287989961
 20
-151.2953798407698
 30
0.0
 10
96.71306796564884
 20
-151.2953798407698
 30
0.0
 10
96.76817185452408
 20
-151.2953798407698
 30
0.0
 10
96.81297463229114
 20
-151.2506123407806
 30
0.0
 10
96.81297463229114
 20
-151.1954731741275
 30
0.0
  0
CIRCLE
  5
88
330
79
100
AcDbEntity
  8
レイヤー 1
 62
   250
420
  2299925
370
     9
100
AcDbCircle
 10
100.7128271313158
 20
-155.1952323397944
 30
0.0
 40
0.0999066666416778
  0
LINE
  5
89
330
79
100
AcDbEntity
  8
レイヤー 1
 62
   250
420
  2299925
370
     9
100
AcDbLine
 10
114.712988706773
 20
-150.195383452156
 30
0.0
 11
114.712988706773
 21
-146.4250709530983
 31
0.0
  0
LINE
  5
8A
330
79
100
AcDbEntity
  8
レイヤー 1
 62
   250
420
  2299925
370
     9
100
AcDbLine
 10
114.712988706773
 20
-150.195383452156
 30
0.0
 11
114.712988706773
 21
-152.1952453961001
 31
0.0
  0
LINE
  5
8B
330
79
100
AcDbEntity
  8
レイヤー 1
 62
   250
420
  2299925
370
     9
100
AcDbLine
 10
113.2529482392915
 20
-150.195383452156
 30
0.0
 11
115.7131136812577
 21
-150.195383452156
 31
0.0
  0
LINE
  5
8C
330
79
100
AcDbEntity
  8
レイヤー 1
 62
   250
420
  2299925
370
     9
100
AcDbLine
 10
113.2529482392915
 20
-151.1954731741275
 30
0.0
 11
115.7131136812577
 21
-151.1954731741275
 31
0.0
  0
INSERT
  5
8E
330
79
100
AcDbEntity
  8
レイヤー 1
100
AcDbBlockReference
  2
Block_1
 10
0.0
 20
0.0
 30
0.0
  0
LINE
  5
93
330
79
100
AcDbEntity
  8
レイヤー 1
 62
   250
420
  2299925
370
     9
100
AcDbLine
 10
100.7128271313157
 20
-155.1952323397944
 30
0.0
 11
110.7128776843712
 21
-155.1952323397944
 31
0.0
  0
LINE
  5
94
330
79
100
AcDbEntity
  8
レイヤー 1
 62
   250
420
  2299925
370
     9
100
AcDbLine
 10
100.7128271313157
 20
-153.7352262290482
 30
0.0
 11
100.7128271313157
 21
-156.1953573395447
 31
0.0
  0
LINE
  5
95
330
79
100
AcDbEntity
  8
レイヤー 1
 62
   250
420
  2299925
370
     9
100
AcDbLine
 10
110.7128776843712
 20
-153.7352262290482
 30
0.0
 11
110.7128776843712
 21
-156.1953573395447
 31
0.0
  0
INSERT
  5
97
330
79
100
AcDbEntity
  8
レイヤー 1
100
AcDbBlockReference
  2
Block_2
 10
0.0
 20
0.0
 30
0.0
  0
LINE
  5
A3
330
79
100
AcDbEntity
  8
レイヤー 1
 62
   250
420
  2299925
370
     9
100
AcDbLine
 10
96.71306796564884
 20
-141.1954226210723
 30
0.0
 11
96.71306796564884
 21
-151.1954731741275
 31
0.0
  0
LINE
  5
A4
330
79
100
AcDbEntity
  8
レイヤー 1
 62
   250
420
  2299925
370
     9
100
AcDbLine
 10
98.17307407639471
 20
-141.1954226210723
 30
0.0
 11
95.71294296589918
 21
-141.1954226210723
 31
0.0
  0
LINE
  5
A5
330
79
100
AcDbEntity
  8
レイヤー 1
 62
   250
420
  2299925
370
     9
100
AcDbLine
 10
98.17307407639471
 20
-151.1954731741275
 30
0.0
 11
95.71294296589918
 21
-151.1954731741275
 31
0.0
  0
INSERT
  5
A7
330
79
100
AcDbEntity
  8
レイヤー 1
100
AcDbBlockReference
  2
Block_4
 10
0.0
 20
0.0
 30
0.0
  0
ENDBLK
  5
7C
330
79
100
AcDbEntity
  8
0
100
AcDbBlockEnd
  0
BLOCK
  5
8F
330
8D
100
AcDbEntity
  8
0
100
AcDbBlockBegin
  2
Block_1
 70
     0
 10
0.0
 20
0.0
 30
0.0
  3
Block_1
  1

  0
SPLINE
  5
91
330
8D
100
AcDbEntity
  8
レイヤー 1
100
AcDbSpline
210
0.0
220
0.0
230
1.0
 70
    11
 71
     3
 72
    26
 73
    22
 74
     0
 42
0.0000000001
 43
0.0000000001
 40
0.0
 40
0.0
 40
0.0
 40
0.0
 40
1.0
 40
1.0
 40
1.0
 40
2.0
 40
2.0
 40
2.0
 40
3.0
 40
3.0
 40
3.0
 40
4.0
 40
4.0
 40
4.0
 40
5.0
 40
5.0
 40
5.0
 40
6.0
 40
6.0
 40
6.0
 40
7.0
 40
7.0
 40
7.0
 40
7.0
 10
114.1170654011582
 20
-147.3146945161227
 30
0.0
 10
114.1170654011582
 20
-147.3146945161227
 30
0.0
 10
113.0129122981356
 20
-147.3146945161227
 30
0.0
 10
113.0129122981356
 20
-147.3146945161227
 30
0.0
 10
113.0129122981356
 20
-147.3146945161227
 30
0.0
 10
113.0129122981356
 20
-147.6001206770756
 30
0.0
 10
113.0129122981356
 20
-147.6001206770756
 30
0.0
 10
113.0129122981356
 20
-147.6001206770756
 30
0.0
 10
112.8647731922699
 20
-147.6001206770756
 30
0.0
 10
112.8647731922699
 20
-147.6001206770756
 30
0.0
 10
112.8499592816833
 20
-147.3127997136058
 30
0.0
 10
112.687006265231
 20
-147.2724920964284
 30
0.0
 10
112.5726290951207
 20
-147.2468261350632
 30
0.0
 10
112.5726290951207
 20
-147.2468261350632
 30
0.0
 10
112.5726290951207
 20
-147.1205633855289
 30
0.0
 10
112.5726290951207
 20
-147.1205633855289
 30
0.0
 10
112.5726290951207
 20
-147.1205633855289
 30
0.0
 10
114.1170654011582
 20
-147.1205633855289
 30
0.0
 10
114.1170654011582
 20
-147.1205633855289
 30
0.0
 10
114.1170654011582
 20
-147.1205633855289
 30
0.0
 10
114.1170654011582
 20
-147.3146945161227
 30
0.0
 10
114.1170654011582
 20
-147.3146945161227
 30
0.0
  0
HATCH
  5
92
330
8D
100
AcDbEntity
  8
レイヤー 1
 62
   250
420
  2299925
440
 33554687
100
AcDbHatch
 10
0.0
 20
0.0
 30
0.0
210
0.0
220
0.0
230
1.0
  2
SOLID
 70
     1
 71
     1
 91
        1
 92
        1
 93
        1
 72
     4
 94
        3
 73
     0
 74
     0
 95
       26
 96
       22
 40
0.0
 40
0.0
 40
0.0
 40
0.0
 40
1.0
 40
1.0
 40
1.0
 40
2.0
 40
2.0
 40
2.0
 40
3.0
 40
3.0
 40
3.0
 40
4.0
 40
4.0
 40
4.0
 40
5.0
 40
5.0
 40
5.0
 40
6.0
 40
6.0
 40
6.0
 40
7.0
 40
7.0
 40
7.0
 40
7.0
 10
114.1170654011582
 20
-147.3146945161227
 10
114.1170654011582
 20
-147.3146945161227
 10
113.0129122981356
 20
-147.3146945161227
 10
113.0129122981356
 20
-147.3146945161227
 10
113.0129122981356
 20
-147.3146945161227
 10
113.0129122981356
 20
-147.6001206770756
 10
113.0129122981356
 20
-147.6001206770756
 10
113.0129122981356
 20
-147.6001206770756
 10
112.8647731922699
 20
-147.6001206770756
 10
112.8647731922699
 20
-147.6001206770756
 10
112.8499592816833
 20
-147.3127997136058
 10
112.687006265231
 20
-147.2724920964284
 10
112.5726290951207
 20
-147.2468261350632
 10
112.5726290951207
 20
-147.2468261350632
 10
112.5726290951207
 20
-147.1205633855289
 10
112.5726290951207
 20
-147.1205633855289
 10
112.5726290951207
 20
-147.1205633855289
 10
114.1170654011582
 20
-147.1205633855289
 10
114.1170654011582
 20
-147.1205633855289
 10
114.1170654011582
 20
-147.1205633855289
 10
114.1170654011582
 20
-147.3146945161227
 10
114.1170654011582
 20
-147.3146945161227
 97
        0
 97
        1
330
91
 75
     2
 76
     1
 98
        1
 10
0.0
 20
0.0
450
        0
451
        0
460
0.0
461
0.0
452
        0
462
0.0
453
        0
470

  0
ENDBLK
  5
90
330
8D
100
AcDbEntity
  8
0
100
AcDbBlockEnd
  0
BLOCK
  5
98
330
96
100
AcDbEntity
  8
0
100
AcDbBlockBegin
  2
Block_2
 70
     0
 10
0.0
 20
0.0
 30
0.0
  3
Block_2
  1

  0
INSERT
  5
9B
330
96
100
AcDbEntity
  8
レイヤー 1
100
AcDbBlockReference
  2
Block_3
 10
0.0
 20
0.0
 30
0.0
  0
ENDBLK
  5
99
330
96
100
AcDbEntity
  8
0
100
AcDbBlockEnd
  0
BLOCK
  5
9C
330
9A
100
AcDbEntity
  8
0
100
AcDbBlockBegin
  2
Block_3
 70
     0
 10
0.0
 20
0.0
 30
0.0
  3
Block_3
  1

  0
SPLINE
  5
9E
330
9A
100
AcDbEntity
  8
レイヤー 1
100
AcDbSpline
210
0.0
220
0.0
230
1.0
 70
    11
 71
     3
 72
    26
 73
    22
 74
     0
 42
0.0000000001
 43
0.0000000001
 40
0.0
 40
0.0
 40
0.0
 40
0.0
 40
1.0
 40
1.0
 40
1.0
 40
2.0
 40
2.0
 40
2.0
 40
3.0
 40
3.0
 40
3.0
 40
4.0
 40
4.0
 40
4.0
 40
5.0
 40
5.0
 40
5.0
 40
6.0
 40
6.0
 40
6.0
 40
7.0
 40
7.0
 40
7.0
 40
7.0
 10
104.9277899585771
 20
-154.5986599005864
 30
0.0
 10
104.9277899585771
 20
-154.5986599005864
 30
0.0
 10
104.9277899585771
 20
-153.4945067975638
 30
0.0
 10
104.9277899585771
 20
-153.4945067975638
 30
0.0
 10
104.9277899585771
 20
-153.4945067975638
 30
0.0
 10
104.6421915428499
 20
-153.4945067975638
 30
0.0
 10
104.6421915428499
 20
-153.4945067975638
 30
0.0
 10
104.6421915428499
 20
-153.4945067975638
 30
0.0
 10
104.6421915428499
 20
-153.3463676916981
 30
0.0
 10
104.6421915428499
 20
-153.3463676916981
 30
0.0
 10
104.9295125063197
 20
-153.3315537811115
 30
0.0
 10
104.9698201234971
 20
-153.1686007646592
 30
0.0
 10
104.9953138300879
 20
-153.0542235945489
 30
0.0
 10
104.9953138300879
 20
-153.0542235945489
 30
0.0
 10
105.1217488343966
 20
-153.0542235945489
 30
0.0
 10
105.1217488343966
 20
-153.0542235945489
 30
0.0
 10
105.1217488343966
 20
-153.0542235945489
 30
0.0
 10
105.1217488343966
 20
-154.5986599005864
 30
0.0
 10
105.1217488343966
 20
-154.5986599005864
 30
0.0
 10
105.1217488343966
 20
-154.5986599005864
 30
0.0
 10
104.9277899585771
 20
-154.5986599005864
 30
0.0
 10
104.9277899585771
 20
-154.5986599005864
 30
0.0
  0
HATCH
  5
9F
330
9A
100
AcDbEntity
  8
レイヤー 1
 62
   250
420
  2299925
440
 33554687
100
AcDbHatch
 10
0.0
 20
0.0
 30
0.0
210
0.0
220
0.0
230
1.0
  2
SOLID
 70
     1
 71
     1
 91
        1
 92
        1
 93
        1
 72
     4
 94
        3
 73
     0
 74
     0
 95
       26
 96
       22
 40
0.0
 40
0.0
 40
0.0
 40
0.0
 40
1.0
 40
1.0
 40
1.0
 40
2.0
 40
2.0
 40
2.0
 40
3.0
 40
3.0
 40
3.0
 40
4.0
 40
4.0
 40
4.0
 40
5.0
 40
5.0
 40
5.0
 40
6.0
 40
6.0
 40
6.0
 40
7.0
 40
7.0
 40
7.0
 40
7.0
 10
104.9277899585771
 20
-154.5986599005864
 10
104.9277899585771
 20
-154.5986599005864
 10
104.9277899585771
 20
-153.4945067975638
 10
104.9277899585771
 20
-153.4945067975638
 10
104.9277899585771
 20
-153.4945067975638
 10
104.6421915428499
 20
-153.4945067975638
 10
104.6421915428499
 20
-153.4945067975638
 10
104.6421915428499
 20
-153.4945067975638
 10
104.6421915428499
 20
-153.3463676916981
 10
104.6421915428499
 20
-153.3463676916981
 10
104.9295125063197
 20
-153.3315537811115
 10
104.9698201234971
 20
-153.1686007646592
 10
104.9953138300879
 20
-153.0542235945489
 10
104.9953138300879
 20
-153.0542235945489
 10
105.1217488343966
 20
-153.0542235945489
 10
105.1217488343966
 20
-153.0542235945489
 10
105.1217488343966
 20
-153.0542235945489
 10
105.1217488343966
 20
-154.5986599005864
 10
105.1217488343966
 20
-154.5986599005864
 10
105.1217488343966
 20
-154.5986599005864
 10
104.9277899585771
 20
-154.5986599005864
 10
104.9277899585771
 20
-154.5986599005864
 97
        0
 97
        1
330
9E
 75
     2
 76
     1
 98
        1
 10
0.0
 20
0.0
450
        0
451
        0
460
0.0
461
0.0
452
        0
462
0.0
453
        0
470

  0
SPLINE
  5
A0
330
9A
100
AcDbEntity
  8
レイヤー 1
100
AcDbSpline
210
0.0
220
0.0
230
1.0
 70
     9
 71
     3
 72
    17
 73
    13
 74
     0
 42
0.0000000001
 43
0.0000000001
 40
0.0
 40
0.0
 40
0.0
 40
0.0
 40
1.0
 40
1.0
 40
1.0
 40
2.0
 40
2.0
 40
2.0
 40
3.0
 40
3.0
 40
3.0
 40
4.0
 40
4.0
 40
4.0
 40
4.0
 10
105.9869845655171
 20
-153.1982285858324
 30
0.0
 10
105.7709770785919
 20
-153.1982285858324
 30
0.0
 10
105.7306694614145
 20
-153.4817599442684
 30
0.0
 10
105.7306694614145
 20
-153.8266140023419
 30
0.0
 10
105.7306694614145
 20
-154.1459743538246
 30
0.0
 10
105.7616753207818
 20
-154.454654909303
 30
0.0
 10
105.9869845655171
 20
-154.454654909303
 30
0.0
 10
106.2009249951511
 20
-154.454654909303
 30
0.0
 10
106.2432996696197
 20
-154.1735351177066
 30
0.0
 10
106.2432996696197
 20
-153.8266140023419
 30
0.0
 10
106.2432996696197
 20
-153.5069091413108
 30
0.0
 10
106.2102267529613
 20
-153.1982285858324
 30
0.0
 10
105.9869845655171
 20
-153.1982285858324
 30
0.0
  0
SPLINE
  5
A1
330
9A
100
AcDbEntity
  8
レイヤー 1
100
AcDbSpline
210
0.0
220
0.0
230
1.0
 70
     9
 71
     3
 72
    29
 73
    25
 74
     0
 42
0.0000000001
 43
0.0000000001
 40
0.0
 40
0.0
 40
0.0
 40
0.0
 40
1.0
 40
1.0
 40
1.0
 40
2.0
 40
2.0
 40
2.0
 40
3.0
 40
3.0
 40
3.0
 40
4.0
 40
4.0
 40
4.0
 40
5.0
 40
5.0
 40
5.0
 40
6.0
 40
6.0
 40
6.0
 40
7.0
 40
7.0
 40
7.0
 40
8.0
 40
8.0
 40
8.0
 40
8.0
 10
106.3311496044936
 20
-154.4208929735475
 30
0.0
 10
106.2377875168433
 20
-154.6303547790507
 30
0.0
 10
106.0875813536864
 20
-154.6493028042196
 30
0.0
 10
105.9869845655171
 20
-154.6493028042196
 30
0.0
 10
105.847802707913
 20
-154.6493028042196
 30
0.0
 10
105.7251573086381
 20
-154.6027940151687
 30
0.0
 10
105.6428195265407
 20
-154.4208929735475
 30
0.0
 10
105.5532470439242
 20
-154.2262450786309
 30
0.0
 10
105.536710585595
 20
-153.9892225092457
 30
0.0
 10
105.536710585595
 20
-153.8266140023419
 30
0.0
 10
105.536710585595
 20
-153.6826090110585
 30
0.0
 10
105.5515244961815
 20
-153.4307725310867
 30
0.0
 10
105.6428195265407
 20
-153.2319905215878
 30
0.0
 10
105.7361816141909
 20
-153.0290743975066
 30
0.0
 10
105.875363471795
 20
-153.0056477482069
 30
0.0
 10
105.9869845655171
 20
-153.0056477482069
 30
0.0
 10
106.1240993658301
 20
-153.0056477482069
 30
0.0
 10
106.2488118223961
 20
-153.0500894799666
 30
0.0
 10
106.3311496044936
 20
-153.2319905215878
 30
0.0
 10
106.4169324820763
 20
-153.4245713592133
 30
0.0
 10
106.4372585454393
 20
-153.6529811898853
 30
0.0
 10
106.4372585454393
 20
-153.8266140023419
 30
0.0
 10
106.4372585454393
 20
-153.9978352479588
 30
0.0
 10
106.4189995393675
 20
-154.2283121359221
 30
0.0
 10
106.3311496044936
 20
-154.4208929735475
 30
0.0
  0
HATCH
  5
A2
330
9A
100
AcDbEntity
  8
レイヤー 1
 62
   250
420
  2299925
440
 33554687
100
AcDbHatch
 10
0.0
 20
0.0
 30
0.0
210
0.0
220
0.0
230
1.0
  2
SOLID
 70
     1
 71
     1
 91
        2
 92
        1
 93
        1
 72
     4
 94
        3
 73
     0
 74
     0
 95
       17
 96
       13
 40
0.0
 40
0.0
 40
0.0
 40
0.0
 40
1.0
 40
1.0
 40
1.0
 40
2.0
 40
2.0
 40
2.0
 40
3.0
 40
3.0
 40
3.0
 40
4.0
 40
4.0
 40
4.0
 40
4.0
 10
105.9869845655171
 20
-153.1982285858324
 10
105.7709770785919
 20
-153.1982285858324
 10
105.7306694614145
 20
-153.4817599442684
 10
105.7306694614145
 20
-153.8266140023419
 10
105.7306694614145
 20
-154.1459743538246
 10
105.7616753207818
 20
-154.454654909303
 10
105.9869845655171
 20
-154.454654909303
 10
106.2009249951511
 20
-154.454654909303
 10
106.2432996696197
 20
-154.1735351177066
 10
106.2432996696197
 20
-153.8266140023419
 10
106.2432996696197
 20
-153.5069091413108
 10
106.2102267529613
 20
-153.1982285858324
 10
105.9869845655171
 20
-153.1982285858324
 97
        0
 97
        1
330
A0
 92
        1
 93
        1
 72
     4
 94
        3
 73
     0
 74
     0
 95
       29
 96
       25
 40
0.0
 40
0.0
 40
0.0
 40
0.0
 40
1.0
 40
1.0
 40
1.0
 40
2.0
 40
2.0
 40
2.0
 40
3.0
 40
3.0
 40
3.0
 40
4.0
 40
4.0
 40
4.0
 40
5.0
 40
5.0
 40
5.0
 40
6.0
 40
6.0
 40
6.0
 40
7.0
 40
7.0
 40
7.0
 40
8.0
 40
8.0
 40
8.0
 40
8.0
 10
106.3311496044936
 20
-154.4208929735475
 10
106.2377875168433
 20
-154.6303547790507
 10
106.0875813536864
 20
-154.6493028042196
 10
105.9869845655171
 20
-154.6493028042196
 10
105.847802707913
 20
-154.6493028042196
 10
105.7251573086381
 20
-154.6027940151687
 10
105.6428195265407
 20
-154.4208929735475
 10
105.5532470439242
 20
-154.2262450786309
 10
105.536710585595
 20
-153.9892225092457
 10
105.536710585595
 20
-153.8266140023419
 10
105.536710585595
 20
-153.6826090110585
 10
105.5515244961815
 20
-153.4307725310867
 10
105.6428195265407
 20
-153.2319905215878
 10
105.7361816141909
 20
-153.0290743975066
 10
105.875363471795
 20
-153.0056477482069
 10
105.9869845655171
 20
-153.0056477482069
 10
106.1240993658301
 20
-153.0056477482069
 10
106.2488118223961
 20
-153.0500894799666
 10
106.3311496044936
 20
-153.2319905215878
 10
106.4169324820763
 20
-153.4245713592133
 10
106.4372585454393
 20
-153.6529811898853
 10
106.4372585454393
 20
-153.8266140023419
 10
106.4372585454393
 20
-153.9978352479588
 10
106.4189995393675
 20
-154.2283121359221
 10
106.3311496044936
 20
-154.4208929735475
 97
        0
 97
        1
330
A1
 75
     2
 76
     1
 98
        1
 10
0.0
 20
0.0
450
        0
451
        0
460
0.0
461
0.0
452
        0
462
0.0
453
        0
470

  0
ENDBLK
  5
9D
330
9A
100
AcDbEntity
  8
0
100
AcDbBlockEnd
  0
BLOCK
  5
A8
330
A6
100
AcDbEntity
  8
0
100
AcDbBlockBegin
  2
Block_4
 70
     0
 10
0.0
 20
0.0
 30
0.0
  3
Block_4
  1

  0
INSERT
  5
AB
330
A6
100
AcDbEntity
  8
レイヤー 1
100
AcDbBlockReference
  2
Block_5
 10
0.0
 20
0.0
 30
0.0
  0
ENDBLK
  5
A9
330
A6
100
AcDbEntity
  8
0
100
AcDbBlockEnd
  0
BLOCK
  5
AC
330
AA
100
AcDbEntity
  8
0
100
AcDbBlockBegin
  2
Block_5
 70
     0
 10
0.0
 20
0.0
 30
0.0
  3
Block_5
  1

  0
SPLINE
  5
AE
330
AA
100
AcDbEntity
  8
レイヤー 1
100
AcDbSpline
210
0.0
220
0.0
230
1.0
 70
    11
 71
     3
 72
    26
 73
    22
 74
     0
 42
0.0000000001
 43
0.0000000001
 40
0.0
 40
0.0
 40
0.0
 40
0.0
 40
1.0
 40
1.0
 40
1.0
 40
2.0
 40
2.0
 40
2.0
 40
3.0
 40
3.0
 40
3.0
 40
4.0
 40
4.0
 40
4.0
 40
5.0
 40
5.0
 40
5.0
 40
6.0
 40
6.0
 40
6.0
 40
7.0
 40
7.0
 40
7.0
 40
7.0
 10
96.11695825505062
 20
-146.9812092731505
 30
0.0
 10
96.11695825505062
 20
-146.9812092731505
 30
0.0
 10
95.01280515202806
 20
-146.9812092731505
 30
0.0
 10
95.01280515202806
 20
-146.9812092731505
 30
0.0
 10
95.01280515202806
 20
-146.9812092731505
 30
0.0
 10
95.01280515202806
 20
-147.2668076888777
 30
0.0
 10
95.01280515202806
 20
-147.2668076888777
 30
0.0
 10
95.01280515202806
 20
-147.2668076888777
 30
0.0
 10
94.8646660461623
 20
-147.2668076888777
 30
0.0
 10
94.8646660461623
 20
-147.2668076888777
 30
0.0
 10
94.84985213557573
 20
-146.9794867254079
 30
0.0
 10
94.68689911912342
 20
-146.9391791082305
 30
0.0
 10
94.57252194901313
 20
-146.9136854016396
 30
0.0
 10
94.57252194901313
 20
-146.9136854016396
 30
0.0
 10
94.57252194901313
 20
-146.787250397331
 30
0.0
 10
94.57252194901313
 20
-146.787250397331
 30
0.0
 10
94.57252194901313
 20
-146.787250397331
 30
0.0
 10
96.11695825505062
 20
-146.787250397331
 30
0.0
 10
96.11695825505062
 20
-146.787250397331
 30
0.0
 10
96.11695825505062
 20
-146.787250397331
 30
0.0
 10
96.11695825505062
 20
-146.9812092731505
 30
0.0
 10
96.11695825505062
 20
-146.9812092731505
 30
0.0
  0
HATCH
  5
AF
330
AA
100
AcDbEntity
  8
レイヤー 1
 62
   250
420
  2299925
440
 33554687
100
AcDbHatch
 10
0.0
 20
0.0
 30
0.0
210
0.0
220
0.0
230
1.0
  2
SOLID
 70
     1
 71
     1
 91
        1
 92
        1
 93
        1
 72
     4
 94
        3
 73
     0
 74
     0
 95
       26
 96
       22
 40
0.0
 40
0.0
 40
0.0
 40
0.0
 40
1.0
 40
1.0
 40
1.0
 40
2.0
 40
2.0
 40
2.0
 40
3.0
 40
3.0
 40
3.0
 40
4.0
 40
4.0
 40
4.0
 40
5.0
 40
5.0
 40
5.0
 40
6.0
 40
6.0
 40
6.0
 40
7.0
 40
7.0
 40
7.0
 40
7.0
 10
96.11695825505062
 20
-146.9812092731505
 10
96.11695825505062
 20
-146.9812092731505
 10
95.01280515202806
 20
-146.9812092731505
 10
95.01280515202806
 20
-146.9812092731505
 10
95.01280515202806
 20
-146.9812092731505
 10
95.01280515202806
 20
-147.2668076888777
 10
95.01280515202806
 20
-147.2668076888777
 10
95.01280515202806
 20
-147.2668076888777
 10
94.8646660461623
 20
-147.2668076888777
 10
94.8646660461623
 20
-147.2668076888777
 10
94.84985213557573
 20
-146.9794867254079
 10
94.68689911912342
 20
-146.9391791082305
 10
94.57252194901313
 20
-146.9136854016396
 10
94.57252194901313
 20
-146.9136854016396
 10
94.57252194901313
 20
-146.787250397331
 10
94.57252194901313
 20
-146.787250397331
 10
94.57252194901313
 20
-146.787250397331
 10
96.11695825505062
 20
-146.787250397331
 10
96.11695825505062
 20
-146.787250397331
 10
96.11695825505062
 20
-146.787250397331
 10
96.11695825505062
 20
-146.9812092731505
 10
96.11695825505062
 20
-146.9812092731505
 97
        0
 97
        1
330
AE
 75
     2
 76
     1
 98
        1
 10
0.0
 20
0.0
450
        0
451
        0
460
0.0
461
0.0
452
        0
462
0.0
453
        0
470

  0
SPLINE
  5
B0
330
AA
100
AcDbEntity
  8
レイヤー 1
100
AcDbSpline
210
0.0
220
0.0
230
1.0
 70
     9
 71
     3
 72
    17
 73
    13
 74
     0
 42
0.0000000001
 43
0.0000000001
 40
0.0
 40
0.0
 40
0.0
 40
0.0
 40
1.0
 40
1.0
 40
1.0
 40
2.0
 40
2.0
 40
2.0
 40
3.0
 40
3.0
 40
3.0
 40
4.0
 40
4.0
 40
4.0
 40
4.0
 10
94.71652694029655
 20
-145.9218424114362
 30
0.0
 10
94.71652694029655
 20
-146.1378498983613
 30
0.0
 10
95.00005829873263
 20
-146.1781575155388
 30
0.0
 10
95.34491235680613
 20
-146.1781575155388
 30
0.0
 10
95.6642727082888
 20
-146.1781575155388
 30
0.0
 10
95.97295326376718
 20
-146.1471516561715
 30
0.0
 10
95.97295326376718
 20
-145.9218424114362
 30
0.0
 10
95.97295326376718
 20
-145.7079019818022
 30
0.0
 10
95.6918334721708
 20
-145.6655273073336
 30
0.0
 10
95.34491235680613
 20
-145.6655273073336
 30
0.0
 10
95.02520749577495
 20
-145.6655273073336
 30
0.0
 10
94.71652694029655
 20
-145.698600223992
 30
0.0
 10
94.71652694029655
 20
-145.9218424114362
 30
0.0
  0
SPLINE
  5
B1
330
AA
100
AcDbEntity
  8
レイヤー 1
100
AcDbSpline
210
0.0
220
0.0
230
1.0
 70
     9
 71
     3
 72
    29
 73
    25
 74
     0
 42
0.0000000001
 43
0.0000000001
 40
0.0
 40
0.0
 40
0.0
 40
0.0
 40
1.0
 40
1.0
 40
1.0
 40
2.0
 40
2.0
 40
2.0
 40
3.0
 40
3.0
 40
3.0
 40
4.0
 40
4.0
 40
4.0
 40
5.0
 40
5.0
 40
5.0
 40
6.0
 40
6.0
 40
6.0
 40
7.0
 40
7.0
 40
7.0
 40
8.0
 40
8.0
 40
8.0
 40
8.0
 10
95.93919132801174
 20
-145.5776773724597
 30
0.0
 10
96.14865313351494
 20
-145.67103946011
 30
0.0
 10
96.1676011586838
 20
-145.8212456232669
 30
0.0
 10
96.1676011586838
 20
-145.9218424114362
 30
0.0
 10
96.1676011586838
 20
-146.0610242690403
 30
0.0
 10
96.12109236963291
 20
-146.1836696683152
 30
0.0
 10
95.93919132801174
 20
-146.2660074504126
 30
0.0
 10
95.74454343309511
 20
-146.3555799330291
 30
0.0
 10
95.50786537325846
 20
-146.3721163913583
 30
0.0
 10
95.34491235680613
 20
-146.3721163913583
 30
0.0
 10
95.20090736552269
 20
-146.3721163913583
 30
0.0
 10
94.94907088555093
 20
-146.3576469903203
 30
0.0
 10
94.75028887605201
 20
-146.2660074504126
 30
0.0
 10
94.5473727519708
 20
-146.1726453627624
 30
0.0
 10
94.52394610267111
 20
-146.0334635051583
 30
0.0
 10
94.52394610267111
 20
-145.9218424114362
 30
0.0
 10
94.52394610267111
 20
-145.7847276111232
 30
0.0
 10
94.56838783443082
 20
-145.6600151545572
 30
0.0
 10
94.75028887605201
 20
-145.5776773724597
 30
0.0
 10
94.94286971367747
 20
-145.491894494877
 30
0.0
 10
95.17127954434954
 20
-145.471568431514
 30
0.0
 10
95.34491235680613
 20
-145.471568431514
 30
0.0
 10
95.51613360242305
 20
-145.471568431514
 30
0.0
 10
95.74661049038628
 20
-145.4898274375859
 30
0.0
 10
95.93919132801174
 20
-145.5776773724597
 30
0.0
  0
HATCH
  5
B2
330
AA
100
AcDbEntity
  8
レイヤー 1
 62
   250
420
  2299925
440
 33554687
100
AcDbHatch
 10
0.0
 20
0.0
 30
0.0
210
0.0
220
0.0
230
1.0
  2
SOLID
 70
     1
 71
     1
 91
        2
 92
        1
 93
        1
 72
     4
 94
        3
 73
     0
 74
     0
 95
       17
 96
       13
 40
0.0
 40
0.0
 40
0.0
 40
0.0
 40
1.0
 40
1.0
 40
1.0
 40
2.0
 40
2.0
 40
2.0
 40
3.0
 40
3.0
 40
3.0
 40
4.0
 40
4.0
 40
4.0
 40
4.0
 10
94.71652694029655
 20
-145.9218424114362
 10
94.71652694029655
 20
-146.1378498983613
 10
95.00005829873263
 20
-146.1781575155388
 10
95.34491235680613
 20
-146.1781575155388
 10
95.6642727082888
 20
-146.1781575155388
 10
95.97295326376718
 20
-146.1471516561715
 10
95.97295326376718
 20
-145.9218424114362
 10
95.97295326376718
 20
-145.7079019818022
 10
95.6918334721708
 20
-145.6655273073336
 10
95.34491235680613
 20
-145.6655273073336
 10
95.02520749577495
 20
-145.6655273073336
 10
94.71652694029655
 20
-145.698600223992
 10
94.71652694029655
 20
-145.9218424114362
 97
        0
 97
        1
330
B0
 92
        1
 93
        1
 72
     4
 94
        3
 73
     0
 74
     0
 95
       29
 96
       25
 40
0.0
 40
0.0
 40
0.0
 40
0.0
 40
1.0
 40
1.0
 40
1.0
 40
2.0
 40
2.0
 40
2.0
 40
3.0
 40
3.0
 40
3.0
 40
4.0
 40
4.0
 40
4.0
 40
5.0
 40
5.0
 40
5.0
 40
6.0
 40
6.0
 40
6.0
 40
7.0
 40
7.0
 40
7.0
 40
8.0
 40
8.0
 40
8.0
 40
8.0
 10
95.93919132801174
 20
-145.5776773724597
 10
96.14865313351494
 20
-145.67103946011
 10
96.1676011586838
 20
-145.8212456232669
 10
96.1676011586838
 20
-145.9218424114362
 10
96.1676011586838
 20
-146.0610242690403
 10
96.12109236963291
 20
-146.1836696683152
 10
95.93919132801174
 20
-146.2660074504126
 10
95.74454343309511
 20
-146.3555799330291
 10
95.50786537325846
 20
-146.3721163913583
 10
95.34491235680613
 20
-146.3721163913583
 10
95.20090736552269
 20
-146.3721163913583
 10
94.94907088555093
 20
-146.3576469903203
 10
94.75028887605201
 20
-146.2660074504126
 10
94.5473727519708
 20
-146.1726453627624
 10
94.52394610267111
 20
-146.0334635051583
 10
94.52394610267111
 20
-145.9218424114362
 10
94.52394610267111
 20
-145.7847276111232
 10
94.56838783443082
 20
-145.6600151545572
 10
94.75028887605201
 20
-145.5776773724597
 10
94.94286971367747
 20
-145.491894494877
 10
95.17127954434954
 20
-145.471568431514
 10
95.34491235680613
 20
-145.471568431514
 10
95.51613360242305
 20
-145.471568431514
 10
95.74661049038628
 20
-145.4898274375859
 10
95.93919132801174
 20
-145.5776773724597
 97
        0
 97
        1
330
B1
 75
     2
 76
     1
 98
        1
 10
0.0
 20
0.0
450
        0
451
        0
460
0.0
461
0.0
452
        0
462
0.0
453
        0
470

  0
ENDBLK
  5
AD
330
AA
100
AcDbEntity
  8
0
100
AcDbBlockEnd
  0
BLOCK
  5
BB
330
B9
100
AcDbEntity
  8
0
100
AcDbBlockBegin
  2
Block_6
 70
     0
 10
0.0
 20
0.0
 30
0.0
  3
Block_6
  1

  0
INSERT
  5
BE
330
B9
100
AcDbEntity
  8
レイヤー 1
100
AcDbBlockReference
  2
Block_7
 10
0.0
 20
0.0
 30
0.0
  0
ENDBLK
  5
BC
330
B9
100
AcDbEntity
  8
0
100
AcDbBlockEnd
  0
BLOCK
  5
BF
330
BD
100
AcDbEntity
  8
0
100
AcDbBlockBegin
  2
Block_7
 70
     0
 10
0.0
 20
0.0
 30
0.0
  3
Block_7
  1

  0
SPLINE
  5
C1
330
BD
100
AcDbEntity
  8
レイヤー 1
100
AcDbSpline
210
0.0
220
0.0
230
1.0
 70
     9
 71
     3
 72
    17
 73
    13
 74
     0
 42
0.0000000001
 43
0.0000000001
 40
0.0
 40
0.0
 40
0.0
 40
0.0
 40
1.0
 40
1.0
 40
1.0
 40
2.0
 40
2.0
 40
2.0
 40
3.0
 40
3.0
 40
3.0
 40
4.0
 40
4.0
 40
4.0
 40
4.0
 10
106.7962374950023
 20
-143.4908107822697
 30
0.0
 10
106.7814235844157
 20
-143.5202663486685
 30
0.0
 10
106.736981852656
 20
-143.6134561815445
 30
0.0
 10
106.7276800948459
 20
-143.6324042067134
 30
0.0
 10
106.8944227163319
 20
-143.6916598490597
 30
0.0
 10
106.9130262319523
 20
-143.6980332757074
 30
0.0
 10
106.9760714793323
 20
-143.7255940395894
 30
0.0
 10
107.0239583065773
 20
-143.6387776333611
 30
0.0
 10
107.0446288794888
 20
-143.5647080804282
 30
0.0
 10
107.0573757327842
 20
-143.4908107822697
 30
0.0
 10
107.0573757327842
 20
-143.4908107822697
 30
0.0
 10
106.7962374950023
 20
-143.4908107822697
 30
0.0
 10
106.7962374950023
 20
-143.4908107822697
 30
0.0
  0
SPLINE
  5
C2
330
BD
100
AcDbEntity
  8
レイヤー 1
100
AcDbSpline
210
0.0
220
0.0
230
1.0
 70
    11
 71
     3
 72
    20
 73
    16
 74
     0
 42
0.0000000001
 43
0.0000000001
 40
0.0
 40
0.0
 40
0.0
 40
0.0
 40
1.0
 40
1.0
 40
1.0
 40
2.0
 40
2.0
 40
2.0
 40
3.0
 40
3.0
 40
3.0
 40
4.0
 40
4.0
 40
4.0
 40
5.0
 40
5.0
 40
5.0
 40
5.0
 10
106.7407714576898
 20
-142.6403889617357
 30
0.0
 10
106.7407714576898
 20
-142.6403889617357
 30
0.0
 10
106.7132106938078
 20
-142.6403889617357
 30
0.0
 10
106.7132106938078
 20
-142.6403889617357
 30
0.0
 10
106.7538628205337
 20
-142.7397799664852
 30
0.0
 10
106.7814235844157
 20
-142.8200506912915
 30
0.0
 10
106.8110514055889
 20
-142.947002459923
 30
0.0
 10
106.8110514055889
 20
-142.947002459923
 30
0.0
 10
106.9926079376616
 20
-142.947002459923
 30
0.0
 10
106.9926079376616
 20
-142.947002459923
 30
0.0
 10
107.0205132110921
 20
-142.8539848818212
 30
0.0
 10
107.040839274455
 20
-142.7694077876583
 30
0.0
 10
107.061165337818
 20
-142.6403889617357
 30
0.0
 10
107.061165337818
 20
-142.6403889617357
 30
0.0
 10
106.7407714576898
 20
-142.6403889617357
 30
0.0
 10
106.7407714576898
 20
-142.6403889617357
 30
0.0
  0
SPLINE
  5
C3
330
BD
100
AcDbEntity
  8
レイヤー 1
100
AcDbSpline
210
0.0
220
0.0
230
1.0
 70
     9
 71
     3
 72
   242
 73
   238
 74
     0
 42
0.0000000001
 43
0.0000000001
 40
0.0
 40
0.0
 40
0.0
 40
0.0
 40
1.0
 40
1.0
 40
1.0
 40
2.0
 40
2.0
 40
2.0
 40
3.0
 40
3.0
 40
3.0
 40
4.0
 40
4.0
 40
4.0
 40
5.0
 40
5.0
 40
5.0
 40
6.0
 40
6.0
 40
6.0
 40
7.0
 40
7.0
 40
7.0
 40
8.0
 40
8.0
 40
8.0
 40
9.0
 40
9.0
 40
9.0
 40
10.0
 40
10.0
 40
10.0
 40
11.0
 40
11.0
 40
11.0
 40
12.0
 40
12.0
 40
12.0
 40
13.0
 40
13.0
 40
13.0
 40
14.0
 40
14.0
 40
14.0
 40
15.0
 40
15.0
 40
15.0
 40
16.0
 40
16.0
 40
16.0
 40
17.0
 40
17.0
 40
17.0
 40
18.0
 40
18.0
 40
18.0
 40
19.0
 40
19.0
 40
19.0
 40
20.0
 40
20.0
 40
20.0
 40
21.0
 40
21.0
 40
21.0
 40
22.0
 40
22.0
 40
22.0
 40
23.0
 40
23.0
 40
23.0
 40
24.0
 40
24.0
 40
24.0
 40
25.0
 40
25.0
 40
25.0
 40
26.0
 40
26.0
 40
26.0
 40
27.0
 40
27.0
 40
27.0
 40
28.0
 40
28.0
 40
28.0
 40
29.0
 40
29.0
 40
29.0
 40
30.0
 40
30.0
 40
30.0
 40
31.0
 40
31.0
 40
31.0
 40
32.0
 40
32.0
 40
32.0
 40
33.0
 40
33.0
 40
33.0
 40
34.0
 40
34.0
 40
34.0
 40
35.0
 40
35.0
 40
35.0
 40
36.0
 40
36.0
 40
36.0
 40
37.0
 40
37.0
 40
37.0
 40
38.0
 40
38.0
 40
38.0
 40
39.0
 40
39.0
 40
39.0
 40
40.0
 40
40.0
 40
40.0
 40
41.0
 40
41.0
 40
41.0
 40
42.0
 40
42.0
 40
42.0
 40
43.0
 40
43.0
 40
43.0
 40
44.0
 40
44.0
 40
44.0
 40
45.0
 40
45.0
 40
45.0
 40
46.0
 40
46.0
 40
46.0
 40
47.0
 40
47.0
 40
47.0
 40
48.0
 40
48.0
 40
48.0
 40
49.0
 40
49.0
 40
49.0
 40
50.0
 40
50.0
 40
50.0
 40
51.0
 40
51.0
 40
51.0
 40
52.0
 40
52.0
 40
52.0
 40
53.0
 40
53.0
 40
53.0
 40
54.0
 40
54.0
 40
54.0
 40
55.0
 40
55.0
 40
55.0
 40
56.0
 40
56.0
 40
56.0
 40
57.0
 40
57.0
 40
57.0
 40
58.0
 40
58.0
 40
58.0
 40
59.0
 40
59.0
 40
59.0
 40
60.0
 40
60.0
 40
60.0
 40
61.0
 40
61.0
 40
61.0
 40
62.0
 40
62.0
 40
62.0
 40
63.0
 40
63.0
 40
63.0
 40
64.0
 40
64.0
 40
64.0
 40
65.0
 40
65.0
 40
65.0
 40
66.0
 40
66.0
 40
66.0
 40
67.0
 40
67.0
 40
67.0
 40
68.0
 40
68.0
 40
68.0
 40
69.0
 40
69.0
 40
69.0
 40
70.0
 40
70.0
 40
70.0
 40
71.0
 40
71.0
 40
71.0
 40
72.0
 40
72.0
 40
72.0
 40
73.0
 40
73.0
 40
73.0
 40
74.0
 40
74.0
 40
74.0
 40
75.0
 40
75.0
 40
75.0
 40
76.0
 40
76.0
 40
76.0
 40
77.0
 40
77.0
 40
77.0
 40
78.0
 40
78.0
 40
78.0
 40
79.0
 40
79.0
 40
79.0
 40
79.0
 10
107.2906086971357
 20
-143.1056491070187
 30
0.0
 10
107.2906086971357
 20
-143.1056491070187
 30
0.0
 10
107.0687445478856
 20
-143.1056491070187
 30
0.0
 10
107.0687445478856
 20
-143.1056491070187
 30
0.0
 10
107.0687445478856
 20
-143.1056491070187
 30
0.0
 10
106.8258653161755
 20
-143.1056491070187
 30
0.0
 10
106.8258653161755
 20
-143.1056491070187
 30
0.0
 10
106.8258653161755
 20
-143.1056491070187
 30
0.0
 10
106.937141900349
 20
-143.1480237814873
 30
0.0
 10
106.937141900349
 20
-143.1480237814873
 30
0.0
 10
106.9464436581592
 20
-143.1523301508438
 30
0.0
 10
106.957467963712
 20
-143.1585313227173
 30
0.0
 10
106.957467963712
 20
-143.1712781760127
 30
0.0
 10
106.957467963712
 20
-143.192465513247
 30
0.0
 10
106.9295626902815
 20
-143.1988389398947
 30
0.0
 10
106.9113036842097
 20
-143.202973054477
 30
0.0
 10
106.9020019263995
 20
-143.2262274490024
 30
0.0
 10
106.8758192007116
 20
-143.2918565179964
 30
0.0
 10
106.8592827423824
 20
-143.3362982497562
 30
0.0
 10
106.8592827423824
 20
-143.3362982497562
 30
0.0
 10
107.0963053117676
 20
-143.3362982497562
 30
0.0
 10
107.0963053117676
 20
-143.3362982497562
 30
0.0
 10
107.1758870174768
 20
-143.3362982497562
 30
0.0
 10
107.3481417917393
 20
-143.3319918803996
 30
0.0
 10
107.4721652292083
 20
-143.3235513964608
 30
0.0
 10
107.4721652292083
 20
-143.3235513964608
 30
0.0
 10
107.4721652292083
 20
-143.5013183234997
 30
0.0
 10
107.4721652292083
 20
-143.5013183234997
 30
0.0
 10
107.4001627335666
 20
-143.4970119541431
 30
0.0
 10
107.3815592179462
 20
-143.4970119541431
 30
0.0
 10
107.2241183542703
 20
-143.4928778395608
 30
0.0
 10
107.1962130808398
 20
-143.6472181173
 30
0.0
 10
107.157628011405
 20
-143.7276610968805
 30
0.0
 10
107.1186984324217
 20
-143.7974242804569
 30
0.0
 10
107.2241183542703
 20
-143.8566799228032
 30
0.0
 10
107.3167914228235
 20
-143.9243760490883
 30
0.0
 10
107.4073974340856
 20
-144.0068860859601
 30
0.0
 10
107.4073974340856
 20
-144.0068860859601
 30
0.0
 10
107.3037000599796
 20
-144.1739732169947
 30
0.0
 10
107.3037000599796
 20
-144.1739732169947
 30
0.0
 10
107.2833739966166
 20
-144.1550251918258
 30
0.0
 10
107.2723496910638
 20
-144.1465847078869
 30
0.0
 10
107.1741644697342
 20
-144.0618353589498
 30
0.0
 10
107.1314452857171
 20
-144.0237670538378
 30
0.0
 10
107.0797688534384
 20
-143.9879380607912
 30
0.0
 10
107.0094889055393
 20
-143.9434963290315
 30
0.0
 10
106.8241427684328
 20
-144.1297037400092
 30
0.0
 10
106.6446532936513
 20
-144.1529581345347
 30
0.0
 10
106.3907497563884
 20
-144.1825859557078
 30
0.0
 10
106.3907497563884
 20
-144.1825859557078
 30
0.0
 10
106.3001437451263
 20
-144.0027519713778
 30
0.0
 10
106.3001437451263
 20
-144.0027519713778
 30
0.0
 10
106.5778184412375
 20
-143.9984456020212
 30
0.0
 10
106.7314696998796
 20
-143.9731241502046
 30
0.0
 10
106.8647948951588
 20
-143.8630533494509
 30
0.0
 10
106.7610975210528
 20
-143.8122381910434
 30
0.0
 10
106.6835828726346
 20
-143.7848496819357
 30
0.0
 10
106.6518879941703
 20
-143.7721028286403
 30
0.0
 10
106.6353515358411
 20
-143.7996635925223
 30
0.0
 10
106.6222601729972
 20
-143.8186116176912
 30
0.0
 10
106.5981445046005
 20
-143.8525458082209
 30
0.0
 10
106.5981445046005
 20
-143.8525458082209
 30
0.0
 10
106.4258897303379
 20
-143.7700357713491
 30
0.0
 10
106.4258897303379
 20
-143.7700357713491
 30
0.0
 10
106.4982367355282
 20
-143.6895927917686
 30
0.0
 10
106.5519802250981
 20
-143.5943359016014
 30
0.0
 10
106.6019341096342
 20
-143.4928778395608
 30
0.0
 10
106.4351914881481
 20
-143.4970119541431
 30
0.0
 10
106.4169324820763
 20
-143.4970119541431
 30
0.0
 10
106.344585476886
 20
-143.5013183234997
 30
0.0
 10
106.344585476886
 20
-143.5013183234997
 30
0.0
 10
106.344585476886
 20
-143.3235513964608
 30
0.0
 10
106.344585476886
 20
-143.3235513964608
 30
0.0
 10
106.4668863666124
 20
-143.3299248231085
 30
0.0
 10
106.6501654464277
 20
-143.334231192465
 30
0.0
 10
106.6722140575333
 20
-143.334231192465
 30
0.0
 10
106.6870279681199
 20
-143.3002970019353
 30
0.0
 10
106.7352593049134
 20
-143.1797186599516
 30
0.0
 10
106.7517957632426
 20
-143.1056491070187
 30
0.0
 10
106.7352593049134
 20
-143.1056491070187
 30
0.0
 10
106.5795409889801
 20
-143.1120225336664
 30
0.0
 10
106.4093532720087
 20
-143.1247693869619
 30
0.0
 10
106.4093532720087
 20
-143.1247693869619
 30
0.0
 10
106.4093532720087
 20
-143.258094582241
 30
0.0
 10
106.4093532720087
 20
-143.258094582241
 30
0.0
 10
106.3666340879917
 20
-143.2834160340576
 30
0.0
 10
106.3149576557129
 20
-143.3151109125219
 30
0.0
 10
106.1981689187629
 20
-143.3807399815159
 30
0.0
 10
106.1981689187629
 20
-143.3807399815159
 30
0.0
 10
106.1981689187629
 20
-143.5266397753162
 30
0.0
 10
106.1981689187629
 20
-143.5266397753162
 30
0.0
 10
106.1981689187629
 20
-143.5266397753162
 30
0.0
 10
106.1981689187629
 20
-143.9943114874389
 30
0.0
 10
106.1981689187629
 20
-143.9943114874389
 30
0.0
 10
106.1981689187629
 20
-144.1210910012961
 30
0.0
 10
106.1668185498472
 20
-144.1803466436424
 30
0.0
 10
105.9187716749092
 20
-144.1719061597035
 30
0.0
 10
105.9187716749092
 20
-144.1719061597035
 30
0.0
 10
105.8278211540986
 20
-143.9646836662658
 30
0.0
 10
105.8278211540986
 20
-143.9646836662658
 30
0.0
 10
105.8836317009596
 20
-143.9772582647869
 30
0.0
 10
105.9260063754282
 20
-143.9815646341435
 30
0.0
 10
105.9611463493777
 20
-143.9815646341435
 30
0.0
 10
106.0279812017916
 20
-143.9815646341435
 30
0.0
 10
106.0372829596018
 20
-143.958310239618
 30
0.0
 10
106.0372829596018
 20
-143.892681170624
 30
0.0
 10
106.0372829596018
 20
-143.892681170624
 30
0.0
 10
106.0372829596018
 20
-143.4632500183876
 30
0.0
 10
106.0372829596018
 20
-143.4632500183876
 30
0.0
 10
105.9518445915676
 20
-143.5033853807908
 30
0.0
 10
105.937030680981
 20
-143.5097588074385
 30
0.0
 10
105.8963785542551
 20
-143.5288790873816
 30
0.0
 10
105.8925889492213
 20
-143.5498941698417
 30
0.0
 10
105.889143853736
 20
-143.5795219910148
 30
0.0
 10
105.8722628858583
 20
-143.5795219910148
 30
0.0
 10
105.8650281853393
 20
-143.5795219910148
 30
0.0
 10
105.8557264275291
 20
-143.5753878764325
 30
0.0
 10
105.8502142747527
 20
-143.5521334819071
 30
0.0
 10
105.8502142747527
 20
-143.5521334819071
 30
0.0
 10
105.8037054857018
 20
-143.3595526442816
 30
0.0
 10
105.8037054857018
 20
-143.3595526442816
 30
0.0
 10
105.9315185282046
 20
-143.3130438552308
 30
0.0
 10
105.9890516228083
 20
-143.2897894607053
 30
0.0
 10
106.0372829596018
 20
-143.268602123471
 30
0.0
 10
106.0372829596018
 20
-143.268602123471
 30
0.0
 10
106.0372829596018
 20
-142.8560519391123
 30
0.0
 10
106.0372829596018
 20
-142.8560519391123
 30
0.0
 10
106.0372829596018
 20
-142.8560519391123
 30
0.0
 10
105.9907741705509
 20
-142.8560519391123
 30
0.0
 10
105.9907741705509
 20
-142.8560519391123
 30
0.0
 10
105.9907741705509
 20
-142.8560519391123
 30
0.0
 10
105.9222167703944
 20
-142.8560519391123
 30
0.0
 10
105.9222167703944
 20
-142.8560519391123
 30
0.0
 10
105.8629611280481
 20
-142.8560519391123
 30
0.0
 10
105.8557264275291
 20
-142.8560519391123
 30
0.0
 10
105.8243760586133
 20
-142.86242536576
 30
0.0
 10
105.8243760586133
 20
-142.86242536576
 30
0.0
 10
105.8243760586133
 20
-142.6677774708434
 30
0.0
 10
105.8243760586133
 20
-142.6677774708434
 30
0.0
 10
105.8481472174616
 20
-142.6741508974911
 30
0.0
 10
105.8557264275291
 20
-142.6741508974911
 30
0.0
 10
105.916704617618
 20
-142.6741508974911
 30
0.0
 10
105.916704617618
 20
-142.6741508974911
 30
0.0
 10
106.033493354568
 20
-142.6741508974911
 30
0.0
 10
106.033493354568
 20
-142.6741508974911
 30
0.0
 10
106.033493354568
 20
-142.6043877139148
 30
0.0
 10
106.033493354568
 20
-142.5218776770431
 30
0.0
 10
106.0317708068254
 20
-142.5175713076866
 30
0.0
 10
106.0241915967578
 20
-142.3377373233565
 30
0.0
 10
106.0241915967578
 20
-142.3187892981877
 30
0.0
 10
106.0224690490152
 20
-142.2722805091368
 30
0.0
 10
106.0224690490152
 20
-142.2722805091368
 30
0.0
 10
106.2112602816069
 20
-142.2807209930756
 30
0.0
 10
106.2112602816069
 20
-142.2807209930756
 30
0.0
 10
106.2205620394171
 20
-142.2807209930756
 30
0.0
 10
106.2391655550374
 20
-142.2827880503668
 30
0.0
 10
106.2391655550374
 20
-142.2996690182445
 30
0.0
 10
106.2391655550374
 20
-142.3187892981877
 30
0.0
 10
106.2260741921934
 20
-142.3292968394177
 30
0.0
 10
106.2036810715393
 20
-142.3484171193608
 30
0.0
 10
106.2036810715393
 20
-142.399060022994
 30
0.0
 10
106.1981689187629
 20
-142.6276421084403
 30
0.0
 10
106.2002359760541
 20
-142.6741508974911
 30
0.0
 10
106.3128905984218
 20
-142.6741508974911
 30
0.0
 10
106.3242594135231
 20
-142.6741508974911
 30
0.0
 10
106.4093532720087
 20
-142.6657104135523
 30
0.0
 10
106.4093532720087
 20
-142.6657104135523
 30
0.0
 10
106.4093532720087
 20
-142.8603583084689
 30
0.0
 10
106.4093532720087
 20
-142.8603583084689
 30
0.0
 10
106.3759358458018
 20
-142.8581189964035
 30
0.0
 10
106.3166802034555
 20
-142.8539848818212
 30
0.0
 10
106.1981689187629
 20
-142.8560519391123
 30
0.0
 10
106.1981689187629
 20
-142.8560519391123
 30
0.0
 10
106.1981689187629
 20
-143.1945325705382
 30
0.0
 10
106.1981689187629
 20
-143.1945325705382
 30
0.0
 10
106.2464002555564
 20
-143.1712781760127
 30
0.0
 10
106.3039333501601
 20
-143.1437174121307
 30
0.0
 10
106.3463080246287
 20
-143.1204630176053
 30
0.0
 10
106.3463080246287
 20
-143.1204630176053
 30
0.0
 10
106.3463080246287
 20
-142.9428683453407
 30
0.0
 10
106.3463080246287
 20
-142.9428683453407
 30
0.0
 10
106.4465603032495
 20
-142.9554429438618
 30
0.0
 10
106.5499131678069
 20
-142.9554429438618
 30
0.0
 10
106.6518879941703
 20
-142.9554429438618
 30
0.0
 10
106.6315619308074
 20
-142.8603583084689
 30
0.0
 10
106.6074462624106
 20
-142.7778482715972
 30
0.0
 10
106.5519802250981
 20
-142.644523076318
 30
0.0
 10
106.5130506461148
 20
-142.6465901336092
 30
0.0
 10
106.4407036409245
 20
-142.6508965029657
 30
0.0
 10
106.4076307242661
 20
-142.6529635602569
 30
0.0
 10
106.4076307242661
 20
-142.6529635602569
 30
0.0
 10
106.4076307242661
 20
-142.4731295759268
 30
0.0
 10
106.4076307242661
 20
-142.4731295759268
 30
0.0
 10
106.5168402511486
 20
-142.4815700598657
 30
0.0
 10
106.6684244524995
 20
-142.4858764292222
 30
0.0
 10
106.7407714576898
 20
-142.4858764292222
 30
0.0
 10
106.7407714576898
 20
-142.4858764292222
 30
0.0
 10
106.81311846288
 20
-142.4858764292222
 30
0.0
 10
106.81311846288
 20
-142.4858764292222
 30
0.0
 10
106.81311846288
 20
-142.3229234127699
 30
0.0
 10
106.81311846288
 20
-142.3124158715399
 30
0.0
 10
106.8110514055889
 20
-142.2574665985502
 30
0.0
 10
106.8110514055889
 20
-142.2574665985502
 30
0.0
 10
107.0074218482481
 20
-142.2827880503668
 30
0.0
 10
107.0074218482481
 20
-142.2827880503668
 30
0.0
 10
107.0112114532819
 20
-142.2827880503668
 30
0.0
 10
107.0298149689022
 20
-142.2848551076579
 30
0.0
 10
107.0298149689022
 20
-142.3017360755356
 30
0.0
 10
107.0298149689022
 20
-142.3165499861222
 30
0.0
 10
107.0205132110921
 20
-142.3251627248354
 30
0.0
 10
106.9963975426953
 20
-142.3399766354219
 30
0.0
 10
106.9908853899189
 20
-142.4054334496417
 30
0.0
 10
106.9888183326278
 20
-142.4266207868759
 30
0.0
 10
106.9888183326278
 20
-142.4858764292222
 30
0.0
 10
106.9888183326278
 20
-142.4858764292222
 30
0.0
 10
107.0721896433708
 20
-142.4858764292222
 30
0.0
 10
107.0721896433708
 20
-142.4858764292222
 30
0.0
 10
107.1445366485611
 20
-142.4858764292222
 30
0.0
 10
107.2964653594606
 20
-142.4815700598657
 30
0.0
 10
107.405674886343
 20
-142.4731295759268
 30
0.0
 10
107.405674886343
 20
-142.4731295759268
 30
0.0
 10
107.405674886343
 20
-142.6529635602569
 30
0.0
 10
107.405674886343
 20
-142.6529635602569
 30
0.0
 10
107.3794921606551
 20
-142.6508965029657
 30
0.0
 10
107.2761392960976
 20
-142.6465901336092
 30
0.0
 10
107.2406548125995
 20
-142.644523076318
 30
0.0
 10
107.2279079593041
 20
-142.6953382347255
 30
0.0
 10
107.198280138131
 20
-142.8074760927704
 30
0.0
 10
107.1407470435273
 20
-142.947002459923
 30
0.0
 10
107.177954074768
 20
-142.947002459923
 30
0.0
 10
107.4204887969296
 20
-142.9280544347541
 30
0.0
 10
107.4742322864995
 20
-142.9258151226887
 30
0.0
 10
107.4742322864995
 20
-142.9258151226887
 30
0.0
 10
107.4742322864995
 20
-143.1099554763753
 30
0.0
 10
107.4742322864995
 20
-143.1099554763753
 30
0.0
 10
107.4480495608116
 20
-143.1099554763753
 30
0.0
 10
107.433235650225
 20
-143.1056491070187
 30
0.0
 10
107.2906086971357
 20
-143.1056491070187
 30
0.0
  0
HATCH
  5
C4
330
BD
100
AcDbEntity
  8
レイヤー 1
 62
   250
420
  2299925
440
 33554687
100
AcDbHatch
 10
0.0
 20
0.0
 30
0.0
210
0.0
220
0.0
230
1.0
  2
SOLID
 70
     1
 71
     1
 91
        3
 92
        1
 93
        1
 72
     4
 94
        3
 73
     0
 74
     0
 95
       17
 96
       13
 40
0.0
 40
0.0
 40
0.0
 40
0.0
 40
1.0
 40
1.0
 40
1.0
 40
2.0
 40
2.0
 40
2.0
 40
3.0
 40
3.0
 40
3.0
 40
4.0
 40
4.0
 40
4.0
 40
4.0
 10
106.7962374950023
 20
-143.4908107822697
 10
106.7814235844157
 20
-143.5202663486685
 10
106.736981852656
 20
-143.6134561815445
 10
106.7276800948459
 20
-143.6324042067134
 10
106.8944227163319
 20
-143.6916598490597
 10
106.9130262319523
 20
-143.6980332757074
 10
106.9760714793323
 20
-143.7255940395894
 10
107.0239583065773
 20
-143.6387776333611
 10
107.0446288794888
 20
-143.5647080804282
 10
107.0573757327842
 20
-143.4908107822697
 10
107.0573757327842
 20
-143.4908107822697
 10
106.7962374950023
 20
-143.4908107822697
 10
106.7962374950023
 20
-143.4908107822697
 97
        0
 97
        1
330
C1
 92
        1
 93
        1
 72
     4
 94
        3
 73
     0
 74
     0
 95
       20
 96
       16
 40
0.0
 40
0.0
 40
0.0
 40
0.0
 40
1.0
 40
1.0
 40
1.0
 40
2.0
 40
2.0
 40
2.0
 40
3.0
 40
3.0
 40
3.0
 40
4.0
 40
4.0
 40
4.0
 40
5.0
 40
5.0
 40
5.0
 40
5.0
 10
106.7407714576898
 20
-142.6403889617357
 10
106.7407714576898
 20
-142.6403889617357
 10
106.7132106938078
 20
-142.6403889617357
 10
106.7132106938078
 20
-142.6403889617357
 10
106.7538628205337
 20
-142.7397799664852
 10
106.7814235844157
 20
-142.8200506912915
 10
106.8110514055889
 20
-142.947002459923
 10
106.8110514055889
 20
-142.947002459923
 10
106.9926079376616
 20
-142.947002459923
 10
106.9926079376616
 20
-142.947002459923
 10
107.0205132110921
 20
-142.8539848818212
 10
107.040839274455
 20
-142.7694077876583
 10
107.061165337818
 20
-142.6403889617357
 10
107.061165337818
 20
-142.6403889617357
 10
106.7407714576898
 20
-142.6403889617357
 10
106.7407714576898
 20
-142.6403889617357
 97
        0
 97
        1
330
C2
 92
        1
 93
        1
 72
     4
 94
        3
 73
     0
 74
     0
 95
      242
 96
      238
 40
0.0
 40
0.0
 40
0.0
 40
0.0
 40
1.0
 40
1.0
 40
1.0
 40
2.0
 40
2.0
 40
2.0
 40
3.0
 40
3.0
 40
3.0
 40
4.0
 40
4.0
 40
4.0
 40
5.0
 40
5.0
 40
5.0
 40
6.0
 40
6.0
 40
6.0
 40
7.0
 40
7.0
 40
7.0
 40
8.0
 40
8.0
 40
8.0
 40
9.0
 40
9.0
 40
9.0
 40
10.0
 40
10.0
 40
10.0
 40
11.0
 40
11.0
 40
11.0
 40
12.0
 40
12.0
 40
12.0
 40
13.0
 40
13.0
 40
13.0
 40
14.0
 40
14.0
 40
14.0
 40
15.0
 40
15.0
 40
15.0
 40
16.0
 40
16.0
 40
16.0
 40
17.0
 40
17.0
 40
17.0
 40
18.0
 40
18.0
 40
18.0
 40
19.0
 40
19.0
 40
19.0
 40
20.0
 40
20.0
 40
20.0
 40
21.0
 40
21.0
 40
21.0
 40
22.0
 40
22.0
 40
22.0
 40
23.0
 40
23.0
 40
23.0
 40
24.0
 40
24.0
 40
24.0
 40
25.0
 40
25.0
 40
25.0
 40
26.0
 40
26.0
 40
26.0
 40
27.0
 40
27.0
 40
27.0
 40
28.0
 40
28.0
 40
28.0
 40
29.0
 40
29.0
 40
29.0
 40
30.0
 40
30.0
 40
30.0
 40
31.0
 40
31.0
 40
31.0
 40
32.0
 40
32.0
 40
32.0
 40
33.0
 40
33.0
 40
33.0
 40
34.0
 40
34.0
 40
34.0
 40
35.0
 40
35.0
 40
35.0
 40
36.0
 40
36.0
 40
36.0
 40
37.0
 40
37.0
 40
37.0
 40
38.0
 40
38.0
 40
38.0
 40
39.0
 40
39.0
 40
39.0
 40
40.0
 40
40.0
 40
40.0
 40
41.0
 40
41.0
 40
41.0
 40
42.0
 40
42.0
 40
42.0
 40
43.0
 40
43.0
 40
43.0
 40
44.0
 40
44.0
 40
44.0
 40
45.0
 40
45.0
 40
45.0
 40
46.0
 40
46.0
 40
46.0
 40
47.0
 40
47.0
 40
47.0
 40
48.0
 40
48.0
 40
48.0
 40
49.0
 40
49.0
 40
49.0
 40
50.0
 40
50.0
 40
50.0
 40
51.0
 40
51.0
 40
51.0
 40
52.0
 40
52.0
 40
52.0
 40
53.0
 40
53.0
 40
53.0
 40
54.0
 40
54.0
 40
54.0
 40
55.0
 40
55.0
 40
55.0
 40
56.0
 40
56.0
 40
56.0
 40
57.0
 40
57.0
 40
57.0
 40
58.0
 40
58.0
 40
58.0
 40
59.0
 40
59.0
 40
59.0
 40
60.0
 40
60.0
 40
60.0
 40
61.0
 40
61.0
 40
61.0
 40
62.0
 40
62.0
 40
62.0
 40
63.0
 40
63.0
 40
63.0
 40
64.0
 40
64.0
 40
64.0
 40
65.0
 40
65.0
 40
65.0
 40
66.0
 40
66.0
 40
66.0
 40
67.0
 40
67.0
 40
67.0
 40
68.0
 40
68.0
 40
68.0
 40
69.0
 40
69.0
 40
69.0
 40
70.0
 40
70.0
 40
70.0
 40
71.0
 40
71.0
 40
71.0
 40
72.0
 40
72.0
 40
72.0
 40
73.0
 40
73.0
 40
73.0
 40
74.0
 40
74.0
 40
74.0
 40
75.0
 40
75.0
 40
75.0
 40
76.0
 40
76.0
 40
76.0
 40
77.0
 40
77.0
 40
77.0
 40
78.0
 40
78.0
 40
78.0
 40
79.0
 40
79.0
 40
79.0
 40
79.0
 10
107.2906086971357
 20
-143.1056491070187
 10
107.2906086971357
 20
-143.1056491070187
 10
107.0687445478856
 20
-143.1056491070187
 10
107.0687445478856
 20
-143.1056491070187
 10
107.0687445478856
 20
-143.1056491070187
 10
106.8258653161755
 20
-143.1056491070187
 10
106.8258653161755
 20
-143.1056491070187
 10
106.8258653161755
 20
-143.1056491070187
 10
106.937141900349
 20
-143.1480237814873
 10
106.937141900349
 20
-143.1480237814873
 10
106.9464436581592
 20
-143.1523301508438
 10
106.957467963712
 20
-143.1585313227173
 10
106.957467963712
 20
-143.1712781760127
 10
106.957467963712
 20
-143.192465513247
 10
106.9295626902815
 20
-143.1988389398947
 10
106.9113036842097
 20
-143.202973054477
 10
106.9020019263995
 20
-143.2262274490024
 10
106.8758192007116
 20
-143.2918565179964
 10
106.8592827423824
 20
-143.3362982497562
 10
106.8592827423824
 20
-143.3362982497562
 10
107.0963053117676
 20
-143.3362982497562
 10
107.0963053117676
 20
-143.3362982497562
 10
107.1758870174768
 20
-143.3362982497562
 10
107.3481417917393
 20
-143.3319918803996
 10
107.4721652292083
 20
-143.3235513964608
 10
107.4721652292083
 20
-143.3235513964608
 10
107.4721652292083
 20
-143.5013183234997
 10
107.4721652292083
 20
-143.5013183234997
 10
107.4001627335666
 20
-143.4970119541431
 10
107.3815592179462
 20
-143.4970119541431
 10
107.2241183542703
 20
-143.4928778395608
 10
107.1962130808398
 20
-143.6472181173
 10
107.157628011405
 20
-143.7276610968805
 10
107.1186984324217
 20
-143.7974242804569
 10
107.2241183542703
 20
-143.8566799228032
 10
107.3167914228235
 20
-143.9243760490883
 10
107.4073974340856
 20
-144.0068860859601
 10
107.4073974340856
 20
-144.0068860859601
 10
107.3037000599796
 20
-144.1739732169947
 10
107.3037000599796
 20
-144.1739732169947
 10
107.2833739966166
 20
-144.1550251918258
 10
107.2723496910638
 20
-144.1465847078869
 10
107.1741644697342
 20
-144.0618353589498
 10
107.1314452857171
 20
-144.0237670538378
 10
107.0797688534384
 20
-143.9879380607912
 10
107.0094889055393
 20
-143.9434963290315
 10
106.8241427684328
 20
-144.1297037400092
 10
106.6446532936513
 20
-144.1529581345347
 10
106.3907497563884
 20
-144.1825859557078
 10
106.3907497563884
 20
-144.1825859557078
 10
106.3001437451263
 20
-144.0027519713778
 10
106.3001437451263
 20
-144.0027519713778
 10
106.5778184412375
 20
-143.9984456020212
 10
106.7314696998796
 20
-143.9731241502046
 10
106.8647948951588
 20
-143.8630533494509
 10
106.7610975210528
 20
-143.8122381910434
 10
106.6835828726346
 20
-143.7848496819357
 10
106.6518879941703
 20
-143.7721028286403
 10
106.6353515358411
 20
-143.7996635925223
 10
106.6222601729972
 20
-143.8186116176912
 10
106.5981445046005
 20
-143.8525458082209
 10
106.5981445046005
 20
-143.8525458082209
 10
106.4258897303379
 20
-143.7700357713491
 10
106.4258897303379
 20
-143.7700357713491
 10
106.4982367355282
 20
-143.6895927917686
 10
106.5519802250981
 20
-143.5943359016014
 10
106.6019341096342
 20
-143.4928778395608
 10
106.4351914881481
 20
-143.4970119541431
 10
106.4169324820763
 20
-143.4970119541431
 10
106.344585476886
 20
-143.5013183234997
 10
106.344585476886
 20
-143.5013183234997
 10
106.344585476886
 20
-143.3235513964608
 10
106.344585476886
 20
-143.3235513964608
 10
106.4668863666124
 20
-143.3299248231085
 10
106.6501654464277
 20
-143.334231192465
 10
106.6722140575333
 20
-143.334231192465
 10
106.6870279681199
 20
-143.3002970019353
 10
106.7352593049134
 20
-143.1797186599516
 10
106.7517957632426
 20
-143.1056491070187
 10
106.7352593049134
 20
-143.1056491070187
 10
106.5795409889801
 20
-143.1120225336664
 10
106.4093532720087
 20
-143.1247693869619
 10
106.4093532720087
 20
-143.1247693869619
 10
106.4093532720087
 20
-143.258094582241
 10
106.4093532720087
 20
-143.258094582241
 10
106.3666340879917
 20
-143.2834160340576
 10
106.3149576557129
 20
-143.3151109125219
 10
106.1981689187629
 20
-143.3807399815159
 10
106.1981689187629
 20
-143.3807399815159
 10
106.1981689187629
 20
-143.5266397753162
 10
106.1981689187629
 20
-143.5266397753162
 10
106.1981689187629
 20
-143.5266397753162
 10
106.1981689187629
 20
-143.9943114874389
 10
106.1981689187629
 20
-143.9943114874389
 10
106.1981689187629
 20
-144.1210910012961
 10
106.1668185498472
 20
-144.1803466436424
 10
105.9187716749092
 20
-144.1719061597035
 10
105.9187716749092
 20
-144.1719061597035
 10
105.8278211540986
 20
-143.9646836662658
 10
105.8278211540986
 20
-143.9646836662658
 10
105.8836317009596
 20
-143.9772582647869
 10
105.9260063754282
 20
-143.9815646341435
 10
105.9611463493777
 20
-143.9815646341435
 10
106.0279812017916
 20
-143.9815646341435
 10
106.0372829596018
 20
-143.958310239618
 10
106.0372829596018
 20
-143.892681170624
 10
106.0372829596018
 20
-143.892681170624
 10
106.0372829596018
 20
-143.4632500183876
 10
106.0372829596018
 20
-143.4632500183876
 10
105.9518445915676
 20
-143.5033853807908
 10
105.937030680981
 20
-143.5097588074385
 10
105.8963785542551
 20
-143.5288790873816
 10
105.8925889492213
 20
-143.5498941698417
 10
105.889143853736
 20
-143.5795219910148
 10
105.8722628858583
 20
-143.5795219910148
 10
105.8650281853393
 20
-143.5795219910148
 10
105.8557264275291
 20
-143.5753878764325
 10
105.8502142747527
 20
-143.5521334819071
 10
105.8502142747527
 20
-143.5521334819071
 10
105.8037054857018
 20
-143.3595526442816
 10
105.8037054857018
 20
-143.3595526442816
 10
105.9315185282046
 20
-143.3130438552308
 10
105.9890516228083
 20
-143.2897894607053
 10
106.0372829596018
 20
-143.268602123471
 10
106.0372829596018
 20
-143.268602123471
 10
106.0372829596018
 20
-142.8560519391123
 10
106.0372829596018
 20
-142.8560519391123
 10
106.0372829596018
 20
-142.8560519391123
 10
105.9907741705509
 20
-142.8560519391123
 10
105.9907741705509
 20
-142.8560519391123
 10
105.9907741705509
 20
-142.8560519391123
 10
105.9222167703944
 20
-142.8560519391123
 10
105.9222167703944
 20
-142.8560519391123
 10
105.8629611280481
 20
-142.8560519391123
 10
105.8557264275291
 20
-142.8560519391123
 10
105.8243760586133
 20
-142.86242536576
 10
105.8243760586133
 20
-142.86242536576
 10
105.8243760586133
 20
-142.6677774708434
 10
105.8243760586133
 20
-142.6677774708434
 10
105.8481472174616
 20
-142.6741508974911
 10
105.8557264275291
 20
-142.6741508974911
 10
105.916704617618
 20
-142.6741508974911
 10
105.916704617618
 20
-142.6741508974911
 10
106.033493354568
 20
-142.6741508974911
 10
106.033493354568
 20
-142.6741508974911
 10
106.033493354568
 20
-142.6043877139148
 10
106.033493354568
 20
-142.5218776770431
 10
106.0317708068254
 20
-142.5175713076866
 10
106.0241915967578
 20
-142.3377373233565
 10
106.0241915967578
 20
-142.3187892981877
 10
106.0224690490152
 20
-142.2722805091368
 10
106.0224690490152
 20
-142.2722805091368
 10
106.2112602816069
 20
-142.2807209930756
 10
106.2112602816069
 20
-142.2807209930756
 10
106.2205620394171
 20
-142.2807209930756
 10
106.2391655550374
 20
-142.2827880503668
 10
106.2391655550374
 20
-142.2996690182445
 10
106.2391655550374
 20
-142.3187892981877
 10
106.2260741921934
 20
-142.3292968394177
 10
106.2036810715393
 20
-142.3484171193608
 10
106.2036810715393
 20
-142.399060022994
 10
106.1981689187629
 20
-142.6276421084403
 10
106.2002359760541
 20
-142.6741508974911
 10
106.3128905984218
 20
-142.6741508974911
 10
106.3242594135231
 20
-142.6741508974911
 10
106.4093532720087
 20
-142.6657104135523
 10
106.4093532720087
 20
-142.6657104135523
 10
106.4093532720087
 20
-142.8603583084689
 10
106.4093532720087
 20
-142.8603583084689
 10
106.3759358458018
 20
-142.8581189964035
 10
106.3166802034555
 20
-142.8539848818212
 10
106.1981689187629
 20
-142.8560519391123
 10
106.1981689187629
 20
-142.8560519391123
 10
106.1981689187629
 20
-143.1945325705382
 10
106.1981689187629
 20
-143.1945325705382
 10
106.2464002555564
 20
-143.1712781760127
 10
106.3039333501601
 20
-143.1437174121307
 10
106.3463080246287
 20
-143.1204630176053
 10
106.3463080246287
 20
-143.1204630176053
 10
106.3463080246287
 20
-142.9428683453407
 10
106.3463080246287
 20
-142.9428683453407
 10
106.4465603032495
 20
-142.9554429438618
 10
106.5499131678069
 20
-142.9554429438618
 10
106.6518879941703
 20
-142.9554429438618
 10
106.6315619308074
 20
-142.8603583084689
 10
106.6074462624106
 20
-142.7778482715972
 10
106.5519802250981
 20
-142.644523076318
 10
106.5130506461148
 20
-142.6465901336092
 10
106.4407036409245
 20
-142.6508965029657
 10
106.4076307242661
 20
-142.6529635602569
 10
106.4076307242661
 20
-142.6529635602569
 10
106.4076307242661
 20
-142.4731295759268
 10
106.4076307242661
 20
-142.4731295759268
 10
106.5168402511486
 20
-142.4815700598657
 10
106.6684244524995
 20
-142.4858764292222
 10
106.7407714576898
 20
-142.4858764292222
 10
106.7407714576898
 20
-142.4858764292222
 10
106.81311846288
 20
-142.4858764292222
 10
106.81311846288
 20
-142.4858764292222
 10
106.81311846288
 20
-142.3229234127699
 10
106.81311846288
 20
-142.3124158715399
 10
106.8110514055889
 20
-142.2574665985502
 10
106.8110514055889
 20
-142.2574665985502
 10
107.0074218482481
 20
-142.2827880503668
 10
107.0074218482481
 20
-142.2827880503668
 10
107.0112114532819
 20
-142.2827880503668
 10
107.0298149689022
 20
-142.2848551076579
 10
107.0298149689022
 20
-142.3017360755356
 10
107.0298149689022
 20
-142.3165499861222
 10
107.0205132110921
 20
-142.3251627248354
 10
106.9963975426953
 20
-142.3399766354219
 10
106.9908853899189
 20
-142.4054334496417
 10
106.9888183326278
 20
-142.4266207868759
 10
106.9888183326278
 20
-142.4858764292222
 10
106.9888183326278
 20
-142.4858764292222
 10
107.0721896433708
 20
-142.4858764292222
 10
107.0721896433708
 20
-142.4858764292222
 10
107.1445366485611
 20
-142.4858764292222
 10
107.2964653594606
 20
-142.4815700598657
 10
107.405674886343
 20
-142.4731295759268
 10
107.405674886343
 20
-142.4731295759268
 10
107.405674886343
 20
-142.6529635602569
 10
107.405674886343
 20
-142.6529635602569
 10
107.3794921606551
 20
-142.6508965029657
 10
107.2761392960976
 20
-142.6465901336092
 10
107.2406548125995
 20
-142.644523076318
 10
107.2279079593041
 20
-142.6953382347255
 10
107.198280138131
 20
-142.8074760927704
 10
107.1407470435273
 20
-142.947002459923
 10
107.177954074768
 20
-142.947002459923
 10
107.4204887969296
 20
-142.9280544347541
 10
107.4742322864995
 20
-142.9258151226887
 10
107.4742322864995
 20
-142.9258151226887
 10
107.4742322864995
 20
-143.1099554763753
 10
107.4742322864995
 20
-143.1099554763753
 10
107.4480495608116
 20
-143.1099554763753
 10
107.433235650225
 20
-143.1056491070187
 10
107.2906086971357
 20
-143.1056491070187
 97
        0
 97
        1
330
C3
 75
     2
 76
     1
 98
        1
 10
0.0
 20
0.0
450
        0
451
        0
460
0.0
461
0.0
452
        0
462
0.0
453
        0
470

  0
SPLINE
  5
C5
330
BD
100
AcDbEntity
  8
レイヤー 1
100
AcDbSpline
210
0.0
220
0.0
230
1.0
 70
    11
 71
     3
 72
    17
 73
    13
 74
     0
 42
0.0000000001
 43
0.0000000001
 40
0.0
 40
0.0
 40
0.0
 40
0.0
 40
1.0
 40
1.0
 40
1.0
 40
2.0
 40
2.0
 40
2.0
 40
3.0
 40
3.0
 40
3.0
 40
4.0
 40
4.0
 40
4.0
 40
4.0
 10
108.9170382757221
 20
-143.9054280239195
 30
0.0
 10
108.9170382757221
 20
-143.9054280239195
 30
0.0
 10
108.2986436361198
 20
-143.9054280239195
 30
0.0
 10
108.2986436361198
 20
-143.9054280239195
 30
0.0
 10
108.2986436361198
 20
-143.9054280239195
 30
0.0
 10
108.2986436361198
 20
-144.0196329392555
 30
0.0
 10
108.2986436361198
 20
-144.0196329392555
 30
0.0
 10
108.2986436361198
 20
-144.0196329392555
 30
0.0
 10
108.9170382757221
 20
-144.0196329392555
 30
0.0
 10
108.9170382757221
 20
-144.0196329392555
 30
0.0
 10
108.9170382757221
 20
-144.0196329392555
 30
0.0
 10
108.9170382757221
 20
-143.9054280239195
 30
0.0
 10
108.9170382757221
 20
-143.9054280239195
 30
0.0
  0
SPLINE
  5
C6
330
BD
100
AcDbEntity
  8
レイヤー 1
100
AcDbSpline
210
0.0
220
0.0
230
1.0
 70
    11
 71
     3
 72
    17
 73
    13
 74
     0
 42
0.0000000001
 43
0.0000000001
 40
0.0
 40
0.0
 40
0.0
 40
0.0
 40
1.0
 40
1.0
 40
1.0
 40
2.0
 40
2.0
 40
2.0
 40
3.0
 40
3.0
 40
3.0
 40
4.0
 40
4.0
 40
4.0
 40
4.0
 10
108.9170382757221
 20
-143.6620320278866
 30
0.0
 10
108.9170382757221
 20
-143.6620320278866
 30
0.0
 10
108.2986436361198
 20
-143.6620320278866
 30
0.0
 10
108.2986436361198
 20
-143.6620320278866
 30
0.0
 10
108.2986436361198
 20
-143.6620320278866
 30
0.0
 10
108.2986436361198
 20
-143.7764091979969
 30
0.0
 10
108.2986436361198
 20
-143.7764091979969
 30
0.0
 10
108.2986436361198
 20
-143.7764091979969
 30
0.0
 10
108.9170382757221
 20
-143.7764091979969
 30
0.0
 10
108.9170382757221
 20
-143.7764091979969
 30
0.0
 10
108.9170382757221
 20
-143.7764091979969
 30
0.0
 10
108.9170382757221
 20
-143.6620320278866
 30
0.0
 10
108.9170382757221
 20
-143.6620320278866
 30
0.0
  0
SPLINE
  5
C7
330
BD
100
AcDbEntity
  8
レイヤー 1
100
AcDbSpline
210
0.0
220
0.0
230
1.0
 70
    11
 71
     3
 72
    17
 73
    13
 74
     0
 42
0.0000000001
 43
0.0000000001
 40
0.0
 40
0.0
 40
0.0
 40
0.0
 40
1.0
 40
1.0
 40
1.0
 40
2.0
 40
2.0
 40
2.0
 40
3.0
 40
3.0
 40
3.0
 40
4.0
 40
4.0
 40
4.0
 40
4.0
 10
108.9170382757221
 20
-143.4293158278579
 30
0.0
 10
108.9170382757221
 20
-143.4293158278579
 30
0.0
 10
108.2986436361198
 20
-143.4293158278579
 30
0.0
 10
108.2986436361198
 20
-143.4293158278579
 30
0.0
 10
108.2986436361198
 20
-143.4293158278579
 30
0.0
 10
108.2986436361198
 20
-143.5373195713205
 30
0.0
 10
108.2986436361198
 20
-143.5373195713205
 30
0.0
 10
108.2986436361198
 20
-143.5373195713205
 30
0.0
 10
108.9170382757221
 20
-143.5373195713205
 30
0.0
 10
108.9170382757221
 20
-143.5373195713205
 30
0.0
 10
108.9170382757221
 20
-143.5373195713205
 30
0.0
 10
108.9170382757221
 20
-143.4293158278579
 30
0.0
 10
108.9170382757221
 20
-143.4293158278579
 30
0.0
  0
SPLINE
  5
C8
330
BD
100
AcDbEntity
  8
レイヤー 1
100
AcDbSpline
210
0.0
220
0.0
230
1.0
 70
     9
 71
     3
 72
   203
 73
   199
 74
     0
 42
0.0000000001
 43
0.0000000001
 40
0.0
 40
0.0
 40
0.0
 40
0.0
 40
1.0
 40
1.0
 40
1.0
 40
2.0
 40
2.0
 40
2.0
 40
3.0
 40
3.0
 40
3.0
 40
4.0
 40
4.0
 40
4.0
 40
5.0
 40
5.0
 40
5.0
 40
6.0
 40
6.0
 40
6.0
 40
7.0
 40
7.0
 40
7.0
 40
8.0
 40
8.0
 40
8.0
 40
9.0
 40
9.0
 40
9.0
 40
10.0
 40
10.0
 40
10.0
 40
11.0
 40
11.0
 40
11.0
 40
12.0
 40
12.0
 40
12.0
 40
13.0
 40
13.0
 40
13.0
 40
14.0
 40
14.0
 40
14.0
 40
15.0
 40
15.0
 40
15.0
 40
16.0
 40
16.0
 40
16.0
 40
17.0
 40
17.0
 40
17.0
 40
18.0
 40
18.0
 40
18.0
 40
19.0
 40
19.0
 40
19.0
 40
20.0
 40
20.0
 40
20.0
 40
21.0
 40
21.0
 40
21.0
 40
22.0
 40
22.0
 40
22.0
 40
23.0
 40
23.0
 40
23.0
 40
24.0
 40
24.0
 40
24.0
 40
25.0
 40
25.0
 40
25.0
 40
26.0
 40
26.0
 40
26.0
 40
27.0
 40
27.0
 40
27.0
 40
28.0
 40
28.0
 40
28.0
 40
29.0
 40
29.0
 40
29.0
 40
30.0
 40
30.0
 40
30.0
 40
31.0
 40
31.0
 40
31.0
 40
32.0
 40
32.0
 40
32.0
 40
33.0
 40
33.0
 40
33.0
 40
34.0
 40
34.0
 40
34.0
 40
35.0
 40
35.0
 40
35.0
 40
36.0
 40
36.0
 40
36.0
 40
37.0
 40
37.0
 40
37.0
 40
38.0
 40
38.0
 40
38.0
 40
39.0
 40
39.0
 40
39.0
 40
40.0
 40
40.0
 40
40.0
 40
41.0
 40
41.0
 40
41.0
 40
42.0
 40
42.0
 40
42.0
 40
43.0
 40
43.0
 40
43.0
 40
44.0
 40
44.0
 40
44.0
 40
45.0
 40
45.0
 40
45.0
 40
46.0
 40
46.0
 40
46.0
 40
47.0
 40
47.0
 40
47.0
 40
48.0
 40
48.0
 40
48.0
 40
49.0
 40
49.0
 40
49.0
 40
50.0
 40
50.0
 40
50.0
 40
51.0
 40
51.0
 40
51.0
 40
52.0
 40
52.0
 40
52.0
 40
53.0
 40
53.0
 40
53.0
 40
54.0
 40
54.0
 40
54.0
 40
55.0
 40
55.0
 40
55.0
 40
56.0
 40
56.0
 40
56.0
 40
57.0
 40
57.0
 40
57.0
 40
58.0
 40
58.0
 40
58.0
 40
59.0
 40
59.0
 40
59.0
 40
60.0
 40
60.0
 40
60.0
 40
61.0
 40
61.0
 40
61.0
 40
62.0
 40
62.0
 40
62.0
 40
63.0
 40
63.0
 40
63.0
 40
64.0
 40
64.0
 40
64.0
 40
65.0
 40
65.0
 40
65.0
 40
66.0
 40
66.0
 40
66.0
 40
66.0
 10
108.7726887748901
 20
-143.1733452333039
 30
0.0
 10
108.7726887748901
 20
-143.1733452333039
 30
0.0
 10
108.2838297255332
 20
-143.1733452333039
 30
0.0
 10
108.2838297255332
 20
-143.1733452333039
 30
0.0
 10
108.274527967723
 20
-143.2177869650636
 30
0.0
 10
108.267293267204
 20
-143.2494818435279
 30
0.0
 10
108.2559244521027
 20
-143.2877224034142
 30
0.0
 10
108.2783175727568
 20
-143.2877224034142
 30
0.0
 10
108.2914089356007
 20
-143.2897894607053
 30
0.0
 10
108.2969210883771
 20
-143.2897894607053
 30
0.0
 10
108.2969210883771
 20
-143.2897894607053
 30
0.0
 10
108.4615966525721
 20
-143.2897894607053
 30
0.0
 10
108.4615966525721
 20
-143.2897894607053
 30
0.0
 10
108.4615966525721
 20
-143.2897894607053
 30
0.0
 10
108.7892252332193
 20
-143.2897894607053
 30
0.0
 10
108.7892252332193
 20
-143.2897894607053
 30
0.0
 10
108.8340114745276
 20
-143.2897894607053
 30
0.0
 10
109.0820583494656
 20
-143.2770426074099
 30
0.0
 10
109.1096191133476
 20
-143.2770426074099
 30
0.0
 10
109.1078965656049
 20
-143.3046033712919
 30
0.0
 10
109.1061740178623
 20
-143.3235513964608
 30
0.0
 10
109.1061740178623
 20
-143.3531792176339
 30
0.0
 10
109.1041069605712
 20
-143.3848740960982
 30
0.0
 10
109.1041069605712
 20
-143.5202663486685
 30
0.0
 10
109.1041069605712
 20
-143.5478271125505
 30
0.0
 10
109.1041069605712
 20
-143.5478271125505
 30
0.0
 10
109.1041069605712
 20
-143.7932901658746
 30
0.0
 10
109.1041069605712
 20
-143.7932901658746
 30
0.0
 10
109.1041069605712
 20
-143.8377318976343
 30
0.0
 10
109.1078965656049
 20
-144.0344468498421
 30
0.0
 10
109.1116861706387
 20
-144.1867200702901
 30
0.0
 10
109.1116861706387
 20
-144.1867200702901
 30
0.0
 10
108.9135931802369
 20
-144.1867200702901
 30
0.0
 10
108.9135931802369
 20
-144.1867200702901
 30
0.0
 10
108.9135931802369
 20
-144.1867200702901
 30
0.0
 10
108.9153157279795
 20
-144.1529581345347
 30
0.0
 10
108.9153157279795
 20
-144.1529581345347
 30
0.0
 10
108.9153157279795
 20
-144.1529581345347
 30
0.0
 10
108.3007106934109
 20
-144.1529581345347
 30
0.0
 10
108.3007106934109
 20
-144.1529581345347
 30
0.0
 10
108.3007106934109
 20
-144.1529581345347
 30
0.0
 10
108.3024332411535
 20
-144.1867200702901
 30
0.0
 10
108.3024332411535
 20
-144.1867200702901
 30
0.0
 10
108.3024332411535
 20
-144.1867200702901
 30
0.0
 10
108.1115749512707
 20
-144.1867200702901
 30
0.0
 10
108.1115749512707
 20
-144.1867200702901
 30
0.0
 10
108.1153645563045
 20
-144.1317707973004
 30
0.0
 10
108.1153645563045
 20
-144.1190239440049
 30
0.0
 10
108.1208767090809
 20
-144.0048190286689
 30
0.0
 10
108.122943766372
 20
-143.9772582647869
 30
0.0
 10
108.1246663141147
 20
-143.844105324282
 30
0.0
 10
108.1246663141147
 20
-143.8249850443389
 30
0.0
 10
108.1246663141147
 20
-143.8249850443389
 30
0.0
 10
108.1246663141147
 20
-143.6218966654834
 30
0.0
 10
108.1246663141147
 20
-143.6218966654834
 30
0.0
 10
108.0023654243883
 20
-143.8714938333897
 30
0.0
 10
107.8542263185225
 20
-144.0027519713778
 30
0.0
 10
107.7615532499693
 20
-144.0682087855975
 30
0.0
 10
107.7615532499693
 20
-144.0682087855975
 30
0.0
 10
107.6099690486183
 20
-143.9286824184449
 30
0.0
 10
107.6099690486183
 20
-143.9286824184449
 30
0.0
 10
107.6874836970364
 20
-143.8778672600375
 30
0.0
 10
107.8135741917966
 20
-143.7910508538092
 30
0.0
 10
107.9338080242318
 20
-143.5965752136668
 30
0.0
 10
108.0133897299411
 20
-143.4696234450353
 30
0.0
 10
108.0709228245448
 20
-143.3257907085262
 30
0.0
 10
108.1005506457179
 20
-143.1733452333039
 30
0.0
 10
107.9003905980249
 20
-143.1755845453693
 30
0.0
 10
107.7432942438975
 20
-143.181957972017
 30
0.0
 10
107.6599229331544
 20
-143.1840250293082
 30
0.0
 10
107.6599229331544
 20
-143.1840250293082
 30
0.0
 10
107.6599229331544
 20
-143.0062581022693
 30
0.0
 10
107.6599229331544
 20
-143.0062581022693
 30
0.0
 10
107.8321777074169
 20
-143.012631528917
 30
0.0
 10
108.0802245823549
 20
-143.0169378982735
 30
0.0
 10
108.2118272298915
 20
-143.0169378982735
 30
0.0
 10
108.2118272298915
 20
-143.0169378982735
 30
0.0
 10
108.398551405192
 20
-143.0169378982735
 30
0.0
 10
108.398551405192
 20
-143.0169378982735
 30
0.0
 10
108.398551405192
 20
-143.0169378982735
 30
0.0
 10
108.398551405192
 20
-142.9089341548109
 30
0.0
 10
108.398551405192
 20
-142.9089341548109
 30
0.0
 10
108.398551405192
 20
-142.9089341548109
 30
0.0
 10
108.2710828722378
 20
-142.9089341548109
 30
0.0
 10
108.2710828722378
 20
-142.9089341548109
 30
0.0
 10
108.122943766372
 20
-142.9089341548109
 30
0.0
 10
107.9748046605063
 20
-142.9132405241675
 30
0.0
 10
107.8283881023832
 20
-142.9196139508152
 30
0.0
 10
107.8283881023832
 20
-142.9196139508152
 30
0.0
 10
107.8283881023832
 20
-142.7482204504241
 30
0.0
 10
107.8283881023832
 20
-142.7482204504241
 30
0.0
 10
107.9634358454049
 20
-142.758727991654
 30
0.0
 10
108.1263888618573
 20
-142.758727991654
 30
0.0
 10
108.2710828722378
 20
-142.758727991654
 30
0.0
 10
108.2710828722378
 20
-142.758727991654
 30
0.0
 10
108.398551405192
 20
-142.758727991654
 30
0.0
 10
108.398551405192
 20
-142.758727991654
 30
0.0
 10
108.398551405192
 20
-142.758727991654
 30
0.0
 10
108.398551405192
 20
-142.6403889617357
 30
0.0
 10
108.398551405192
 20
-142.6403889617357
 30
0.0
 10
108.398551405192
 20
-142.6403889617357
 30
0.0
 10
108.2838297255332
 20
-142.6403889617357
 30
0.0
 10
108.2838297255332
 20
-142.6403889617357
 30
0.0
 10
108.2431775988072
 20
-142.6403889617357
 30
0.0
 10
108.0654106717684
 20
-142.6488294456746
 30
0.0
 10
108.0282036405276
 20
-142.6488294456746
 30
0.0
 10
107.8504367134888
 20
-142.6529635602569
 30
0.0
 10
107.7839463706234
 20
-142.655030617548
 30
0.0
 10
107.715388970467
 20
-142.6572699296134
 30
0.0
 10
107.715388970467
 20
-142.6572699296134
 30
0.0
 10
107.715388970467
 20
-142.4731295759268
 30
0.0
 10
107.715388970467
 20
-142.4731295759268
 30
0.0
 10
107.8152967395392
 20
-142.4815700598657
 30
0.0
 10
107.8542263185225
 20
-142.4815700598657
 30
0.0
 10
108.1894341092374
 20
-142.4901827985788
 30
0.0
 10
108.1339680719248
 20
-142.3949259084117
 30
0.0
 10
108.1098524035281
 20
-142.3673651445296
 30
0.0
 10
108.0781575250638
 20
-142.3313638967088
 30
0.0
 10
108.0781575250638
 20
-142.3313638967088
 30
0.0
 10
108.2321532932544
 20
-142.2488538598371
 30
0.0
 10
108.2321532932544
 20
-142.2488538598371
 30
0.0
 10
108.267293267204
 20
-142.2848551076579
 30
0.0
 10
108.3062228461873
 20
-142.3272297821265
 30
0.0
 10
108.37099064131
 20
-142.437128328106
 30
0.0
 10
108.37099064131
 20
-142.437128328106
 30
0.0
 10
108.2710828722378
 20
-142.49224985587
 30
0.0
 10
108.2710828722378
 20
-142.49224985587
 30
0.0
 10
108.2710828722378
 20
-142.49224985587
 30
0.0
 10
108.2800401204994
 20
-142.49224985587
 30
0.0
 10
108.2800401204994
 20
-142.49224985587
 30
0.0
 10
108.2800401204994
 20
-142.49224985587
 30
0.0
 10
108.7375488009406
 20
-142.49224985587
 30
0.0
 10
108.7375488009406
 20
-142.49224985587
 30
0.0
 10
108.7375488009406
 20
-142.49224985587
 30
0.0
 10
108.6541774901975
 20
-142.4478081241103
 30
0.0
 10
108.6541774901975
 20
-142.4478081241103
 30
0.0
 10
108.6782931585943
 20
-142.4097398189982
 30
0.0
 10
108.7282470431304
 20
-142.3292968394177
 30
0.0
 10
108.7413384059744
 20
-142.2552272864848
 30
0.0
 10
108.7413384059744
 20
-142.2552272864848
 30
0.0
 10
108.9284070908234
 20
-142.3187892981877
 30
0.0
 10
108.9284070908234
 20
-142.3187892981877
 30
0.0
 10
108.9356417913424
 20
-142.3208563554788
 30
0.0
 10
108.9542453069628
 20
-142.3313638967088
 30
0.0
 10
108.9542453069628
 20
-142.3525512339431
 30
0.0
 10
108.9542453069628
 20
-142.3906195390551
 30
0.0
 10
108.8967122123591
 20
-142.3906195390551
 30
0.0
 10
108.8801757540299
 20
-142.3906195390551
 30
0.0
 10
108.8708739962198
 20
-142.4097398189982
 30
0.0
 10
108.8505479328568
 20
-142.4498751814014
 30
0.0
 10
108.8247097167174
 20
-142.4901827985788
 30
0.0
 10
109.1743869084703
 20
-142.4838093719311
 30
0.0
 10
109.2005696341582
 20
-142.4815700598657
 30
0.0
 10
109.2670599770235
 20
-142.4753688879922
 30
0.0
 10
109.2670599770235
 20
-142.4753688879922
 30
0.0
 10
109.2670599770235
 20
-142.6572699296134
 30
0.0
 10
109.2670599770235
 20
-142.6572699296134
 30
0.0
 10
109.2505235186943
 20
-142.6572699296134
 30
0.0
 10
109.2281303980402
 20
-142.655030617548
 30
0.0
 10
109.0355495604147
 20
-142.6465901336092
 30
0.0
 10
108.991107828655
 20
-142.644523076318
 30
0.0
 10
108.7985269910295
 20
-142.6403889617357
 30
0.0
 10
108.7595974120462
 20
-142.6403889617357
 30
0.0
 10
108.7595974120462
 20
-142.6403889617357
 30
0.0
 10
108.5708061794545
 20
-142.6403889617357
 30
0.0
 10
108.5708061794545
 20
-142.6403889617357
 30
0.0
 10
108.5708061794545
 20
-142.6403889617357
 30
0.0
 10
108.5708061794545
 20
-142.758727991654
 30
0.0
 10
108.5708061794545
 20
-142.758727991654
 30
0.0
 10
108.5708061794545
 20
-142.758727991654
 30
0.0
 10
108.722734890354
 20
-142.758727991654
 30
0.0
 10
108.722734890354
 20
-142.758727991654
 30
0.0
 10
108.8653618434433
 20
-142.758727991654
 30
0.0
 10
109.0321044649295
 20
-142.758727991654
 30
0.0
 10
109.1688747556939
 20
-142.7482204504241
 30
0.0
 10
109.1688747556939
 20
-142.7482204504241
 30
0.0
 10
109.1688747556939
 20
-142.9196139508152
 30
0.0
 10
109.1688747556939
 20
-142.9196139508152
 30
0.0
 10
108.9855956758786
 20
-142.9111734668764
 30
0.0
 10
108.8133409016161
 20
-142.9089341548109
 30
0.0
 10
108.722734890354
 20
-142.9089341548109
 30
0.0
 10
108.722734890354
 20
-142.9089341548109
 30
0.0
 10
108.5708061794545
 20
-142.9089341548109
 30
0.0
 10
108.5708061794545
 20
-142.9089341548109
 30
0.0
 10
108.5708061794545
 20
-142.9089341548109
 30
0.0
 10
108.5708061794545
 20
-143.0169378982735
 30
0.0
 10
108.5708061794545
 20
-143.0169378982735
 30
0.0
 10
108.5708061794545
 20
-143.0169378982735
 30
0.0
 10
108.7726887748901
 20
-143.0169378982735
 30
0.0
 10
108.7726887748901
 20
-143.0169378982735
 30
0.0
 10
108.8894775118401
 20
-143.0169378982735
 30
0.0
 10
109.1413139918119
 20
-143.012631528917
 30
0.0
 10
109.3245930716272
 20
-143.0062581022693
 30
0.0
 10
109.3245930716272
 20
-143.0062581022693
 30
0.0
 10
109.3245930716272
 20
-143.1840250293082
 30
0.0
 10
109.3245930716272
 20
-143.1840250293082
 30
0.0
 10
109.1561279023984
 20
-143.1776516026604
 30
0.0
 10
108.8818983017725
 20
-143.1733452333039
 30
0.0
 10
108.7726887748901
 20
-143.1733452333039
 30
0.0
  0
HATCH
  5
C9
330
BD
100
AcDbEntity
  8
レイヤー 1
 62
   250
420
  2299925
440
 33554687
100
AcDbHatch
 10
0.0
 20
0.0
 30
0.0
210
0.0
220
0.0
230
1.0
  2
SOLID
 70
     1
 71
     1
 91
        4
 92
        1
 93
        1
 72
     4
 94
        3
 73
     0
 74
     0
 95
       17
 96
       13
 40
0.0
 40
0.0
 40
0.0
 40
0.0
 40
1.0
 40
1.0
 40
1.0
 40
2.0
 40
2.0
 40
2.0
 40
3.0
 40
3.0
 40
3.0
 40
4.0
 40
4.0
 40
4.0
 40
4.0
 10
108.9170382757221
 20
-143.9054280239195
 10
108.9170382757221
 20
-143.9054280239195
 10
108.2986436361198
 20
-143.9054280239195
 10
108.2986436361198
 20
-143.9054280239195
 10
108.2986436361198
 20
-143.9054280239195
 10
108.2986436361198
 20
-144.0196329392555
 10
108.2986436361198
 20
-144.0196329392555
 10
108.2986436361198
 20
-144.0196329392555
 10
108.9170382757221
 20
-144.0196329392555
 10
108.9170382757221
 20
-144.0196329392555
 10
108.9170382757221
 20
-144.0196329392555
 10
108.9170382757221
 20
-143.9054280239195
 10
108.9170382757221
 20
-143.9054280239195
 97
        0
 97
        1
330
C5
 92
        1
 93
        1
 72
     4
 94
        3
 73
     0
 74
     0
 95
       17
 96
       13
 40
0.0
 40
0.0
 40
0.0
 40
0.0
 40
1.0
 40
1.0
 40
1.0
 40
2.0
 40
2.0
 40
2.0
 40
3.0
 40
3.0
 40
3.0
 40
4.0
 40
4.0
 40
4.0
 40
4.0
 10
108.9170382757221
 20
-143.6620320278866
 10
108.9170382757221
 20
-143.6620320278866
 10
108.2986436361198
 20
-143.6620320278866
 10
108.2986436361198
 20
-143.6620320278866
 10
108.2986436361198
 20
-143.6620320278866
 10
108.2986436361198
 20
-143.7764091979969
 10
108.2986436361198
 20
-143.7764091979969
 10
108.2986436361198
 20
-143.7764091979969
 10
108.9170382757221
 20
-143.7764091979969
 10
108.9170382757221
 20
-143.7764091979969
 10
108.9170382757221
 20
-143.7764091979969
 10
108.9170382757221
 20
-143.6620320278866
 10
108.9170382757221
 20
-143.6620320278866
 97
        0
 97
        1
330
C6
 92
        1
 93
        1
 72
     4
 94
        3
 73
     0
 74
     0
 95
       17
 96
       13
 40
0.0
 40
0.0
 40
0.0
 40
0.0
 40
1.0
 40
1.0
 40
1.0
 40
2.0
 40
2.0
 40
2.0
 40
3.0
 40
3.0
 40
3.0
 40
4.0
 40
4.0
 40
4.0
 40
4.0
 10
108.9170382757221
 20
-143.4293158278579
 10
108.9170382757221
 20
-143.4293158278579
 10
108.2986436361198
 20
-143.4293158278579
 10
108.2986436361198
 20
-143.4293158278579
 10
108.2986436361198
 20
-143.4293158278579
 10
108.2986436361198
 20
-143.5373195713205
 10
108.2986436361198
 20
-143.5373195713205
 10
108.2986436361198
 20
-143.5373195713205
 10
108.9170382757221
 20
-143.5373195713205
 10
108.9170382757221
 20
-143.5373195713205
 10
108.9170382757221
 20
-143.5373195713205
 10
108.9170382757221
 20
-143.4293158278579
 10
108.9170382757221
 20
-143.4293158278579
 97
        0
 97
        1
330
C7
 92
        1
 93
        1
 72
     4
 94
        3
 73
     0
 74
     0
 95
      203
 96
      199
 40
0.0
 40
0.0
 40
0.0
 40
0.0
 40
1.0
 40
1.0
 40
1.0
 40
2.0
 40
2.0
 40
2.0
 40
3.0
 40
3.0
 40
3.0
 40
4.0
 40
4.0
 40
4.0
 40
5.0
 40
5.0
 40
5.0
 40
6.0
 40
6.0
 40
6.0
 40
7.0
 40
7.0
 40
7.0
 40
8.0
 40
8.0
 40
8.0
 40
9.0
 40
9.0
 40
9.0
 40
10.0
 40
10.0
 40
10.0
 40
11.0
 40
11.0
 40
11.0
 40
12.0
 40
12.0
 40
12.0
 40
13.0
 40
13.0
 40
13.0
 40
14.0
 40
14.0
 40
14.0
 40
15.0
 40
15.0
 40
15.0
 40
16.0
 40
16.0
 40
16.0
 40
17.0
 40
17.0
 40
17.0
 40
18.0
 40
18.0
 40
18.0
 40
19.0
 40
19.0
 40
19.0
 40
20.0
 40
20.0
 40
20.0
 40
21.0
 40
21.0
 40
21.0
 40
22.0
 40
22.0
 40
22.0
 40
23.0
 40
23.0
 40
23.0
 40
24.0
 40
24.0
 40
24.0
 40
25.0
 40
25.0
 40
25.0
 40
26.0
 40
26.0
 40
26.0
 40
27.0
 40
27.0
 40
27.0
 40
28.0
 40
28.0
 40
28.0
 40
29.0
 40
29.0
 40
29.0
 40
30.0
 40
30.0
 40
30.0
 40
31.0
 40
31.0
 40
31.0
 40
32.0
 40
32.0
 40
32.0
 40
33.0
 40
33.0
 40
33.0
 40
34.0
 40
34.0
 40
34.0
 40
35.0
 40
35.0
 40
35.0
 40
36.0
 40
36.0
 40
36.0
 40
37.0
 40
37.0
 40
37.0
 40
38.0
 40
38.0
 40
38.0
 40
39.0
 40
39.0
 40
39.0
 40
40.0
 40
40.0
 40
40.0
 40
41.0
 40
41.0
 40
41.0
 40
42.0
 40
42.0
 40
42.0
 40
43.0
 40
43.0
 40
43.0
 40
44.0
 40
44.0
 40
44.0
 40
45.0
 40
45.0
 40
45.0
 40
46.0
 40
46.0
 40
46.0
 40
47.0
 40
47.0
 40
47.0
 40
48.0
 40
48.0
 40
48.0
 40
49.0
 40
49.0
 40
49.0
 40
50.0
 40
50.0
 40
50.0
 40
51.0
 40
51.0
 40
51.0
 40
52.0
 40
52.0
 40
52.0
 40
53.0
 40
53.0
 40
53.0
 40
54.0
 40
54.0
 40
54.0
 40
55.0
 40
55.0
 40
55.0
 40
56.0
 40
56.0
 40
56.0
 40
57.0
 40
57.0
 40
57.0
 40
58.0
 40
58.0
 40
58.0
 40
59.0
 40
59.0
 40
59.0
 40
60.0
 40
60.0
 40
60.0
 40
61.0
 40
61.0
 40
61.0
 40
62.0
 40
62.0
 40
62.0
 40
63.0
 40
63.0
 40
63.0
 40
64.0
 40
64.0
 40
64.0
 40
65.0
 40
65.0
 40
65.0
 40
66.0
 40
66.0
 40
66.0
 40
66.0
 10
108.7726887748901
 20
-143.1733452333039
 10
108.7726887748901
 20
-143.1733452333039
 10
108.2838297255332
 20
-143.1733452333039
 10
108.2838297255332
 20
-143.1733452333039
 10
108.274527967723
 20
-143.2177869650636
 10
108.267293267204
 20
-143.2494818435279
 10
108.2559244521027
 20
-143.2877224034142
 10
108.2783175727568
 20
-143.2877224034142
 10
108.2914089356007
 20
-143.2897894607053
 10
108.2969210883771
 20
-143.2897894607053
 10
108.2969210883771
 20
-143.2897894607053
 10
108.4615966525721
 20
-143.2897894607053
 10
108.4615966525721
 20
-143.2897894607053
 10
108.4615966525721
 20
-143.2897894607053
 10
108.7892252332193
 20
-143.2897894607053
 10
108.7892252332193
 20
-143.2897894607053
 10
108.8340114745276
 20
-143.2897894607053
 10
109.0820583494656
 20
-143.2770426074099
 10
109.1096191133476
 20
-143.2770426074099
 10
109.1078965656049
 20
-143.3046033712919
 10
109.1061740178623
 20
-143.3235513964608
 10
109.1061740178623
 20
-143.3531792176339
 10
109.1041069605712
 20
-143.3848740960982
 10
109.1041069605712
 20
-143.5202663486685
 10
109.1041069605712
 20
-143.5478271125505
 10
109.1041069605712
 20
-143.5478271125505
 10
109.1041069605712
 20
-143.7932901658746
 10
109.1041069605712
 20
-143.7932901658746
 10
109.1041069605712
 20
-143.8377318976343
 10
109.1078965656049
 20
-144.0344468498421
 10
109.1116861706387
 20
-144.1867200702901
 10
109.1116861706387
 20
-144.1867200702901
 10
108.9135931802369
 20
-144.1867200702901
 10
108.9135931802369
 20
-144.1867200702901
 10
108.9135931802369
 20
-144.1867200702901
 10
108.9153157279795
 20
-144.1529581345347
 10
108.9153157279795
 20
-144.1529581345347
 10
108.9153157279795
 20
-144.1529581345347
 10
108.3007106934109
 20
-144.1529581345347
 10
108.3007106934109
 20
-144.1529581345347
 10
108.3007106934109
 20
-144.1529581345347
 10
108.3024332411535
 20
-144.1867200702901
 10
108.3024332411535
 20
-144.1867200702901
 10
108.3024332411535
 20
-144.1867200702901
 10
108.1115749512707
 20
-144.1867200702901
 10
108.1115749512707
 20
-144.1867200702901
 10
108.1153645563045
 20
-144.1317707973004
 10
108.1153645563045
 20
-144.1190239440049
 10
108.1208767090809
 20
-144.0048190286689
 10
108.122943766372
 20
-143.9772582647869
 10
108.1246663141147
 20
-143.844105324282
 10
108.1246663141147
 20
-143.8249850443389
 10
108.1246663141147
 20
-143.8249850443389
 10
108.1246663141147
 20
-143.6218966654834
 10
108.1246663141147
 20
-143.6218966654834
 10
108.0023654243883
 20
-143.8714938333897
 10
107.8542263185225
 20
-144.0027519713778
 10
107.7615532499693
 20
-144.0682087855975
 10
107.7615532499693
 20
-144.0682087855975
 10
107.6099690486183
 20
-143.9286824184449
 10
107.6099690486183
 20
-143.9286824184449
 10
107.6874836970364
 20
-143.8778672600375
 10
107.8135741917966
 20
-143.7910508538092
 10
107.9338080242318
 20
-143.5965752136668
 10
108.0133897299411
 20
-143.4696234450353
 10
108.0709228245448
 20
-143.3257907085262
 10
108.1005506457179
 20
-143.1733452333039
 10
107.9003905980249
 20
-143.1755845453693
 10
107.7432942438975
 20
-143.181957972017
 10
107.6599229331544
 20
-143.1840250293082
 10
107.6599229331544
 20
-143.1840250293082
 10
107.6599229331544
 20
-143.0062581022693
 10
107.6599229331544
 20
-143.0062581022693
 10
107.8321777074169
 20
-143.012631528917
 10
108.0802245823549
 20
-143.0169378982735
 10
108.2118272298915
 20
-143.0169378982735
 10
108.2118272298915
 20
-143.0169378982735
 10
108.398551405192
 20
-143.0169378982735
 10
108.398551405192
 20
-143.0169378982735
 10
108.398551405192
 20
-143.0169378982735
 10
108.398551405192
 20
-142.9089341548109
 10
108.398551405192
 20
-142.9089341548109
 10
108.398551405192
 20
-142.9089341548109
 10
108.2710828722378
 20
-142.9089341548109
 10
108.2710828722378
 20
-142.9089341548109
 10
108.122943766372
 20
-142.9089341548109
 10
107.9748046605063
 20
-142.9132405241675
 10
107.8283881023832
 20
-142.9196139508152
 10
107.8283881023832
 20
-142.9196139508152
 10
107.8283881023832
 20
-142.7482204504241
 10
107.8283881023832
 20
-142.7482204504241
 10
107.9634358454049
 20
-142.758727991654
 10
108.1263888618573
 20
-142.758727991654
 10
108.2710828722378
 20
-142.758727991654
 10
108.2710828722378
 20
-142.758727991654
 10
108.398551405192
 20
-142.758727991654
 10
108.398551405192
 20
-142.758727991654
 10
108.398551405192
 20
-142.758727991654
 10
108.398551405192
 20
-142.6403889617357
 10
108.398551405192
 20
-142.6403889617357
 10
108.398551405192
 20
-142.6403889617357
 10
108.2838297255332
 20
-142.6403889617357
 10
108.2838297255332
 20
-142.6403889617357
 10
108.2431775988072
 20
-142.6403889617357
 10
108.0654106717684
 20
-142.6488294456746
 10
108.0282036405276
 20
-142.6488294456746
 10
107.8504367134888
 20
-142.6529635602569
 10
107.7839463706234
 20
-142.655030617548
 10
107.715388970467
 20
-142.6572699296134
 10
107.715388970467
 20
-142.6572699296134
 10
107.715388970467
 20
-142.4731295759268
 10
107.715388970467
 20
-142.4731295759268
 10
107.8152967395392
 20
-142.4815700598657
 10
107.8542263185225
 20
-142.4815700598657
 10
108.1894341092374
 20
-142.4901827985788
 10
108.1339680719248
 20
-142.3949259084117
 10
108.1098524035281
 20
-142.3673651445296
 10
108.0781575250638
 20
-142.3313638967088
 10
108.0781575250638
 20
-142.3313638967088
 10
108.2321532932544
 20
-142.2488538598371
 10
108.2321532932544
 20
-142.2488538598371
 10
108.267293267204
 20
-142.2848551076579
 10
108.3062228461873
 20
-142.3272297821265
 10
108.37099064131
 20
-142.437128328106
 10
108.37099064131
 20
-142.437128328106
 10
108.2710828722378
 20
-142.49224985587
 10
108.2710828722378
 20
-142.49224985587
 10
108.2710828722378
 20
-142.49224985587
 10
108.2800401204994
 20
-142.49224985587
 10
108.2800401204994
 20
-142.49224985587
 10
108.2800401204994
 20
-142.49224985587
 10
108.7375488009406
 20
-142.49224985587
 10
108.7375488009406
 20
-142.49224985587
 10
108.7375488009406
 20
-142.49224985587
 10
108.6541774901975
 20
-142.4478081241103
 10
108.6541774901975
 20
-142.4478081241103
 10
108.6782931585943
 20
-142.4097398189982
 10
108.7282470431304
 20
-142.3292968394177
 10
108.7413384059744
 20
-142.2552272864848
 10
108.7413384059744
 20
-142.2552272864848
 10
108.9284070908234
 20
-142.3187892981877
 10
108.9284070908234
 20
-142.3187892981877
 10
108.9356417913424
 20
-142.3208563554788
 10
108.9542453069628
 20
-142.3313638967088
 10
108.9542453069628
 20
-142.3525512339431
 10
108.9542453069628
 20
-142.3906195390551
 10
108.8967122123591
 20
-142.3906195390551
 10
108.8801757540299
 20
-142.3906195390551
 10
108.8708739962198
 20
-142.4097398189982
 10
108.8505479328568
 20
-142.4498751814014
 10
108.8247097167174
 20
-142.4901827985788
 10
109.1743869084703
 20
-142.4838093719311
 10
109.2005696341582
 20
-142.4815700598657
 10
109.2670599770235
 20
-142.4753688879922
 10
109.2670599770235
 20
-142.4753688879922
 10
109.2670599770235
 20
-142.6572699296134
 10
109.2670599770235
 20
-142.6572699296134
 10
109.2505235186943
 20
-142.6572699296134
 10
109.2281303980402
 20
-142.655030617548
 10
109.0355495604147
 20
-142.6465901336092
 10
108.991107828655
 20
-142.644523076318
 10
108.7985269910295
 20
-142.6403889617357
 10
108.7595974120462
 20
-142.6403889617357
 10
108.7595974120462
 20
-142.6403889617357
 10
108.5708061794545
 20
-142.6403889617357
 10
108.5708061794545
 20
-142.6403889617357
 10
108.5708061794545
 20
-142.6403889617357
 10
108.5708061794545
 20
-142.758727991654
 10
108.5708061794545
 20
-142.758727991654
 10
108.5708061794545
 20
-142.758727991654
 10
108.722734890354
 20
-142.758727991654
 10
108.722734890354
 20
-142.758727991654
 10
108.8653618434433
 20
-142.758727991654
 10
109.0321044649295
 20
-142.758727991654
 10
109.1688747556939
 20
-142.7482204504241
 10
109.1688747556939
 20
-142.7482204504241
 10
109.1688747556939
 20
-142.9196139508152
 10
109.1688747556939
 20
-142.9196139508152
 10
108.9855956758786
 20
-142.9111734668764
 10
108.8133409016161
 20
-142.9089341548109
 10
108.722734890354
 20
-142.9089341548109
 10
108.722734890354
 20
-142.9089341548109
 10
108.5708061794545
 20
-142.9089341548109
 10
108.5708061794545
 20
-142.9089341548109
 10
108.5708061794545
 20
-142.9089341548109
 10
108.5708061794545
 20
-143.0169378982735
 10
108.5708061794545
 20
-143.0169378982735
 10
108.5708061794545
 20
-143.0169378982735
 10
108.7726887748901
 20
-143.0169378982735
 10
108.7726887748901
 20
-143.0169378982735
 10
108.8894775118401
 20
-143.0169378982735
 10
109.1413139918119
 20
-143.012631528917
 10
109.3245930716272
 20
-143.0062581022693
 10
109.3245930716272
 20
-143.0062581022693
 10
109.3245930716272
 20
-143.1840250293082
 10
109.3245930716272
 20
-143.1840250293082
 10
109.1561279023984
 20
-143.1776516026604
 10
108.8818983017725
 20
-143.1733452333039
 10
108.7726887748901
 20
-143.1733452333039
 97
        0
 97
        1
330
C8
 75
     2
 76
     1
 98
        1
 10
0.0
 20
0.0
450
        0
451
        0
460
0.0
461
0.0
452
        0
462
0.0
453
        0
470

  0
SPLINE
  5
CA
330
BD
100
AcDbEntity
  8
レイヤー 1
100
AcDbSpline
210
0.0
220
0.0
230
1.0
 70
     9
 71
     3
 72
    29
 73
    25
 74
     0
 42
0.0000000001
 43
0.0000000001
 40
0.0
 40
0.0
 40
0.0
 40
0.0
 40
1.0
 40
1.0
 40
1.0
 40
2.0
 40
2.0
 40
2.0
 40
3.0
 40
3.0
 40
3.0
 40
4.0
 40
4.0
 40
4.0
 40
5.0
 40
5.0
 40
5.0
 40
6.0
 40
6.0
 40
6.0
 40
7.0
 40
7.0
 40
7.0
 40
8.0
 40
8.0
 40
8.0
 40
8.0
 10
110.4156548118058
 20
-142.6212686817926
 30
0.0
 10
110.4156548118058
 20
-142.6212686817926
 30
0.0
 10
110.1062852372304
 20
-142.6212686817926
 30
0.0
 10
110.1062852372304
 20
-142.6212686817926
 30
0.0
 10
110.0081000159007
 20
-142.6212686817926
 30
0.0
 10
109.8857991261744
 20
-142.6276421084403
 30
0.0
 10
109.7914035098785
 20
-142.6403889617357
 30
0.0
 10
109.7914035098785
 20
-142.6403889617357
 30
0.0
 10
109.7914035098785
 20
-142.4054334496417
 30
0.0
 10
109.7914035098785
 20
-142.4054334496417
 30
0.0
 10
109.8951008839845
 20
-142.4202473602282
 30
0.0
 10
110.0563313526942
 20
-142.4245537295848
 30
0.0
 10
110.1062852372304
 20
-142.4245537295848
 30
0.0
 10
110.1062852372304
 20
-142.4245537295848
 30
0.0
 10
110.4156548118058
 20
-142.4245537295848
 30
0.0
 10
110.4156548118058
 20
-142.4245537295848
 30
0.0
 10
110.432191270135
 20
-142.4245537295848
 30
0.0
 10
110.6099581971739
 20
-142.4245537295848
 30
0.0
 10
110.7339816346429
 20
-142.4054334496417
 30
0.0
 10
110.7339816346429
 20
-142.4054334496417
 30
0.0
 10
110.7339816346429
 20
-142.6403889617357
 30
0.0
 10
110.7339816346429
 20
-142.6403889617357
 30
0.0
 10
110.5968668343299
 20
-142.6212686817926
 30
0.0
 10
110.4304687223924
 20
-142.6212686817926
 30
0.0
 10
110.4156548118058
 20
-142.6212686817926
 30
0.0
  0
SPLINE
  5
CB
330
BD
100
AcDbEntity
  8
レイヤー 1
100
AcDbSpline
210
0.0
220
0.0
230
1.0
 70
     9
 71
     3
 72
    47
 73
    43
 74
     0
 42
0.0000000001
 43
0.0000000001
 40
0.0
 40
0.0
 40
0.0
 40
0.0
 40
1.0
 40
1.0
 40
1.0
 40
2.0
 40
2.0
 40
2.0
 40
3.0
 40
3.0
 40
3.0
 40
4.0
 40
4.0
 40
4.0
 40
5.0
 40
5.0
 40
5.0
 40
6.0
 40
6.0
 40
6.0
 40
7.0
 40
7.0
 40
7.0
 40
8.0
 40
8.0
 40
8.0
 40
9.0
 40
9.0
 40
9.0
 40
10.0
 40
10.0
 40
10.0
 40
11.0
 40
11.0
 40
11.0
 40
12.0
 40
12.0
 40
12.0
 40
13.0
 40
13.0
 40
13.0
 40
14.0
 40
14.0
 40
14.0
 40
14.0
 10
110.5045382753252
 20
-143.1500908387784
 30
0.0
 10
110.5045382753252
 20
-143.1500908387784
 30
0.0
 10
110.4156548118058
 20
-143.1500908387784
 30
0.0
 10
110.4156548118058
 20
-143.1500908387784
 30
0.0
 10
110.4156548118058
 20
-143.2369072450067
 30
0.0
 10
110.3970512961854
 20
-143.62620303484
 30
0.0
 10
110.2247965219229
 20
-143.8461723815732
 30
0.0
 10
110.0914713266438
 20
-144.0153265698989
 30
0.0
 10
109.9099147945711
 20
-144.0852620082495
 30
0.0
 10
109.8358452416382
 20
-144.1126505173572
 30
0.0
 10
109.8358452416382
 20
-144.1126505173572
 30
0.0
 10
109.6656575246669
 20
-143.9455633863226
 30
0.0
 10
109.6656575246669
 20
-143.9455633863226
 30
0.0
 10
109.7507513831526
 20
-143.9328165330272
 30
0.0
 10
109.9044026417947
 20
-143.9095621385017
 30
0.0
 10
110.0694227155382
 20
-143.7212876702328
 30
0.0
 10
110.1341905106609
 20
-143.6494574293654
 30
0.0
 10
110.2247965219229
 20
-143.5097588074385
 30
0.0
 10
110.2247965219229
 20
-143.1500908387784
 30
0.0
 10
110.2247965219229
 20
-143.1500908387784
 30
0.0
 10
110.0229139264873
 20
-143.1500908387784
 30
0.0
 10
110.0229139264873
 20
-143.1500908387784
 30
0.0
 10
109.859960910035
 20
-143.1500908387784
 30
0.0
 10
109.6970078935827
 20
-143.154397208135
 30
0.0
 10
109.5340548771304
 20
-143.1692111187216
 30
0.0
 10
109.5340548771304
 20
-143.1692111187216
 30
0.0
 10
109.5340548771304
 20
-142.9492417719884
 30
0.0
 10
109.5340548771304
 20
-142.9492417719884
 30
0.0
 10
109.6987304413253
 20
-142.9640556825749
 30
0.0
 10
109.9488443735545
 20
-142.9681897971572
 30
0.0
 10
110.0229139264873
 20
-142.9681897971572
 30
0.0
 10
110.0229139264873
 20
-142.9681897971572
 30
0.0
 10
110.5045382753252
 20
-142.9681897971572
 30
0.0
 10
110.5045382753252
 20
-142.9681897971572
 30
0.0
 10
110.5210747336544
 20
-142.9681897971572
 30
0.0
 10
110.7987494297656
 20
-142.9681897971572
 30
0.0
 10
110.9989094774586
 20
-142.9492417719884
 30
0.0
 10
110.9989094774586
 20
-142.9492417719884
 30
0.0
 10
110.9989094774586
 20
-143.1692111187216
 30
0.0
 10
110.9989094774586
 20
-143.1692111187216
 30
0.0
 10
110.8338894037151
 20
-143.154397208135
 30
0.0
 10
110.6692138395202
 20
-143.1500908387784
 30
0.0
 10
110.5045382753252
 20
-143.1500908387784
 30
0.0
  0
HATCH
  5
CC
330
BD
100
AcDbEntity
  8
レイヤー 1
 62
   250
420
  2299925
440
 33554687
100
AcDbHatch
 10
0.0
 20
0.0
 30
0.0
210
0.0
220
0.0
230
1.0
  2
SOLID
 70
     1
 71
     1
 91
        2
 92
        1
 93
        1
 72
     4
 94
        3
 73
     0
 74
     0
 95
       29
 96
       25
 40
0.0
 40
0.0
 40
0.0
 40
0.0
 40
1.0
 40
1.0
 40
1.0
 40
2.0
 40
2.0
 40
2.0
 40
3.0
 40
3.0
 40
3.0
 40
4.0
 40
4.0
 40
4.0
 40
5.0
 40
5.0
 40
5.0
 40
6.0
 40
6.0
 40
6.0
 40
7.0
 40
7.0
 40
7.0
 40
8.0
 40
8.0
 40
8.0
 40
8.0
 10
110.4156548118058
 20
-142.6212686817926
 10
110.4156548118058
 20
-142.6212686817926
 10
110.1062852372304
 20
-142.6212686817926
 10
110.1062852372304
 20
-142.6212686817926
 10
110.0081000159007
 20
-142.6212686817926
 10
109.8857991261744
 20
-142.6276421084403
 10
109.7914035098785
 20
-142.6403889617357
 10
109.7914035098785
 20
-142.6403889617357
 10
109.7914035098785
 20
-142.4054334496417
 10
109.7914035098785
 20
-142.4054334496417
 10
109.8951008839845
 20
-142.4202473602282
 10
110.0563313526942
 20
-142.4245537295848
 10
110.1062852372304
 20
-142.4245537295848
 10
110.1062852372304
 20
-142.4245537295848
 10
110.4156548118058
 20
-142.4245537295848
 10
110.4156548118058
 20
-142.4245537295848
 10
110.432191270135
 20
-142.4245537295848
 10
110.6099581971739
 20
-142.4245537295848
 10
110.7339816346429
 20
-142.4054334496417
 10
110.7339816346429
 20
-142.4054334496417
 10
110.7339816346429
 20
-142.6403889617357
 10
110.7339816346429
 20
-142.6403889617357
 10
110.5968668343299
 20
-142.6212686817926
 10
110.4304687223924
 20
-142.6212686817926
 10
110.4156548118058
 20
-142.6212686817926
 97
        0
 97
        1
330
CA
 92
        1
 93
        1
 72
     4
 94
        3
 73
     0
 74
     0
 95
       47
 96
       43
 40
0.0
 40
0.0
 40
0.0
 40
0.0
 40
1.0
 40
1.0
 40
1.0
 40
2.0
 40
2.0
 40
2.0
 40
3.0
 40
3.0
 40
3.0
 40
4.0
 40
4.0
 40
4.0
 40
5.0
 40
5.0
 40
5.0
 40
6.0
 40
6.0
 40
6.0
 40
7.0
 40
7.0
 40
7.0
 40
8.0
 40
8.0
 40
8.0
 40
9.0
 40
9.0
 40
9.0
 40
10.0
 40
10.0
 40
10.0
 40
11.0
 40
11.0
 40
11.0
 40
12.0
 40
12.0
 40
12.0
 40
13.0
 40
13.0
 40
13.0
 40
14.0
 40
14.0
 40
14.0
 40
14.0
 10
110.5045382753252
 20
-143.1500908387784
 10
110.5045382753252
 20
-143.1500908387784
 10
110.4156548118058
 20
-143.1500908387784
 10
110.4156548118058
 20
-143.1500908387784
 10
110.4156548118058
 20
-143.2369072450067
 10
110.3970512961854
 20
-143.62620303484
 10
110.2247965219229
 20
-143.8461723815732
 10
110.0914713266438
 20
-144.0153265698989
 10
109.9099147945711
 20
-144.0852620082495
 10
109.8358452416382
 20
-144.1126505173572
 10
109.8358452416382
 20
-144.1126505173572
 10
109.6656575246669
 20
-143.9455633863226
 10
109.6656575246669
 20
-143.9455633863226
 10
109.7507513831526
 20
-143.9328165330272
 10
109.9044026417947
 20
-143.9095621385017
 10
110.0694227155382
 20
-143.7212876702328
 10
110.1341905106609
 20
-143.6494574293654
 10
110.2247965219229
 20
-143.5097588074385
 10
110.2247965219229
 20
-143.1500908387784
 10
110.2247965219229
 20
-143.1500908387784
 10
110.0229139264873
 20
-143.1500908387784
 10
110.0229139264873
 20
-143.1500908387784
 10
109.859960910035
 20
-143.1500908387784
 10
109.6970078935827
 20
-143.154397208135
 10
109.5340548771304
 20
-143.1692111187216
 10
109.5340548771304
 20
-143.1692111187216
 10
109.5340548771304
 20
-142.9492417719884
 10
109.5340548771304
 20
-142.9492417719884
 10
109.6987304413253
 20
-142.9640556825749
 10
109.9488443735545
 20
-142.9681897971572
 10
110.0229139264873
 20
-142.9681897971572
 10
110.0229139264873
 20
-142.9681897971572
 10
110.5045382753252
 20
-142.9681897971572
 10
110.5045382753252
 20
-142.9681897971572
 10
110.5210747336544
 20
-142.9681897971572
 10
110.7987494297656
 20
-142.9681897971572
 10
110.9989094774586
 20
-142.9492417719884
 10
110.9989094774586
 20
-142.9492417719884
 10
110.9989094774586
 20
-143.1692111187216
 10
110.9989094774586
 20
-143.1692111187216
 10
110.8338894037151
 20
-143.154397208135
 10
110.6692138395202
 20
-143.1500908387784
 10
110.5045382753252
 20
-143.1500908387784
 97
        0
 97
        1
330
CB
 75
     2
 76
     1
 98
        1
 10
0.0
 20
0.0
450
        0
451
        0
460
0.0
461
0.0
452
        0
462
0.0
453
        0
470

  0
SPLINE
  5
CD
330
BD
100
AcDbEntity
  8
レイヤー 1
100
AcDbSpline
210
0.0
220
0.0
230
1.0
 70
     9
 71
     3
 72
    29
 73
    25
 74
     0
 42
0.0000000001
 43
0.0000000001
 40
0.0
 40
0.0
 40
0.0
 40
0.0
 40
1.0
 40
1.0
 40
1.0
 40
2.0
 40
2.0
 40
2.0
 40
3.0
 40
3.0
 40
3.0
 40
4.0
 40
4.0
 40
4.0
 40
5.0
 40
5.0
 40
5.0
 40
6.0
 40
6.0
 40
6.0
 40
7.0
 40
7.0
 40
7.0
 40
8.0
 40
8.0
 40
8.0
 40
8.0
 10
112.121321586553
 20
-143.3130438552308
 30
0.0
 10
112.121321586553
 20
-143.3130438552308
 30
0.0
 10
111.6972303323187
 20
-143.3130438552308
 30
0.0
 10
111.6972303323187
 20
-143.3130438552308
 30
0.0
 10
111.673114663922
 20
-143.3130438552308
 30
0.0
 10
111.3950954582623
 20
-143.3130438552308
 30
0.0
 10
111.2100938307044
 20
-143.3383653070473
 30
0.0
 10
111.2100938307044
 20
-143.3383653070473
 30
0.0
 10
111.2100938307044
 20
-143.1078884190841
 30
0.0
 10
111.2100938307044
 20
-143.1078884190841
 30
0.0
 10
111.34893117876
 20
-143.1311428136096
 30
0.0
 10
111.5156738002461
 20
-143.1332098709007
 30
0.0
 10
111.6972303323187
 20
-143.1332098709007
 30
0.0
 10
111.6972303323187
 20
-143.1332098709007
 30
0.0
 10
112.121321586553
 20
-143.1332098709007
 30
0.0
 10
112.121321586553
 20
-143.1332098709007
 30
0.0
 10
112.2839300934568
 20
-143.1332098709007
 30
0.0
 10
112.4472276194576
 20
-143.1311428136096
 30
0.0
 10
112.6081135786188
 20
-143.1078884190841
 30
0.0
 10
112.6081135786188
 20
-143.1078884190841
 30
0.0
 10
112.6081135786188
 20
-143.3383653070473
 30
0.0
 10
112.6081135786188
 20
-143.3383653070473
 30
0.0
 10
112.4472276194576
 20
-143.3151109125219
 30
0.0
 10
112.2305311134354
 20
-143.3130438552308
 30
0.0
 10
112.121321586553
 20
-143.3130438552308
 30
0.0
  0
HATCH
  5
CE
330
BD
100
AcDbEntity
  8
レイヤー 1
 62
   250
420
  2299925
440
 33554687
100
AcDbHatch
 10
0.0
 20
0.0
 30
0.0
210
0.0
220
0.0
230
1.0
  2
SOLID
 70
     1
 71
     1
 91
        1
 92
        1
 93
        1
 72
     4
 94
        3
 73
     0
 74
     0
 95
       29
 96
       25
 40
0.0
 40
0.0
 40
0.0
 40
0.0
 40
1.0
 40
1.0
 40
1.0
 40
2.0
 40
2.0
 40
2.0
 40
3.0
 40
3.0
 40
3.0
 40
4.0
 40
4.0
 40
4.0
 40
5.0
 40
5.0
 40
5.0
 40
6.0
 40
6.0
 40
6.0
 40
7.0
 40
7.0
 40
7.0
 40
8.0
 40
8.0
 40
8.0
 40
8.0
 10
112.121321586553
 20
-143.3130438552308
 10
112.121321586553
 20
-143.3130438552308
 10
111.6972303323187
 20
-143.3130438552308
 10
111.6972303323187
 20
-143.3130438552308
 10
111.673114663922
 20
-143.3130438552308
 10
111.3950954582623
 20
-143.3130438552308
 10
111.2100938307044
 20
-143.3383653070473
 10
111.2100938307044
 20
-143.3383653070473
 10
111.2100938307044
 20
-143.1078884190841
 10
111.2100938307044
 20
-143.1078884190841
 10
111.34893117876
 20
-143.1311428136096
 10
111.5156738002461
 20
-143.1332098709007
 10
111.6972303323187
 20
-143.1332098709007
 10
111.6972303323187
 20
-143.1332098709007
 10
112.121321586553
 20
-143.1332098709007
 10
112.121321586553
 20
-143.1332098709007
 10
112.2839300934568
 20
-143.1332098709007
 10
112.4472276194576
 20
-143.1311428136096
 10
112.6081135786188
 20
-143.1078884190841
 10
112.6081135786188
 20
-143.1078884190841
 10
112.6081135786188
 20
-143.3383653070473
 10
112.6081135786188
 20
-143.3383653070473
 10
112.4472276194576
 20
-143.3151109125219
 10
112.2305311134354
 20
-143.3130438552308
 10
112.121321586553
 20
-143.3130438552308
 97
        0
 97
        1
330
CD
 75
     2
 76
     1
 98
        1
 10
0.0
 20
0.0
450
        0
451
        0
460
0.0
461
0.0
452
        0
462
0.0
453
        0
470

  0
SPLINE
  5
CF
330
BD
100
AcDbEntity
  8
レイヤー 1
100
AcDbSpline
210
0.0
220
0.0
230
1.0
 70
     9
 71
     3
 72
    17
 73
    13
 74
     0
 42
0.0000000001
 43
0.0000000001
 40
0.0
 40
0.0
 40
0.0
 40
0.0
 40
1.0
 40
1.0
 40
1.0
 40
2.0
 40
2.0
 40
2.0
 40
3.0
 40
3.0
 40
3.0
 40
4.0
 40
4.0
 40
4.0
 40
4.0
 10
114.2397108004331
 20
-142.3461778072954
 30
0.0
 10
114.1914794636396
 20
-142.3461778072954
 30
0.0
 10
114.1525498846563
 20
-142.3906195390551
 30
0.0
 10
114.1525498846563
 20
-142.4457410668191
 30
0.0
 10
114.1525498846563
 20
-142.5027573971
 30
0.0
 10
114.1914794636396
 20
-142.5515054982163
 30
0.0
 10
114.2435004054669
 20
-142.5515054982163
 30
0.0
 10
114.2951768377456
 20
-142.5515054982163
 30
0.0
 10
114.3303168116952
 20
-142.5006903398088
 30
0.0
 10
114.3303168116952
 20
-142.4478081241103
 30
0.0
 10
114.3303168116952
 20
-142.3906195390551
 30
0.0
 10
114.2896646849692
 20
-142.3461778072954
 30
0.0
 10
114.2397108004331
 20
-142.3461778072954
 30
0.0
  0
SPLINE
  5
D0
330
BD
100
AcDbEntity
  8
レイヤー 1
100
AcDbSpline
210
0.0
220
0.0
230
1.0
 70
     9
 71
     3
 72
    17
 73
    13
 74
     0
 42
0.0000000001
 43
0.0000000001
 40
0.0
 40
0.0
 40
0.0
 40
0.0
 40
1.0
 40
1.0
 40
1.0
 40
2.0
 40
2.0
 40
2.0
 40
3.0
 40
3.0
 40
3.0
 40
4.0
 40
4.0
 40
4.0
 40
4.0
 10
114.2414333481757
 20
-142.6762179547823
 30
0.0
 10
114.1305012735507
 20
-142.6762179547823
 30
0.0
 10
114.0416178100313
 20
-142.5747598927417
 30
0.0
 10
114.0416178100313
 20
-142.4478081241103
 30
0.0
 10
114.0416178100313
 20
-142.3208563554788
 30
0.0
 10
114.1305012735507
 20
-142.2171589813728
 30
0.0
 10
114.2414333481757
 20
-142.2171589813728
 30
0.0
 10
114.3527099323493
 20
-142.2171589813728
 30
0.0
 10
114.4433159436114
 20
-142.3208563554788
 30
0.0
 10
114.4433159436114
 20
-142.4478081241103
 30
0.0
 10
114.4433159436114
 20
-142.5747598927417
 30
0.0
 10
114.3527099323493
 20
-142.6762179547823
 30
0.0
 10
114.2414333481757
 20
-142.6762179547823
 30
0.0
  0
SPLINE
  5
D1
330
BD
100
AcDbEntity
  8
レイヤー 1
100
AcDbSpline
210
0.0
220
0.0
230
1.0
 70
     9
 71
     3
 72
    44
 73
    40
 74
     0
 42
0.0000000001
 43
0.0000000001
 40
0.0
 40
0.0
 40
0.0
 40
0.0
 40
1.0
 40
1.0
 40
1.0
 40
2.0
 40
2.0
 40
2.0
 40
3.0
 40
3.0
 40
3.0
 40
4.0
 40
4.0
 40
4.0
 40
5.0
 40
5.0
 40
5.0
 40
6.0
 40
6.0
 40
6.0
 40
7.0
 40
7.0
 40
7.0
 40
8.0
 40
8.0
 40
8.0
 40
9.0
 40
9.0
 40
9.0
 40
10.0
 40
10.0
 40
10.0
 40
11.0
 40
11.0
 40
11.0
 40
12.0
 40
12.0
 40
12.0
 40
13.0
 40
13.0
 40
13.0
 40
13.0
 10
114.0581542683605
 20
-142.8751722190555
 30
0.0
 10
113.9599690470308
 20
-143.2432806716545
 30
0.0
 10
113.9155273152711
 20
-143.4019273187502
 30
0.0
 10
113.7432725410086
 20
-143.6515244866565
 30
0.0
 10
113.5823865818474
 20
-143.882173629394
 30
0.0
 10
113.3749918336354
 20
-144.0682087855975
 30
0.0
 10
113.1303900541827
 20
-144.1613986184735
 30
0.0
 10
113.1303900541827
 20
-144.1613986184735
 30
0.0
 10
112.961924884954
 20
-143.9815646341435
 30
0.0
 10
112.961924884954
 20
-143.9815646341435
 30
0.0
 10
113.5231309395011
 20
-143.8292914136954
 30
0.0
 10
113.8118299411651
 20
-143.2729084928276
 30
0.0
 10
113.8672959784776
 20
-142.8327975445869
 30
0.0
 10
113.8672959784776
 20
-142.8327975445869
 30
0.0
 10
113.1972249065965
 20
-142.8327975445869
 30
0.0
 10
113.1972249065965
 20
-142.8327975445869
 30
0.0
 10
113.1155761435961
 20
-142.8327975445869
 30
0.0
 10
112.9546901844349
 20
-142.8371039139435
 30
0.0
 10
112.817575384122
 20
-142.8560519391123
 30
0.0
 10
112.817575384122
 20
-142.8560519391123
 30
0.0
 10
112.817575384122
 20
-142.6360825923792
 30
0.0
 10
112.817575384122
 20
-142.6360825923792
 30
0.0
 10
112.8933674847975
 20
-142.6572699296134
 30
0.0
 10
113.1138535958535
 20
-142.6572699296134
 30
0.0
 10
113.2010145116303
 20
-142.6572699296134
 30
0.0
 10
113.2010145116303
 20
-142.6572699296134
 30
0.0
 10
113.5785969768137
 20
-142.6572699296134
 30
0.0
 10
113.5785969768137
 20
-142.6572699296134
 30
0.0
 10
113.6158040080543
 20
-142.6572699296134
 30
0.0
 10
113.8211316989752
 20
-142.655030617548
 30
0.0
 10
113.8545491251822
 20
-142.6488294456746
 30
0.0
 10
113.8914116468743
 20
-142.6424560190269
 30
0.0
 10
113.8934787041655
 20
-142.6403889617357
 30
0.0
 10
113.9472221937354
 20
-142.6000813445583
 30
0.0
 10
113.9472221937354
 20
-142.6000813445583
 30
0.0
 10
114.1118977579303
 20
-142.7545938770718
 30
0.0
 10
114.1118977579303
 20
-142.7545938770718
 30
0.0
 10
114.086059541791
 20
-142.7842216982449
 30
0.0
 10
114.072968178947
 20
-142.8159165767092
 30
0.0
 10
114.0581542683605
 20
-142.8751722190555
 30
0.0
  0
HATCH
  5
D2
330
BD
100
AcDbEntity
  8
レイヤー 1
 62
   250
420
  2299925
440
 33554687
100
AcDbHatch
 10
0.0
 20
0.0
 30
0.0
210
0.0
220
0.0
230
1.0
  2
SOLID
 70
     1
 71
     1
 91
        3
 92
        1
 93
        1
 72
     4
 94
        3
 73
     0
 74
     0
 95
       17
 96
       13
 40
0.0
 40
0.0
 40
0.0
 40
0.0
 40
1.0
 40
1.0
 40
1.0
 40
2.0
 40
2.0
 40
2.0
 40
3.0
 40
3.0
 40
3.0
 40
4.0
 40
4.0
 40
4.0
 40
4.0
 10
114.2397108004331
 20
-142.3461778072954
 10
114.1914794636396
 20
-142.3461778072954
 10
114.1525498846563
 20
-142.3906195390551
 10
114.1525498846563
 20
-142.4457410668191
 10
114.1525498846563
 20
-142.5027573971
 10
114.1914794636396
 20
-142.5515054982163
 10
114.2435004054669
 20
-142.5515054982163
 10
114.2951768377456
 20
-142.5515054982163
 10
114.3303168116952
 20
-142.5006903398088
 10
114.3303168116952
 20
-142.4478081241103
 10
114.3303168116952
 20
-142.3906195390551
 10
114.2896646849692
 20
-142.3461778072954
 10
114.2397108004331
 20
-142.3461778072954
 97
        0
 97
        1
330
CF
 92
        1
 93
        1
 72
     4
 94
        3
 73
     0
 74
     0
 95
       17
 96
       13
 40
0.0
 40
0.0
 40
0.0
 40
0.0
 40
1.0
 40
1.0
 40
1.0
 40
2.0
 40
2.0
 40
2.0
 40
3.0
 40
3.0
 40
3.0
 40
4.0
 40
4.0
 40
4.0
 40
4.0
 10
114.2414333481757
 20
-142.6762179547823
 10
114.1305012735507
 20
-142.6762179547823
 10
114.0416178100313
 20
-142.5747598927417
 10
114.0416178100313
 20
-142.4478081241103
 10
114.0416178100313
 20
-142.3208563554788
 10
114.1305012735507
 20
-142.2171589813728
 10
114.2414333481757
 20
-142.2171589813728
 10
114.3527099323493
 20
-142.2171589813728
 10
114.4433159436114
 20
-142.3208563554788
 10
114.4433159436114
 20
-142.4478081241103
 10
114.4433159436114
 20
-142.5747598927417
 10
114.3527099323493
 20
-142.6762179547823
 10
114.2414333481757
 20
-142.6762179547823
 97
        0
 97
        1
330
D0
 92
        1
 93
        1
 72
     4
 94
        3
 73
     0
 74
     0
 95
       44
 96
       40
 40
0.0
 40
0.0
 40
0.0
 40
0.0
 40
1.0
 40
1.0
 40
1.0
 40
2.0
 40
2.0
 40
2.0
 40
3.0
 40
3.0
 40
3.0
 40
4.0
 40
4.0
 40
4.0
 40
5.0
 40
5.0
 40
5.0
 40
6.0
 40
6.0
 40
6.0
 40
7.0
 40
7.0
 40
7.0
 40
8.0
 40
8.0
 40
8.0
 40
9.0
 40
9.0
 40
9.0
 40
10.0
 40
10.0
 40
10.0
 40
11.0
 40
11.0
 40
11.0
 40
12.0
 40
12.0
 40
12.0
 40
13.0
 40
13.0
 40
13.0
 40
13.0
 10
114.0581542683605
 20
-142.8751722190555
 10
113.9599690470308
 20
-143.2432806716545
 10
113.9155273152711
 20
-143.4019273187502
 10
113.7432725410086
 20
-143.6515244866565
 10
113.5823865818474
 20
-143.882173629394
 10
113.3749918336354
 20
-144.0682087855975
 10
113.1303900541827
 20
-144.1613986184735
 10
113.1303900541827
 20
-144.1613986184735
 10
112.961924884954
 20
-143.9815646341435
 10
112.961924884954
 20
-143.9815646341435
 10
113.5231309395011
 20
-143.8292914136954
 10
113.8118299411651
 20
-143.2729084928276
 10
113.8672959784776
 20
-142.8327975445869
 10
113.8672959784776
 20
-142.8327975445869
 10
113.1972249065965
 20
-142.8327975445869
 10
113.1972249065965
 20
-142.8327975445869
 10
113.1155761435961
 20
-142.8327975445869
 10
112.9546901844349
 20
-142.8371039139435
 10
112.817575384122
 20
-142.8560519391123
 10
112.817575384122
 20
-142.8560519391123
 10
112.817575384122
 20
-142.6360825923792
 10
112.817575384122
 20
-142.6360825923792
 10
112.8933674847975
 20
-142.6572699296134
 10
113.1138535958535
 20
-142.6572699296134
 10
113.2010145116303
 20
-142.6572699296134
 10
113.2010145116303
 20
-142.6572699296134
 10
113.5785969768137
 20
-142.6572699296134
 10
113.5785969768137
 20
-142.6572699296134
 10
113.6158040080543
 20
-142.6572699296134
 10
113.8211316989752
 20
-142.655030617548
 10
113.8545491251822
 20
-142.6488294456746
 10
113.8914116468743
 20
-142.6424560190269
 10
113.8934787041655
 20
-142.6403889617357
 10
113.9472221937354
 20
-142.6000813445583
 10
113.9472221937354
 20
-142.6000813445583
 10
114.1118977579303
 20
-142.7545938770718
 10
114.1118977579303
 20
-142.7545938770718
 10
114.086059541791
 20
-142.7842216982449
 10
114.072968178947
 20
-142.8159165767092
 10
114.0581542683605
 20
-142.8751722190555
 97
        0
 97
        1
330
D1
 75
     2
 76
     1
 98
        1
 10
0.0
 20
0.0
450
        0
451
        0
460
0.0
461
0.0
452
        0
462
0.0
453
        0
470

  0
ENDBLK
  5
C0
330
BD
100
AcDbEntity
  8
0
100
AcDbBlockEnd
  0
ENDSEC
  0
SECTION
  2
ENTITIES
  0
INSERT
  5
7A
330
70
100
AcDbEntity
  8
レイヤー 1
100
AcDbBlockReference
  2
Block_0
 10
0.0
 20
0.0
 30
0.0
  0
LINE
  5
B3
330
70
100
AcDbEntity
  8
レイヤー 1
 62
   250
420
  2299925
370
     9
100
AcDbLine
 10
100.351571471224
 20
-143.195332529628
 30
0.0
 11
105.3723741275965
 21
-143.195332529628
 31
0.0
  0
LINE
  5
B4
330
70
100
AcDbEntity
  8
レイヤー 1
 62
   250
420
  2299925
370
     9
100
AcDbLine
 10
100.3515713732995
 20
-143.195332529628
 30
0.0
 11
101.3175827375434
 21
-142.9362525296926
 31
0.0
  0
LINE
  5
B5
330
70
100
AcDbEntity
  8
レイヤー 1
 62
   250
420
  2299925
370
     9
100
AcDbLine
 10
100.3515713732995
 20
-143.195332529628
 30
0.0
 11
101.3175827375434
 21
-143.4540244740077
 31
0.0
  0
LINE
  5
B6
330
70
100
AcDbEntity
  8
レイヤー 1
 62
   250
420
  2299925
370
     9
100
AcDbLine
 10
108.7129984074347
 20
-151.6347817621869
 30
0.0
 11
108.971725623055
 21
-150.6688056513173
 31
0.0
  0
LINE
  5
B7
330
70
100
AcDbEntity
  8
レイヤー 1
 62
   250
420
  2299925
370
     9
100
AcDbLine
 10
108.7129984074347
 20
-151.634781711365
 30
0.0
 11
108.7129984074347
 21
-144.6684330662125
 31
0.0
  0
LINE
  5
B8
330
70
100
AcDbEntity
  8
レイヤー 1
 62
   250
420
  2299925
370
     9
100
AcDbLine
 10
108.7129984074347
 20
-151.6347817621869
 30
0.0
 11
108.4539536918213
 21
-150.6688056513173
 31
0.0
  0
INSERT
  5
BA
330
70
100
AcDbEntity
  8
レイヤー 1
100
AcDbBlockReference
  2
Block_6
 10
0.0
 20
0.0
 30
0.0
  0
LINE
  5
D3
330
70
100
AcDbEntity
  8
レイヤー 1
  6
AI-Linetype-0
 62
   154
420
    23468
370
    25
100
AcDbLine
 10
99.92759163170447
 20
-141.1941013569752
 30
0.0
 11
99.92759163170447
 21
-149.194101354975
 31
0.0
  0
LINE
  5
D5
330
70
100
AcDbEntity
  8
レイヤー 1
  6
AI-Linetype-1
 62
   154
420
    23468
370
    25
100
AcDbLine
 10
102.712797009986
 20
-152.0211614076651
 30
0.0
 11
110.7127970079864
 21
-152.0211614076651
 31
0.0
  0
ENDSEC
  0
SECTION
  2
OBJECTS
  0
DICTIONARY
  5
C
330
0
100
AcDbDictionary
281
     1
  3
ACAD_COLOR
350
63
  3
ACAD_DETAILVIEWSTYLE
350
6A
  3
ACAD_GROUP
350
D
  3
ACAD_LAYOUT
350
62
  3
ACAD_MATERIAL
350
10
  3
ACAD_MLEADERSTYLE
350
66
  3
ACAD_MLINESTYLE
350
5F
  3
ACAD_PLOTSETTINGS
350
61
  3
ACAD_PLOTSTYLENAME
350
E
  3
ACAD_SCALELIST
350
42
  3
ACAD_SECTIONVIEWSTYLE
350
68
  3
ACAD_TABLESTYLE
350
64
  3
ACAD_VISUALSTYLE
350
29
  3
ACDB_RECOMPOSE_DATA
350
DF
  3
AcDbVariableDictionary
350
D7
  0
DICTIONARY
  5
63
102
{ACAD_REACTORS
330
C
102
}
330
C
100
AcDbDictionary
281
     1
  0
DICTIONARY
  5
6A
102
{ACAD_REACTORS
330
C
102
}
330
C
100
AcDbDictionary
281
     1
  3
Imperial24
350
6B
  0
DICTIONARY
  5
D
102
{ACAD_REACTORS
330
C
102
}
330
C
100
AcDbDictionary
281
     1
  0
DICTIONARY
  5
62
102
{ACAD_REACTORS
330
C
102
}
330
C
100
AcDbDictionary
281
     1
  3
Layout1
350
6F
  3
Layout2
350
77
  3
Model
350
73
  0
DICTIONARY
  5
10
102
{ACAD_REACTORS
330
C
102
}
330
C
100
AcDbDictionary
281
     1
  3
ByBlock
350
19
  3
ByLayer
350
11
  3
Global
350
21
  0
DICTIONARY
  5
66
102
{ACAD_REACTORS
330
C
102
}
330
C
100
AcDbDictionary
281
     1
  3
Standard
350
67
  0
DICTIONARY
  5
5F
102
{ACAD_REACTORS
330
C
102
}
330
C
100
AcDbDictionary
281
     1
  3
Standard
350
60
  0
DICTIONARY
  5
61
102
{ACAD_REACTORS
330
C
102
}
330
C
100
AcDbDictionary
281
     1
  0
ACDBDICTIONARYWDFLT
  5
E
102
{ACAD_REACTORS
330
C
102
}
330
C
100
AcDbDictionary
281
     1
  3
Normal
350
F
100
AcDbDictionaryWithDefault
340
F
  0
DICTIONARY
  5
42
102
{ACAD_REACTORS
330
C
102
}
330
C
100
AcDbDictionary
281
     1
  3
A0
350
43
  3
A1
350
44
  3
A2
350
45
  3
A3
350
46
  3
A4
350
47
  3
A5
350
48
  3
A6
350
49
  3
A7
350
4A
  3
A8
350
4B
  3
A9
350
4C
  3
B0
350
4D
  3
B1
350
4E
  3
B2
350
4F
  3
B3
350
50
  3
B4
350
51
  3
B5
350
52
  3
B6
350
53
  0
DICTIONARY
  5
68
102
{ACAD_REACTORS
330
C
102
}
330
C
100
AcDbDictionary
281
     1
  3
Imperial24
350
69
  0
DICTIONARY
  5
64
102
{ACAD_REACTORS
330
C
102
}
330
C
100
AcDbDictionary
281
     1
  3
Standard
350
65
  0
DICTIONARY
  5
29
102
{ACAD_REACTORS
330
C
102
}
330
C
100
AcDbDictionary
281
     1
  3
2dWireframe
350
2F
  3
Basic
350
2E
  3
Brighten
350
35
  3
ColorChange
350
39
  3
Conceptual
350
32
  3
Dim
350
34
  3
EdgeColorOff
350
41
  3
Facepattern
350
38
  3
Flat
350
2A
  3
FlatWithEdges
350
2B
  3
Gouraud
350
2C
  3
GouraudWithEdges
350
2D
  3
Hidden
350
31
  3
JitterOff
350
3F
  3
Linepattern
350
37
  3
OverhangOff
350
40
  3
Realistic
350
33
  3
Shaded
350
3E
  3
Shaded with edges
350
3D
  3
Shades of Gray
350
3A
  3
Sketchy
350
3B
  3
Thicken
350
36
  3
Wireframe
350
30
  3
X-Ray
350
3C
  0
XRECORD
  5
DF
102
{ACAD_REACTORS
330
C
102
}
330
C
100
AcDbXrecord
280
     1
 90
        1
330
65
  0
DICTIONARY
  5
D7
102
{ACAD_REACTORS
330
C
102
}
330
C
100
AcDbDictionary
281
     1
  3
CANNOSCALE
350
DC
  3
CMLEADERSTYLE
350
D9
  3
CTABLESTYLE
350
D8
  3
CVIEWDETAILSTYLE
350
DA
  3
CVIEWSECTIONSTYLE
350
DB
  0
ACDBDETAILVIEWSTYLE
  5
6B
102
{ACAD_XDICTIONARY
360
114
102
}
102
{ACAD_REACTORS
330
6A
102
}
330
6A
100
AcDbModelDocViewStyle
 70
     0
  3
Imperial24
290
     0
100
AcDbDetailViewStyle
 70
     0
 71
     0
 90
        3
 71
     1
340
55
 62
   256
 40
0.24
340
0
 62
   256
 40
0.24
300

 40
0.36
280
     3
 71
     2
340
5D
 90
       25
 62
   256
 71
     3
340
55
 62
   256
 40
0.24
 90
        1
 40
0.75
 90
        1
300
%<\AcVar ViewType \f "%tc1">% %<\AcVar ViewDetailId>%\PSCALE %<\AcVar ViewScale \f "%sn">%
 71
     4
340
5D
 90
       25
 62
   256
340
5D
 90
       25
 62
   256
280
     0
  0
LAYOUT
  5
6F
102
{ACAD_REACTORS
330
62
102
}
330
62
100
AcDbPlotSettings
  1

  2

  4

  6

 40
0.0
 41
0.0
 42
0.0
 43
0.0
 44
0.0
 45
0.0
 46
0.0
 47
0.0
 48
0.0
 49
0.0
140
0.0
141
0.0
142
1.0
143
1.0
 70
   688
 72
     0
 73
     0
 74
     5
  7

 75
    16
147
1.0
 76
     0
 77
     2
 78
   300
148
0.0
149
0.0
100
AcDbLayout
  1
Layout1
 70
     1
 71
     1
 10
0.0
 20
0.0
 11
12.0
 21
9.0
 12
0.0
 22
0.0
 32
0.0
 14
0.0
 24
0.0
 34
0.0
 15
0.0
 25
0.0
 35
0.0
146
0.0
 13
0.0
 23
0.0
 33
0.0
 16
1.0
 26
0.0
 36
0.0
 17
0.0
 27
1.0
 37
0.0
 76
     0
330
6C
  0
LAYOUT
  5
77
102
{ACAD_REACTORS
330
62
102
}
330
62
100
AcDbPlotSettings
  1

  2

  4

  6

 40
0.0
 41
0.0
 42
0.0
 43
0.0
 44
0.0
 45
0.0
 46
0.0
 47
0.0
 48
0.0
 49
0.0
140
0.0
141
0.0
142
1.0
143
1.0
 70
   688
 72
     0
 73
     0
 74
     5
  7

 75
    16
147
1.0
 76
     0
 77
     2
 78
   300
148
0.0
149
0.0
100
AcDbLayout
  1
Layout2
 70
     1
 71
     2
 10
0.0
 20
0.0
 11
12.0
 21
9.0
 12
0.0
 22
0.0
 32
0.0
 14
0.0
 24
0.0
 34
0.0
 15
0.0
 25
0.0
 35
0.0
146
0.0
 13
0.0
 23
0.0
 33
0.0
 16
1.0
 26
0.0
 36
0.0
 17
0.0
 27
1.0
 37
0.0
 76
     0
330
74
  0
LAYOUT
  5
73
102
{ACAD_REACTORS
330
62
102
}
330
62
100
AcDbPlotSettings
  1

  2

  4

  6

 40
0.0
 41
0.0
 42
0.0
 43
0.0
 44
0.0
 45
0.0
 46
0.0
 47
0.0
 48
0.0
 49
0.0
140
0.0
141
0.0
142
1.0
143
1.0
 70
  1712
 72
     0
 73
     0
 74
     0
  7

 75
     0
147
1.0
 76
     0
 77
     2
 78
   300
148
0.0
149
0.0
100
AcDbLayout
  1
Model
 70
     1
 71
     0
 10
0.0
 20
0.0
 11
12.0
 21
9.0
 12
0.0
 22
0.0
 32
0.0
 14
0.0
 24
0.0
 34
0.0
 15
0.0
 25
0.0
 35
0.0
146
0.0
 13
0.0
 23
0.0
 33
0.0
 16
1.0
 26
0.0
 36
0.0
 17
0.0
 27
1.0
 37
0.0
 76
     0
330
70
  0
MATERIAL
  5
19
102
{ACAD_XDICTIONARY
360
1A
102
}
102
{ACAD_REACTORS
330
10
102
}
330
10
100
AcDbMaterial
  1
ByBlock
 72
     0
 43
0.0208333333333333
 43
0.0
 43
0.0
 43
0.0
 43
0.0
 43
0.0208333333333333
 43
0.0
 43
0.0
 43
0.0
 43
0.0
 43
1.0
 43
0.0
 43
0.0
 43
0.0
 43
0.0
 43
1.0
 77
     0
 47
0.0208333333333333
 47
0.0
 47
0.0
 47
0.0
 47
0.0
 47
0.0208333333333333
 47
0.0
 47
0.0
 47
0.0
 47
0.0
 47
1.0
 47
0.0
 47
0.0
 47
0.0
 47
0.0
 47
1.0
171
     0
 49
0.0208333333333333
 49
0.0
 49
0.0
 49
0.0
 49
0.0
 49
0.0208333333333333
 49
0.0
 49
0.0
 49
0.0
 49
0.0
 49
1.0
 49
0.0
 49
0.0
 49
0.0
 49
0.0
 49
1.0
175
     0
142
0.0208333333333333
142
0.0
142
0.0
142
0.0
142
0.0
142
0.0208333333333333
142
0.0
142
0.0
142
0.0
142
0.0
142
1.0
142
0.0
142
0.0
142
0.0
142
0.0
142
1.0
179
     0
144
0.0208333333333333
144
0.0
144
0.0
144
0.0
144
0.0
144
0.0208333333333333
144
0.0
144
0.0
144
0.0
144
0.0
144
1.0
144
0.0
144
0.0
144
0.0
144
0.0
144
1.0
147
0.0208333333333333
147
0.0
147
0.0
147
0.0
147
0.0
147
0.0208333333333333
147
0.0
147
0.0
147
0.0
147
0.0
147
1.0
147
0.0
147
0.0
147
0.0
147
0.0
147
1.0
  0
MATERIAL
  5
11
102
{ACAD_XDICTIONARY
360
12
102
}
102
{ACAD_REACTORS
330
10
102
}
330
10
100
AcDbMaterial
  1
ByLayer
 72
     0
 43
0.0208333333333333
 43
0.0
 43
0.0
 43
0.0
 43
0.0
 43
0.0208333333333333
 43
0.0
 43
0.0
 43
0.0
 43
0.0
 43
1.0
 43
0.0
 43
0.0
 43
0.0
 43
0.0
 43
1.0
 77
     0
 47
0.0208333333333333
 47
0.0
 47
0.0
 47
0.0
 47
0.0
 47
0.0208333333333333
 47
0.0
 47
0.0
 47
0.0
 47
0.0
 47
1.0
 47
0.0
 47
0.0
 47
0.0
 47
0.0
 47
1.0
171
     0
 49
0.0208333333333333
 49
0.0
 49
0.0
 49
0.0
 49
0.0
 49
0.0208333333333333
 49
0.0
 49
0.0
 49
0.0
 49
0.0
 49
1.0
 49
0.0
 49
0.0
 49
0.0
 49
0.0
 49
1.0
175
     0
142
0.0208333333333333
142
0.0
142
0.0
142
0.0
142
0.0
142
0.0208333333333333
142
0.0
142
0.0
142
0.0
142
0.0
142
1.0
142
0.0
142
0.0
142
0.0
142
0.0
142
1.0
179
     0
144
0.0208333333333333
144
0.0
144
0.0
144
0.0
144
0.0
144
0.0208333333333333
144
0.0
144
0.0
144
0.0
144
0.0
144
1.0
144
0.0
144
0.0
144
0.0
144
0.0
144
1.0
147
0.0208333333333333
147
0.0
147
0.0
147
0.0
147
0.0
147
0.0208333333333333
147
0.0
147
0.0
147
0.0
147
0.0
147
1.0
147
0.0
147
0.0
147
0.0
147
0.0
147
1.0
  0
MATERIAL
  5
21
102
{ACAD_XDICTIONARY
360
22
102
}
102
{ACAD_REACTORS
330
10
102
}
330
10
100
AcDbMaterial
  1
Global
 72
     0
 43
0.0208333333333333
 43
0.0
 43
0.0
 43
0.0
 43
0.0
 43
0.0208333333333333
 43
0.0
 43
0.0
 43
0.0
 43
0.0
 43
1.0
 43
0.0
 43
0.0
 43
0.0
 43
0.0
 43
1.0
 77
     0
 47
0.0208333333333333
 47
0.0
 47
0.0
 47
0.0
 47
0.0
 47
0.0208333333333333
 47
0.0
 47
0.0
 47
0.0
 47
0.0
 47
1.0
 47
0.0
 47
0.0
 47
0.0
 47
0.0
 47
1.0
171
     0
 49
0.0208333333333333
 49
0.0
 49
0.0
 49
0.0
 49
0.0
 49
0.0208333333333333
 49
0.0
 49
0.0
 49
0.0
 49
0.0
 49
1.0
 49
0.0
 49
0.0
 49
0.0
 49
0.0
 49
1.0
175
     0
142
0.0208333333333333
142
0.0
142
0.0
142
0.0
142
0.0
142
0.0208333333333333
142
0.0
142
0.0
142
0.0
142
0.0
142
1.0
142
0.0
142
0.0
142
0.0
142
0.0
142
1.0
179
     0
144
0.0208333333333333
144
0.0
144
0.0
144
0.0
144
0.0
144
0.0208333333333333
144
0.0
144
0.0
144
0.0
144
0.0
144
1.0
144
0.0
144
0.0
144
0.0
144
0.0
144
1.0
147
0.0208333333333333
147
0.0
147
0.0
147
0.0
147
0.0
147
0.0208333333333333
147
0.0
147
0.0
147
0.0
147
0.0
147
1.0
147
0.0
147
0.0
147
0.0
147
0.0
147
1.0
  0
MLEADERSTYLE
  5
67
102
{ACAD_XDICTIONARY
360
110
102
}
102
{ACAD_REACTORS
330
66
102
}
330
66
100
AcDbMLeaderStyle
179
     2
170
     2
171
     1
172
     0
 90
        2
 40
0.0
 41
0.0
173
     1
 91
-1056964608
340
5B
 92
       -2
290
     1
 42
0.09
291
     1
 43
0.36
  3
Standard
 44
0.18
300

342
55
174
     1
178
     6
175
     1
176
     0
 93
-1056964608
 45
0.18
292
     0
297
     0
 46
0.18
 94
-1056964608
 47
1.0
 49
1.0
140
1.0
293
     1
141
0.0
294
     1
177
     0
142
1.0
295
     0
296
     0
143
0.125
271
     0
272
     9
273
     9
  0
MLINESTYLE
  5
60
102
{ACAD_REACTORS
330
5F
102
}
330
5F
100
AcDbMlineStyle
  2
STANDARD
 70
     0
  3

 62
   256
 51
90.0
 52
90.0
 71
     2
 49
0.5
 62
   256
  6
BYLAYER
 49
-0.5
 62
   256
  6
BYLAYER
  0
ACDBPLACEHOLDER
  5
F
102
{ACAD_REACTORS
330
E
102
}
330
E
  0
SCALE
  5
43
102
{ACAD_REACTORS
330
42
102
}
330
42
100
AcDbScale
 70
     0
300
1:1
140
1.0
141
1.0
290
     1
  0
SCALE
  5
44
102
{ACAD_REACTORS
330
42
102
}
330
42
100
AcDbScale
 70
     0
300
1/128" = 1'-0"
140
0.0078125
141
12.0
290
     0
  0
SCALE
  5
45
102
{ACAD_REACTORS
330
42
102
}
330
42
100
AcDbScale
 70
     0
300
1/64" = 1'-0"
140
0.015625
141
12.0
290
     0
  0
SCALE
  5
46
102
{ACAD_REACTORS
330
42
102
}
330
42
100
AcDbScale
 70
     0
300
1/32" = 1'-0"
140
0.03125
141
12.0
290
     0
  0
SCALE
  5
47
102
{ACAD_REACTORS
330
42
102
}
330
42
100
AcDbScale
 70
     0
300
1/16" = 1'-0"
140
0.0625
141
12.0
290
     0
  0
SCALE
  5
48
102
{ACAD_REACTORS
330
42
102
}
330
42
100
AcDbScale
 70
     0
300
3/32" = 1'-0"
140
0.09375
141
12.0
290
     0
  0
SCALE
  5
49
102
{ACAD_REACTORS
330
42
102
}
330
42
100
AcDbScale
 70
     0
300
1/8" = 1'-0"
140
0.125
141
12.0
290
     0
  0
SCALE
  5
4A
102
{ACAD_REACTORS
330
42
102
}
330
42
100
AcDbScale
 70
     0
300
3/16" = 1'-0"
140
0.1875
141
12.0
290
     0
  0
SCALE
  5
4B
102
{ACAD_REACTORS
330
42
102
}
330
42
100
AcDbScale
 70
     0
300
1/4" = 1'-0"
140
0.25
141
12.0
290
     0
  0
SCALE
  5
4C
102
{ACAD_REACTORS
330
42
102
}
330
42
100
AcDbScale
 70
     0
300
3/8" = 1'-0"
140
0.375
141
12.0
290
     0
  0
SCALE
  5
4D
102
{ACAD_REACTORS
330
42
102
}
330
42
100
AcDbScale
 70
     0
300
1/2" = 1'-0"
140
0.5
141
12.0
290
     0
  0
SCALE
  5
4E
102
{ACAD_REACTORS
330
42
102
}
330
42
100
AcDbScale
 70
     0
300
3/4" = 1'-0"
140
0.75
141
12.0
290
     0
  0
SCALE
  5
4F
102
{ACAD_REACTORS
330
42
102
}
330
42
100
AcDbScale
 70
     0
300
1" = 1'-0"
140
1.0
141
12.0
290
     0
  0
SCALE
  5
50
102
{ACAD_REACTORS
330
42
102
}
330
42
100
AcDbScale
 70
     0
300
1-1/2" = 1'-0"
140
1.5
141
12.0
290
     0
  0
SCALE
  5
51
102
{ACAD_REACTORS
330
42
102
}
330
42
100
AcDbScale
 70
     0
300
3" = 1'-0"
140
3.0
141
12.0
290
     0
  0
SCALE
  5
52
102
{ACAD_REACTORS
330
42
102
}
330
42
100
AcDbScale
 70
     0
300
6" = 1'-0"
140
6.0
141
12.0
290
     0
  0
SCALE
  5
53
102
{ACAD_REACTORS
330
42
102
}
330
42
100
AcDbScale
 70
     0
300
1'-0" = 1'-0"
140
12.0
141
12.0
290
     0
  0
ACDBSECTIONVIEWSTYLE
  5
69
102
{ACAD_XDICTIONARY
360
112
102
}
102
{ACAD_REACTORS
330
68
102
}
330
68
100
AcDbModelDocViewStyle
 70
     0
  3
Imperial24
290
     0
100
AcDbSectionViewStyle
 70
     0
 71
     0
 90
       78
 71
     1
340
55
 62
   256
 40
0.24
340
0
340
0
 62
   256
 40
0.24
300
I, O, Q, S, X, Z
 40
0.48
 90
        3
 40
0.18
 90
        1
 71
     2
340
5D
 90
       25
 62
   256
340
5D
 90
       50
 62
   256
 40
0.24
 40
0.0
 40
0.24
 71
     3
340
55
 62
   256
 40
0.24
 90
        1
 40
0.75
 90
        1
300
%<\AcVar ViewType \f "%tc1">% %<\AcVar ViewSectionStartId>%-%<\AcVar ViewSectionEndId>%\PSCALE %<\AcVar ViewScale \f "%sn">%
 71
     4
 62
   256
 62
   257
300
ANSI31
 40
1.0
 90
        0
290
     0
290
     0
 90
        6
 40
0.0
 40
1.570796326794896
 40
0.2617993877991494
 40
1.308996938995747
 40
-0.2617993877991494
 40
1.832595714594046
  0
TABLESTYLE
  5
65
102
{ACAD_XDICTIONARY
360
DD
102
}
102
{ACAD_REACTORS
330
64
102
}
330
64
100
AcDbTableStyle
280
     0
  3
Standard
 70
     0
 71
     0
 40
0.06
 41
0.06
280
     0
281
     0
  7
Standard
140
0.18
170
     2
 62
     0
 63
     7
283
     0
 90
      512
 91
        0
  1

274
    -2
284
     1
 64
     0
275
    -2
285
     1
 65
     0
276
    -2
286
     1
 66
     0
277
    -2
287
     1
 67
     0
278
    -2
288
     1
 68
     0
279
    -2
289
     1
 69
     0
  7
Standard
140
0.25
170
     5
 62
     0
 63
     7
283
     0
 90
      512
 91
        0
  1

274
    -2
284
     1
 64
     0
275
    -2
285
     1
 65
     0
276
    -2
286
     1
 66
     0
277
    -2
287
     1
 67
     0
278
    -2
288
     1
 68
     0
279
    -2
289
     1
 69
     0
  7
Standard
140
0.18
170
     5
 62
     0
 63
     7
283
     0
 90
      512
 91
        0
  1

274
    -2
284
     1
 64
     0
275
    -2
285
     1
 65
     0
276
    -2
286
     1
 66
     0
277
    -2
287
     1
 67
     0
278
    -2
288
     1
 68
     0
279
    -2
289
     1
 69
     0
  0
VISUALSTYLE
  5
2F
102
{ACAD_XDICTIONARY
360
EA
102
}
102
{ACAD_REACTORS
330
29
102
}
330
29
100
AcDbVisualStyle
  2
2dWireframe
 70
     4
177
     2
291
     0
 71
     0
176
     1
 72
     2
176
     1
 73
     0
176
     1
 90
        0
176
     1
 40
0.6
176
     1
 41
30.0
176
     1
 63
     7
421
 16777215
176
     1
 74
     1
176
     1
 91
        4
176
     1
 64
     7
176
     1
 65
   257
176
     1
 75
     1
176
     1
175
     1
176
     1
 42
1.0
176
     1
 92
        0
176
     1
 66
   257
176
     1
 43
1.0
176
     1
 76
     1
176
     1
 77
     6
176
     1
 78
     2
176
     1
 67
     7
176
     1
 79
     5
176
     1
170
     0
176
     1
171
     0
176
     1
290
     0
176
     1
 93
        1
176
     1
 44
0.0
176
     1
173
     0
176
     1
1001
ACAD
1000
AcDbSavedByObjectVersion
1070
     0
  0
VISUALSTYLE
  5
2E
102
{ACAD_XDICTIONARY
360
E8
102
}
102
{ACAD_REACTORS
330
29
102
}
330
29
100
AcDbVisualStyle
  2
Basic
 70
     7
177
     2
291
     1
 71
     1
176
     1
 72
     0
176
     1
 73
     1
176
     1
 90
        0
176
     1
 40
0.6
176
     1
 41
30.0
176
     1
 63
     7
421
 16777215
176
     1
 74
     0
176
     1
 91
        4
176
     1
 64
     7
176
     1
 65
   257
176
     1
 75
     1
176
     1
175
     1
176
     1
 42
1.0
176
     1
 92
        8
176
     1
 66
     7
176
     1
 43
1.0
176
     1
 76
     1
176
     1
 77
     6
176
     1
 78
     2
176
     1
 67
     7
176
     1
 79
     5
176
     1
170
     0
176
     1
171
     0
176
     1
290
     0
176
     1
 93
        1
176
     1
 44
0.0
176
     1
173
     0
176
     1
1001
ACAD
1000
AcDbSavedByObjectVersion
1070
     0
  0
VISUALSTYLE
  5
35
102
{ACAD_XDICTIONARY
360
F6
102
}
102
{ACAD_REACTORS
330
29
102
}
330
29
100
AcDbVisualStyle
  2
Brighten
 70
    12
177
     2
291
     1
 71
     2
176
     1
 72
     2
176
     1
 73
     0
176
     1
 90
        0
176
     1
 40
0.6
176
     1
 41
30.0
176
     1
 63
     7
421
 16777215
176
     1
 74
     1
176
     1
 91
        4
176
     1
 64
     7
176
     1
 65
   257
176
     1
 75
     1
176
     1
175
     1
176
     1
 42
1.0
176
     1
 92
        8
176
     1
 66
     7
176
     1
 43
1.0
176
     1
 76
     1
176
     1
 77
     6
176
     1
 78
     2
176
     1
 67
     7
176
     1
 79
     5
176
     1
170
     0
176
     1
171
     0
176
     1
290
     0
176
     1
 93
        1
176
     1
 44
50.0
176
     1
173
     0
176
     1
1001
ACAD
1000
AcDbSavedByObjectVersion
1070
     0
  0
VISUALSTYLE
  5
39
102
{ACAD_XDICTIONARY
360
FE
102
}
102
{ACAD_REACTORS
330
29
102
}
330
29
100
AcDbVisualStyle
  2
ColorChange
 70
    16
177
     2
291
     1
 71
     2
176
     1
 72
     2
176
     1
 73
     3
176
     1
 90
        0
176
     1
 40
0.6
176
     1
 41
30.0
176
     1
 63
     8
421
  8421504
176
     1
 74
     1
176
     1
 91
        4
176
     1
 64
     7
176
     1
 65
   257
176
     1
 75
     1
176
     1
175
     1
176
     1
 42
1.0
176
     1
 92
        8
176
     1
 66
     8
424
  8421504
176
     1
 43
1.0
176
     1
 76
     1
176
     1
 77
     6
176
     1
 78
     2
176
     1
 67
     7
176
     1
 79
     5
176
     1
170
     0
176
     1
171
     0
176
     1
290
     0
176
     1
 93
        1
176
     1
 44
0.0
176
     1
173
     0
176
     1
1001
ACAD
1000
AcDbSavedByObjectVersion
1070
     0
  0
VISUALSTYLE
  5
32
102
{ACAD_XDICTIONARY
360
F0
102
}
102
{ACAD_REACTORS
330
29
102
}
330
29
100
AcDbVisualStyle
  2
Conceptual
 70
     9
177
     2
291
     0
 71
     3
176
     1
 72
     2
176
     1
 73
     0
176
     1
 90
        0
176
     1
 40
0.6
176
     1
 41
30.0
176
     1
 63
     7
421
 16777215
176
     1
 74
     2
176
     1
 91
        2
176
     1
 64
     7
176
     1
 65
   257
176
     1
 75
     1
176
     1
175
     1
176
     1
 42
179.0
176
     1
 92
        8
176
     1
 66
     7
176
     1
 43
1.0
176
     1
 76
     1
176
     1
 77
     6
176
     1
 78
     2
176
     1
 67
     7
176
     1
 79
     3
176
     1
170
     0
176
     1
171
     0
176
     1
290
     0
176
     1
 93
        1
176
     1
 44
0.0
176
     1
173
     0
176
     1
1001
ACAD
1000
AcDbSavedByObjectVersion
1070
     0
  0
VISUALSTYLE
  5
34
102
{ACAD_XDICTIONARY
360
F4
102
}
102
{ACAD_REACTORS
330
29
102
}
330
29
100
AcDbVisualStyle
  2
Dim
 70
    11
177
     2
291
     1
 71
     2
176
     1
 72
     2
176
     1
 73
     0
176
     1
 90
        0
176
     1
 40
0.6
176
     1
 41
30.0
176
     1
 63
     7
421
 16777215
176
     1
 74
     1
176
     1
 91
        4
176
     1
 64
     7
176
     1
 65
   257
176
     1
 75
     1
176
     1
175
     1
176
     1
 42
1.0
176
     1
 92
        8
176
     1
 66
     7
176
     1
 43
1.0
176
     1
 76
     1
176
     1
 77
     6
176
     1
 78
     2
176
     1
 67
     7
176
     1
 79
     5
176
     1
170
     0
176
     1
171
     0
176
     1
290
     0
176
     1
 93
        1
176
     1
 44
-50.0
176
     1
173
     0
176
     1
1001
ACAD
1000
AcDbSavedByObjectVersion
1070
     0
  0
VISUALSTYLE
  5
41
102
{ACAD_XDICTIONARY
360
10E
102
}
102
{ACAD_REACTORS
330
29
102
}
330
29
100
AcDbVisualStyle
  2
EdgeColorOff
 70
    22
177
     2
291
     1
 71
     2
176
     0
 72
     2
176
     0
 73
     0
176
     0
 90
        0
176
     0
 40
0.6
176
     0
 41
30.0
176
     0
 63
     7
421
 16777215
176
     0
 74
     1
176
     0
 91
        4
176
     0
 64
     7
176
     0
 65
   257
176
     0
 75
     1
176
     0
175
     1
176
     0
 42
1.0
176
     0
 92
        8
176
     2
 66
     7
176
     0
 43
1.0
176
     0
 76
     1
176
     0
 77
     6
176
     0
 78
     2
176
     0
 67
     7
176
     0
 79
     5
176
     0
170
     0
176
     0
171
     0
176
     0
290
     0
176
     0
 93
        1
176
     0
 44
0.0
176
     0
173
     0
176
     0
1001
ACAD
1000
AcDbSavedByObjectVersion
1070
     0
  0
VISUALSTYLE
  5
38
102
{ACAD_XDICTIONARY
360
FC
102
}
102
{ACAD_REACTORS
330
29
102
}
330
29
100
AcDbVisualStyle
  2
Facepattern
 70
    15
177
     2
291
     1
 71
     2
176
     1
 72
     2
176
     1
 73
     0
176
     1
 90
        0
176
     1
 40
0.6
176
     1
 41
30.0
176
     1
 63
     7
421
 16777215
176
     1
 74
     1
176
     1
 91
        4
176
     1
 64
     7
176
     1
 65
   257
176
     1
 75
     1
176
     1
175
     1
176
     1
 42
1.0
176
     1
 92
        8
176
     1
 66
     7
176
     1
 43
1.0
176
     1
 76
     1
176
     1
 77
     6
176
     1
 78
     2
176
     1
 67
     7
176
     1
 79
     5
176
     1
170
     0
176
     1
171
     0
176
     1
290
     0
176
     1
 93
        1
176
     1
 44
0.0
176
     1
173
     0
176
     1
1001
ACAD
1000
AcDbSavedByObjectVersion
1070
     0
  0
VISUALSTYLE
  5
2A
102
{ACAD_XDICTIONARY
360
E0
102
}
102
{ACAD_REACTORS
330
29
102
}
330
29
100
AcDbVisualStyle
  2
Flat
 70
     0
177
     2
291
     1
 71
     2
176
     1
 72
     1
176
     1
 73
     1
176
     1
 90
        2
176
     1
 40
0.6
176
     1
 41
30.0
176
     1
 63
     7
421
 16777215
176
     1
 74
     0
176
     1
 91
        0
176
     1
 64
     7
176
     1
 65
   257
176
     1
 75
     1
176
     1
175
     1
176
     1
 42
1.0
176
     1
 92
        8
176
     1
 66
     7
176
     1
 43
1.0
176
     1
 76
     1
176
     1
 77
     6
176
     1
 78
     2
176
     1
 67
     7
176
     1
 79
     5
176
     1
170
     0
176
     1
171
     0
176
     1
290
     0
176
     1
 93
       13
176
     1
 44
0.0
176
     1
173
     0
176
     1
1001
ACAD
1000
AcDbSavedByObjectVersion
1070
     0
  0
VISUALSTYLE
  5
2B
102
{ACAD_XDICTIONARY
360
E2
102
}
102
{ACAD_REACTORS
330
29
102
}
330
29
100
AcDbVisualStyle
  2
FlatWithEdges
 70
     1
177
     2
291
     1
 71
     2
176
     1
 72
     1
176
     1
 73
     1
176
     1
 90
        2
176
     1
 40
0.6
176
     1
 41
30.0
176
     1
 63
     7
421
 16777215
176
     1
 74
     1
176
     1
 91
        0
176
     1
 64
     7
176
     1
 65
   257
176
     1
 75
     1
176
     1
175
     1
176
     1
 42
1.0
176
     1
 92
        0
176
     1
 66
   257
176
     1
 43
1.0
176
     1
 76
     1
176
     1
 77
     6
176
     1
 78
     2
176
     1
 67
     7
176
     1
 79
     5
176
     1
170
     0
176
     1
171
     0
176
     1
290
     0
176
     1
 93
       13
176
     1
 44
0.0
176
     1
173
     0
176
     1
1001
ACAD
1000
AcDbSavedByObjectVersion
1070
     0
  0
VISUALSTYLE
  5
2C
102
{ACAD_XDICTIONARY
360
E4
102
}
102
{ACAD_REACTORS
330
29
102
}
330
29
100
AcDbVisualStyle
  2
Gouraud
 70
     2
177
     2
291
     1
 71
     2
176
     1
 72
     2
176
     1
 73
     1
176
     1
 90
        2
176
     1
 40
0.6
176
     1
 41
30.0
176
     1
 63
     7
421
 16777215
176
     1
 74
     0
176
     1
 91
        0
176
     1
 64
     7
176
     1
 65
   257
176
     1
 75
     1
176
     1
175
     1
176
     1
 42
1.0
176
     1
 92
        0
176
     1
 66
     7
176
     1
 43
1.0
176
     1
 76
     1
176
     1
 77
     6
176
     1
 78
     2
176
     1
 67
     7
176
     1
 79
     5
176
     1
170
     0
176
     1
171
     0
176
     1
290
     0
176
     1
 93
       13
176
     1
 44
0.0
176
     1
173
     0
176
     1
1001
ACAD
1000
AcDbSavedByObjectVersion
1070
     0
  0
VISUALSTYLE
  5
2D
102
{ACAD_XDICTIONARY
360
E6
102
}
102
{ACAD_REACTORS
330
29
102
}
330
29
100
AcDbVisualStyle
  2
GouraudWithEdges
 70
     3
177
     2
291
     1
 71
     2
176
     1
 72
     2
176
     1
 73
     1
176
     1
 90
        2
176
     1
 40
0.6
176
     1
 41
30.0
176
     1
 63
     7
421
 16777215
176
     1
 74
     1
176
     1
 91
        0
176
     1
 64
     7
176
     1
 65
   257
176
     1
 75
     1
176
     1
175
     1
176
     1
 42
1.0
176
     1
 92
        0
176
     1
 66
   257
176
     1
 43
1.0
176
     1
 76
     1
176
     1
 77
     6
176
     1
 78
     2
176
     1
 67
     7
176
     1
 79
     5
176
     1
170
     0
176
     1
171
     0
176
     1
290
     0
176
     1
 93
       13
176
     1
 44
0.0
176
     1
173
     0
176
     1
1001
ACAD
1000
AcDbSavedByObjectVersion
1070
     0
  0
VISUALSTYLE
  5
31
102
{ACAD_XDICTIONARY
360
EE
102
}
102
{ACAD_REACTORS
330
29
102
}
330
29
100
AcDbVisualStyle
  2
Hidden
 70
     6
177
     2
291
     0
 71
     1
176
     1
 72
     2
176
     1
 73
     2
176
     1
 90
        0
176
     1
 40
0.6
176
     1
 41
30.0
176
     1
 63
     7
421
 16777215
176
     1
 74
     2
176
     1
 91
        2
176
     1
 64
     7
176
     1
 65
   257
176
     1
 75
     2
176
     1
175
     1
176
     1
 42
40.0
176
     1
 92
        0
176
     1
 66
   257
176
     1
 43
1.0
176
     1
 76
     1
176
     1
 77
     6
176
     1
 78
     2
176
     1
 67
     7
176
     1
 79
     3
176
     1
170
     0
176
     1
171
     0
176
     1
290
     0
176
     1
 93
        1
176
     1
 44
0.0
176
     1
173
     0
176
     1
1001
ACAD
1000
AcDbSavedByObjectVersion
1070
     0
  0
VISUALSTYLE
  5
3F
102
{ACAD_XDICTIONARY
360
10A
102
}
102
{ACAD_REACTORS
330
29
102
}
330
29
100
AcDbVisualStyle
  2
JitterOff
 70
    20
177
     2
291
     1
 71
     2
176
     0
 72
     2
176
     0
 73
     0
176
     0
 90
        0
176
     0
 40
0.6
176
     0
 41
30.0
176
     0
 63
     7
421
 16777215
176
     0
 74
     1
176
     0
 91
        4
176
     0
 64
     7
176
     0
 65
   257
176
     0
 75
     1
176
     0
175
     1
176
     0
 42
1.0
176
     0
 92
       10
176
     2
 66
     7
176
     0
 43
1.0
176
     0
 76
     1
176
     0
 77
     6
176
     0
 78
     2
176
     0
 67
     7
176
     0
 79
     5
176
     0
170
     0
176
     0
171
     0
176
     0
290
     0
176
     0
 93
        1
176
     0
 44
0.0
176
     0
173
     0
176
     0
1001
ACAD
1000
AcDbSavedByObjectVersion
1070
     0
  0
VISUALSTYLE
  5
37
102
{ACAD_XDICTIONARY
360
FA
102
}
102
{ACAD_REACTORS
330
29
102
}
330
29
100
AcDbVisualStyle
  2
Linepattern
 70
    14
177
     2
291
     1
 71
     2
176
     1
 72
     2
176
     1
 73
     0
176
     1
 90
        0
176
     1
 40
0.6
176
     1
 41
30.0
176
     1
 63
     7
421
 16777215
176
     1
 74
     1
176
     1
 91
        4
176
     1
 64
     7
176
     1
 65
   257
176
     1
 75
     7
176
     1
175
     7
176
     1
 42
1.0
176
     1
 92
        8
176
     1
 66
     7
176
     1
 43
1.0
176
     1
 76
     1
176
     1
 77
     6
176
     1
 78
     2
176
     1
 67
     7
176
     1
 79
     5
176
     1
170
     0
176
     1
171
     0
176
     1
290
     0
176
     1
 93
        1
176
     1
 44
0.0
176
     1
173
     0
176
     1
1001
ACAD
1000
AcDbSavedByObjectVersion
1070
     0
  0
VISUALSTYLE
  5
40
102
{ACAD_XDICTIONARY
360
10C
102
}
102
{ACAD_REACTORS
330
29
102
}
330
29
100
AcDbVisualStyle
  2
OverhangOff
 70
    21
177
     2
291
     1
 71
     2
176
     0
 72
     2
176
     0
 73
     0
176
     0
 90
        0
176
     0
 40
0.6
176
     0
 41
30.0
176
     0
 63
     7
421
 16777215
176
     0
 74
     1
176
     0
 91
        4
176
     0
 64
     7
176
     0
 65
   257
176
     0
 75
     1
176
     0
175
     1
176
     0
 42
1.0
176
     0
 92
        9
176
     2
 66
     7
176
     0
 43
1.0
176
     0
 76
     1
176
     0
 77
     6
176
     0
 78
     2
176
     0
 67
     7
176
     0
 79
     5
176
     0
170
     0
176
     0
171
     0
176
     0
290
     0
176
     0
 93
        1
176
     0
 44
0.0
176
     0
173
     0
176
     0
1001
ACAD
1000
AcDbSavedByObjectVersion
1070
     0
  0
VISUALSTYLE
  5
33
102
{ACAD_XDICTIONARY
360
F2
102
}
102
{ACAD_REACTORS
330
29
102
}
330
29
100
AcDbVisualStyle
  2
Realistic
 70
     8
177
     2
291
     0
 71
     2
176
     1
 72
     3
176
     1
 73
     0
176
     1
 90
        2
176
     1
 40
0.6
176
     1
 41
30.0
176
     1
 63
     7
421
 16777215
176
     1
 74
     0
176
     1
 91
        0
176
     1
 64
     7
176
     1
 65
   257
176
     1
 75
     1
176
     1
175
     1
176
     1
 42
1.0
176
     1
 92
        8
176
     1
 66
   257
176
     1
 43
1.0
176
     1
 76
     1
176
     1
 77
     6
176
     1
 78
     2
176
     1
 67
     7
176
     1
 79
     3
176
     1
170
     0
176
     1
171
     0
176
     1
290
     0
176
     1
 93
       13
176
     1
 44
0.0
176
     1
173
     0
176
     1
1001
ACAD
1000
AcDbSavedByObjectVersion
1070
     0
  0
VISUALSTYLE
  5
3E
102
{ACAD_XDICTIONARY
360
108
102
}
102
{ACAD_REACTORS
330
29
102
}
330
29
100
AcDbVisualStyle
  2
Shaded
 70
    27
177
     2
291
     0
 71
     2
176
     1
 72
     2
176
     1
 73
     1
176
     1
 90
        2
176
     1
 40
0.6
176
     1
 41
30.0
176
     1
 63
     7
421
 16777215
176
     1
 74
     0
176
     1
 91
        4
176
     1
 64
     7
176
     1
 65
   257
176
     1
 75
     1
176
     1
175
     1
176
     1
 42
1.0
176
     1
 92
        8
176
     1
 66
   257
176
     1
 43
1.0
176
     1
 76
     1
176
     1
 77
     6
176
     1
 78
     2
176
     1
 67
     8
425
  7895160
176
     1
 79
     3
176
     1
170
     0
176
     1
171
     0
176
     1
290
     0
176
     1
 93
        5
176
     1
 44
0.0
176
     1
173
     0
176
     1
1001
ACAD
1000
AcDbSavedByObjectVersion
1070
     0
  0
VISUALSTYLE
  5
3D
102
{ACAD_XDICTIONARY
360
106
102
}
102
{ACAD_REACTORS
330
29
102
}
330
29
100
AcDbVisualStyle
  2
Shaded with edges
 70
    26
177
     2
291
     0
 71
     2
176
     1
 72
     2
176
     1
 73
     1
176
     1
 90
        2
176
     1
 40
0.6
176
     1
 41
30.0
176
     1
 63
     7
421
 16777215
176
     1
 74
     1
176
     1
 91
        2
176
     1
 64
     7
176
     1
 65
   257
176
     1
 75
     2
176
     1
175
     1
176
     1
 42
1.0
176
     1
 92
        8
176
     1
 66
   257
176
     1
 43
1.0
176
     1
 76
     1
176
     1
 77
     6
176
     1
 78
     2
176
     1
 67
     7
176
     1
 79
     3
176
     1
170
     0
176
     1
171
     0
176
     1
290
     0
176
     1
 93
        5
176
     1
 44
0.0
176
     1
173
     0
176
     1
1001
ACAD
1000
AcDbSavedByObjectVersion
1070
     0
  0
VISUALSTYLE
  5
3A
102
{ACAD_XDICTIONARY
360
100
102
}
102
{ACAD_REACTORS
330
29
102
}
330
29
100
AcDbVisualStyle
  2
Shades of Gray
 70
    23
177
     2
291
     0
 71
     2
176
     1
 72
     2
176
     1
 73
     3
176
     1
 90
        0
176
     1
 40
0.6
176
     1
 41
30.0
176
     1
 63
     7
421
 16777215
176
     1
 74
     2
176
     1
 91
        2
176
     1
 64
     7
176
     1
 65
     7
176
     1
 75
     1
176
     1
175
     1
176
     1
 42
40.0
176
     1
 92
        8
176
     1
 66
     7
176
     1
 43
1.0
176
     1
 76
     1
176
     1
 77
     6
176
     1
 78
     2
176
     1
 67
     7
176
     1
 79
     3
176
     1
170
     0
176
     1
171
     0
176
     1
290
     0
176
     1
 93
        1
176
     1
 44
0.0
176
     1
173
     0
176
     1
1001
ACAD
1000
AcDbSavedByObjectVersion
1070
     0
  0
VISUALSTYLE
  5
3B
102
{ACAD_XDICTIONARY
360
102
102
}
102
{ACAD_REACTORS
330
29
102
}
330
29
100
AcDbVisualStyle
  2
Sketchy
 70
    24
177
     2
291
     0
 71
     1
176
     1
 72
     2
176
     1
 73
     2
176
     1
 90
        0
176
     1
 40
0.6
176
     1
 41
30.0
176
     1
 63
     7
421
 16777215
176
     1
 74
     2
176
     1
 91
        2
176
     1
 64
     7
176
     1
 65
     7
176
     1
 75
     1
176
     1
175
     1
176
     1
 42
40.0
176
     1
 92
       11
176
     1
 66
     7
176
     1
 43
1.0
176
     1
 76
     1
176
     1
 77
     6
176
     1
 78
     2
176
     1
 67
     7
176
     1
 79
     6
176
     1
170
     0
176
     1
171
     0
176
     1
290
     0
176
     1
 93
        1
176
     1
 44
0.0
176
     1
173
     0
176
     1
1001
ACAD
1000
AcDbSavedByObjectVersion
1070
     0
  0
VISUALSTYLE
  5
36
102
{ACAD_XDICTIONARY
360
F8
102
}
102
{ACAD_REACTORS
330
29
102
}
330
29
100
AcDbVisualStyle
  2
Thicken
 70
    13
177
     2
291
     1
 71
     2
176
     1
 72
     2
176
     1
 73
     0
176
     1
 90
        0
176
     1
 40
0.6
176
     1
 41
30.0
176
     1
 63
     7
421
 16777215
176
     1
 74
     1
176
     1
 91
        4
176
     1
 64
     7
176
     1
 65
   257
176
     1
 75
     1
176
     1
175
     1
176
     1
 42
1.0
176
     1
 92
       12
176
     1
 66
     7
176
     1
 43
1.0
176
     1
 76
     1
176
     1
 77
     6
176
     1
 78
     2
176
     1
 67
     7
176
     1
 79
     5
176
     1
170
     0
176
     1
171
     0
176
     1
290
     0
176
     1
 93
        1
176
     1
 44
0.0
176
     1
173
     0
176
     1
1001
ACAD
1000
AcDbSavedByObjectVersion
1070
     0
  0
VISUALSTYLE
  5
30
102
{ACAD_XDICTIONARY
360
EC
102
}
102
{ACAD_REACTORS
330
29
102
}
330
29
100
AcDbVisualStyle
  2
Wireframe
 70
     5
177
     2
291
     0
 71
     0
176
     1
 72
     2
176
     1
 73
     0
176
     1
 90
        0
176
     1
 40
0.6
176
     1
 41
30.0
176
     1
 63
     7
421
 16777215
176
     1
 74
     1
176
     1
 91
        4
176
     1
 64
     7
176
     1
 65
   257
176
     1
 75
     1
176
     1
175
     1
176
     1
 42
1.0
176
     1
 92
        0
176
     1
 66
   257
176
     1
 43
1.0
176
     1
 76
     1
176
     1
 77
     6
176
     1
 78
     2
176
     1
 67
     7
176
     1
 79
     3
176
     1
170
     0
176
     1
171
     0
176
     1
290
     0
176
     1
 93
        1
176
     1
 44
0.0
176
     1
173
     0
176
     1
1001
ACAD
1000
AcDbSavedByObjectVersion
1070
     0
  0
VISUALSTYLE
  5
3C
102
{ACAD_XDICTIONARY
360
104
102
}
102
{ACAD_REACTORS
330
29
102
}
330
29
100
AcDbVisualStyle
  2
X-Ray
 70
    25
177
     2
291
     0
 71
     2
176
     1
 72
     2
176
     1
 73
     1
176
     1
 90
        1
176
     1
 40
0.5
176
     1
 41
30.0
176
     1
 63
     7
421
 16777215
176
     1
 74
     1
176
     1
 91
        0
176
     1
 64
     7
176
     1
 65
   257
176
     1
 75
     1
176
     1
175
     1
176
     1
 42
1.0
176
     1
 92
        8
176
     1
 66
     7
176
     1
 43
1.0
176
     1
 76
     1
176
     1
 77
     6
176
     1
 78
     2
176
     1
 67
     7
176
     1
 79
     3
176
     1
170
     0
176
     1
171
     0
176
     1
290
     0
176
     1
 93
       13
176
     1
 44
0.0
176
     1
173
     0
176
     1
1001
ACAD
1000
AcDbSavedByObjectVersion
1070
     0
  0
DICTIONARYVAR
  5
DC
102
{ACAD_REACTORS
330
D7
102
}
330
D7
100
DictionaryVariables
280
     0
  1
1:1
  0
DICTIONARYVAR
  5
D9
102
{ACAD_REACTORS
330
D7
102
}
330
D7
100
DictionaryVariables
280
     0
  1
STANDARD
  0
DICTIONARYVAR
  5
D8
102
{ACAD_REACTORS
330
D7
102
}
330
D7
100
DictionaryVariables
280
     0
  1
STANDARD
  0
DICTIONARYVAR
  5
DA
102
{ACAD_REACTORS
330
D7
102
}
330
D7
100
DictionaryVariables
280
     0
  1
Imperial24
  0
DICTIONARYVAR
  5
DB
102
{ACAD_REACTORS
330
D7
102
}
330
D7
100
DictionaryVariables
280
     0
  1
Imperial24
  0
DICTIONARY
  5
114
330
6B
100
AcDbDictionary
280
     1
281
     1
  3
ACAD_XREC_ROUNDTRIP
360
115
  0
DICTIONARY
  5
1A
330
19
100
AcDbDictionary
280
     1
281
     1
  3
BUMPTILE
360
1C
  3
DIFFUSETILE
360
1B
  3
OPACITYTILE
360
1F
  3
REFLECTIONTILE
360
1E
  3
REFRACTIONTILE
360
20
  3
SPECULARTILE
360
1D
  0
DICTIONARY
  5
12
330
11
100
AcDbDictionary
280
     1
281
     1
  3
BUMPTILE
360
14
  3
DIFFUSETILE
360
13
  3
OPACITYTILE
360
17
  3
REFLECTIONTILE
360
16
  3
REFRACTIONTILE
360
18
  3
SPECULARTILE
360
15
  0
DICTIONARY
  5
22
330
21
100
AcDbDictionary
280
     1
281
     1
  3
BUMPTILE
360
24
  3
DIFFUSETILE
360
23
  3
OPACITYTILE
360
27
  3
REFLECTIONTILE
360
26
  3
REFRACTIONTILE
360
28
  3
SPECULARTILE
360
25
  0
DICTIONARY
  5
110
330
67
100
AcDbDictionary
280
     1
281
     1
  3
ACAD_XREC_ROUNDTRIP
360
111
  0
DICTIONARY
  5
112
330
69
100
AcDbDictionary
280
     1
281
     1
  3
ACAD_XREC_ROUNDTRIP
360
113
  0
DICTIONARY
  5
DD
330
65
100
AcDbDictionary
280
     1
281
     1
  3
ACAD_ROUNDTRIP_2008_TABLESTYLE_CELLSTYLEMAP
360
DE
  0
DICTIONARY
  5
EA
330
2F
100
AcDbDictionary
280
     1
281
     1
  3
ACAD_XREC_ROUNDTRIP
360
EB
  0
DICTIONARY
  5
E8
330
2E
100
AcDbDictionary
280
     1
281
     1
  3
ACAD_XREC_ROUNDTRIP
360
E9
  0
DICTIONARY
  5
F6
330
35
100
AcDbDictionary
280
     1
281
     1
  3
ACAD_XREC_ROUNDTRIP
360
F7
  0
DICTIONARY
  5
FE
330
39
100
AcDbDictionary
280
     1
281
     1
  3
ACAD_XREC_ROUNDTRIP
360
FF
  0
DICTIONARY
  5
F0
330
32
100
AcDbDictionary
280
     1
281
     1
  3
ACAD_XREC_ROUNDTRIP
360
F1
  0
DICTIONARY
  5
F4
330
34
100
AcDbDictionary
280
     1
281
     1
  3
ACAD_XREC_ROUNDTRIP
360
F5
  0
DICTIONARY
  5
10E
330
41
100
AcDbDictionary
280
     1
281
     1
  3
ACAD_XREC_ROUNDTRIP
360
10F
  0
DICTIONARY
  5
FC
330
38
100
AcDbDictionary
280
     1
281
     1
  3
ACAD_XREC_ROUNDTRIP
360
FD
  0
DICTIONARY
  5
E0
330
2A
100
AcDbDictionary
280
     1
281
     1
  3
ACAD_XREC_ROUNDTRIP
360
E1
  0
DICTIONARY
  5
E2
330
2B
100
AcDbDictionary
280
     1
281
     1
  3
ACAD_XREC_ROUNDTRIP
360
E3
  0
DICTIONARY
  5
E4
330
2C
100
AcDbDictionary
280
     1
281
     1
  3
ACAD_XREC_ROUNDTRIP
360
E5
  0
DICTIONARY
  5
E6
330
2D
100
AcDbDictionary
280
     1
281
     1
  3
ACAD_XREC_ROUNDTRIP
360
E7
  0
DICTIONARY
  5
EE
330
31
100
AcDbDictionary
280
     1
281
     1
  3
ACAD_XREC_ROUNDTRIP
360
EF
  0
DICTIONARY
  5
10A
330
3F
100
AcDbDictionary
280
     1
281
     1
  3
ACAD_XREC_ROUNDTRIP
360
10B
  0
DICTIONARY
  5
FA
330
37
100
AcDbDictionary
280
     1
281
     1
  3
ACAD_XREC_ROUNDTRIP
360
FB
  0
DICTIONARY
  5
10C
330
40
100
AcDbDictionary
280
     1
281
     1
  3
ACAD_XREC_ROUNDTRIP
360
10D
  0
DICTIONARY
  5
F2
330
33
100
AcDbDictionary
280
     1
281
     1
  3
ACAD_XREC_ROUNDTRIP
360
F3
  0
DICTIONARY
  5
108
330
3E
100
AcDbDictionary
280
     1
281
     1
  3
ACAD_XREC_ROUNDTRIP
360
109
  0
DICTIONARY
  5
106
330
3D
100
AcDbDictionary
280
     1
281
     1
  3
ACAD_XREC_ROUNDTRIP
360
107
  0
DICTIONARY
  5
100
330
3A
100
AcDbDictionary
280
     1
281
     1
  3
ACAD_XREC_ROUNDTRIP
360
101
  0
DICTIONARY
  5
102
330
3B
100
AcDbDictionary
280
     1
281
     1
  3
ACAD_XREC_ROUNDTRIP
360
103
  0
DICTIONARY
  5
F8
330
36
100
AcDbDictionary
280
     1
281
     1
  3
ACAD_XREC_ROUNDTRIP
360
F9
  0
DICTIONARY
  5
EC
330
30
100
AcDbDictionary
280
     1
281
     1
  3
ACAD_XREC_ROUNDTRIP
360
ED
  0
DICTIONARY
  5
104
330
3C
100
AcDbDictionary
280
     1
281
     1
  3
ACAD_XREC_ROUNDTRIP
360
105
  0
XRECORD
  5
115
102
{ACAD_REACTORS
330
114
102
}
330
114
100
AcDbXrecord
280
     1
102
DISPLAYNAME
  1
Imperial24
102
FLAGS
 90
        0
  0
XRECORD
  5
1C
102
{ACAD_REACTORS
330
1A
102
}
330
1A
100
AcDbXrecord
280
     1
270
     1
271
     1
  0
XRECORD
  5
1B
102
{ACAD_REACTORS
330
1A
102
}
330
1A
100
AcDbXrecord
280
     1
270
     1
271
     1
  0
XRECORD
  5
1F
102
{ACAD_REACTORS
330
1A
102
}
330
1A
100
AcDbXrecord
280
     1
270
     1
271
     1
  0
XRECORD
  5
1E
102
{ACAD_REACTORS
330
1A
102
}
330
1A
100
AcDbXrecord
280
     1
270
     1
271
     1
  0
XRECORD
  5
20
102
{ACAD_REACTORS
330
1A
102
}
330
1A
100
AcDbXrecord
280
     1
270
     1
271
     1
  0
XRECORD
  5
1D
102
{ACAD_REACTORS
330
1A
102
}
330
1A
100
AcDbXrecord
280
     1
270
     1
271
     1
  0
XRECORD
  5
14
102
{ACAD_REACTORS
330
12
102
}
330
12
100
AcDbXrecord
280
     1
270
     1
271
     1
  0
XRECORD
  5
13
102
{ACAD_REACTORS
330
12
102
}
330
12
100
AcDbXrecord
280
     1
270
     1
271
     1
  0
XRECORD
  5
17
102
{ACAD_REACTORS
330
12
102
}
330
12
100
AcDbXrecord
280
     1
270
     1
271
     1
  0
XRECORD
  5
16
102
{ACAD_REACTORS
330
12
102
}
330
12
100
AcDbXrecord
280
     1
270
     1
271
     1
  0
XRECORD
  5
18
102
{ACAD_REACTORS
330
12
102
}
330
12
100
AcDbXrecord
280
     1
270
     1
271
     1
  0
XRECORD
  5
15
102
{ACAD_REACTORS
330
12
102
}
330
12
100
AcDbXrecord
280
     1
270
     1
271
     1
  0
XRECORD
  5
24
102
{ACAD_REACTORS
330
22
102
}
330
22
100
AcDbXrecord
280
     1
270
     1
271
     1
  0
XRECORD
  5
23
102
{ACAD_REACTORS
330
22
102
}
330
22
100
AcDbXrecord
280
     1
270
     1
271
     1
  0
XRECORD
  5
27
102
{ACAD_REACTORS
330
22
102
}
330
22
100
AcDbXrecord
280
     1
270
     1
271
     1
  0
XRECORD
  5
26
102
{ACAD_REACTORS
330
22
102
}
330
22
100
AcDbXrecord
280
     1
270
     1
271
     1
  0
XRECORD
  5
28
102
{ACAD_REACTORS
330
22
102
}
330
22
100
AcDbXrecord
280
     1
270
     1
271
     1
  0
XRECORD
  5
25
102
{ACAD_REACTORS
330
22
102
}
330
22
100
AcDbXrecord
280
     1
270
     1
271
     1
  0
XRECORD
  5
111
102
{ACAD_REACTORS
330
110
102
}
330
110
100
AcDbXrecord
280
     1
102
ACAD_ROUNDTRIP_2012_MLEADER_STYLE
298
     1
  0
XRECORD
  5
113
102
{ACAD_REACTORS
330
112
102
}
330
112
100
AcDbXrecord
280
     1
102
DISPLAYNAME
  1
Imperial24
102
FLAGS
 90
        0
  0
CELLSTYLEMAP
  5
DE
102
{ACAD_REACTORS
330
DD
102
}
330
DD
100
AcDbCellStyleMap
 90
        3
300
CELLSTYLE
  1
TABLEFORMAT_BEGIN
 90
        5
170
     1
 91
        0
 92
    32768
 62
   257
 93
        1
300
CONTENTFORMAT
  1
CONTENTFORMAT_BEGIN
 90
        0
 91
        0
 92
      512
 93
        0
300

 40
0.0
140
1.0
 94
        5
 62
     0
340
55
144
0.25
309
CONTENTFORMAT_END
171
     0
 94
        0
309
TABLEFORMAT_END
  1
CELLSTYLE_BEGIN
 90
        1
 91
        1
300
_TITLE
309
CELLSTYLE_END
300
CELLSTYLE
  1
TABLEFORMAT_BEGIN
 90
        5
170
     1
 91
        0
 92
        0
 62
   257
 93
        1
300
CONTENTFORMAT
  1
CONTENTFORMAT_BEGIN
 90
        0
 91
        0
 92
      512
 93
        0
300

 40
0.0
140
1.0
 94
        5
 62
     0
340
55
144
0.18
309
CONTENTFORMAT_END
171
     0
 94
        0
309
TABLEFORMAT_END
  1
CELLSTYLE_BEGIN
 90
        2
 91
        1
300
_HEADER
309
CELLSTYLE_END
300
CELLSTYLE
  1
TABLEFORMAT_BEGIN
 90
        5
170
     1
 91
        0
 92
        0
 62
   257
 93
        1
300
CONTENTFORMAT
  1
CONTENTFORMAT_BEGIN
 90
        0
 91
        0
 92
      512
 93
        0
300

 40
0.0
140
1.0
 94
        2
 62
     0
340
55
144
0.18
309
CONTENTFORMAT_END
171
     0
 94
        0
309
TABLEFORMAT_END
  1
CELLSTYLE_BEGIN
 90
        3
 91
        2
300
_DATA
309
CELLSTYLE_END
  0
XRECORD
  5
EB
102
{ACAD_REACTORS
330
EA
102
}
330
EA
100
AcDbXrecord
280
     1
102
RTVSPost2010Prop28
280
     1
102
RTVSPost2010PropOp28
 70
     1
102
RTVSPost2010Prop29
280
     1
102
RTVSPost2010PropOp29
 70
     1
102
RTVSPost2010Prop30
280
     0
102
RTVSPost2010PropOp30
 70
     1
102
RTVSPost2010Prop31
280
     0
102
RTVSPost2010PropOp31
 70
     1
102
RTVSPost2010Prop32
280
     0
102
RTVSPost2010PropOp32
 70
     1
102
RTVSPost2010Prop33
280
     0
102
RTVSPost2010PropOp33
 70
     1
102
RTVSPost2010Prop34
280
     0
102
RTVSPost2010PropOp34
 70
     1
102
RTVSPost2010Prop35
280
     0
102
RTVSPost2010PropOp35
 70
     1
102
RTVSPost2010Prop36
280
     0
102
RTVSPost2010PropOp36
 70
     1
102
RTVSPost2010Prop37
 90
       50
102
RTVSPost2010PropOp37
 70
     1
102
RTVSPost2010Prop38
140
0.0
102
RTVSPost2010PropOp38
 70
     1
102
RTVSPost2010Prop39
140
1.0
102
RTVSPost2010PropOp39
 70
     1
102
RTVSPost2010Prop40
 90
        0
102
RTVSPost2010PropOp40
 70
     1
102
RTVSPost2010Prop41ColorIndex
 90
       18
102
RTVSPost2010Prop41ColorRGB
 90
        0
102
RTVSPost2010PropOp41
 70
     1
102
RTVSPost2010Prop42
 90
       50
102
RTVSPost2010PropOp42
 70
     1
102
RTVSPost2010Prop43
 90
        3
102
RTVSPost2010PropOp43
 70
     1
102
RTVSPost2010Prop44ColorIndex
 90
        5
102
RTVSPost2010Prop44ColorRGB
 90
      255
102
RTVSPost2010PropOp44
 70
     1
102
RTVSPost2010Prop45
280
     0
102
RTVSPost2010PropOp45
 70
     1
102
RTVSPost2010Prop46
 90
       50
102
RTVSPost2010PropOp46
 70
     1
102
RTVSPost2010Prop47
 90
       50
102
RTVSPost2010PropOp47
 70
     1
102
RTVSPost2010Prop48
 90
       50
102
RTVSPost2010PropOp48
 70
     1
102
RTVSPost2010Prop49
280
     0
102
RTVSPost2010PropOp49
 70
     1
102
RTVSPost2010Prop50
 90
       50
102
RTVSPost2010PropOp50
 70
     1
102
RTVSPost2010Prop51ColorIndex
 90
      256
102
RTVSPost2010Prop51ColorRGB
 90
-16777216
102
RTVSPost2010PropOp51
 70
     0
102
RTVSPost2010Prop52
140
1.0
102
RTVSPost2010PropOp52
 70
     0
102
RTVSPost2010Prop53
 90
        2
102
RTVSPost2010PropOp53
 70
     1
102
RTVSPost2010Prop54
  1
strokes_ogs.tif
102
RTVSPost2010PropOp54
 70
     1
102
RTVSPost2010Prop55
280
     0
102
RTVSPost2010PropOp55
 70
     1
102
RTVSPost2010Prop56
140
1.0
102
RTVSPost2010PropOp56
 70
     1
102
RTVSPost2010Prop57
140
1.0
102
RTVSPost2010PropOp57
 70
     1
  0
XRECORD
  5
E9
102
{ACAD_REACTORS
330
E8
102
}
330
E8
100
AcDbXrecord
280
     1
102
RTVSPost2010Prop28
280
     0
102
RTVSPost2010PropOp28
 70
     1
102
RTVSPost2010Prop29
280
     1
102
RTVSPost2010PropOp29
 70
     1
102
RTVSPost2010Prop30
280
     1
102
RTVSPost2010PropOp30
 70
     1
102
RTVSPost2010Prop31
280
     0
102
RTVSPost2010PropOp31
 70
     1
102
RTVSPost2010Prop32
280
     0
102
RTVSPost2010PropOp32
 70
     1
102
RTVSPost2010Prop33
280
     0
102
RTVSPost2010PropOp33
 70
     1
102
RTVSPost2010Prop34
280
     0
102
RTVSPost2010PropOp34
 70
     1
102
RTVSPost2010Prop35
280
     0
102
RTVSPost2010PropOp35
 70
     1
102
RTVSPost2010Prop36
280
     0
102
RTVSPost2010PropOp36
 70
     1
102
RTVSPost2010Prop37
 90
       50
102
RTVSPost2010PropOp37
 70
     1
102
RTVSPost2010Prop38
140
0.0
102
RTVSPost2010PropOp38
 70
     1
102
RTVSPost2010Prop39
140
1.0
102
RTVSPost2010PropOp39
 70
     1
102
RTVSPost2010Prop40
 90
        0
102
RTVSPost2010PropOp40
 70
     1
102
RTVSPost2010Prop41ColorIndex
 90
       18
102
RTVSPost2010Prop41ColorRGB
 90
        0
102
RTVSPost2010PropOp41
 70
     1
102
RTVSPost2010Prop42
 90
       50
102
RTVSPost2010PropOp42
 70
     1
102
RTVSPost2010Prop43
 90
        3
102
RTVSPost2010PropOp43
 70
     1
102
RTVSPost2010Prop44ColorIndex
 90
        5
102
RTVSPost2010Prop44ColorRGB
 90
      255
102
RTVSPost2010PropOp44
 70
     1
102
RTVSPost2010Prop45
280
     0
102
RTVSPost2010PropOp45
 70
     1
102
RTVSPost2010Prop46
 90
       50
102
RTVSPost2010PropOp46
 70
     1
102
RTVSPost2010Prop47
 90
       50
102
RTVSPost2010PropOp47
 70
     1
102
RTVSPost2010Prop48
 90
       50
102
RTVSPost2010PropOp48
 70
     1
102
RTVSPost2010Prop49
280
     0
102
RTVSPost2010PropOp49
 70
     1
102
RTVSPost2010Prop50
 90
       50
102
RTVSPost2010PropOp50
 70
     1
102
RTVSPost2010Prop51ColorIndex
 90
      256
102
RTVSPost2010Prop51ColorRGB
 90
-16777216
102
RTVSPost2010PropOp51
 70
     0
102
RTVSPost2010Prop52
140
1.0
102
RTVSPost2010PropOp52
 70
     0
102
RTVSPost2010Prop53
 90
        2
102
RTVSPost2010PropOp53
 70
     1
102
RTVSPost2010Prop54
  1
strokes_ogs.tif
102
RTVSPost2010PropOp54
 70
     1
102
RTVSPost2010Prop55
280
     0
102
RTVSPost2010PropOp55
 70
     1
102
RTVSPost2010Prop56
140
1.0
102
RTVSPost2010PropOp56
 70
     1
102
RTVSPost2010Prop57
140
1.0
102
RTVSPost2010PropOp57
 70
     1
  0
XRECORD
  5
F7
102
{ACAD_REACTORS
330
F6
102
}
330
F6
100
AcDbXrecord
280
     1
102
RTVSPost2010Prop28
280
     0
102
RTVSPost2010PropOp28
 70
     1
102
RTVSPost2010Prop29
280
     1
102
RTVSPost2010PropOp29
 70
     1
102
RTVSPost2010Prop30
280
     1
102
RTVSPost2010PropOp30
 70
     1
102
RTVSPost2010Prop31
280
     0
102
RTVSPost2010PropOp31
 70
     1
102
RTVSPost2010Prop32
280
     0
102
RTVSPost2010PropOp32
 70
     1
102
RTVSPost2010Prop33
280
     0
102
RTVSPost2010PropOp33
 70
     1
102
RTVSPost2010Prop34
280
     0
102
RTVSPost2010PropOp34
 70
     1
102
RTVSPost2010Prop35
280
     0
102
RTVSPost2010PropOp35
 70
     1
102
RTVSPost2010Prop36
280
     0
102
RTVSPost2010PropOp36
 70
     1
102
RTVSPost2010Prop37
 90
       50
102
RTVSPost2010PropOp37
 70
     1
102
RTVSPost2010Prop38
140
0.0
102
RTVSPost2010PropOp38
 70
     1
102
RTVSPost2010Prop39
140
1.0
102
RTVSPost2010PropOp39
 70
     1
102
RTVSPost2010Prop40
 90
        0
102
RTVSPost2010PropOp40
 70
     1
102
RTVSPost2010Prop41ColorIndex
 90
       18
102
RTVSPost2010Prop41ColorRGB
 90
        0
102
RTVSPost2010PropOp41
 70
     1
102
RTVSPost2010Prop42
 90
       50
102
RTVSPost2010PropOp42
 70
     1
102
RTVSPost2010Prop43
 90
        3
102
RTVSPost2010PropOp43
 70
     1
102
RTVSPost2010Prop44ColorIndex
 90
        5
102
RTVSPost2010Prop44ColorRGB
 90
      255
102
RTVSPost2010PropOp44
 70
     1
102
RTVSPost2010Prop45
280
     0
102
RTVSPost2010PropOp45
 70
     1
102
RTVSPost2010Prop46
 90
       50
102
RTVSPost2010PropOp46
 70
     1
102
RTVSPost2010Prop47
 90
       50
102
RTVSPost2010PropOp47
 70
     1
102
RTVSPost2010Prop48
 90
       50
102
RTVSPost2010PropOp48
 70
     1
102
RTVSPost2010Prop49
280
     0
102
RTVSPost2010PropOp49
 70
     1
102
RTVSPost2010Prop50
 90
       50
102
RTVSPost2010PropOp50
 70
     1
102
RTVSPost2010Prop51ColorIndex
 90
      256
102
RTVSPost2010Prop51ColorRGB
 90
-16777216
102
RTVSPost2010PropOp51
 70
     0
102
RTVSPost2010Prop52
140
1.0
102
RTVSPost2010PropOp52
 70
     0
102
RTVSPost2010Prop53
 90
        2
102
RTVSPost2010PropOp53
 70
     1
102
RTVSPost2010Prop54
  1
strokes_ogs.tif
102
RTVSPost2010PropOp54
 70
     1
102
RTVSPost2010Prop55
280
     0
102
RTVSPost2010PropOp55
 70
     1
102
RTVSPost2010Prop56
140
1.0
102
RTVSPost2010PropOp56
 70
     1
102
RTVSPost2010Prop57
140
1.0
102
RTVSPost2010PropOp57
 70
     1
  0
XRECORD
  5
FF
102
{ACAD_REACTORS
330
FE
102
}
330
FE
100
AcDbXrecord
280
     1
102
RTVSPost2010Prop28
280
     0
102
RTVSPost2010PropOp28
 70
     1
102
RTVSPost2010Prop29
280
     1
102
RTVSPost2010PropOp29
 70
     1
102
RTVSPost2010Prop30
280
     1
102
RTVSPost2010PropOp30
 70
     1
102
RTVSPost2010Prop31
280
     0
102
RTVSPost2010PropOp31
 70
     1
102
RTVSPost2010Prop32
280
     0
102
RTVSPost2010PropOp32
 70
     1
102
RTVSPost2010Prop33
280
     0
102
RTVSPost2010PropOp33
 70
     1
102
RTVSPost2010Prop34
280
     0
102
RTVSPost2010PropOp34
 70
     1
102
RTVSPost2010Prop35
280
     0
102
RTVSPost2010PropOp35
 70
     1
102
RTVSPost2010Prop36
280
     0
102
RTVSPost2010PropOp36
 70
     1
102
RTVSPost2010Prop37
 90
       50
102
RTVSPost2010PropOp37
 70
     1
102
RTVSPost2010Prop38
140
0.0
102
RTVSPost2010PropOp38
 70
     1
102
RTVSPost2010Prop39
140
1.0
102
RTVSPost2010PropOp39
 70
     1
102
RTVSPost2010Prop40
 90
        0
102
RTVSPost2010PropOp40
 70
     1
102
RTVSPost2010Prop41ColorIndex
 90
       18
102
RTVSPost2010Prop41ColorRGB
 90
        0
102
RTVSPost2010PropOp41
 70
     1
102
RTVSPost2010Prop42
 90
       50
102
RTVSPost2010PropOp42
 70
     1
102
RTVSPost2010Prop43
 90
        3
102
RTVSPost2010PropOp43
 70
     1
102
RTVSPost2010Prop44ColorIndex
 90
        5
102
RTVSPost2010Prop44ColorRGB
 90
      255
102
RTVSPost2010PropOp44
 70
     1
102
RTVSPost2010Prop45
280
     0
102
RTVSPost2010PropOp45
 70
     1
102
RTVSPost2010Prop46
 90
       50
102
RTVSPost2010PropOp46
 70
     1
102
RTVSPost2010Prop47
 90
       50
102
RTVSPost2010PropOp47
 70
     1
102
RTVSPost2010Prop48
 90
       50
102
RTVSPost2010PropOp48
 70
     1
102
RTVSPost2010Prop49
280
     0
102
RTVSPost2010PropOp49
 70
     1
102
RTVSPost2010Prop50
 90
       50
102
RTVSPost2010PropOp50
 70
     1
102
RTVSPost2010Prop51ColorIndex
 90
      256
102
RTVSPost2010Prop51ColorRGB
 90
-16777216
102
RTVSPost2010PropOp51
 70
     0
102
RTVSPost2010Prop52
140
1.0
102
RTVSPost2010PropOp52
 70
     0
102
RTVSPost2010Prop53
 90
        2
102
RTVSPost2010PropOp53
 70
     1
102
RTVSPost2010Prop54
  1
strokes_ogs.tif
102
RTVSPost2010PropOp54
 70
     1
102
RTVSPost2010Prop55
280
     0
102
RTVSPost2010PropOp55
 70
     1
102
RTVSPost2010Prop56
140
1.0
102
RTVSPost2010PropOp56
 70
     1
102
RTVSPost2010Prop57
140
1.0
102
RTVSPost2010PropOp57
 70
     1
  0
XRECORD
  5
F1
102
{ACAD_REACTORS
330
F0
102
}
330
F0
100
AcDbXrecord
280
     1
102
RTVSPost2010Prop28
280
     0
102
RTVSPost2010PropOp28
 70
     1
102
RTVSPost2010Prop29
280
     1
102
RTVSPost2010PropOp29
 70
     1
102
RTVSPost2010Prop30
280
     1
102
RTVSPost2010PropOp30
 70
     1
102
RTVSPost2010Prop31
280
     0
102
RTVSPost2010PropOp31
 70
     1
102
RTVSPost2010Prop32
280
     0
102
RTVSPost2010PropOp32
 70
     1
102
RTVSPost2010Prop33
280
     0
102
RTVSPost2010PropOp33
 70
     1
102
RTVSPost2010Prop34
280
     0
102
RTVSPost2010PropOp34
 70
     1
102
RTVSPost2010Prop35
280
     0
102
RTVSPost2010PropOp35
 70
     1
102
RTVSPost2010Prop36
280
     0
102
RTVSPost2010PropOp36
 70
     1
102
RTVSPost2010Prop37
 90
       50
102
RTVSPost2010PropOp37
 70
     1
102
RTVSPost2010Prop38
140
0.0
102
RTVSPost2010PropOp38
 70
     1
102
RTVSPost2010Prop39
140
1.0
102
RTVSPost2010PropOp39
 70
     1
102
RTVSPost2010Prop40
 90
        0
102
RTVSPost2010PropOp40
 70
     1
102
RTVSPost2010Prop41ColorIndex
 90
       18
102
RTVSPost2010Prop41ColorRGB
 90
        0
102
RTVSPost2010PropOp41
 70
     1
102
RTVSPost2010Prop42
 90
       50
102
RTVSPost2010PropOp42
 70
     1
102
RTVSPost2010Prop43
 90
        3
102
RTVSPost2010PropOp43
 70
     1
102
RTVSPost2010Prop44ColorIndex
 90
        5
102
RTVSPost2010Prop44ColorRGB
 90
      255
102
RTVSPost2010PropOp44
 70
     1
102
RTVSPost2010Prop45
280
     0
102
RTVSPost2010PropOp45
 70
     1
102
RTVSPost2010Prop46
 90
       50
102
RTVSPost2010PropOp46
 70
     1
102
RTVSPost2010Prop47
 90
       50
102
RTVSPost2010PropOp47
 70
     1
102
RTVSPost2010Prop48
 90
       50
102
RTVSPost2010PropOp48
 70
     1
102
RTVSPost2010Prop49
280
     0
102
RTVSPost2010PropOp49
 70
     1
102
RTVSPost2010Prop50
 90
       50
102
RTVSPost2010PropOp50
 70
     1
102
RTVSPost2010Prop51ColorIndex
 90
      256
102
RTVSPost2010Prop51ColorRGB
 90
-16777216
102
RTVSPost2010PropOp51
 70
     0
102
RTVSPost2010Prop52
140
1.0
102
RTVSPost2010PropOp52
 70
     0
102
RTVSPost2010Prop53
 90
        2
102
RTVSPost2010PropOp53
 70
     1
102
RTVSPost2010Prop54
  1
strokes_ogs.tif
102
RTVSPost2010PropOp54
 70
     1
102
RTVSPost2010Prop55
280
     0
102
RTVSPost2010PropOp55
 70
     1
102
RTVSPost2010Prop56
140
1.0
102
RTVSPost2010PropOp56
 70
     1
102
RTVSPost2010Prop57
140
1.0
102
RTVSPost2010PropOp57
 70
     1
  0
XRECORD
  5
F5
102
{ACAD_REACTORS
330
F4
102
}
330
F4
100
AcDbXrecord
280
     1
102
RTVSPost2010Prop28
280
     0
102
RTVSPost2010PropOp28
 70
     1
102
RTVSPost2010Prop29
280
     1
102
RTVSPost2010PropOp29
 70
     1
102
RTVSPost2010Prop30
280
     1
102
RTVSPost2010PropOp30
 70
     1
102
RTVSPost2010Prop31
280
     0
102
RTVSPost2010PropOp31
 70
     1
102
RTVSPost2010Prop32
280
     0
102
RTVSPost2010PropOp32
 70
     1
102
RTVSPost2010Prop33
280
     0
102
RTVSPost2010PropOp33
 70
     1
102
RTVSPost2010Prop34
280
     0
102
RTVSPost2010PropOp34
 70
     1
102
RTVSPost2010Prop35
280
     0
102
RTVSPost2010PropOp35
 70
     1
102
RTVSPost2010Prop36
280
     0
102
RTVSPost2010PropOp36
 70
     1
102
RTVSPost2010Prop37
 90
       50
102
RTVSPost2010PropOp37
 70
     1
102
RTVSPost2010Prop38
140
0.0
102
RTVSPost2010PropOp38
 70
     1
102
RTVSPost2010Prop39
140
1.0
102
RTVSPost2010PropOp39
 70
     1
102
RTVSPost2010Prop40
 90
        0
102
RTVSPost2010PropOp40
 70
     1
102
RTVSPost2010Prop41ColorIndex
 90
       18
102
RTVSPost2010Prop41ColorRGB
 90
        0
102
RTVSPost2010PropOp41
 70
     1
102
RTVSPost2010Prop42
 90
       50
102
RTVSPost2010PropOp42
 70
     1
102
RTVSPost2010Prop43
 90
        3
102
RTVSPost2010PropOp43
 70
     1
102
RTVSPost2010Prop44ColorIndex
 90
        5
102
RTVSPost2010Prop44ColorRGB
 90
      255
102
RTVSPost2010PropOp44
 70
     1
102
RTVSPost2010Prop45
280
     0
102
RTVSPost2010PropOp45
 70
     1
102
RTVSPost2010Prop46
 90
       50
102
RTVSPost2010PropOp46
 70
     1
102
RTVSPost2010Prop47
 90
       50
102
RTVSPost2010PropOp47
 70
     1
102
RTVSPost2010Prop48
 90
       50
102
RTVSPost2010PropOp48
 70
     1
102
RTVSPost2010Prop49
280
     0
102
RTVSPost2010PropOp49
 70
     1
102
RTVSPost2010Prop50
 90
       50
102
RTVSPost2010PropOp50
 70
     1
102
RTVSPost2010Prop51ColorIndex
 90
      256
102
RTVSPost2010Prop51ColorRGB
 90
-16777216
102
RTVSPost2010PropOp51
 70
     0
102
RTVSPost2010Prop52
140
1.0
102
RTVSPost2010PropOp52
 70
     0
102
RTVSPost2010Prop53
 90
        2
102
RTVSPost2010PropOp53
 70
     1
102
RTVSPost2010Prop54
  1
strokes_ogs.tif
102
RTVSPost2010PropOp54
 70
     1
102
RTVSPost2010Prop55
280
     0
102
RTVSPost2010PropOp55
 70
     1
102
RTVSPost2010Prop56
140
1.0
102
RTVSPost2010PropOp56
 70
     1
102
RTVSPost2010Prop57
140
1.0
102
RTVSPost2010PropOp57
 70
     1
  0
XRECORD
  5
10F
102
{ACAD_REACTORS
330
10E
102
}
330
10E
100
AcDbXrecord
280
     1
102
RTVSPost2010Prop28
280
     0
102
RTVSPost2010PropOp28
 70
     0
102
RTVSPost2010Prop29
280
     1
102
RTVSPost2010PropOp29
 70
     0
102
RTVSPost2010Prop30
280
     1
102
RTVSPost2010PropOp30
 70
     0
102
RTVSPost2010Prop31
280
     0
102
RTVSPost2010PropOp31
 70
     0
102
RTVSPost2010Prop32
280
     0
102
RTVSPost2010PropOp32
 70
     0
102
RTVSPost2010Prop33
280
     0
102
RTVSPost2010PropOp33
 70
     0
102
RTVSPost2010Prop34
280
     0
102
RTVSPost2010PropOp34
 70
     0
102
RTVSPost2010Prop35
280
     0
102
RTVSPost2010PropOp35
 70
     0
102
RTVSPost2010Prop36
280
     0
102
RTVSPost2010PropOp36
 70
     0
102
RTVSPost2010Prop37
 90
       50
102
RTVSPost2010PropOp37
 70
     0
102
RTVSPost2010Prop38
140
0.0
102
RTVSPost2010PropOp38
 70
     0
102
RTVSPost2010Prop39
140
1.0
102
RTVSPost2010PropOp39
 70
     0
102
RTVSPost2010Prop40
 90
        0
102
RTVSPost2010PropOp40
 70
     0
102
RTVSPost2010Prop41ColorIndex
 90
       18
102
RTVSPost2010Prop41ColorRGB
 90
        0
102
RTVSPost2010PropOp41
 70
     0
102
RTVSPost2010Prop42
 90
       50
102
RTVSPost2010PropOp42
 70
     0
102
RTVSPost2010Prop43
 90
        3
102
RTVSPost2010PropOp43
 70
     0
102
RTVSPost2010Prop44ColorIndex
 90
        5
102
RTVSPost2010Prop44ColorRGB
 90
      255
102
RTVSPost2010PropOp44
 70
     0
102
RTVSPost2010Prop45
280
     0
102
RTVSPost2010PropOp45
 70
     0
102
RTVSPost2010Prop46
 90
       50
102
RTVSPost2010PropOp46
 70
     0
102
RTVSPost2010Prop47
 90
       50
102
RTVSPost2010PropOp47
 70
     0
102
RTVSPost2010Prop48
 90
       50
102
RTVSPost2010PropOp48
 70
     0
102
RTVSPost2010Prop49
280
     0
102
RTVSPost2010PropOp49
 70
     0
102
RTVSPost2010Prop50
 90
       50
102
RTVSPost2010PropOp50
 70
     0
102
RTVSPost2010Prop51ColorIndex
 90
      256
102
RTVSPost2010Prop51ColorRGB
 90
-16777216
102
RTVSPost2010PropOp51
 70
     0
102
RTVSPost2010Prop52
140
1.0
102
RTVSPost2010PropOp52
 70
     0
102
RTVSPost2010Prop53
 90
        2
102
RTVSPost2010PropOp53
 70
     0
102
RTVSPost2010Prop54
  1
strokes_ogs.tif
102
RTVSPost2010PropOp54
 70
     0
102
RTVSPost2010Prop55
280
     0
102
RTVSPost2010PropOp55
 70
     0
102
RTVSPost2010Prop56
140
1.0
102
RTVSPost2010PropOp56
 70
     0
102
RTVSPost2010Prop57
140
1.0
102
RTVSPost2010PropOp57
 70
     0
  0
XRECORD
  5
FD
102
{ACAD_REACTORS
330
FC
102
}
330
FC
100
AcDbXrecord
280
     1
102
RTVSPost2010Prop28
280
     0
102
RTVSPost2010PropOp28
 70
     1
102
RTVSPost2010Prop29
280
     1
102
RTVSPost2010PropOp29
 70
     1
102
RTVSPost2010Prop30
280
     1
102
RTVSPost2010PropOp30
 70
     1
102
RTVSPost2010Prop31
280
     0
102
RTVSPost2010PropOp31
 70
     1
102
RTVSPost2010Prop32
280
     0
102
RTVSPost2010PropOp32
 70
     1
102
RTVSPost2010Prop33
280
     0
102
RTVSPost2010PropOp33
 70
     1
102
RTVSPost2010Prop34
280
     0
102
RTVSPost2010PropOp34
 70
     1
102
RTVSPost2010Prop35
280
     0
102
RTVSPost2010PropOp35
 70
     1
102
RTVSPost2010Prop36
280
     0
102
RTVSPost2010PropOp36
 70
     1
102
RTVSPost2010Prop37
 90
       50
102
RTVSPost2010PropOp37
 70
     1
102
RTVSPost2010Prop38
140
0.0
102
RTVSPost2010PropOp38
 70
     1
102
RTVSPost2010Prop39
140
1.0
102
RTVSPost2010PropOp39
 70
     1
102
RTVSPost2010Prop40
 90
        0
102
RTVSPost2010PropOp40
 70
     1
102
RTVSPost2010Prop41ColorIndex
 90
       18
102
RTVSPost2010Prop41ColorRGB
 90
        0
102
RTVSPost2010PropOp41
 70
     1
102
RTVSPost2010Prop42
 90
       50
102
RTVSPost2010PropOp42
 70
     1
102
RTVSPost2010Prop43
 90
        3
102
RTVSPost2010PropOp43
 70
     1
102
RTVSPost2010Prop44ColorIndex
 90
        5
102
RTVSPost2010Prop44ColorRGB
 90
      255
102
RTVSPost2010PropOp44
 70
     1
102
RTVSPost2010Prop45
280
     0
102
RTVSPost2010PropOp45
 70
     1
102
RTVSPost2010Prop46
 90
       50
102
RTVSPost2010PropOp46
 70
     1
102
RTVSPost2010Prop47
 90
       50
102
RTVSPost2010PropOp47
 70
     1
102
RTVSPost2010Prop48
 90
       50
102
RTVSPost2010PropOp48
 70
     1
102
RTVSPost2010Prop49
280
     0
102
RTVSPost2010PropOp49
 70
     1
102
RTVSPost2010Prop50
 90
       50
102
RTVSPost2010PropOp50
 70
     1
102
RTVSPost2010Prop51ColorIndex
 90
      256
102
RTVSPost2010Prop51ColorRGB
 90
-16777216
102
RTVSPost2010PropOp51
 70
     0
102
RTVSPost2010Prop52
140
1.0
102
RTVSPost2010PropOp52
 70
     0
102
RTVSPost2010Prop53
 90
        2
102
RTVSPost2010PropOp53
 70
     1
102
RTVSPost2010Prop54
  1
strokes_ogs.tif
102
RTVSPost2010PropOp54
 70
     1
102
RTVSPost2010Prop55
280
     0
102
RTVSPost2010PropOp55
 70
     1
102
RTVSPost2010Prop56
140
1.0
102
RTVSPost2010PropOp56
 70
     1
102
RTVSPost2010Prop57
140
1.0
102
RTVSPost2010PropOp57
 70
     1
  0
XRECORD
  5
E1
102
{ACAD_REACTORS
330
E0
102
}
330
E0
100
AcDbXrecord
280
     1
102
RTVSPost2010Prop28
280
     0
102
RTVSPost2010PropOp28
 70
     1
102
RTVSPost2010Prop29
280
     1
102
RTVSPost2010PropOp29
 70
     1
102
RTVSPost2010Prop30
280
     1
102
RTVSPost2010PropOp30
 70
     1
102
RTVSPost2010Prop31
280
     0
102
RTVSPost2010PropOp31
 70
     1
102
RTVSPost2010Prop32
280
     0
102
RTVSPost2010PropOp32
 70
     1
102
RTVSPost2010Prop33
280
     0
102
RTVSPost2010PropOp33
 70
     1
102
RTVSPost2010Prop34
280
     0
102
RTVSPost2010PropOp34
 70
     1
102
RTVSPost2010Prop35
280
     0
102
RTVSPost2010PropOp35
 70
     1
102
RTVSPost2010Prop36
280
     0
102
RTVSPost2010PropOp36
 70
     1
102
RTVSPost2010Prop37
 90
       50
102
RTVSPost2010PropOp37
 70
     1
102
RTVSPost2010Prop38
140
0.0
102
RTVSPost2010PropOp38
 70
     1
102
RTVSPost2010Prop39
140
1.0
102
RTVSPost2010PropOp39
 70
     1
102
RTVSPost2010Prop40
 90
        0
102
RTVSPost2010PropOp40
 70
     1
102
RTVSPost2010Prop41ColorIndex
 90
       18
102
RTVSPost2010Prop41ColorRGB
 90
        0
102
RTVSPost2010PropOp41
 70
     1
102
RTVSPost2010Prop42
 90
       50
102
RTVSPost2010PropOp42
 70
     1
102
RTVSPost2010Prop43
 90
        3
102
RTVSPost2010PropOp43
 70
     1
102
RTVSPost2010Prop44ColorIndex
 90
        5
102
RTVSPost2010Prop44ColorRGB
 90
      255
102
RTVSPost2010PropOp44
 70
     1
102
RTVSPost2010Prop45
280
     0
102
RTVSPost2010PropOp45
 70
     1
102
RTVSPost2010Prop46
 90
       50
102
RTVSPost2010PropOp46
 70
     1
102
RTVSPost2010Prop47
 90
       50
102
RTVSPost2010PropOp47
 70
     1
102
RTVSPost2010Prop48
 90
       50
102
RTVSPost2010PropOp48
 70
     1
102
RTVSPost2010Prop49
280
     0
102
RTVSPost2010PropOp49
 70
     1
102
RTVSPost2010Prop50
 90
       50
102
RTVSPost2010PropOp50
 70
     1
102
RTVSPost2010Prop51ColorIndex
 90
      256
102
RTVSPost2010Prop51ColorRGB
 90
-16777216
102
RTVSPost2010PropOp51
 70
     0
102
RTVSPost2010Prop52
140
1.0
102
RTVSPost2010PropOp52
 70
     0
102
RTVSPost2010Prop53
 90
        2
102
RTVSPost2010PropOp53
 70
     1
102
RTVSPost2010Prop54
  1
strokes_ogs.tif
102
RTVSPost2010PropOp54
 70
     1
102
RTVSPost2010Prop55
280
     0
102
RTVSPost2010PropOp55
 70
     1
102
RTVSPost2010Prop56
140
1.0
102
RTVSPost2010PropOp56
 70
     1
102
RTVSPost2010Prop57
140
1.0
102
RTVSPost2010PropOp57
 70
     1
  0
XRECORD
  5
E3
102
{ACAD_REACTORS
330
E2
102
}
330
E2
100
AcDbXrecord
280
     1
102
RTVSPost2010Prop28
280
     0
102
RTVSPost2010PropOp28
 70
     1
102
RTVSPost2010Prop29
280
     1
102
RTVSPost2010PropOp29
 70
     1
102
RTVSPost2010Prop30
280
     1
102
RTVSPost2010PropOp30
 70
     1
102
RTVSPost2010Prop31
280
     0
102
RTVSPost2010PropOp31
 70
     1
102
RTVSPost2010Prop32
280
     0
102
RTVSPost2010PropOp32
 70
     1
102
RTVSPost2010Prop33
280
     0
102
RTVSPost2010PropOp33
 70
     1
102
RTVSPost2010Prop34
280
     0
102
RTVSPost2010PropOp34
 70
     1
102
RTVSPost2010Prop35
280
     0
102
RTVSPost2010PropOp35
 70
     1
102
RTVSPost2010Prop36
280
     0
102
RTVSPost2010PropOp36
 70
     1
102
RTVSPost2010Prop37
 90
       50
102
RTVSPost2010PropOp37
 70
     1
102
RTVSPost2010Prop38
140
0.0
102
RTVSPost2010PropOp38
 70
     1
102
RTVSPost2010Prop39
140
1.0
102
RTVSPost2010PropOp39
 70
     1
102
RTVSPost2010Prop40
 90
        0
102
RTVSPost2010PropOp40
 70
     1
102
RTVSPost2010Prop41ColorIndex
 90
       18
102
RTVSPost2010Prop41ColorRGB
 90
        0
102
RTVSPost2010PropOp41
 70
     1
102
RTVSPost2010Prop42
 90
       50
102
RTVSPost2010PropOp42
 70
     1
102
RTVSPost2010Prop43
 90
        3
102
RTVSPost2010PropOp43
 70
     1
102
RTVSPost2010Prop44ColorIndex
 90
        5
102
RTVSPost2010Prop44ColorRGB
 90
      255
102
RTVSPost2010PropOp44
 70
     1
102
RTVSPost2010Prop45
280
     0
102
RTVSPost2010PropOp45
 70
     1
102
RTVSPost2010Prop46
 90
       50
102
RTVSPost2010PropOp46
 70
     1
102
RTVSPost2010Prop47
 90
       50
102
RTVSPost2010PropOp47
 70
     1
102
RTVSPost2010Prop48
 90
       50
102
RTVSPost2010PropOp48
 70
     1
102
RTVSPost2010Prop49
280
     0
102
RTVSPost2010PropOp49
 70
     1
102
RTVSPost2010Prop50
 90
       50
102
RTVSPost2010PropOp50
 70
     1
102
RTVSPost2010Prop51ColorIndex
 90
      256
102
RTVSPost2010Prop51ColorRGB
 90
-16777216
102
RTVSPost2010PropOp51
 70
     0
102
RTVSPost2010Prop52
140
1.0
102
RTVSPost2010PropOp52
 70
     0
102
RTVSPost2010Prop53
 90
        2
102
RTVSPost2010PropOp53
 70
     1
102
RTVSPost2010Prop54
  1
strokes_ogs.tif
102
RTVSPost2010PropOp54
 70
     1
102
RTVSPost2010Prop55
280
     0
102
RTVSPost2010PropOp55
 70
     1
102
RTVSPost2010Prop56
140
1.0
102
RTVSPost2010PropOp56
 70
     1
102
RTVSPost2010Prop57
140
1.0
102
RTVSPost2010PropOp57
 70
     1
  0
XRECORD
  5
E5
102
{ACAD_REACTORS
330
E4
102
}
330
E4
100
AcDbXrecord
280
     1
102
RTVSPost2010Prop28
280
     0
102
RTVSPost2010PropOp28
 70
     1
102
RTVSPost2010Prop29
280
     1
102
RTVSPost2010PropOp29
 70
     1
102
RTVSPost2010Prop30
280
     1
102
RTVSPost2010PropOp30
 70
     1
102
RTVSPost2010Prop31
280
     0
102
RTVSPost2010PropOp31
 70
     1
102
RTVSPost2010Prop32
280
     0
102
RTVSPost2010PropOp32
 70
     1
102
RTVSPost2010Prop33
280
     0
102
RTVSPost2010PropOp33
 70
     1
102
RTVSPost2010Prop34
280
     0
102
RTVSPost2010PropOp34
 70
     1
102
RTVSPost2010Prop35
280
     0
102
RTVSPost2010PropOp35
 70
     1
102
RTVSPost2010Prop36
280
     0
102
RTVSPost2010PropOp36
 70
     1
102
RTVSPost2010Prop37
 90
       50
102
RTVSPost2010PropOp37
 70
     1
102
RTVSPost2010Prop38
140
0.0
102
RTVSPost2010PropOp38
 70
     1
102
RTVSPost2010Prop39
140
1.0
102
RTVSPost2010PropOp39
 70
     1
102
RTVSPost2010Prop40
 90
        0
102
RTVSPost2010PropOp40
 70
     1
102
RTVSPost2010Prop41ColorIndex
 90
       18
102
RTVSPost2010Prop41ColorRGB
 90
        0
102
RTVSPost2010PropOp41
 70
     1
102
RTVSPost2010Prop42
 90
       50
102
RTVSPost2010PropOp42
 70
     1
102
RTVSPost2010Prop43
 90
        3
102
RTVSPost2010PropOp43
 70
     1
102
RTVSPost2010Prop44ColorIndex
 90
        5
102
RTVSPost2010Prop44ColorRGB
 90
      255
102
RTVSPost2010PropOp44
 70
     1
102
RTVSPost2010Prop45
280
     0
102
RTVSPost2010PropOp45
 70
     1
102
RTVSPost2010Prop46
 90
       50
102
RTVSPost2010PropOp46
 70
     1
102
RTVSPost2010Prop47
 90
       50
102
RTVSPost2010PropOp47
 70
     1
102
RTVSPost2010Prop48
 90
       50
102
RTVSPost2010PropOp48
 70
     1
102
RTVSPost2010Prop49
280
     0
102
RTVSPost2010PropOp49
 70
     1
102
RTVSPost2010Prop50
 90
       50
102
RTVSPost2010PropOp50
 70
     1
102
RTVSPost2010Prop51ColorIndex
 90
      256
102
RTVSPost2010Prop51ColorRGB
 90
-16777216
102
RTVSPost2010PropOp51
 70
     0
102
RTVSPost2010Prop52
140
1.0
102
RTVSPost2010PropOp52
 70
     0
102
RTVSPost2010Prop53
 90
        2
102
RTVSPost2010PropOp53
 70
     1
102
RTVSPost2010Prop54
  1
strokes_ogs.tif
102
RTVSPost2010PropOp54
 70
     1
102
RTVSPost2010Prop55
280
     0
102
RTVSPost2010PropOp55
 70
     1
102
RTVSPost2010Prop56
140
1.0
102
RTVSPost2010PropOp56
 70
     1
102
RTVSPost2010Prop57
140
1.0
102
RTVSPost2010PropOp57
 70
     1
  0
XRECORD
  5
E7
102
{ACAD_REACTORS
330
E6
102
}
330
E6
100
AcDbXrecord
280
     1
102
RTVSPost2010Prop28
280
     0
102
RTVSPost2010PropOp28
 70
     1
102
RTVSPost2010Prop29
280
     1
102
RTVSPost2010PropOp29
 70
     1
102
RTVSPost2010Prop30
280
     1
102
RTVSPost2010PropOp30
 70
     1
102
RTVSPost2010Prop31
280
     0
102
RTVSPost2010PropOp31
 70
     1
102
RTVSPost2010Prop32
280
     0
102
RTVSPost2010PropOp32
 70
     1
102
RTVSPost2010Prop33
280
     0
102
RTVSPost2010PropOp33
 70
     1
102
RTVSPost2010Prop34
280
     0
102
RTVSPost2010PropOp34
 70
     1
102
RTVSPost2010Prop35
280
     0
102
RTVSPost2010PropOp35
 70
     1
102
RTVSPost2010Prop36
280
     0
102
RTVSPost2010PropOp36
 70
     1
102
RTVSPost2010Prop37
 90
       50
102
RTVSPost2010PropOp37
 70
     1
102
RTVSPost2010Prop38
140
0.0
102
RTVSPost2010PropOp38
 70
     1
102
RTVSPost2010Prop39
140
1.0
102
RTVSPost2010PropOp39
 70
     1
102
RTVSPost2010Prop40
 90
        0
102
RTVSPost2010PropOp40
 70
     1
102
RTVSPost2010Prop41ColorIndex
 90
       18
102
RTVSPost2010Prop41ColorRGB
 90
        0
102
RTVSPost2010PropOp41
 70
     1
102
RTVSPost2010Prop42
 90
       50
102
RTVSPost2010PropOp42
 70
     1
102
RTVSPost2010Prop43
 90
        3
102
RTVSPost2010PropOp43
 70
     1
102
RTVSPost2010Prop44ColorIndex
 90
        5
102
RTVSPost2010Prop44ColorRGB
 90
      255
102
RTVSPost2010PropOp44
 70
     1
102
RTVSPost2010Prop45
280
     0
102
RTVSPost2010PropOp45
 70
     1
102
RTVSPost2010Prop46
 90
       50
102
RTVSPost2010PropOp46
 70
     1
102
RTVSPost2010Prop47
 90
       50
102
RTVSPost2010PropOp47
 70
     1
102
RTVSPost2010Prop48
 90
       50
102
RTVSPost2010PropOp48
 70
     1
102
RTVSPost2010Prop49
280
     0
102
RTVSPost2010PropOp49
 70
     1
102
RTVSPost2010Prop50
 90
       50
102
RTVSPost2010PropOp50
 70
     1
102
RTVSPost2010Prop51ColorIndex
 90
      256
102
RTVSPost2010Prop51ColorRGB
 90
-16777216
102
RTVSPost2010PropOp51
 70
     0
102
RTVSPost2010Prop52
140
1.0
102
RTVSPost2010PropOp52
 70
     0
102
RTVSPost2010Prop53
 90
        2
102
RTVSPost2010PropOp53
 70
     1
102
RTVSPost2010Prop54
  1
strokes_ogs.tif
102
RTVSPost2010PropOp54
 70
     1
102
RTVSPost2010Prop55
280
     0
102
RTVSPost2010PropOp55
 70
     1
102
RTVSPost2010Prop56
140
1.0
102
RTVSPost2010PropOp56
 70
     1
102
RTVSPost2010Prop57
140
1.0
102
RTVSPost2010PropOp57
 70
     1
  0
XRECORD
  5
EF
102
{ACAD_REACTORS
330
EE
102
}
330
EE
100
AcDbXrecord
280
     1
102
RTVSPost2010Prop28
280
     0
102
RTVSPost2010PropOp28
 70
     1
102
RTVSPost2010Prop29
280
     1
102
RTVSPost2010PropOp29
 70
     1
102
RTVSPost2010Prop30
280
     1
102
RTVSPost2010PropOp30
 70
     1
102
RTVSPost2010Prop31
280
     0
102
RTVSPost2010PropOp31
 70
     1
102
RTVSPost2010Prop32
280
     0
102
RTVSPost2010PropOp32
 70
     1
102
RTVSPost2010Prop33
280
     0
102
RTVSPost2010PropOp33
 70
     1
102
RTVSPost2010Prop34
280
     0
102
RTVSPost2010PropOp34
 70
     1
102
RTVSPost2010Prop35
280
     0
102
RTVSPost2010PropOp35
 70
     1
102
RTVSPost2010Prop36
280
     0
102
RTVSPost2010PropOp36
 70
     1
102
RTVSPost2010Prop37
 90
       50
102
RTVSPost2010PropOp37
 70
     1
102
RTVSPost2010Prop38
140
0.0
102
RTVSPost2010PropOp38
 70
     1
102
RTVSPost2010Prop39
140
1.0
102
RTVSPost2010PropOp39
 70
     1
102
RTVSPost2010Prop40
 90
        0
102
RTVSPost2010PropOp40
 70
     1
102
RTVSPost2010Prop41ColorIndex
 90
       18
102
RTVSPost2010Prop41ColorRGB
 90
        0
102
RTVSPost2010PropOp41
 70
     1
102
RTVSPost2010Prop42
 90
       50
102
RTVSPost2010PropOp42
 70
     1
102
RTVSPost2010Prop43
 90
        3
102
RTVSPost2010PropOp43
 70
     1
102
RTVSPost2010Prop44ColorIndex
 90
        5
102
RTVSPost2010Prop44ColorRGB
 90
      255
102
RTVSPost2010PropOp44
 70
     1
102
RTVSPost2010Prop45
280
     0
102
RTVSPost2010PropOp45
 70
     1
102
RTVSPost2010Prop46
 90
       50
102
RTVSPost2010PropOp46
 70
     1
102
RTVSPost2010Prop47
 90
       50
102
RTVSPost2010PropOp47
 70
     1
102
RTVSPost2010Prop48
 90
       50
102
RTVSPost2010PropOp48
 70
     1
102
RTVSPost2010Prop49
280
     0
102
RTVSPost2010PropOp49
 70
     1
102
RTVSPost2010Prop50
 90
       50
102
RTVSPost2010PropOp50
 70
     1
102
RTVSPost2010Prop51ColorIndex
 90
      256
102
RTVSPost2010Prop51ColorRGB
 90
-16777216
102
RTVSPost2010PropOp51
 70
     0
102
RTVSPost2010Prop52
140
1.0
102
RTVSPost2010PropOp52
 70
     0
102
RTVSPost2010Prop53
 90
        2
102
RTVSPost2010PropOp53
 70
     1
102
RTVSPost2010Prop54
  1
strokes_ogs.tif
102
RTVSPost2010PropOp54
 70
     1
102
RTVSPost2010Prop55
280
     0
102
RTVSPost2010PropOp55
 70
     1
102
RTVSPost2010Prop56
140
1.0
102
RTVSPost2010PropOp56
 70
     1
102
RTVSPost2010Prop57
140
1.0
102
RTVSPost2010PropOp57
 70
     1
  0
XRECORD
  5
10B
102
{ACAD_REACTORS
330
10A
102
}
330
10A
100
AcDbXrecord
280
     1
102
RTVSPost2010Prop28
280
     0
102
RTVSPost2010PropOp28
 70
     0
102
RTVSPost2010Prop29
280
     1
102
RTVSPost2010PropOp29
 70
     0
102
RTVSPost2010Prop30
280
     1
102
RTVSPost2010PropOp30
 70
     0
102
RTVSPost2010Prop31
280
     0
102
RTVSPost2010PropOp31
 70
     0
102
RTVSPost2010Prop32
280
     0
102
RTVSPost2010PropOp32
 70
     0
102
RTVSPost2010Prop33
280
     0
102
RTVSPost2010PropOp33
 70
     0
102
RTVSPost2010Prop34
280
     0
102
RTVSPost2010PropOp34
 70
     0
102
RTVSPost2010Prop35
280
     0
102
RTVSPost2010PropOp35
 70
     0
102
RTVSPost2010Prop36
280
     0
102
RTVSPost2010PropOp36
 70
     0
102
RTVSPost2010Prop37
 90
       50
102
RTVSPost2010PropOp37
 70
     0
102
RTVSPost2010Prop38
140
0.0
102
RTVSPost2010PropOp38
 70
     0
102
RTVSPost2010Prop39
140
1.0
102
RTVSPost2010PropOp39
 70
     0
102
RTVSPost2010Prop40
 90
        0
102
RTVSPost2010PropOp40
 70
     0
102
RTVSPost2010Prop41ColorIndex
 90
       18
102
RTVSPost2010Prop41ColorRGB
 90
        0
102
RTVSPost2010PropOp41
 70
     0
102
RTVSPost2010Prop42
 90
       50
102
RTVSPost2010PropOp42
 70
     0
102
RTVSPost2010Prop43
 90
        3
102
RTVSPost2010PropOp43
 70
     0
102
RTVSPost2010Prop44ColorIndex
 90
        5
102
RTVSPost2010Prop44ColorRGB
 90
      255
102
RTVSPost2010PropOp44
 70
     0
102
RTVSPost2010Prop45
280
     0
102
RTVSPost2010PropOp45
 70
     0
102
RTVSPost2010Prop46
 90
       50
102
RTVSPost2010PropOp46
 70
     0
102
RTVSPost2010Prop47
 90
       50
102
RTVSPost2010PropOp47
 70
     0
102
RTVSPost2010Prop48
 90
       50
102
RTVSPost2010PropOp48
 70
     0
102
RTVSPost2010Prop49
280
     0
102
RTVSPost2010PropOp49
 70
     0
102
RTVSPost2010Prop50
 90
       50
102
RTVSPost2010PropOp50
 70
     0
102
RTVSPost2010Prop51ColorIndex
 90
      256
102
RTVSPost2010Prop51ColorRGB
 90
-16777216
102
RTVSPost2010PropOp51
 70
     0
102
RTVSPost2010Prop52
140
1.0
102
RTVSPost2010PropOp52
 70
     0
102
RTVSPost2010Prop53
 90
        2
102
RTVSPost2010PropOp53
 70
     0
102
RTVSPost2010Prop54
  1
strokes_ogs.tif
102
RTVSPost2010PropOp54
 70
     0
102
RTVSPost2010Prop55
280
     0
102
RTVSPost2010PropOp55
 70
     0
102
RTVSPost2010Prop56
140
1.0
102
RTVSPost2010PropOp56
 70
     0
102
RTVSPost2010Prop57
140
1.0
102
RTVSPost2010PropOp57
 70
     0
  0
XRECORD
  5
FB
102
{ACAD_REACTORS
330
FA
102
}
330
FA
100
AcDbXrecord
280
     1
102
RTVSPost2010Prop28
280
     0
102
RTVSPost2010PropOp28
 70
     1
102
RTVSPost2010Prop29
280
     1
102
RTVSPost2010PropOp29
 70
     1
102
RTVSPost2010Prop30
280
     1
102
RTVSPost2010PropOp30
 70
     1
102
RTVSPost2010Prop31
280
     0
102
RTVSPost2010PropOp31
 70
     1
102
RTVSPost2010Prop32
280
     0
102
RTVSPost2010PropOp32
 70
     1
102
RTVSPost2010Prop33
280
     0
102
RTVSPost2010PropOp33
 70
     1
102
RTVSPost2010Prop34
280
     0
102
RTVSPost2010PropOp34
 70
     1
102
RTVSPost2010Prop35
280
     0
102
RTVSPost2010PropOp35
 70
     1
102
RTVSPost2010Prop36
280
     0
102
RTVSPost2010PropOp36
 70
     1
102
RTVSPost2010Prop37
 90
       50
102
RTVSPost2010PropOp37
 70
     1
102
RTVSPost2010Prop38
140
0.0
102
RTVSPost2010PropOp38
 70
     1
102
RTVSPost2010Prop39
140
1.0
102
RTVSPost2010PropOp39
 70
     1
102
RTVSPost2010Prop40
 90
        0
102
RTVSPost2010PropOp40
 70
     1
102
RTVSPost2010Prop41ColorIndex
 90
       18
102
RTVSPost2010Prop41ColorRGB
 90
        0
102
RTVSPost2010PropOp41
 70
     1
102
RTVSPost2010Prop42
 90
       50
102
RTVSPost2010PropOp42
 70
     1
102
RTVSPost2010Prop43
 90
        3
102
RTVSPost2010PropOp43
 70
     1
102
RTVSPost2010Prop44ColorIndex
 90
        5
102
RTVSPost2010Prop44ColorRGB
 90
      255
102
RTVSPost2010PropOp44
 70
     1
102
RTVSPost2010Prop45
280
     0
102
RTVSPost2010PropOp45
 70
     1
102
RTVSPost2010Prop46
 90
       50
102
RTVSPost2010PropOp46
 70
     1
102
RTVSPost2010Prop47
 90
       50
102
RTVSPost2010PropOp47
 70
     1
102
RTVSPost2010Prop48
 90
       50
102
RTVSPost2010PropOp48
 70
     1
102
RTVSPost2010Prop49
280
     0
102
RTVSPost2010PropOp49
 70
     1
102
RTVSPost2010Prop50
 90
       50
102
RTVSPost2010PropOp50
 70
     1
102
RTVSPost2010Prop51ColorIndex
 90
      256
102
RTVSPost2010Prop51ColorRGB
 90
-16777216
102
RTVSPost2010PropOp51
 70
     0
102
RTVSPost2010Prop52
140
1.0
102
RTVSPost2010PropOp52
 70
     0
102
RTVSPost2010Prop53
 90
        2
102
RTVSPost2010PropOp53
 70
     1
102
RTVSPost2010Prop54
  1
strokes_ogs.tif
102
RTVSPost2010PropOp54
 70
     1
102
RTVSPost2010Prop55
280
     0
102
RTVSPost2010PropOp55
 70
     1
102
RTVSPost2010Prop56
140
1.0
102
RTVSPost2010PropOp56
 70
     1
102
RTVSPost2010Prop57
140
1.0
102
RTVSPost2010PropOp57
 70
     1
  0
XRECORD
  5
10D
102
{ACAD_REACTORS
330
10C
102
}
330
10C
100
AcDbXrecord
280
     1
102
RTVSPost2010Prop28
280
     0
102
RTVSPost2010PropOp28
 70
     0
102
RTVSPost2010Prop29
280
     1
102
RTVSPost2010PropOp29
 70
     0
102
RTVSPost2010Prop30
280
     1
102
RTVSPost2010PropOp30
 70
     0
102
RTVSPost2010Prop31
280
     0
102
RTVSPost2010PropOp31
 70
     0
102
RTVSPost2010Prop32
280
     0
102
RTVSPost2010PropOp32
 70
     0
102
RTVSPost2010Prop33
280
     0
102
RTVSPost2010PropOp33
 70
     0
102
RTVSPost2010Prop34
280
     0
102
RTVSPost2010PropOp34
 70
     0
102
RTVSPost2010Prop35
280
     0
102
RTVSPost2010PropOp35
 70
     0
102
RTVSPost2010Prop36
280
     0
102
RTVSPost2010PropOp36
 70
     0
102
RTVSPost2010Prop37
 90
       50
102
RTVSPost2010PropOp37
 70
     0
102
RTVSPost2010Prop38
140
0.0
102
RTVSPost2010PropOp38
 70
     0
102
RTVSPost2010Prop39
140
1.0
102
RTVSPost2010PropOp39
 70
     0
102
RTVSPost2010Prop40
 90
        0
102
RTVSPost2010PropOp40
 70
     0
102
RTVSPost2010Prop41ColorIndex
 90
       18
102
RTVSPost2010Prop41ColorRGB
 90
        0
102
RTVSPost2010PropOp41
 70
     0
102
RTVSPost2010Prop42
 90
       50
102
RTVSPost2010PropOp42
 70
     0
102
RTVSPost2010Prop43
 90
        3
102
RTVSPost2010PropOp43
 70
     0
102
RTVSPost2010Prop44ColorIndex
 90
        5
102
RTVSPost2010Prop44ColorRGB
 90
      255
102
RTVSPost2010PropOp44
 70
     0
102
RTVSPost2010Prop45
280
     0
102
RTVSPost2010PropOp45
 70
     0
102
RTVSPost2010Prop46
 90
       50
102
RTVSPost2010PropOp46
 70
     0
102
RTVSPost2010Prop47
 90
       50
102
RTVSPost2010PropOp47
 70
     0
102
RTVSPost2010Prop48
 90
       50
102
RTVSPost2010PropOp48
 70
     0
102
RTVSPost2010Prop49
280
     0
102
RTVSPost2010PropOp49
 70
     0
102
RTVSPost2010Prop50
 90
       50
102
RTVSPost2010PropOp50
 70
     0
102
RTVSPost2010Prop51ColorIndex
 90
      256
102
RTVSPost2010Prop51ColorRGB
 90
-16777216
102
RTVSPost2010PropOp51
 70
     0
102
RTVSPost2010Prop52
140
1.0
102
RTVSPost2010PropOp52
 70
     0
102
RTVSPost2010Prop53
 90
        2
102
RTVSPost2010PropOp53
 70
     0
102
RTVSPost2010Prop54
  1
strokes_ogs.tif
102
RTVSPost2010PropOp54
 70
     0
102
RTVSPost2010Prop55
280
     0
102
RTVSPost2010PropOp55
 70
     0
102
RTVSPost2010Prop56
140
1.0
102
RTVSPost2010PropOp56
 70
     0
102
RTVSPost2010Prop57
140
1.0
102
RTVSPost2010PropOp57
 70
     0
  0
XRECORD
  5
F3
102
{ACAD_REACTORS
330
F2
102
}
330
F2
100
AcDbXrecord
280
     1
102
RTVSPost2010Prop28
280
     0
102
RTVSPost2010PropOp28
 70
     1
102
RTVSPost2010Prop29
280
     1
102
RTVSPost2010PropOp29
 70
     1
102
RTVSPost2010Prop30
280
     1
102
RTVSPost2010PropOp30
 70
     1
102
RTVSPost2010Prop31
280
     0
102
RTVSPost2010PropOp31
 70
     1
102
RTVSPost2010Prop32
280
     0
102
RTVSPost2010PropOp32
 70
     1
102
RTVSPost2010Prop33
280
     0
102
RTVSPost2010PropOp33
 70
     1
102
RTVSPost2010Prop34
280
     0
102
RTVSPost2010PropOp34
 70
     1
102
RTVSPost2010Prop35
280
     0
102
RTVSPost2010PropOp35
 70
     1
102
RTVSPost2010Prop36
280
     0
102
RTVSPost2010PropOp36
 70
     1
102
RTVSPost2010Prop37
 90
       50
102
RTVSPost2010PropOp37
 70
     1
102
RTVSPost2010Prop38
140
0.0
102
RTVSPost2010PropOp38
 70
     1
102
RTVSPost2010Prop39
140
1.0
102
RTVSPost2010PropOp39
 70
     1
102
RTVSPost2010Prop40
 90
        0
102
RTVSPost2010PropOp40
 70
     1
102
RTVSPost2010Prop41ColorIndex
 90
       18
102
RTVSPost2010Prop41ColorRGB
 90
        0
102
RTVSPost2010PropOp41
 70
     1
102
RTVSPost2010Prop42
 90
       50
102
RTVSPost2010PropOp42
 70
     1
102
RTVSPost2010Prop43
 90
        3
102
RTVSPost2010PropOp43
 70
     1
102
RTVSPost2010Prop44ColorIndex
 90
        5
102
RTVSPost2010Prop44ColorRGB
 90
      255
102
RTVSPost2010PropOp44
 70
     1
102
RTVSPost2010Prop45
280
     0
102
RTVSPost2010PropOp45
 70
     1
102
RTVSPost2010Prop46
 90
       50
102
RTVSPost2010PropOp46
 70
     1
102
RTVSPost2010Prop47
 90
       50
102
RTVSPost2010PropOp47
 70
     1
102
RTVSPost2010Prop48
 90
       50
102
RTVSPost2010PropOp48
 70
     1
102
RTVSPost2010Prop49
280
     0
102
RTVSPost2010PropOp49
 70
     1
102
RTVSPost2010Prop50
 90
       50
102
RTVSPost2010PropOp50
 70
     1
102
RTVSPost2010Prop51ColorIndex
 90
      256
102
RTVSPost2010Prop51ColorRGB
 90
-16777216
102
RTVSPost2010PropOp51
 70
     0
102
RTVSPost2010Prop52
140
1.0
102
RTVSPost2010PropOp52
 70
     0
102
RTVSPost2010Prop53
 90
        2
102
RTVSPost2010PropOp53
 70
     1
102
RTVSPost2010Prop54
  1
strokes_ogs.tif
102
RTVSPost2010PropOp54
 70
     1
102
RTVSPost2010Prop55
280
     0
102
RTVSPost2010PropOp55
 70
     1
102
RTVSPost2010Prop56
140
1.0
102
RTVSPost2010PropOp56
 70
     1
102
RTVSPost2010Prop57
140
1.0
102
RTVSPost2010PropOp57
 70
     1
  0
XRECORD
  5
109
102
{ACAD_REACTORS
330
108
102
}
330
108
100
AcDbXrecord
280
     1
102
RTVSPost2010Prop28
280
     0
102
RTVSPost2010PropOp28
 70
     1
102
RTVSPost2010Prop29
280
     1
102
RTVSPost2010PropOp29
 70
     1
102
RTVSPost2010Prop30
280
     1
102
RTVSPost2010PropOp30
 70
     1
102
RTVSPost2010Prop31
280
     0
102
RTVSPost2010PropOp31
 70
     1
102
RTVSPost2010Prop32
280
     0
102
RTVSPost2010PropOp32
 70
     1
102
RTVSPost2010Prop33
280
     0
102
RTVSPost2010PropOp33
 70
     1
102
RTVSPost2010Prop34
280
     0
102
RTVSPost2010PropOp34
 70
     1
102
RTVSPost2010Prop35
280
     0
102
RTVSPost2010PropOp35
 70
     1
102
RTVSPost2010Prop36
280
     0
102
RTVSPost2010PropOp36
 70
     1
102
RTVSPost2010Prop37
 90
       50
102
RTVSPost2010PropOp37
 70
     1
102
RTVSPost2010Prop38
140
0.0
102
RTVSPost2010PropOp38
 70
     1
102
RTVSPost2010Prop39
140
1.0
102
RTVSPost2010PropOp39
 70
     1
102
RTVSPost2010Prop40
 90
        0
102
RTVSPost2010PropOp40
 70
     1
102
RTVSPost2010Prop41ColorIndex
 90
       18
102
RTVSPost2010Prop41ColorRGB
 90
        0
102
RTVSPost2010PropOp41
 70
     1
102
RTVSPost2010Prop42
 90
       50
102
RTVSPost2010PropOp42
 70
     1
102
RTVSPost2010Prop43
 90
        3
102
RTVSPost2010PropOp43
 70
     1
102
RTVSPost2010Prop44ColorIndex
 90
        5
102
RTVSPost2010Prop44ColorRGB
 90
      255
102
RTVSPost2010PropOp44
 70
     1
102
RTVSPost2010Prop45
280
     0
102
RTVSPost2010PropOp45
 70
     1
102
RTVSPost2010Prop46
 90
       50
102
RTVSPost2010PropOp46
 70
     1
102
RTVSPost2010Prop47
 90
       50
102
RTVSPost2010PropOp47
 70
     1
102
RTVSPost2010Prop48
 90
       50
102
RTVSPost2010PropOp48
 70
     1
102
RTVSPost2010Prop49
280
     0
102
RTVSPost2010PropOp49
 70
     1
102
RTVSPost2010Prop50
 90
       50
102
RTVSPost2010PropOp50
 70
     1
102
RTVSPost2010Prop51ColorIndex
 90
      256
102
RTVSPost2010Prop51ColorRGB
 90
-16777216
102
RTVSPost2010PropOp51
 70
     0
102
RTVSPost2010Prop52
140
1.0
102
RTVSPost2010PropOp52
 70
     0
102
RTVSPost2010Prop53
 90
        2
102
RTVSPost2010PropOp53
 70
     1
102
RTVSPost2010Prop54
  1
strokes_ogs.tif
102
RTVSPost2010PropOp54
 70
     1
102
RTVSPost2010Prop55
280
     0
102
RTVSPost2010PropOp55
 70
     1
102
RTVSPost2010Prop56
140
1.0
102
RTVSPost2010PropOp56
 70
     1
102
RTVSPost2010Prop57
140
1.0
102
RTVSPost2010PropOp57
 70
     1
  0
XRECORD
  5
107
102
{ACAD_REACTORS
330
106
102
}
330
106
100
AcDbXrecord
280
     1
102
RTVSPost2010Prop28
280
     0
102
RTVSPost2010PropOp28
 70
     1
102
RTVSPost2010Prop29
280
     1
102
RTVSPost2010PropOp29
 70
     1
102
RTVSPost2010Prop30
280
     1
102
RTVSPost2010PropOp30
 70
     1
102
RTVSPost2010Prop31
280
     0
102
RTVSPost2010PropOp31
 70
     1
102
RTVSPost2010Prop32
280
     0
102
RTVSPost2010PropOp32
 70
     1
102
RTVSPost2010Prop33
280
     0
102
RTVSPost2010PropOp33
 70
     1
102
RTVSPost2010Prop34
280
     0
102
RTVSPost2010PropOp34
 70
     1
102
RTVSPost2010Prop35
280
     0
102
RTVSPost2010PropOp35
 70
     1
102
RTVSPost2010Prop36
280
     0
102
RTVSPost2010PropOp36
 70
     1
102
RTVSPost2010Prop37
 90
       50
102
RTVSPost2010PropOp37
 70
     1
102
RTVSPost2010Prop38
140
0.0
102
RTVSPost2010PropOp38
 70
     1
102
RTVSPost2010Prop39
140
1.0
102
RTVSPost2010PropOp39
 70
     1
102
RTVSPost2010Prop40
 90
        0
102
RTVSPost2010PropOp40
 70
     1
102
RTVSPost2010Prop41ColorIndex
 90
       18
102
RTVSPost2010Prop41ColorRGB
 90
        0
102
RTVSPost2010PropOp41
 70
     1
102
RTVSPost2010Prop42
 90
       50
102
RTVSPost2010PropOp42
 70
     1
102
RTVSPost2010Prop43
 90
        3
102
RTVSPost2010PropOp43
 70
     1
102
RTVSPost2010Prop44ColorIndex
 90
        5
102
RTVSPost2010Prop44ColorRGB
 90
      255
102
RTVSPost2010PropOp44
 70
     1
102
RTVSPost2010Prop45
280
     0
102
RTVSPost2010PropOp45
 70
     1
102
RTVSPost2010Prop46
 90
       50
102
RTVSPost2010PropOp46
 70
     1
102
RTVSPost2010Prop47
 90
       50
102
RTVSPost2010PropOp47
 70
     1
102
RTVSPost2010Prop48
 90
       50
102
RTVSPost2010PropOp48
 70
     1
102
RTVSPost2010Prop49
280
     0
102
RTVSPost2010PropOp49
 70
     1
102
RTVSPost2010Prop50
 90
       50
102
RTVSPost2010PropOp50
 70
     1
102
RTVSPost2010Prop51ColorIndex
 90
      256
102
RTVSPost2010Prop51ColorRGB
 90
-16777216
102
RTVSPost2010PropOp51
 70
     0
102
RTVSPost2010Prop52
140
1.0
102
RTVSPost2010PropOp52
 70
     0
102
RTVSPost2010Prop53
 90
        2
102
RTVSPost2010PropOp53
 70
     1
102
RTVSPost2010Prop54
  1
strokes_ogs.tif
102
RTVSPost2010PropOp54
 70
     1
102
RTVSPost2010Prop55
280
     0
102
RTVSPost2010PropOp55
 70
     1
102
RTVSPost2010Prop56
140
1.0
102
RTVSPost2010PropOp56
 70
     1
102
RTVSPost2010Prop57
140
1.0
102
RTVSPost2010PropOp57
 70
     1
  0
XRECORD
  5
101
102
{ACAD_REACTORS
330
100
102
}
330
100
100
AcDbXrecord
280
     1
102
RTVSPost2010Prop28
280
     0
102
RTVSPost2010PropOp28
 70
     1
102
RTVSPost2010Prop29
280
     1
102
RTVSPost2010PropOp29
 70
     1
102
RTVSPost2010Prop30
280
     1
102
RTVSPost2010PropOp30
 70
     1
102
RTVSPost2010Prop31
280
     0
102
RTVSPost2010PropOp31
 70
     1
102
RTVSPost2010Prop32
280
     0
102
RTVSPost2010PropOp32
 70
     1
102
RTVSPost2010Prop33
280
     0
102
RTVSPost2010PropOp33
 70
     1
102
RTVSPost2010Prop34
280
     0
102
RTVSPost2010PropOp34
 70
     1
102
RTVSPost2010Prop35
280
     0
102
RTVSPost2010PropOp35
 70
     1
102
RTVSPost2010Prop36
280
     0
102
RTVSPost2010PropOp36
 70
     1
102
RTVSPost2010Prop37
 90
       50
102
RTVSPost2010PropOp37
 70
     1
102
RTVSPost2010Prop38
140
0.0
102
RTVSPost2010PropOp38
 70
     1
102
RTVSPost2010Prop39
140
1.0
102
RTVSPost2010PropOp39
 70
     1
102
RTVSPost2010Prop40
 90
        0
102
RTVSPost2010PropOp40
 70
     1
102
RTVSPost2010Prop41ColorIndex
 90
       18
102
RTVSPost2010Prop41ColorRGB
 90
        0
102
RTVSPost2010PropOp41
 70
     1
102
RTVSPost2010Prop42
 90
       50
102
RTVSPost2010PropOp42
 70
     1
102
RTVSPost2010Prop43
 90
        3
102
RTVSPost2010PropOp43
 70
     1
102
RTVSPost2010Prop44ColorIndex
 90
        5
102
RTVSPost2010Prop44ColorRGB
 90
      255
102
RTVSPost2010PropOp44
 70
     1
102
RTVSPost2010Prop45
280
     0
102
RTVSPost2010PropOp45
 70
     1
102
RTVSPost2010Prop46
 90
       50
102
RTVSPost2010PropOp46
 70
     1
102
RTVSPost2010Prop47
 90
       50
102
RTVSPost2010PropOp47
 70
     1
102
RTVSPost2010Prop48
 90
       50
102
RTVSPost2010PropOp48
 70
     1
102
RTVSPost2010Prop49
280
     0
102
RTVSPost2010PropOp49
 70
     1
102
RTVSPost2010Prop50
 90
       50
102
RTVSPost2010PropOp50
 70
     1
102
RTVSPost2010Prop51ColorIndex
 90
      256
102
RTVSPost2010Prop51ColorRGB
 90
-16777216
102
RTVSPost2010PropOp51
 70
     0
102
RTVSPost2010Prop52
140
1.0
102
RTVSPost2010PropOp52
 70
     0
102
RTVSPost2010Prop53
 90
        2
102
RTVSPost2010PropOp53
 70
     1
102
RTVSPost2010Prop54
  1
strokes_ogs.tif
102
RTVSPost2010PropOp54
 70
     1
102
RTVSPost2010Prop55
280
     0
102
RTVSPost2010PropOp55
 70
     1
102
RTVSPost2010Prop56
140
1.0
102
RTVSPost2010PropOp56
 70
     1
102
RTVSPost2010Prop57
140
1.0
102
RTVSPost2010PropOp57
 70
     1
  0
XRECORD
  5
103
102
{ACAD_REACTORS
330
102
102
}
330
102
100
AcDbXrecord
280
     1
102
RTVSPost2010Prop28
280
     0
102
RTVSPost2010PropOp28
 70
     1
102
RTVSPost2010Prop29
280
     1
102
RTVSPost2010PropOp29
 70
     1
102
RTVSPost2010Prop30
280
     1
102
RTVSPost2010PropOp30
 70
     1
102
RTVSPost2010Prop31
280
     0
102
RTVSPost2010PropOp31
 70
     1
102
RTVSPost2010Prop32
280
     0
102
RTVSPost2010PropOp32
 70
     1
102
RTVSPost2010Prop33
280
     0
102
RTVSPost2010PropOp33
 70
     1
102
RTVSPost2010Prop34
280
     0
102
RTVSPost2010PropOp34
 70
     1
102
RTVSPost2010Prop35
280
     0
102
RTVSPost2010PropOp35
 70
     1
102
RTVSPost2010Prop36
280
     0
102
RTVSPost2010PropOp36
 70
     1
102
RTVSPost2010Prop37
 90
       50
102
RTVSPost2010PropOp37
 70
     1
102
RTVSPost2010Prop38
140
0.0
102
RTVSPost2010PropOp38
 70
     1
102
RTVSPost2010Prop39
140
1.0
102
RTVSPost2010PropOp39
 70
     1
102
RTVSPost2010Prop40
 90
        0
102
RTVSPost2010PropOp40
 70
     1
102
RTVSPost2010Prop41ColorIndex
 90
       18
102
RTVSPost2010Prop41ColorRGB
 90
        0
102
RTVSPost2010PropOp41
 70
     1
102
RTVSPost2010Prop42
 90
       50
102
RTVSPost2010PropOp42
 70
     1
102
RTVSPost2010Prop43
 90
        3
102
RTVSPost2010PropOp43
 70
     1
102
RTVSPost2010Prop44ColorIndex
 90
        5
102
RTVSPost2010Prop44ColorRGB
 90
      255
102
RTVSPost2010PropOp44
 70
     1
102
RTVSPost2010Prop45
280
     0
102
RTVSPost2010PropOp45
 70
     1
102
RTVSPost2010Prop46
 90
       50
102
RTVSPost2010PropOp46
 70
     1
102
RTVSPost2010Prop47
 90
       50
102
RTVSPost2010PropOp47
 70
     1
102
RTVSPost2010Prop48
 90
       50
102
RTVSPost2010PropOp48
 70
     1
102
RTVSPost2010Prop49
280
     0
102
RTVSPost2010PropOp49
 70
     1
102
RTVSPost2010Prop50
 90
       50
102
RTVSPost2010PropOp50
 70
     1
102
RTVSPost2010Prop51ColorIndex
 90
      256
102
RTVSPost2010Prop51ColorRGB
 90
-16777216
102
RTVSPost2010PropOp51
 70
     0
102
RTVSPost2010Prop52
140
1.0
102
RTVSPost2010PropOp52
 70
     0
102
RTVSPost2010Prop53
 90
        2
102
RTVSPost2010PropOp53
 70
     1
102
RTVSPost2010Prop54
  1
strokes_ogs.tif
102
RTVSPost2010PropOp54
 70
     1
102
RTVSPost2010Prop55
280
     0
102
RTVSPost2010PropOp55
 70
     1
102
RTVSPost2010Prop56
140
1.0
102
RTVSPost2010PropOp56
 70
     1
102
RTVSPost2010Prop57
140
1.0
102
RTVSPost2010PropOp57
 70
     1
  0
XRECORD
  5
F9
102
{ACAD_REACTORS
330
F8
102
}
330
F8
100
AcDbXrecord
280
     1
102
RTVSPost2010Prop28
280
     0
102
RTVSPost2010PropOp28
 70
     1
102
RTVSPost2010Prop29
280
     1
102
RTVSPost2010PropOp29
 70
     1
102
RTVSPost2010Prop30
280
     1
102
RTVSPost2010PropOp30
 70
     1
102
RTVSPost2010Prop31
280
     0
102
RTVSPost2010PropOp31
 70
     1
102
RTVSPost2010Prop32
280
     0
102
RTVSPost2010PropOp32
 70
     1
102
RTVSPost2010Prop33
280
     0
102
RTVSPost2010PropOp33
 70
     1
102
RTVSPost2010Prop34
280
     0
102
RTVSPost2010PropOp34
 70
     1
102
RTVSPost2010Prop35
280
     0
102
RTVSPost2010PropOp35
 70
     1
102
RTVSPost2010Prop36
280
     0
102
RTVSPost2010PropOp36
 70
     1
102
RTVSPost2010Prop37
 90
       50
102
RTVSPost2010PropOp37
 70
     1
102
RTVSPost2010Prop38
140
0.0
102
RTVSPost2010PropOp38
 70
     1
102
RTVSPost2010Prop39
140
1.0
102
RTVSPost2010PropOp39
 70
     1
102
RTVSPost2010Prop40
 90
        0
102
RTVSPost2010PropOp40
 70
     1
102
RTVSPost2010Prop41ColorIndex
 90
       18
102
RTVSPost2010Prop41ColorRGB
 90
        0
102
RTVSPost2010PropOp41
 70
     1
102
RTVSPost2010Prop42
 90
       50
102
RTVSPost2010PropOp42
 70
     1
102
RTVSPost2010Prop43
 90
        3
102
RTVSPost2010PropOp43
 70
     1
102
RTVSPost2010Prop44ColorIndex
 90
        5
102
RTVSPost2010Prop44ColorRGB
 90
      255
102
RTVSPost2010PropOp44
 70
     1
102
RTVSPost2010Prop45
280
     0
102
RTVSPost2010PropOp45
 70
     1
102
RTVSPost2010Prop46
 90
       50
102
RTVSPost2010PropOp46
 70
     1
102
RTVSPost2010Prop47
 90
       50
102
RTVSPost2010PropOp47
 70
     1
102
RTVSPost2010Prop48
 90
       50
102
RTVSPost2010PropOp48
 70
     1
102
RTVSPost2010Prop49
280
     0
102
RTVSPost2010PropOp49
 70
     1
102
RTVSPost2010Prop50
 90
       50
102
RTVSPost2010PropOp50
 70
     1
102
RTVSPost2010Prop51ColorIndex
 90
      256
102
RTVSPost2010Prop51ColorRGB
 90
-16777216
102
RTVSPost2010PropOp51
 70
     0
102
RTVSPost2010Prop52
140
1.0
102
RTVSPost2010PropOp52
 70
     0
102
RTVSPost2010Prop53
 90
        2
102
RTVSPost2010PropOp53
 70
     1
102
RTVSPost2010Prop54
  1
strokes_ogs.tif
102
RTVSPost2010PropOp54
 70
     1
102
RTVSPost2010Prop55
280
     0
102
RTVSPost2010PropOp55
 70
     1
102
RTVSPost2010Prop56
140
1.0
102
RTVSPost2010PropOp56
 70
     1
102
RTVSPost2010Prop57
140
1.0
102
RTVSPost2010PropOp57
 70
     1
  0
XRECORD
  5
ED
102
{ACAD_REACTORS
330
EC
102
}
330
EC
100
AcDbXrecord
280
     1
102
RTVSPost2010Prop28
280
     0
102
RTVSPost2010PropOp28
 70
     1
102
RTVSPost2010Prop29
280
     1
102
RTVSPost2010PropOp29
 70
     1
102
RTVSPost2010Prop30
280
     1
102
RTVSPost2010PropOp30
 70
     1
102
RTVSPost2010Prop31
280
     0
102
RTVSPost2010PropOp31
 70
     1
102
RTVSPost2010Prop32
280
     0
102
RTVSPost2010PropOp32
 70
     1
102
RTVSPost2010Prop33
280
     0
102
RTVSPost2010PropOp33
 70
     1
102
RTVSPost2010Prop34
280
     0
102
RTVSPost2010PropOp34
 70
     1
102
RTVSPost2010Prop35
280
     0
102
RTVSPost2010PropOp35
 70
     1
102
RTVSPost2010Prop36
280
     0
102
RTVSPost2010PropOp36
 70
     1
102
RTVSPost2010Prop37
 90
       50
102
RTVSPost2010PropOp37
 70
     1
102
RTVSPost2010Prop38
140
0.0
102
RTVSPost2010PropOp38
 70
     1
102
RTVSPost2010Prop39
140
1.0
102
RTVSPost2010PropOp39
 70
     1
102
RTVSPost2010Prop40
 90
        0
102
RTVSPost2010PropOp40
 70
     1
102
RTVSPost2010Prop41ColorIndex
 90
       18
102
RTVSPost2010Prop41ColorRGB
 90
        0
102
RTVSPost2010PropOp41
 70
     1
102
RTVSPost2010Prop42
 90
       50
102
RTVSPost2010PropOp42
 70
     1
102
RTVSPost2010Prop43
 90
        3
102
RTVSPost2010PropOp43
 70
     1
102
RTVSPost2010Prop44ColorIndex
 90
        5
102
RTVSPost2010Prop44ColorRGB
 90
      255
102
RTVSPost2010PropOp44
 70
     1
102
RTVSPost2010Prop45
280
     0
102
RTVSPost2010PropOp45
 70
     1
102
RTVSPost2010Prop46
 90
       50
102
RTVSPost2010PropOp46
 70
     1
102
RTVSPost2010Prop47
 90
       50
102
RTVSPost2010PropOp47
 70
     1
102
RTVSPost2010Prop48
 90
       50
102
RTVSPost2010PropOp48
 70
     1
102
RTVSPost2010Prop49
280
     0
102
RTVSPost2010PropOp49
 70
     1
102
RTVSPost2010Prop50
 90
       50
102
RTVSPost2010PropOp50
 70
     1
102
RTVSPost2010Prop51ColorIndex
 90
      256
102
RTVSPost2010Prop51ColorRGB
 90
-16777216
102
RTVSPost2010PropOp51
 70
     0
102
RTVSPost2010Prop52
140
1.0
102
RTVSPost2010PropOp52
 70
     0
102
RTVSPost2010Prop53
 90
        2
102
RTVSPost2010PropOp53
 70
     1
102
RTVSPost2010Prop54
  1
strokes_ogs.tif
102
RTVSPost2010PropOp54
 70
     1
102
RTVSPost2010Prop55
280
     0
102
RTVSPost2010PropOp55
 70
     1
102
RTVSPost2010Prop56
140
1.0
102
RTVSPost2010PropOp56
 70
     1
102
RTVSPost2010Prop57
140
1.0
102
RTVSPost2010PropOp57
 70
     1
  0
XRECORD
  5
105
102
{ACAD_REACTORS
330
104
102
}
330
104
100
AcDbXrecord
280
     1
102
RTVSPost2010Prop28
280
     0
102
RTVSPost2010PropOp28
 70
     1
102
RTVSPost2010Prop29
280
     1
102
RTVSPost2010PropOp29
 70
     1
102
RTVSPost2010Prop30
280
     1
102
RTVSPost2010PropOp30
 70
     1
102
RTVSPost2010Prop31
280
     0
102
RTVSPost2010PropOp31
 70
     1
102
RTVSPost2010Prop32
280
     0
102
RTVSPost2010PropOp32
 70
     1
102
RTVSPost2010Prop33
280
     0
102
RTVSPost2010PropOp33
 70
     1
102
RTVSPost2010Prop34
280
     0
102
RTVSPost2010PropOp34
 70
     1
102
RTVSPost2010Prop35
280
     0
102
RTVSPost2010PropOp35
 70
     1
102
RTVSPost2010Prop36
280
     0
102
RTVSPost2010PropOp36
 70
     1
102
RTVSPost2010Prop37
 90
       50
102
RTVSPost2010PropOp37
 70
     1
102
RTVSPost2010Prop38
140
0.0
102
RTVSPost2010PropOp38
 70
     1
102
RTVSPost2010Prop39
140
1.0
102
RTVSPost2010PropOp39
 70
     1
102
RTVSPost2010Prop40
 90
        0
102
RTVSPost2010PropOp40
 70
     1
102
RTVSPost2010Prop41ColorIndex
 90
       18
102
RTVSPost2010Prop41ColorRGB
 90
        0
102
RTVSPost2010PropOp41
 70
     1
102
RTVSPost2010Prop42
 90
       50
102
RTVSPost2010PropOp42
 70
     1
102
RTVSPost2010Prop43
 90
        3
102
RTVSPost2010PropOp43
 70
     1
102
RTVSPost2010Prop44ColorIndex
 90
        5
102
RTVSPost2010Prop44ColorRGB
 90
      255
102
RTVSPost2010PropOp44
 70
     1
102
RTVSPost2010Prop45
280
     0
102
RTVSPost2010PropOp45
 70
     1
102
RTVSPost2010Prop46
 90
       50
102
RTVSPost2010PropOp46
 70
     1
102
RTVSPost2010Prop47
 90
       50
102
RTVSPost2010PropOp47
 70
     1
102
RTVSPost2010Prop48
 90
       50
102
RTVSPost2010PropOp48
 70
     1
102
RTVSPost2010Prop49
280
     0
102
RTVSPost2010PropOp49
 70
     1
102
RTVSPost2010Prop50
 90
       50
102
RTVSPost2010PropOp50
 70
     1
102
RTVSPost2010Prop51ColorIndex
 90
      256
102
RTVSPost2010Prop51ColorRGB
 90
-16777216
102
RTVSPost2010PropOp51
 70
     0
102
RTVSPost2010Prop52
140
1.0
102
RTVSPost2010PropOp52
 70
     0
102
RTVSPost2010Prop53
 90
        2
102
RTVSPost2010PropOp53
 70
     1
102
RTVSPost2010Prop54
  1
strokes_ogs.tif
102
RTVSPost2010PropOp54
 70
     1
102
RTVSPost2010Prop55
280
     0
102
RTVSPost2010PropOp55
 70
     1
102
RTVSPost2010Prop56
140
1.0
102
RTVSPost2010PropOp56
 70
     1
102
RTVSPost2010Prop57
140
1.0
102
RTVSPost2010PropOp57
 70
     1
  0
ENDSEC
  0
EOF
