  0
SECTION
  2
HEADER
  9
$ACADVER
  1
AC1024
  9
$ACADMAINTVER
 70
   226
  9
$DWGCODEPAGE
  3
ANSI_932
  9
$INSBASE
 10
0.0
 20
0.0
 30
0.0
  9
$EXTMIN
 10
1.000000000000000E+20
 20
1.000000000000000E+20
 30
1.000000000000000E+20
  9
$EXTMAX
 10
-1.000000000000000E+20
 20
-1.000000000000000E+20
 30
-1.000000000000000E+20
  9
$LIMMIN
 10
0.0
 20
0.0
  9
$LIMMAX
 10
12.0
 20
9.0
  9
$ORTHOMODE
 70
     0
  9
$REGENMODE
 70
     1
  9
$FILLMODE
 70
     1
  9
$QTEXTMODE
 70
     0
  9
$MIRRTEXT
 70
     0
  9
$LTSCALE
 40
1.0
  9
$ATTMODE
 70
     1
  9
$TEXTSIZE
 40
0.2
  9
$TRACEWID
 40
0.05
  9
$TEXTSTYLE
  7
Standard
  9
$CLAYER
  8
0
  9
$CELTYPE
  6
ByLayer
  9
$CECOLOR
 62
   256
  9
$CELTSCALE
 40
1.0
  9
$DISPSILH
 70
     0
  9
$DIMSCALE
 40
1.0
  9
$DIMASZ
 40
0.18
  9
$DIMEXO
 40
0.0625
  9
$DIMDLI
 40
0.38
  9
$DIMRND
 40
0.0
  9
$DIMDLE
 40
0.0
  9
$DIMEXE
 40
0.18
  9
$DIMTP
 40
0.0
  9
$DIMTM
 40
0.0
  9
$DIMTXT
 40
0.18
  9
$DIMCEN
 40
0.09
  9
$DIMTSZ
 40
0.0
  9
$DIMTOL
 70
     0
  9
$DIMLIM
 70
     0
  9
$DIMTIH
 70
     1
  9
$DIMTOH
 70
     1
  9
$DIMSE1
 70
     0
  9
$DIMSE2
 70
     0
  9
$DIMTAD
 70
     0
  9
$DIMZIN
 70
     0
  9
$DIMBLK
  1

  9
$DIMASO
 70
     1
  9
$DIMSHO
 70
     1
  9
$DIMPOST
  1

  9
$DIMAPOST
  1

  9
$DIMALT
 70
     0
  9
$DIMALTD
 70
     2
  9
$DIMALTF
 40
25.4
  9
$DIMLFAC
 40
1.0
  9
$DIMTOFL
 70
     0
  9
$DIMTVP
 40
0.0
  9
$DIMTIX
 70
     0
  9
$DIMSOXD
 70
     0
  9
$DIMSAH
 70
     0
  9
$DIMBLK1
  1

  9
$DIMBLK2
  1

  9
$DIMSTYLE
  2
Standard
  9
$DIMCLRD
 70
     0
  9
$DIMCLRE
 70
     0
  9
$DIMCLRT
 70
     0
  9
$DIMTFAC
 40
1.0
  9
$DIMGAP
 40
0.09
  9
$DIMJUST
 70
     0
  9
$DIMSD1
 70
     0
  9
$DIMSD2
 70
     0
  9
$DIMTOLJ
 70
     1
  9
$DIMTZIN
 70
     0
  9
$DIMALTZ
 70
     0
  9
$DIMALTTZ
 70
     0
  9
$DIMUPT
 70
     0
  9
$DIMDEC
 70
     4
  9
$DIMTDEC
 70
     4
  9
$DIMALTU
 70
     2
  9
$DIMALTTD
 70
     2
  9
$DIMTXSTY
  7
Standard
  9
$DIMAUNIT
 70
     0
  9
$DIMADEC
 70
     0
  9
$DIMALTRND
 40
0.0
  9
$DIMAZIN
 70
     0
  9
$DIMDSEP
 70
    46
  9
$DIMATFIT
 70
     3
  9
$DIMFRAC
 70
     0
  9
$DIMLDRBLK
  1

  9
$DIMLUNIT
 70
     2
  9
$DIMLWD
 70
    -2
  9
$DIMLWE
 70
    -2
  9
$DIMTMOVE
 70
     0
  9
$DIMFXL
 40
1.0
  9
$DIMFXLON
 70
     0
  9
$DIMJOGANG
 40
0.7853981633974483
  9
$DIMTFILL
 70
     0
  9
$DIMTFILLCLR
 70
     0
  9
$DIMARCSYM
 70
     0
  9
$DIMLTYPE
  6

  9
$DIMLTEX1
  6

  9
$DIMLTEX2
  6

  9
$DIMTXTDIRECTION
 70
     0
  9
$LUNITS
 70
     2
  9
$LUPREC
 70
     4
  9
$SKETCHINC
 40
0.1
  9
$FILLETRAD
 40
0.0
  9
$AUNITS
 70
     0
  9
$AUPREC
 70
     0
  9
$MENU
  1
.
  9
$ELEVATION
 40
0.0
  9
$PELEVATION
 40
0.0
  9
$THICKNESS
 40
0.0
  9
$LIMCHECK
 70
     0
  9
$CHAMFERA
 40
0.0
  9
$CHAMFERB
 40
0.0
  9
$CHAMFERC
 40
0.0
  9
$CHAMFERD
 40
0.0
  9
$SKPOLY
 70
     0
  9
$TDCREATE
 40
2459569.488993056
  9
$TDUCREATE
 40
2459569.113993055
  9
$TDUPDATE
 40
2459569.488993056
  9
$TDUUPDATE
 40
2459569.113993055
  9
$TDINDWG
 40
0.0000000000
  9
$TDUSRTIMER
 40
0.0000000000
  9
$USRTIMER
 70
     1
  9
$ANGBASE
 50
0.0
  9
$ANGDIR
 70
     0
  9
$PDMODE
 70
     0
  9
$PDSIZE
 40
0.0
  9
$PLINEWID
 40
0.0
  9
$SPLFRAME
 70
     0
  9
$SPLINETYPE
 70
     6
  9
$SPLINESEGS
 70
     8
  9
$HANDSEED
  5
116
  9
$SURFTAB1
 70
     6
  9
$SURFTAB2
 70
     6
  9
$SURFTYPE
 70
     6
  9
$SURFU
 70
     6
  9
$SURFV
 70
     6
  9
$UCSBASE
  2

  9
$UCSNAME
  2

  9
$UCSORG
 10
0.0
 20
0.0
 30
0.0
  9
$UCSXDIR
 10
1.0
 20
0.0
 30
0.0
  9
$UCSYDIR
 10
0.0
 20
1.0
 30
0.0
  9
$UCSORTHOREF
  2

  9
$UCSORTHOVIEW
 70
     0
  9
$UCSORGTOP
 10
0.0
 20
0.0
 30
0.0
  9
$UCSORGBOTTOM
 10
0.0
 20
0.0
 30
0.0
  9
$UCSORGLEFT
 10
0.0
 20
0.0
 30
0.0
  9
$UCSORGRIGHT
 10
0.0
 20
0.0
 30
0.0
  9
$UCSORGFRONT
 10
0.0
 20
0.0
 30
0.0
  9
$UCSORGBACK
 10
0.0
 20
0.0
 30
0.0
  9
$PUCSBASE
  2

  9
$PUCSNAME
  2

  9
$PUCSORG
 10
0.0
 20
0.0
 30
0.0
  9
$PUCSXDIR
 10
1.0
 20
0.0
 30
0.0
  9
$PUCSYDIR
 10
0.0
 20
1.0
 30
0.0
  9
$PUCSORTHOREF
  2

  9
$PUCSORTHOVIEW
 70
     0
  9
$PUCSORGTOP
 10
0.0
 20
0.0
 30
0.0
  9
$PUCSORGBOTTOM
 10
0.0
 20
0.0
 30
0.0
  9
$PUCSORGLEFT
 10
0.0
 20
0.0
 30
0.0
  9
$PUCSORGRIGHT
 10
0.0
 20
0.0
 30
0.0
  9
$PUCSORGFRONT
 10
0.0
 20
0.0
 30
0.0
  9
$PUCSORGBACK
 10
0.0
 20
0.0
 30
0.0
  9
$USERI1
 70
     0
  9
$USERI2
 70
     0
  9
$USERI3
 70
     0
  9
$USERI4
 70
     0
  9
$USERI5
 70
     0
  9
$USERR1
 40
0.0
  9
$USERR2
 40
0.0
  9
$USERR3
 40
0.0
  9
$USERR4
 40
0.0
  9
$USERR5
 40
0.0
  9
$WORLDVIEW
 70
     1
  9
$SHADEDGE
 70
     3
  9
$SHADEDIF
 70
    70
  9
$TILEMODE
 70
     1
  9
$MAXACTVP
 70
    64
  9
$PINSBASE
 10
0.0
 20
0.0
 30
0.0
  9
$PLIMCHECK
 70
     0
  9
$PEXTMIN
 10
1.000000000000000E+20
 20
1.000000000000000E+20
 30
1.000000000000000E+20
  9
$PEXTMAX
 10
-1.000000000000000E+20
 20
-1.000000000000000E+20
 30
-1.000000000000000E+20
  9
$PLIMMIN
 10
0.0
 20
0.0
  9
$PLIMMAX
 10
12.0
 20
9.0
  9
$UNITMODE
 70
     0
  9
$VISRETAIN
 70
     1
  9
$PLINEGEN
 70
     0
  9
$PSLTSCALE
 70
     1
  9
$TREEDEPTH
 70
  3020
  9
$CMLSTYLE
  2
Standard
  9
$CMLJUST
 70
     0
  9
$CMLSCALE
 40
1.0
  9
$PROXYGRAPHICS
 70
     1
  9
$MEASUREMENT
 70
     0
  9
$CELWEIGHT
370
    -1
  9
$ENDCAPS
280
     0
  9
$JOINSTYLE
280
     0
  9
$LWDISPLAY
290
     1
  9
$INSUNITS
 70
     4
  9
$HYPERLINKBASE
  1

  9
$STYLESHEET
  1

  9
$XEDIT
290
     1
  9
$CEPSNTYPE
380
     0
  9
$PSTYLEMODE
290
     1
  9
$FINGERPRINTGUID
  2
{77FBC83E-AA0B-3B47-AC3A-F3BCBCCE8E99}
  9
$VERSIONGUID
  2
{306E98EB-E530-0440-B9F6-A9EECB202AC0}
  9
$EXTNAMES
290
     1
  9
$PSVPSCALE
 40
0.0
  9
$OLESTARTUP
290
     0
  9
$SORTENTS
280
   127
  9
$INDEXCTL
280
     0
  9
$HIDETEXT
280
     1
  9
$XCLIPFRAME
280
     2
  9
$HALOGAP
280
     0
  9
$OBSCOLOR
 70
   257
  9
$OBSLTYPE
280
     0
  9
$INTERSECTIONDISPLAY
280
     0
  9
$INTERSECTIONCOLOR
 70
   257
  9
$DIMASSOC
280
     2
  9
$PROJECTNAME
  1

  9
$CAMERADISPLAY
290
     0
  9
$LENSLENGTH
 40
50.0
  9
$CAMERAHEIGHT
 40
0.0
  9
$STEPSPERSEC
 40
2.0
  9
$STEPSIZE
 40
6.0
  9
$3DDWFPREC
 40
2.0
  9
$PSOLWIDTH
 40
0.25
  9
$PSOLHEIGHT
 40
4.0
  9
$LOFTANG1
 40
1.570796326794896
  9
$LOFTANG2
 40
1.570796326794896
  9
$LOFTMAG1
 40
0.0
  9
$LOFTMAG2
 40
0.0
  9
$LOFTPARAM
 70
     7
  9
$LOFTNORMALS
280
     1
  9
$LATITUDE
 40
37.795
  9
$LONGITUDE
 40
-122.394
  9
$NORTHDIRECTION
 40
0.0
  9
$TIMEZONE
 70
 -8000
  9
$LIGHTGLYPHDISPLAY
280
     1
  9
$TILEMODELIGHTSYNCH
280
     1
  9
$CMATERIAL
347
11
  9
$SOLIDHIST
280
     0
  9
$SHOWHIST
280
     1
  9
$DWFFRAME
280
     2
  9
$DGNFRAME
280
     0
  9
$REALWORLDSCALE
290
     1
  9
$INTERFERECOLOR
 62
     1
  9
$INTERFEREOBJVS
345
33
  9
$INTERFEREVPVS
346
30
  9
$CSHADOW
280
     0
  9
$SHADOWPLANELOCATION
 40
0.0
  0
ENDSEC
  0
SECTION
  2
CLASSES
  0
CLASS
  1
ACDBDICTIONARYWDFLT
  2
AcDbDictionaryWithDefault
  3
ObjectDBX Classes
 90
        0
 91
        1
280
     0
281
     0
  0
CLASS
  1
MATERIAL
  2
AcDbMaterial
  3
ObjectDBX Classes
 90
     1153
 91
        3
280
     0
281
     0
  0
CLASS
  1
VISUALSTYLE
  2
AcDbVisualStyle
  3
ObjectDBX Classes
 90
     4095
 91
       24
280
     0
281
     0
  0
CLASS
  1
SCALE
  2
AcDbScale
  3
ObjectDBX Classes
 90
     1153
 91
       17
280
     0
281
     0
  0
CLASS
  1
TABLESTYLE
  2
AcDbTableStyle
  3
ObjectDBX Classes
 90
     4095
 91
        1
280
     0
281
     0
  0
CLASS
  1
MLEADERSTYLE
  2
AcDbMLeaderStyle
  3
ACDB_MLEADERSTYLE_CLASS
 90
     4095
 91
        1
280
     0
281
     0
  0
CLASS
  1
ACDBSECTIONVIEWSTYLE
  2
AcDbSectionViewStyle
  3
ObjectDBX Classes
 90
     1025
 91
        1
280
     0
281
     0
  0
CLASS
  1
ACDBDETAILVIEWSTYLE
  2
AcDbDetailViewStyle
  3
ObjectDBX Classes
 90
     1025
 91
        1
280
     0
281
     0
  0
CLASS
  1
DICTIONARYVAR
  2
AcDbDictionaryVar
  3
ObjectDBX Classes
 90
        0
 91
        5
280
     0
281
     0
  0
CLASS
  1
CELLSTYLEMAP
  2
AcDbCellStyleMap
  3
ObjectDBX Classes
 90
     1152
 91
        1
280
     0
281
     0
  0
ENDSEC
  0
SECTION
  2
TABLES
  0
TABLE
  2
VPORT
  5
8
330
0
100
AcDbSymbolTable
 70
     1
  0
VPORT
  5
57
330
8
100
AcDbSymbolTableRecord
100
AcDbViewportTableRecord
  2
*Active
 70
     0
 10
0.0
 20
0.0
 11
1.0
 21
1.0
 12
0.0
 22
0.0
 13
0.0
 23
0.0
 14
1.0
 24
1.0
 15
0.0
 25
0.0
 16
0.0
 26
0.0
 36
1.0
 17
104.9999999737534
 27
-148.4999999628701
 37
0.0
 40
302.939999924255
 41
0.7070707070707534
 42
50.0
 43
0.0
 44
0.0
 50
0.0
 51
0.0
 71
     0
 72
   100
 73
     1
 74
     0
 75
     1
 76
     0
 77
     0
 78
     0
281
     0
 65
     1
110
0.0
120
0.0
130
0.0
111
1.0
121
0.0
131
0.0
112
0.0
122
1.0
132
0.0
 79
     0
146
0.0
 60
     3
 61
     5
292
     1
282
     1
141
0.0
142
0.0
 63
   250
421
  3355443
  0
ENDTAB
  0
TABLE
  2
LTYPE
  5
5
330
0
100
AcDbSymbolTable
 70
     3
  0
LTYPE
  5
5B
330
5
100
AcDbSymbolTableRecord
100
AcDbLinetypeTableRecord
  2
ByBlock
 70
     0
  3

 72
    65
 73
     0
 40
0.0
  0
LTYPE
  5
5C
330
5
100
AcDbSymbolTableRecord
100
AcDbLinetypeTableRecord
  2
ByLayer
 70
     0
  3

 72
    65
 73
     0
 40
0.0
  0
LTYPE
  5
5D
330
5
100
AcDbSymbolTableRecord
100
AcDbLinetypeTableRecord
  2
Continuous
 70
     0
  3
Solid line
 72
    65
 73
     0
 40
0.0
  0
LTYPE
  5
AE
330
5
100
AcDbSymbolTableRecord
100
AcDbLinetypeTableRecord
  2
AI-Linetype-0
 70
     0
  3
Adobe Illustrator Linetype No. 0
 72
    65
 73
     2
 40
1.411111110758333
 49
0.7055555553791667
 74
     0
 49
-0.7055555553791667
 74
     0
  0
LTYPE
  5
B0
330
5
100
AcDbSymbolTableRecord
100
AcDbLinetypeTableRecord
  2
AI-Linetype-1
 70
     0
  3
Adobe Illustrator Linetype No. 1
 72
    65
 73
     2
 40
1.411111110758333
 49
0.7055555553791667
 74
     0
 49
-0.7055555553791667
 74
     0
  0
ENDTAB
  0
TABLE
  2
LAYER
  5
2
330
0
100
AcDbSymbolTable
 70
     2
  0
LAYER
  5
54
330
2
100
AcDbSymbolTableRecord
100
AcDbLayerTableRecord
  2
0
 70
     0
 62
     7
  6
Continuous
370
    -3
390
F
347
21
  0
LAYER
  5
78
330
2
100
AcDbSymbolTableRecord
100
AcDbLayerTableRecord
  2
レイヤー 1
 70
     0
 62
     7
  6
Continuous
370
     0
390
F
347
21
  0
ENDTAB
  0
TABLE
  2
STYLE
  5
3
330
0
100
AcDbSymbolTable
 70
     2
  0
STYLE
  5
55
330
3
100
AcDbSymbolTableRecord
100
AcDbTextStyleTableRecord
  2
Standard
 70
     0
 40
0.0
 41
1.0
 50
0.0
 71
     0
 42
0.2
  3
txt
  4

  0
STYLE
  5
5A
330
3
100
AcDbSymbolTableRecord
100
AcDbTextStyleTableRecord
  2
Annotative
 70
     0
 40
0.0
 41
1.0
 50
0.0
 71
     0
 42
0.2
  3
txt
  4

1001
AcadAnnotative
1000
AnnotativeData
1002
{
1070
     1
1070
     1
1002
}
  0
ENDTAB
  0
TABLE
  2
VIEW
  5
6
330
0
100
AcDbSymbolTable
 70
     0
  0
ENDTAB
  0
TABLE
  2
UCS
  5
7
330
0
100
AcDbSymbolTable
 70
     0
  0
ENDTAB
  0
TABLE
  2
APPID
  5
9
330
0
100
AcDbSymbolTable
 70
     2
  0
APPID
  5
56
330
9
100
AcDbSymbolTableRecord
100
AcDbRegAppTableRecord
  2
ACAD
 70
     0
  0
APPID
  5
5E
330
9
100
AcDbSymbolTableRecord
100
AcDbRegAppTableRecord
  2
AcadAnnotative
 70
     0
  0
ENDTAB
  0
TABLE
  2
DIMSTYLE
  5
A
330
0
100
AcDbSymbolTable
 70
     2
100
AcDbDimStyleTable
 71
     0
  0
DIMSTYLE
105
58
330
A
100
AcDbSymbolTableRecord
100
AcDbDimStyleTableRecord
  2
Standard
 70
     0
340
55
  0
DIMSTYLE
105
59
330
A
100
AcDbSymbolTableRecord
100
AcDbDimStyleTableRecord
  2
Annotative
 70
     0
340
55
1001
AcadAnnotative
1000
AnnotativeData
1002
{
1070
     1
1070
     1
1002
}
  0
ENDTAB
  0
TABLE
  2
BLOCK_RECORD
  5
1
330
0
100
AcDbSymbolTable
 70
     9
  0
BLOCK_RECORD
  5
70
330
1
100
AcDbSymbolTableRecord
100
AcDbBlockTableRecord
  2
*Model_Space
340
73
 70
     0
280
     1
281
     0
  0
BLOCK_RECORD
  5
6C
330
1
100
AcDbSymbolTableRecord
100
AcDbBlockTableRecord
  2
*Paper_Space
340
6F
 70
     0
280
     1
281
     0
  0
BLOCK_RECORD
  5
74
330
1
100
AcDbSymbolTableRecord
100
AcDbBlockTableRecord
  2
*Paper_Space0
340
77
 70
     0
280
     1
281
     0
  0
BLOCK_RECORD
  5
79
330
1
100
AcDbSymbolTableRecord
100
AcDbBlockTableRecord
  2
Block_0
340
0
102
{BLKREFS
331
7A
102
}
 70
     0
280
     1
281
     0
  0
BLOCK_RECORD
  5
87
330
1
100
AcDbSymbolTableRecord
100
AcDbBlockTableRecord
  2
Block_1
340
0
102
{BLKREFS
331
88
102
}
 70
     0
280
     1
281
     0
  0
BLOCK_RECORD
  5
90
330
1
100
AcDbSymbolTableRecord
100
AcDbBlockTableRecord
  2
Block_2
340
0
102
{BLKREFS
331
91
102
}
 70
     0
280
     1
281
     0
  0
BLOCK_RECORD
  5
94
330
1
100
AcDbSymbolTableRecord
100
AcDbBlockTableRecord
  2
Block_3
340
0
102
{BLKREFS
331
95
102
}
 70
     0
280
     1
281
     0
  0
BLOCK_RECORD
  5
A0
330
1
100
AcDbSymbolTableRecord
100
AcDbBlockTableRecord
  2
Block_4
340
0
102
{BLKREFS
331
A1
102
}
 70
     0
280
     1
281
     0
  0
BLOCK_RECORD
  5
A4
330
1
100
AcDbSymbolTableRecord
100
AcDbBlockTableRecord
  2
Block_5
340
0
102
{BLKREFS
331
A5
102
}
 70
     0
280
     1
281
     0
  0
BLOCK_RECORD
  5
B7
330
1
100
AcDbSymbolTableRecord
100
AcDbBlockTableRecord
  2
Block_6
340
0
102
{BLKREFS
331
B8
102
}
 70
     0
280
     1
281
     0
  0
BLOCK_RECORD
  5
BB
330
1
100
AcDbSymbolTableRecord
100
AcDbBlockTableRecord
  2
Block_7
340
0
102
{BLKREFS
331
BC
102
}
 70
     0
280
     1
281
     0
  0
ENDTAB
  0
ENDSEC
  0
SECTION
  2
BLOCKS
  0
BLOCK
  5
71
330
70
100
AcDbEntity
  8
0
100
AcDbBlockBegin
  2
*Model_Space
 70
     0
 10
0.0
 20
0.0
 30
0.0
  3
*Model_Space
  1

  0
ENDBLK
  5
72
330
70
100
AcDbEntity
  8
0
100
AcDbBlockEnd
  0
BLOCK
  5
6D
330
6C
100
AcDbEntity
 67
     1
  8
0
100
AcDbBlockBegin
  2
*Paper_Space
 70
     0
 10
0.0
 20
0.0
 30
0.0
  3
*Paper_Space
  1

  0
ENDBLK
  5
6E
330
6C
100
AcDbEntity
 67
     1
  8
0
100
AcDbBlockEnd
  0
BLOCK
  5
75
330
74
100
AcDbEntity
 67
     1
  8
0
100
AcDbBlockBegin
  2
*Paper_Space0
 70
     0
 10
0.0
 20
0.0
 30
0.0
  3
*Paper_Space0
  1

  0
ENDBLK
  5
76
330
74
100
AcDbEntity
 67
     1
  8
0
100
AcDbBlockEnd
  0
BLOCK
  5
7B
330
79
100
AcDbEntity
  8
0
100
AcDbBlockBegin
  2
Block_0
 70
     0
 10
0.0
 20
0.0
 30
0.0
  3
Block_0
  1

  0
CIRCLE
  5
7D
330
79
100
AcDbEntity
  8
レイヤー 1
 62
   250
420
  2299925
370
     9
100
AcDbCircle
 10
114.7129833238113
 20
-150.1953834521557
 30
0.0
 40
0.0999066653798969
  0
SPLINE
  5
7E
330
79
100
AcDbEntity
  8
レイヤー 1
 62
   250
420
  2299925
370
     9
100
AcDbSpline
210
0.0
220
0.0
230
1.0
 70
     9
 71
     3
 72
    17
 73
    13
 74
     0
 42
0.0000000001
 43
0.0000000001
 40
0.0
 40
0.0
 40
0.0
 40
0.0
 40
1.0
 40
1.0
 40
1.0
 40
2.0
 40
2.0
 40
2.0
 40
3.0
 40
3.0
 40
3.0
 40
4.0
 40
4.0
 40
4.0
 40
4.0
 10
114.8128899879292
 20
-151.1954731741275
 30
0.0
 10
114.8128899879292
 20
-151.1400165074748
 30
0.0
 10
114.7681224890713
 20
-151.0952490074863
 30
0.0
 10
114.7129833238113
 20
-151.0952490074863
 30
0.0
 10
114.6578794363283
 20
-151.0952490074863
 30
0.0
 10
114.6130766596935
 20
-151.1400165074748
 30
0.0
 10
114.6130766596935
 20
-151.1954731741275
 30
0.0
 10
114.6130766596935
 20
-151.2506123407806
 30
0.0
 10
114.6578794363283
 20
-151.2953798407698
 30
0.0
 10
114.7129833238113
 20
-151.2953798407698
 30
0.0
 10
114.7681224890713
 20
-151.2953798407698
 30
0.0
 10
114.8128899879292
 20
-151.2506123407806
 30
0.0
 10
114.8128899879292
 20
-151.1954731741275
 30
0.0
  0
CIRCLE
  5
7F
330
79
100
AcDbEntity
  8
レイヤー 1
 62
   250
420
  2299925
370
     9
100
AcDbCircle
 10
110.7128723014095
 20
-155.1952323397944
 30
0.0
 40
0.0999066666416377
  0
SPLINE
  5
80
330
79
100
AcDbEntity
  8
レイヤー 1
 62
   250
420
  2299925
370
     9
100
AcDbSpline
210
0.0
220
0.0
230
1.0
 70
     9
 71
     3
 72
    17
 73
    13
 74
     0
 42
0.0000000001
 43
0.0000000001
 40
0.0
 40
0.0
 40
0.0
 40
0.0
 40
1.0
 40
1.0
 40
1.0
 40
2.0
 40
2.0
 40
2.0
 40
3.0
 40
3.0
 40
3.0
 40
4.0
 40
4.0
 40
4.0
 40
4.0
 10
96.81296924932912
 20
-141.1954226210723
 30
0.0
 10
96.81296924932912
 20
-141.1399306766418
 30
0.0
 10
96.76816647156272
 20
-141.0951631766529
 30
0.0
 10
96.71306258268748
 20
-141.0951631766529
 30
0.0
 10
96.65792341603472
 20
-141.0951631766529
 30
0.0
 10
96.61315591604552
 20
-141.1399306766418
 30
0.0
 10
96.61315591604552
 20
-141.1954226210723
 30
0.0
 10
96.61315591604552
 20
-141.2505265099473
 30
0.0
 10
96.65792341603472
 20
-141.295329287714
 30
0.0
 10
96.71306258268748
 20
-141.295329287714
 30
0.0
 10
96.76816647156272
 20
-141.295329287714
 30
0.0
 10
96.81296924932912
 20
-141.2505265099473
 30
0.0
 10
96.81296924932912
 20
-141.1954226210723
 30
0.0
  0
SPLINE
  5
81
330
79
100
AcDbEntity
  8
レイヤー 1
 62
   250
420
  2299925
370
     9
100
AcDbSpline
210
0.0
220
0.0
230
1.0
 70
     9
 71
     3
 72
    17
 73
    13
 74
     0
 42
0.0000000001
 43
0.0000000001
 40
0.0
 40
0.0
 40
0.0
 40
0.0
 40
1.0
 40
1.0
 40
1.0
 40
2.0
 40
2.0
 40
2.0
 40
3.0
 40
3.0
 40
3.0
 40
4.0
 40
4.0
 40
4.0
 40
4.0
 10
96.81296924932912
 20
-151.1954731741275
 30
0.0
 10
96.81296924932912
 20
-151.1400165074748
 30
0.0
 10
96.76816647156272
 20
-151.0952490074863
 30
0.0
 10
96.71306258268748
 20
-151.0952490074863
 30
0.0
 10
96.65792341603472
 20
-151.0952490074863
 30
0.0
 10
96.61315591604552
 20
-151.1400165074748
 30
0.0
 10
96.61315591604552
 20
-151.1954731741275
 30
0.0
 10
96.61315591604552
 20
-151.2506123407806
 30
0.0
 10
96.65792341603472
 20
-151.2953798407698
 30
0.0
 10
96.71306258268748
 20
-151.2953798407698
 30
0.0
 10
96.76816647156272
 20
-151.2953798407698
 30
0.0
 10
96.81296924932912
 20
-151.2506123407806
 30
0.0
 10
96.81296924932912
 20
-151.1954731741275
 30
0.0
  0
CIRCLE
  5
82
330
79
100
AcDbEntity
  8
レイヤー 1
 62
   250
420
  2299925
370
     9
100
AcDbCircle
 10
100.7128217483539
 20
-155.1952323397944
 30
0.0
 40
0.0999066666415976
  0
LINE
  5
83
330
79
100
AcDbEntity
  8
レイヤー 1
 62
   250
420
  2299925
370
     9
100
AcDbLine
 10
114.7129833238113
 20
-150.195383452156
 30
0.0
 11
114.7129833238113
 21
-146.4250709530983
 31
0.0
  0
LINE
  5
84
330
79
100
AcDbEntity
  8
レイヤー 1
 62
   250
420
  2299925
370
     9
100
AcDbLine
 10
114.7129833238113
 20
-150.195383452156
 30
0.0
 11
114.7129833238113
 21
-152.1952453961001
 31
0.0
  0
LINE
  5
85
330
79
100
AcDbEntity
  8
レイヤー 1
 62
   250
420
  2299925
370
     9
100
AcDbLine
 10
113.2529428563298
 20
-150.195383452156
 30
0.0
 11
115.713108298296
 21
-150.195383452156
 31
0.0
  0
LINE
  5
86
330
79
100
AcDbEntity
  8
レイヤー 1
 62
   250
420
  2299925
370
     9
100
AcDbLine
 10
113.2529428563298
 20
-151.1954731741275
 30
0.0
 11
115.713108298296
 21
-151.1954731741275
 31
0.0
  0
INSERT
  5
88
330
79
100
AcDbEntity
  8
レイヤー 1
100
AcDbBlockReference
  2
Block_1
 10
0.0
 20
0.0
 30
0.0
  0
LINE
  5
8D
330
79
100
AcDbEntity
  8
レイヤー 1
 62
   250
420
  2299925
370
     9
100
AcDbLine
 10
100.712821748354
 20
-155.1952323397944
 30
0.0
 11
110.7128723014095
 21
-155.1952323397944
 31
0.0
  0
LINE
  5
8E
330
79
100
AcDbEntity
  8
レイヤー 1
 62
   250
420
  2299925
370
     9
100
AcDbLine
 10
100.712821748354
 20
-153.7352262290482
 30
0.0
 11
100.712821748354
 21
-156.1953573395447
 31
0.0
  0
LINE
  5
8F
330
79
100
AcDbEntity
  8
レイヤー 1
 62
   250
420
  2299925
370
     9
100
AcDbLine
 10
110.7128723014095
 20
-153.7352262290482
 30
0.0
 11
110.7128723014095
 21
-156.1953573395447
 31
0.0
  0
INSERT
  5
91
330
79
100
AcDbEntity
  8
レイヤー 1
100
AcDbBlockReference
  2
Block_2
 10
0.0
 20
0.0
 30
0.0
  0
LINE
  5
9D
330
79
100
AcDbEntity
  8
レイヤー 1
 62
   250
420
  2299925
370
     9
100
AcDbLine
 10
96.71306258268748
 20
-141.1954226210723
 30
0.0
 11
96.71306258268748
 21
-151.1954731741275
 31
0.0
  0
LINE
  5
9E
330
79
100
AcDbEntity
  8
レイヤー 1
 62
   250
420
  2299925
370
     9
100
AcDbLine
 10
98.17306869343335
 20
-141.1954226210723
 30
0.0
 11
95.7129375829375
 21
-141.1954226210723
 31
0.0
  0
LINE
  5
9F
330
79
100
AcDbEntity
  8
レイヤー 1
 62
   250
420
  2299925
370
     9
100
AcDbLine
 10
98.17306869343335
 20
-151.1954731741275
 30
0.0
 11
95.7129375829375
 21
-151.1954731741275
 31
0.0
  0
INSERT
  5
A1
330
79
100
AcDbEntity
  8
レイヤー 1
100
AcDbBlockReference
  2
Block_4
 10
0.0
 20
0.0
 30
0.0
  0
ENDBLK
  5
7C
330
79
100
AcDbEntity
  8
0
100
AcDbBlockEnd
  0
BLOCK
  5
89
330
87
100
AcDbEntity
  8
0
100
AcDbBlockBegin
  2
Block_1
 70
     0
 10
0.0
 20
0.0
 30
0.0
  3
Block_1
  1

  0
SPLINE
  5
8B
330
87
100
AcDbEntity
  8
レイヤー 1
100
AcDbSpline
210
0.0
220
0.0
230
1.0
 70
    11
 71
     3
 72
    26
 73
    22
 74
     0
 42
0.0000000001
 43
0.0000000001
 40
0.0
 40
0.0
 40
0.0
 40
0.0
 40
1.0
 40
1.0
 40
1.0
 40
2.0
 40
2.0
 40
2.0
 40
3.0
 40
3.0
 40
3.0
 40
4.0
 40
4.0
 40
4.0
 40
5.0
 40
5.0
 40
5.0
 40
6.0
 40
6.0
 40
6.0
 40
7.0
 40
7.0
 40
7.0
 40
7.0
 10
114.1170654011582
 20
-147.3146945161227
 30
0.0
 10
114.1170654011582
 20
-147.3146945161227
 30
0.0
 10
113.0129122981356
 20
-147.3146945161227
 30
0.0
 10
113.0129122981356
 20
-147.3146945161227
 30
0.0
 10
113.0129122981356
 20
-147.3146945161227
 30
0.0
 10
113.0129122981356
 20
-147.6001206770756
 30
0.0
 10
113.0129122981356
 20
-147.6001206770756
 30
0.0
 10
113.0129122981356
 20
-147.6001206770756
 30
0.0
 10
112.8647731922699
 20
-147.6001206770756
 30
0.0
 10
112.8647731922699
 20
-147.6001206770756
 30
0.0
 10
112.8499592816833
 20
-147.3127997136058
 30
0.0
 10
112.687006265231
 20
-147.2724920964284
 30
0.0
 10
112.5726290951207
 20
-147.2468261350632
 30
0.0
 10
112.5726290951207
 20
-147.2468261350632
 30
0.0
 10
112.5726290951207
 20
-147.1205633855289
 30
0.0
 10
112.5726290951207
 20
-147.1205633855289
 30
0.0
 10
112.5726290951207
 20
-147.1205633855289
 30
0.0
 10
114.1170654011582
 20
-147.1205633855289
 30
0.0
 10
114.1170654011582
 20
-147.1205633855289
 30
0.0
 10
114.1170654011582
 20
-147.1205633855289
 30
0.0
 10
114.1170654011582
 20
-147.3146945161227
 30
0.0
 10
114.1170654011582
 20
-147.3146945161227
 30
0.0
  0
HATCH
  5
8C
330
87
100
AcDbEntity
  8
レイヤー 1
 62
   250
420
  2299925
440
 33554687
100
AcDbHatch
 10
0.0
 20
0.0
 30
0.0
210
0.0
220
0.0
230
1.0
  2
SOLID
 70
     1
 71
     1
 91
        1
 92
        1
 93
        1
 72
     4
 94
        3
 73
     0
 74
     0
 95
       26
 96
       22
 40
0.0
 40
0.0
 40
0.0
 40
0.0
 40
1.0
 40
1.0
 40
1.0
 40
2.0
 40
2.0
 40
2.0
 40
3.0
 40
3.0
 40
3.0
 40
4.0
 40
4.0
 40
4.0
 40
5.0
 40
5.0
 40
5.0
 40
6.0
 40
6.0
 40
6.0
 40
7.0
 40
7.0
 40
7.0
 40
7.0
 10
114.1170654011582
 20
-147.3146945161227
 10
114.1170654011582
 20
-147.3146945161227
 10
113.0129122981356
 20
-147.3146945161227
 10
113.0129122981356
 20
-147.3146945161227
 10
113.0129122981356
 20
-147.3146945161227
 10
113.0129122981356
 20
-147.6001206770756
 10
113.0129122981356
 20
-147.6001206770756
 10
113.0129122981356
 20
-147.6001206770756
 10
112.8647731922699
 20
-147.6001206770756
 10
112.8647731922699
 20
-147.6001206770756
 10
112.8499592816833
 20
-147.3127997136058
 10
112.687006265231
 20
-147.2724920964284
 10
112.5726290951207
 20
-147.2468261350632
 10
112.5726290951207
 20
-147.2468261350632
 10
112.5726290951207
 20
-147.1205633855289
 10
112.5726290951207
 20
-147.1205633855289
 10
112.5726290951207
 20
-147.1205633855289
 10
114.1170654011582
 20
-147.1205633855289
 10
114.1170654011582
 20
-147.1205633855289
 10
114.1170654011582
 20
-147.1205633855289
 10
114.1170654011582
 20
-147.3146945161227
 10
114.1170654011582
 20
-147.3146945161227
 97
        0
 97
        1
330
8B
 75
     2
 76
     1
 98
        1
 10
0.0
 20
0.0
450
        0
451
        0
460
0.0
461
0.0
452
        0
462
0.0
453
        0
470

  0
ENDBLK
  5
8A
330
87
100
AcDbEntity
  8
0
100
AcDbBlockEnd
  0
BLOCK
  5
92
330
90
100
AcDbEntity
  8
0
100
AcDbBlockBegin
  2
Block_2
 70
     0
 10
0.0
 20
0.0
 30
0.0
  3
Block_2
  1

  0
INSERT
  5
95
330
90
100
AcDbEntity
  8
レイヤー 1
100
AcDbBlockReference
  2
Block_3
 10
0.0
 20
0.0
 30
0.0
  0
ENDBLK
  5
93
330
90
100
AcDbEntity
  8
0
100
AcDbBlockEnd
  0
BLOCK
  5
96
330
94
100
AcDbEntity
  8
0
100
AcDbBlockBegin
  2
Block_3
 70
     0
 10
0.0
 20
0.0
 30
0.0
  3
Block_3
  1

  0
SPLINE
  5
98
330
94
100
AcDbEntity
  8
レイヤー 1
100
AcDbSpline
210
0.0
220
0.0
230
1.0
 70
    11
 71
     3
 72
    26
 73
    22
 74
     0
 42
0.0000000001
 43
0.0000000001
 40
0.0
 40
0.0
 40
0.0
 40
0.0
 40
1.0
 40
1.0
 40
1.0
 40
2.0
 40
2.0
 40
2.0
 40
3.0
 40
3.0
 40
3.0
 40
4.0
 40
4.0
 40
4.0
 40
5.0
 40
5.0
 40
5.0
 40
6.0
 40
6.0
 40
6.0
 40
7.0
 40
7.0
 40
7.0
 40
7.0
 10
104.9276177038028
 20
-154.5986599005864
 30
0.0
 10
104.9276177038028
 20
-154.5986599005864
 30
0.0
 10
104.9276177038028
 20
-153.4945067975638
 30
0.0
 10
104.9276177038028
 20
-153.4945067975638
 30
0.0
 10
104.9276177038028
 20
-153.4945067975638
 30
0.0
 10
104.6420192880756
 20
-153.4945067975638
 30
0.0
 10
104.6420192880756
 20
-153.4945067975638
 30
0.0
 10
104.6420192880756
 20
-153.4945067975638
 30
0.0
 10
104.6420192880756
 20
-153.3463676916981
 30
0.0
 10
104.6420192880756
 20
-153.3463676916981
 30
0.0
 10
104.9293402515454
 20
-153.3315537811115
 30
0.0
 10
104.9696478687228
 20
-153.1686007646592
 30
0.0
 10
104.9951415753137
 20
-153.0542235945489
 30
0.0
 10
104.9951415753137
 20
-153.0542235945489
 30
0.0
 10
105.1215765796223
 20
-153.0542235945489
 30
0.0
 10
105.1215765796223
 20
-153.0542235945489
 30
0.0
 10
105.1215765796223
 20
-153.0542235945489
 30
0.0
 10
105.1215765796223
 20
-154.5986599005864
 30
0.0
 10
105.1215765796223
 20
-154.5986599005864
 30
0.0
 10
105.1215765796223
 20
-154.5986599005864
 30
0.0
 10
104.9276177038028
 20
-154.5986599005864
 30
0.0
 10
104.9276177038028
 20
-154.5986599005864
 30
0.0
  0
HATCH
  5
99
330
94
100
AcDbEntity
  8
レイヤー 1
 62
   250
420
  2299925
440
 33554687
100
AcDbHatch
 10
0.0
 20
0.0
 30
0.0
210
0.0
220
0.0
230
1.0
  2
SOLID
 70
     1
 71
     1
 91
        1
 92
        1
 93
        1
 72
     4
 94
        3
 73
     0
 74
     0
 95
       26
 96
       22
 40
0.0
 40
0.0
 40
0.0
 40
0.0
 40
1.0
 40
1.0
 40
1.0
 40
2.0
 40
2.0
 40
2.0
 40
3.0
 40
3.0
 40
3.0
 40
4.0
 40
4.0
 40
4.0
 40
5.0
 40
5.0
 40
5.0
 40
6.0
 40
6.0
 40
6.0
 40
7.0
 40
7.0
 40
7.0
 40
7.0
 10
104.9276177038028
 20
-154.5986599005864
 10
104.9276177038028
 20
-154.5986599005864
 10
104.9276177038028
 20
-153.4945067975638
 10
104.9276177038028
 20
-153.4945067975638
 10
104.9276177038028
 20
-153.4945067975638
 10
104.6420192880756
 20
-153.4945067975638
 10
104.6420192880756
 20
-153.4945067975638
 10
104.6420192880756
 20
-153.4945067975638
 10
104.6420192880756
 20
-153.3463676916981
 10
104.6420192880756
 20
-153.3463676916981
 10
104.9293402515454
 20
-153.3315537811115
 10
104.9696478687228
 20
-153.1686007646592
 10
104.9951415753137
 20
-153.0542235945489
 10
104.9951415753137
 20
-153.0542235945489
 10
105.1215765796223
 20
-153.0542235945489
 10
105.1215765796223
 20
-153.0542235945489
 10
105.1215765796223
 20
-153.0542235945489
 10
105.1215765796223
 20
-154.5986599005864
 10
105.1215765796223
 20
-154.5986599005864
 10
105.1215765796223
 20
-154.5986599005864
 10
104.9276177038028
 20
-154.5986599005864
 10
104.9276177038028
 20
-154.5986599005864
 97
        0
 97
        1
330
98
 75
     2
 76
     1
 98
        1
 10
0.0
 20
0.0
450
        0
451
        0
460
0.0
461
0.0
452
        0
462
0.0
453
        0
470

  0
SPLINE
  5
9A
330
94
100
AcDbEntity
  8
レイヤー 1
100
AcDbSpline
210
0.0
220
0.0
230
1.0
 70
     9
 71
     3
 72
    17
 73
    13
 74
     0
 42
0.0000000001
 43
0.0000000001
 40
0.0
 40
0.0
 40
0.0
 40
0.0
 40
1.0
 40
1.0
 40
1.0
 40
2.0
 40
2.0
 40
2.0
 40
3.0
 40
3.0
 40
3.0
 40
4.0
 40
4.0
 40
4.0
 40
4.0
 10
105.9869845655171
 20
-153.1982285858324
 30
0.0
 10
105.7709770785919
 20
-153.1982285858324
 30
0.0
 10
105.7306694614145
 20
-153.4817599442684
 30
0.0
 10
105.7306694614145
 20
-153.8266140023419
 30
0.0
 10
105.7306694614145
 20
-154.1459743538246
 30
0.0
 10
105.7616753207818
 20
-154.454654909303
 30
0.0
 10
105.9869845655171
 20
-154.454654909303
 30
0.0
 10
106.2009249951511
 20
-154.454654909303
 30
0.0
 10
106.2432996696197
 20
-154.1735351177066
 30
0.0
 10
106.2432996696197
 20
-153.8266140023419
 30
0.0
 10
106.2432996696197
 20
-153.5069091413108
 30
0.0
 10
106.2102267529613
 20
-153.1982285858324
 30
0.0
 10
105.9869845655171
 20
-153.1982285858324
 30
0.0
  0
SPLINE
  5
9B
330
94
100
AcDbEntity
  8
レイヤー 1
100
AcDbSpline
210
0.0
220
0.0
230
1.0
 70
     9
 71
     3
 72
    29
 73
    25
 74
     0
 42
0.0000000001
 43
0.0000000001
 40
0.0
 40
0.0
 40
0.0
 40
0.0
 40
1.0
 40
1.0
 40
1.0
 40
2.0
 40
2.0
 40
2.0
 40
3.0
 40
3.0
 40
3.0
 40
4.0
 40
4.0
 40
4.0
 40
5.0
 40
5.0
 40
5.0
 40
6.0
 40
6.0
 40
6.0
 40
7.0
 40
7.0
 40
7.0
 40
8.0
 40
8.0
 40
8.0
 40
8.0
 10
106.3311496044936
 20
-154.4208929735475
 30
0.0
 10
106.2377875168433
 20
-154.6303547790507
 30
0.0
 10
106.0875813536864
 20
-154.6493028042196
 30
0.0
 10
105.9869845655171
 20
-154.6493028042196
 30
0.0
 10
105.847802707913
 20
-154.6493028042196
 30
0.0
 10
105.7251573086381
 20
-154.6027940151687
 30
0.0
 10
105.6428195265407
 20
-154.4208929735475
 30
0.0
 10
105.5532470439242
 20
-154.2262450786309
 30
0.0
 10
105.536710585595
 20
-153.9892225092457
 30
0.0
 10
105.536710585595
 20
-153.8266140023419
 30
0.0
 10
105.536710585595
 20
-153.6826090110585
 30
0.0
 10
105.5515244961815
 20
-153.4307725310867
 30
0.0
 10
105.6428195265407
 20
-153.2319905215878
 30
0.0
 10
105.7361816141909
 20
-153.0290743975066
 30
0.0
 10
105.875363471795
 20
-153.0056477482069
 30
0.0
 10
105.9869845655171
 20
-153.0056477482069
 30
0.0
 10
106.1240993658301
 20
-153.0056477482069
 30
0.0
 10
106.2488118223961
 20
-153.0500894799666
 30
0.0
 10
106.3311496044936
 20
-153.2319905215878
 30
0.0
 10
106.4169324820763
 20
-153.4245713592133
 30
0.0
 10
106.4372585454393
 20
-153.6529811898853
 30
0.0
 10
106.4372585454393
 20
-153.8266140023419
 30
0.0
 10
106.4372585454393
 20
-153.9978352479588
 30
0.0
 10
106.4189995393675
 20
-154.2283121359221
 30
0.0
 10
106.3311496044936
 20
-154.4208929735475
 30
0.0
  0
HATCH
  5
9C
330
94
100
AcDbEntity
  8
レイヤー 1
 62
   250
420
  2299925
440
 33554687
100
AcDbHatch
 10
0.0
 20
0.0
 30
0.0
210
0.0
220
0.0
230
1.0
  2
SOLID
 70
     1
 71
     1
 91
        2
 92
        1
 93
        1
 72
     4
 94
        3
 73
     0
 74
     0
 95
       17
 96
       13
 40
0.0
 40
0.0
 40
0.0
 40
0.0
 40
1.0
 40
1.0
 40
1.0
 40
2.0
 40
2.0
 40
2.0
 40
3.0
 40
3.0
 40
3.0
 40
4.0
 40
4.0
 40
4.0
 40
4.0
 10
105.9869845655171
 20
-153.1982285858324
 10
105.7709770785919
 20
-153.1982285858324
 10
105.7306694614145
 20
-153.4817599442684
 10
105.7306694614145
 20
-153.8266140023419
 10
105.7306694614145
 20
-154.1459743538246
 10
105.7616753207818
 20
-154.454654909303
 10
105.9869845655171
 20
-154.454654909303
 10
106.2009249951511
 20
-154.454654909303
 10
106.2432996696197
 20
-154.1735351177066
 10
106.2432996696197
 20
-153.8266140023419
 10
106.2432996696197
 20
-153.5069091413108
 10
106.2102267529613
 20
-153.1982285858324
 10
105.9869845655171
 20
-153.1982285858324
 97
        0
 97
        1
330
9A
 92
        1
 93
        1
 72
     4
 94
        3
 73
     0
 74
     0
 95
       29
 96
       25
 40
0.0
 40
0.0
 40
0.0
 40
0.0
 40
1.0
 40
1.0
 40
1.0
 40
2.0
 40
2.0
 40
2.0
 40
3.0
 40
3.0
 40
3.0
 40
4.0
 40
4.0
 40
4.0
 40
5.0
 40
5.0
 40
5.0
 40
6.0
 40
6.0
 40
6.0
 40
7.0
 40
7.0
 40
7.0
 40
8.0
 40
8.0
 40
8.0
 40
8.0
 10
106.3311496044936
 20
-154.4208929735475
 10
106.2377875168433
 20
-154.6303547790507
 10
106.0875813536864
 20
-154.6493028042196
 10
105.9869845655171
 20
-154.6493028042196
 10
105.847802707913
 20
-154.6493028042196
 10
105.7251573086381
 20
-154.6027940151687
 10
105.6428195265407
 20
-154.4208929735475
 10
105.5532470439242
 20
-154.2262450786309
 10
105.536710585595
 20
-153.9892225092457
 10
105.536710585595
 20
-153.8266140023419
 10
105.536710585595
 20
-153.6826090110585
 10
105.5515244961815
 20
-153.4307725310867
 10
105.6428195265407
 20
-153.2319905215878
 10
105.7361816141909
 20
-153.0290743975066
 10
105.875363471795
 20
-153.0056477482069
 10
105.9869845655171
 20
-153.0056477482069
 10
106.1240993658301
 20
-153.0056477482069
 10
106.2488118223961
 20
-153.0500894799666
 10
106.3311496044936
 20
-153.2319905215878
 10
106.4169324820763
 20
-153.4245713592133
 10
106.4372585454393
 20
-153.6529811898853
 10
106.4372585454393
 20
-153.8266140023419
 10
106.4372585454393
 20
-153.9978352479588
 10
106.4189995393675
 20
-154.2283121359221
 10
106.3311496044936
 20
-154.4208929735475
 97
        0
 97
        1
330
9B
 75
     2
 76
     1
 98
        1
 10
0.0
 20
0.0
450
        0
451
        0
460
0.0
461
0.0
452
        0
462
0.0
453
        0
470

  0
ENDBLK
  5
97
330
94
100
AcDbEntity
  8
0
100
AcDbBlockEnd
  0
BLOCK
  5
A2
330
A0
100
AcDbEntity
  8
0
100
AcDbBlockBegin
  2
Block_4
 70
     0
 10
0.0
 20
0.0
 30
0.0
  3
Block_4
  1

  0
INSERT
  5
A5
330
A0
100
AcDbEntity
  8
レイヤー 1
100
AcDbBlockReference
  2
Block_5
 10
0.0
 20
0.0
 30
0.0
  0
ENDBLK
  5
A3
330
A0
100
AcDbEntity
  8
0
100
AcDbBlockEnd
  0
BLOCK
  5
A6
330
A4
100
AcDbEntity
  8
0
100
AcDbBlockBegin
  2
Block_5
 70
     0
 10
0.0
 20
0.0
 30
0.0
  3
Block_5
  1

  0
SPLINE
  5
A8
330
A4
100
AcDbEntity
  8
レイヤー 1
100
AcDbSpline
210
0.0
220
0.0
230
1.0
 70
    11
 71
     3
 72
    26
 73
    22
 74
     0
 42
0.0000000001
 43
0.0000000001
 40
0.0
 40
0.0
 40
0.0
 40
0.0
 40
1.0
 40
1.0
 40
1.0
 40
2.0
 40
2.0
 40
2.0
 40
3.0
 40
3.0
 40
3.0
 40
4.0
 40
4.0
 40
4.0
 40
5.0
 40
5.0
 40
5.0
 40
6.0
 40
6.0
 40
6.0
 40
7.0
 40
7.0
 40
7.0
 40
7.0
 10
96.11678600027637
 20
-146.9812092731505
 30
0.0
 10
96.11678600027637
 20
-146.9812092731505
 30
0.0
 10
95.01263289725379
 20
-146.9812092731505
 30
0.0
 10
95.01263289725379
 20
-146.9812092731505
 30
0.0
 10
95.01263289725379
 20
-146.9812092731505
 30
0.0
 10
95.01263289725379
 20
-147.2668076888777
 30
0.0
 10
95.01263289725379
 20
-147.2668076888777
 30
0.0
 10
95.01263289725379
 20
-147.2668076888777
 30
0.0
 10
94.86449379138804
 20
-147.2668076888777
 30
0.0
 10
94.86449379138804
 20
-147.2668076888777
 30
0.0
 10
94.84967988080148
 20
-146.9794867254079
 30
0.0
 10
94.68672686434915
 20
-146.9391791082305
 30
0.0
 10
94.57234969423886
 20
-146.9136854016396
 30
0.0
 10
94.57234969423886
 20
-146.9136854016396
 30
0.0
 10
94.57234969423886
 20
-146.787250397331
 30
0.0
 10
94.57234969423886
 20
-146.787250397331
 30
0.0
 10
94.57234969423886
 20
-146.787250397331
 30
0.0
 10
96.11678600027637
 20
-146.787250397331
 30
0.0
 10
96.11678600027637
 20
-146.787250397331
 30
0.0
 10
96.11678600027637
 20
-146.787250397331
 30
0.0
 10
96.11678600027637
 20
-146.9812092731505
 30
0.0
 10
96.11678600027637
 20
-146.9812092731505
 30
0.0
  0
HATCH
  5
A9
330
A4
100
AcDbEntity
  8
レイヤー 1
 62
   250
420
  2299925
440
 33554687
100
AcDbHatch
 10
0.0
 20
0.0
 30
0.0
210
0.0
220
0.0
230
1.0
  2
SOLID
 70
     1
 71
     1
 91
        1
 92
        1
 93
        1
 72
     4
 94
        3
 73
     0
 74
     0
 95
       26
 96
       22
 40
0.0
 40
0.0
 40
0.0
 40
0.0
 40
1.0
 40
1.0
 40
1.0
 40
2.0
 40
2.0
 40
2.0
 40
3.0
 40
3.0
 40
3.0
 40
4.0
 40
4.0
 40
4.0
 40
5.0
 40
5.0
 40
5.0
 40
6.0
 40
6.0
 40
6.0
 40
7.0
 40
7.0
 40
7.0
 40
7.0
 10
96.11678600027637
 20
-146.9812092731505
 10
96.11678600027637
 20
-146.9812092731505
 10
95.01263289725379
 20
-146.9812092731505
 10
95.01263289725379
 20
-146.9812092731505
 10
95.01263289725379
 20
-146.9812092731505
 10
95.01263289725379
 20
-147.2668076888777
 10
95.01263289725379
 20
-147.2668076888777
 10
95.01263289725379
 20
-147.2668076888777
 10
94.86449379138804
 20
-147.2668076888777
 10
94.86449379138804
 20
-147.2668076888777
 10
94.84967988080148
 20
-146.9794867254079
 10
94.68672686434915
 20
-146.9391791082305
 10
94.57234969423886
 20
-146.9136854016396
 10
94.57234969423886
 20
-146.9136854016396
 10
94.57234969423886
 20
-146.787250397331
 10
94.57234969423886
 20
-146.787250397331
 10
94.57234969423886
 20
-146.787250397331
 10
96.11678600027637
 20
-146.787250397331
 10
96.11678600027637
 20
-146.787250397331
 10
96.11678600027637
 20
-146.787250397331
 10
96.11678600027637
 20
-146.9812092731505
 10
96.11678600027637
 20
-146.9812092731505
 97
        0
 97
        1
330
A8
 75
     2
 76
     1
 98
        1
 10
0.0
 20
0.0
450
        0
451
        0
460
0.0
461
0.0
452
        0
462
0.0
453
        0
470

  0
SPLINE
  5
AA
330
A4
100
AcDbEntity
  8
レイヤー 1
100
AcDbSpline
210
0.0
220
0.0
230
1.0
 70
     9
 71
     3
 72
    17
 73
    13
 74
     0
 42
0.0000000001
 43
0.0000000001
 40
0.0
 40
0.0
 40
0.0
 40
0.0
 40
1.0
 40
1.0
 40
1.0
 40
2.0
 40
2.0
 40
2.0
 40
3.0
 40
3.0
 40
3.0
 40
4.0
 40
4.0
 40
4.0
 40
4.0
 10
94.7163546855223
 20
-145.9218424114362
 30
0.0
 10
94.7163546855223
 20
-146.1378498983613
 30
0.0
 10
94.99988604395836
 20
-146.1781575155388
 30
0.0
 10
95.34474010203188
 20
-146.1781575155388
 30
0.0
 10
95.66410045351453
 20
-146.1781575155388
 30
0.0
 10
95.97278100899293
 20
-146.1471516561715
 30
0.0
 10
95.97278100899293
 20
-145.9218424114362
 30
0.0
 10
95.97278100899293
 20
-145.7079019818022
 30
0.0
 10
95.69166121739653
 20
-145.6655273073336
 30
0.0
 10
95.34474010203188
 20
-145.6655273073336
 30
0.0
 10
95.02503524100069
 20
-145.6655273073336
 30
0.0
 10
94.7163546855223
 20
-145.698600223992
 30
0.0
 10
94.7163546855223
 20
-145.9218424114362
 30
0.0
  0
SPLINE
  5
AB
330
A4
100
AcDbEntity
  8
レイヤー 1
100
AcDbSpline
210
0.0
220
0.0
230
1.0
 70
     9
 71
     3
 72
    29
 73
    25
 74
     0
 42
0.0000000001
 43
0.0000000001
 40
0.0
 40
0.0
 40
0.0
 40
0.0
 40
1.0
 40
1.0
 40
1.0
 40
2.0
 40
2.0
 40
2.0
 40
3.0
 40
3.0
 40
3.0
 40
4.0
 40
4.0
 40
4.0
 40
5.0
 40
5.0
 40
5.0
 40
6.0
 40
6.0
 40
6.0
 40
7.0
 40
7.0
 40
7.0
 40
8.0
 40
8.0
 40
8.0
 40
8.0
 10
95.93901907323747
 20
-145.5776773724597
 30
0.0
 10
96.14848087874065
 20
-145.67103946011
 30
0.0
 10
96.16742890390954
 20
-145.8212456232669
 30
0.0
 10
96.16742890390954
 20
-145.9218424114362
 30
0.0
 10
96.16742890390954
 20
-146.0610242690403
 30
0.0
 10
96.12092011485867
 20
-146.1836696683152
 30
0.0
 10
95.93901907323747
 20
-146.2660074504126
 30
0.0
 10
95.74437117832086
 20
-146.3555799330291
 30
0.0
 10
95.50769311848419
 20
-146.3721163913583
 30
0.0
 10
95.34474010203188
 20
-146.3721163913583
 30
0.0
 10
95.20073511074842
 20
-146.3721163913583
 30
0.0
 10
94.94889863077666
 20
-146.3576469903203
 30
0.0
 10
94.75011662127775
 20
-146.2660074504126
 30
0.0
 10
94.54720049719654
 20
-146.1726453627624
 30
0.0
 10
94.52377384789683
 20
-146.0334635051583
 30
0.0
 10
94.52377384789683
 20
-145.9218424114362
 30
0.0
 10
94.52377384789683
 20
-145.7847276111232
 30
0.0
 10
94.56821557965657
 20
-145.6600151545572
 30
0.0
 10
94.75011662127775
 20
-145.5776773724597
 30
0.0
 10
94.94269745890322
 20
-145.491894494877
 30
0.0
 10
95.17110728957529
 20
-145.471568431514
 30
0.0
 10
95.34474010203188
 20
-145.471568431514
 30
0.0
 10
95.5159613476488
 20
-145.471568431514
 30
0.0
 10
95.74643823561201
 20
-145.4898274375859
 30
0.0
 10
95.93901907323747
 20
-145.5776773724597
 30
0.0
  0
HATCH
  5
AC
330
A4
100
AcDbEntity
  8
レイヤー 1
 62
   250
420
  2299925
440
 33554687
100
AcDbHatch
 10
0.0
 20
0.0
 30
0.0
210
0.0
220
0.0
230
1.0
  2
SOLID
 70
     1
 71
     1
 91
        2
 92
        1
 93
        1
 72
     4
 94
        3
 73
     0
 74
     0
 95
       17
 96
       13
 40
0.0
 40
0.0
 40
0.0
 40
0.0
 40
1.0
 40
1.0
 40
1.0
 40
2.0
 40
2.0
 40
2.0
 40
3.0
 40
3.0
 40
3.0
 40
4.0
 40
4.0
 40
4.0
 40
4.0
 10
94.7163546855223
 20
-145.9218424114362
 10
94.7163546855223
 20
-146.1378498983613
 10
94.99988604395836
 20
-146.1781575155388
 10
95.34474010203188
 20
-146.1781575155388
 10
95.66410045351453
 20
-146.1781575155388
 10
95.97278100899293
 20
-146.1471516561715
 10
95.97278100899293
 20
-145.9218424114362
 10
95.97278100899293
 20
-145.7079019818022
 10
95.69166121739653
 20
-145.6655273073336
 10
95.34474010203188
 20
-145.6655273073336
 10
95.02503524100069
 20
-145.6655273073336
 10
94.7163546855223
 20
-145.698600223992
 10
94.7163546855223
 20
-145.9218424114362
 97
        0
 97
        1
330
AA
 92
        1
 93
        1
 72
     4
 94
        3
 73
     0
 74
     0
 95
       29
 96
       25
 40
0.0
 40
0.0
 40
0.0
 40
0.0
 40
1.0
 40
1.0
 40
1.0
 40
2.0
 40
2.0
 40
2.0
 40
3.0
 40
3.0
 40
3.0
 40
4.0
 40
4.0
 40
4.0
 40
5.0
 40
5.0
 40
5.0
 40
6.0
 40
6.0
 40
6.0
 40
7.0
 40
7.0
 40
7.0
 40
8.0
 40
8.0
 40
8.0
 40
8.0
 10
95.93901907323747
 20
-145.5776773724597
 10
96.14848087874065
 20
-145.67103946011
 10
96.16742890390954
 20
-145.8212456232669
 10
96.16742890390954
 20
-145.9218424114362
 10
96.16742890390954
 20
-146.0610242690403
 10
96.12092011485867
 20
-146.1836696683152
 10
95.93901907323747
 20
-146.2660074504126
 10
95.74437117832086
 20
-146.3555799330291
 10
95.50769311848419
 20
-146.3721163913583
 10
95.34474010203188
 20
-146.3721163913583
 10
95.20073511074842
 20
-146.3721163913583
 10
94.94889863077666
 20
-146.3576469903203
 10
94.75011662127775
 20
-146.2660074504126
 10
94.54720049719654
 20
-146.1726453627624
 10
94.52377384789683
 20
-146.0334635051583
 10
94.52377384789683
 20
-145.9218424114362
 10
94.52377384789683
 20
-145.7847276111232
 10
94.56821557965657
 20
-145.6600151545572
 10
94.75011662127775
 20
-145.5776773724597
 10
94.94269745890322
 20
-145.491894494877
 10
95.17110728957529
 20
-145.471568431514
 10
95.34474010203188
 20
-145.471568431514
 10
95.5159613476488
 20
-145.471568431514
 10
95.74643823561201
 20
-145.4898274375859
 10
95.93901907323747
 20
-145.5776773724597
 97
        0
 97
        1
330
AB
 75
     2
 76
     1
 98
        1
 10
0.0
 20
0.0
450
        0
451
        0
460
0.0
461
0.0
452
        0
462
0.0
453
        0
470

  0
ENDBLK
  5
A7
330
A4
100
AcDbEntity
  8
0
100
AcDbBlockEnd
  0
BLOCK
  5
B9
330
B7
100
AcDbEntity
  8
0
100
AcDbBlockBegin
  2
Block_6
 70
     0
 10
0.0
 20
0.0
 30
0.0
  3
Block_6
  1

  0
INSERT
  5
BC
330
B7
100
AcDbEntity
  8
レイヤー 1
100
AcDbBlockReference
  2
Block_7
 10
0.0
 20
0.0
 30
0.0
  0
ENDBLK
  5
BA
330
B7
100
AcDbEntity
  8
0
100
AcDbBlockEnd
  0
BLOCK
  5
BD
330
BB
100
AcDbEntity
  8
0
100
AcDbBlockBegin
  2
Block_7
 70
     0
 10
0.0
 20
0.0
 30
0.0
  3
Block_7
  1

  0
SPLINE
  5
BF
330
BB
100
AcDbEntity
  8
レイヤー 1
100
AcDbSpline
210
0.0
220
0.0
230
1.0
 70
     9
 71
     3
 72
    17
 73
    13
 74
     0
 42
0.0000000001
 43
0.0000000001
 40
0.0
 40
0.0
 40
0.0
 40
0.0
 40
1.0
 40
1.0
 40
1.0
 40
2.0
 40
2.0
 40
2.0
 40
3.0
 40
3.0
 40
3.0
 40
4.0
 40
4.0
 40
4.0
 40
4.0
 10
106.7958929854538
 20
-143.4908107822697
 30
0.0
 10
106.7810790748672
 20
-143.5202663486685
 30
0.0
 10
106.7366373431075
 20
-143.6134561815445
 30
0.0
 10
106.7273355852973
 20
-143.6324042067134
 30
0.0
 10
106.8940782067834
 20
-143.6916598490597
 30
0.0
 10
106.9126817224038
 20
-143.6980332757074
 30
0.0
 10
106.9757269697838
 20
-143.7255940395894
 30
0.0
 10
107.0236137970288
 20
-143.6387776333611
 30
0.0
 10
107.0442843699403
 20
-143.5647080804282
 30
0.0
 10
107.0570312232357
 20
-143.4908107822697
 30
0.0
 10
107.0570312232357
 20
-143.4908107822697
 30
0.0
 10
106.7958929854538
 20
-143.4908107822697
 30
0.0
 10
106.7958929854538
 20
-143.4908107822697
 30
0.0
  0
SPLINE
  5
C0
330
BB
100
AcDbEntity
  8
レイヤー 1
100
AcDbSpline
210
0.0
220
0.0
230
1.0
 70
    11
 71
     3
 72
    20
 73
    16
 74
     0
 42
0.0000000001
 43
0.0000000001
 40
0.0
 40
0.0
 40
0.0
 40
0.0
 40
1.0
 40
1.0
 40
1.0
 40
2.0
 40
2.0
 40
2.0
 40
3.0
 40
3.0
 40
3.0
 40
4.0
 40
4.0
 40
4.0
 40
5.0
 40
5.0
 40
5.0
 40
5.0
 10
106.7404269481413
 20
-142.6403889617357
 30
0.0
 10
106.7404269481413
 20
-142.6403889617357
 30
0.0
 10
106.7128661842593
 20
-142.6403889617357
 30
0.0
 10
106.7128661842593
 20
-142.6403889617357
 30
0.0
 10
106.7535183109852
 20
-142.7397799664852
 30
0.0
 10
106.7810790748672
 20
-142.8200506912915
 30
0.0
 10
106.8107068960404
 20
-142.947002459923
 30
0.0
 10
106.8107068960404
 20
-142.947002459923
 30
0.0
 10
106.992263428113
 20
-142.947002459923
 30
0.0
 10
106.992263428113
 20
-142.947002459923
 30
0.0
 10
107.0201687015435
 20
-142.8539848818212
 30
0.0
 10
107.0404947649065
 20
-142.7694077876583
 30
0.0
 10
107.0608208282695
 20
-142.6403889617357
 30
0.0
 10
107.0608208282695
 20
-142.6403889617357
 30
0.0
 10
106.7404269481413
 20
-142.6403889617357
 30
0.0
 10
106.7404269481413
 20
-142.6403889617357
 30
0.0
  0
SPLINE
  5
C1
330
BB
100
AcDbEntity
  8
レイヤー 1
100
AcDbSpline
210
0.0
220
0.0
230
1.0
 70
     9
 71
     3
 72
   242
 73
   238
 74
     0
 42
0.0000000001
 43
0.0000000001
 40
0.0
 40
0.0
 40
0.0
 40
0.0
 40
1.0
 40
1.0
 40
1.0
 40
2.0
 40
2.0
 40
2.0
 40
3.0
 40
3.0
 40
3.0
 40
4.0
 40
4.0
 40
4.0
 40
5.0
 40
5.0
 40
5.0
 40
6.0
 40
6.0
 40
6.0
 40
7.0
 40
7.0
 40
7.0
 40
8.0
 40
8.0
 40
8.0
 40
9.0
 40
9.0
 40
9.0
 40
10.0
 40
10.0
 40
10.0
 40
11.0
 40
11.0
 40
11.0
 40
12.0
 40
12.0
 40
12.0
 40
13.0
 40
13.0
 40
13.0
 40
14.0
 40
14.0
 40
14.0
 40
15.0
 40
15.0
 40
15.0
 40
16.0
 40
16.0
 40
16.0
 40
17.0
 40
17.0
 40
17.0
 40
18.0
 40
18.0
 40
18.0
 40
19.0
 40
19.0
 40
19.0
 40
20.0
 40
20.0
 40
20.0
 40
21.0
 40
21.0
 40
21.0
 40
22.0
 40
22.0
 40
22.0
 40
23.0
 40
23.0
 40
23.0
 40
24.0
 40
24.0
 40
24.0
 40
25.0
 40
25.0
 40
25.0
 40
26.0
 40
26.0
 40
26.0
 40
27.0
 40
27.0
 40
27.0
 40
28.0
 40
28.0
 40
28.0
 40
29.0
 40
29.0
 40
29.0
 40
30.0
 40
30.0
 40
30.0
 40
31.0
 40
31.0
 40
31.0
 40
32.0
 40
32.0
 40
32.0
 40
33.0
 40
33.0
 40
33.0
 40
34.0
 40
34.0
 40
34.0
 40
35.0
 40
35.0
 40
35.0
 40
36.0
 40
36.0
 40
36.0
 40
37.0
 40
37.0
 40
37.0
 40
38.0
 40
38.0
 40
38.0
 40
39.0
 40
39.0
 40
39.0
 40
40.0
 40
40.0
 40
40.0
 40
41.0
 40
41.0
 40
41.0
 40
42.0
 40
42.0
 40
42.0
 40
43.0
 40
43.0
 40
43.0
 40
44.0
 40
44.0
 40
44.0
 40
45.0
 40
45.0
 40
45.0
 40
46.0
 40
46.0
 40
46.0
 40
47.0
 40
47.0
 40
47.0
 40
48.0
 40
48.0
 40
48.0
 40
49.0
 40
49.0
 40
49.0
 40
50.0
 40
50.0
 40
50.0
 40
51.0
 40
51.0
 40
51.0
 40
52.0
 40
52.0
 40
52.0
 40
53.0
 40
53.0
 40
53.0
 40
54.0
 40
54.0
 40
54.0
 40
55.0
 40
55.0
 40
55.0
 40
56.0
 40
56.0
 40
56.0
 40
57.0
 40
57.0
 40
57.0
 40
58.0
 40
58.0
 40
58.0
 40
59.0
 40
59.0
 40
59.0
 40
60.0
 40
60.0
 40
60.0
 40
61.0
 40
61.0
 40
61.0
 40
62.0
 40
62.0
 40
62.0
 40
63.0
 40
63.0
 40
63.0
 40
64.0
 40
64.0
 40
64.0
 40
65.0
 40
65.0
 40
65.0
 40
66.0
 40
66.0
 40
66.0
 40
67.0
 40
67.0
 40
67.0
 40
68.0
 40
68.0
 40
68.0
 40
69.0
 40
69.0
 40
69.0
 40
70.0
 40
70.0
 40
70.0
 40
71.0
 40
71.0
 40
71.0
 40
72.0
 40
72.0
 40
72.0
 40
73.0
 40
73.0
 40
73.0
 40
74.0
 40
74.0
 40
74.0
 40
75.0
 40
75.0
 40
75.0
 40
76.0
 40
76.0
 40
76.0
 40
77.0
 40
77.0
 40
77.0
 40
78.0
 40
78.0
 40
78.0
 40
79.0
 40
79.0
 40
79.0
 40
79.0
 10
107.2902641875871
 20
-143.1056491070187
 30
0.0
 10
107.2902641875871
 20
-143.1056491070187
 30
0.0
 10
107.0684000383371
 20
-143.1056491070187
 30
0.0
 10
107.0684000383371
 20
-143.1056491070187
 30
0.0
 10
107.0684000383371
 20
-143.1056491070187
 30
0.0
 10
106.8255208066269
 20
-143.1056491070187
 30
0.0
 10
106.8255208066269
 20
-143.1056491070187
 30
0.0
 10
106.8255208066269
 20
-143.1056491070187
 30
0.0
 10
106.9367973908005
 20
-143.1480237814873
 30
0.0
 10
106.9367973908005
 20
-143.1480237814873
 30
0.0
 10
106.9460991486107
 20
-143.1523301508438
 30
0.0
 10
106.9571234541635
 20
-143.1585313227173
 30
0.0
 10
106.9571234541635
 20
-143.1712781760127
 30
0.0
 10
106.9571234541635
 20
-143.192465513247
 30
0.0
 10
106.9292181807329
 20
-143.1988389398947
 30
0.0
 10
106.9109591746611
 20
-143.202973054477
 30
0.0
 10
106.901657416851
 20
-143.2262274490024
 30
0.0
 10
106.875474691163
 20
-143.2918565179964
 30
0.0
 10
106.8589382328338
 20
-143.3362982497562
 30
0.0
 10
106.8589382328338
 20
-143.3362982497562
 30
0.0
 10
107.0959608022191
 20
-143.3362982497562
 30
0.0
 10
107.0959608022191
 20
-143.3362982497562
 30
0.0
 10
107.1755425079283
 20
-143.3362982497562
 30
0.0
 10
107.3477972821908
 20
-143.3319918803996
 30
0.0
 10
107.4718207196598
 20
-143.3235513964608
 30
0.0
 10
107.4718207196598
 20
-143.3235513964608
 30
0.0
 10
107.4718207196598
 20
-143.5013183234997
 30
0.0
 10
107.4718207196598
 20
-143.5013183234997
 30
0.0
 10
107.3998182240181
 20
-143.4970119541431
 30
0.0
 10
107.3812147083977
 20
-143.4970119541431
 30
0.0
 10
107.2237738447218
 20
-143.4928778395608
 30
0.0
 10
107.1958685712913
 20
-143.6472181173
 30
0.0
 10
107.1572835018565
 20
-143.7276610968805
 30
0.0
 10
107.1183539228732
 20
-143.7974242804569
 30
0.0
 10
107.2237738447218
 20
-143.8566799228032
 30
0.0
 10
107.316446913275
 20
-143.9243760490883
 30
0.0
 10
107.4070529245371
 20
-144.0068860859601
 30
0.0
 10
107.4070529245371
 20
-144.0068860859601
 30
0.0
 10
107.3033555504311
 20
-144.1739732169947
 30
0.0
 10
107.3033555504311
 20
-144.1739732169947
 30
0.0
 10
107.2830294870681
 20
-144.1550251918258
 30
0.0
 10
107.2720051815153
 20
-144.1465847078869
 30
0.0
 10
107.1738199601857
 20
-144.0618353589498
 30
0.0
 10
107.1311007761686
 20
-144.0237670538378
 30
0.0
 10
107.0794243438898
 20
-143.9879380607912
 30
0.0
 10
107.0091443959908
 20
-143.9434963290315
 30
0.0
 10
106.8237982588843
 20
-144.1297037400092
 30
0.0
 10
106.6443087841028
 20
-144.1529581345347
 30
0.0
 10
106.3904052468399
 20
-144.1825859557078
 30
0.0
 10
106.3904052468399
 20
-144.1825859557078
 30
0.0
 10
106.2997992355778
 20
-144.0027519713778
 30
0.0
 10
106.2997992355778
 20
-144.0027519713778
 30
0.0
 10
106.5774739316889
 20
-143.9984456020212
 30
0.0
 10
106.7311251903311
 20
-143.9731241502046
 30
0.0
 10
106.8644503856102
 20
-143.8630533494509
 30
0.0
 10
106.7607530115042
 20
-143.8122381910434
 30
0.0
 10
106.6832383630861
 20
-143.7848496819357
 30
0.0
 10
106.6515434846218
 20
-143.7721028286403
 30
0.0
 10
106.6350070262926
 20
-143.7996635925223
 30
0.0
 10
106.6219156634487
 20
-143.8186116176912
 30
0.0
 10
106.5977999950519
 20
-143.8525458082209
 30
0.0
 10
106.5977999950519
 20
-143.8525458082209
 30
0.0
 10
106.4255452207894
 20
-143.7700357713491
 30
0.0
 10
106.4255452207894
 20
-143.7700357713491
 30
0.0
 10
106.4978922259797
 20
-143.6895927917686
 30
0.0
 10
106.5516357155496
 20
-143.5943359016014
 30
0.0
 10
106.6015896000857
 20
-143.4928778395608
 30
0.0
 10
106.4348469785996
 20
-143.4970119541431
 30
0.0
 10
106.4165879725278
 20
-143.4970119541431
 30
0.0
 10
106.3442409673375
 20
-143.5013183234997
 30
0.0
 10
106.3442409673375
 20
-143.5013183234997
 30
0.0
 10
106.3442409673375
 20
-143.3235513964608
 30
0.0
 10
106.3442409673375
 20
-143.3235513964608
 30
0.0
 10
106.4665418570639
 20
-143.3299248231085
 30
0.0
 10
106.6498209368792
 20
-143.334231192465
 30
0.0
 10
106.6718695479848
 20
-143.334231192465
 30
0.0
 10
106.6866834585714
 20
-143.3002970019353
 30
0.0
 10
106.7349147953649
 20
-143.1797186599516
 30
0.0
 10
106.7514512536941
 20
-143.1056491070187
 30
0.0
 10
106.7349147953649
 20
-143.1056491070187
 30
0.0
 10
106.5791964794316
 20
-143.1120225336664
 30
0.0
 10
106.4090087624602
 20
-143.1247693869619
 30
0.0
 10
106.4090087624602
 20
-143.1247693869619
 30
0.0
 10
106.4090087624602
 20
-143.258094582241
 30
0.0
 10
106.4090087624602
 20
-143.258094582241
 30
0.0
 10
106.3662895784431
 20
-143.2834160340576
 30
0.0
 10
106.3146131461644
 20
-143.3151109125219
 30
0.0
 10
106.1978244092144
 20
-143.3807399815159
 30
0.0
 10
106.1978244092144
 20
-143.3807399815159
 30
0.0
 10
106.1978244092144
 20
-143.5266397753162
 30
0.0
 10
106.1978244092144
 20
-143.5266397753162
 30
0.0
 10
106.1978244092144
 20
-143.5266397753162
 30
0.0
 10
106.1978244092144
 20
-143.9943114874389
 30
0.0
 10
106.1978244092144
 20
-143.9943114874389
 30
0.0
 10
106.1978244092144
 20
-144.1210910012961
 30
0.0
 10
106.1664740402986
 20
-144.1803466436424
 30
0.0
 10
105.9184271653607
 20
-144.1719061597035
 30
0.0
 10
105.9184271653607
 20
-144.1719061597035
 30
0.0
 10
105.8274766445501
 20
-143.9646836662658
 30
0.0
 10
105.8274766445501
 20
-143.9646836662658
 30
0.0
 10
105.8832871914111
 20
-143.9772582647869
 30
0.0
 10
105.9256618658797
 20
-143.9815646341435
 30
0.0
 10
105.9608018398292
 20
-143.9815646341435
 30
0.0
 10
106.0276366922431
 20
-143.9815646341435
 30
0.0
 10
106.0369384500532
 20
-143.958310239618
 30
0.0
 10
106.0369384500532
 20
-143.892681170624
 30
0.0
 10
106.0369384500532
 20
-143.892681170624
 30
0.0
 10
106.0369384500532
 20
-143.4632500183876
 30
0.0
 10
106.0369384500532
 20
-143.4632500183876
 30
0.0
 10
105.9515000820191
 20
-143.5033853807908
 30
0.0
 10
105.9366861714325
 20
-143.5097588074385
 30
0.0
 10
105.8960340447065
 20
-143.5288790873816
 30
0.0
 10
105.8922444396728
 20
-143.5498941698417
 30
0.0
 10
105.8887993441875
 20
-143.5795219910148
 30
0.0
 10
105.8719183763098
 20
-143.5795219910148
 30
0.0
 10
105.8646836757908
 20
-143.5795219910148
 30
0.0
 10
105.8553819179806
 20
-143.5753878764325
 30
0.0
 10
105.8498697652042
 20
-143.5521334819071
 30
0.0
 10
105.8498697652042
 20
-143.5521334819071
 30
0.0
 10
105.8033609761533
 20
-143.3595526442816
 30
0.0
 10
105.8033609761533
 20
-143.3595526442816
 30
0.0
 10
105.9311740186561
 20
-143.3130438552308
 30
0.0
 10
105.9887071132598
 20
-143.2897894607053
 30
0.0
 10
106.0369384500532
 20
-143.268602123471
 30
0.0
 10
106.0369384500532
 20
-143.268602123471
 30
0.0
 10
106.0369384500532
 20
-142.8560519391123
 30
0.0
 10
106.0369384500532
 20
-142.8560519391123
 30
0.0
 10
106.0369384500532
 20
-142.8560519391123
 30
0.0
 10
105.9904296610024
 20
-142.8560519391123
 30
0.0
 10
105.9904296610024
 20
-142.8560519391123
 30
0.0
 10
105.9904296610024
 20
-142.8560519391123
 30
0.0
 10
105.9218722608459
 20
-142.8560519391123
 30
0.0
 10
105.9218722608459
 20
-142.8560519391123
 30
0.0
 10
105.8626166184996
 20
-142.8560519391123
 30
0.0
 10
105.8553819179806
 20
-142.8560519391123
 30
0.0
 10
105.8240315490648
 20
-142.86242536576
 30
0.0
 10
105.8240315490648
 20
-142.86242536576
 30
0.0
 10
105.8240315490648
 20
-142.6677774708434
 30
0.0
 10
105.8240315490648
 20
-142.6677774708434
 30
0.0
 10
105.847802707913
 20
-142.6741508974911
 30
0.0
 10
105.8553819179806
 20
-142.6741508974911
 30
0.0
 10
105.9163601080695
 20
-142.6741508974911
 30
0.0
 10
105.9163601080695
 20
-142.6741508974911
 30
0.0
 10
106.0331488450195
 20
-142.6741508974911
 30
0.0
 10
106.0331488450195
 20
-142.6741508974911
 30
0.0
 10
106.0331488450195
 20
-142.6043877139148
 30
0.0
 10
106.0331488450195
 20
-142.5218776770431
 30
0.0
 10
106.0314262972768
 20
-142.5175713076866
 30
0.0
 10
106.0238470872093
 20
-142.3377373233565
 30
0.0
 10
106.0238470872093
 20
-142.3187892981877
 30
0.0
 10
106.0221245394667
 20
-142.2722805091368
 30
0.0
 10
106.0221245394667
 20
-142.2722805091368
 30
0.0
 10
106.2109157720584
 20
-142.2807209930756
 30
0.0
 10
106.2109157720584
 20
-142.2807209930756
 30
0.0
 10
106.2202175298685
 20
-142.2807209930756
 30
0.0
 10
106.2388210454889
 20
-142.2827880503668
 30
0.0
 10
106.2388210454889
 20
-142.2996690182445
 30
0.0
 10
106.2388210454889
 20
-142.3187892981877
 30
0.0
 10
106.2257296826449
 20
-142.3292968394177
 30
0.0
 10
106.2033365619908
 20
-142.3484171193608
 30
0.0
 10
106.2033365619908
 20
-142.399060022994
 30
0.0
 10
106.1978244092144
 20
-142.6276421084403
 30
0.0
 10
106.1998914665056
 20
-142.6741508974911
 30
0.0
 10
106.3125460888732
 20
-142.6741508974911
 30
0.0
 10
106.3239149039746
 20
-142.6741508974911
 30
0.0
 10
106.4090087624602
 20
-142.6657104135523
 30
0.0
 10
106.4090087624602
 20
-142.6657104135523
 30
0.0
 10
106.4090087624602
 20
-142.8603583084689
 30
0.0
 10
106.4090087624602
 20
-142.8603583084689
 30
0.0
 10
106.3755913362533
 20
-142.8581189964035
 30
0.0
 10
106.316335693907
 20
-142.8539848818212
 30
0.0
 10
106.1978244092144
 20
-142.8560519391123
 30
0.0
 10
106.1978244092144
 20
-142.8560519391123
 30
0.0
 10
106.1978244092144
 20
-143.1945325705382
 30
0.0
 10
106.1978244092144
 20
-143.1945325705382
 30
0.0
 10
106.2460557460079
 20
-143.1712781760127
 30
0.0
 10
106.3035888406116
 20
-143.1437174121307
 30
0.0
 10
106.3459635150802
 20
-143.1204630176053
 30
0.0
 10
106.3459635150802
 20
-143.1204630176053
 30
0.0
 10
106.3459635150802
 20
-142.9428683453407
 30
0.0
 10
106.3459635150802
 20
-142.9428683453407
 30
0.0
 10
106.4462157937009
 20
-142.9554429438618
 30
0.0
 10
106.5495686582584
 20
-142.9554429438618
 30
0.0
 10
106.6515434846218
 20
-142.9554429438618
 30
0.0
 10
106.6312174212588
 20
-142.8603583084689
 30
0.0
 10
106.6071017528621
 20
-142.7778482715972
 30
0.0
 10
106.5516357155496
 20
-142.644523076318
 30
0.0
 10
106.5127061365662
 20
-142.6465901336092
 30
0.0
 10
106.440359131376
 20
-142.6508965029657
 30
0.0
 10
106.4072862147176
 20
-142.6529635602569
 30
0.0
 10
106.4072862147176
 20
-142.6529635602569
 30
0.0
 10
106.4072862147176
 20
-142.4731295759268
 30
0.0
 10
106.4072862147176
 20
-142.4731295759268
 30
0.0
 10
106.5164957416
 20
-142.4815700598657
 30
0.0
 10
106.668079942951
 20
-142.4858764292222
 30
0.0
 10
106.7404269481413
 20
-142.4858764292222
 30
0.0
 10
106.7404269481413
 20
-142.4858764292222
 30
0.0
 10
106.8127739533315
 20
-142.4858764292222
 30
0.0
 10
106.8127739533315
 20
-142.4858764292222
 30
0.0
 10
106.8127739533315
 20
-142.3229234127699
 30
0.0
 10
106.8127739533315
 20
-142.3124158715399
 30
0.0
 10
106.8107068960404
 20
-142.2574665985502
 30
0.0
 10
106.8107068960404
 20
-142.2574665985502
 30
0.0
 10
107.0070773386996
 20
-142.2827880503668
 30
0.0
 10
107.0070773386996
 20
-142.2827880503668
 30
0.0
 10
107.0108669437334
 20
-142.2827880503668
 30
0.0
 10
107.0294704593537
 20
-142.2848551076579
 30
0.0
 10
107.0294704593537
 20
-142.3017360755356
 30
0.0
 10
107.0294704593537
 20
-142.3165499861222
 30
0.0
 10
107.0201687015435
 20
-142.3251627248354
 30
0.0
 10
106.9960530331468
 20
-142.3399766354219
 30
0.0
 10
106.9905408803704
 20
-142.4054334496417
 30
0.0
 10
106.9884738230792
 20
-142.4266207868759
 30
0.0
 10
106.9884738230792
 20
-142.4858764292222
 30
0.0
 10
106.9884738230792
 20
-142.4858764292222
 30
0.0
 10
107.0718451338223
 20
-142.4858764292222
 30
0.0
 10
107.0718451338223
 20
-142.4858764292222
 30
0.0
 10
107.1441921390126
 20
-142.4858764292222
 30
0.0
 10
107.2961208499121
 20
-142.4815700598657
 30
0.0
 10
107.4053303767945
 20
-142.4731295759268
 30
0.0
 10
107.4053303767945
 20
-142.4731295759268
 30
0.0
 10
107.4053303767945
 20
-142.6529635602569
 30
0.0
 10
107.4053303767945
 20
-142.6529635602569
 30
0.0
 10
107.3791476511066
 20
-142.6508965029657
 30
0.0
 10
107.2757947865491
 20
-142.6465901336092
 30
0.0
 10
107.240310303051
 20
-142.644523076318
 30
0.0
 10
107.2275634497556
 20
-142.6953382347255
 30
0.0
 10
107.1979356285824
 20
-142.8074760927704
 30
0.0
 10
107.1404025339788
 20
-142.947002459923
 30
0.0
 10
107.1776095652195
 20
-142.947002459923
 30
0.0
 10
107.420144287381
 20
-142.9280544347541
 30
0.0
 10
107.4738877769509
 20
-142.9258151226887
 30
0.0
 10
107.4738877769509
 20
-142.9258151226887
 30
0.0
 10
107.4738877769509
 20
-143.1099554763753
 30
0.0
 10
107.4738877769509
 20
-143.1099554763753
 30
0.0
 10
107.4477050512631
 20
-143.1099554763753
 30
0.0
 10
107.4328911406765
 20
-143.1056491070187
 30
0.0
 10
107.2902641875871
 20
-143.1056491070187
 30
0.0
  0
HATCH
  5
C2
330
BB
100
AcDbEntity
  8
レイヤー 1
 62
   250
420
  2299925
440
 33554687
100
AcDbHatch
 10
0.0
 20
0.0
 30
0.0
210
0.0
220
0.0
230
1.0
  2
SOLID
 70
     1
 71
     1
 91
        3
 92
        1
 93
        1
 72
     4
 94
        3
 73
     0
 74
     0
 95
       17
 96
       13
 40
0.0
 40
0.0
 40
0.0
 40
0.0
 40
1.0
 40
1.0
 40
1.0
 40
2.0
 40
2.0
 40
2.0
 40
3.0
 40
3.0
 40
3.0
 40
4.0
 40
4.0
 40
4.0
 40
4.0
 10
106.7958929854538
 20
-143.4908107822697
 10
106.7810790748672
 20
-143.5202663486685
 10
106.7366373431075
 20
-143.6134561815445
 10
106.7273355852973
 20
-143.6324042067134
 10
106.8940782067834
 20
-143.6916598490597
 10
106.9126817224038
 20
-143.6980332757074
 10
106.9757269697838
 20
-143.7255940395894
 10
107.0236137970288
 20
-143.6387776333611
 10
107.0442843699403
 20
-143.5647080804282
 10
107.0570312232357
 20
-143.4908107822697
 10
107.0570312232357
 20
-143.4908107822697
 10
106.7958929854538
 20
-143.4908107822697
 10
106.7958929854538
 20
-143.4908107822697
 97
        0
 97
        1
330
BF
 92
        1
 93
        1
 72
     4
 94
        3
 73
     0
 74
     0
 95
       20
 96
       16
 40
0.0
 40
0.0
 40
0.0
 40
0.0
 40
1.0
 40
1.0
 40
1.0
 40
2.0
 40
2.0
 40
2.0
 40
3.0
 40
3.0
 40
3.0
 40
4.0
 40
4.0
 40
4.0
 40
5.0
 40
5.0
 40
5.0
 40
5.0
 10
106.7404269481413
 20
-142.6403889617357
 10
106.7404269481413
 20
-142.6403889617357
 10
106.7128661842593
 20
-142.6403889617357
 10
106.7128661842593
 20
-142.6403889617357
 10
106.7535183109852
 20
-142.7397799664852
 10
106.7810790748672
 20
-142.8200506912915
 10
106.8107068960404
 20
-142.947002459923
 10
106.8107068960404
 20
-142.947002459923
 10
106.992263428113
 20
-142.947002459923
 10
106.992263428113
 20
-142.947002459923
 10
107.0201687015435
 20
-142.8539848818212
 10
107.0404947649065
 20
-142.7694077876583
 10
107.0608208282695
 20
-142.6403889617357
 10
107.0608208282695
 20
-142.6403889617357
 10
106.7404269481413
 20
-142.6403889617357
 10
106.7404269481413
 20
-142.6403889617357
 97
        0
 97
        1
330
C0
 92
        1
 93
        1
 72
     4
 94
        3
 73
     0
 74
     0
 95
      242
 96
      238
 40
0.0
 40
0.0
 40
0.0
 40
0.0
 40
1.0
 40
1.0
 40
1.0
 40
2.0
 40
2.0
 40
2.0
 40
3.0
 40
3.0
 40
3.0
 40
4.0
 40
4.0
 40
4.0
 40
5.0
 40
5.0
 40
5.0
 40
6.0
 40
6.0
 40
6.0
 40
7.0
 40
7.0
 40
7.0
 40
8.0
 40
8.0
 40
8.0
 40
9.0
 40
9.0
 40
9.0
 40
10.0
 40
10.0
 40
10.0
 40
11.0
 40
11.0
 40
11.0
 40
12.0
 40
12.0
 40
12.0
 40
13.0
 40
13.0
 40
13.0
 40
14.0
 40
14.0
 40
14.0
 40
15.0
 40
15.0
 40
15.0
 40
16.0
 40
16.0
 40
16.0
 40
17.0
 40
17.0
 40
17.0
 40
18.0
 40
18.0
 40
18.0
 40
19.0
 40
19.0
 40
19.0
 40
20.0
 40
20.0
 40
20.0
 40
21.0
 40
21.0
 40
21.0
 40
22.0
 40
22.0
 40
22.0
 40
23.0
 40
23.0
 40
23.0
 40
24.0
 40
24.0
 40
24.0
 40
25.0
 40
25.0
 40
25.0
 40
26.0
 40
26.0
 40
26.0
 40
27.0
 40
27.0
 40
27.0
 40
28.0
 40
28.0
 40
28.0
 40
29.0
 40
29.0
 40
29.0
 40
30.0
 40
30.0
 40
30.0
 40
31.0
 40
31.0
 40
31.0
 40
32.0
 40
32.0
 40
32.0
 40
33.0
 40
33.0
 40
33.0
 40
34.0
 40
34.0
 40
34.0
 40
35.0
 40
35.0
 40
35.0
 40
36.0
 40
36.0
 40
36.0
 40
37.0
 40
37.0
 40
37.0
 40
38.0
 40
38.0
 40
38.0
 40
39.0
 40
39.0
 40
39.0
 40
40.0
 40
40.0
 40
40.0
 40
41.0
 40
41.0
 40
41.0
 40
42.0
 40
42.0
 40
42.0
 40
43.0
 40
43.0
 40
43.0
 40
44.0
 40
44.0
 40
44.0
 40
45.0
 40
45.0
 40
45.0
 40
46.0
 40
46.0
 40
46.0
 40
47.0
 40
47.0
 40
47.0
 40
48.0
 40
48.0
 40
48.0
 40
49.0
 40
49.0
 40
49.0
 40
50.0
 40
50.0
 40
50.0
 40
51.0
 40
51.0
 40
51.0
 40
52.0
 40
52.0
 40
52.0
 40
53.0
 40
53.0
 40
53.0
 40
54.0
 40
54.0
 40
54.0
 40
55.0
 40
55.0
 40
55.0
 40
56.0
 40
56.0
 40
56.0
 40
57.0
 40
57.0
 40
57.0
 40
58.0
 40
58.0
 40
58.0
 40
59.0
 40
59.0
 40
59.0
 40
60.0
 40
60.0
 40
60.0
 40
61.0
 40
61.0
 40
61.0
 40
62.0
 40
62.0
 40
62.0
 40
63.0
 40
63.0
 40
63.0
 40
64.0
 40
64.0
 40
64.0
 40
65.0
 40
65.0
 40
65.0
 40
66.0
 40
66.0
 40
66.0
 40
67.0
 40
67.0
 40
67.0
 40
68.0
 40
68.0
 40
68.0
 40
69.0
 40
69.0
 40
69.0
 40
70.0
 40
70.0
 40
70.0
 40
71.0
 40
71.0
 40
71.0
 40
72.0
 40
72.0
 40
72.0
 40
73.0
 40
73.0
 40
73.0
 40
74.0
 40
74.0
 40
74.0
 40
75.0
 40
75.0
 40
75.0
 40
76.0
 40
76.0
 40
76.0
 40
77.0
 40
77.0
 40
77.0
 40
78.0
 40
78.0
 40
78.0
 40
79.0
 40
79.0
 40
79.0
 40
79.0
 10
107.2902641875871
 20
-143.1056491070187
 10
107.2902641875871
 20
-143.1056491070187
 10
107.0684000383371
 20
-143.1056491070187
 10
107.0684000383371
 20
-143.1056491070187
 10
107.0684000383371
 20
-143.1056491070187
 10
106.8255208066269
 20
-143.1056491070187
 10
106.8255208066269
 20
-143.1056491070187
 10
106.8255208066269
 20
-143.1056491070187
 10
106.9367973908005
 20
-143.1480237814873
 10
106.9367973908005
 20
-143.1480237814873
 10
106.9460991486107
 20
-143.1523301508438
 10
106.9571234541635
 20
-143.1585313227173
 10
106.9571234541635
 20
-143.1712781760127
 10
106.9571234541635
 20
-143.192465513247
 10
106.9292181807329
 20
-143.1988389398947
 10
106.9109591746611
 20
-143.202973054477
 10
106.901657416851
 20
-143.2262274490024
 10
106.875474691163
 20
-143.2918565179964
 10
106.8589382328338
 20
-143.3362982497562
 10
106.8589382328338
 20
-143.3362982497562
 10
107.0959608022191
 20
-143.3362982497562
 10
107.0959608022191
 20
-143.3362982497562
 10
107.1755425079283
 20
-143.3362982497562
 10
107.3477972821908
 20
-143.3319918803996
 10
107.4718207196598
 20
-143.3235513964608
 10
107.4718207196598
 20
-143.3235513964608
 10
107.4718207196598
 20
-143.5013183234997
 10
107.4718207196598
 20
-143.5013183234997
 10
107.3998182240181
 20
-143.4970119541431
 10
107.3812147083977
 20
-143.4970119541431
 10
107.2237738447218
 20
-143.4928778395608
 10
107.1958685712913
 20
-143.6472181173
 10
107.1572835018565
 20
-143.7276610968805
 10
107.1183539228732
 20
-143.7974242804569
 10
107.2237738447218
 20
-143.8566799228032
 10
107.316446913275
 20
-143.9243760490883
 10
107.4070529245371
 20
-144.0068860859601
 10
107.4070529245371
 20
-144.0068860859601
 10
107.3033555504311
 20
-144.1739732169947
 10
107.3033555504311
 20
-144.1739732169947
 10
107.2830294870681
 20
-144.1550251918258
 10
107.2720051815153
 20
-144.1465847078869
 10
107.1738199601857
 20
-144.0618353589498
 10
107.1311007761686
 20
-144.0237670538378
 10
107.0794243438898
 20
-143.9879380607912
 10
107.0091443959908
 20
-143.9434963290315
 10
106.8237982588843
 20
-144.1297037400092
 10
106.6443087841028
 20
-144.1529581345347
 10
106.3904052468399
 20
-144.1825859557078
 10
106.3904052468399
 20
-144.1825859557078
 10
106.2997992355778
 20
-144.0027519713778
 10
106.2997992355778
 20
-144.0027519713778
 10
106.5774739316889
 20
-143.9984456020212
 10
106.7311251903311
 20
-143.9731241502046
 10
106.8644503856102
 20
-143.8630533494509
 10
106.7607530115042
 20
-143.8122381910434
 10
106.6832383630861
 20
-143.7848496819357
 10
106.6515434846218
 20
-143.7721028286403
 10
106.6350070262926
 20
-143.7996635925223
 10
106.6219156634487
 20
-143.8186116176912
 10
106.5977999950519
 20
-143.8525458082209
 10
106.5977999950519
 20
-143.8525458082209
 10
106.4255452207894
 20
-143.7700357713491
 10
106.4255452207894
 20
-143.7700357713491
 10
106.4978922259797
 20
-143.6895927917686
 10
106.5516357155496
 20
-143.5943359016014
 10
106.6015896000857
 20
-143.4928778395608
 10
106.4348469785996
 20
-143.4970119541431
 10
106.4165879725278
 20
-143.4970119541431
 10
106.3442409673375
 20
-143.5013183234997
 10
106.3442409673375
 20
-143.5013183234997
 10
106.3442409673375
 20
-143.3235513964608
 10
106.3442409673375
 20
-143.3235513964608
 10
106.4665418570639
 20
-143.3299248231085
 10
106.6498209368792
 20
-143.334231192465
 10
106.6718695479848
 20
-143.334231192465
 10
106.6866834585714
 20
-143.3002970019353
 10
106.7349147953649
 20
-143.1797186599516
 10
106.7514512536941
 20
-143.1056491070187
 10
106.7349147953649
 20
-143.1056491070187
 10
106.5791964794316
 20
-143.1120225336664
 10
106.4090087624602
 20
-143.1247693869619
 10
106.4090087624602
 20
-143.1247693869619
 10
106.4090087624602
 20
-143.258094582241
 10
106.4090087624602
 20
-143.258094582241
 10
106.3662895784431
 20
-143.2834160340576
 10
106.3146131461644
 20
-143.3151109125219
 10
106.1978244092144
 20
-143.3807399815159
 10
106.1978244092144
 20
-143.3807399815159
 10
106.1978244092144
 20
-143.5266397753162
 10
106.1978244092144
 20
-143.5266397753162
 10
106.1978244092144
 20
-143.5266397753162
 10
106.1978244092144
 20
-143.9943114874389
 10
106.1978244092144
 20
-143.9943114874389
 10
106.1978244092144
 20
-144.1210910012961
 10
106.1664740402986
 20
-144.1803466436424
 10
105.9184271653607
 20
-144.1719061597035
 10
105.9184271653607
 20
-144.1719061597035
 10
105.8274766445501
 20
-143.9646836662658
 10
105.8274766445501
 20
-143.9646836662658
 10
105.8832871914111
 20
-143.9772582647869
 10
105.9256618658797
 20
-143.9815646341435
 10
105.9608018398292
 20
-143.9815646341435
 10
106.0276366922431
 20
-143.9815646341435
 10
106.0369384500532
 20
-143.958310239618
 10
106.0369384500532
 20
-143.892681170624
 10
106.0369384500532
 20
-143.892681170624
 10
106.0369384500532
 20
-143.4632500183876
 10
106.0369384500532
 20
-143.4632500183876
 10
105.9515000820191
 20
-143.5033853807908
 10
105.9366861714325
 20
-143.5097588074385
 10
105.8960340447065
 20
-143.5288790873816
 10
105.8922444396728
 20
-143.5498941698417
 10
105.8887993441875
 20
-143.5795219910148
 10
105.8719183763098
 20
-143.5795219910148
 10
105.8646836757908
 20
-143.5795219910148
 10
105.8553819179806
 20
-143.5753878764325
 10
105.8498697652042
 20
-143.5521334819071
 10
105.8498697652042
 20
-143.5521334819071
 10
105.8033609761533
 20
-143.3595526442816
 10
105.8033609761533
 20
-143.3595526442816
 10
105.9311740186561
 20
-143.3130438552308
 10
105.9887071132598
 20
-143.2897894607053
 10
106.0369384500532
 20
-143.268602123471
 10
106.0369384500532
 20
-143.268602123471
 10
106.0369384500532
 20
-142.8560519391123
 10
106.0369384500532
 20
-142.8560519391123
 10
106.0369384500532
 20
-142.8560519391123
 10
105.9904296610024
 20
-142.8560519391123
 10
105.9904296610024
 20
-142.8560519391123
 10
105.9904296610024
 20
-142.8560519391123
 10
105.9218722608459
 20
-142.8560519391123
 10
105.9218722608459
 20
-142.8560519391123
 10
105.8626166184996
 20
-142.8560519391123
 10
105.8553819179806
 20
-142.8560519391123
 10
105.8240315490648
 20
-142.86242536576
 10
105.8240315490648
 20
-142.86242536576
 10
105.8240315490648
 20
-142.6677774708434
 10
105.8240315490648
 20
-142.6677774708434
 10
105.847802707913
 20
-142.6741508974911
 10
105.8553819179806
 20
-142.6741508974911
 10
105.9163601080695
 20
-142.6741508974911
 10
105.9163601080695
 20
-142.6741508974911
 10
106.0331488450195
 20
-142.6741508974911
 10
106.0331488450195
 20
-142.6741508974911
 10
106.0331488450195
 20
-142.6043877139148
 10
106.0331488450195
 20
-142.5218776770431
 10
106.0314262972768
 20
-142.5175713076866
 10
106.0238470872093
 20
-142.3377373233565
 10
106.0238470872093
 20
-142.3187892981877
 10
106.0221245394667
 20
-142.2722805091368
 10
106.0221245394667
 20
-142.2722805091368
 10
106.2109157720584
 20
-142.2807209930756
 10
106.2109157720584
 20
-142.2807209930756
 10
106.2202175298685
 20
-142.2807209930756
 10
106.2388210454889
 20
-142.2827880503668
 10
106.2388210454889
 20
-142.2996690182445
 10
106.2388210454889
 20
-142.3187892981877
 10
106.2257296826449
 20
-142.3292968394177
 10
106.2033365619908
 20
-142.3484171193608
 10
106.2033365619908
 20
-142.399060022994
 10
106.1978244092144
 20
-142.6276421084403
 10
106.1998914665056
 20
-142.6741508974911
 10
106.3125460888732
 20
-142.6741508974911
 10
106.3239149039746
 20
-142.6741508974911
 10
106.4090087624602
 20
-142.6657104135523
 10
106.4090087624602
 20
-142.6657104135523
 10
106.4090087624602
 20
-142.8603583084689
 10
106.4090087624602
 20
-142.8603583084689
 10
106.3755913362533
 20
-142.8581189964035
 10
106.316335693907
 20
-142.8539848818212
 10
106.1978244092144
 20
-142.8560519391123
 10
106.1978244092144
 20
-142.8560519391123
 10
106.1978244092144
 20
-143.1945325705382
 10
106.1978244092144
 20
-143.1945325705382
 10
106.2460557460079
 20
-143.1712781760127
 10
106.3035888406116
 20
-143.1437174121307
 10
106.3459635150802
 20
-143.1204630176053
 10
106.3459635150802
 20
-143.1204630176053
 10
106.3459635150802
 20
-142.9428683453407
 10
106.3459635150802
 20
-142.9428683453407
 10
106.4462157937009
 20
-142.9554429438618
 10
106.5495686582584
 20
-142.9554429438618
 10
106.6515434846218
 20
-142.9554429438618
 10
106.6312174212588
 20
-142.8603583084689
 10
106.6071017528621
 20
-142.7778482715972
 10
106.5516357155496
 20
-142.644523076318
 10
106.5127061365662
 20
-142.6465901336092
 10
106.440359131376
 20
-142.6508965029657
 10
106.4072862147176
 20
-142.6529635602569
 10
106.4072862147176
 20
-142.6529635602569
 10
106.4072862147176
 20
-142.4731295759268
 10
106.4072862147176
 20
-142.4731295759268
 10
106.5164957416
 20
-142.4815700598657
 10
106.668079942951
 20
-142.4858764292222
 10
106.7404269481413
 20
-142.4858764292222
 10
106.7404269481413
 20
-142.4858764292222
 10
106.8127739533315
 20
-142.4858764292222
 10
106.8127739533315
 20
-142.4858764292222
 10
106.8127739533315
 20
-142.3229234127699
 10
106.8127739533315
 20
-142.3124158715399
 10
106.8107068960404
 20
-142.2574665985502
 10
106.8107068960404
 20
-142.2574665985502
 10
107.0070773386996
 20
-142.2827880503668
 10
107.0070773386996
 20
-142.2827880503668
 10
107.0108669437334
 20
-142.2827880503668
 10
107.0294704593537
 20
-142.2848551076579
 10
107.0294704593537
 20
-142.3017360755356
 10
107.0294704593537
 20
-142.3165499861222
 10
107.0201687015435
 20
-142.3251627248354
 10
106.9960530331468
 20
-142.3399766354219
 10
106.9905408803704
 20
-142.4054334496417
 10
106.9884738230792
 20
-142.4266207868759
 10
106.9884738230792
 20
-142.4858764292222
 10
106.9884738230792
 20
-142.4858764292222
 10
107.0718451338223
 20
-142.4858764292222
 10
107.0718451338223
 20
-142.4858764292222
 10
107.1441921390126
 20
-142.4858764292222
 10
107.2961208499121
 20
-142.4815700598657
 10
107.4053303767945
 20
-142.4731295759268
 10
107.4053303767945
 20
-142.4731295759268
 10
107.4053303767945
 20
-142.6529635602569
 10
107.4053303767945
 20
-142.6529635602569
 10
107.3791476511066
 20
-142.6508965029657
 10
107.2757947865491
 20
-142.6465901336092
 10
107.240310303051
 20
-142.644523076318
 10
107.2275634497556
 20
-142.6953382347255
 10
107.1979356285824
 20
-142.8074760927704
 10
107.1404025339788
 20
-142.947002459923
 10
107.1776095652195
 20
-142.947002459923
 10
107.420144287381
 20
-142.9280544347541
 10
107.4738877769509
 20
-142.9258151226887
 10
107.4738877769509
 20
-142.9258151226887
 10
107.4738877769509
 20
-143.1099554763753
 10
107.4738877769509
 20
-143.1099554763753
 10
107.4477050512631
 20
-143.1099554763753
 10
107.4328911406765
 20
-143.1056491070187
 10
107.2902641875871
 20
-143.1056491070187
 97
        0
 97
        1
330
C1
 75
     2
 76
     1
 98
        1
 10
0.0
 20
0.0
450
        0
451
        0
460
0.0
461
0.0
452
        0
462
0.0
453
        0
470

  0
SPLINE
  5
C3
330
BB
100
AcDbEntity
  8
レイヤー 1
100
AcDbSpline
210
0.0
220
0.0
230
1.0
 70
    11
 71
     3
 72
    17
 73
    13
 74
     0
 42
0.0000000001
 43
0.0000000001
 40
0.0
 40
0.0
 40
0.0
 40
0.0
 40
1.0
 40
1.0
 40
1.0
 40
2.0
 40
2.0
 40
2.0
 40
3.0
 40
3.0
 40
3.0
 40
4.0
 40
4.0
 40
4.0
 40
4.0
 10
108.9166937661736
 20
-143.9054280239195
 30
0.0
 10
108.9166937661736
 20
-143.9054280239195
 30
0.0
 10
108.2982991265712
 20
-143.9054280239195
 30
0.0
 10
108.2982991265712
 20
-143.9054280239195
 30
0.0
 10
108.2982991265712
 20
-143.9054280239195
 30
0.0
 10
108.2982991265712
 20
-144.0196329392555
 30
0.0
 10
108.2982991265712
 20
-144.0196329392555
 30
0.0
 10
108.2982991265712
 20
-144.0196329392555
 30
0.0
 10
108.9166937661736
 20
-144.0196329392555
 30
0.0
 10
108.9166937661736
 20
-144.0196329392555
 30
0.0
 10
108.9166937661736
 20
-144.0196329392555
 30
0.0
 10
108.9166937661736
 20
-143.9054280239195
 30
0.0
 10
108.9166937661736
 20
-143.9054280239195
 30
0.0
  0
SPLINE
  5
C4
330
BB
100
AcDbEntity
  8
レイヤー 1
100
AcDbSpline
210
0.0
220
0.0
230
1.0
 70
    11
 71
     3
 72
    17
 73
    13
 74
     0
 42
0.0000000001
 43
0.0000000001
 40
0.0
 40
0.0
 40
0.0
 40
0.0
 40
1.0
 40
1.0
 40
1.0
 40
2.0
 40
2.0
 40
2.0
 40
3.0
 40
3.0
 40
3.0
 40
4.0
 40
4.0
 40
4.0
 40
4.0
 10
108.9166937661736
 20
-143.6620320278866
 30
0.0
 10
108.9166937661736
 20
-143.6620320278866
 30
0.0
 10
108.2982991265712
 20
-143.6620320278866
 30
0.0
 10
108.2982991265712
 20
-143.6620320278866
 30
0.0
 10
108.2982991265712
 20
-143.6620320278866
 30
0.0
 10
108.2982991265712
 20
-143.7764091979969
 30
0.0
 10
108.2982991265712
 20
-143.7764091979969
 30
0.0
 10
108.2982991265712
 20
-143.7764091979969
 30
0.0
 10
108.9166937661736
 20
-143.7764091979969
 30
0.0
 10
108.9166937661736
 20
-143.7764091979969
 30
0.0
 10
108.9166937661736
 20
-143.7764091979969
 30
0.0
 10
108.9166937661736
 20
-143.6620320278866
 30
0.0
 10
108.9166937661736
 20
-143.6620320278866
 30
0.0
  0
SPLINE
  5
C5
330
BB
100
AcDbEntity
  8
レイヤー 1
100
AcDbSpline
210
0.0
220
0.0
230
1.0
 70
    11
 71
     3
 72
    17
 73
    13
 74
     0
 42
0.0000000001
 43
0.0000000001
 40
0.0
 40
0.0
 40
0.0
 40
0.0
 40
1.0
 40
1.0
 40
1.0
 40
2.0
 40
2.0
 40
2.0
 40
3.0
 40
3.0
 40
3.0
 40
4.0
 40
4.0
 40
4.0
 40
4.0
 10
108.9166937661736
 20
-143.4293158278579
 30
0.0
 10
108.9166937661736
 20
-143.4293158278579
 30
0.0
 10
108.2982991265712
 20
-143.4293158278579
 30
0.0
 10
108.2982991265712
 20
-143.4293158278579
 30
0.0
 10
108.2982991265712
 20
-143.4293158278579
 30
0.0
 10
108.2982991265712
 20
-143.5373195713205
 30
0.0
 10
108.2982991265712
 20
-143.5373195713205
 30
0.0
 10
108.2982991265712
 20
-143.5373195713205
 30
0.0
 10
108.9166937661736
 20
-143.5373195713205
 30
0.0
 10
108.9166937661736
 20
-143.5373195713205
 30
0.0
 10
108.9166937661736
 20
-143.5373195713205
 30
0.0
 10
108.9166937661736
 20
-143.4293158278579
 30
0.0
 10
108.9166937661736
 20
-143.4293158278579
 30
0.0
  0
SPLINE
  5
C6
330
BB
100
AcDbEntity
  8
レイヤー 1
100
AcDbSpline
210
0.0
220
0.0
230
1.0
 70
     9
 71
     3
 72
   203
 73
   199
 74
     0
 42
0.0000000001
 43
0.0000000001
 40
0.0
 40
0.0
 40
0.0
 40
0.0
 40
1.0
 40
1.0
 40
1.0
 40
2.0
 40
2.0
 40
2.0
 40
3.0
 40
3.0
 40
3.0
 40
4.0
 40
4.0
 40
4.0
 40
5.0
 40
5.0
 40
5.0
 40
6.0
 40
6.0
 40
6.0
 40
7.0
 40
7.0
 40
7.0
 40
8.0
 40
8.0
 40
8.0
 40
9.0
 40
9.0
 40
9.0
 40
10.0
 40
10.0
 40
10.0
 40
11.0
 40
11.0
 40
11.0
 40
12.0
 40
12.0
 40
12.0
 40
13.0
 40
13.0
 40
13.0
 40
14.0
 40
14.0
 40
14.0
 40
15.0
 40
15.0
 40
15.0
 40
16.0
 40
16.0
 40
16.0
 40
17.0
 40
17.0
 40
17.0
 40
18.0
 40
18.0
 40
18.0
 40
19.0
 40
19.0
 40
19.0
 40
20.0
 40
20.0
 40
20.0
 40
21.0
 40
21.0
 40
21.0
 40
22.0
 40
22.0
 40
22.0
 40
23.0
 40
23.0
 40
23.0
 40
24.0
 40
24.0
 40
24.0
 40
25.0
 40
25.0
 40
25.0
 40
26.0
 40
26.0
 40
26.0
 40
27.0
 40
27.0
 40
27.0
 40
28.0
 40
28.0
 40
28.0
 40
29.0
 40
29.0
 40
29.0
 40
30.0
 40
30.0
 40
30.0
 40
31.0
 40
31.0
 40
31.0
 40
32.0
 40
32.0
 40
32.0
 40
33.0
 40
33.0
 40
33.0
 40
34.0
 40
34.0
 40
34.0
 40
35.0
 40
35.0
 40
35.0
 40
36.0
 40
36.0
 40
36.0
 40
37.0
 40
37.0
 40
37.0
 40
38.0
 40
38.0
 40
38.0
 40
39.0
 40
39.0
 40
39.0
 40
40.0
 40
40.0
 40
40.0
 40
41.0
 40
41.0
 40
41.0
 40
42.0
 40
42.0
 40
42.0
 40
43.0
 40
43.0
 40
43.0
 40
44.0
 40
44.0
 40
44.0
 40
45.0
 40
45.0
 40
45.0
 40
46.0
 40
46.0
 40
46.0
 40
47.0
 40
47.0
 40
47.0
 40
48.0
 40
48.0
 40
48.0
 40
49.0
 40
49.0
 40
49.0
 40
50.0
 40
50.0
 40
50.0
 40
51.0
 40
51.0
 40
51.0
 40
52.0
 40
52.0
 40
52.0
 40
53.0
 40
53.0
 40
53.0
 40
54.0
 40
54.0
 40
54.0
 40
55.0
 40
55.0
 40
55.0
 40
56.0
 40
56.0
 40
56.0
 40
57.0
 40
57.0
 40
57.0
 40
58.0
 40
58.0
 40
58.0
 40
59.0
 40
59.0
 40
59.0
 40
60.0
 40
60.0
 40
60.0
 40
61.0
 40
61.0
 40
61.0
 40
62.0
 40
62.0
 40
62.0
 40
63.0
 40
63.0
 40
63.0
 40
64.0
 40
64.0
 40
64.0
 40
65.0
 40
65.0
 40
65.0
 40
66.0
 40
66.0
 40
66.0
 40
66.0
 10
108.7723442653416
 20
-143.1733452333039
 30
0.0
 10
108.7723442653416
 20
-143.1733452333039
 30
0.0
 10
108.2834852159846
 20
-143.1733452333039
 30
0.0
 10
108.2834852159846
 20
-143.1733452333039
 30
0.0
 10
108.2741834581745
 20
-143.2177869650636
 30
0.0
 10
108.2669487576555
 20
-143.2494818435279
 30
0.0
 10
108.2555799425541
 20
-143.2877224034142
 30
0.0
 10
108.2779730632083
 20
-143.2877224034142
 30
0.0
 10
108.2910644260522
 20
-143.2897894607053
 30
0.0
 10
108.2965765788286
 20
-143.2897894607053
 30
0.0
 10
108.2965765788286
 20
-143.2897894607053
 30
0.0
 10
108.4612521430236
 20
-143.2897894607053
 30
0.0
 10
108.4612521430236
 20
-143.2897894607053
 30
0.0
 10
108.4612521430236
 20
-143.2897894607053
 30
0.0
 10
108.7888807236708
 20
-143.2897894607053
 30
0.0
 10
108.7888807236708
 20
-143.2897894607053
 30
0.0
 10
108.8336669649791
 20
-143.2897894607053
 30
0.0
 10
109.081713839917
 20
-143.2770426074099
 30
0.0
 10
109.1092746037991
 20
-143.2770426074099
 30
0.0
 10
109.1075520560564
 20
-143.3046033712919
 30
0.0
 10
109.1058295083138
 20
-143.3235513964608
 30
0.0
 10
109.1058295083138
 20
-143.3531792176339
 30
0.0
 10
109.1037624510226
 20
-143.3848740960982
 30
0.0
 10
109.1037624510226
 20
-143.5202663486685
 30
0.0
 10
109.1037624510226
 20
-143.5478271125505
 30
0.0
 10
109.1037624510226
 20
-143.5478271125505
 30
0.0
 10
109.1037624510226
 20
-143.7932901658746
 30
0.0
 10
109.1037624510226
 20
-143.7932901658746
 30
0.0
 10
109.1037624510226
 20
-143.8377318976343
 30
0.0
 10
109.1075520560564
 20
-144.0344468498421
 30
0.0
 10
109.1113416610902
 20
-144.1867200702901
 30
0.0
 10
109.1113416610902
 20
-144.1867200702901
 30
0.0
 10
108.9132486706883
 20
-144.1867200702901
 30
0.0
 10
108.9132486706883
 20
-144.1867200702901
 30
0.0
 10
108.9132486706883
 20
-144.1867200702901
 30
0.0
 10
108.914971218431
 20
-144.1529581345347
 30
0.0
 10
108.914971218431
 20
-144.1529581345347
 30
0.0
 10
108.914971218431
 20
-144.1529581345347
 30
0.0
 10
108.3003661838624
 20
-144.1529581345347
 30
0.0
 10
108.3003661838624
 20
-144.1529581345347
 30
0.0
 10
108.3003661838624
 20
-144.1529581345347
 30
0.0
 10
108.302088731605
 20
-144.1867200702901
 30
0.0
 10
108.302088731605
 20
-144.1867200702901
 30
0.0
 10
108.302088731605
 20
-144.1867200702901
 30
0.0
 10
108.1112304417222
 20
-144.1867200702901
 30
0.0
 10
108.1112304417222
 20
-144.1867200702901
 30
0.0
 10
108.1150200467559
 20
-144.1317707973004
 30
0.0
 10
108.1150200467559
 20
-144.1190239440049
 30
0.0
 10
108.1205321995323
 20
-144.0048190286689
 30
0.0
 10
108.1225992568235
 20
-143.9772582647869
 30
0.0
 10
108.1243218045661
 20
-143.844105324282
 30
0.0
 10
108.1243218045661
 20
-143.8249850443389
 30
0.0
 10
108.1243218045661
 20
-143.8249850443389
 30
0.0
 10
108.1243218045661
 20
-143.6218966654834
 30
0.0
 10
108.1243218045661
 20
-143.6218966654834
 30
0.0
 10
108.0020209148397
 20
-143.8714938333897
 30
0.0
 10
107.853881808974
 20
-144.0027519713778
 30
0.0
 10
107.7612087404208
 20
-144.0682087855975
 30
0.0
 10
107.7612087404208
 20
-144.0682087855975
 30
0.0
 10
107.6096245390698
 20
-143.9286824184449
 30
0.0
 10
107.6096245390698
 20
-143.9286824184449
 30
0.0
 10
107.6871391874879
 20
-143.8778672600375
 30
0.0
 10
107.8132296822481
 20
-143.7910508538092
 30
0.0
 10
107.9334635146833
 20
-143.5965752136668
 30
0.0
 10
108.0130452203925
 20
-143.4696234450353
 30
0.0
 10
108.0705783149962
 20
-143.3257907085262
 30
0.0
 10
108.1002061361694
 20
-143.1733452333039
 30
0.0
 10
107.9000460884764
 20
-143.1755845453693
 30
0.0
 10
107.742949734349
 20
-143.181957972017
 30
0.0
 10
107.6595784236059
 20
-143.1840250293082
 30
0.0
 10
107.6595784236059
 20
-143.1840250293082
 30
0.0
 10
107.6595784236059
 20
-143.0062581022693
 30
0.0
 10
107.6595784236059
 20
-143.0062581022693
 30
0.0
 10
107.8318331978684
 20
-143.012631528917
 30
0.0
 10
108.0798800728064
 20
-143.0169378982735
 30
0.0
 10
108.2114827203429
 20
-143.0169378982735
 30
0.0
 10
108.2114827203429
 20
-143.0169378982735
 30
0.0
 10
108.3982068956435
 20
-143.0169378982735
 30
0.0
 10
108.3982068956435
 20
-143.0169378982735
 30
0.0
 10
108.3982068956435
 20
-143.0169378982735
 30
0.0
 10
108.3982068956435
 20
-142.9089341548109
 30
0.0
 10
108.3982068956435
 20
-142.9089341548109
 30
0.0
 10
108.3982068956435
 20
-142.9089341548109
 30
0.0
 10
108.2707383626892
 20
-142.9089341548109
 30
0.0
 10
108.2707383626892
 20
-142.9089341548109
 30
0.0
 10
108.1225992568235
 20
-142.9089341548109
 30
0.0
 10
107.9744601509577
 20
-142.9132405241675
 30
0.0
 10
107.8280435928346
 20
-142.9196139508152
 30
0.0
 10
107.8280435928346
 20
-142.9196139508152
 30
0.0
 10
107.8280435928346
 20
-142.7482204504241
 30
0.0
 10
107.8280435928346
 20
-142.7482204504241
 30
0.0
 10
107.9630913358564
 20
-142.758727991654
 30
0.0
 10
108.1260443523087
 20
-142.758727991654
 30
0.0
 10
108.2707383626892
 20
-142.758727991654
 30
0.0
 10
108.2707383626892
 20
-142.758727991654
 30
0.0
 10
108.3982068956435
 20
-142.758727991654
 30
0.0
 10
108.3982068956435
 20
-142.758727991654
 30
0.0
 10
108.3982068956435
 20
-142.758727991654
 30
0.0
 10
108.3982068956435
 20
-142.6403889617357
 30
0.0
 10
108.3982068956435
 20
-142.6403889617357
 30
0.0
 10
108.3982068956435
 20
-142.6403889617357
 30
0.0
 10
108.2834852159846
 20
-142.6403889617357
 30
0.0
 10
108.2834852159846
 20
-142.6403889617357
 30
0.0
 10
108.2428330892587
 20
-142.6403889617357
 30
0.0
 10
108.0650661622198
 20
-142.6488294456746
 30
0.0
 10
108.0278591309791
 20
-142.6488294456746
 30
0.0
 10
107.8500922039402
 20
-142.6529635602569
 30
0.0
 10
107.7836018610749
 20
-142.655030617548
 30
0.0
 10
107.7150444609184
 20
-142.6572699296134
 30
0.0
 10
107.7150444609184
 20
-142.6572699296134
 30
0.0
 10
107.7150444609184
 20
-142.4731295759268
 30
0.0
 10
107.7150444609184
 20
-142.4731295759268
 30
0.0
 10
107.8149522299907
 20
-142.4815700598657
 30
0.0
 10
107.853881808974
 20
-142.4815700598657
 30
0.0
 10
108.1890895996888
 20
-142.4901827985788
 30
0.0
 10
108.1336235623763
 20
-142.3949259084117
 30
0.0
 10
108.1095078939795
 20
-142.3673651445296
 30
0.0
 10
108.0778130155152
 20
-142.3313638967088
 30
0.0
 10
108.0778130155152
 20
-142.3313638967088
 30
0.0
 10
108.2318087837059
 20
-142.2488538598371
 30
0.0
 10
108.2318087837059
 20
-142.2488538598371
 30
0.0
 10
108.2669487576555
 20
-142.2848551076579
 30
0.0
 10
108.3058783366388
 20
-142.3272297821265
 30
0.0
 10
108.3706461317615
 20
-142.437128328106
 30
0.0
 10
108.3706461317615
 20
-142.437128328106
 30
0.0
 10
108.2707383626892
 20
-142.49224985587
 30
0.0
 10
108.2707383626892
 20
-142.49224985587
 30
0.0
 10
108.2707383626892
 20
-142.49224985587
 30
0.0
 10
108.2796956109509
 20
-142.49224985587
 30
0.0
 10
108.2796956109509
 20
-142.49224985587
 30
0.0
 10
108.2796956109509
 20
-142.49224985587
 30
0.0
 10
108.7372042913921
 20
-142.49224985587
 30
0.0
 10
108.7372042913921
 20
-142.49224985587
 30
0.0
 10
108.7372042913921
 20
-142.49224985587
 30
0.0
 10
108.653832980649
 20
-142.4478081241103
 30
0.0
 10
108.653832980649
 20
-142.4478081241103
 30
0.0
 10
108.6779486490458
 20
-142.4097398189982
 30
0.0
 10
108.7279025335819
 20
-142.3292968394177
 30
0.0
 10
108.7409938964258
 20
-142.2552272864848
 30
0.0
 10
108.7409938964258
 20
-142.2552272864848
 30
0.0
 10
108.9280625812749
 20
-142.3187892981877
 30
0.0
 10
108.9280625812749
 20
-142.3187892981877
 30
0.0
 10
108.9352972817939
 20
-142.3208563554788
 30
0.0
 10
108.9539007974143
 20
-142.3313638967088
 30
0.0
 10
108.9539007974143
 20
-142.3525512339431
 30
0.0
 10
108.9539007974143
 20
-142.3906195390551
 30
0.0
 10
108.8963677028106
 20
-142.3906195390551
 30
0.0
 10
108.8798312444814
 20
-142.3906195390551
 30
0.0
 10
108.8705294866712
 20
-142.4097398189982
 30
0.0
 10
108.8502034233083
 20
-142.4498751814014
 30
0.0
 10
108.8243652071689
 20
-142.4901827985788
 30
0.0
 10
109.1740423989217
 20
-142.4838093719311
 30
0.0
 10
109.2002251246096
 20
-142.4815700598657
 30
0.0
 10
109.266715467475
 20
-142.4753688879922
 30
0.0
 10
109.266715467475
 20
-142.4753688879922
 30
0.0
 10
109.266715467475
 20
-142.6572699296134
 30
0.0
 10
109.266715467475
 20
-142.6572699296134
 30
0.0
 10
109.2501790091458
 20
-142.6572699296134
 30
0.0
 10
109.2277858884916
 20
-142.655030617548
 30
0.0
 10
109.0352050508662
 20
-142.6465901336092
 30
0.0
 10
108.9907633191065
 20
-142.644523076318
 30
0.0
 10
108.798182481481
 20
-142.6403889617357
 30
0.0
 10
108.7592529024977
 20
-142.6403889617357
 30
0.0
 10
108.7592529024977
 20
-142.6403889617357
 30
0.0
 10
108.570461669906
 20
-142.6403889617357
 30
0.0
 10
108.570461669906
 20
-142.6403889617357
 30
0.0
 10
108.570461669906
 20
-142.6403889617357
 30
0.0
 10
108.570461669906
 20
-142.758727991654
 30
0.0
 10
108.570461669906
 20
-142.758727991654
 30
0.0
 10
108.570461669906
 20
-142.758727991654
 30
0.0
 10
108.7223903808055
 20
-142.758727991654
 30
0.0
 10
108.7223903808055
 20
-142.758727991654
 30
0.0
 10
108.8650173338948
 20
-142.758727991654
 30
0.0
 10
109.0317599553809
 20
-142.758727991654
 30
0.0
 10
109.1685302461453
 20
-142.7482204504241
 30
0.0
 10
109.1685302461453
 20
-142.7482204504241
 30
0.0
 10
109.1685302461453
 20
-142.9196139508152
 30
0.0
 10
109.1685302461453
 20
-142.9196139508152
 30
0.0
 10
108.9852511663301
 20
-142.9111734668764
 30
0.0
 10
108.8129963920676
 20
-142.9089341548109
 30
0.0
 10
108.7223903808055
 20
-142.9089341548109
 30
0.0
 10
108.7223903808055
 20
-142.9089341548109
 30
0.0
 10
108.570461669906
 20
-142.9089341548109
 30
0.0
 10
108.570461669906
 20
-142.9089341548109
 30
0.0
 10
108.570461669906
 20
-142.9089341548109
 30
0.0
 10
108.570461669906
 20
-143.0169378982735
 30
0.0
 10
108.570461669906
 20
-143.0169378982735
 30
0.0
 10
108.570461669906
 20
-143.0169378982735
 30
0.0
 10
108.7723442653416
 20
-143.0169378982735
 30
0.0
 10
108.7723442653416
 20
-143.0169378982735
 30
0.0
 10
108.8891330022916
 20
-143.0169378982735
 30
0.0
 10
109.1409694822633
 20
-143.012631528917
 30
0.0
 10
109.3242485620786
 20
-143.0062581022693
 30
0.0
 10
109.3242485620786
 20
-143.0062581022693
 30
0.0
 10
109.3242485620786
 20
-143.1840250293082
 30
0.0
 10
109.3242485620786
 20
-143.1840250293082
 30
0.0
 10
109.1557833928499
 20
-143.1776516026604
 30
0.0
 10
108.881553792224
 20
-143.1733452333039
 30
0.0
 10
108.7723442653416
 20
-143.1733452333039
 30
0.0
  0
HATCH
  5
C7
330
BB
100
AcDbEntity
  8
レイヤー 1
 62
   250
420
  2299925
440
 33554687
100
AcDbHatch
 10
0.0
 20
0.0
 30
0.0
210
0.0
220
0.0
230
1.0
  2
SOLID
 70
     1
 71
     1
 91
        4
 92
        1
 93
        1
 72
     4
 94
        3
 73
     0
 74
     0
 95
       17
 96
       13
 40
0.0
 40
0.0
 40
0.0
 40
0.0
 40
1.0
 40
1.0
 40
1.0
 40
2.0
 40
2.0
 40
2.0
 40
3.0
 40
3.0
 40
3.0
 40
4.0
 40
4.0
 40
4.0
 40
4.0
 10
108.9166937661736
 20
-143.9054280239195
 10
108.9166937661736
 20
-143.9054280239195
 10
108.2982991265712
 20
-143.9054280239195
 10
108.2982991265712
 20
-143.9054280239195
 10
108.2982991265712
 20
-143.9054280239195
 10
108.2982991265712
 20
-144.0196329392555
 10
108.2982991265712
 20
-144.0196329392555
 10
108.2982991265712
 20
-144.0196329392555
 10
108.9166937661736
 20
-144.0196329392555
 10
108.9166937661736
 20
-144.0196329392555
 10
108.9166937661736
 20
-144.0196329392555
 10
108.9166937661736
 20
-143.9054280239195
 10
108.9166937661736
 20
-143.9054280239195
 97
        0
 97
        1
330
C3
 92
        1
 93
        1
 72
     4
 94
        3
 73
     0
 74
     0
 95
       17
 96
       13
 40
0.0
 40
0.0
 40
0.0
 40
0.0
 40
1.0
 40
1.0
 40
1.0
 40
2.0
 40
2.0
 40
2.0
 40
3.0
 40
3.0
 40
3.0
 40
4.0
 40
4.0
 40
4.0
 40
4.0
 10
108.9166937661736
 20
-143.6620320278866
 10
108.9166937661736
 20
-143.6620320278866
 10
108.2982991265712
 20
-143.6620320278866
 10
108.2982991265712
 20
-143.6620320278866
 10
108.2982991265712
 20
-143.6620320278866
 10
108.2982991265712
 20
-143.7764091979969
 10
108.2982991265712
 20
-143.7764091979969
 10
108.2982991265712
 20
-143.7764091979969
 10
108.9166937661736
 20
-143.7764091979969
 10
108.9166937661736
 20
-143.7764091979969
 10
108.9166937661736
 20
-143.7764091979969
 10
108.9166937661736
 20
-143.6620320278866
 10
108.9166937661736
 20
-143.6620320278866
 97
        0
 97
        1
330
C4
 92
        1
 93
        1
 72
     4
 94
        3
 73
     0
 74
     0
 95
       17
 96
       13
 40
0.0
 40
0.0
 40
0.0
 40
0.0
 40
1.0
 40
1.0
 40
1.0
 40
2.0
 40
2.0
 40
2.0
 40
3.0
 40
3.0
 40
3.0
 40
4.0
 40
4.0
 40
4.0
 40
4.0
 10
108.9166937661736
 20
-143.4293158278579
 10
108.9166937661736
 20
-143.4293158278579
 10
108.2982991265712
 20
-143.4293158278579
 10
108.2982991265712
 20
-143.4293158278579
 10
108.2982991265712
 20
-143.4293158278579
 10
108.2982991265712
 20
-143.5373195713205
 10
108.2982991265712
 20
-143.5373195713205
 10
108.2982991265712
 20
-143.5373195713205
 10
108.9166937661736
 20
-143.5373195713205
 10
108.9166937661736
 20
-143.5373195713205
 10
108.9166937661736
 20
-143.5373195713205
 10
108.9166937661736
 20
-143.4293158278579
 10
108.9166937661736
 20
-143.4293158278579
 97
        0
 97
        1
330
C5
 92
        1
 93
        1
 72
     4
 94
        3
 73
     0
 74
     0
 95
      203
 96
      199
 40
0.0
 40
0.0
 40
0.0
 40
0.0
 40
1.0
 40
1.0
 40
1.0
 40
2.0
 40
2.0
 40
2.0
 40
3.0
 40
3.0
 40
3.0
 40
4.0
 40
4.0
 40
4.0
 40
5.0
 40
5.0
 40
5.0
 40
6.0
 40
6.0
 40
6.0
 40
7.0
 40
7.0
 40
7.0
 40
8.0
 40
8.0
 40
8.0
 40
9.0
 40
9.0
 40
9.0
 40
10.0
 40
10.0
 40
10.0
 40
11.0
 40
11.0
 40
11.0
 40
12.0
 40
12.0
 40
12.0
 40
13.0
 40
13.0
 40
13.0
 40
14.0
 40
14.0
 40
14.0
 40
15.0
 40
15.0
 40
15.0
 40
16.0
 40
16.0
 40
16.0
 40
17.0
 40
17.0
 40
17.0
 40
18.0
 40
18.0
 40
18.0
 40
19.0
 40
19.0
 40
19.0
 40
20.0
 40
20.0
 40
20.0
 40
21.0
 40
21.0
 40
21.0
 40
22.0
 40
22.0
 40
22.0
 40
23.0
 40
23.0
 40
23.0
 40
24.0
 40
24.0
 40
24.0
 40
25.0
 40
25.0
 40
25.0
 40
26.0
 40
26.0
 40
26.0
 40
27.0
 40
27.0
 40
27.0
 40
28.0
 40
28.0
 40
28.0
 40
29.0
 40
29.0
 40
29.0
 40
30.0
 40
30.0
 40
30.0
 40
31.0
 40
31.0
 40
31.0
 40
32.0
 40
32.0
 40
32.0
 40
33.0
 40
33.0
 40
33.0
 40
34.0
 40
34.0
 40
34.0
 40
35.0
 40
35.0
 40
35.0
 40
36.0
 40
36.0
 40
36.0
 40
37.0
 40
37.0
 40
37.0
 40
38.0
 40
38.0
 40
38.0
 40
39.0
 40
39.0
 40
39.0
 40
40.0
 40
40.0
 40
40.0
 40
41.0
 40
41.0
 40
41.0
 40
42.0
 40
42.0
 40
42.0
 40
43.0
 40
43.0
 40
43.0
 40
44.0
 40
44.0
 40
44.0
 40
45.0
 40
45.0
 40
45.0
 40
46.0
 40
46.0
 40
46.0
 40
47.0
 40
47.0
 40
47.0
 40
48.0
 40
48.0
 40
48.0
 40
49.0
 40
49.0
 40
49.0
 40
50.0
 40
50.0
 40
50.0
 40
51.0
 40
51.0
 40
51.0
 40
52.0
 40
52.0
 40
52.0
 40
53.0
 40
53.0
 40
53.0
 40
54.0
 40
54.0
 40
54.0
 40
55.0
 40
55.0
 40
55.0
 40
56.0
 40
56.0
 40
56.0
 40
57.0
 40
57.0
 40
57.0
 40
58.0
 40
58.0
 40
58.0
 40
59.0
 40
59.0
 40
59.0
 40
60.0
 40
60.0
 40
60.0
 40
61.0
 40
61.0
 40
61.0
 40
62.0
 40
62.0
 40
62.0
 40
63.0
 40
63.0
 40
63.0
 40
64.0
 40
64.0
 40
64.0
 40
65.0
 40
65.0
 40
65.0
 40
66.0
 40
66.0
 40
66.0
 40
66.0
 10
108.7723442653416
 20
-143.1733452333039
 10
108.7723442653416
 20
-143.1733452333039
 10
108.2834852159846
 20
-143.1733452333039
 10
108.2834852159846
 20
-143.1733452333039
 10
108.2741834581745
 20
-143.2177869650636
 10
108.2669487576555
 20
-143.2494818435279
 10
108.2555799425541
 20
-143.2877224034142
 10
108.2779730632083
 20
-143.2877224034142
 10
108.2910644260522
 20
-143.2897894607053
 10
108.2965765788286
 20
-143.2897894607053
 10
108.2965765788286
 20
-143.2897894607053
 10
108.4612521430236
 20
-143.2897894607053
 10
108.4612521430236
 20
-143.2897894607053
 10
108.4612521430236
 20
-143.2897894607053
 10
108.7888807236708
 20
-143.2897894607053
 10
108.7888807236708
 20
-143.2897894607053
 10
108.8336669649791
 20
-143.2897894607053
 10
109.081713839917
 20
-143.2770426074099
 10
109.1092746037991
 20
-143.2770426074099
 10
109.1075520560564
 20
-143.3046033712919
 10
109.1058295083138
 20
-143.3235513964608
 10
109.1058295083138
 20
-143.3531792176339
 10
109.1037624510226
 20
-143.3848740960982
 10
109.1037624510226
 20
-143.5202663486685
 10
109.1037624510226
 20
-143.5478271125505
 10
109.1037624510226
 20
-143.5478271125505
 10
109.1037624510226
 20
-143.7932901658746
 10
109.1037624510226
 20
-143.7932901658746
 10
109.1037624510226
 20
-143.8377318976343
 10
109.1075520560564
 20
-144.0344468498421
 10
109.1113416610902
 20
-144.1867200702901
 10
109.1113416610902
 20
-144.1867200702901
 10
108.9132486706883
 20
-144.1867200702901
 10
108.9132486706883
 20
-144.1867200702901
 10
108.9132486706883
 20
-144.1867200702901
 10
108.914971218431
 20
-144.1529581345347
 10
108.914971218431
 20
-144.1529581345347
 10
108.914971218431
 20
-144.1529581345347
 10
108.3003661838624
 20
-144.1529581345347
 10
108.3003661838624
 20
-144.1529581345347
 10
108.3003661838624
 20
-144.1529581345347
 10
108.302088731605
 20
-144.1867200702901
 10
108.302088731605
 20
-144.1867200702901
 10
108.302088731605
 20
-144.1867200702901
 10
108.1112304417222
 20
-144.1867200702901
 10
108.1112304417222
 20
-144.1867200702901
 10
108.1150200467559
 20
-144.1317707973004
 10
108.1150200467559
 20
-144.1190239440049
 10
108.1205321995323
 20
-144.0048190286689
 10
108.1225992568235
 20
-143.9772582647869
 10
108.1243218045661
 20
-143.844105324282
 10
108.1243218045661
 20
-143.8249850443389
 10
108.1243218045661
 20
-143.8249850443389
 10
108.1243218045661
 20
-143.6218966654834
 10
108.1243218045661
 20
-143.6218966654834
 10
108.0020209148397
 20
-143.8714938333897
 10
107.853881808974
 20
-144.0027519713778
 10
107.7612087404208
 20
-144.0682087855975
 10
107.7612087404208
 20
-144.0682087855975
 10
107.6096245390698
 20
-143.9286824184449
 10
107.6096245390698
 20
-143.9286824184449
 10
107.6871391874879
 20
-143.8778672600375
 10
107.8132296822481
 20
-143.7910508538092
 10
107.9334635146833
 20
-143.5965752136668
 10
108.0130452203925
 20
-143.4696234450353
 10
108.0705783149962
 20
-143.3257907085262
 10
108.1002061361694
 20
-143.1733452333039
 10
107.9000460884764
 20
-143.1755845453693
 10
107.742949734349
 20
-143.181957972017
 10
107.6595784236059
 20
-143.1840250293082
 10
107.6595784236059
 20
-143.1840250293082
 10
107.6595784236059
 20
-143.0062581022693
 10
107.6595784236059
 20
-143.0062581022693
 10
107.8318331978684
 20
-143.012631528917
 10
108.0798800728064
 20
-143.0169378982735
 10
108.2114827203429
 20
-143.0169378982735
 10
108.2114827203429
 20
-143.0169378982735
 10
108.3982068956435
 20
-143.0169378982735
 10
108.3982068956435
 20
-143.0169378982735
 10
108.3982068956435
 20
-143.0169378982735
 10
108.3982068956435
 20
-142.9089341548109
 10
108.3982068956435
 20
-142.9089341548109
 10
108.3982068956435
 20
-142.9089341548109
 10
108.2707383626892
 20
-142.9089341548109
 10
108.2707383626892
 20
-142.9089341548109
 10
108.1225992568235
 20
-142.9089341548109
 10
107.9744601509577
 20
-142.9132405241675
 10
107.8280435928346
 20
-142.9196139508152
 10
107.8280435928346
 20
-142.9196139508152
 10
107.8280435928346
 20
-142.7482204504241
 10
107.8280435928346
 20
-142.7482204504241
 10
107.9630913358564
 20
-142.758727991654
 10
108.1260443523087
 20
-142.758727991654
 10
108.2707383626892
 20
-142.758727991654
 10
108.2707383626892
 20
-142.758727991654
 10
108.3982068956435
 20
-142.758727991654
 10
108.3982068956435
 20
-142.758727991654
 10
108.3982068956435
 20
-142.758727991654
 10
108.3982068956435
 20
-142.6403889617357
 10
108.3982068956435
 20
-142.6403889617357
 10
108.3982068956435
 20
-142.6403889617357
 10
108.2834852159846
 20
-142.6403889617357
 10
108.2834852159846
 20
-142.6403889617357
 10
108.2428330892587
 20
-142.6403889617357
 10
108.0650661622198
 20
-142.6488294456746
 10
108.0278591309791
 20
-142.6488294456746
 10
107.8500922039402
 20
-142.6529635602569
 10
107.7836018610749
 20
-142.655030617548
 10
107.7150444609184
 20
-142.6572699296134
 10
107.7150444609184
 20
-142.6572699296134
 10
107.7150444609184
 20
-142.4731295759268
 10
107.7150444609184
 20
-142.4731295759268
 10
107.8149522299907
 20
-142.4815700598657
 10
107.853881808974
 20
-142.4815700598657
 10
108.1890895996888
 20
-142.4901827985788
 10
108.1336235623763
 20
-142.3949259084117
 10
108.1095078939795
 20
-142.3673651445296
 10
108.0778130155152
 20
-142.3313638967088
 10
108.0778130155152
 20
-142.3313638967088
 10
108.2318087837059
 20
-142.2488538598371
 10
108.2318087837059
 20
-142.2488538598371
 10
108.2669487576555
 20
-142.2848551076579
 10
108.3058783366388
 20
-142.3272297821265
 10
108.3706461317615
 20
-142.437128328106
 10
108.3706461317615
 20
-142.437128328106
 10
108.2707383626892
 20
-142.49224985587
 10
108.2707383626892
 20
-142.49224985587
 10
108.2707383626892
 20
-142.49224985587
 10
108.2796956109509
 20
-142.49224985587
 10
108.2796956109509
 20
-142.49224985587
 10
108.2796956109509
 20
-142.49224985587
 10
108.7372042913921
 20
-142.49224985587
 10
108.7372042913921
 20
-142.49224985587
 10
108.7372042913921
 20
-142.49224985587
 10
108.653832980649
 20
-142.4478081241103
 10
108.653832980649
 20
-142.4478081241103
 10
108.6779486490458
 20
-142.4097398189982
 10
108.7279025335819
 20
-142.3292968394177
 10
108.7409938964258
 20
-142.2552272864848
 10
108.7409938964258
 20
-142.2552272864848
 10
108.9280625812749
 20
-142.3187892981877
 10
108.9280625812749
 20
-142.3187892981877
 10
108.9352972817939
 20
-142.3208563554788
 10
108.9539007974143
 20
-142.3313638967088
 10
108.9539007974143
 20
-142.3525512339431
 10
108.9539007974143
 20
-142.3906195390551
 10
108.8963677028106
 20
-142.3906195390551
 10
108.8798312444814
 20
-142.3906195390551
 10
108.8705294866712
 20
-142.4097398189982
 10
108.8502034233083
 20
-142.4498751814014
 10
108.8243652071689
 20
-142.4901827985788
 10
109.1740423989217
 20
-142.4838093719311
 10
109.2002251246096
 20
-142.4815700598657
 10
109.266715467475
 20
-142.4753688879922
 10
109.266715467475
 20
-142.4753688879922
 10
109.266715467475
 20
-142.6572699296134
 10
109.266715467475
 20
-142.6572699296134
 10
109.2501790091458
 20
-142.6572699296134
 10
109.2277858884916
 20
-142.655030617548
 10
109.0352050508662
 20
-142.6465901336092
 10
108.9907633191065
 20
-142.644523076318
 10
108.798182481481
 20
-142.6403889617357
 10
108.7592529024977
 20
-142.6403889617357
 10
108.7592529024977
 20
-142.6403889617357
 10
108.570461669906
 20
-142.6403889617357
 10
108.570461669906
 20
-142.6403889617357
 10
108.570461669906
 20
-142.6403889617357
 10
108.570461669906
 20
-142.758727991654
 10
108.570461669906
 20
-142.758727991654
 10
108.570461669906
 20
-142.758727991654
 10
108.7223903808055
 20
-142.758727991654
 10
108.7223903808055
 20
-142.758727991654
 10
108.8650173338948
 20
-142.758727991654
 10
109.0317599553809
 20
-142.758727991654
 10
109.1685302461453
 20
-142.7482204504241
 10
109.1685302461453
 20
-142.7482204504241
 10
109.1685302461453
 20
-142.9196139508152
 10
109.1685302461453
 20
-142.9196139508152
 10
108.9852511663301
 20
-142.9111734668764
 10
108.8129963920676
 20
-142.9089341548109
 10
108.7223903808055
 20
-142.9089341548109
 10
108.7223903808055
 20
-142.9089341548109
 10
108.570461669906
 20
-142.9089341548109
 10
108.570461669906
 20
-142.9089341548109
 10
108.570461669906
 20
-142.9089341548109
 10
108.570461669906
 20
-143.0169378982735
 10
108.570461669906
 20
-143.0169378982735
 10
108.570461669906
 20
-143.0169378982735
 10
108.7723442653416
 20
-143.0169378982735
 10
108.7723442653416
 20
-143.0169378982735
 10
108.8891330022916
 20
-143.0169378982735
 10
109.1409694822633
 20
-143.012631528917
 10
109.3242485620786
 20
-143.0062581022693
 10
109.3242485620786
 20
-143.0062581022693
 10
109.3242485620786
 20
-143.1840250293082
 10
109.3242485620786
 20
-143.1840250293082
 10
109.1557833928499
 20
-143.1776516026604
 10
108.881553792224
 20
-143.1733452333039
 10
108.7723442653416
 20
-143.1733452333039
 97
        0
 97
        1
330
C6
 75
     2
 76
     1
 98
        1
 10
0.0
 20
0.0
450
        0
451
        0
460
0.0
461
0.0
452
        0
462
0.0
453
        0
470

  0
SPLINE
  5
C8
330
BB
100
AcDbEntity
  8
レイヤー 1
100
AcDbSpline
210
0.0
220
0.0
230
1.0
 70
     9
 71
     3
 72
    29
 73
    25
 74
     0
 42
0.0000000001
 43
0.0000000001
 40
0.0
 40
0.0
 40
0.0
 40
0.0
 40
1.0
 40
1.0
 40
1.0
 40
2.0
 40
2.0
 40
2.0
 40
3.0
 40
3.0
 40
3.0
 40
4.0
 40
4.0
 40
4.0
 40
5.0
 40
5.0
 40
5.0
 40
6.0
 40
6.0
 40
6.0
 40
7.0
 40
7.0
 40
7.0
 40
8.0
 40
8.0
 40
8.0
 40
8.0
 10
110.4153103022573
 20
-142.6212686817926
 30
0.0
 10
110.4153103022573
 20
-142.6212686817926
 30
0.0
 10
110.1059407276818
 20
-142.6212686817926
 30
0.0
 10
110.1059407276818
 20
-142.6212686817926
 30
0.0
 10
110.0077555063522
 20
-142.6212686817926
 30
0.0
 10
109.8854546166258
 20
-142.6276421084403
 30
0.0
 10
109.79105900033
 20
-142.6403889617357
 30
0.0
 10
109.79105900033
 20
-142.6403889617357
 30
0.0
 10
109.79105900033
 20
-142.4054334496417
 30
0.0
 10
109.79105900033
 20
-142.4054334496417
 30
0.0
 10
109.894756374436
 20
-142.4202473602282
 30
0.0
 10
110.0559868431457
 20
-142.4245537295848
 30
0.0
 10
110.1059407276818
 20
-142.4245537295848
 30
0.0
 10
110.1059407276818
 20
-142.4245537295848
 30
0.0
 10
110.4153103022573
 20
-142.4245537295848
 30
0.0
 10
110.4153103022573
 20
-142.4245537295848
 30
0.0
 10
110.4318467605865
 20
-142.4245537295848
 30
0.0
 10
110.6096136876254
 20
-142.4245537295848
 30
0.0
 10
110.7336371250944
 20
-142.4054334496417
 30
0.0
 10
110.7336371250944
 20
-142.4054334496417
 30
0.0
 10
110.7336371250944
 20
-142.6403889617357
 30
0.0
 10
110.7336371250944
 20
-142.6403889617357
 30
0.0
 10
110.5965223247814
 20
-142.6212686817926
 30
0.0
 10
110.4301242128438
 20
-142.6212686817926
 30
0.0
 10
110.4153103022573
 20
-142.6212686817926
 30
0.0
  0
SPLINE
  5
C9
330
BB
100
AcDbEntity
  8
レイヤー 1
100
AcDbSpline
210
0.0
220
0.0
230
1.0
 70
     9
 71
     3
 72
    47
 73
    43
 74
     0
 42
0.0000000001
 43
0.0000000001
 40
0.0
 40
0.0
 40
0.0
 40
0.0
 40
1.0
 40
1.0
 40
1.0
 40
2.0
 40
2.0
 40
2.0
 40
3.0
 40
3.0
 40
3.0
 40
4.0
 40
4.0
 40
4.0
 40
5.0
 40
5.0
 40
5.0
 40
6.0
 40
6.0
 40
6.0
 40
7.0
 40
7.0
 40
7.0
 40
8.0
 40
8.0
 40
8.0
 40
9.0
 40
9.0
 40
9.0
 40
10.0
 40
10.0
 40
10.0
 40
11.0
 40
11.0
 40
11.0
 40
12.0
 40
12.0
 40
12.0
 40
13.0
 40
13.0
 40
13.0
 40
14.0
 40
14.0
 40
14.0
 40
14.0
 10
110.5041937657767
 20
-143.1500908387784
 30
0.0
 10
110.5041937657767
 20
-143.1500908387784
 30
0.0
 10
110.4153103022573
 20
-143.1500908387784
 30
0.0
 10
110.4153103022573
 20
-143.1500908387784
 30
0.0
 10
110.4153103022573
 20
-143.2369072450067
 30
0.0
 10
110.3967067866369
 20
-143.62620303484
 30
0.0
 10
110.2244520123744
 20
-143.8461723815732
 30
0.0
 10
110.0911268170952
 20
-144.0153265698989
 30
0.0
 10
109.9095702850226
 20
-144.0852620082495
 30
0.0
 10
109.8355007320897
 20
-144.1126505173572
 30
0.0
 10
109.8355007320897
 20
-144.1126505173572
 30
0.0
 10
109.6653130151184
 20
-143.9455633863226
 30
0.0
 10
109.6653130151184
 20
-143.9455633863226
 30
0.0
 10
109.750406873604
 20
-143.9328165330272
 30
0.0
 10
109.9040581322462
 20
-143.9095621385017
 30
0.0
 10
110.0690782059897
 20
-143.7212876702328
 30
0.0
 10
110.1338460011124
 20
-143.6494574293654
 30
0.0
 10
110.2244520123744
 20
-143.5097588074385
 30
0.0
 10
110.2244520123744
 20
-143.1500908387784
 30
0.0
 10
110.2244520123744
 20
-143.1500908387784
 30
0.0
 10
110.0225694169388
 20
-143.1500908387784
 30
0.0
 10
110.0225694169388
 20
-143.1500908387784
 30
0.0
 10
109.8596164004865
 20
-143.1500908387784
 30
0.0
 10
109.6966633840341
 20
-143.154397208135
 30
0.0
 10
109.5337103675818
 20
-143.1692111187216
 30
0.0
 10
109.5337103675818
 20
-143.1692111187216
 30
0.0
 10
109.5337103675818
 20
-142.9492417719884
 30
0.0
 10
109.5337103675818
 20
-142.9492417719884
 30
0.0
 10
109.6983859317768
 20
-142.9640556825749
 30
0.0
 10
109.9484998640059
 20
-142.9681897971572
 30
0.0
 10
110.0225694169388
 20
-142.9681897971572
 30
0.0
 10
110.0225694169388
 20
-142.9681897971572
 30
0.0
 10
110.5041937657767
 20
-142.9681897971572
 30
0.0
 10
110.5041937657767
 20
-142.9681897971572
 30
0.0
 10
110.5207302241059
 20
-142.9681897971572
 30
0.0
 10
110.798404920217
 20
-142.9681897971572
 30
0.0
 10
110.9985649679101
 20
-142.9492417719884
 30
0.0
 10
110.9985649679101
 20
-142.9492417719884
 30
0.0
 10
110.9985649679101
 20
-143.1692111187216
 30
0.0
 10
110.9985649679101
 20
-143.1692111187216
 30
0.0
 10
110.8335448941666
 20
-143.154397208135
 30
0.0
 10
110.6688693299716
 20
-143.1500908387784
 30
0.0
 10
110.5041937657767
 20
-143.1500908387784
 30
0.0
  0
HATCH
  5
CA
330
BB
100
AcDbEntity
  8
レイヤー 1
 62
   250
420
  2299925
440
 33554687
100
AcDbHatch
 10
0.0
 20
0.0
 30
0.0
210
0.0
220
0.0
230
1.0
  2
SOLID
 70
     1
 71
     1
 91
        2
 92
        1
 93
        1
 72
     4
 94
        3
 73
     0
 74
     0
 95
       29
 96
       25
 40
0.0
 40
0.0
 40
0.0
 40
0.0
 40
1.0
 40
1.0
 40
1.0
 40
2.0
 40
2.0
 40
2.0
 40
3.0
 40
3.0
 40
3.0
 40
4.0
 40
4.0
 40
4.0
 40
5.0
 40
5.0
 40
5.0
 40
6.0
 40
6.0
 40
6.0
 40
7.0
 40
7.0
 40
7.0
 40
8.0
 40
8.0
 40
8.0
 40
8.0
 10
110.4153103022573
 20
-142.6212686817926
 10
110.4153103022573
 20
-142.6212686817926
 10
110.1059407276818
 20
-142.6212686817926
 10
110.1059407276818
 20
-142.6212686817926
 10
110.0077555063522
 20
-142.6212686817926
 10
109.8854546166258
 20
-142.6276421084403
 10
109.79105900033
 20
-142.6403889617357
 10
109.79105900033
 20
-142.6403889617357
 10
109.79105900033
 20
-142.4054334496417
 10
109.79105900033
 20
-142.4054334496417
 10
109.894756374436
 20
-142.4202473602282
 10
110.0559868431457
 20
-142.4245537295848
 10
110.1059407276818
 20
-142.4245537295848
 10
110.1059407276818
 20
-142.4245537295848
 10
110.4153103022573
 20
-142.4245537295848
 10
110.4153103022573
 20
-142.4245537295848
 10
110.4318467605865
 20
-142.4245537295848
 10
110.6096136876254
 20
-142.4245537295848
 10
110.7336371250944
 20
-142.4054334496417
 10
110.7336371250944
 20
-142.4054334496417
 10
110.7336371250944
 20
-142.6403889617357
 10
110.7336371250944
 20
-142.6403889617357
 10
110.5965223247814
 20
-142.6212686817926
 10
110.4301242128438
 20
-142.6212686817926
 10
110.4153103022573
 20
-142.6212686817926
 97
        0
 97
        1
330
C8
 92
        1
 93
        1
 72
     4
 94
        3
 73
     0
 74
     0
 95
       47
 96
       43
 40
0.0
 40
0.0
 40
0.0
 40
0.0
 40
1.0
 40
1.0
 40
1.0
 40
2.0
 40
2.0
 40
2.0
 40
3.0
 40
3.0
 40
3.0
 40
4.0
 40
4.0
 40
4.0
 40
5.0
 40
5.0
 40
5.0
 40
6.0
 40
6.0
 40
6.0
 40
7.0
 40
7.0
 40
7.0
 40
8.0
 40
8.0
 40
8.0
 40
9.0
 40
9.0
 40
9.0
 40
10.0
 40
10.0
 40
10.0
 40
11.0
 40
11.0
 40
11.0
 40
12.0
 40
12.0
 40
12.0
 40
13.0
 40
13.0
 40
13.0
 40
14.0
 40
14.0
 40
14.0
 40
14.0
 10
110.5041937657767
 20
-143.1500908387784
 10
110.5041937657767
 20
-143.1500908387784
 10
110.4153103022573
 20
-143.1500908387784
 10
110.4153103022573
 20
-143.1500908387784
 10
110.4153103022573
 20
-143.2369072450067
 10
110.3967067866369
 20
-143.62620303484
 10
110.2244520123744
 20
-143.8461723815732
 10
110.0911268170952
 20
-144.0153265698989
 10
109.9095702850226
 20
-144.0852620082495
 10
109.8355007320897
 20
-144.1126505173572
 10
109.8355007320897
 20
-144.1126505173572
 10
109.6653130151184
 20
-143.9455633863226
 10
109.6653130151184
 20
-143.9455633863226
 10
109.750406873604
 20
-143.9328165330272
 10
109.9040581322462
 20
-143.9095621385017
 10
110.0690782059897
 20
-143.7212876702328
 10
110.1338460011124
 20
-143.6494574293654
 10
110.2244520123744
 20
-143.5097588074385
 10
110.2244520123744
 20
-143.1500908387784
 10
110.2244520123744
 20
-143.1500908387784
 10
110.0225694169388
 20
-143.1500908387784
 10
110.0225694169388
 20
-143.1500908387784
 10
109.8596164004865
 20
-143.1500908387784
 10
109.6966633840341
 20
-143.154397208135
 10
109.5337103675818
 20
-143.1692111187216
 10
109.5337103675818
 20
-143.1692111187216
 10
109.5337103675818
 20
-142.9492417719884
 10
109.5337103675818
 20
-142.9492417719884
 10
109.6983859317768
 20
-142.9640556825749
 10
109.9484998640059
 20
-142.9681897971572
 10
110.0225694169388
 20
-142.9681897971572
 10
110.0225694169388
 20
-142.9681897971572
 10
110.5041937657767
 20
-142.9681897971572
 10
110.5041937657767
 20
-142.9681897971572
 10
110.5207302241059
 20
-142.9681897971572
 10
110.798404920217
 20
-142.9681897971572
 10
110.9985649679101
 20
-142.9492417719884
 10
110.9985649679101
 20
-142.9492417719884
 10
110.9985649679101
 20
-143.1692111187216
 10
110.9985649679101
 20
-143.1692111187216
 10
110.8335448941666
 20
-143.154397208135
 10
110.6688693299716
 20
-143.1500908387784
 10
110.5041937657767
 20
-143.1500908387784
 97
        0
 97
        1
330
C9
 75
     2
 76
     1
 98
        1
 10
0.0
 20
0.0
450
        0
451
        0
460
0.0
461
0.0
452
        0
462
0.0
453
        0
470

  0
SPLINE
  5
CB
330
BB
100
AcDbEntity
  8
レイヤー 1
100
AcDbSpline
210
0.0
220
0.0
230
1.0
 70
     9
 71
     3
 72
    29
 73
    25
 74
     0
 42
0.0000000001
 43
0.0000000001
 40
0.0
 40
0.0
 40
0.0
 40
0.0
 40
1.0
 40
1.0
 40
1.0
 40
2.0
 40
2.0
 40
2.0
 40
3.0
 40
3.0
 40
3.0
 40
4.0
 40
4.0
 40
4.0
 40
5.0
 40
5.0
 40
5.0
 40
6.0
 40
6.0
 40
6.0
 40
7.0
 40
7.0
 40
7.0
 40
8.0
 40
8.0
 40
8.0
 40
8.0
 10
112.1209770770045
 20
-143.3130438552308
 30
0.0
 10
112.1209770770045
 20
-143.3130438552308
 30
0.0
 10
111.6968858227702
 20
-143.3130438552308
 30
0.0
 10
111.6968858227702
 20
-143.3130438552308
 30
0.0
 10
111.6727701543735
 20
-143.3130438552308
 30
0.0
 10
111.3947509487138
 20
-143.3130438552308
 30
0.0
 10
111.2097493211559
 20
-143.3383653070473
 30
0.0
 10
111.2097493211559
 20
-143.3383653070473
 30
0.0
 10
111.2097493211559
 20
-143.1078884190841
 30
0.0
 10
111.2097493211559
 20
-143.1078884190841
 30
0.0
 10
111.3485866692115
 20
-143.1311428136096
 30
0.0
 10
111.5153292906975
 20
-143.1332098709007
 30
0.0
 10
111.6968858227702
 20
-143.1332098709007
 30
0.0
 10
111.6968858227702
 20
-143.1332098709007
 30
0.0
 10
112.1209770770045
 20
-143.1332098709007
 30
0.0
 10
112.1209770770045
 20
-143.1332098709007
 30
0.0
 10
112.2835855839082
 20
-143.1332098709007
 30
0.0
 10
112.4468831099091
 20
-143.1311428136096
 30
0.0
 10
112.6077690690703
 20
-143.1078884190841
 30
0.0
 10
112.6077690690703
 20
-143.1078884190841
 30
0.0
 10
112.6077690690703
 20
-143.3383653070473
 30
0.0
 10
112.6077690690703
 20
-143.3383653070473
 30
0.0
 10
112.4468831099091
 20
-143.3151109125219
 30
0.0
 10
112.2301866038869
 20
-143.3130438552308
 30
0.0
 10
112.1209770770045
 20
-143.3130438552308
 30
0.0
  0
HATCH
  5
CC
330
BB
100
AcDbEntity
  8
レイヤー 1
 62
   250
420
  2299925
440
 33554687
100
AcDbHatch
 10
0.0
 20
0.0
 30
0.0
210
0.0
220
0.0
230
1.0
  2
SOLID
 70
     1
 71
     1
 91
        1
 92
        1
 93
        1
 72
     4
 94
        3
 73
     0
 74
     0
 95
       29
 96
       25
 40
0.0
 40
0.0
 40
0.0
 40
0.0
 40
1.0
 40
1.0
 40
1.0
 40
2.0
 40
2.0
 40
2.0
 40
3.0
 40
3.0
 40
3.0
 40
4.0
 40
4.0
 40
4.0
 40
5.0
 40
5.0
 40
5.0
 40
6.0
 40
6.0
 40
6.0
 40
7.0
 40
7.0
 40
7.0
 40
8.0
 40
8.0
 40
8.0
 40
8.0
 10
112.1209770770045
 20
-143.3130438552308
 10
112.1209770770045
 20
-143.3130438552308
 10
111.6968858227702
 20
-143.3130438552308
 10
111.6968858227702
 20
-143.3130438552308
 10
111.6727701543735
 20
-143.3130438552308
 10
111.3947509487138
 20
-143.3130438552308
 10
111.2097493211559
 20
-143.3383653070473
 10
111.2097493211559
 20
-143.3383653070473
 10
111.2097493211559
 20
-143.1078884190841
 10
111.2097493211559
 20
-143.1078884190841
 10
111.3485866692115
 20
-143.1311428136096
 10
111.5153292906975
 20
-143.1332098709007
 10
111.6968858227702
 20
-143.1332098709007
 10
111.6968858227702
 20
-143.1332098709007
 10
112.1209770770045
 20
-143.1332098709007
 10
112.1209770770045
 20
-143.1332098709007
 10
112.2835855839082
 20
-143.1332098709007
 10
112.4468831099091
 20
-143.1311428136096
 10
112.6077690690703
 20
-143.1078884190841
 10
112.6077690690703
 20
-143.1078884190841
 10
112.6077690690703
 20
-143.3383653070473
 10
112.6077690690703
 20
-143.3383653070473
 10
112.4468831099091
 20
-143.3151109125219
 10
112.2301866038869
 20
-143.3130438552308
 10
112.1209770770045
 20
-143.3130438552308
 97
        0
 97
        1
330
CB
 75
     2
 76
     1
 98
        1
 10
0.0
 20
0.0
450
        0
451
        0
460
0.0
461
0.0
452
        0
462
0.0
453
        0
470

  0
SPLINE
  5
CD
330
BB
100
AcDbEntity
  8
レイヤー 1
100
AcDbSpline
210
0.0
220
0.0
230
1.0
 70
     9
 71
     3
 72
    17
 73
    13
 74
     0
 42
0.0000000001
 43
0.0000000001
 40
0.0
 40
0.0
 40
0.0
 40
0.0
 40
1.0
 40
1.0
 40
1.0
 40
2.0
 40
2.0
 40
2.0
 40
3.0
 40
3.0
 40
3.0
 40
4.0
 40
4.0
 40
4.0
 40
4.0
 10
114.2393662908846
 20
-142.3461778072954
 30
0.0
 10
114.1911349540911
 20
-142.3461778072954
 30
0.0
 10
114.1522053751078
 20
-142.3906195390551
 30
0.0
 10
114.1522053751078
 20
-142.4457410668191
 30
0.0
 10
114.1522053751078
 20
-142.5027573971
 30
0.0
 10
114.1911349540911
 20
-142.5515054982163
 30
0.0
 10
114.2431558959184
 20
-142.5515054982163
 30
0.0
 10
114.2948323281971
 20
-142.5515054982163
 30
0.0
 10
114.3299723021466
 20
-142.5006903398088
 30
0.0
 10
114.3299723021466
 20
-142.4478081241103
 30
0.0
 10
114.3299723021466
 20
-142.3906195390551
 30
0.0
 10
114.2893201754207
 20
-142.3461778072954
 30
0.0
 10
114.2393662908846
 20
-142.3461778072954
 30
0.0
  0
SPLINE
  5
CE
330
BB
100
AcDbEntity
  8
レイヤー 1
100
AcDbSpline
210
0.0
220
0.0
230
1.0
 70
     9
 71
     3
 72
    17
 73
    13
 74
     0
 42
0.0000000001
 43
0.0000000001
 40
0.0
 40
0.0
 40
0.0
 40
0.0
 40
1.0
 40
1.0
 40
1.0
 40
2.0
 40
2.0
 40
2.0
 40
3.0
 40
3.0
 40
3.0
 40
4.0
 40
4.0
 40
4.0
 40
4.0
 10
114.2410888386272
 20
-142.6762179547823
 30
0.0
 10
114.1301567640022
 20
-142.6762179547823
 30
0.0
 10
114.0412733004827
 20
-142.5747598927417
 30
0.0
 10
114.0412733004827
 20
-142.4478081241103
 30
0.0
 10
114.0412733004827
 20
-142.3208563554788
 30
0.0
 10
114.1301567640022
 20
-142.2171589813728
 30
0.0
 10
114.2410888386272
 20
-142.2171589813728
 30
0.0
 10
114.3523654228008
 20
-142.2171589813728
 30
0.0
 10
114.4429714340629
 20
-142.3208563554788
 30
0.0
 10
114.4429714340629
 20
-142.4478081241103
 30
0.0
 10
114.4429714340629
 20
-142.5747598927417
 30
0.0
 10
114.3523654228008
 20
-142.6762179547823
 30
0.0
 10
114.2410888386272
 20
-142.6762179547823
 30
0.0
  0
SPLINE
  5
CF
330
BB
100
AcDbEntity
  8
レイヤー 1
100
AcDbSpline
210
0.0
220
0.0
230
1.0
 70
     9
 71
     3
 72
    44
 73
    40
 74
     0
 42
0.0000000001
 43
0.0000000001
 40
0.0
 40
0.0
 40
0.0
 40
0.0
 40
1.0
 40
1.0
 40
1.0
 40
2.0
 40
2.0
 40
2.0
 40
3.0
 40
3.0
 40
3.0
 40
4.0
 40
4.0
 40
4.0
 40
5.0
 40
5.0
 40
5.0
 40
6.0
 40
6.0
 40
6.0
 40
7.0
 40
7.0
 40
7.0
 40
8.0
 40
8.0
 40
8.0
 40
9.0
 40
9.0
 40
9.0
 40
10.0
 40
10.0
 40
10.0
 40
11.0
 40
11.0
 40
11.0
 40
12.0
 40
12.0
 40
12.0
 40
13.0
 40
13.0
 40
13.0
 40
13.0
 10
114.0578097588119
 20
-142.8751722190555
 30
0.0
 10
113.9596245374823
 20
-143.2432806716545
 30
0.0
 10
113.9151828057226
 20
-143.4019273187502
 30
0.0
 10
113.7429280314601
 20
-143.6515244866565
 30
0.0
 10
113.5820420722989
 20
-143.882173629394
 30
0.0
 10
113.3746473240869
 20
-144.0682087855975
 30
0.0
 10
113.1300455446341
 20
-144.1613986184735
 30
0.0
 10
113.1300455446341
 20
-144.1613986184735
 30
0.0
 10
112.9615803754054
 20
-143.9815646341435
 30
0.0
 10
112.9615803754054
 20
-143.9815646341435
 30
0.0
 10
113.5227864299526
 20
-143.8292914136954
 30
0.0
 10
113.8114854316166
 20
-143.2729084928276
 30
0.0
 10
113.8669514689291
 20
-142.8327975445869
 30
0.0
 10
113.8669514689291
 20
-142.8327975445869
 30
0.0
 10
113.196880397048
 20
-142.8327975445869
 30
0.0
 10
113.196880397048
 20
-142.8327975445869
 30
0.0
 10
113.1152316340476
 20
-142.8327975445869
 30
0.0
 10
112.9543456748864
 20
-142.8371039139435
 30
0.0
 10
112.8172308745734
 20
-142.8560519391123
 30
0.0
 10
112.8172308745734
 20
-142.8560519391123
 30
0.0
 10
112.8172308745734
 20
-142.6360825923792
 30
0.0
 10
112.8172308745734
 20
-142.6360825923792
 30
0.0
 10
112.8930229752489
 20
-142.6572699296134
 30
0.0
 10
113.1135090863049
 20
-142.6572699296134
 30
0.0
 10
113.2006700020818
 20
-142.6572699296134
 30
0.0
 10
113.2006700020818
 20
-142.6572699296134
 30
0.0
 10
113.5782524672651
 20
-142.6572699296134
 30
0.0
 10
113.5782524672651
 20
-142.6572699296134
 30
0.0
 10
113.6154594985058
 20
-142.6572699296134
 30
0.0
 10
113.8207871894267
 20
-142.655030617548
 30
0.0
 10
113.8542046156336
 20
-142.6488294456746
 30
0.0
 10
113.8910671373258
 20
-142.6424560190269
 30
0.0
 10
113.893134194617
 20
-142.6403889617357
 30
0.0
 10
113.9468776841869
 20
-142.6000813445583
 30
0.0
 10
113.9468776841869
 20
-142.6000813445583
 30
0.0
 10
114.1115532483818
 20
-142.7545938770718
 30
0.0
 10
114.1115532483818
 20
-142.7545938770718
 30
0.0
 10
114.0857150322424
 20
-142.7842216982449
 30
0.0
 10
114.0726236693985
 20
-142.8159165767092
 30
0.0
 10
114.0578097588119
 20
-142.8751722190555
 30
0.0
  0
HATCH
  5
D0
330
BB
100
AcDbEntity
  8
レイヤー 1
 62
   250
420
  2299925
440
 33554687
100
AcDbHatch
 10
0.0
 20
0.0
 30
0.0
210
0.0
220
0.0
230
1.0
  2
SOLID
 70
     1
 71
     1
 91
        3
 92
        1
 93
        1
 72
     4
 94
        3
 73
     0
 74
     0
 95
       17
 96
       13
 40
0.0
 40
0.0
 40
0.0
 40
0.0
 40
1.0
 40
1.0
 40
1.0
 40
2.0
 40
2.0
 40
2.0
 40
3.0
 40
3.0
 40
3.0
 40
4.0
 40
4.0
 40
4.0
 40
4.0
 10
114.2393662908846
 20
-142.3461778072954
 10
114.1911349540911
 20
-142.3461778072954
 10
114.1522053751078
 20
-142.3906195390551
 10
114.1522053751078
 20
-142.4457410668191
 10
114.1522053751078
 20
-142.5027573971
 10
114.1911349540911
 20
-142.5515054982163
 10
114.2431558959184
 20
-142.5515054982163
 10
114.2948323281971
 20
-142.5515054982163
 10
114.3299723021466
 20
-142.5006903398088
 10
114.3299723021466
 20
-142.4478081241103
 10
114.3299723021466
 20
-142.3906195390551
 10
114.2893201754207
 20
-142.3461778072954
 10
114.2393662908846
 20
-142.3461778072954
 97
        0
 97
        1
330
CD
 92
        1
 93
        1
 72
     4
 94
        3
 73
     0
 74
     0
 95
       17
 96
       13
 40
0.0
 40
0.0
 40
0.0
 40
0.0
 40
1.0
 40
1.0
 40
1.0
 40
2.0
 40
2.0
 40
2.0
 40
3.0
 40
3.0
 40
3.0
 40
4.0
 40
4.0
 40
4.0
 40
4.0
 10
114.2410888386272
 20
-142.6762179547823
 10
114.1301567640022
 20
-142.6762179547823
 10
114.0412733004827
 20
-142.5747598927417
 10
114.0412733004827
 20
-142.4478081241103
 10
114.0412733004827
 20
-142.3208563554788
 10
114.1301567640022
 20
-142.2171589813728
 10
114.2410888386272
 20
-142.2171589813728
 10
114.3523654228008
 20
-142.2171589813728
 10
114.4429714340629
 20
-142.3208563554788
 10
114.4429714340629
 20
-142.4478081241103
 10
114.4429714340629
 20
-142.5747598927417
 10
114.3523654228008
 20
-142.6762179547823
 10
114.2410888386272
 20
-142.6762179547823
 97
        0
 97
        1
330
CE
 92
        1
 93
        1
 72
     4
 94
        3
 73
     0
 74
     0
 95
       44
 96
       40
 40
0.0
 40
0.0
 40
0.0
 40
0.0
 40
1.0
 40
1.0
 40
1.0
 40
2.0
 40
2.0
 40
2.0
 40
3.0
 40
3.0
 40
3.0
 40
4.0
 40
4.0
 40
4.0
 40
5.0
 40
5.0
 40
5.0
 40
6.0
 40
6.0
 40
6.0
 40
7.0
 40
7.0
 40
7.0
 40
8.0
 40
8.0
 40
8.0
 40
9.0
 40
9.0
 40
9.0
 40
10.0
 40
10.0
 40
10.0
 40
11.0
 40
11.0
 40
11.0
 40
12.0
 40
12.0
 40
12.0
 40
13.0
 40
13.0
 40
13.0
 40
13.0
 10
114.0578097588119
 20
-142.8751722190555
 10
113.9596245374823
 20
-143.2432806716545
 10
113.9151828057226
 20
-143.4019273187502
 10
113.7429280314601
 20
-143.6515244866565
 10
113.5820420722989
 20
-143.882173629394
 10
113.3746473240869
 20
-144.0682087855975
 10
113.1300455446341
 20
-144.1613986184735
 10
113.1300455446341
 20
-144.1613986184735
 10
112.9615803754054
 20
-143.9815646341435
 10
112.9615803754054
 20
-143.9815646341435
 10
113.5227864299526
 20
-143.8292914136954
 10
113.8114854316166
 20
-143.2729084928276
 10
113.8669514689291
 20
-142.8327975445869
 10
113.8669514689291
 20
-142.8327975445869
 10
113.196880397048
 20
-142.8327975445869
 10
113.196880397048
 20
-142.8327975445869
 10
113.1152316340476
 20
-142.8327975445869
 10
112.9543456748864
 20
-142.8371039139435
 10
112.8172308745734
 20
-142.8560519391123
 10
112.8172308745734
 20
-142.8560519391123
 10
112.8172308745734
 20
-142.6360825923792
 10
112.8172308745734
 20
-142.6360825923792
 10
112.8930229752489
 20
-142.6572699296134
 10
113.1135090863049
 20
-142.6572699296134
 10
113.2006700020818
 20
-142.6572699296134
 10
113.2006700020818
 20
-142.6572699296134
 10
113.5782524672651
 20
-142.6572699296134
 10
113.5782524672651
 20
-142.6572699296134
 10
113.6154594985058
 20
-142.6572699296134
 10
113.8207871894267
 20
-142.655030617548
 10
113.8542046156336
 20
-142.6488294456746
 10
113.8910671373258
 20
-142.6424560190269
 10
113.893134194617
 20
-142.6403889617357
 10
113.9468776841869
 20
-142.6000813445583
 10
113.9468776841869
 20
-142.6000813445583
 10
114.1115532483818
 20
-142.7545938770718
 10
114.1115532483818
 20
-142.7545938770718
 10
114.0857150322424
 20
-142.7842216982449
 10
114.0726236693985
 20
-142.8159165767092
 10
114.0578097588119
 20
-142.8751722190555
 97
        0
 97
        1
330
CF
 75
     2
 76
     1
 98
        1
 10
0.0
 20
0.0
450
        0
451
        0
460
0.0
461
0.0
452
        0
462
0.0
453
        0
470

  0
ENDBLK
  5
BE
330
BB
100
AcDbEntity
  8
0
100
AcDbBlockEnd
  0
ENDSEC
  0
SECTION
  2
ENTITIES
  0
INSERT
  5
7A
330
70
100
AcDbEntity
  8
レイヤー 1
100
AcDbBlockReference
  2
Block_0
 10
0.0
 20
0.0
 30
0.0
  0
LINE
  5
AD
330
70
100
AcDbEntity
  8
レイヤー 1
  6
AI-Linetype-0
 62
   154
420
    23468
370
    25
100
AcDbLine
 10
102.1889419479475
 20
-141.1948058746958
 30
0.0
 11
102.1889419479475
 21
-149.1948058726952
 31
0.0
  0
LINE
  5
AF
330
70
100
AcDbEntity
  8
レイヤー 1
  6
AI-Linetype-1
 62
   154
420
    23468
370
    25
100
AcDbLine
 10
102.8128271105514
 20
-149.6901642829771
 30
0.0
 11
110.8128271085512
 21
-149.6901642829771
 31
0.0
  0
LINE
  5
B1
330
70
100
AcDbEntity
  8
レイヤー 1
 62
   250
420
  2299925
370
     9
100
AcDbLine
 10
102.8197086124298
 20
-143.195332529628
 30
0.0
 11
105.3723687446349
 21
-143.195332529628
 31
0.0
  0
LINE
  5
B2
330
70
100
AcDbEntity
  8
レイヤー 1
 62
   250
420
  2299925
370
     9
100
AcDbLine
 10
102.819708598522
 20
-143.195332529628
 30
0.0
 11
103.7857199627658
 21
-142.9362525296926
 31
0.0
  0
LINE
  5
B3
330
70
100
AcDbEntity
  8
レイヤー 1
 62
   250
420
  2299925
370
     9
100
AcDbLine
 10
102.819708598522
 20
-143.195332529628
 30
0.0
 11
103.7857199627658
 21
-143.4540244740077
 31
0.0
  0
LINE
  5
B4
330
70
100
AcDbEntity
  8
レイヤー 1
 62
   250
420
  2299925
370
     9
100
AcDbLine
 10
108.7129930244724
 20
-149.0899253893541
 30
0.0
 11
108.9717202400933
 21
-148.1239492784845
 31
0.0
  0
LINE
  5
B5
330
70
100
AcDbEntity
  8
レイヤー 1
 62
   250
420
  2299925
370
     9
100
AcDbLine
 10
108.7129930244724
 20
-149.0899253754465
 30
0.0
 11
108.7129930244724
 21
-144.6684330662125
 31
0.0
  0
LINE
  5
B6
330
70
100
AcDbEntity
  8
レイヤー 1
 62
   250
420
  2299925
370
     9
100
AcDbLine
 10
108.7129930244724
 20
-149.0899253893541
 30
0.0
 11
108.4539483088589
 21
-148.1239492784845
 31
0.0
  0
INSERT
  5
B8
330
70
100
AcDbEntity
  8
レイヤー 1
100
AcDbBlockReference
  2
Block_6
 10
0.0
 20
0.0
 30
0.0
  0
LINE
  5
D1
330
70
100
AcDbEntity
  8
レイヤー 1
 62
   250
420
  2299925
370
    25
100
AcDbLine
 10
110.7129932293458
 20
-150.19546037517
 30
0.0
 11
110.7129932293458
 21
-151.195471486031
 31
0.0
  0
LINE
  5
D2
330
70
100
AcDbEntity
  8
レイヤー 1
 62
   250
420
  2299925
370
    25
100
AcDbLine
 10
100.7128220121453
 20
-151.195471486031
 30
0.0
 11
110.7129931710654
 21
-151.195471486031
 31
0.0
  0
LINE
  5
D3
330
70
100
AcDbEntity
  8
レイヤー 1
 62
   250
420
  2299925
370
    25
100
AcDbLine
 10
100.7128220121453
 20
-141.1948059329755
 30
0.0
 11
100.7128220121453
 21
-151.195471486031
 31
0.0
  0
LINE
  5
D4
330
70
100
AcDbEntity
  8
レイヤー 1
 62
   250
420
  2299925
370
    25
100
AcDbLine
 10
100.7128220121453
 20
-141.1948058746958
 30
0.0
 11
101.712833085113
 21
-141.1948058746958
 31
0.0
  0
LINE
  5
D5
330
70
100
AcDbEntity
  8
レイヤー 1
 62
   250
420
  2299925
370
    25
100
AcDbLine
 10
101.7128330712051
 20
-141.1948059329755
 30
0.0
 11
101.7128330712051
 21
-150.19546037517
 31
0.0
  0
LINE
  5
D6
330
70
100
AcDbEntity
  8
レイヤー 1
 62
   250
420
  2299925
370
    25
100
AcDbLine
 10
101.712833085113
 20
-150.1954603890775
 30
0.0
 11
110.7129931710654
 21
-150.1954603890775
 31
0.0
  0
ENDSEC
  0
SECTION
  2
OBJECTS
  0
DICTIONARY
  5
C
330
0
100
AcDbDictionary
281
     1
  3
ACAD_COLOR
350
63
  3
ACAD_DETAILVIEWSTYLE
350
6A
  3
ACAD_GROUP
350
D
  3
ACAD_LAYOUT
350
62
  3
ACAD_MATERIAL
350
10
  3
ACAD_MLEADERSTYLE
350
66
  3
ACAD_MLINESTYLE
350
5F
  3
ACAD_PLOTSETTINGS
350
61
  3
ACAD_PLOTSTYLENAME
350
E
  3
ACAD_SCALELIST
350
42
  3
ACAD_SECTIONVIEWSTYLE
350
68
  3
ACAD_TABLESTYLE
350
64
  3
ACAD_VISUALSTYLE
350
29
  3
ACDB_RECOMPOSE_DATA
350
DF
  3
AcDbVariableDictionary
350
D7
  0
DICTIONARY
  5
63
102
{ACAD_REACTORS
330
C
102
}
330
C
100
AcDbDictionary
281
     1
  0
DICTIONARY
  5
6A
102
{ACAD_REACTORS
330
C
102
}
330
C
100
AcDbDictionary
281
     1
  3
Imperial24
350
6B
  0
DICTIONARY
  5
D
102
{ACAD_REACTORS
330
C
102
}
330
C
100
AcDbDictionary
281
     1
  0
DICTIONARY
  5
62
102
{ACAD_REACTORS
330
C
102
}
330
C
100
AcDbDictionary
281
     1
  3
Layout1
350
6F
  3
Layout2
350
77
  3
Model
350
73
  0
DICTIONARY
  5
10
102
{ACAD_REACTORS
330
C
102
}
330
C
100
AcDbDictionary
281
     1
  3
ByBlock
350
19
  3
ByLayer
350
11
  3
Global
350
21
  0
DICTIONARY
  5
66
102
{ACAD_REACTORS
330
C
102
}
330
C
100
AcDbDictionary
281
     1
  3
Standard
350
67
  0
DICTIONARY
  5
5F
102
{ACAD_REACTORS
330
C
102
}
330
C
100
AcDbDictionary
281
     1
  3
Standard
350
60
  0
DICTIONARY
  5
61
102
{ACAD_REACTORS
330
C
102
}
330
C
100
AcDbDictionary
281
     1
  0
ACDBDICTIONARYWDFLT
  5
E
102
{ACAD_REACTORS
330
C
102
}
330
C
100
AcDbDictionary
281
     1
  3
Normal
350
F
100
AcDbDictionaryWithDefault
340
F
  0
DICTIONARY
  5
42
102
{ACAD_REACTORS
330
C
102
}
330
C
100
AcDbDictionary
281
     1
  3
A0
350
43
  3
A1
350
44
  3
A2
350
45
  3
A3
350
46
  3
A4
350
47
  3
A5
350
48
  3
A6
350
49
  3
A7
350
4A
  3
A8
350
4B
  3
A9
350
4C
  3
B0
350
4D
  3
B1
350
4E
  3
B2
350
4F
  3
B3
350
50
  3
B4
350
51
  3
B5
350
52
  3
B6
350
53
  0
DICTIONARY
  5
68
102
{ACAD_REACTORS
330
C
102
}
330
C
100
AcDbDictionary
281
     1
  3
Imperial24
350
69
  0
DICTIONARY
  5
64
102
{ACAD_REACTORS
330
C
102
}
330
C
100
AcDbDictionary
281
     1
  3
Standard
350
65
  0
DICTIONARY
  5
29
102
{ACAD_REACTORS
330
C
102
}
330
C
100
AcDbDictionary
281
     1
  3
2dWireframe
350
2F
  3
Basic
350
2E
  3
Brighten
350
35
  3
ColorChange
350
39
  3
Conceptual
350
32
  3
Dim
350
34
  3
EdgeColorOff
350
41
  3
Facepattern
350
38
  3
Flat
350
2A
  3
FlatWithEdges
350
2B
  3
Gouraud
350
2C
  3
GouraudWithEdges
350
2D
  3
Hidden
350
31
  3
JitterOff
350
3F
  3
Linepattern
350
37
  3
OverhangOff
350
40
  3
Realistic
350
33
  3
Shaded
350
3E
  3
Shaded with edges
350
3D
  3
Shades of Gray
350
3A
  3
Sketchy
350
3B
  3
Thicken
350
36
  3
Wireframe
350
30
  3
X-Ray
350
3C
  0
XRECORD
  5
DF
102
{ACAD_REACTORS
330
C
102
}
330
C
100
AcDbXrecord
280
     1
 90
        1
330
65
  0
DICTIONARY
  5
D7
102
{ACAD_REACTORS
330
C
102
}
330
C
100
AcDbDictionary
281
     1
  3
CANNOSCALE
350
DC
  3
CMLEADERSTYLE
350
D9
  3
CTABLESTYLE
350
D8
  3
CVIEWDETAILSTYLE
350
DA
  3
CVIEWSECTIONSTYLE
350
DB
  0
ACDBDETAILVIEWSTYLE
  5
6B
102
{ACAD_XDICTIONARY
360
114
102
}
102
{ACAD_REACTORS
330
6A
102
}
330
6A
100
AcDbModelDocViewStyle
 70
     0
  3
Imperial24
290
     0
100
AcDbDetailViewStyle
 70
     0
 71
     0
 90
        3
 71
     1
340
55
 62
   256
 40
0.24
340
0
 62
   256
 40
0.24
300

 40
0.36
280
     3
 71
     2
340
5D
 90
       25
 62
   256
 71
     3
340
55
 62
   256
 40
0.24
 90
        1
 40
0.75
 90
        1
300
%<\AcVar ViewType \f "%tc1">% %<\AcVar ViewDetailId>%\PSCALE %<\AcVar ViewScale \f "%sn">%
 71
     4
340
5D
 90
       25
 62
   256
340
5D
 90
       25
 62
   256
280
     0
  0
LAYOUT
  5
6F
102
{ACAD_REACTORS
330
62
102
}
330
62
100
AcDbPlotSettings
  1

  2

  4

  6

 40
0.0
 41
0.0
 42
0.0
 43
0.0
 44
0.0
 45
0.0
 46
0.0
 47
0.0
 48
0.0
 49
0.0
140
0.0
141
0.0
142
1.0
143
1.0
 70
   688
 72
     0
 73
     0
 74
     5
  7

 75
    16
147
1.0
 76
     0
 77
     2
 78
   300
148
0.0
149
0.0
100
AcDbLayout
  1
Layout1
 70
     1
 71
     1
 10
0.0
 20
0.0
 11
12.0
 21
9.0
 12
0.0
 22
0.0
 32
0.0
 14
0.0
 24
0.0
 34
0.0
 15
0.0
 25
0.0
 35
0.0
146
0.0
 13
0.0
 23
0.0
 33
0.0
 16
1.0
 26
0.0
 36
0.0
 17
0.0
 27
1.0
 37
0.0
 76
     0
330
6C
  0
LAYOUT
  5
77
102
{ACAD_REACTORS
330
62
102
}
330
62
100
AcDbPlotSettings
  1

  2

  4

  6

 40
0.0
 41
0.0
 42
0.0
 43
0.0
 44
0.0
 45
0.0
 46
0.0
 47
0.0
 48
0.0
 49
0.0
140
0.0
141
0.0
142
1.0
143
1.0
 70
   688
 72
     0
 73
     0
 74
     5
  7

 75
    16
147
1.0
 76
     0
 77
     2
 78
   300
148
0.0
149
0.0
100
AcDbLayout
  1
Layout2
 70
     1
 71
     2
 10
0.0
 20
0.0
 11
12.0
 21
9.0
 12
0.0
 22
0.0
 32
0.0
 14
0.0
 24
0.0
 34
0.0
 15
0.0
 25
0.0
 35
0.0
146
0.0
 13
0.0
 23
0.0
 33
0.0
 16
1.0
 26
0.0
 36
0.0
 17
0.0
 27
1.0
 37
0.0
 76
     0
330
74
  0
LAYOUT
  5
73
102
{ACAD_REACTORS
330
62
102
}
330
62
100
AcDbPlotSettings
  1

  2

  4

  6

 40
0.0
 41
0.0
 42
0.0
 43
0.0
 44
0.0
 45
0.0
 46
0.0
 47
0.0
 48
0.0
 49
0.0
140
0.0
141
0.0
142
1.0
143
1.0
 70
  1712
 72
     0
 73
     0
 74
     0
  7

 75
     0
147
1.0
 76
     0
 77
     2
 78
   300
148
0.0
149
0.0
100
AcDbLayout
  1
Model
 70
     1
 71
     0
 10
0.0
 20
0.0
 11
12.0
 21
9.0
 12
0.0
 22
0.0
 32
0.0
 14
0.0
 24
0.0
 34
0.0
 15
0.0
 25
0.0
 35
0.0
146
0.0
 13
0.0
 23
0.0
 33
0.0
 16
1.0
 26
0.0
 36
0.0
 17
0.0
 27
1.0
 37
0.0
 76
     0
330
70
  0
MATERIAL
  5
19
102
{ACAD_XDICTIONARY
360
1A
102
}
102
{ACAD_REACTORS
330
10
102
}
330
10
100
AcDbMaterial
  1
ByBlock
 72
     0
 43
0.0208333333333333
 43
0.0
 43
0.0
 43
0.0
 43
0.0
 43
0.0208333333333333
 43
0.0
 43
0.0
 43
0.0
 43
0.0
 43
1.0
 43
0.0
 43
0.0
 43
0.0
 43
0.0
 43
1.0
 77
     0
 47
0.0208333333333333
 47
0.0
 47
0.0
 47
0.0
 47
0.0
 47
0.0208333333333333
 47
0.0
 47
0.0
 47
0.0
 47
0.0
 47
1.0
 47
0.0
 47
0.0
 47
0.0
 47
0.0
 47
1.0
171
     0
 49
0.0208333333333333
 49
0.0
 49
0.0
 49
0.0
 49
0.0
 49
0.0208333333333333
 49
0.0
 49
0.0
 49
0.0
 49
0.0
 49
1.0
 49
0.0
 49
0.0
 49
0.0
 49
0.0
 49
1.0
175
     0
142
0.0208333333333333
142
0.0
142
0.0
142
0.0
142
0.0
142
0.0208333333333333
142
0.0
142
0.0
142
0.0
142
0.0
142
1.0
142
0.0
142
0.0
142
0.0
142
0.0
142
1.0
179
     0
144
0.0208333333333333
144
0.0
144
0.0
144
0.0
144
0.0
144
0.0208333333333333
144
0.0
144
0.0
144
0.0
144
0.0
144
1.0
144
0.0
144
0.0
144
0.0
144
0.0
144
1.0
147
0.0208333333333333
147
0.0
147
0.0
147
0.0
147
0.0
147
0.0208333333333333
147
0.0
147
0.0
147
0.0
147
0.0
147
1.0
147
0.0
147
0.0
147
0.0
147
0.0
147
1.0
  0
MATERIAL
  5
11
102
{ACAD_XDICTIONARY
360
12
102
}
102
{ACAD_REACTORS
330
10
102
}
330
10
100
AcDbMaterial
  1
ByLayer
 72
     0
 43
0.0208333333333333
 43
0.0
 43
0.0
 43
0.0
 43
0.0
 43
0.0208333333333333
 43
0.0
 43
0.0
 43
0.0
 43
0.0
 43
1.0
 43
0.0
 43
0.0
 43
0.0
 43
0.0
 43
1.0
 77
     0
 47
0.0208333333333333
 47
0.0
 47
0.0
 47
0.0
 47
0.0
 47
0.0208333333333333
 47
0.0
 47
0.0
 47
0.0
 47
0.0
 47
1.0
 47
0.0
 47
0.0
 47
0.0
 47
0.0
 47
1.0
171
     0
 49
0.0208333333333333
 49
0.0
 49
0.0
 49
0.0
 49
0.0
 49
0.0208333333333333
 49
0.0
 49
0.0
 49
0.0
 49
0.0
 49
1.0
 49
0.0
 49
0.0
 49
0.0
 49
0.0
 49
1.0
175
     0
142
0.0208333333333333
142
0.0
142
0.0
142
0.0
142
0.0
142
0.0208333333333333
142
0.0
142
0.0
142
0.0
142
0.0
142
1.0
142
0.0
142
0.0
142
0.0
142
0.0
142
1.0
179
     0
144
0.0208333333333333
144
0.0
144
0.0
144
0.0
144
0.0
144
0.0208333333333333
144
0.0
144
0.0
144
0.0
144
0.0
144
1.0
144
0.0
144
0.0
144
0.0
144
0.0
144
1.0
147
0.0208333333333333
147
0.0
147
0.0
147
0.0
147
0.0
147
0.0208333333333333
147
0.0
147
0.0
147
0.0
147
0.0
147
1.0
147
0.0
147
0.0
147
0.0
147
0.0
147
1.0
  0
MATERIAL
  5
21
102
{ACAD_XDICTIONARY
360
22
102
}
102
{ACAD_REACTORS
330
10
102
}
330
10
100
AcDbMaterial
  1
Global
 72
     0
 43
0.0208333333333333
 43
0.0
 43
0.0
 43
0.0
 43
0.0
 43
0.0208333333333333
 43
0.0
 43
0.0
 43
0.0
 43
0.0
 43
1.0
 43
0.0
 43
0.0
 43
0.0
 43
0.0
 43
1.0
 77
     0
 47
0.0208333333333333
 47
0.0
 47
0.0
 47
0.0
 47
0.0
 47
0.0208333333333333
 47
0.0
 47
0.0
 47
0.0
 47
0.0
 47
1.0
 47
0.0
 47
0.0
 47
0.0
 47
0.0
 47
1.0
171
     0
 49
0.0208333333333333
 49
0.0
 49
0.0
 49
0.0
 49
0.0
 49
0.0208333333333333
 49
0.0
 49
0.0
 49
0.0
 49
0.0
 49
1.0
 49
0.0
 49
0.0
 49
0.0
 49
0.0
 49
1.0
175
     0
142
0.0208333333333333
142
0.0
142
0.0
142
0.0
142
0.0
142
0.0208333333333333
142
0.0
142
0.0
142
0.0
142
0.0
142
1.0
142
0.0
142
0.0
142
0.0
142
0.0
142
1.0
179
     0
144
0.0208333333333333
144
0.0
144
0.0
144
0.0
144
0.0
144
0.0208333333333333
144
0.0
144
0.0
144
0.0
144
0.0
144
1.0
144
0.0
144
0.0
144
0.0
144
0.0
144
1.0
147
0.0208333333333333
147
0.0
147
0.0
147
0.0
147
0.0
147
0.0208333333333333
147
0.0
147
0.0
147
0.0
147
0.0
147
1.0
147
0.0
147
0.0
147
0.0
147
0.0
147
1.0
  0
MLEADERSTYLE
  5
67
102
{ACAD_XDICTIONARY
360
110
102
}
102
{ACAD_REACTORS
330
66
102
}
330
66
100
AcDbMLeaderStyle
179
     2
170
     2
171
     1
172
     0
 90
        2
 40
0.0
 41
0.0
173
     1
 91
-1056964608
340
5B
 92
       -2
290
     1
 42
0.09
291
     1
 43
0.36
  3
Standard
 44
0.18
300

342
55
174
     1
178
     6
175
     1
176
     0
 93
-1056964608
 45
0.18
292
     0
297
     0
 46
0.18
 94
-1056964608
 47
1.0
 49
1.0
140
1.0
293
     1
141
0.0
294
     1
177
     0
142
1.0
295
     0
296
     0
143
0.125
271
     0
272
     9
273
     9
  0
MLINESTYLE
  5
60
102
{ACAD_REACTORS
330
5F
102
}
330
5F
100
AcDbMlineStyle
  2
STANDARD
 70
     0
  3

 62
   256
 51
90.0
 52
90.0
 71
     2
 49
0.5
 62
   256
  6
BYLAYER
 49
-0.5
 62
   256
  6
BYLAYER
  0
ACDBPLACEHOLDER
  5
F
102
{ACAD_REACTORS
330
E
102
}
330
E
  0
SCALE
  5
43
102
{ACAD_REACTORS
330
42
102
}
330
42
100
AcDbScale
 70
     0
300
1:1
140
1.0
141
1.0
290
     1
  0
SCALE
  5
44
102
{ACAD_REACTORS
330
42
102
}
330
42
100
AcDbScale
 70
     0
300
1/128" = 1'-0"
140
0.0078125
141
12.0
290
     0
  0
SCALE
  5
45
102
{ACAD_REACTORS
330
42
102
}
330
42
100
AcDbScale
 70
     0
300
1/64" = 1'-0"
140
0.015625
141
12.0
290
     0
  0
SCALE
  5
46
102
{ACAD_REACTORS
330
42
102
}
330
42
100
AcDbScale
 70
     0
300
1/32" = 1'-0"
140
0.03125
141
12.0
290
     0
  0
SCALE
  5
47
102
{ACAD_REACTORS
330
42
102
}
330
42
100
AcDbScale
 70
     0
300
1/16" = 1'-0"
140
0.0625
141
12.0
290
     0
  0
SCALE
  5
48
102
{ACAD_REACTORS
330
42
102
}
330
42
100
AcDbScale
 70
     0
300
3/32" = 1'-0"
140
0.09375
141
12.0
290
     0
  0
SCALE
  5
49
102
{ACAD_REACTORS
330
42
102
}
330
42
100
AcDbScale
 70
     0
300
1/8" = 1'-0"
140
0.125
141
12.0
290
     0
  0
SCALE
  5
4A
102
{ACAD_REACTORS
330
42
102
}
330
42
100
AcDbScale
 70
     0
300
3/16" = 1'-0"
140
0.1875
141
12.0
290
     0
  0
SCALE
  5
4B
102
{ACAD_REACTORS
330
42
102
}
330
42
100
AcDbScale
 70
     0
300
1/4" = 1'-0"
140
0.25
141
12.0
290
     0
  0
SCALE
  5
4C
102
{ACAD_REACTORS
330
42
102
}
330
42
100
AcDbScale
 70
     0
300
3/8" = 1'-0"
140
0.375
141
12.0
290
     0
  0
SCALE
  5
4D
102
{ACAD_REACTORS
330
42
102
}
330
42
100
AcDbScale
 70
     0
300
1/2" = 1'-0"
140
0.5
141
12.0
290
     0
  0
SCALE
  5
4E
102
{ACAD_REACTORS
330
42
102
}
330
42
100
AcDbScale
 70
     0
300
3/4" = 1'-0"
140
0.75
141
12.0
290
     0
  0
SCALE
  5
4F
102
{ACAD_REACTORS
330
42
102
}
330
42
100
AcDbScale
 70
     0
300
1" = 1'-0"
140
1.0
141
12.0
290
     0
  0
SCALE
  5
50
102
{ACAD_REACTORS
330
42
102
}
330
42
100
AcDbScale
 70
     0
300
1-1/2" = 1'-0"
140
1.5
141
12.0
290
     0
  0
SCALE
  5
51
102
{ACAD_REACTORS
330
42
102
}
330
42
100
AcDbScale
 70
     0
300
3" = 1'-0"
140
3.0
141
12.0
290
     0
  0
SCALE
  5
52
102
{ACAD_REACTORS
330
42
102
}
330
42
100
AcDbScale
 70
     0
300
6" = 1'-0"
140
6.0
141
12.0
290
     0
  0
SCALE
  5
53
102
{ACAD_REACTORS
330
42
102
}
330
42
100
AcDbScale
 70
     0
300
1'-0" = 1'-0"
140
12.0
141
12.0
290
     0
  0
ACDBSECTIONVIEWSTYLE
  5
69
102
{ACAD_XDICTIONARY
360
112
102
}
102
{ACAD_REACTORS
330
68
102
}
330
68
100
AcDbModelDocViewStyle
 70
     0
  3
Imperial24
290
     0
100
AcDbSectionViewStyle
 70
     0
 71
     0
 90
       78
 71
     1
340
55
 62
   256
 40
0.24
340
0
340
0
 62
   256
 40
0.24
300
I, O, Q, S, X, Z
 40
0.48
 90
        3
 40
0.18
 90
        1
 71
     2
340
5D
 90
       25
 62
   256
340
5D
 90
       50
 62
   256
 40
0.24
 40
0.0
 40
0.24
 71
     3
340
55
 62
   256
 40
0.24
 90
        1
 40
0.75
 90
        1
300
%<\AcVar ViewType \f "%tc1">% %<\AcVar ViewSectionStartId>%-%<\AcVar ViewSectionEndId>%\PSCALE %<\AcVar ViewScale \f "%sn">%
 71
     4
 62
   256
 62
   257
300
ANSI31
 40
1.0
 90
        0
290
     0
290
     0
 90
        6
 40
0.0
 40
1.570796326794896
 40
0.2617993877991494
 40
1.308996938995747
 40
-0.2617993877991494
 40
1.832595714594046
  0
TABLESTYLE
  5
65
102
{ACAD_XDICTIONARY
360
DD
102
}
102
{ACAD_REACTORS
330
64
102
}
330
64
100
AcDbTableStyle
280
     0
  3
Standard
 70
     0
 71
     0
 40
0.06
 41
0.06
280
     0
281
     0
  7
Standard
140
0.18
170
     2
 62
     0
 63
     7
283
     0
 90
      512
 91
        0
  1

274
    -2
284
     1
 64
     0
275
    -2
285
     1
 65
     0
276
    -2
286
     1
 66
     0
277
    -2
287
     1
 67
     0
278
    -2
288
     1
 68
     0
279
    -2
289
     1
 69
     0
  7
Standard
140
0.25
170
     5
 62
     0
 63
     7
283
     0
 90
      512
 91
        0
  1

274
    -2
284
     1
 64
     0
275
    -2
285
     1
 65
     0
276
    -2
286
     1
 66
     0
277
    -2
287
     1
 67
     0
278
    -2
288
     1
 68
     0
279
    -2
289
     1
 69
     0
  7
Standard
140
0.18
170
     5
 62
     0
 63
     7
283
     0
 90
      512
 91
        0
  1

274
    -2
284
     1
 64
     0
275
    -2
285
     1
 65
     0
276
    -2
286
     1
 66
     0
277
    -2
287
     1
 67
     0
278
    -2
288
     1
 68
     0
279
    -2
289
     1
 69
     0
  0
VISUALSTYLE
  5
2F
102
{ACAD_XDICTIONARY
360
EA
102
}
102
{ACAD_REACTORS
330
29
102
}
330
29
100
AcDbVisualStyle
  2
2dWireframe
 70
     4
177
     2
291
     0
 71
     0
176
     1
 72
     2
176
     1
 73
     0
176
     1
 90
        0
176
     1
 40
0.6
176
     1
 41
30.0
176
     1
 63
     7
421
 16777215
176
     1
 74
     1
176
     1
 91
        4
176
     1
 64
     7
176
     1
 65
   257
176
     1
 75
     1
176
     1
175
     1
176
     1
 42
1.0
176
     1
 92
        0
176
     1
 66
   257
176
     1
 43
1.0
176
     1
 76
     1
176
     1
 77
     6
176
     1
 78
     2
176
     1
 67
     7
176
     1
 79
     5
176
     1
170
     0
176
     1
171
     0
176
     1
290
     0
176
     1
 93
        1
176
     1
 44
0.0
176
     1
173
     0
176
     1
1001
ACAD
1000
AcDbSavedByObjectVersion
1070
     0
  0
VISUALSTYLE
  5
2E
102
{ACAD_XDICTIONARY
360
E8
102
}
102
{ACAD_REACTORS
330
29
102
}
330
29
100
AcDbVisualStyle
  2
Basic
 70
     7
177
     2
291
     1
 71
     1
176
     1
 72
     0
176
     1
 73
     1
176
     1
 90
        0
176
     1
 40
0.6
176
     1
 41
30.0
176
     1
 63
     7
421
 16777215
176
     1
 74
     0
176
     1
 91
        4
176
     1
 64
     7
176
     1
 65
   257
176
     1
 75
     1
176
     1
175
     1
176
     1
 42
1.0
176
     1
 92
        8
176
     1
 66
     7
176
     1
 43
1.0
176
     1
 76
     1
176
     1
 77
     6
176
     1
 78
     2
176
     1
 67
     7
176
     1
 79
     5
176
     1
170
     0
176
     1
171
     0
176
     1
290
     0
176
     1
 93
        1
176
     1
 44
0.0
176
     1
173
     0
176
     1
1001
ACAD
1000
AcDbSavedByObjectVersion
1070
     0
  0
VISUALSTYLE
  5
35
102
{ACAD_XDICTIONARY
360
F6
102
}
102
{ACAD_REACTORS
330
29
102
}
330
29
100
AcDbVisualStyle
  2
Brighten
 70
    12
177
     2
291
     1
 71
     2
176
     1
 72
     2
176
     1
 73
     0
176
     1
 90
        0
176
     1
 40
0.6
176
     1
 41
30.0
176
     1
 63
     7
421
 16777215
176
     1
 74
     1
176
     1
 91
        4
176
     1
 64
     7
176
     1
 65
   257
176
     1
 75
     1
176
     1
175
     1
176
     1
 42
1.0
176
     1
 92
        8
176
     1
 66
     7
176
     1
 43
1.0
176
     1
 76
     1
176
     1
 77
     6
176
     1
 78
     2
176
     1
 67
     7
176
     1
 79
     5
176
     1
170
     0
176
     1
171
     0
176
     1
290
     0
176
     1
 93
        1
176
     1
 44
50.0
176
     1
173
     0
176
     1
1001
ACAD
1000
AcDbSavedByObjectVersion
1070
     0
  0
VISUALSTYLE
  5
39
102
{ACAD_XDICTIONARY
360
FE
102
}
102
{ACAD_REACTORS
330
29
102
}
330
29
100
AcDbVisualStyle
  2
ColorChange
 70
    16
177
     2
291
     1
 71
     2
176
     1
 72
     2
176
     1
 73
     3
176
     1
 90
        0
176
     1
 40
0.6
176
     1
 41
30.0
176
     1
 63
     8
421
  8421504
176
     1
 74
     1
176
     1
 91
        4
176
     1
 64
     7
176
     1
 65
   257
176
     1
 75
     1
176
     1
175
     1
176
     1
 42
1.0
176
     1
 92
        8
176
     1
 66
     8
424
  8421504
176
     1
 43
1.0
176
     1
 76
     1
176
     1
 77
     6
176
     1
 78
     2
176
     1
 67
     7
176
     1
 79
     5
176
     1
170
     0
176
     1
171
     0
176
     1
290
     0
176
     1
 93
        1
176
     1
 44
0.0
176
     1
173
     0
176
     1
1001
ACAD
1000
AcDbSavedByObjectVersion
1070
     0
  0
VISUALSTYLE
  5
32
102
{ACAD_XDICTIONARY
360
F0
102
}
102
{ACAD_REACTORS
330
29
102
}
330
29
100
AcDbVisualStyle
  2
Conceptual
 70
     9
177
     2
291
     0
 71
     3
176
     1
 72
     2
176
     1
 73
     0
176
     1
 90
        0
176
     1
 40
0.6
176
     1
 41
30.0
176
     1
 63
     7
421
 16777215
176
     1
 74
     2
176
     1
 91
        2
176
     1
 64
     7
176
     1
 65
   257
176
     1
 75
     1
176
     1
175
     1
176
     1
 42
179.0
176
     1
 92
        8
176
     1
 66
     7
176
     1
 43
1.0
176
     1
 76
     1
176
     1
 77
     6
176
     1
 78
     2
176
     1
 67
     7
176
     1
 79
     3
176
     1
170
     0
176
     1
171
     0
176
     1
290
     0
176
     1
 93
        1
176
     1
 44
0.0
176
     1
173
     0
176
     1
1001
ACAD
1000
AcDbSavedByObjectVersion
1070
     0
  0
VISUALSTYLE
  5
34
102
{ACAD_XDICTIONARY
360
F4
102
}
102
{ACAD_REACTORS
330
29
102
}
330
29
100
AcDbVisualStyle
  2
Dim
 70
    11
177
     2
291
     1
 71
     2
176
     1
 72
     2
176
     1
 73
     0
176
     1
 90
        0
176
     1
 40
0.6
176
     1
 41
30.0
176
     1
 63
     7
421
 16777215
176
     1
 74
     1
176
     1
 91
        4
176
     1
 64
     7
176
     1
 65
   257
176
     1
 75
     1
176
     1
175
     1
176
     1
 42
1.0
176
     1
 92
        8
176
     1
 66
     7
176
     1
 43
1.0
176
     1
 76
     1
176
     1
 77
     6
176
     1
 78
     2
176
     1
 67
     7
176
     1
 79
     5
176
     1
170
     0
176
     1
171
     0
176
     1
290
     0
176
     1
 93
        1
176
     1
 44
-50.0
176
     1
173
     0
176
     1
1001
ACAD
1000
AcDbSavedByObjectVersion
1070
     0
  0
VISUALSTYLE
  5
41
102
{ACAD_XDICTIONARY
360
10E
102
}
102
{ACAD_REACTORS
330
29
102
}
330
29
100
AcDbVisualStyle
  2
EdgeColorOff
 70
    22
177
     2
291
     1
 71
     2
176
     0
 72
     2
176
     0
 73
     0
176
     0
 90
        0
176
     0
 40
0.6
176
     0
 41
30.0
176
     0
 63
     7
421
 16777215
176
     0
 74
     1
176
     0
 91
        4
176
     0
 64
     7
176
     0
 65
   257
176
     0
 75
     1
176
     0
175
     1
176
     0
 42
1.0
176
     0
 92
        8
176
     2
 66
     7
176
     0
 43
1.0
176
     0
 76
     1
176
     0
 77
     6
176
     0
 78
     2
176
     0
 67
     7
176
     0
 79
     5
176
     0
170
     0
176
     0
171
     0
176
     0
290
     0
176
     0
 93
        1
176
     0
 44
0.0
176
     0
173
     0
176
     0
1001
ACAD
1000
AcDbSavedByObjectVersion
1070
     0
  0
VISUALSTYLE
  5
38
102
{ACAD_XDICTIONARY
360
FC
102
}
102
{ACAD_REACTORS
330
29
102
}
330
29
100
AcDbVisualStyle
  2
Facepattern
 70
    15
177
     2
291
     1
 71
     2
176
     1
 72
     2
176
     1
 73
     0
176
     1
 90
        0
176
     1
 40
0.6
176
     1
 41
30.0
176
     1
 63
     7
421
 16777215
176
     1
 74
     1
176
     1
 91
        4
176
     1
 64
     7
176
     1
 65
   257
176
     1
 75
     1
176
     1
175
     1
176
     1
 42
1.0
176
     1
 92
        8
176
     1
 66
     7
176
     1
 43
1.0
176
     1
 76
     1
176
     1
 77
     6
176
     1
 78
     2
176
     1
 67
     7
176
     1
 79
     5
176
     1
170
     0
176
     1
171
     0
176
     1
290
     0
176
     1
 93
        1
176
     1
 44
0.0
176
     1
173
     0
176
     1
1001
ACAD
1000
AcDbSavedByObjectVersion
1070
     0
  0
VISUALSTYLE
  5
2A
102
{ACAD_XDICTIONARY
360
E0
102
}
102
{ACAD_REACTORS
330
29
102
}
330
29
100
AcDbVisualStyle
  2
Flat
 70
     0
177
     2
291
     1
 71
     2
176
     1
 72
     1
176
     1
 73
     1
176
     1
 90
        2
176
     1
 40
0.6
176
     1
 41
30.0
176
     1
 63
     7
421
 16777215
176
     1
 74
     0
176
     1
 91
        0
176
     1
 64
     7
176
     1
 65
   257
176
     1
 75
     1
176
     1
175
     1
176
     1
 42
1.0
176
     1
 92
        8
176
     1
 66
     7
176
     1
 43
1.0
176
     1
 76
     1
176
     1
 77
     6
176
     1
 78
     2
176
     1
 67
     7
176
     1
 79
     5
176
     1
170
     0
176
     1
171
     0
176
     1
290
     0
176
     1
 93
       13
176
     1
 44
0.0
176
     1
173
     0
176
     1
1001
ACAD
1000
AcDbSavedByObjectVersion
1070
     0
  0
VISUALSTYLE
  5
2B
102
{ACAD_XDICTIONARY
360
E2
102
}
102
{ACAD_REACTORS
330
29
102
}
330
29
100
AcDbVisualStyle
  2
FlatWithEdges
 70
     1
177
     2
291
     1
 71
     2
176
     1
 72
     1
176
     1
 73
     1
176
     1
 90
        2
176
     1
 40
0.6
176
     1
 41
30.0
176
     1
 63
     7
421
 16777215
176
     1
 74
     1
176
     1
 91
        0
176
     1
 64
     7
176
     1
 65
   257
176
     1
 75
     1
176
     1
175
     1
176
     1
 42
1.0
176
     1
 92
        0
176
     1
 66
   257
176
     1
 43
1.0
176
     1
 76
     1
176
     1
 77
     6
176
     1
 78
     2
176
     1
 67
     7
176
     1
 79
     5
176
     1
170
     0
176
     1
171
     0
176
     1
290
     0
176
     1
 93
       13
176
     1
 44
0.0
176
     1
173
     0
176
     1
1001
ACAD
1000
AcDbSavedByObjectVersion
1070
     0
  0
VISUALSTYLE
  5
2C
102
{ACAD_XDICTIONARY
360
E4
102
}
102
{ACAD_REACTORS
330
29
102
}
330
29
100
AcDbVisualStyle
  2
Gouraud
 70
     2
177
     2
291
     1
 71
     2
176
     1
 72
     2
176
     1
 73
     1
176
     1
 90
        2
176
     1
 40
0.6
176
     1
 41
30.0
176
     1
 63
     7
421
 16777215
176
     1
 74
     0
176
     1
 91
        0
176
     1
 64
     7
176
     1
 65
   257
176
     1
 75
     1
176
     1
175
     1
176
     1
 42
1.0
176
     1
 92
        0
176
     1
 66
     7
176
     1
 43
1.0
176
     1
 76
     1
176
     1
 77
     6
176
     1
 78
     2
176
     1
 67
     7
176
     1
 79
     5
176
     1
170
     0
176
     1
171
     0
176
     1
290
     0
176
     1
 93
       13
176
     1
 44
0.0
176
     1
173
     0
176
     1
1001
ACAD
1000
AcDbSavedByObjectVersion
1070
     0
  0
VISUALSTYLE
  5
2D
102
{ACAD_XDICTIONARY
360
E6
102
}
102
{ACAD_REACTORS
330
29
102
}
330
29
100
AcDbVisualStyle
  2
GouraudWithEdges
 70
     3
177
     2
291
     1
 71
     2
176
     1
 72
     2
176
     1
 73
     1
176
     1
 90
        2
176
     1
 40
0.6
176
     1
 41
30.0
176
     1
 63
     7
421
 16777215
176
     1
 74
     1
176
     1
 91
        0
176
     1
 64
     7
176
     1
 65
   257
176
     1
 75
     1
176
     1
175
     1
176
     1
 42
1.0
176
     1
 92
        0
176
     1
 66
   257
176
     1
 43
1.0
176
     1
 76
     1
176
     1
 77
     6
176
     1
 78
     2
176
     1
 67
     7
176
     1
 79
     5
176
     1
170
     0
176
     1
171
     0
176
     1
290
     0
176
     1
 93
       13
176
     1
 44
0.0
176
     1
173
     0
176
     1
1001
ACAD
1000
AcDbSavedByObjectVersion
1070
     0
  0
VISUALSTYLE
  5
31
102
{ACAD_XDICTIONARY
360
EE
102
}
102
{ACAD_REACTORS
330
29
102
}
330
29
100
AcDbVisualStyle
  2
Hidden
 70
     6
177
     2
291
     0
 71
     1
176
     1
 72
     2
176
     1
 73
     2
176
     1
 90
        0
176
     1
 40
0.6
176
     1
 41
30.0
176
     1
 63
     7
421
 16777215
176
     1
 74
     2
176
     1
 91
        2
176
     1
 64
     7
176
     1
 65
   257
176
     1
 75
     2
176
     1
175
     1
176
     1
 42
40.0
176
     1
 92
        0
176
     1
 66
   257
176
     1
 43
1.0
176
     1
 76
     1
176
     1
 77
     6
176
     1
 78
     2
176
     1
 67
     7
176
     1
 79
     3
176
     1
170
     0
176
     1
171
     0
176
     1
290
     0
176
     1
 93
        1
176
     1
 44
0.0
176
     1
173
     0
176
     1
1001
ACAD
1000
AcDbSavedByObjectVersion
1070
     0
  0
VISUALSTYLE
  5
3F
102
{ACAD_XDICTIONARY
360
10A
102
}
102
{ACAD_REACTORS
330
29
102
}
330
29
100
AcDbVisualStyle
  2
JitterOff
 70
    20
177
     2
291
     1
 71
     2
176
     0
 72
     2
176
     0
 73
     0
176
     0
 90
        0
176
     0
 40
0.6
176
     0
 41
30.0
176
     0
 63
     7
421
 16777215
176
     0
 74
     1
176
     0
 91
        4
176
     0
 64
     7
176
     0
 65
   257
176
     0
 75
     1
176
     0
175
     1
176
     0
 42
1.0
176
     0
 92
       10
176
     2
 66
     7
176
     0
 43
1.0
176
     0
 76
     1
176
     0
 77
     6
176
     0
 78
     2
176
     0
 67
     7
176
     0
 79
     5
176
     0
170
     0
176
     0
171
     0
176
     0
290
     0
176
     0
 93
        1
176
     0
 44
0.0
176
     0
173
     0
176
     0
1001
ACAD
1000
AcDbSavedByObjectVersion
1070
     0
  0
VISUALSTYLE
  5
37
102
{ACAD_XDICTIONARY
360
FA
102
}
102
{ACAD_REACTORS
330
29
102
}
330
29
100
AcDbVisualStyle
  2
Linepattern
 70
    14
177
     2
291
     1
 71
     2
176
     1
 72
     2
176
     1
 73
     0
176
     1
 90
        0
176
     1
 40
0.6
176
     1
 41
30.0
176
     1
 63
     7
421
 16777215
176
     1
 74
     1
176
     1
 91
        4
176
     1
 64
     7
176
     1
 65
   257
176
     1
 75
     7
176
     1
175
     7
176
     1
 42
1.0
176
     1
 92
        8
176
     1
 66
     7
176
     1
 43
1.0
176
     1
 76
     1
176
     1
 77
     6
176
     1
 78
     2
176
     1
 67
     7
176
     1
 79
     5
176
     1
170
     0
176
     1
171
     0
176
     1
290
     0
176
     1
 93
        1
176
     1
 44
0.0
176
     1
173
     0
176
     1
1001
ACAD
1000
AcDbSavedByObjectVersion
1070
     0
  0
VISUALSTYLE
  5
40
102
{ACAD_XDICTIONARY
360
10C
102
}
102
{ACAD_REACTORS
330
29
102
}
330
29
100
AcDbVisualStyle
  2
OverhangOff
 70
    21
177
     2
291
     1
 71
     2
176
     0
 72
     2
176
     0
 73
     0
176
     0
 90
        0
176
     0
 40
0.6
176
     0
 41
30.0
176
     0
 63
     7
421
 16777215
176
     0
 74
     1
176
     0
 91
        4
176
     0
 64
     7
176
     0
 65
   257
176
     0
 75
     1
176
     0
175
     1
176
     0
 42
1.0
176
     0
 92
        9
176
     2
 66
     7
176
     0
 43
1.0
176
     0
 76
     1
176
     0
 77
     6
176
     0
 78
     2
176
     0
 67
     7
176
     0
 79
     5
176
     0
170
     0
176
     0
171
     0
176
     0
290
     0
176
     0
 93
        1
176
     0
 44
0.0
176
     0
173
     0
176
     0
1001
ACAD
1000
AcDbSavedByObjectVersion
1070
     0
  0
VISUALSTYLE
  5
33
102
{ACAD_XDICTIONARY
360
F2
102
}
102
{ACAD_REACTORS
330
29
102
}
330
29
100
AcDbVisualStyle
  2
Realistic
 70
     8
177
     2
291
     0
 71
     2
176
     1
 72
     3
176
     1
 73
     0
176
     1
 90
        2
176
     1
 40
0.6
176
     1
 41
30.0
176
     1
 63
     7
421
 16777215
176
     1
 74
     0
176
     1
 91
        0
176
     1
 64
     7
176
     1
 65
   257
176
     1
 75
     1
176
     1
175
     1
176
     1
 42
1.0
176
     1
 92
        8
176
     1
 66
   257
176
     1
 43
1.0
176
     1
 76
     1
176
     1
 77
     6
176
     1
 78
     2
176
     1
 67
     7
176
     1
 79
     3
176
     1
170
     0
176
     1
171
     0
176
     1
290
     0
176
     1
 93
       13
176
     1
 44
0.0
176
     1
173
     0
176
     1
1001
ACAD
1000
AcDbSavedByObjectVersion
1070
     0
  0
VISUALSTYLE
  5
3E
102
{ACAD_XDICTIONARY
360
108
102
}
102
{ACAD_REACTORS
330
29
102
}
330
29
100
AcDbVisualStyle
  2
Shaded
 70
    27
177
     2
291
     0
 71
     2
176
     1
 72
     2
176
     1
 73
     1
176
     1
 90
        2
176
     1
 40
0.6
176
     1
 41
30.0
176
     1
 63
     7
421
 16777215
176
     1
 74
     0
176
     1
 91
        4
176
     1
 64
     7
176
     1
 65
   257
176
     1
 75
     1
176
     1
175
     1
176
     1
 42
1.0
176
     1
 92
        8
176
     1
 66
   257
176
     1
 43
1.0
176
     1
 76
     1
176
     1
 77
     6
176
     1
 78
     2
176
     1
 67
     8
425
  7895160
176
     1
 79
     3
176
     1
170
     0
176
     1
171
     0
176
     1
290
     0
176
     1
 93
        5
176
     1
 44
0.0
176
     1
173
     0
176
     1
1001
ACAD
1000
AcDbSavedByObjectVersion
1070
     0
  0
VISUALSTYLE
  5
3D
102
{ACAD_XDICTIONARY
360
106
102
}
102
{ACAD_REACTORS
330
29
102
}
330
29
100
AcDbVisualStyle
  2
Shaded with edges
 70
    26
177
     2
291
     0
 71
     2
176
     1
 72
     2
176
     1
 73
     1
176
     1
 90
        2
176
     1
 40
0.6
176
     1
 41
30.0
176
     1
 63
     7
421
 16777215
176
     1
 74
     1
176
     1
 91
        2
176
     1
 64
     7
176
     1
 65
   257
176
     1
 75
     2
176
     1
175
     1
176
     1
 42
1.0
176
     1
 92
        8
176
     1
 66
   257
176
     1
 43
1.0
176
     1
 76
     1
176
     1
 77
     6
176
     1
 78
     2
176
     1
 67
     7
176
     1
 79
     3
176
     1
170
     0
176
     1
171
     0
176
     1
290
     0
176
     1
 93
        5
176
     1
 44
0.0
176
     1
173
     0
176
     1
1001
ACAD
1000
AcDbSavedByObjectVersion
1070
     0
  0
VISUALSTYLE
  5
3A
102
{ACAD_XDICTIONARY
360
100
102
}
102
{ACAD_REACTORS
330
29
102
}
330
29
100
AcDbVisualStyle
  2
Shades of Gray
 70
    23
177
     2
291
     0
 71
     2
176
     1
 72
     2
176
     1
 73
     3
176
     1
 90
        0
176
     1
 40
0.6
176
     1
 41
30.0
176
     1
 63
     7
421
 16777215
176
     1
 74
     2
176
     1
 91
        2
176
     1
 64
     7
176
     1
 65
     7
176
     1
 75
     1
176
     1
175
     1
176
     1
 42
40.0
176
     1
 92
        8
176
     1
 66
     7
176
     1
 43
1.0
176
     1
 76
     1
176
     1
 77
     6
176
     1
 78
     2
176
     1
 67
     7
176
     1
 79
     3
176
     1
170
     0
176
     1
171
     0
176
     1
290
     0
176
     1
 93
        1
176
     1
 44
0.0
176
     1
173
     0
176
     1
1001
ACAD
1000
AcDbSavedByObjectVersion
1070
     0
  0
VISUALSTYLE
  5
3B
102
{ACAD_XDICTIONARY
360
102
102
}
102
{ACAD_REACTORS
330
29
102
}
330
29
100
AcDbVisualStyle
  2
Sketchy
 70
    24
177
     2
291
     0
 71
     1
176
     1
 72
     2
176
     1
 73
     2
176
     1
 90
        0
176
     1
 40
0.6
176
     1
 41
30.0
176
     1
 63
     7
421
 16777215
176
     1
 74
     2
176
     1
 91
        2
176
     1
 64
     7
176
     1
 65
     7
176
     1
 75
     1
176
     1
175
     1
176
     1
 42
40.0
176
     1
 92
       11
176
     1
 66
     7
176
     1
 43
1.0
176
     1
 76
     1
176
     1
 77
     6
176
     1
 78
     2
176
     1
 67
     7
176
     1
 79
     6
176
     1
170
     0
176
     1
171
     0
176
     1
290
     0
176
     1
 93
        1
176
     1
 44
0.0
176
     1
173
     0
176
     1
1001
ACAD
1000
AcDbSavedByObjectVersion
1070
     0
  0
VISUALSTYLE
  5
36
102
{ACAD_XDICTIONARY
360
F8
102
}
102
{ACAD_REACTORS
330
29
102
}
330
29
100
AcDbVisualStyle
  2
Thicken
 70
    13
177
     2
291
     1
 71
     2
176
     1
 72
     2
176
     1
 73
     0
176
     1
 90
        0
176
     1
 40
0.6
176
     1
 41
30.0
176
     1
 63
     7
421
 16777215
176
     1
 74
     1
176
     1
 91
        4
176
     1
 64
     7
176
     1
 65
   257
176
     1
 75
     1
176
     1
175
     1
176
     1
 42
1.0
176
     1
 92
       12
176
     1
 66
     7
176
     1
 43
1.0
176
     1
 76
     1
176
     1
 77
     6
176
     1
 78
     2
176
     1
 67
     7
176
     1
 79
     5
176
     1
170
     0
176
     1
171
     0
176
     1
290
     0
176
     1
 93
        1
176
     1
 44
0.0
176
     1
173
     0
176
     1
1001
ACAD
1000
AcDbSavedByObjectVersion
1070
     0
  0
VISUALSTYLE
  5
30
102
{ACAD_XDICTIONARY
360
EC
102
}
102
{ACAD_REACTORS
330
29
102
}
330
29
100
AcDbVisualStyle
  2
Wireframe
 70
     5
177
     2
291
     0
 71
     0
176
     1
 72
     2
176
     1
 73
     0
176
     1
 90
        0
176
     1
 40
0.6
176
     1
 41
30.0
176
     1
 63
     7
421
 16777215
176
     1
 74
     1
176
     1
 91
        4
176
     1
 64
     7
176
     1
 65
   257
176
     1
 75
     1
176
     1
175
     1
176
     1
 42
1.0
176
     1
 92
        0
176
     1
 66
   257
176
     1
 43
1.0
176
     1
 76
     1
176
     1
 77
     6
176
     1
 78
     2
176
     1
 67
     7
176
     1
 79
     3
176
     1
170
     0
176
     1
171
     0
176
     1
290
     0
176
     1
 93
        1
176
     1
 44
0.0
176
     1
173
     0
176
     1
1001
ACAD
1000
AcDbSavedByObjectVersion
1070
     0
  0
VISUALSTYLE
  5
3C
102
{ACAD_XDICTIONARY
360
104
102
}
102
{ACAD_REACTORS
330
29
102
}
330
29
100
AcDbVisualStyle
  2
X-Ray
 70
    25
177
     2
291
     0
 71
     2
176
     1
 72
     2
176
     1
 73
     1
176
     1
 90
        1
176
     1
 40
0.5
176
     1
 41
30.0
176
     1
 63
     7
421
 16777215
176
     1
 74
     1
176
     1
 91
        0
176
     1
 64
     7
176
     1
 65
   257
176
     1
 75
     1
176
     1
175
     1
176
     1
 42
1.0
176
     1
 92
        8
176
     1
 66
     7
176
     1
 43
1.0
176
     1
 76
     1
176
     1
 77
     6
176
     1
 78
     2
176
     1
 67
     7
176
     1
 79
     3
176
     1
170
     0
176
     1
171
     0
176
     1
290
     0
176
     1
 93
       13
176
     1
 44
0.0
176
     1
173
     0
176
     1
1001
ACAD
1000
AcDbSavedByObjectVersion
1070
     0
  0
DICTIONARYVAR
  5
DC
102
{ACAD_REACTORS
330
D7
102
}
330
D7
100
DictionaryVariables
280
     0
  1
1:1
  0
DICTIONARYVAR
  5
D9
102
{ACAD_REACTORS
330
D7
102
}
330
D7
100
DictionaryVariables
280
     0
  1
STANDARD
  0
DICTIONARYVAR
  5
D8
102
{ACAD_REACTORS
330
D7
102
}
330
D7
100
DictionaryVariables
280
     0
  1
STANDARD
  0
DICTIONARYVAR
  5
DA
102
{ACAD_REACTORS
330
D7
102
}
330
D7
100
DictionaryVariables
280
     0
  1
Imperial24
  0
DICTIONARYVAR
  5
DB
102
{ACAD_REACTORS
330
D7
102
}
330
D7
100
DictionaryVariables
280
     0
  1
Imperial24
  0
DICTIONARY
  5
114
330
6B
100
AcDbDictionary
280
     1
281
     1
  3
ACAD_XREC_ROUNDTRIP
360
115
  0
DICTIONARY
  5
1A
330
19
100
AcDbDictionary
280
     1
281
     1
  3
BUMPTILE
360
1C
  3
DIFFUSETILE
360
1B
  3
OPACITYTILE
360
1F
  3
REFLECTIONTILE
360
1E
  3
REFRACTIONTILE
360
20
  3
SPECULARTILE
360
1D
  0
DICTIONARY
  5
12
330
11
100
AcDbDictionary
280
     1
281
     1
  3
BUMPTILE
360
14
  3
DIFFUSETILE
360
13
  3
OPACITYTILE
360
17
  3
REFLECTIONTILE
360
16
  3
REFRACTIONTILE
360
18
  3
SPECULARTILE
360
15
  0
DICTIONARY
  5
22
330
21
100
AcDbDictionary
280
     1
281
     1
  3
BUMPTILE
360
24
  3
DIFFUSETILE
360
23
  3
OPACITYTILE
360
27
  3
REFLECTIONTILE
360
26
  3
REFRACTIONTILE
360
28
  3
SPECULARTILE
360
25
  0
DICTIONARY
  5
110
330
67
100
AcDbDictionary
280
     1
281
     1
  3
ACAD_XREC_ROUNDTRIP
360
111
  0
DICTIONARY
  5
112
330
69
100
AcDbDictionary
280
     1
281
     1
  3
ACAD_XREC_ROUNDTRIP
360
113
  0
DICTIONARY
  5
DD
330
65
100
AcDbDictionary
280
     1
281
     1
  3
ACAD_ROUNDTRIP_2008_TABLESTYLE_CELLSTYLEMAP
360
DE
  0
DICTIONARY
  5
EA
330
2F
100
AcDbDictionary
280
     1
281
     1
  3
ACAD_XREC_ROUNDTRIP
360
EB
  0
DICTIONARY
  5
E8
330
2E
100
AcDbDictionary
280
     1
281
     1
  3
ACAD_XREC_ROUNDTRIP
360
E9
  0
DICTIONARY
  5
F6
330
35
100
AcDbDictionary
280
     1
281
     1
  3
ACAD_XREC_ROUNDTRIP
360
F7
  0
DICTIONARY
  5
FE
330
39
100
AcDbDictionary
280
     1
281
     1
  3
ACAD_XREC_ROUNDTRIP
360
FF
  0
DICTIONARY
  5
F0
330
32
100
AcDbDictionary
280
     1
281
     1
  3
ACAD_XREC_ROUNDTRIP
360
F1
  0
DICTIONARY
  5
F4
330
34
100
AcDbDictionary
280
     1
281
     1
  3
ACAD_XREC_ROUNDTRIP
360
F5
  0
DICTIONARY
  5
10E
330
41
100
AcDbDictionary
280
     1
281
     1
  3
ACAD_XREC_ROUNDTRIP
360
10F
  0
DICTIONARY
  5
FC
330
38
100
AcDbDictionary
280
     1
281
     1
  3
ACAD_XREC_ROUNDTRIP
360
FD
  0
DICTIONARY
  5
E0
330
2A
100
AcDbDictionary
280
     1
281
     1
  3
ACAD_XREC_ROUNDTRIP
360
E1
  0
DICTIONARY
  5
E2
330
2B
100
AcDbDictionary
280
     1
281
     1
  3
ACAD_XREC_ROUNDTRIP
360
E3
  0
DICTIONARY
  5
E4
330
2C
100
AcDbDictionary
280
     1
281
     1
  3
ACAD_XREC_ROUNDTRIP
360
E5
  0
DICTIONARY
  5
E6
330
2D
100
AcDbDictionary
280
     1
281
     1
  3
ACAD_XREC_ROUNDTRIP
360
E7
  0
DICTIONARY
  5
EE
330
31
100
AcDbDictionary
280
     1
281
     1
  3
ACAD_XREC_ROUNDTRIP
360
EF
  0
DICTIONARY
  5
10A
330
3F
100
AcDbDictionary
280
     1
281
     1
  3
ACAD_XREC_ROUNDTRIP
360
10B
  0
DICTIONARY
  5
FA
330
37
100
AcDbDictionary
280
     1
281
     1
  3
ACAD_XREC_ROUNDTRIP
360
FB
  0
DICTIONARY
  5
10C
330
40
100
AcDbDictionary
280
     1
281
     1
  3
ACAD_XREC_ROUNDTRIP
360
10D
  0
DICTIONARY
  5
F2
330
33
100
AcDbDictionary
280
     1
281
     1
  3
ACAD_XREC_ROUNDTRIP
360
F3
  0
DICTIONARY
  5
108
330
3E
100
AcDbDictionary
280
     1
281
     1
  3
ACAD_XREC_ROUNDTRIP
360
109
  0
DICTIONARY
  5
106
330
3D
100
AcDbDictionary
280
     1
281
     1
  3
ACAD_XREC_ROUNDTRIP
360
107
  0
DICTIONARY
  5
100
330
3A
100
AcDbDictionary
280
     1
281
     1
  3
ACAD_XREC_ROUNDTRIP
360
101
  0
DICTIONARY
  5
102
330
3B
100
AcDbDictionary
280
     1
281
     1
  3
ACAD_XREC_ROUNDTRIP
360
103
  0
DICTIONARY
  5
F8
330
36
100
AcDbDictionary
280
     1
281
     1
  3
ACAD_XREC_ROUNDTRIP
360
F9
  0
DICTIONARY
  5
EC
330
30
100
AcDbDictionary
280
     1
281
     1
  3
ACAD_XREC_ROUNDTRIP
360
ED
  0
DICTIONARY
  5
104
330
3C
100
AcDbDictionary
280
     1
281
     1
  3
ACAD_XREC_ROUNDTRIP
360
105
  0
XRECORD
  5
115
102
{ACAD_REACTORS
330
114
102
}
330
114
100
AcDbXrecord
280
     1
102
DISPLAYNAME
  1
Imperial24
102
FLAGS
 90
        0
  0
XRECORD
  5
1C
102
{ACAD_REACTORS
330
1A
102
}
330
1A
100
AcDbXrecord
280
     1
270
     1
271
     1
  0
XRECORD
  5
1B
102
{ACAD_REACTORS
330
1A
102
}
330
1A
100
AcDbXrecord
280
     1
270
     1
271
     1
  0
XRECORD
  5
1F
102
{ACAD_REACTORS
330
1A
102
}
330
1A
100
AcDbXrecord
280
     1
270
     1
271
     1
  0
XRECORD
  5
1E
102
{ACAD_REACTORS
330
1A
102
}
330
1A
100
AcDbXrecord
280
     1
270
     1
271
     1
  0
XRECORD
  5
20
102
{ACAD_REACTORS
330
1A
102
}
330
1A
100
AcDbXrecord
280
     1
270
     1
271
     1
  0
XRECORD
  5
1D
102
{ACAD_REACTORS
330
1A
102
}
330
1A
100
AcDbXrecord
280
     1
270
     1
271
     1
  0
XRECORD
  5
14
102
{ACAD_REACTORS
330
12
102
}
330
12
100
AcDbXrecord
280
     1
270
     1
271
     1
  0
XRECORD
  5
13
102
{ACAD_REACTORS
330
12
102
}
330
12
100
AcDbXrecord
280
     1
270
     1
271
     1
  0
XRECORD
  5
17
102
{ACAD_REACTORS
330
12
102
}
330
12
100
AcDbXrecord
280
     1
270
     1
271
     1
  0
XRECORD
  5
16
102
{ACAD_REACTORS
330
12
102
}
330
12
100
AcDbXrecord
280
     1
270
     1
271
     1
  0
XRECORD
  5
18
102
{ACAD_REACTORS
330
12
102
}
330
12
100
AcDbXrecord
280
     1
270
     1
271
     1
  0
XRECORD
  5
15
102
{ACAD_REACTORS
330
12
102
}
330
12
100
AcDbXrecord
280
     1
270
     1
271
     1
  0
XRECORD
  5
24
102
{ACAD_REACTORS
330
22
102
}
330
22
100
AcDbXrecord
280
     1
270
     1
271
     1
  0
XRECORD
  5
23
102
{ACAD_REACTORS
330
22
102
}
330
22
100
AcDbXrecord
280
     1
270
     1
271
     1
  0
XRECORD
  5
27
102
{ACAD_REACTORS
330
22
102
}
330
22
100
AcDbXrecord
280
     1
270
     1
271
     1
  0
XRECORD
  5
26
102
{ACAD_REACTORS
330
22
102
}
330
22
100
AcDbXrecord
280
     1
270
     1
271
     1
  0
XRECORD
  5
28
102
{ACAD_REACTORS
330
22
102
}
330
22
100
AcDbXrecord
280
     1
270
     1
271
     1
  0
XRECORD
  5
25
102
{ACAD_REACTORS
330
22
102
}
330
22
100
AcDbXrecord
280
     1
270
     1
271
     1
  0
XRECORD
  5
111
102
{ACAD_REACTORS
330
110
102
}
330
110
100
AcDbXrecord
280
     1
102
ACAD_ROUNDTRIP_2012_MLEADER_STYLE
298
     1
  0
XRECORD
  5
113
102
{ACAD_REACTORS
330
112
102
}
330
112
100
AcDbXrecord
280
     1
102
DISPLAYNAME
  1
Imperial24
102
FLAGS
 90
        0
  0
CELLSTYLEMAP
  5
DE
102
{ACAD_REACTORS
330
DD
102
}
330
DD
100
AcDbCellStyleMap
 90
        3
300
CELLSTYLE
  1
TABLEFORMAT_BEGIN
 90
        5
170
     1
 91
        0
 92
    32768
 62
   257
 93
        1
300
CONTENTFORMAT
  1
CONTENTFORMAT_BEGIN
 90
        0
 91
        0
 92
      512
 93
        0
300

 40
0.0
140
1.0
 94
        5
 62
     0
340
55
144
0.25
309
CONTENTFORMAT_END
171
     0
 94
        0
309
TABLEFORMAT_END
  1
CELLSTYLE_BEGIN
 90
        1
 91
        1
300
_TITLE
309
CELLSTYLE_END
300
CELLSTYLE
  1
TABLEFORMAT_BEGIN
 90
        5
170
     1
 91
        0
 92
        0
 62
   257
 93
        1
300
CONTENTFORMAT
  1
CONTENTFORMAT_BEGIN
 90
        0
 91
        0
 92
      512
 93
        0
300

 40
0.0
140
1.0
 94
        5
 62
     0
340
55
144
0.18
309
CONTENTFORMAT_END
171
     0
 94
        0
309
TABLEFORMAT_END
  1
CELLSTYLE_BEGIN
 90
        2
 91
        1
300
_HEADER
309
CELLSTYLE_END
300
CELLSTYLE
  1
TABLEFORMAT_BEGIN
 90
        5
170
     1
 91
        0
 92
        0
 62
   257
 93
        1
300
CONTENTFORMAT
  1
CONTENTFORMAT_BEGIN
 90
        0
 91
        0
 92
      512
 93
        0
300

 40
0.0
140
1.0
 94
        2
 62
     0
340
55
144
0.18
309
CONTENTFORMAT_END
171
     0
 94
        0
309
TABLEFORMAT_END
  1
CELLSTYLE_BEGIN
 90
        3
 91
        2
300
_DATA
309
CELLSTYLE_END
  0
XRECORD
  5
EB
102
{ACAD_REACTORS
330
EA
102
}
330
EA
100
AcDbXrecord
280
     1
102
RTVSPost2010Prop28
280
     1
102
RTVSPost2010PropOp28
 70
     1
102
RTVSPost2010Prop29
280
     1
102
RTVSPost2010PropOp29
 70
     1
102
RTVSPost2010Prop30
280
     0
102
RTVSPost2010PropOp30
 70
     1
102
RTVSPost2010Prop31
280
     0
102
RTVSPost2010PropOp31
 70
     1
102
RTVSPost2010Prop32
280
     0
102
RTVSPost2010PropOp32
 70
     1
102
RTVSPost2010Prop33
280
     0
102
RTVSPost2010PropOp33
 70
     1
102
RTVSPost2010Prop34
280
     0
102
RTVSPost2010PropOp34
 70
     1
102
RTVSPost2010Prop35
280
     0
102
RTVSPost2010PropOp35
 70
     1
102
RTVSPost2010Prop36
280
     0
102
RTVSPost2010PropOp36
 70
     1
102
RTVSPost2010Prop37
 90
       50
102
RTVSPost2010PropOp37
 70
     1
102
RTVSPost2010Prop38
140
0.0
102
RTVSPost2010PropOp38
 70
     1
102
RTVSPost2010Prop39
140
1.0
102
RTVSPost2010PropOp39
 70
     1
102
RTVSPost2010Prop40
 90
        0
102
RTVSPost2010PropOp40
 70
     1
102
RTVSPost2010Prop41ColorIndex
 90
       18
102
RTVSPost2010Prop41ColorRGB
 90
        0
102
RTVSPost2010PropOp41
 70
     1
102
RTVSPost2010Prop42
 90
       50
102
RTVSPost2010PropOp42
 70
     1
102
RTVSPost2010Prop43
 90
        3
102
RTVSPost2010PropOp43
 70
     1
102
RTVSPost2010Prop44ColorIndex
 90
        5
102
RTVSPost2010Prop44ColorRGB
 90
      255
102
RTVSPost2010PropOp44
 70
     1
102
RTVSPost2010Prop45
280
     0
102
RTVSPost2010PropOp45
 70
     1
102
RTVSPost2010Prop46
 90
       50
102
RTVSPost2010PropOp46
 70
     1
102
RTVSPost2010Prop47
 90
       50
102
RTVSPost2010PropOp47
 70
     1
102
RTVSPost2010Prop48
 90
       50
102
RTVSPost2010PropOp48
 70
     1
102
RTVSPost2010Prop49
280
     0
102
RTVSPost2010PropOp49
 70
     1
102
RTVSPost2010Prop50
 90
       50
102
RTVSPost2010PropOp50
 70
     1
102
RTVSPost2010Prop51ColorIndex
 90
      256
102
RTVSPost2010Prop51ColorRGB
 90
-16777216
102
RTVSPost2010PropOp51
 70
     0
102
RTVSPost2010Prop52
140
1.0
102
RTVSPost2010PropOp52
 70
     0
102
RTVSPost2010Prop53
 90
        2
102
RTVSPost2010PropOp53
 70
     1
102
RTVSPost2010Prop54
  1
strokes_ogs.tif
102
RTVSPost2010PropOp54
 70
     1
102
RTVSPost2010Prop55
280
     0
102
RTVSPost2010PropOp55
 70
     1
102
RTVSPost2010Prop56
140
1.0
102
RTVSPost2010PropOp56
 70
     1
102
RTVSPost2010Prop57
140
1.0
102
RTVSPost2010PropOp57
 70
     1
  0
XRECORD
  5
E9
102
{ACAD_REACTORS
330
E8
102
}
330
E8
100
AcDbXrecord
280
     1
102
RTVSPost2010Prop28
280
     0
102
RTVSPost2010PropOp28
 70
     1
102
RTVSPost2010Prop29
280
     1
102
RTVSPost2010PropOp29
 70
     1
102
RTVSPost2010Prop30
280
     1
102
RTVSPost2010PropOp30
 70
     1
102
RTVSPost2010Prop31
280
     0
102
RTVSPost2010PropOp31
 70
     1
102
RTVSPost2010Prop32
280
     0
102
RTVSPost2010PropOp32
 70
     1
102
RTVSPost2010Prop33
280
     0
102
RTVSPost2010PropOp33
 70
     1
102
RTVSPost2010Prop34
280
     0
102
RTVSPost2010PropOp34
 70
     1
102
RTVSPost2010Prop35
280
     0
102
RTVSPost2010PropOp35
 70
     1
102
RTVSPost2010Prop36
280
     0
102
RTVSPost2010PropOp36
 70
     1
102
RTVSPost2010Prop37
 90
       50
102
RTVSPost2010PropOp37
 70
     1
102
RTVSPost2010Prop38
140
0.0
102
RTVSPost2010PropOp38
 70
     1
102
RTVSPost2010Prop39
140
1.0
102
RTVSPost2010PropOp39
 70
     1
102
RTVSPost2010Prop40
 90
        0
102
RTVSPost2010PropOp40
 70
     1
102
RTVSPost2010Prop41ColorIndex
 90
       18
102
RTVSPost2010Prop41ColorRGB
 90
        0
102
RTVSPost2010PropOp41
 70
     1
102
RTVSPost2010Prop42
 90
       50
102
RTVSPost2010PropOp42
 70
     1
102
RTVSPost2010Prop43
 90
        3
102
RTVSPost2010PropOp43
 70
     1
102
RTVSPost2010Prop44ColorIndex
 90
        5
102
RTVSPost2010Prop44ColorRGB
 90
      255
102
RTVSPost2010PropOp44
 70
     1
102
RTVSPost2010Prop45
280
     0
102
RTVSPost2010PropOp45
 70
     1
102
RTVSPost2010Prop46
 90
       50
102
RTVSPost2010PropOp46
 70
     1
102
RTVSPost2010Prop47
 90
       50
102
RTVSPost2010PropOp47
 70
     1
102
RTVSPost2010Prop48
 90
       50
102
RTVSPost2010PropOp48
 70
     1
102
RTVSPost2010Prop49
280
     0
102
RTVSPost2010PropOp49
 70
     1
102
RTVSPost2010Prop50
 90
       50
102
RTVSPost2010PropOp50
 70
     1
102
RTVSPost2010Prop51ColorIndex
 90
      256
102
RTVSPost2010Prop51ColorRGB
 90
-16777216
102
RTVSPost2010PropOp51
 70
     0
102
RTVSPost2010Prop52
140
1.0
102
RTVSPost2010PropOp52
 70
     0
102
RTVSPost2010Prop53
 90
        2
102
RTVSPost2010PropOp53
 70
     1
102
RTVSPost2010Prop54
  1
strokes_ogs.tif
102
RTVSPost2010PropOp54
 70
     1
102
RTVSPost2010Prop55
280
     0
102
RTVSPost2010PropOp55
 70
     1
102
RTVSPost2010Prop56
140
1.0
102
RTVSPost2010PropOp56
 70
     1
102
RTVSPost2010Prop57
140
1.0
102
RTVSPost2010PropOp57
 70
     1
  0
XRECORD
  5
F7
102
{ACAD_REACTORS
330
F6
102
}
330
F6
100
AcDbXrecord
280
     1
102
RTVSPost2010Prop28
280
     0
102
RTVSPost2010PropOp28
 70
     1
102
RTVSPost2010Prop29
280
     1
102
RTVSPost2010PropOp29
 70
     1
102
RTVSPost2010Prop30
280
     1
102
RTVSPost2010PropOp30
 70
     1
102
RTVSPost2010Prop31
280
     0
102
RTVSPost2010PropOp31
 70
     1
102
RTVSPost2010Prop32
280
     0
102
RTVSPost2010PropOp32
 70
     1
102
RTVSPost2010Prop33
280
     0
102
RTVSPost2010PropOp33
 70
     1
102
RTVSPost2010Prop34
280
     0
102
RTVSPost2010PropOp34
 70
     1
102
RTVSPost2010Prop35
280
     0
102
RTVSPost2010PropOp35
 70
     1
102
RTVSPost2010Prop36
280
     0
102
RTVSPost2010PropOp36
 70
     1
102
RTVSPost2010Prop37
 90
       50
102
RTVSPost2010PropOp37
 70
     1
102
RTVSPost2010Prop38
140
0.0
102
RTVSPost2010PropOp38
 70
     1
102
RTVSPost2010Prop39
140
1.0
102
RTVSPost2010PropOp39
 70
     1
102
RTVSPost2010Prop40
 90
        0
102
RTVSPost2010PropOp40
 70
     1
102
RTVSPost2010Prop41ColorIndex
 90
       18
102
RTVSPost2010Prop41ColorRGB
 90
        0
102
RTVSPost2010PropOp41
 70
     1
102
RTVSPost2010Prop42
 90
       50
102
RTVSPost2010PropOp42
 70
     1
102
RTVSPost2010Prop43
 90
        3
102
RTVSPost2010PropOp43
 70
     1
102
RTVSPost2010Prop44ColorIndex
 90
        5
102
RTVSPost2010Prop44ColorRGB
 90
      255
102
RTVSPost2010PropOp44
 70
     1
102
RTVSPost2010Prop45
280
     0
102
RTVSPost2010PropOp45
 70
     1
102
RTVSPost2010Prop46
 90
       50
102
RTVSPost2010PropOp46
 70
     1
102
RTVSPost2010Prop47
 90
       50
102
RTVSPost2010PropOp47
 70
     1
102
RTVSPost2010Prop48
 90
       50
102
RTVSPost2010PropOp48
 70
     1
102
RTVSPost2010Prop49
280
     0
102
RTVSPost2010PropOp49
 70
     1
102
RTVSPost2010Prop50
 90
       50
102
RTVSPost2010PropOp50
 70
     1
102
RTVSPost2010Prop51ColorIndex
 90
      256
102
RTVSPost2010Prop51ColorRGB
 90
-16777216
102
RTVSPost2010PropOp51
 70
     0
102
RTVSPost2010Prop52
140
1.0
102
RTVSPost2010PropOp52
 70
     0
102
RTVSPost2010Prop53
 90
        2
102
RTVSPost2010PropOp53
 70
     1
102
RTVSPost2010Prop54
  1
strokes_ogs.tif
102
RTVSPost2010PropOp54
 70
     1
102
RTVSPost2010Prop55
280
     0
102
RTVSPost2010PropOp55
 70
     1
102
RTVSPost2010Prop56
140
1.0
102
RTVSPost2010PropOp56
 70
     1
102
RTVSPost2010Prop57
140
1.0
102
RTVSPost2010PropOp57
 70
     1
  0
XRECORD
  5
FF
102
{ACAD_REACTORS
330
FE
102
}
330
FE
100
AcDbXrecord
280
     1
102
RTVSPost2010Prop28
280
     0
102
RTVSPost2010PropOp28
 70
     1
102
RTVSPost2010Prop29
280
     1
102
RTVSPost2010PropOp29
 70
     1
102
RTVSPost2010Prop30
280
     1
102
RTVSPost2010PropOp30
 70
     1
102
RTVSPost2010Prop31
280
     0
102
RTVSPost2010PropOp31
 70
     1
102
RTVSPost2010Prop32
280
     0
102
RTVSPost2010PropOp32
 70
     1
102
RTVSPost2010Prop33
280
     0
102
RTVSPost2010PropOp33
 70
     1
102
RTVSPost2010Prop34
280
     0
102
RTVSPost2010PropOp34
 70
     1
102
RTVSPost2010Prop35
280
     0
102
RTVSPost2010PropOp35
 70
     1
102
RTVSPost2010Prop36
280
     0
102
RTVSPost2010PropOp36
 70
     1
102
RTVSPost2010Prop37
 90
       50
102
RTVSPost2010PropOp37
 70
     1
102
RTVSPost2010Prop38
140
0.0
102
RTVSPost2010PropOp38
 70
     1
102
RTVSPost2010Prop39
140
1.0
102
RTVSPost2010PropOp39
 70
     1
102
RTVSPost2010Prop40
 90
        0
102
RTVSPost2010PropOp40
 70
     1
102
RTVSPost2010Prop41ColorIndex
 90
       18
102
RTVSPost2010Prop41ColorRGB
 90
        0
102
RTVSPost2010PropOp41
 70
     1
102
RTVSPost2010Prop42
 90
       50
102
RTVSPost2010PropOp42
 70
     1
102
RTVSPost2010Prop43
 90
        3
102
RTVSPost2010PropOp43
 70
     1
102
RTVSPost2010Prop44ColorIndex
 90
        5
102
RTVSPost2010Prop44ColorRGB
 90
      255
102
RTVSPost2010PropOp44
 70
     1
102
RTVSPost2010Prop45
280
     0
102
RTVSPost2010PropOp45
 70
     1
102
RTVSPost2010Prop46
 90
       50
102
RTVSPost2010PropOp46
 70
     1
102
RTVSPost2010Prop47
 90
       50
102
RTVSPost2010PropOp47
 70
     1
102
RTVSPost2010Prop48
 90
       50
102
RTVSPost2010PropOp48
 70
     1
102
RTVSPost2010Prop49
280
     0
102
RTVSPost2010PropOp49
 70
     1
102
RTVSPost2010Prop50
 90
       50
102
RTVSPost2010PropOp50
 70
     1
102
RTVSPost2010Prop51ColorIndex
 90
      256
102
RTVSPost2010Prop51ColorRGB
 90
-16777216
102
RTVSPost2010PropOp51
 70
     0
102
RTVSPost2010Prop52
140
1.0
102
RTVSPost2010PropOp52
 70
     0
102
RTVSPost2010Prop53
 90
        2
102
RTVSPost2010PropOp53
 70
     1
102
RTVSPost2010Prop54
  1
strokes_ogs.tif
102
RTVSPost2010PropOp54
 70
     1
102
RTVSPost2010Prop55
280
     0
102
RTVSPost2010PropOp55
 70
     1
102
RTVSPost2010Prop56
140
1.0
102
RTVSPost2010PropOp56
 70
     1
102
RTVSPost2010Prop57
140
1.0
102
RTVSPost2010PropOp57
 70
     1
  0
XRECORD
  5
F1
102
{ACAD_REACTORS
330
F0
102
}
330
F0
100
AcDbXrecord
280
     1
102
RTVSPost2010Prop28
280
     0
102
RTVSPost2010PropOp28
 70
     1
102
RTVSPost2010Prop29
280
     1
102
RTVSPost2010PropOp29
 70
     1
102
RTVSPost2010Prop30
280
     1
102
RTVSPost2010PropOp30
 70
     1
102
RTVSPost2010Prop31
280
     0
102
RTVSPost2010PropOp31
 70
     1
102
RTVSPost2010Prop32
280
     0
102
RTVSPost2010PropOp32
 70
     1
102
RTVSPost2010Prop33
280
     0
102
RTVSPost2010PropOp33
 70
     1
102
RTVSPost2010Prop34
280
     0
102
RTVSPost2010PropOp34
 70
     1
102
RTVSPost2010Prop35
280
     0
102
RTVSPost2010PropOp35
 70
     1
102
RTVSPost2010Prop36
280
     0
102
RTVSPost2010PropOp36
 70
     1
102
RTVSPost2010Prop37
 90
       50
102
RTVSPost2010PropOp37
 70
     1
102
RTVSPost2010Prop38
140
0.0
102
RTVSPost2010PropOp38
 70
     1
102
RTVSPost2010Prop39
140
1.0
102
RTVSPost2010PropOp39
 70
     1
102
RTVSPost2010Prop40
 90
        0
102
RTVSPost2010PropOp40
 70
     1
102
RTVSPost2010Prop41ColorIndex
 90
       18
102
RTVSPost2010Prop41ColorRGB
 90
        0
102
RTVSPost2010PropOp41
 70
     1
102
RTVSPost2010Prop42
 90
       50
102
RTVSPost2010PropOp42
 70
     1
102
RTVSPost2010Prop43
 90
        3
102
RTVSPost2010PropOp43
 70
     1
102
RTVSPost2010Prop44ColorIndex
 90
        5
102
RTVSPost2010Prop44ColorRGB
 90
      255
102
RTVSPost2010PropOp44
 70
     1
102
RTVSPost2010Prop45
280
     0
102
RTVSPost2010PropOp45
 70
     1
102
RTVSPost2010Prop46
 90
       50
102
RTVSPost2010PropOp46
 70
     1
102
RTVSPost2010Prop47
 90
       50
102
RTVSPost2010PropOp47
 70
     1
102
RTVSPost2010Prop48
 90
       50
102
RTVSPost2010PropOp48
 70
     1
102
RTVSPost2010Prop49
280
     0
102
RTVSPost2010PropOp49
 70
     1
102
RTVSPost2010Prop50
 90
       50
102
RTVSPost2010PropOp50
 70
     1
102
RTVSPost2010Prop51ColorIndex
 90
      256
102
RTVSPost2010Prop51ColorRGB
 90
-16777216
102
RTVSPost2010PropOp51
 70
     0
102
RTVSPost2010Prop52
140
1.0
102
RTVSPost2010PropOp52
 70
     0
102
RTVSPost2010Prop53
 90
        2
102
RTVSPost2010PropOp53
 70
     1
102
RTVSPost2010Prop54
  1
strokes_ogs.tif
102
RTVSPost2010PropOp54
 70
     1
102
RTVSPost2010Prop55
280
     0
102
RTVSPost2010PropOp55
 70
     1
102
RTVSPost2010Prop56
140
1.0
102
RTVSPost2010PropOp56
 70
     1
102
RTVSPost2010Prop57
140
1.0
102
RTVSPost2010PropOp57
 70
     1
  0
XRECORD
  5
F5
102
{ACAD_REACTORS
330
F4
102
}
330
F4
100
AcDbXrecord
280
     1
102
RTVSPost2010Prop28
280
     0
102
RTVSPost2010PropOp28
 70
     1
102
RTVSPost2010Prop29
280
     1
102
RTVSPost2010PropOp29
 70
     1
102
RTVSPost2010Prop30
280
     1
102
RTVSPost2010PropOp30
 70
     1
102
RTVSPost2010Prop31
280
     0
102
RTVSPost2010PropOp31
 70
     1
102
RTVSPost2010Prop32
280
     0
102
RTVSPost2010PropOp32
 70
     1
102
RTVSPost2010Prop33
280
     0
102
RTVSPost2010PropOp33
 70
     1
102
RTVSPost2010Prop34
280
     0
102
RTVSPost2010PropOp34
 70
     1
102
RTVSPost2010Prop35
280
     0
102
RTVSPost2010PropOp35
 70
     1
102
RTVSPost2010Prop36
280
     0
102
RTVSPost2010PropOp36
 70
     1
102
RTVSPost2010Prop37
 90
       50
102
RTVSPost2010PropOp37
 70
     1
102
RTVSPost2010Prop38
140
0.0
102
RTVSPost2010PropOp38
 70
     1
102
RTVSPost2010Prop39
140
1.0
102
RTVSPost2010PropOp39
 70
     1
102
RTVSPost2010Prop40
 90
        0
102
RTVSPost2010PropOp40
 70
     1
102
RTVSPost2010Prop41ColorIndex
 90
       18
102
RTVSPost2010Prop41ColorRGB
 90
        0
102
RTVSPost2010PropOp41
 70
     1
102
RTVSPost2010Prop42
 90
       50
102
RTVSPost2010PropOp42
 70
     1
102
RTVSPost2010Prop43
 90
        3
102
RTVSPost2010PropOp43
 70
     1
102
RTVSPost2010Prop44ColorIndex
 90
        5
102
RTVSPost2010Prop44ColorRGB
 90
      255
102
RTVSPost2010PropOp44
 70
     1
102
RTVSPost2010Prop45
280
     0
102
RTVSPost2010PropOp45
 70
     1
102
RTVSPost2010Prop46
 90
       50
102
RTVSPost2010PropOp46
 70
     1
102
RTVSPost2010Prop47
 90
       50
102
RTVSPost2010PropOp47
 70
     1
102
RTVSPost2010Prop48
 90
       50
102
RTVSPost2010PropOp48
 70
     1
102
RTVSPost2010Prop49
280
     0
102
RTVSPost2010PropOp49
 70
     1
102
RTVSPost2010Prop50
 90
       50
102
RTVSPost2010PropOp50
 70
     1
102
RTVSPost2010Prop51ColorIndex
 90
      256
102
RTVSPost2010Prop51ColorRGB
 90
-16777216
102
RTVSPost2010PropOp51
 70
     0
102
RTVSPost2010Prop52
140
1.0
102
RTVSPost2010PropOp52
 70
     0
102
RTVSPost2010Prop53
 90
        2
102
RTVSPost2010PropOp53
 70
     1
102
RTVSPost2010Prop54
  1
strokes_ogs.tif
102
RTVSPost2010PropOp54
 70
     1
102
RTVSPost2010Prop55
280
     0
102
RTVSPost2010PropOp55
 70
     1
102
RTVSPost2010Prop56
140
1.0
102
RTVSPost2010PropOp56
 70
     1
102
RTVSPost2010Prop57
140
1.0
102
RTVSPost2010PropOp57
 70
     1
  0
XRECORD
  5
10F
102
{ACAD_REACTORS
330
10E
102
}
330
10E
100
AcDbXrecord
280
     1
102
RTVSPost2010Prop28
280
     0
102
RTVSPost2010PropOp28
 70
     0
102
RTVSPost2010Prop29
280
     1
102
RTVSPost2010PropOp29
 70
     0
102
RTVSPost2010Prop30
280
     1
102
RTVSPost2010PropOp30
 70
     0
102
RTVSPost2010Prop31
280
     0
102
RTVSPost2010PropOp31
 70
     0
102
RTVSPost2010Prop32
280
     0
102
RTVSPost2010PropOp32
 70
     0
102
RTVSPost2010Prop33
280
     0
102
RTVSPost2010PropOp33
 70
     0
102
RTVSPost2010Prop34
280
     0
102
RTVSPost2010PropOp34
 70
     0
102
RTVSPost2010Prop35
280
     0
102
RTVSPost2010PropOp35
 70
     0
102
RTVSPost2010Prop36
280
     0
102
RTVSPost2010PropOp36
 70
     0
102
RTVSPost2010Prop37
 90
       50
102
RTVSPost2010PropOp37
 70
     0
102
RTVSPost2010Prop38
140
0.0
102
RTVSPost2010PropOp38
 70
     0
102
RTVSPost2010Prop39
140
1.0
102
RTVSPost2010PropOp39
 70
     0
102
RTVSPost2010Prop40
 90
        0
102
RTVSPost2010PropOp40
 70
     0
102
RTVSPost2010Prop41ColorIndex
 90
       18
102
RTVSPost2010Prop41ColorRGB
 90
        0
102
RTVSPost2010PropOp41
 70
     0
102
RTVSPost2010Prop42
 90
       50
102
RTVSPost2010PropOp42
 70
     0
102
RTVSPost2010Prop43
 90
        3
102
RTVSPost2010PropOp43
 70
     0
102
RTVSPost2010Prop44ColorIndex
 90
        5
102
RTVSPost2010Prop44ColorRGB
 90
      255
102
RTVSPost2010PropOp44
 70
     0
102
RTVSPost2010Prop45
280
     0
102
RTVSPost2010PropOp45
 70
     0
102
RTVSPost2010Prop46
 90
       50
102
RTVSPost2010PropOp46
 70
     0
102
RTVSPost2010Prop47
 90
       50
102
RTVSPost2010PropOp47
 70
     0
102
RTVSPost2010Prop48
 90
       50
102
RTVSPost2010PropOp48
 70
     0
102
RTVSPost2010Prop49
280
     0
102
RTVSPost2010PropOp49
 70
     0
102
RTVSPost2010Prop50
 90
       50
102
RTVSPost2010PropOp50
 70
     0
102
RTVSPost2010Prop51ColorIndex
 90
      256
102
RTVSPost2010Prop51ColorRGB
 90
-16777216
102
RTVSPost2010PropOp51
 70
     0
102
RTVSPost2010Prop52
140
1.0
102
RTVSPost2010PropOp52
 70
     0
102
RTVSPost2010Prop53
 90
        2
102
RTVSPost2010PropOp53
 70
     0
102
RTVSPost2010Prop54
  1
strokes_ogs.tif
102
RTVSPost2010PropOp54
 70
     0
102
RTVSPost2010Prop55
280
     0
102
RTVSPost2010PropOp55
 70
     0
102
RTVSPost2010Prop56
140
1.0
102
RTVSPost2010PropOp56
 70
     0
102
RTVSPost2010Prop57
140
1.0
102
RTVSPost2010PropOp57
 70
     0
  0
XRECORD
  5
FD
102
{ACAD_REACTORS
330
FC
102
}
330
FC
100
AcDbXrecord
280
     1
102
RTVSPost2010Prop28
280
     0
102
RTVSPost2010PropOp28
 70
     1
102
RTVSPost2010Prop29
280
     1
102
RTVSPost2010PropOp29
 70
     1
102
RTVSPost2010Prop30
280
     1
102
RTVSPost2010PropOp30
 70
     1
102
RTVSPost2010Prop31
280
     0
102
RTVSPost2010PropOp31
 70
     1
102
RTVSPost2010Prop32
280
     0
102
RTVSPost2010PropOp32
 70
     1
102
RTVSPost2010Prop33
280
     0
102
RTVSPost2010PropOp33
 70
     1
102
RTVSPost2010Prop34
280
     0
102
RTVSPost2010PropOp34
 70
     1
102
RTVSPost2010Prop35
280
     0
102
RTVSPost2010PropOp35
 70
     1
102
RTVSPost2010Prop36
280
     0
102
RTVSPost2010PropOp36
 70
     1
102
RTVSPost2010Prop37
 90
       50
102
RTVSPost2010PropOp37
 70
     1
102
RTVSPost2010Prop38
140
0.0
102
RTVSPost2010PropOp38
 70
     1
102
RTVSPost2010Prop39
140
1.0
102
RTVSPost2010PropOp39
 70
     1
102
RTVSPost2010Prop40
 90
        0
102
RTVSPost2010PropOp40
 70
     1
102
RTVSPost2010Prop41ColorIndex
 90
       18
102
RTVSPost2010Prop41ColorRGB
 90
        0
102
RTVSPost2010PropOp41
 70
     1
102
RTVSPost2010Prop42
 90
       50
102
RTVSPost2010PropOp42
 70
     1
102
RTVSPost2010Prop43
 90
        3
102
RTVSPost2010PropOp43
 70
     1
102
RTVSPost2010Prop44ColorIndex
 90
        5
102
RTVSPost2010Prop44ColorRGB
 90
      255
102
RTVSPost2010PropOp44
 70
     1
102
RTVSPost2010Prop45
280
     0
102
RTVSPost2010PropOp45
 70
     1
102
RTVSPost2010Prop46
 90
       50
102
RTVSPost2010PropOp46
 70
     1
102
RTVSPost2010Prop47
 90
       50
102
RTVSPost2010PropOp47
 70
     1
102
RTVSPost2010Prop48
 90
       50
102
RTVSPost2010PropOp48
 70
     1
102
RTVSPost2010Prop49
280
     0
102
RTVSPost2010PropOp49
 70
     1
102
RTVSPost2010Prop50
 90
       50
102
RTVSPost2010PropOp50
 70
     1
102
RTVSPost2010Prop51ColorIndex
 90
      256
102
RTVSPost2010Prop51ColorRGB
 90
-16777216
102
RTVSPost2010PropOp51
 70
     0
102
RTVSPost2010Prop52
140
1.0
102
RTVSPost2010PropOp52
 70
     0
102
RTVSPost2010Prop53
 90
        2
102
RTVSPost2010PropOp53
 70
     1
102
RTVSPost2010Prop54
  1
strokes_ogs.tif
102
RTVSPost2010PropOp54
 70
     1
102
RTVSPost2010Prop55
280
     0
102
RTVSPost2010PropOp55
 70
     1
102
RTVSPost2010Prop56
140
1.0
102
RTVSPost2010PropOp56
 70
     1
102
RTVSPost2010Prop57
140
1.0
102
RTVSPost2010PropOp57
 70
     1
  0
XRECORD
  5
E1
102
{ACAD_REACTORS
330
E0
102
}
330
E0
100
AcDbXrecord
280
     1
102
RTVSPost2010Prop28
280
     0
102
RTVSPost2010PropOp28
 70
     1
102
RTVSPost2010Prop29
280
     1
102
RTVSPost2010PropOp29
 70
     1
102
RTVSPost2010Prop30
280
     1
102
RTVSPost2010PropOp30
 70
     1
102
RTVSPost2010Prop31
280
     0
102
RTVSPost2010PropOp31
 70
     1
102
RTVSPost2010Prop32
280
     0
102
RTVSPost2010PropOp32
 70
     1
102
RTVSPost2010Prop33
280
     0
102
RTVSPost2010PropOp33
 70
     1
102
RTVSPost2010Prop34
280
     0
102
RTVSPost2010PropOp34
 70
     1
102
RTVSPost2010Prop35
280
     0
102
RTVSPost2010PropOp35
 70
     1
102
RTVSPost2010Prop36
280
     0
102
RTVSPost2010PropOp36
 70
     1
102
RTVSPost2010Prop37
 90
       50
102
RTVSPost2010PropOp37
 70
     1
102
RTVSPost2010Prop38
140
0.0
102
RTVSPost2010PropOp38
 70
     1
102
RTVSPost2010Prop39
140
1.0
102
RTVSPost2010PropOp39
 70
     1
102
RTVSPost2010Prop40
 90
        0
102
RTVSPost2010PropOp40
 70
     1
102
RTVSPost2010Prop41ColorIndex
 90
       18
102
RTVSPost2010Prop41ColorRGB
 90
        0
102
RTVSPost2010PropOp41
 70
     1
102
RTVSPost2010Prop42
 90
       50
102
RTVSPost2010PropOp42
 70
     1
102
RTVSPost2010Prop43
 90
        3
102
RTVSPost2010PropOp43
 70
     1
102
RTVSPost2010Prop44ColorIndex
 90
        5
102
RTVSPost2010Prop44ColorRGB
 90
      255
102
RTVSPost2010PropOp44
 70
     1
102
RTVSPost2010Prop45
280
     0
102
RTVSPost2010PropOp45
 70
     1
102
RTVSPost2010Prop46
 90
       50
102
RTVSPost2010PropOp46
 70
     1
102
RTVSPost2010Prop47
 90
       50
102
RTVSPost2010PropOp47
 70
     1
102
RTVSPost2010Prop48
 90
       50
102
RTVSPost2010PropOp48
 70
     1
102
RTVSPost2010Prop49
280
     0
102
RTVSPost2010PropOp49
 70
     1
102
RTVSPost2010Prop50
 90
       50
102
RTVSPost2010PropOp50
 70
     1
102
RTVSPost2010Prop51ColorIndex
 90
      256
102
RTVSPost2010Prop51ColorRGB
 90
-16777216
102
RTVSPost2010PropOp51
 70
     0
102
RTVSPost2010Prop52
140
1.0
102
RTVSPost2010PropOp52
 70
     0
102
RTVSPost2010Prop53
 90
        2
102
RTVSPost2010PropOp53
 70
     1
102
RTVSPost2010Prop54
  1
strokes_ogs.tif
102
RTVSPost2010PropOp54
 70
     1
102
RTVSPost2010Prop55
280
     0
102
RTVSPost2010PropOp55
 70
     1
102
RTVSPost2010Prop56
140
1.0
102
RTVSPost2010PropOp56
 70
     1
102
RTVSPost2010Prop57
140
1.0
102
RTVSPost2010PropOp57
 70
     1
  0
XRECORD
  5
E3
102
{ACAD_REACTORS
330
E2
102
}
330
E2
100
AcDbXrecord
280
     1
102
RTVSPost2010Prop28
280
     0
102
RTVSPost2010PropOp28
 70
     1
102
RTVSPost2010Prop29
280
     1
102
RTVSPost2010PropOp29
 70
     1
102
RTVSPost2010Prop30
280
     1
102
RTVSPost2010PropOp30
 70
     1
102
RTVSPost2010Prop31
280
     0
102
RTVSPost2010PropOp31
 70
     1
102
RTVSPost2010Prop32
280
     0
102
RTVSPost2010PropOp32
 70
     1
102
RTVSPost2010Prop33
280
     0
102
RTVSPost2010PropOp33
 70
     1
102
RTVSPost2010Prop34
280
     0
102
RTVSPost2010PropOp34
 70
     1
102
RTVSPost2010Prop35
280
     0
102
RTVSPost2010PropOp35
 70
     1
102
RTVSPost2010Prop36
280
     0
102
RTVSPost2010PropOp36
 70
     1
102
RTVSPost2010Prop37
 90
       50
102
RTVSPost2010PropOp37
 70
     1
102
RTVSPost2010Prop38
140
0.0
102
RTVSPost2010PropOp38
 70
     1
102
RTVSPost2010Prop39
140
1.0
102
RTVSPost2010PropOp39
 70
     1
102
RTVSPost2010Prop40
 90
        0
102
RTVSPost2010PropOp40
 70
     1
102
RTVSPost2010Prop41ColorIndex
 90
       18
102
RTVSPost2010Prop41ColorRGB
 90
        0
102
RTVSPost2010PropOp41
 70
     1
102
RTVSPost2010Prop42
 90
       50
102
RTVSPost2010PropOp42
 70
     1
102
RTVSPost2010Prop43
 90
        3
102
RTVSPost2010PropOp43
 70
     1
102
RTVSPost2010Prop44ColorIndex
 90
        5
102
RTVSPost2010Prop44ColorRGB
 90
      255
102
RTVSPost2010PropOp44
 70
     1
102
RTVSPost2010Prop45
280
     0
102
RTVSPost2010PropOp45
 70
     1
102
RTVSPost2010Prop46
 90
       50
102
RTVSPost2010PropOp46
 70
     1
102
RTVSPost2010Prop47
 90
       50
102
RTVSPost2010PropOp47
 70
     1
102
RTVSPost2010Prop48
 90
       50
102
RTVSPost2010PropOp48
 70
     1
102
RTVSPost2010Prop49
280
     0
102
RTVSPost2010PropOp49
 70
     1
102
RTVSPost2010Prop50
 90
       50
102
RTVSPost2010PropOp50
 70
     1
102
RTVSPost2010Prop51ColorIndex
 90
      256
102
RTVSPost2010Prop51ColorRGB
 90
-16777216
102
RTVSPost2010PropOp51
 70
     0
102
RTVSPost2010Prop52
140
1.0
102
RTVSPost2010PropOp52
 70
     0
102
RTVSPost2010Prop53
 90
        2
102
RTVSPost2010PropOp53
 70
     1
102
RTVSPost2010Prop54
  1
strokes_ogs.tif
102
RTVSPost2010PropOp54
 70
     1
102
RTVSPost2010Prop55
280
     0
102
RTVSPost2010PropOp55
 70
     1
102
RTVSPost2010Prop56
140
1.0
102
RTVSPost2010PropOp56
 70
     1
102
RTVSPost2010Prop57
140
1.0
102
RTVSPost2010PropOp57
 70
     1
  0
XRECORD
  5
E5
102
{ACAD_REACTORS
330
E4
102
}
330
E4
100
AcDbXrecord
280
     1
102
RTVSPost2010Prop28
280
     0
102
RTVSPost2010PropOp28
 70
     1
102
RTVSPost2010Prop29
280
     1
102
RTVSPost2010PropOp29
 70
     1
102
RTVSPost2010Prop30
280
     1
102
RTVSPost2010PropOp30
 70
     1
102
RTVSPost2010Prop31
280
     0
102
RTVSPost2010PropOp31
 70
     1
102
RTVSPost2010Prop32
280
     0
102
RTVSPost2010PropOp32
 70
     1
102
RTVSPost2010Prop33
280
     0
102
RTVSPost2010PropOp33
 70
     1
102
RTVSPost2010Prop34
280
     0
102
RTVSPost2010PropOp34
 70
     1
102
RTVSPost2010Prop35
280
     0
102
RTVSPost2010PropOp35
 70
     1
102
RTVSPost2010Prop36
280
     0
102
RTVSPost2010PropOp36
 70
     1
102
RTVSPost2010Prop37
 90
       50
102
RTVSPost2010PropOp37
 70
     1
102
RTVSPost2010Prop38
140
0.0
102
RTVSPost2010PropOp38
 70
     1
102
RTVSPost2010Prop39
140
1.0
102
RTVSPost2010PropOp39
 70
     1
102
RTVSPost2010Prop40
 90
        0
102
RTVSPost2010PropOp40
 70
     1
102
RTVSPost2010Prop41ColorIndex
 90
       18
102
RTVSPost2010Prop41ColorRGB
 90
        0
102
RTVSPost2010PropOp41
 70
     1
102
RTVSPost2010Prop42
 90
       50
102
RTVSPost2010PropOp42
 70
     1
102
RTVSPost2010Prop43
 90
        3
102
RTVSPost2010PropOp43
 70
     1
102
RTVSPost2010Prop44ColorIndex
 90
        5
102
RTVSPost2010Prop44ColorRGB
 90
      255
102
RTVSPost2010PropOp44
 70
     1
102
RTVSPost2010Prop45
280
     0
102
RTVSPost2010PropOp45
 70
     1
102
RTVSPost2010Prop46
 90
       50
102
RTVSPost2010PropOp46
 70
     1
102
RTVSPost2010Prop47
 90
       50
102
RTVSPost2010PropOp47
 70
     1
102
RTVSPost2010Prop48
 90
       50
102
RTVSPost2010PropOp48
 70
     1
102
RTVSPost2010Prop49
280
     0
102
RTVSPost2010PropOp49
 70
     1
102
RTVSPost2010Prop50
 90
       50
102
RTVSPost2010PropOp50
 70
     1
102
RTVSPost2010Prop51ColorIndex
 90
      256
102
RTVSPost2010Prop51ColorRGB
 90
-16777216
102
RTVSPost2010PropOp51
 70
     0
102
RTVSPost2010Prop52
140
1.0
102
RTVSPost2010PropOp52
 70
     0
102
RTVSPost2010Prop53
 90
        2
102
RTVSPost2010PropOp53
 70
     1
102
RTVSPost2010Prop54
  1
strokes_ogs.tif
102
RTVSPost2010PropOp54
 70
     1
102
RTVSPost2010Prop55
280
     0
102
RTVSPost2010PropOp55
 70
     1
102
RTVSPost2010Prop56
140
1.0
102
RTVSPost2010PropOp56
 70
     1
102
RTVSPost2010Prop57
140
1.0
102
RTVSPost2010PropOp57
 70
     1
  0
XRECORD
  5
E7
102
{ACAD_REACTORS
330
E6
102
}
330
E6
100
AcDbXrecord
280
     1
102
RTVSPost2010Prop28
280
     0
102
RTVSPost2010PropOp28
 70
     1
102
RTVSPost2010Prop29
280
     1
102
RTVSPost2010PropOp29
 70
     1
102
RTVSPost2010Prop30
280
     1
102
RTVSPost2010PropOp30
 70
     1
102
RTVSPost2010Prop31
280
     0
102
RTVSPost2010PropOp31
 70
     1
102
RTVSPost2010Prop32
280
     0
102
RTVSPost2010PropOp32
 70
     1
102
RTVSPost2010Prop33
280
     0
102
RTVSPost2010PropOp33
 70
     1
102
RTVSPost2010Prop34
280
     0
102
RTVSPost2010PropOp34
 70
     1
102
RTVSPost2010Prop35
280
     0
102
RTVSPost2010PropOp35
 70
     1
102
RTVSPost2010Prop36
280
     0
102
RTVSPost2010PropOp36
 70
     1
102
RTVSPost2010Prop37
 90
       50
102
RTVSPost2010PropOp37
 70
     1
102
RTVSPost2010Prop38
140
0.0
102
RTVSPost2010PropOp38
 70
     1
102
RTVSPost2010Prop39
140
1.0
102
RTVSPost2010PropOp39
 70
     1
102
RTVSPost2010Prop40
 90
        0
102
RTVSPost2010PropOp40
 70
     1
102
RTVSPost2010Prop41ColorIndex
 90
       18
102
RTVSPost2010Prop41ColorRGB
 90
        0
102
RTVSPost2010PropOp41
 70
     1
102
RTVSPost2010Prop42
 90
       50
102
RTVSPost2010PropOp42
 70
     1
102
RTVSPost2010Prop43
 90
        3
102
RTVSPost2010PropOp43
 70
     1
102
RTVSPost2010Prop44ColorIndex
 90
        5
102
RTVSPost2010Prop44ColorRGB
 90
      255
102
RTVSPost2010PropOp44
 70
     1
102
RTVSPost2010Prop45
280
     0
102
RTVSPost2010PropOp45
 70
     1
102
RTVSPost2010Prop46
 90
       50
102
RTVSPost2010PropOp46
 70
     1
102
RTVSPost2010Prop47
 90
       50
102
RTVSPost2010PropOp47
 70
     1
102
RTVSPost2010Prop48
 90
       50
102
RTVSPost2010PropOp48
 70
     1
102
RTVSPost2010Prop49
280
     0
102
RTVSPost2010PropOp49
 70
     1
102
RTVSPost2010Prop50
 90
       50
102
RTVSPost2010PropOp50
 70
     1
102
RTVSPost2010Prop51ColorIndex
 90
      256
102
RTVSPost2010Prop51ColorRGB
 90
-16777216
102
RTVSPost2010PropOp51
 70
     0
102
RTVSPost2010Prop52
140
1.0
102
RTVSPost2010PropOp52
 70
     0
102
RTVSPost2010Prop53
 90
        2
102
RTVSPost2010PropOp53
 70
     1
102
RTVSPost2010Prop54
  1
strokes_ogs.tif
102
RTVSPost2010PropOp54
 70
     1
102
RTVSPost2010Prop55
280
     0
102
RTVSPost2010PropOp55
 70
     1
102
RTVSPost2010Prop56
140
1.0
102
RTVSPost2010PropOp56
 70
     1
102
RTVSPost2010Prop57
140
1.0
102
RTVSPost2010PropOp57
 70
     1
  0
XRECORD
  5
EF
102
{ACAD_REACTORS
330
EE
102
}
330
EE
100
AcDbXrecord
280
     1
102
RTVSPost2010Prop28
280
     0
102
RTVSPost2010PropOp28
 70
     1
102
RTVSPost2010Prop29
280
     1
102
RTVSPost2010PropOp29
 70
     1
102
RTVSPost2010Prop30
280
     1
102
RTVSPost2010PropOp30
 70
     1
102
RTVSPost2010Prop31
280
     0
102
RTVSPost2010PropOp31
 70
     1
102
RTVSPost2010Prop32
280
     0
102
RTVSPost2010PropOp32
 70
     1
102
RTVSPost2010Prop33
280
     0
102
RTVSPost2010PropOp33
 70
     1
102
RTVSPost2010Prop34
280
     0
102
RTVSPost2010PropOp34
 70
     1
102
RTVSPost2010Prop35
280
     0
102
RTVSPost2010PropOp35
 70
     1
102
RTVSPost2010Prop36
280
     0
102
RTVSPost2010PropOp36
 70
     1
102
RTVSPost2010Prop37
 90
       50
102
RTVSPost2010PropOp37
 70
     1
102
RTVSPost2010Prop38
140
0.0
102
RTVSPost2010PropOp38
 70
     1
102
RTVSPost2010Prop39
140
1.0
102
RTVSPost2010PropOp39
 70
     1
102
RTVSPost2010Prop40
 90
        0
102
RTVSPost2010PropOp40
 70
     1
102
RTVSPost2010Prop41ColorIndex
 90
       18
102
RTVSPost2010Prop41ColorRGB
 90
        0
102
RTVSPost2010PropOp41
 70
     1
102
RTVSPost2010Prop42
 90
       50
102
RTVSPost2010PropOp42
 70
     1
102
RTVSPost2010Prop43
 90
        3
102
RTVSPost2010PropOp43
 70
     1
102
RTVSPost2010Prop44ColorIndex
 90
        5
102
RTVSPost2010Prop44ColorRGB
 90
      255
102
RTVSPost2010PropOp44
 70
     1
102
RTVSPost2010Prop45
280
     0
102
RTVSPost2010PropOp45
 70
     1
102
RTVSPost2010Prop46
 90
       50
102
RTVSPost2010PropOp46
 70
     1
102
RTVSPost2010Prop47
 90
       50
102
RTVSPost2010PropOp47
 70
     1
102
RTVSPost2010Prop48
 90
       50
102
RTVSPost2010PropOp48
 70
     1
102
RTVSPost2010Prop49
280
     0
102
RTVSPost2010PropOp49
 70
     1
102
RTVSPost2010Prop50
 90
       50
102
RTVSPost2010PropOp50
 70
     1
102
RTVSPost2010Prop51ColorIndex
 90
      256
102
RTVSPost2010Prop51ColorRGB
 90
-16777216
102
RTVSPost2010PropOp51
 70
     0
102
RTVSPost2010Prop52
140
1.0
102
RTVSPost2010PropOp52
 70
     0
102
RTVSPost2010Prop53
 90
        2
102
RTVSPost2010PropOp53
 70
     1
102
RTVSPost2010Prop54
  1
strokes_ogs.tif
102
RTVSPost2010PropOp54
 70
     1
102
RTVSPost2010Prop55
280
     0
102
RTVSPost2010PropOp55
 70
     1
102
RTVSPost2010Prop56
140
1.0
102
RTVSPost2010PropOp56
 70
     1
102
RTVSPost2010Prop57
140
1.0
102
RTVSPost2010PropOp57
 70
     1
  0
XRECORD
  5
10B
102
{ACAD_REACTORS
330
10A
102
}
330
10A
100
AcDbXrecord
280
     1
102
RTVSPost2010Prop28
280
     0
102
RTVSPost2010PropOp28
 70
     0
102
RTVSPost2010Prop29
280
     1
102
RTVSPost2010PropOp29
 70
     0
102
RTVSPost2010Prop30
280
     1
102
RTVSPost2010PropOp30
 70
     0
102
RTVSPost2010Prop31
280
     0
102
RTVSPost2010PropOp31
 70
     0
102
RTVSPost2010Prop32
280
     0
102
RTVSPost2010PropOp32
 70
     0
102
RTVSPost2010Prop33
280
     0
102
RTVSPost2010PropOp33
 70
     0
102
RTVSPost2010Prop34
280
     0
102
RTVSPost2010PropOp34
 70
     0
102
RTVSPost2010Prop35
280
     0
102
RTVSPost2010PropOp35
 70
     0
102
RTVSPost2010Prop36
280
     0
102
RTVSPost2010PropOp36
 70
     0
102
RTVSPost2010Prop37
 90
       50
102
RTVSPost2010PropOp37
 70
     0
102
RTVSPost2010Prop38
140
0.0
102
RTVSPost2010PropOp38
 70
     0
102
RTVSPost2010Prop39
140
1.0
102
RTVSPost2010PropOp39
 70
     0
102
RTVSPost2010Prop40
 90
        0
102
RTVSPost2010PropOp40
 70
     0
102
RTVSPost2010Prop41ColorIndex
 90
       18
102
RTVSPost2010Prop41ColorRGB
 90
        0
102
RTVSPost2010PropOp41
 70
     0
102
RTVSPost2010Prop42
 90
       50
102
RTVSPost2010PropOp42
 70
     0
102
RTVSPost2010Prop43
 90
        3
102
RTVSPost2010PropOp43
 70
     0
102
RTVSPost2010Prop44ColorIndex
 90
        5
102
RTVSPost2010Prop44ColorRGB
 90
      255
102
RTVSPost2010PropOp44
 70
     0
102
RTVSPost2010Prop45
280
     0
102
RTVSPost2010PropOp45
 70
     0
102
RTVSPost2010Prop46
 90
       50
102
RTVSPost2010PropOp46
 70
     0
102
RTVSPost2010Prop47
 90
       50
102
RTVSPost2010PropOp47
 70
     0
102
RTVSPost2010Prop48
 90
       50
102
RTVSPost2010PropOp48
 70
     0
102
RTVSPost2010Prop49
280
     0
102
RTVSPost2010PropOp49
 70
     0
102
RTVSPost2010Prop50
 90
       50
102
RTVSPost2010PropOp50
 70
     0
102
RTVSPost2010Prop51ColorIndex
 90
      256
102
RTVSPost2010Prop51ColorRGB
 90
-16777216
102
RTVSPost2010PropOp51
 70
     0
102
RTVSPost2010Prop52
140
1.0
102
RTVSPost2010PropOp52
 70
     0
102
RTVSPost2010Prop53
 90
        2
102
RTVSPost2010PropOp53
 70
     0
102
RTVSPost2010Prop54
  1
strokes_ogs.tif
102
RTVSPost2010PropOp54
 70
     0
102
RTVSPost2010Prop55
280
     0
102
RTVSPost2010PropOp55
 70
     0
102
RTVSPost2010Prop56
140
1.0
102
RTVSPost2010PropOp56
 70
     0
102
RTVSPost2010Prop57
140
1.0
102
RTVSPost2010PropOp57
 70
     0
  0
XRECORD
  5
FB
102
{ACAD_REACTORS
330
FA
102
}
330
FA
100
AcDbXrecord
280
     1
102
RTVSPost2010Prop28
280
     0
102
RTVSPost2010PropOp28
 70
     1
102
RTVSPost2010Prop29
280
     1
102
RTVSPost2010PropOp29
 70
     1
102
RTVSPost2010Prop30
280
     1
102
RTVSPost2010PropOp30
 70
     1
102
RTVSPost2010Prop31
280
     0
102
RTVSPost2010PropOp31
 70
     1
102
RTVSPost2010Prop32
280
     0
102
RTVSPost2010PropOp32
 70
     1
102
RTVSPost2010Prop33
280
     0
102
RTVSPost2010PropOp33
 70
     1
102
RTVSPost2010Prop34
280
     0
102
RTVSPost2010PropOp34
 70
     1
102
RTVSPost2010Prop35
280
     0
102
RTVSPost2010PropOp35
 70
     1
102
RTVSPost2010Prop36
280
     0
102
RTVSPost2010PropOp36
 70
     1
102
RTVSPost2010Prop37
 90
       50
102
RTVSPost2010PropOp37
 70
     1
102
RTVSPost2010Prop38
140
0.0
102
RTVSPost2010PropOp38
 70
     1
102
RTVSPost2010Prop39
140
1.0
102
RTVSPost2010PropOp39
 70
     1
102
RTVSPost2010Prop40
 90
        0
102
RTVSPost2010PropOp40
 70
     1
102
RTVSPost2010Prop41ColorIndex
 90
       18
102
RTVSPost2010Prop41ColorRGB
 90
        0
102
RTVSPost2010PropOp41
 70
     1
102
RTVSPost2010Prop42
 90
       50
102
RTVSPost2010PropOp42
 70
     1
102
RTVSPost2010Prop43
 90
        3
102
RTVSPost2010PropOp43
 70
     1
102
RTVSPost2010Prop44ColorIndex
 90
        5
102
RTVSPost2010Prop44ColorRGB
 90
      255
102
RTVSPost2010PropOp44
 70
     1
102
RTVSPost2010Prop45
280
     0
102
RTVSPost2010PropOp45
 70
     1
102
RTVSPost2010Prop46
 90
       50
102
RTVSPost2010PropOp46
 70
     1
102
RTVSPost2010Prop47
 90
       50
102
RTVSPost2010PropOp47
 70
     1
102
RTVSPost2010Prop48
 90
       50
102
RTVSPost2010PropOp48
 70
     1
102
RTVSPost2010Prop49
280
     0
102
RTVSPost2010PropOp49
 70
     1
102
RTVSPost2010Prop50
 90
       50
102
RTVSPost2010PropOp50
 70
     1
102
RTVSPost2010Prop51ColorIndex
 90
      256
102
RTVSPost2010Prop51ColorRGB
 90
-16777216
102
RTVSPost2010PropOp51
 70
     0
102
RTVSPost2010Prop52
140
1.0
102
RTVSPost2010PropOp52
 70
     0
102
RTVSPost2010Prop53
 90
        2
102
RTVSPost2010PropOp53
 70
     1
102
RTVSPost2010Prop54
  1
strokes_ogs.tif
102
RTVSPost2010PropOp54
 70
     1
102
RTVSPost2010Prop55
280
     0
102
RTVSPost2010PropOp55
 70
     1
102
RTVSPost2010Prop56
140
1.0
102
RTVSPost2010PropOp56
 70
     1
102
RTVSPost2010Prop57
140
1.0
102
RTVSPost2010PropOp57
 70
     1
  0
XRECORD
  5
10D
102
{ACAD_REACTORS
330
10C
102
}
330
10C
100
AcDbXrecord
280
     1
102
RTVSPost2010Prop28
280
     0
102
RTVSPost2010PropOp28
 70
     0
102
RTVSPost2010Prop29
280
     1
102
RTVSPost2010PropOp29
 70
     0
102
RTVSPost2010Prop30
280
     1
102
RTVSPost2010PropOp30
 70
     0
102
RTVSPost2010Prop31
280
     0
102
RTVSPost2010PropOp31
 70
     0
102
RTVSPost2010Prop32
280
     0
102
RTVSPost2010PropOp32
 70
     0
102
RTVSPost2010Prop33
280
     0
102
RTVSPost2010PropOp33
 70
     0
102
RTVSPost2010Prop34
280
     0
102
RTVSPost2010PropOp34
 70
     0
102
RTVSPost2010Prop35
280
     0
102
RTVSPost2010PropOp35
 70
     0
102
RTVSPost2010Prop36
280
     0
102
RTVSPost2010PropOp36
 70
     0
102
RTVSPost2010Prop37
 90
       50
102
RTVSPost2010PropOp37
 70
     0
102
RTVSPost2010Prop38
140
0.0
102
RTVSPost2010PropOp38
 70
     0
102
RTVSPost2010Prop39
140
1.0
102
RTVSPost2010PropOp39
 70
     0
102
RTVSPost2010Prop40
 90
        0
102
RTVSPost2010PropOp40
 70
     0
102
RTVSPost2010Prop41ColorIndex
 90
       18
102
RTVSPost2010Prop41ColorRGB
 90
        0
102
RTVSPost2010PropOp41
 70
     0
102
RTVSPost2010Prop42
 90
       50
102
RTVSPost2010PropOp42
 70
     0
102
RTVSPost2010Prop43
 90
        3
102
RTVSPost2010PropOp43
 70
     0
102
RTVSPost2010Prop44ColorIndex
 90
        5
102
RTVSPost2010Prop44ColorRGB
 90
      255
102
RTVSPost2010PropOp44
 70
     0
102
RTVSPost2010Prop45
280
     0
102
RTVSPost2010PropOp45
 70
     0
102
RTVSPost2010Prop46
 90
       50
102
RTVSPost2010PropOp46
 70
     0
102
RTVSPost2010Prop47
 90
       50
102
RTVSPost2010PropOp47
 70
     0
102
RTVSPost2010Prop48
 90
       50
102
RTVSPost2010PropOp48
 70
     0
102
RTVSPost2010Prop49
280
     0
102
RTVSPost2010PropOp49
 70
     0
102
RTVSPost2010Prop50
 90
       50
102
RTVSPost2010PropOp50
 70
     0
102
RTVSPost2010Prop51ColorIndex
 90
      256
102
RTVSPost2010Prop51ColorRGB
 90
-16777216
102
RTVSPost2010PropOp51
 70
     0
102
RTVSPost2010Prop52
140
1.0
102
RTVSPost2010PropOp52
 70
     0
102
RTVSPost2010Prop53
 90
        2
102
RTVSPost2010PropOp53
 70
     0
102
RTVSPost2010Prop54
  1
strokes_ogs.tif
102
RTVSPost2010PropOp54
 70
     0
102
RTVSPost2010Prop55
280
     0
102
RTVSPost2010PropOp55
 70
     0
102
RTVSPost2010Prop56
140
1.0
102
RTVSPost2010PropOp56
 70
     0
102
RTVSPost2010Prop57
140
1.0
102
RTVSPost2010PropOp57
 70
     0
  0
XRECORD
  5
F3
102
{ACAD_REACTORS
330
F2
102
}
330
F2
100
AcDbXrecord
280
     1
102
RTVSPost2010Prop28
280
     0
102
RTVSPost2010PropOp28
 70
     1
102
RTVSPost2010Prop29
280
     1
102
RTVSPost2010PropOp29
 70
     1
102
RTVSPost2010Prop30
280
     1
102
RTVSPost2010PropOp30
 70
     1
102
RTVSPost2010Prop31
280
     0
102
RTVSPost2010PropOp31
 70
     1
102
RTVSPost2010Prop32
280
     0
102
RTVSPost2010PropOp32
 70
     1
102
RTVSPost2010Prop33
280
     0
102
RTVSPost2010PropOp33
 70
     1
102
RTVSPost2010Prop34
280
     0
102
RTVSPost2010PropOp34
 70
     1
102
RTVSPost2010Prop35
280
     0
102
RTVSPost2010PropOp35
 70
     1
102
RTVSPost2010Prop36
280
     0
102
RTVSPost2010PropOp36
 70
     1
102
RTVSPost2010Prop37
 90
       50
102
RTVSPost2010PropOp37
 70
     1
102
RTVSPost2010Prop38
140
0.0
102
RTVSPost2010PropOp38
 70
     1
102
RTVSPost2010Prop39
140
1.0
102
RTVSPost2010PropOp39
 70
     1
102
RTVSPost2010Prop40
 90
        0
102
RTVSPost2010PropOp40
 70
     1
102
RTVSPost2010Prop41ColorIndex
 90
       18
102
RTVSPost2010Prop41ColorRGB
 90
        0
102
RTVSPost2010PropOp41
 70
     1
102
RTVSPost2010Prop42
 90
       50
102
RTVSPost2010PropOp42
 70
     1
102
RTVSPost2010Prop43
 90
        3
102
RTVSPost2010PropOp43
 70
     1
102
RTVSPost2010Prop44ColorIndex
 90
        5
102
RTVSPost2010Prop44ColorRGB
 90
      255
102
RTVSPost2010PropOp44
 70
     1
102
RTVSPost2010Prop45
280
     0
102
RTVSPost2010PropOp45
 70
     1
102
RTVSPost2010Prop46
 90
       50
102
RTVSPost2010PropOp46
 70
     1
102
RTVSPost2010Prop47
 90
       50
102
RTVSPost2010PropOp47
 70
     1
102
RTVSPost2010Prop48
 90
       50
102
RTVSPost2010PropOp48
 70
     1
102
RTVSPost2010Prop49
280
     0
102
RTVSPost2010PropOp49
 70
     1
102
RTVSPost2010Prop50
 90
       50
102
RTVSPost2010PropOp50
 70
     1
102
RTVSPost2010Prop51ColorIndex
 90
      256
102
RTVSPost2010Prop51ColorRGB
 90
-16777216
102
RTVSPost2010PropOp51
 70
     0
102
RTVSPost2010Prop52
140
1.0
102
RTVSPost2010PropOp52
 70
     0
102
RTVSPost2010Prop53
 90
        2
102
RTVSPost2010PropOp53
 70
     1
102
RTVSPost2010Prop54
  1
strokes_ogs.tif
102
RTVSPost2010PropOp54
 70
     1
102
RTVSPost2010Prop55
280
     0
102
RTVSPost2010PropOp55
 70
     1
102
RTVSPost2010Prop56
140
1.0
102
RTVSPost2010PropOp56
 70
     1
102
RTVSPost2010Prop57
140
1.0
102
RTVSPost2010PropOp57
 70
     1
  0
XRECORD
  5
109
102
{ACAD_REACTORS
330
108
102
}
330
108
100
AcDbXrecord
280
     1
102
RTVSPost2010Prop28
280
     0
102
RTVSPost2010PropOp28
 70
     1
102
RTVSPost2010Prop29
280
     1
102
RTVSPost2010PropOp29
 70
     1
102
RTVSPost2010Prop30
280
     1
102
RTVSPost2010PropOp30
 70
     1
102
RTVSPost2010Prop31
280
     0
102
RTVSPost2010PropOp31
 70
     1
102
RTVSPost2010Prop32
280
     0
102
RTVSPost2010PropOp32
 70
     1
102
RTVSPost2010Prop33
280
     0
102
RTVSPost2010PropOp33
 70
     1
102
RTVSPost2010Prop34
280
     0
102
RTVSPost2010PropOp34
 70
     1
102
RTVSPost2010Prop35
280
     0
102
RTVSPost2010PropOp35
 70
     1
102
RTVSPost2010Prop36
280
     0
102
RTVSPost2010PropOp36
 70
     1
102
RTVSPost2010Prop37
 90
       50
102
RTVSPost2010PropOp37
 70
     1
102
RTVSPost2010Prop38
140
0.0
102
RTVSPost2010PropOp38
 70
     1
102
RTVSPost2010Prop39
140
1.0
102
RTVSPost2010PropOp39
 70
     1
102
RTVSPost2010Prop40
 90
        0
102
RTVSPost2010PropOp40
 70
     1
102
RTVSPost2010Prop41ColorIndex
 90
       18
102
RTVSPost2010Prop41ColorRGB
 90
        0
102
RTVSPost2010PropOp41
 70
     1
102
RTVSPost2010Prop42
 90
       50
102
RTVSPost2010PropOp42
 70
     1
102
RTVSPost2010Prop43
 90
        3
102
RTVSPost2010PropOp43
 70
     1
102
RTVSPost2010Prop44ColorIndex
 90
        5
102
RTVSPost2010Prop44ColorRGB
 90
      255
102
RTVSPost2010PropOp44
 70
     1
102
RTVSPost2010Prop45
280
     0
102
RTVSPost2010PropOp45
 70
     1
102
RTVSPost2010Prop46
 90
       50
102
RTVSPost2010PropOp46
 70
     1
102
RTVSPost2010Prop47
 90
       50
102
RTVSPost2010PropOp47
 70
     1
102
RTVSPost2010Prop48
 90
       50
102
RTVSPost2010PropOp48
 70
     1
102
RTVSPost2010Prop49
280
     0
102
RTVSPost2010PropOp49
 70
     1
102
RTVSPost2010Prop50
 90
       50
102
RTVSPost2010PropOp50
 70
     1
102
RTVSPost2010Prop51ColorIndex
 90
      256
102
RTVSPost2010Prop51ColorRGB
 90
-16777216
102
RTVSPost2010PropOp51
 70
     0
102
RTVSPost2010Prop52
140
1.0
102
RTVSPost2010PropOp52
 70
     0
102
RTVSPost2010Prop53
 90
        2
102
RTVSPost2010PropOp53
 70
     1
102
RTVSPost2010Prop54
  1
strokes_ogs.tif
102
RTVSPost2010PropOp54
 70
     1
102
RTVSPost2010Prop55
280
     0
102
RTVSPost2010PropOp55
 70
     1
102
RTVSPost2010Prop56
140
1.0
102
RTVSPost2010PropOp56
 70
     1
102
RTVSPost2010Prop57
140
1.0
102
RTVSPost2010PropOp57
 70
     1
  0
XRECORD
  5
107
102
{ACAD_REACTORS
330
106
102
}
330
106
100
AcDbXrecord
280
     1
102
RTVSPost2010Prop28
280
     0
102
RTVSPost2010PropOp28
 70
     1
102
RTVSPost2010Prop29
280
     1
102
RTVSPost2010PropOp29
 70
     1
102
RTVSPost2010Prop30
280
     1
102
RTVSPost2010PropOp30
 70
     1
102
RTVSPost2010Prop31
280
     0
102
RTVSPost2010PropOp31
 70
     1
102
RTVSPost2010Prop32
280
     0
102
RTVSPost2010PropOp32
 70
     1
102
RTVSPost2010Prop33
280
     0
102
RTVSPost2010PropOp33
 70
     1
102
RTVSPost2010Prop34
280
     0
102
RTVSPost2010PropOp34
 70
     1
102
RTVSPost2010Prop35
280
     0
102
RTVSPost2010PropOp35
 70
     1
102
RTVSPost2010Prop36
280
     0
102
RTVSPost2010PropOp36
 70
     1
102
RTVSPost2010Prop37
 90
       50
102
RTVSPost2010PropOp37
 70
     1
102
RTVSPost2010Prop38
140
0.0
102
RTVSPost2010PropOp38
 70
     1
102
RTVSPost2010Prop39
140
1.0
102
RTVSPost2010PropOp39
 70
     1
102
RTVSPost2010Prop40
 90
        0
102
RTVSPost2010PropOp40
 70
     1
102
RTVSPost2010Prop41ColorIndex
 90
       18
102
RTVSPost2010Prop41ColorRGB
 90
        0
102
RTVSPost2010PropOp41
 70
     1
102
RTVSPost2010Prop42
 90
       50
102
RTVSPost2010PropOp42
 70
     1
102
RTVSPost2010Prop43
 90
        3
102
RTVSPost2010PropOp43
 70
     1
102
RTVSPost2010Prop44ColorIndex
 90
        5
102
RTVSPost2010Prop44ColorRGB
 90
      255
102
RTVSPost2010PropOp44
 70
     1
102
RTVSPost2010Prop45
280
     0
102
RTVSPost2010PropOp45
 70
     1
102
RTVSPost2010Prop46
 90
       50
102
RTVSPost2010PropOp46
 70
     1
102
RTVSPost2010Prop47
 90
       50
102
RTVSPost2010PropOp47
 70
     1
102
RTVSPost2010Prop48
 90
       50
102
RTVSPost2010PropOp48
 70
     1
102
RTVSPost2010Prop49
280
     0
102
RTVSPost2010PropOp49
 70
     1
102
RTVSPost2010Prop50
 90
       50
102
RTVSPost2010PropOp50
 70
     1
102
RTVSPost2010Prop51ColorIndex
 90
      256
102
RTVSPost2010Prop51ColorRGB
 90
-16777216
102
RTVSPost2010PropOp51
 70
     0
102
RTVSPost2010Prop52
140
1.0
102
RTVSPost2010PropOp52
 70
     0
102
RTVSPost2010Prop53
 90
        2
102
RTVSPost2010PropOp53
 70
     1
102
RTVSPost2010Prop54
  1
strokes_ogs.tif
102
RTVSPost2010PropOp54
 70
     1
102
RTVSPost2010Prop55
280
     0
102
RTVSPost2010PropOp55
 70
     1
102
RTVSPost2010Prop56
140
1.0
102
RTVSPost2010PropOp56
 70
     1
102
RTVSPost2010Prop57
140
1.0
102
RTVSPost2010PropOp57
 70
     1
  0
XRECORD
  5
101
102
{ACAD_REACTORS
330
100
102
}
330
100
100
AcDbXrecord
280
     1
102
RTVSPost2010Prop28
280
     0
102
RTVSPost2010PropOp28
 70
     1
102
RTVSPost2010Prop29
280
     1
102
RTVSPost2010PropOp29
 70
     1
102
RTVSPost2010Prop30
280
     1
102
RTVSPost2010PropOp30
 70
     1
102
RTVSPost2010Prop31
280
     0
102
RTVSPost2010PropOp31
 70
     1
102
RTVSPost2010Prop32
280
     0
102
RTVSPost2010PropOp32
 70
     1
102
RTVSPost2010Prop33
280
     0
102
RTVSPost2010PropOp33
 70
     1
102
RTVSPost2010Prop34
280
     0
102
RTVSPost2010PropOp34
 70
     1
102
RTVSPost2010Prop35
280
     0
102
RTVSPost2010PropOp35
 70
     1
102
RTVSPost2010Prop36
280
     0
102
RTVSPost2010PropOp36
 70
     1
102
RTVSPost2010Prop37
 90
       50
102
RTVSPost2010PropOp37
 70
     1
102
RTVSPost2010Prop38
140
0.0
102
RTVSPost2010PropOp38
 70
     1
102
RTVSPost2010Prop39
140
1.0
102
RTVSPost2010PropOp39
 70
     1
102
RTVSPost2010Prop40
 90
        0
102
RTVSPost2010PropOp40
 70
     1
102
RTVSPost2010Prop41ColorIndex
 90
       18
102
RTVSPost2010Prop41ColorRGB
 90
        0
102
RTVSPost2010PropOp41
 70
     1
102
RTVSPost2010Prop42
 90
       50
102
RTVSPost2010PropOp42
 70
     1
102
RTVSPost2010Prop43
 90
        3
102
RTVSPost2010PropOp43
 70
     1
102
RTVSPost2010Prop44ColorIndex
 90
        5
102
RTVSPost2010Prop44ColorRGB
 90
      255
102
RTVSPost2010PropOp44
 70
     1
102
RTVSPost2010Prop45
280
     0
102
RTVSPost2010PropOp45
 70
     1
102
RTVSPost2010Prop46
 90
       50
102
RTVSPost2010PropOp46
 70
     1
102
RTVSPost2010Prop47
 90
       50
102
RTVSPost2010PropOp47
 70
     1
102
RTVSPost2010Prop48
 90
       50
102
RTVSPost2010PropOp48
 70
     1
102
RTVSPost2010Prop49
280
     0
102
RTVSPost2010PropOp49
 70
     1
102
RTVSPost2010Prop50
 90
       50
102
RTVSPost2010PropOp50
 70
     1
102
RTVSPost2010Prop51ColorIndex
 90
      256
102
RTVSPost2010Prop51ColorRGB
 90
-16777216
102
RTVSPost2010PropOp51
 70
     0
102
RTVSPost2010Prop52
140
1.0
102
RTVSPost2010PropOp52
 70
     0
102
RTVSPost2010Prop53
 90
        2
102
RTVSPost2010PropOp53
 70
     1
102
RTVSPost2010Prop54
  1
strokes_ogs.tif
102
RTVSPost2010PropOp54
 70
     1
102
RTVSPost2010Prop55
280
     0
102
RTVSPost2010PropOp55
 70
     1
102
RTVSPost2010Prop56
140
1.0
102
RTVSPost2010PropOp56
 70
     1
102
RTVSPost2010Prop57
140
1.0
102
RTVSPost2010PropOp57
 70
     1
  0
XRECORD
  5
103
102
{ACAD_REACTORS
330
102
102
}
330
102
100
AcDbXrecord
280
     1
102
RTVSPost2010Prop28
280
     0
102
RTVSPost2010PropOp28
 70
     1
102
RTVSPost2010Prop29
280
     1
102
RTVSPost2010PropOp29
 70
     1
102
RTVSPost2010Prop30
280
     1
102
RTVSPost2010PropOp30
 70
     1
102
RTVSPost2010Prop31
280
     0
102
RTVSPost2010PropOp31
 70
     1
102
RTVSPost2010Prop32
280
     0
102
RTVSPost2010PropOp32
 70
     1
102
RTVSPost2010Prop33
280
     0
102
RTVSPost2010PropOp33
 70
     1
102
RTVSPost2010Prop34
280
     0
102
RTVSPost2010PropOp34
 70
     1
102
RTVSPost2010Prop35
280
     0
102
RTVSPost2010PropOp35
 70
     1
102
RTVSPost2010Prop36
280
     0
102
RTVSPost2010PropOp36
 70
     1
102
RTVSPost2010Prop37
 90
       50
102
RTVSPost2010PropOp37
 70
     1
102
RTVSPost2010Prop38
140
0.0
102
RTVSPost2010PropOp38
 70
     1
102
RTVSPost2010Prop39
140
1.0
102
RTVSPost2010PropOp39
 70
     1
102
RTVSPost2010Prop40
 90
        0
102
RTVSPost2010PropOp40
 70
     1
102
RTVSPost2010Prop41ColorIndex
 90
       18
102
RTVSPost2010Prop41ColorRGB
 90
        0
102
RTVSPost2010PropOp41
 70
     1
102
RTVSPost2010Prop42
 90
       50
102
RTVSPost2010PropOp42
 70
     1
102
RTVSPost2010Prop43
 90
        3
102
RTVSPost2010PropOp43
 70
     1
102
RTVSPost2010Prop44ColorIndex
 90
        5
102
RTVSPost2010Prop44ColorRGB
 90
      255
102
RTVSPost2010PropOp44
 70
     1
102
RTVSPost2010Prop45
280
     0
102
RTVSPost2010PropOp45
 70
     1
102
RTVSPost2010Prop46
 90
       50
102
RTVSPost2010PropOp46
 70
     1
102
RTVSPost2010Prop47
 90
       50
102
RTVSPost2010PropOp47
 70
     1
102
RTVSPost2010Prop48
 90
       50
102
RTVSPost2010PropOp48
 70
     1
102
RTVSPost2010Prop49
280
     0
102
RTVSPost2010PropOp49
 70
     1
102
RTVSPost2010Prop50
 90
       50
102
RTVSPost2010PropOp50
 70
     1
102
RTVSPost2010Prop51ColorIndex
 90
      256
102
RTVSPost2010Prop51ColorRGB
 90
-16777216
102
RTVSPost2010PropOp51
 70
     0
102
RTVSPost2010Prop52
140
1.0
102
RTVSPost2010PropOp52
 70
     0
102
RTVSPost2010Prop53
 90
        2
102
RTVSPost2010PropOp53
 70
     1
102
RTVSPost2010Prop54
  1
strokes_ogs.tif
102
RTVSPost2010PropOp54
 70
     1
102
RTVSPost2010Prop55
280
     0
102
RTVSPost2010PropOp55
 70
     1
102
RTVSPost2010Prop56
140
1.0
102
RTVSPost2010PropOp56
 70
     1
102
RTVSPost2010Prop57
140
1.0
102
RTVSPost2010PropOp57
 70
     1
  0
XRECORD
  5
F9
102
{ACAD_REACTORS
330
F8
102
}
330
F8
100
AcDbXrecord
280
     1
102
RTVSPost2010Prop28
280
     0
102
RTVSPost2010PropOp28
 70
     1
102
RTVSPost2010Prop29
280
     1
102
RTVSPost2010PropOp29
 70
     1
102
RTVSPost2010Prop30
280
     1
102
RTVSPost2010PropOp30
 70
     1
102
RTVSPost2010Prop31
280
     0
102
RTVSPost2010PropOp31
 70
     1
102
RTVSPost2010Prop32
280
     0
102
RTVSPost2010PropOp32
 70
     1
102
RTVSPost2010Prop33
280
     0
102
RTVSPost2010PropOp33
 70
     1
102
RTVSPost2010Prop34
280
     0
102
RTVSPost2010PropOp34
 70
     1
102
RTVSPost2010Prop35
280
     0
102
RTVSPost2010PropOp35
 70
     1
102
RTVSPost2010Prop36
280
     0
102
RTVSPost2010PropOp36
 70
     1
102
RTVSPost2010Prop37
 90
       50
102
RTVSPost2010PropOp37
 70
     1
102
RTVSPost2010Prop38
140
0.0
102
RTVSPost2010PropOp38
 70
     1
102
RTVSPost2010Prop39
140
1.0
102
RTVSPost2010PropOp39
 70
     1
102
RTVSPost2010Prop40
 90
        0
102
RTVSPost2010PropOp40
 70
     1
102
RTVSPost2010Prop41ColorIndex
 90
       18
102
RTVSPost2010Prop41ColorRGB
 90
        0
102
RTVSPost2010PropOp41
 70
     1
102
RTVSPost2010Prop42
 90
       50
102
RTVSPost2010PropOp42
 70
     1
102
RTVSPost2010Prop43
 90
        3
102
RTVSPost2010PropOp43
 70
     1
102
RTVSPost2010Prop44ColorIndex
 90
        5
102
RTVSPost2010Prop44ColorRGB
 90
      255
102
RTVSPost2010PropOp44
 70
     1
102
RTVSPost2010Prop45
280
     0
102
RTVSPost2010PropOp45
 70
     1
102
RTVSPost2010Prop46
 90
       50
102
RTVSPost2010PropOp46
 70
     1
102
RTVSPost2010Prop47
 90
       50
102
RTVSPost2010PropOp47
 70
     1
102
RTVSPost2010Prop48
 90
       50
102
RTVSPost2010PropOp48
 70
     1
102
RTVSPost2010Prop49
280
     0
102
RTVSPost2010PropOp49
 70
     1
102
RTVSPost2010Prop50
 90
       50
102
RTVSPost2010PropOp50
 70
     1
102
RTVSPost2010Prop51ColorIndex
 90
      256
102
RTVSPost2010Prop51ColorRGB
 90
-16777216
102
RTVSPost2010PropOp51
 70
     0
102
RTVSPost2010Prop52
140
1.0
102
RTVSPost2010PropOp52
 70
     0
102
RTVSPost2010Prop53
 90
        2
102
RTVSPost2010PropOp53
 70
     1
102
RTVSPost2010Prop54
  1
strokes_ogs.tif
102
RTVSPost2010PropOp54
 70
     1
102
RTVSPost2010Prop55
280
     0
102
RTVSPost2010PropOp55
 70
     1
102
RTVSPost2010Prop56
140
1.0
102
RTVSPost2010PropOp56
 70
     1
102
RTVSPost2010Prop57
140
1.0
102
RTVSPost2010PropOp57
 70
     1
  0
XRECORD
  5
ED
102
{ACAD_REACTORS
330
EC
102
}
330
EC
100
AcDbXrecord
280
     1
102
RTVSPost2010Prop28
280
     0
102
RTVSPost2010PropOp28
 70
     1
102
RTVSPost2010Prop29
280
     1
102
RTVSPost2010PropOp29
 70
     1
102
RTVSPost2010Prop30
280
     1
102
RTVSPost2010PropOp30
 70
     1
102
RTVSPost2010Prop31
280
     0
102
RTVSPost2010PropOp31
 70
     1
102
RTVSPost2010Prop32
280
     0
102
RTVSPost2010PropOp32
 70
     1
102
RTVSPost2010Prop33
280
     0
102
RTVSPost2010PropOp33
 70
     1
102
RTVSPost2010Prop34
280
     0
102
RTVSPost2010PropOp34
 70
     1
102
RTVSPost2010Prop35
280
     0
102
RTVSPost2010PropOp35
 70
     1
102
RTVSPost2010Prop36
280
     0
102
RTVSPost2010PropOp36
 70
     1
102
RTVSPost2010Prop37
 90
       50
102
RTVSPost2010PropOp37
 70
     1
102
RTVSPost2010Prop38
140
0.0
102
RTVSPost2010PropOp38
 70
     1
102
RTVSPost2010Prop39
140
1.0
102
RTVSPost2010PropOp39
 70
     1
102
RTVSPost2010Prop40
 90
        0
102
RTVSPost2010PropOp40
 70
     1
102
RTVSPost2010Prop41ColorIndex
 90
       18
102
RTVSPost2010Prop41ColorRGB
 90
        0
102
RTVSPost2010PropOp41
 70
     1
102
RTVSPost2010Prop42
 90
       50
102
RTVSPost2010PropOp42
 70
     1
102
RTVSPost2010Prop43
 90
        3
102
RTVSPost2010PropOp43
 70
     1
102
RTVSPost2010Prop44ColorIndex
 90
        5
102
RTVSPost2010Prop44ColorRGB
 90
      255
102
RTVSPost2010PropOp44
 70
     1
102
RTVSPost2010Prop45
280
     0
102
RTVSPost2010PropOp45
 70
     1
102
RTVSPost2010Prop46
 90
       50
102
RTVSPost2010PropOp46
 70
     1
102
RTVSPost2010Prop47
 90
       50
102
RTVSPost2010PropOp47
 70
     1
102
RTVSPost2010Prop48
 90
       50
102
RTVSPost2010PropOp48
 70
     1
102
RTVSPost2010Prop49
280
     0
102
RTVSPost2010PropOp49
 70
     1
102
RTVSPost2010Prop50
 90
       50
102
RTVSPost2010PropOp50
 70
     1
102
RTVSPost2010Prop51ColorIndex
 90
      256
102
RTVSPost2010Prop51ColorRGB
 90
-16777216
102
RTVSPost2010PropOp51
 70
     0
102
RTVSPost2010Prop52
140
1.0
102
RTVSPost2010PropOp52
 70
     0
102
RTVSPost2010Prop53
 90
        2
102
RTVSPost2010PropOp53
 70
     1
102
RTVSPost2010Prop54
  1
strokes_ogs.tif
102
RTVSPost2010PropOp54
 70
     1
102
RTVSPost2010Prop55
280
     0
102
RTVSPost2010PropOp55
 70
     1
102
RTVSPost2010Prop56
140
1.0
102
RTVSPost2010PropOp56
 70
     1
102
RTVSPost2010Prop57
140
1.0
102
RTVSPost2010PropOp57
 70
     1
  0
XRECORD
  5
105
102
{ACAD_REACTORS
330
104
102
}
330
104
100
AcDbXrecord
280
     1
102
RTVSPost2010Prop28
280
     0
102
RTVSPost2010PropOp28
 70
     1
102
RTVSPost2010Prop29
280
     1
102
RTVSPost2010PropOp29
 70
     1
102
RTVSPost2010Prop30
280
     1
102
RTVSPost2010PropOp30
 70
     1
102
RTVSPost2010Prop31
280
     0
102
RTVSPost2010PropOp31
 70
     1
102
RTVSPost2010Prop32
280
     0
102
RTVSPost2010PropOp32
 70
     1
102
RTVSPost2010Prop33
280
     0
102
RTVSPost2010PropOp33
 70
     1
102
RTVSPost2010Prop34
280
     0
102
RTVSPost2010PropOp34
 70
     1
102
RTVSPost2010Prop35
280
     0
102
RTVSPost2010PropOp35
 70
     1
102
RTVSPost2010Prop36
280
     0
102
RTVSPost2010PropOp36
 70
     1
102
RTVSPost2010Prop37
 90
       50
102
RTVSPost2010PropOp37
 70
     1
102
RTVSPost2010Prop38
140
0.0
102
RTVSPost2010PropOp38
 70
     1
102
RTVSPost2010Prop39
140
1.0
102
RTVSPost2010PropOp39
 70
     1
102
RTVSPost2010Prop40
 90
        0
102
RTVSPost2010PropOp40
 70
     1
102
RTVSPost2010Prop41ColorIndex
 90
       18
102
RTVSPost2010Prop41ColorRGB
 90
        0
102
RTVSPost2010PropOp41
 70
     1
102
RTVSPost2010Prop42
 90
       50
102
RTVSPost2010PropOp42
 70
     1
102
RTVSPost2010Prop43
 90
        3
102
RTVSPost2010PropOp43
 70
     1
102
RTVSPost2010Prop44ColorIndex
 90
        5
102
RTVSPost2010Prop44ColorRGB
 90
      255
102
RTVSPost2010PropOp44
 70
     1
102
RTVSPost2010Prop45
280
     0
102
RTVSPost2010PropOp45
 70
     1
102
RTVSPost2010Prop46
 90
       50
102
RTVSPost2010PropOp46
 70
     1
102
RTVSPost2010Prop47
 90
       50
102
RTVSPost2010PropOp47
 70
     1
102
RTVSPost2010Prop48
 90
       50
102
RTVSPost2010PropOp48
 70
     1
102
RTVSPost2010Prop49
280
     0
102
RTVSPost2010PropOp49
 70
     1
102
RTVSPost2010Prop50
 90
       50
102
RTVSPost2010PropOp50
 70
     1
102
RTVSPost2010Prop51ColorIndex
 90
      256
102
RTVSPost2010Prop51ColorRGB
 90
-16777216
102
RTVSPost2010PropOp51
 70
     0
102
RTVSPost2010Prop52
140
1.0
102
RTVSPost2010PropOp52
 70
     0
102
RTVSPost2010Prop53
 90
        2
102
RTVSPost2010PropOp53
 70
     1
102
RTVSPost2010Prop54
  1
strokes_ogs.tif
102
RTVSPost2010PropOp54
 70
     1
102
RTVSPost2010Prop55
280
     0
102
RTVSPost2010PropOp55
 70
     1
102
RTVSPost2010Prop56
140
1.0
102
RTVSPost2010PropOp56
 70
     1
102
RTVSPost2010Prop57
140
1.0
102
RTVSPost2010PropOp57
 70
     1
  0
ENDSEC
  0
EOF
