  0
SECTION
  2
HEADER
  9
$ACADVER
  1
AC1024
  9
$ACADMAINTVER
 70
   226
  9
$DWGCODEPAGE
  3
ANSI_932
  9
$INSBASE
 10
0.0
 20
0.0
 30
0.0
  9
$EXTMIN
 10
1.000000000000000E+20
 20
1.000000000000000E+20
 30
1.000000000000000E+20
  9
$EXTMAX
 10
-1.000000000000000E+20
 20
-1.000000000000000E+20
 30
-1.000000000000000E+20
  9
$LIMMIN
 10
0.0
 20
0.0
  9
$LIMMAX
 10
12.0
 20
9.0
  9
$ORTHOMODE
 70
     0
  9
$REGENMODE
 70
     1
  9
$FILLMODE
 70
     1
  9
$QTEXTMODE
 70
     0
  9
$MIRRTEXT
 70
     0
  9
$LTSCALE
 40
1.0
  9
$ATTMODE
 70
     1
  9
$TEXTSIZE
 40
0.2
  9
$TRACEWID
 40
0.05
  9
$TEXTSTYLE
  7
Standard
  9
$CLAYER
  8
0
  9
$CELTYPE
  6
ByLayer
  9
$CECOLOR
 62
   256
  9
$CELTSCALE
 40
1.0
  9
$DISPSILH
 70
     0
  9
$DIMSCALE
 40
1.0
  9
$DIMASZ
 40
0.18
  9
$DIMEXO
 40
0.0625
  9
$DIMDLI
 40
0.38
  9
$DIMRND
 40
0.0
  9
$DIMDLE
 40
0.0
  9
$DIMEXE
 40
0.18
  9
$DIMTP
 40
0.0
  9
$DIMTM
 40
0.0
  9
$DIMTXT
 40
0.18
  9
$DIMCEN
 40
0.09
  9
$DIMTSZ
 40
0.0
  9
$DIMTOL
 70
     0
  9
$DIMLIM
 70
     0
  9
$DIMTIH
 70
     1
  9
$DIMTOH
 70
     1
  9
$DIMSE1
 70
     0
  9
$DIMSE2
 70
     0
  9
$DIMTAD
 70
     0
  9
$DIMZIN
 70
     0
  9
$DIMBLK
  1

  9
$DIMASO
 70
     1
  9
$DIMSHO
 70
     1
  9
$DIMPOST
  1

  9
$DIMAPOST
  1

  9
$DIMALT
 70
     0
  9
$DIMALTD
 70
     2
  9
$DIMALTF
 40
25.4
  9
$DIMLFAC
 40
1.0
  9
$DIMTOFL
 70
     0
  9
$DIMTVP
 40
0.0
  9
$DIMTIX
 70
     0
  9
$DIMSOXD
 70
     0
  9
$DIMSAH
 70
     0
  9
$DIMBLK1
  1

  9
$DIMBLK2
  1

  9
$DIMSTYLE
  2
Standard
  9
$DIMCLRD
 70
     0
  9
$DIMCLRE
 70
     0
  9
$DIMCLRT
 70
     0
  9
$DIMTFAC
 40
1.0
  9
$DIMGAP
 40
0.09
  9
$DIMJUST
 70
     0
  9
$DIMSD1
 70
     0
  9
$DIMSD2
 70
     0
  9
$DIMTOLJ
 70
     1
  9
$DIMTZIN
 70
     0
  9
$DIMALTZ
 70
     0
  9
$DIMALTTZ
 70
     0
  9
$DIMUPT
 70
     0
  9
$DIMDEC
 70
     4
  9
$DIMTDEC
 70
     4
  9
$DIMALTU
 70
     2
  9
$DIMALTTD
 70
     2
  9
$DIMTXSTY
  7
Standard
  9
$DIMAUNIT
 70
     0
  9
$DIMADEC
 70
     0
  9
$DIMALTRND
 40
0.0
  9
$DIMAZIN
 70
     0
  9
$DIMDSEP
 70
    46
  9
$DIMATFIT
 70
     3
  9
$DIMFRAC
 70
     0
  9
$DIMLDRBLK
  1

  9
$DIMLUNIT
 70
     2
  9
$DIMLWD
 70
    -2
  9
$DIMLWE
 70
    -2
  9
$DIMTMOVE
 70
     0
  9
$DIMFXL
 40
1.0
  9
$DIMFXLON
 70
     0
  9
$DIMJOGANG
 40
0.7853981633974483
  9
$DIMTFILL
 70
     0
  9
$DIMTFILLCLR
 70
     0
  9
$DIMARCSYM
 70
     0
  9
$DIMLTYPE
  6

  9
$DIMLTEX1
  6

  9
$DIMLTEX2
  6

  9
$DIMTXTDIRECTION
 70
     0
  9
$LUNITS
 70
     2
  9
$LUPREC
 70
     4
  9
$SKETCHINC
 40
0.1
  9
$FILLETRAD
 40
0.0
  9
$AUNITS
 70
     0
  9
$AUPREC
 70
     0
  9
$MENU
  1
.
  9
$ELEVATION
 40
0.0
  9
$PELEVATION
 40
0.0
  9
$THICKNESS
 40
0.0
  9
$LIMCHECK
 70
     0
  9
$CHAMFERA
 40
0.0
  9
$CHAMFERB
 40
0.0
  9
$CHAMFERC
 40
0.0
  9
$CHAMFERD
 40
0.0
  9
$SKPOLY
 70
     0
  9
$TDCREATE
 40
2459569.503067130
  9
$TDUCREATE
 40
2459569.128067130
  9
$TDUPDATE
 40
2459569.503067130
  9
$TDUUPDATE
 40
2459569.128067130
  9
$TDINDWG
 40
0.0000000000
  9
$TDUSRTIMER
 40
0.0000000000
  9
$USRTIMER
 70
     1
  9
$ANGBASE
 50
0.0
  9
$ANGDIR
 70
     0
  9
$PDMODE
 70
     0
  9
$PDSIZE
 40
0.0
  9
$PLINEWID
 40
0.0
  9
$SPLFRAME
 70
     0
  9
$SPLINETYPE
 70
     6
  9
$SPLINESEGS
 70
     8
  9
$HANDSEED
  5
19E
  9
$SURFTAB1
 70
     6
  9
$SURFTAB2
 70
     6
  9
$SURFTYPE
 70
     6
  9
$SURFU
 70
     6
  9
$SURFV
 70
     6
  9
$UCSBASE
  2

  9
$UCSNAME
  2

  9
$UCSORG
 10
0.0
 20
0.0
 30
0.0
  9
$UCSXDIR
 10
1.0
 20
0.0
 30
0.0
  9
$UCSYDIR
 10
0.0
 20
1.0
 30
0.0
  9
$UCSORTHOREF
  2

  9
$UCSORTHOVIEW
 70
     0
  9
$UCSORGTOP
 10
0.0
 20
0.0
 30
0.0
  9
$UCSORGBOTTOM
 10
0.0
 20
0.0
 30
0.0
  9
$UCSORGLEFT
 10
0.0
 20
0.0
 30
0.0
  9
$UCSORGRIGHT
 10
0.0
 20
0.0
 30
0.0
  9
$UCSORGFRONT
 10
0.0
 20
0.0
 30
0.0
  9
$UCSORGBACK
 10
0.0
 20
0.0
 30
0.0
  9
$PUCSBASE
  2

  9
$PUCSNAME
  2

  9
$PUCSORG
 10
0.0
 20
0.0
 30
0.0
  9
$PUCSXDIR
 10
1.0
 20
0.0
 30
0.0
  9
$PUCSYDIR
 10
0.0
 20
1.0
 30
0.0
  9
$PUCSORTHOREF
  2

  9
$PUCSORTHOVIEW
 70
     0
  9
$PUCSORGTOP
 10
0.0
 20
0.0
 30
0.0
  9
$PUCSORGBOTTOM
 10
0.0
 20
0.0
 30
0.0
  9
$PUCSORGLEFT
 10
0.0
 20
0.0
 30
0.0
  9
$PUCSORGRIGHT
 10
0.0
 20
0.0
 30
0.0
  9
$PUCSORGFRONT
 10
0.0
 20
0.0
 30
0.0
  9
$PUCSORGBACK
 10
0.0
 20
0.0
 30
0.0
  9
$USERI1
 70
     0
  9
$USERI2
 70
     0
  9
$USERI3
 70
     0
  9
$USERI4
 70
     0
  9
$USERI5
 70
     0
  9
$USERR1
 40
0.0
  9
$USERR2
 40
0.0
  9
$USERR3
 40
0.0
  9
$USERR4
 40
0.0
  9
$USERR5
 40
0.0
  9
$WORLDVIEW
 70
     1
  9
$SHADEDGE
 70
     3
  9
$SHADEDIF
 70
    70
  9
$TILEMODE
 70
     1
  9
$MAXACTVP
 70
    64
  9
$PINSBASE
 10
0.0
 20
0.0
 30
0.0
  9
$PLIMCHECK
 70
     0
  9
$PEXTMIN
 10
1.000000000000000E+20
 20
1.000000000000000E+20
 30
1.000000000000000E+20
  9
$PEXTMAX
 10
-1.000000000000000E+20
 20
-1.000000000000000E+20
 30
-1.000000000000000E+20
  9
$PLIMMIN
 10
0.0
 20
0.0
  9
$PLIMMAX
 10
12.0
 20
9.0
  9
$UNITMODE
 70
     0
  9
$VISRETAIN
 70
     1
  9
$PLINEGEN
 70
     0
  9
$PSLTSCALE
 70
     1
  9
$TREEDEPTH
 70
  3020
  9
$CMLSTYLE
  2
Standard
  9
$CMLJUST
 70
     0
  9
$CMLSCALE
 40
1.0
  9
$PROXYGRAPHICS
 70
     1
  9
$MEASUREMENT
 70
     0
  9
$CELWEIGHT
370
    -1
  9
$ENDCAPS
280
     0
  9
$JOINSTYLE
280
     0
  9
$LWDISPLAY
290
     1
  9
$INSUNITS
 70
     4
  9
$HYPERLINKBASE
  1

  9
$STYLESHEET
  1

  9
$XEDIT
290
     1
  9
$CEPSNTYPE
380
     0
  9
$PSTYLEMODE
290
     1
  9
$FINGERPRINTGUID
  2
{BC2B23EA-0C26-CD41-9CA3-CEAB361801DD}
  9
$VERSIONGUID
  2
{737890FB-9D04-4040-B164-4B14AB327802}
  9
$EXTNAMES
290
     1
  9
$PSVPSCALE
 40
0.0
  9
$OLESTARTUP
290
     0
  9
$SORTENTS
280
   127
  9
$INDEXCTL
280
     0
  9
$HIDETEXT
280
     1
  9
$XCLIPFRAME
280
     2
  9
$HALOGAP
280
     0
  9
$OBSCOLOR
 70
   257
  9
$OBSLTYPE
280
     0
  9
$INTERSECTIONDISPLAY
280
     0
  9
$INTERSECTIONCOLOR
 70
   257
  9
$DIMASSOC
280
     2
  9
$PROJECTNAME
  1

  9
$CAMERADISPLAY
290
     0
  9
$LENSLENGTH
 40
50.0
  9
$CAMERAHEIGHT
 40
0.0
  9
$STEPSPERSEC
 40
2.0
  9
$STEPSIZE
 40
6.0
  9
$3DDWFPREC
 40
2.0
  9
$PSOLWIDTH
 40
0.25
  9
$PSOLHEIGHT
 40
4.0
  9
$LOFTANG1
 40
1.570796326794896
  9
$LOFTANG2
 40
1.570796326794896
  9
$LOFTMAG1
 40
0.0
  9
$LOFTMAG2
 40
0.0
  9
$LOFTPARAM
 70
     7
  9
$LOFTNORMALS
280
     1
  9
$LATITUDE
 40
37.795
  9
$LONGITUDE
 40
-122.394
  9
$NORTHDIRECTION
 40
0.0
  9
$TIMEZONE
 70
 -8000
  9
$LIGHTGLYPHDISPLAY
280
     1
  9
$TILEMODELIGHTSYNCH
280
     1
  9
$CMATERIAL
347
11
  9
$SOLIDHIST
280
     0
  9
$SHOWHIST
280
     1
  9
$DWFFRAME
280
     2
  9
$DGNFRAME
280
     0
  9
$REALWORLDSCALE
290
     1
  9
$INTERFERECOLOR
 62
     1
  9
$INTERFEREOBJVS
345
33
  9
$INTERFEREVPVS
346
30
  9
$CSHADOW
280
     0
  9
$SHADOWPLANELOCATION
 40
0.0
  0
ENDSEC
  0
SECTION
  2
CLASSES
  0
CLASS
  1
ACDBDICTIONARYWDFLT
  2
AcDbDictionaryWithDefault
  3
ObjectDBX Classes
 90
        0
 91
        1
280
     0
281
     0
  0
CLASS
  1
MATERIAL
  2
AcDbMaterial
  3
ObjectDBX Classes
 90
     1153
 91
        3
280
     0
281
     0
  0
CLASS
  1
VISUALSTYLE
  2
AcDbVisualStyle
  3
ObjectDBX Classes
 90
     4095
 91
       24
280
     0
281
     0
  0
CLASS
  1
SCALE
  2
AcDbScale
  3
ObjectDBX Classes
 90
     1153
 91
       17
280
     0
281
     0
  0
CLASS
  1
TABLESTYLE
  2
AcDbTableStyle
  3
ObjectDBX Classes
 90
     4095
 91
        1
280
     0
281
     0
  0
CLASS
  1
MLEADERSTYLE
  2
AcDbMLeaderStyle
  3
ACDB_MLEADERSTYLE_CLASS
 90
     4095
 91
        1
280
     0
281
     0
  0
CLASS
  1
ACDBSECTIONVIEWSTYLE
  2
AcDbSectionViewStyle
  3
ObjectDBX Classes
 90
     1025
 91
        1
280
     0
281
     0
  0
CLASS
  1
ACDBDETAILVIEWSTYLE
  2
AcDbDetailViewStyle
  3
ObjectDBX Classes
 90
     1025
 91
        1
280
     0
281
     0
  0
CLASS
  1
DICTIONARYVAR
  2
AcDbDictionaryVar
  3
ObjectDBX Classes
 90
        0
 91
        5
280
     0
281
     0
  0
CLASS
  1
CELLSTYLEMAP
  2
AcDbCellStyleMap
  3
ObjectDBX Classes
 90
     1152
 91
        1
280
     0
281
     0
  0
ENDSEC
  0
SECTION
  2
TABLES
  0
TABLE
  2
VPORT
  5
8
330
0
100
AcDbSymbolTable
 70
     1
  0
VPORT
  5
57
330
8
100
AcDbSymbolTableRecord
100
AcDbViewportTableRecord
  2
*Active
 70
     0
 10
0.0
 20
0.0
 11
1.0
 21
1.0
 12
0.0
 22
0.0
 13
0.0
 23
0.0
 14
1.0
 24
1.0
 15
0.0
 25
0.0
 16
0.0
 26
0.0
 36
1.0
 17
104.9999999737534
 27
-148.4999999628701
 37
0.0
 40
302.939999924255
 41
0.7070707070707534
 42
50.0
 43
0.0
 44
0.0
 50
0.0
 51
0.0
 71
     0
 72
   100
 73
     1
 74
     0
 75
     1
 76
     0
 77
     0
 78
     0
281
     0
 65
     1
110
0.0
120
0.0
130
0.0
111
1.0
121
0.0
131
0.0
112
0.0
122
1.0
132
0.0
 79
     0
146
0.0
 60
     3
 61
     5
292
     1
282
     1
141
0.0
142
0.0
 63
   250
421
  3355443
  0
ENDTAB
  0
TABLE
  2
LTYPE
  5
5
330
0
100
AcDbSymbolTable
 70
     2
  0
LTYPE
  5
5B
330
5
100
AcDbSymbolTableRecord
100
AcDbLinetypeTableRecord
  2
ByBlock
 70
     0
  3

 72
    65
 73
     0
 40
0.0
  0
LTYPE
  5
5C
330
5
100
AcDbSymbolTableRecord
100
AcDbLinetypeTableRecord
  2
ByLayer
 70
     0
  3

 72
    65
 73
     0
 40
0.0
  0
LTYPE
  5
5D
330
5
100
AcDbSymbolTableRecord
100
AcDbLinetypeTableRecord
  2
Continuous
 70
     0
  3
Solid line
 72
    65
 73
     0
 40
0.0
  0
LTYPE
  5
15E
330
5
100
AcDbSymbolTableRecord
100
AcDbLinetypeTableRecord
  2
AI-Linetype-0
 70
     0
  3
Adobe Illustrator Linetype No. 0
 72
    65
 73
     2
 40
1.411111110758333
 49
0.7055555553791667
 74
     0
 49
-0.7055555553791667
 74
     0
  0
ENDTAB
  0
TABLE
  2
LAYER
  5
2
330
0
100
AcDbSymbolTable
 70
     2
  0
LAYER
  5
54
330
2
100
AcDbSymbolTableRecord
100
AcDbLayerTableRecord
  2
0
 70
     0
 62
     7
  6
Continuous
370
    -3
390
F
347
21
  0
LAYER
  5
78
330
2
100
AcDbSymbolTableRecord
100
AcDbLayerTableRecord
  2
レイヤー 1
 70
     0
 62
     7
  6
Continuous
370
     0
390
F
347
21
  0
ENDTAB
  0
TABLE
  2
STYLE
  5
3
330
0
100
AcDbSymbolTable
 70
     2
  0
STYLE
  5
55
330
3
100
AcDbSymbolTableRecord
100
AcDbTextStyleTableRecord
  2
Standard
 70
     0
 40
0.0
 41
1.0
 50
0.0
 71
     0
 42
0.2
  3
txt
  4

  0
STYLE
  5
5A
330
3
100
AcDbSymbolTableRecord
100
AcDbTextStyleTableRecord
  2
Annotative
 70
     0
 40
0.0
 41
1.0
 50
0.0
 71
     0
 42
0.2
  3
txt
  4

1001
AcadAnnotative
1000
AnnotativeData
1002
{
1070
     1
1070
     1
1002
}
  0
ENDTAB
  0
TABLE
  2
VIEW
  5
6
330
0
100
AcDbSymbolTable
 70
     0
  0
ENDTAB
  0
TABLE
  2
UCS
  5
7
330
0
100
AcDbSymbolTable
 70
     0
  0
ENDTAB
  0
TABLE
  2
APPID
  5
9
330
0
100
AcDbSymbolTable
 70
     2
  0
APPID
  5
56
330
9
100
AcDbSymbolTableRecord
100
AcDbRegAppTableRecord
  2
ACAD
 70
     0
  0
APPID
  5
5E
330
9
100
AcDbSymbolTableRecord
100
AcDbRegAppTableRecord
  2
AcadAnnotative
 70
     0
  0
ENDTAB
  0
TABLE
  2
DIMSTYLE
  5
A
330
0
100
AcDbSymbolTable
 70
     2
100
AcDbDimStyleTable
 71
     0
  0
DIMSTYLE
105
58
330
A
100
AcDbSymbolTableRecord
100
AcDbDimStyleTableRecord
  2
Standard
 70
     0
340
55
  0
DIMSTYLE
105
59
330
A
100
AcDbSymbolTableRecord
100
AcDbDimStyleTableRecord
  2
Annotative
 70
     0
340
55
1001
AcadAnnotative
1000
AnnotativeData
1002
{
1070
     1
1070
     1
1002
}
  0
ENDTAB
  0
TABLE
  2
BLOCK_RECORD
  5
1
330
0
100
AcDbSymbolTable
 70
    15
  0
BLOCK_RECORD
  5
70
330
1
100
AcDbSymbolTableRecord
100
AcDbBlockTableRecord
  2
*Model_Space
340
73
 70
     0
280
     1
281
     0
  0
BLOCK_RECORD
  5
6C
330
1
100
AcDbSymbolTableRecord
100
AcDbBlockTableRecord
  2
*Paper_Space
340
6F
 70
     0
280
     1
281
     0
  0
BLOCK_RECORD
  5
74
330
1
100
AcDbSymbolTableRecord
100
AcDbBlockTableRecord
  2
*Paper_Space0
340
77
 70
     0
280
     1
281
     0
  0
BLOCK_RECORD
  5
79
330
1
100
AcDbSymbolTableRecord
100
AcDbBlockTableRecord
  2
Block_0
340
0
102
{BLKREFS
331
7A
102
}
 70
     0
280
     1
281
     0
  0
BLOCK_RECORD
  5
7D
330
1
100
AcDbSymbolTableRecord
100
AcDbBlockTableRecord
  2
Block_1
340
0
102
{BLKREFS
331
7E
102
}
 70
     0
280
     1
281
     0
  0
BLOCK_RECORD
  5
E8
330
1
100
AcDbSymbolTableRecord
100
AcDbBlockTableRecord
  2
Block_2
340
0
102
{BLKREFS
331
E9
102
}
 70
     0
280
     1
281
     0
  0
BLOCK_RECORD
  5
EC
330
1
100
AcDbSymbolTableRecord
100
AcDbBlockTableRecord
  2
Block_3
340
0
102
{BLKREFS
331
ED
102
}
 70
     0
280
     1
281
     0
  0
BLOCK_RECORD
  5
F9
330
1
100
AcDbSymbolTableRecord
100
AcDbBlockTableRecord
  2
Block_4
340
0
102
{BLKREFS
331
FA
102
}
 70
     0
280
     1
281
     0
  0
BLOCK_RECORD
  5
FD
330
1
100
AcDbSymbolTableRecord
100
AcDbBlockTableRecord
  2
Block_5
340
0
102
{BLKREFS
331
FE
102
}
 70
     0
280
     1
281
     0
  0
BLOCK_RECORD
  5
107
330
1
100
AcDbSymbolTableRecord
100
AcDbBlockTableRecord
  2
Block_6
340
0
102
{BLKREFS
331
108
102
}
 70
     0
280
     1
281
     0
  0
BLOCK_RECORD
  5
10F
330
1
100
AcDbSymbolTableRecord
100
AcDbBlockTableRecord
  2
Block_7
340
0
102
{BLKREFS
331
110
102
}
 70
     0
280
     1
281
     0
  0
BLOCK_RECORD
  5
113
330
1
100
AcDbSymbolTableRecord
100
AcDbBlockTableRecord
  2
Block_8
340
0
102
{BLKREFS
331
114
102
}
 70
     0
280
     1
281
     0
  0
BLOCK_RECORD
  5
11E
330
1
100
AcDbSymbolTableRecord
100
AcDbBlockTableRecord
  2
Block_9
340
0
102
{BLKREFS
331
11F
102
}
 70
     0
280
     1
281
     0
  0
BLOCK_RECORD
  5
129
330
1
100
AcDbSymbolTableRecord
100
AcDbBlockTableRecord
  2
Block_10
340
0
102
{BLKREFS
331
12A
102
}
 70
     0
280
     1
281
     0
  0
BLOCK_RECORD
  5
130
330
1
100
AcDbSymbolTableRecord
100
AcDbBlockTableRecord
  2
Block_11
340
0
102
{BLKREFS
331
131
102
}
 70
     0
280
     1
281
     0
  0
BLOCK_RECORD
  5
136
330
1
100
AcDbSymbolTableRecord
100
AcDbBlockTableRecord
  2
Block_12
340
0
102
{BLKREFS
331
137
102
}
 70
     0
280
     1
281
     0
  0
BLOCK_RECORD
  5
13A
330
1
100
AcDbSymbolTableRecord
100
AcDbBlockTableRecord
  2
Block_13
340
0
102
{BLKREFS
331
13B
102
}
 70
     0
280
     1
281
     0
  0
ENDTAB
  0
ENDSEC
  0
SECTION
  2
BLOCKS
  0
BLOCK
  5
71
330
70
100
AcDbEntity
  8
0
100
AcDbBlockBegin
  2
*Model_Space
 70
     0
 10
0.0
 20
0.0
 30
0.0
  3
*Model_Space
  1

  0
ENDBLK
  5
72
330
70
100
AcDbEntity
  8
0
100
AcDbBlockEnd
  0
BLOCK
  5
6D
330
6C
100
AcDbEntity
 67
     1
  8
0
100
AcDbBlockBegin
  2
*Paper_Space
 70
     0
 10
0.0
 20
0.0
 30
0.0
  3
*Paper_Space
  1

  0
ENDBLK
  5
6E
330
6C
100
AcDbEntity
 67
     1
  8
0
100
AcDbBlockEnd
  0
BLOCK
  5
75
330
74
100
AcDbEntity
 67
     1
  8
0
100
AcDbBlockBegin
  2
*Paper_Space0
 70
     0
 10
0.0
 20
0.0
 30
0.0
  3
*Paper_Space0
  1

  0
ENDBLK
  5
76
330
74
100
AcDbEntity
 67
     1
  8
0
100
AcDbBlockEnd
  0
BLOCK
  5
7B
330
79
100
AcDbEntity
  8
0
100
AcDbBlockBegin
  2
Block_0
 70
     0
 10
0.0
 20
0.0
 30
0.0
  3
Block_0
  1

  0
INSERT
  5
7E
330
79
100
AcDbEntity
  8
レイヤー 1
100
AcDbBlockReference
  2
Block_1
 10
0.0
 20
0.0
 30
0.0
  0
INSERT
  5
137
330
79
100
AcDbEntity
  8
レイヤー 1
100
AcDbBlockReference
  2
Block_12
 10
0.0
 20
0.0
 30
0.0
  0
LWPOLYLINE
  5
15C
330
79
100
AcDbEntity
  8
レイヤー 1
 62
   250
420
  2299925
370
     9
100
AcDbPolyline
 90
        3
 70
     0
 43
0.0
 10
118.443640801666
 20
-146.3628767821069
 10
124.6172519112337
 20
-154.4764128911892
 10
135.2598128606634
 20
-154.4764128911892
  0
LWPOLYLINE
  5
15D
330
79
100
AcDbEntity
  8
レイヤー 1
  6
AI-Linetype-0
 62
   154
420
    23468
370
    25
100
AcDbPolyline
 90
        6
 70
     0
 43
0.0
 10
81.22678229471643
 20
-146.4803517820774
 10
102.8049636886559
 20
-145.6573212267277
 10
102.8049636886559
 20
-150.9489878920711
 10
106.8612024740612
 20
-150.9489878920711
 10
106.8612024740612
 20
-145.7158823378242
 10
128.4392463547223
 20
-146.4214378932034
  0
ENDBLK
  5
7C
330
79
100
AcDbEntity
  8
0
100
AcDbBlockEnd
  0
BLOCK
  5
7F
330
7D
100
AcDbEntity
  8
0
100
AcDbBlockBegin
  2
Block_1
 70
     0
 10
0.0
 20
0.0
 30
0.0
  3
Block_1
  1

  0
LINE
  5
81
330
7D
100
AcDbEntity
  8
レイヤー 1
 62
    18
420
        0
370
    25
100
AcDbLine
 10
108.3274527144318
 20
-152.5027270583501
 30
0.0
 11
101.3277067818994
 21
-152.5027270583501
 31
0.0
  0
LINE
  5
82
330
7D
100
AcDbEntity
  8
レイヤー 1
 62
    18
420
        0
370
    25
100
AcDbLine
 10
81.32566590330545
 20
-147.0022865041692
 30
0.0
 11
81.32566590330545
 21
-147.5024901151551
 31
0.0
  0
LINE
  5
83
330
7D
100
AcDbEntity
  8
レイヤー 1
 62
    18
420
        0
370
    25
100
AcDbLine
 10
101.3277067818994
 20
-147.5024901151551
 30
0.0
 11
81.32566590330545
 21
-147.5024901151551
 31
0.0
  0
LINE
  5
84
330
7D
100
AcDbEntity
  8
レイヤー 1
 62
    18
420
        0
370
    25
100
AcDbLine
 10
81.32566590330545
 20
-147.0022865041692
 30
0.0
 11
81.83966311241418
 21
-147.3846976151847
 31
0.0
  0
LINE
  5
85
330
7D
100
AcDbEntity
  8
レイヤー 1
 62
    18
420
        0
370
    25
100
AcDbLine
 10
81.83966311241418
 20
-147.3846976151847
 30
0.0
 11
82.32508532225226
 21
-146.9671498375112
 31
0.0
  0
LINE
  5
86
330
7D
100
AcDbEntity
  8
レイヤー 1
 62
    18
420
        0
370
    25
100
AcDbLine
 10
82.8390825313613
 20
-147.3488553929714
 30
0.0
 11
83.32450474119939
 21
-146.931307615298
 31
0.0
  0
LINE
  5
87
330
7D
100
AcDbEntity
  8
レイヤー 1
 62
    18
420
        0
370
    25
100
AcDbLine
 10
82.32508532225226
 20
-146.9671498375112
 30
0.0
 11
82.8390825313613
 21
-147.3488553929714
 31
0.0
  0
LINE
  5
88
330
7D
100
AcDbEntity
  8
レイヤー 1
 62
    18
420
        0
370
    25
100
AcDbLine
 10
83.32450474119939
 20
-146.931307615298
 30
0.0
 11
83.83850195030845
 21
-147.3130131707582
 31
0.0
  0
LINE
  5
89
330
7D
100
AcDbEntity
  8
レイヤー 1
 62
    18
420
        0
370
    25
100
AcDbLine
 10
83.83850195030845
 20
-147.3130131707582
 30
0.0
 11
84.32392416014652
 21
-146.8954653930847
 31
0.0
  0
LINE
  5
8A
330
7D
100
AcDbEntity
  8
レイヤー 1
 62
    18
420
        0
370
    25
100
AcDbLine
 10
84.32392416014652
 20
-146.8954653930847
 30
0.0
 11
84.8375685914868
 21
-147.2772062263228
 31
0.0
  0
LINE
  5
8B
330
7D
100
AcDbEntity
  8
レイヤー 1
 62
    18
420
        0
370
    25
100
AcDbLine
 10
84.8375685914868
 20
-147.2772062263228
 30
0.0
 11
85.32334357909364
 21
-146.8596584486493
 31
0.0
  0
LINE
  5
8C
330
7D
100
AcDbEntity
  8
レイヤー 1
 62
    18
420
        0
370
    25
100
AcDbLine
 10
85.32334357909364
 20
-146.8596584486493
 30
0.0
 11
85.8373407882027
 21
-147.2413640041095
 31
0.0
  0
LINE
  5
8D
330
7D
100
AcDbEntity
  8
レイヤー 1
 62
    18
420
        0
370
    25
100
AcDbLine
 10
85.8373407882027
 20
-147.2413640041095
 30
0.0
 11
86.322410220272
 21
-146.823816226436
 31
0.0
  0
LINE
  5
8E
330
7D
100
AcDbEntity
  8
レイヤー 1
 62
    18
420
        0
370
    25
100
AcDbLine
 10
86.322410220272
 20
-146.823816226436
 30
0.0
 11
86.83644270715793
 21
-147.2062273374515
 31
0.0
  0
LINE
  5
8F
330
7D
100
AcDbEntity
  8
レイヤー 1
 62
    18
420
        0
370
    25
100
AcDbLine
 10
86.83644270715793
 20
-147.2062273374515
 30
0.0
 11
87.32218241698792
 21
-146.788679559778
 31
0.0
  0
LINE
  5
90
330
7D
100
AcDbEntity
  8
レイヤー 1
 62
    18
420
        0
370
    25
100
AcDbLine
 10
87.32218241698792
 20
-146.788679559778
 30
0.0
 11
87.83586212610506
 21
-147.1703851152383
 31
0.0
  0
LINE
  5
91
330
7D
100
AcDbEntity
  8
レイヤー 1
 62
    18
420
        0
370
    25
100
AcDbLine
 10
87.83586212610506
 20
-147.1703851152383
 30
0.0
 11
88.32124905816625
 21
-146.7528373375648
 31
0.0
  0
LINE
  5
92
330
7D
100
AcDbEntity
  8
レイヤー 1
 62
    18
420
        0
370
    25
100
AcDbLine
 10
88.83563432282098
 20
-147.1345781708028
 30
0.0
 11
89.32070375488995
 21
-146.7170303931297
 31
0.0
  0
LINE
  5
93
330
7D
100
AcDbEntity
  8
レイヤー 1
 62
    18
420
        0
370
    25
100
AcDbLine
 10
88.32124905816625
 20
-146.7528373375648
 30
0.0
 11
88.83563432282098
 21
-147.1345781708028
 31
0.0
  0
LINE
  5
94
330
7D
100
AcDbEntity
  8
レイヤー 1
 62
    18
420
        0
370
    25
100
AcDbLine
 10
89.32070375488995
 20
-146.7170303931297
 30
0.0
 11
89.83470096399965
 21
-147.0987359485896
 31
0.0
  0
LINE
  5
95
330
7D
100
AcDbEntity
  8
レイヤー 1
 62
    18
420
        0
370
    25
100
AcDbLine
 10
89.83470096399965
 20
-147.0987359485896
 30
0.0
 11
90.32044067382932
 21
-146.6811881709161
 31
0.0
  0
LINE
  5
96
330
7D
100
AcDbEntity
  8
レイヤー 1
 62
    18
420
        0
370
    25
100
AcDbLine
 10
90.83447316071525
 20
-147.0628937263763
 30
0.0
 11
91.31954259278453
 21
-146.6453459487028
 31
0.0
  0
LINE
  5
97
330
7D
100
AcDbEntity
  8
レイヤー 1
 62
    18
420
        0
370
    25
100
AcDbLine
 10
90.32044067382932
 20
-146.6811881709161
 30
0.0
 11
90.83447316071525
 21
-147.0628937263763
 31
0.0
  0
LINE
  5
98
330
7D
100
AcDbEntity
  8
レイヤー 1
 62
    18
420
        0
370
    25
100
AcDbLine
 10
91.83371619077799
 20
-147.0277570597183
 30
0.0
 11
92.31945590060794
 21
-146.6102092820448
 31
0.0
  0
LINE
  5
99
330
7D
100
AcDbEntity
  8
レイヤー 1
 62
    18
420
        0
370
    25
100
AcDbLine
 10
91.31954259278453
 20
-146.6453459487028
 30
0.0
 11
91.83371619077799
 21
-147.0277570597183
 31
0.0
  0
LINE
  5
9A
330
7D
100
AcDbEntity
  8
レイヤー 1
 62
    18
420
        0
370
    25
100
AcDbLine
 10
92.31945590060794
 20
-146.6102092820448
 30
0.0
 11
92.83348838749388
 21
-146.9919501152829
 31
0.0
  0
LINE
  5
9B
330
7D
100
AcDbEntity
  8
レイヤー 1
 62
    18
420
        0
370
    25
100
AcDbLine
 10
92.83348838749388
 20
-146.9919501152829
 30
0.0
 11
93.31855781956319
 21
-146.5744023376094
 31
0.0
  0
LINE
  5
9C
330
7D
100
AcDbEntity
  8
レイヤー 1
 62
    18
420
        0
370
    25
100
AcDbLine
 10
93.31855781956319
 20
-146.5744023376094
 30
0.0
 11
93.83255502867257
 21
-146.9561078930696
 31
0.0
  0
LINE
  5
9D
330
7D
100
AcDbEntity
  8
レイヤー 1
 62
    18
420
        0
370
    25
100
AcDbLine
 10
93.83255502867257
 20
-146.9561078930696
 30
0.0
 11
94.31762446074154
 21
-146.5385601153961
 31
0.0
  0
LINE
  5
9E
330
7D
100
AcDbEntity
  8
レイヤー 1
 62
    18
420
        0
370
    25
100
AcDbLine
 10
94.31762446074154
 20
-146.5385601153961
 30
0.0
 11
94.8316216698506
 21
-146.9202656708564
 31
0.0
  0
LINE
  5
9F
330
7D
100
AcDbEntity
  8
レイヤー 1
 62
    18
420
        0
370
    25
100
AcDbLine
 10
94.8316216698506
 20
-146.9202656708564
 30
0.0
 11
95.31739665745744
 21
-146.5027531709607
 31
0.0
  0
LINE
  5
A0
330
7D
100
AcDbEntity
  8
レイヤー 1
 62
    18
420
        0
370
    25
100
AcDbLine
 10
95.31739665745744
 20
-146.5027531709607
 30
0.0
 11
95.83139386656652
 21
-146.884458726421
 31
0.0
  0
LINE
  5
A1
330
7D
100
AcDbEntity
  8
レイヤー 1
 62
    18
420
        0
370
    25
100
AcDbLine
 10
95.83139386656652
 20
-146.884458726421
 30
0.0
 11
96.31646329863579
 21
-146.4669109487475
 31
0.0
  0
LINE
  5
A2
330
7D
100
AcDbEntity
  8
レイヤー 1
 62
    18
420
        0
370
    25
100
AcDbLine
 10
96.31646329863579
 20
-146.4669109487475
 30
0.0
 11
96.83049578552143
 21
-146.8493220597632
 31
0.0
  0
LINE
  5
A3
330
7D
100
AcDbEntity
  8
レイヤー 1
 62
    18
420
        0
370
    25
100
AcDbLine
 10
96.83049578552143
 20
-146.8493220597632
 30
0.0
 11
97.31623549535171
 21
-146.4317742820894
 31
0.0
  0
LINE
  5
A4
330
7D
100
AcDbEntity
  8
レイヤー 1
 62
    18
420
        0
370
    25
100
AcDbLine
 10
97.31623549535171
 20
-146.4317742820894
 30
0.0
 11
97.83023270446078
 21
-146.8134798375497
 31
0.0
  0
LINE
  5
A5
330
7D
100
AcDbEntity
  8
レイヤー 1
 62
    18
420
        0
370
    25
100
AcDbLine
 10
97.83023270446078
 20
-146.8134798375497
 30
0.0
 11
98.31530213653007
 21
-146.3959320598762
 31
0.0
  0
LINE
  5
A6
330
7D
100
AcDbEntity
  8
レイヤー 1
 62
    18
420
        0
370
    25
100
AcDbLine
 10
98.31530213653007
 20
-146.3959320598762
 30
0.0
 11
98.829334623416
 21
-146.7776376153364
 31
0.0
  0
LINE
  5
A7
330
7D
100
AcDbEntity
  8
レイヤー 1
 62
    18
420
        0
370
    25
100
AcDbLine
 10
98.829334623416
 20
-146.7776376153364
 30
0.0
 11
99.31507433324597
 21
-146.3601251154408
 31
0.0
  0
LINE
  5
A8
330
7D
100
AcDbEntity
  8
レイヤー 1
 62
    18
420
        0
370
    25
100
AcDbLine
 10
99.31507433324597
 20
-146.3601251154408
 30
0.0
 11
99.82910682013191
 21
-146.741830670901
 31
0.0
  0
LINE
  5
A9
330
7D
100
AcDbEntity
  8
レイヤー 1
 62
    18
420
        0
370
    25
100
AcDbLine
 10
99.82910682013191
 20
-146.741830670901
 30
0.0
 11
100.3141762522012
 21
-146.3242828932275
 31
0.0
  0
LINE
  5
AA
330
7D
100
AcDbEntity
  8
レイヤー 1
 62
    18
420
        0
370
    25
100
AcDbLine
 10
100.3141762522012
 20
-146.3242828932275
 30
0.0
 11
100.8281734613102
 21
-146.7059884486878
 31
0.0
  0
LINE
  5
AB
330
7D
100
AcDbEntity
  8
レイヤー 1
 62
    18
420
        0
370
    25
100
AcDbLine
 10
100.8281734613102
 20
-146.7059884486878
 30
0.0
 11
101.3139131711402
 21
-146.2884406710143
 31
0.0
  0
LINE
  5
AC
330
7D
100
AcDbEntity
  8
レイヤー 1
 62
    18
420
        0
370
    25
100
AcDbLine
 10
101.3671430361694
 20
-146.2402159488041
 30
0.0
 11
102.3274789786153
 21
-146.2402159488041
 31
0.0
  0
LINE
  5
AD
330
7D
100
AcDbEntity
  8
レイヤー 1
 62
    18
420
        0
370
    25
100
AcDbLine
 10
102.3274789786153
 20
-146.2402159488041
 30
0.0
 11
102.3274789786153
 21
-151.502249280822
 31
0.0
  0
LINE
  5
AE
330
7D
100
AcDbEntity
  8
レイヤー 1
 62
    18
420
        0
370
    25
100
AcDbLine
 10
101.3277067818994
 20
-147.5024901151551
 30
0.0
 11
101.3277067818994
 21
-152.5027270583501
 31
0.0
  0
LINE
  5
AF
330
7D
100
AcDbEntity
  8
レイヤー 1
 62
    18
420
        0
370
    25
100
AcDbLine
 10
107.3270102399552
 20
-151.502249280822
 30
0.0
 11
102.3274789786153
 21
-151.502249280822
 31
0.0
  0
LINE
  5
B0
330
7D
100
AcDbEntity
  8
レイヤー 1
 62
    18
420
        0
370
    25
100
AcDbLine
 10
118.3347702369017
 20
-146.6453459487028
 30
0.0
 11
117.8207730277926
 21
-147.0277570597183
 31
0.0
  0
LINE
  5
B1
330
7D
100
AcDbEntity
  8
レイヤー 1
 62
    18
420
        0
370
    25
100
AcDbLine
 10
123.3315145538685
 20
-146.823816226436
 30
0.0
 11
122.8175173447595
 21
-147.2062273374515
 31
0.0
  0
LINE
  5
B2
330
7D
100
AcDbEntity
  8
レイヤー 1
 62
    18
420
        0
370
    25
100
AcDbLine
 10
118.819839668971
 20
-147.0628937263763
 30
0.0
 11
118.3347702369017
 21
-146.6453459487028
 31
0.0
  0
LINE
  5
B3
330
7D
100
AcDbEntity
  8
レイヤー 1
 62
    18
420
        0
370
    25
100
AcDbLine
 10
119.8196118656868
 20
-147.0987359485896
 30
0.0
 11
119.33383687808
 21
-146.6811881709161
 31
0.0
  0
LINE
  5
B4
330
7D
100
AcDbEntity
  8
レイヤー 1
 62
    18
420
        0
370
    25
100
AcDbLine
 10
117.8207730277926
 20
-147.0277570597183
 30
0.0
 11
117.3357035957233
 21
-146.6102092820448
 31
0.0
  0
LINE
  5
B5
330
7D
100
AcDbEntity
  8
レイヤー 1
 62
    18
420
        0
370
    25
100
AcDbLine
 10
119.33383687808
 20
-146.6811881709161
 30
0.0
 11
118.819839668971
 21
-147.0628937263763
 31
0.0
  0
LINE
  5
B6
330
7D
100
AcDbEntity
  8
レイヤー 1
 62
    18
420
        0
370
    25
100
AcDbLine
 10
127.3292275074339
 20
-146.9671498375112
 30
0.0
 11
126.815195020548
 21
-147.3488553929714
 31
0.0
  0
LINE
  5
B7
330
7D
100
AcDbEntity
  8
レイヤー 1
 62
    18
420
        0
370
    25
100
AcDbLine
 10
120.3336090747959
 20
-146.7170303931297
 30
0.0
 11
119.8196118656868
 21
-147.0987359485896
 31
0.0
  0
LINE
  5
B8
330
7D
100
AcDbEntity
  8
レイヤー 1
 62
    18
420
        0
370
    25
100
AcDbLine
 10
121.3326757159743
 20
-146.7528373375648
 30
0.0
 11
120.8186785068652
 21
-147.1345781708028
 31
0.0
  0
LINE
  5
B9
330
7D
100
AcDbEntity
  8
レイヤー 1
 62
    18
420
        0
370
    25
100
AcDbLine
 10
107.3270102399552
 20
-146.2402159488041
 30
0.0
 11
107.3270102399552
 21
-151.502249280822
 31
0.0
  0
LINE
  5
BA
330
7D
100
AcDbEntity
  8
レイヤー 1
 62
    18
420
        0
370
    25
100
AcDbLine
 10
120.8186785068652
 20
-147.1345781708028
 30
0.0
 11
120.3336090747959
 21
-146.7170303931297
 31
0.0
  0
LINE
  5
BB
330
7D
100
AcDbEntity
  8
レイヤー 1
 62
    18
420
        0
370
    25
100
AcDbLine
 10
121.8184507035811
 20
-147.1703851152383
 30
0.0
 11
121.3326757159743
 21
-146.7528373375648
 31
0.0
  0
LINE
  5
BC
330
7D
100
AcDbEntity
  8
レイヤー 1
 62
    18
420
        0
370
    25
100
AcDbLine
 10
126.815195020548
 20
-147.3488553929714
 30
0.0
 11
126.329455310718
 21
-146.931307615298
 31
0.0
  0
LINE
  5
BD
330
7D
100
AcDbEntity
  8
レイヤー 1
 62
    18
420
        0
370
    25
100
AcDbLine
 10
122.3324479126902
 20
-146.788679559778
 30
0.0
 11
121.8184507035811
 21
-147.1703851152383
 31
0.0
  0
LINE
  5
BE
330
7D
100
AcDbEntity
  8
レイヤー 1
 62
    18
420
        0
370
    25
100
AcDbLine
 10
122.8175173447595
 20
-147.2062273374515
 30
0.0
 11
122.3324479126902
 21
-146.788679559778
 31
0.0
  0
LINE
  5
BF
330
7D
100
AcDbEntity
  8
レイヤー 1
 62
    18
420
        0
370
    25
100
AcDbLine
 10
127.8142969395032
 20
-147.3846976151847
 30
0.0
 11
127.3292275074339
 21
-146.9671498375112
 31
0.0
  0
LINE
  5
C0
330
7D
100
AcDbEntity
  8
レイヤー 1
 62
    18
420
        0
370
    25
100
AcDbLine
 10
124.3306164728237
 20
-146.8596584486493
 30
0.0
 11
123.8172895414754
 21
-147.2413640041095
 31
0.0
  0
LINE
  5
C1
330
7D
100
AcDbEntity
  8
レイヤー 1
 62
    18
420
        0
370
    25
100
AcDbLine
 10
125.3303886695397
 20
-146.8954653930847
 30
0.0
 11
124.8163561826537
 21
-147.2772062263228
 31
0.0
  0
LINE
  5
C2
330
7D
100
AcDbEntity
  8
レイヤー 1
 62
    18
420
        0
370
    25
100
AcDbLine
 10
124.8163561826537
 20
-147.2772062263228
 30
0.0
 11
124.3306164728237
 21
-146.8596584486493
 31
0.0
  0
LINE
  5
C3
330
7D
100
AcDbEntity
  8
レイヤー 1
 62
    18
420
        0
370
    25
100
AcDbLine
 10
128.3282941486123
 20
-147.0022865041692
 30
0.0
 11
127.8142969395032
 21
-147.3846976151847
 31
0.0
  0
LINE
  5
C4
330
7D
100
AcDbEntity
  8
レイヤー 1
 62
    18
420
        0
370
    25
100
AcDbLine
 10
123.8172895414754
 20
-147.2413640041095
 30
0.0
 11
123.3315145538685
 21
-146.823816226436
 31
0.0
  0
LINE
  5
C5
330
7D
100
AcDbEntity
  8
レイヤー 1
 62
    18
420
        0
370
    25
100
AcDbLine
 10
126.329455310718
 20
-146.931307615298
 30
0.0
 11
125.815458101609
 21
-147.3130131707582
 31
0.0
  0
LINE
  5
C6
330
7D
100
AcDbEntity
  8
レイヤー 1
 62
    18
420
        0
370
    25
100
AcDbLine
 10
125.815458101609
 20
-147.3130131707582
 30
0.0
 11
125.3303886695397
 21
-146.8954653930847
 31
0.0
  0
LINE
  5
C7
330
7D
100
AcDbEntity
  8
レイヤー 1
 62
    18
420
        0
370
    25
100
AcDbLine
 10
128.3282941486123
 20
-147.0022865041692
 30
0.0
 11
128.3282941486123
 21
-147.5024901151551
 31
0.0
  0
LINE
  5
C8
330
7D
100
AcDbEntity
  8
レイヤー 1
 62
    18
420
        0
370
    25
100
AcDbLine
 10
108.3274527144318
 20
-147.5024901151551
 30
0.0
 11
128.3282941486123
 21
-147.5024901151551
 31
0.0
  0
LINE
  5
C9
330
7D
100
AcDbEntity
  8
レイヤー 1
 62
    18
420
        0
370
    25
100
AcDbLine
 10
117.3357035957233
 20
-146.6102092820448
 30
0.0
 11
116.8216711088374
 21
-146.9919501152829
 31
0.0
  0
LINE
  5
CA
330
7D
100
AcDbEntity
  8
レイヤー 1
 62
    18
420
        0
370
    25
100
AcDbLine
 10
116.8216711088374
 20
-146.9919501152829
 30
0.0
 11
116.3359313990074
 21
-146.5744023376094
 31
0.0
  0
LINE
  5
CB
330
7D
100
AcDbEntity
  8
レイヤー 1
 62
    18
420
        0
370
    25
100
AcDbLine
 10
116.3359313990074
 20
-146.5744023376094
 30
0.0
 11
115.8218989121214
 21
-146.9561078930696
 31
0.0
  0
LINE
  5
CC
330
7D
100
AcDbEntity
  8
レイヤー 1
 62
    18
420
        0
370
    25
100
AcDbLine
 10
115.8218989121214
 20
-146.9561078930696
 30
0.0
 11
115.3368294800521
 21
-146.5385601153961
 31
0.0
  0
LINE
  5
CD
330
7D
100
AcDbEntity
  8
レイヤー 1
 62
    18
420
        0
370
    25
100
AcDbLine
 10
115.3368294800521
 20
-146.5385601153961
 30
0.0
 11
114.8228322709431
 21
-146.9202656708564
 31
0.0
  0
LINE
  5
CE
330
7D
100
AcDbEntity
  8
レイヤー 1
 62
    18
420
        0
370
    25
100
AcDbLine
 10
114.8228322709431
 20
-146.9202656708564
 30
0.0
 11
114.3370925611131
 21
-146.5027531709607
 31
0.0
  0
LINE
  5
CF
330
7D
100
AcDbEntity
  8
レイヤー 1
 62
    18
420
        0
370
    25
100
AcDbLine
 10
114.3370925611131
 20
-146.5027531709607
 30
0.0
 11
113.8230600742272
 21
-146.884458726421
 31
0.0
  0
LINE
  5
D0
330
7D
100
AcDbEntity
  8
レイヤー 1
 62
    18
420
        0
370
    25
100
AcDbLine
 10
113.8230600742272
 20
-146.884458726421
 30
0.0
 11
113.3379906421579
 21
-146.4669109487475
 31
0.0
  0
LINE
  5
D1
330
7D
100
AcDbEntity
  8
レイヤー 1
 62
    18
420
        0
370
    25
100
AcDbLine
 10
113.3379906421579
 20
-146.4669109487475
 30
0.0
 11
112.8239934330488
 21
-146.8493220597632
 31
0.0
  0
LINE
  5
D2
330
7D
100
AcDbEntity
  8
レイヤー 1
 62
    18
420
        0
370
    25
100
AcDbLine
 10
112.8239934330488
 20
-146.8493220597632
 30
0.0
 11
112.3389240009795
 21
-146.4317742820894
 31
0.0
  0
LINE
  5
D3
330
7D
100
AcDbEntity
  8
レイヤー 1
 62
    18
420
        0
370
    25
100
AcDbLine
 10
112.3389240009795
 20
-146.4317742820894
 30
0.0
 11
111.8249267918705
 21
-146.8134798375497
 31
0.0
  0
LINE
  5
D4
330
7D
100
AcDbEntity
  8
レイヤー 1
 62
    18
420
        0
370
    25
100
AcDbLine
 10
111.8249267918705
 20
-146.8134798375497
 30
0.0
 11
111.3391518042636
 21
-146.3959320598762
 31
0.0
  0
LINE
  5
D5
330
7D
100
AcDbEntity
  8
レイヤー 1
 62
    18
420
        0
370
    25
100
AcDbLine
 10
111.3391518042636
 20
-146.3959320598762
 30
0.0
 11
110.8251545951546
 21
-146.7776376153364
 31
0.0
  0
LINE
  5
D6
330
7D
100
AcDbEntity
  8
レイヤー 1
 62
    18
420
        0
370
    25
100
AcDbLine
 10
110.8251545951546
 20
-146.7776376153364
 30
0.0
 11
110.3400851630853
 21
-146.3601251154408
 31
0.0
  0
LINE
  5
D7
330
7D
100
AcDbEntity
  8
レイヤー 1
 62
    18
420
        0
370
    25
100
AcDbLine
 10
110.3400851630853
 20
-146.3601251154408
 30
0.0
 11
109.8260526761993
 21
-146.741830670901
 31
0.0
  0
LINE
  5
D8
330
7D
100
AcDbEntity
  8
レイヤー 1
 62
    18
420
        0
370
    25
100
AcDbLine
 10
109.8260526761993
 20
-146.741830670901
 30
0.0
 11
109.3403129663694
 21
-146.3242828932275
 31
0.0
  0
LINE
  5
D9
330
7D
100
AcDbEntity
  8
レイヤー 1
 62
    18
420
        0
370
    25
100
AcDbLine
 10
109.3403129663694
 20
-146.3242828932275
 30
0.0
 11
108.8263157572603
 21
-146.7059884486878
 31
0.0
  0
LINE
  5
DA
330
7D
100
AcDbEntity
  8
レイヤー 1
 62
    18
420
        0
370
    25
100
AcDbLine
 10
108.8263157572603
 20
-146.7059884486878
 30
0.0
 11
108.341246325191
 21
-146.2884406710143
 31
0.0
  0
LINE
  5
DB
330
7D
100
AcDbEntity
  8
レイヤー 1
 62
    18
420
        0
370
    25
100
AcDbLine
 10
108.2761363213548
 20
-146.2402159488041
 30
0.0
 11
107.3270102399552
 21
-146.2402159488041
 31
0.0
  0
LINE
  5
DC
330
7D
100
AcDbEntity
  8
レイヤー 1
 62
    18
420
        0
370
    25
100
AcDbLine
 10
108.3274527144318
 20
-147.5024901151551
 30
0.0
 11
108.3274527144318
 21
-152.5027270583501
 31
0.0
  0
CIRCLE
  5
DD
330
7D
100
AcDbEntity
  8
レイヤー 1
 62
    18
420
        0
370
     9
100
AcDbCircle
 10
81.32566590330529
 20
-142.2404567831375
 30
0.0
 40
0.099906665379937
  0
SPLINE
  5
DE
330
7D
100
AcDbEntity
  8
レイヤー 1
 62
    18
420
        0
370
     9
100
AcDbSpline
210
0.0
220
0.0
230
1.0
 70
     9
 71
     3
 72
    17
 73
    13
 74
     0
 42
0.0000000001
 43
0.0000000001
 40
0.0
 40
0.0
 40
0.0
 40
0.0
 40
1.0
 40
1.0
 40
1.0
 40
2.0
 40
2.0
 40
2.0
 40
3.0
 40
3.0
 40
3.0
 40
4.0
 40
4.0
 40
4.0
 40
4.0
 10
77.42581581192055
 20
-147.0022865041692
 30
0.0
 10
77.42581581192055
 20
-146.9471473375162
 30
0.0
 10
77.38101303415416
 20
-146.9023798375276
 30
0.0
 10
77.32590683868081
 20
-146.9023798375276
 30
0.0
 10
77.27076767342087
 20
-146.9023798375276
 30
0.0
 10
77.22600017456298
 20
-146.9471473375162
 30
0.0
 10
77.22600017456298
 20
-147.0022865041692
 30
0.0
 10
77.22600017456298
 20
-147.0573903930442
 30
0.0
 10
77.27076767342087
 20
-147.1021931708109
 30
0.0
 10
77.32590683868081
 20
-147.1021931708109
 30
0.0
 10
77.38101303415416
 20
-147.1021931708109
 30
0.0
 10
77.42581581192055
 20
-147.0573903930442
 30
0.0
 10
77.42581581192055
 20
-147.0022865041692
 30
0.0
  0
SPLINE
  5
DF
330
7D
100
AcDbEntity
  8
レイヤー 1
 62
    18
420
        0
370
     9
100
AcDbSpline
210
0.0
220
0.0
230
1.0
 70
     9
 71
     3
 72
    17
 73
    13
 74
     0
 42
0.0000000001
 43
0.0000000001
 40
0.0
 40
0.0
 40
0.0
 40
0.0
 40
1.0
 40
1.0
 40
1.0
 40
2.0
 40
2.0
 40
2.0
 40
3.0
 40
3.0
 40
3.0
 40
4.0
 40
4.0
 40
4.0
 40
4.0
 10
77.42581581192055
 20
-147.5024901151551
 30
0.0
 10
77.42581581192055
 20
-147.4473862262802
 30
0.0
 10
77.38101303415416
 20
-147.4025834485135
 30
0.0
 10
77.32590683868081
 20
-147.4025834485135
 30
0.0
 10
77.27076767342087
 20
-147.4025834485135
 30
0.0
 10
77.22600017456298
 20
-147.4473862262802
 30
0.0
 10
77.22600017456298
 20
-147.5024901151551
 30
0.0
 10
77.22600017456298
 20
-147.5576292818082
 30
0.0
 10
77.27076767342087
 20
-147.6023967817968
 30
0.0
 10
77.32590683868081
 20
-147.6023967817968
 30
0.0
 10
77.38101303415416
 20
-147.6023967817968
 30
0.0
 10
77.42581581192055
 20
-147.5576292818082
 30
0.0
 10
77.42581581192055
 20
-147.5024901151551
 30
0.0
  0
SPLINE
  5
E0
330
7D
100
AcDbEntity
  8
レイヤー 1
 62
    18
420
        0
370
     9
100
AcDbSpline
210
0.0
220
0.0
230
1.0
 70
     9
 71
     3
 72
    17
 73
    13
 74
     0
 42
0.0000000001
 43
0.0000000001
 40
0.0
 40
0.0
 40
0.0
 40
0.0
 40
1.0
 40
1.0
 40
1.0
 40
2.0
 40
2.0
 40
2.0
 40
3.0
 40
3.0
 40
3.0
 40
4.0
 40
4.0
 40
4.0
 40
4.0
 10
77.42581581192055
 20
-152.5027270583501
 30
0.0
 10
77.42581581192055
 20
-152.4475878916963
 30
0.0
 10
77.38101303415416
 20
-152.4028203917078
 30
0.0
 10
77.32590683868081
 20
-152.4028203917078
 30
0.0
 10
77.27076767342087
 20
-152.4028203917078
 30
0.0
 10
77.22600017456298
 20
-152.4475878916963
 30
0.0
 10
77.22600017456298
 20
-152.5027270583501
 30
0.0
 10
77.22600017456298
 20
-152.5578309472243
 30
0.0
 10
77.27076767342087
 20
-152.602633724991
 30
0.0
 10
77.32590683868081
 20
-152.602633724991
 30
0.0
 10
77.38101303415416
 20
-152.602633724991
 30
0.0
 10
77.42581581192055
 20
-152.5578309472243
 30
0.0
 10
77.42581581192055
 20
-152.5027270583501
 30
0.0
  0
CIRCLE
  5
E1
330
7D
100
AcDbEntity
  8
レイヤー 1
 62
    18
420
        0
370
     9
100
AcDbCircle
 10
102.3274789786153
 20
-142.2404567831375
 30
0.0
 40
0.0999066653798568
  0
CIRCLE
  5
E2
330
7D
100
AcDbEntity
  8
レイヤー 1
 62
    18
420
        0
370
     9
100
AcDbCircle
 10
128.3282941486123
 20
-142.2404567831375
 30
0.0
 40
0.0999066653798568
  0
CIRCLE
  5
E3
330
7D
100
AcDbEntity
  8
レイヤー 1
 62
    18
420
        0
370
     9
100
AcDbCircle
 10
107.3270102399552
 20
-142.2404567831375
 30
0.0
 40
0.0999066653798568
  0
LINE
  5
E4
330
7D
100
AcDbEntity
  8
レイヤー 1
 62
    18
420
        0
370
     9
100
AcDbLine
 10
77.32590683868081
 20
-147.0022865041692
 30
0.0
 11
77.32590683868081
 21
-141.7443806721503
 31
0.0
  0
LINE
  5
E5
330
7D
100
AcDbEntity
  8
レイヤー 1
 62
    18
420
        0
370
     9
100
AcDbLine
 10
77.32590683868081
 20
-147.0022865041692
 30
0.0
 11
77.32590683868081
 21
-147.5024901151551
 31
0.0
  0
LINE
  5
E6
330
7D
100
AcDbEntity
  8
レイヤー 1
 62
    18
420
        0
370
     9
100
AcDbLine
 10
78.78591291254406
 20
-147.0022865041692
 30
0.0
 11
76.32578186419644
 21
-147.0022865041692
 31
0.0
  0
LINE
  5
E7
330
7D
100
AcDbEntity
  8
レイヤー 1
 62
    18
420
        0
370
     9
100
AcDbLine
 10
78.78591291254406
 20
-147.5024901151551
 30
0.0
 11
76.32578186419644
 21
-147.5024901151551
 31
0.0
  0
INSERT
  5
E9
330
7D
100
AcDbEntity
  8
レイヤー 1
100
AcDbBlockReference
  2
Block_2
 10
0.0
 20
0.0
 30
0.0
  0
LINE
  5
F7
330
7D
100
AcDbEntity
  8
レイヤー 1
 62
    18
420
        0
370
     9
100
AcDbLine
 10
81.32566590330545
 20
-142.2404567831375
 30
0.0
 11
102.3274789786153
 21
-142.2404567831375
 31
0.0
  0
LINE
  5
F8
330
7D
100
AcDbEntity
  8
レイヤー 1
 62
    18
420
        0
370
     9
100
AcDbLine
 10
81.32566590330545
 20
-144.4625334492485
 30
0.0
 11
81.32566590330545
 21
-141.240684561165
 31
0.0
  0
INSERT
  5
FA
330
7D
100
AcDbEntity
  8
レイヤー 1
100
AcDbBlockReference
  2
Block_4
 10
0.0
 20
0.0
 30
0.0
  0
LINE
  5
105
330
7D
100
AcDbEntity
  8
レイヤー 1
 62
    18
420
        0
370
     9
100
AcDbLine
 10
77.32590683868081
 20
-147.5024901151551
 30
0.0
 11
77.32590683868081
 21
-152.5027270583501
 31
0.0
  0
LINE
  5
106
330
7D
100
AcDbEntity
  8
レイヤー 1
 62
    18
420
        0
370
     9
100
AcDbLine
 10
98.78798906891526
 20
-152.5027270583501
 30
0.0
 11
76.32578186419644
 21
-152.5027270583501
 31
0.0
  0
INSERT
  5
108
330
7D
100
AcDbEntity
  8
レイヤー 1
100
AcDbBlockReference
  2
Block_6
 10
0.0
 20
0.0
 30
0.0
  0
LINE
  5
10D
330
7D
100
AcDbEntity
  8
レイヤー 1
 62
    18
420
        0
370
     9
100
AcDbLine
 10
128.3282941486123
 20
-142.2404567831375
 30
0.0
 11
107.3270102399552
 21
-142.2404567831375
 31
0.0
  0
LINE
  5
10E
330
7D
100
AcDbEntity
  8
レイヤー 1
 62
    18
420
        0
370
     9
100
AcDbLine
 10
128.3282941486123
 20
-144.4625334492485
 30
0.0
 11
128.3282941486123
 21
-141.240684561165
 31
0.0
  0
INSERT
  5
110
330
7D
100
AcDbEntity
  8
レイヤー 1
100
AcDbBlockReference
  2
Block_7
 10
0.0
 20
0.0
 30
0.0
  0
LINE
  5
11B
330
7D
100
AcDbEntity
  8
レイヤー 1
 62
    18
420
        0
370
     9
100
AcDbLine
 10
102.3274789786153
 20
-142.2404567831375
 30
0.0
 11
107.3270102399552
 21
-142.2404567831375
 31
0.0
  0
LINE
  5
11C
330
7D
100
AcDbEntity
  8
レイヤー 1
 62
    18
420
        0
370
     9
100
AcDbLine
 10
102.3274789786153
 20
-143.7004981716613
 30
0.0
 11
102.3274789786153
 21
-141.240684561165
 31
0.0
  0
LINE
  5
11D
330
7D
100
AcDbEntity
  8
レイヤー 1
 62
    18
420
        0
370
     9
100
AcDbLine
 10
107.3270102399552
 20
-143.7004981716613
 30
0.0
 11
107.3270102399552
 21
-141.240684561165
 31
0.0
  0
INSERT
  5
11F
330
7D
100
AcDbEntity
  8
レイヤー 1
100
AcDbBlockReference
  2
Block_9
 10
0.0
 20
0.0
 30
0.0
  0
CIRCLE
  5
124
330
7D
100
AcDbEntity
  8
レイヤー 1
 62
    18
420
        0
370
     9
100
AcDbCircle
 10
101.4875503889326
 20
-156.9262076127994
 30
0.0
 40
0.0999066653797365
  0
SPLINE
  5
125
330
7D
100
AcDbEntity
  8
レイヤー 1
 62
    18
420
        0
370
     9
100
AcDbSpline
210
0.0
220
0.0
230
1.0
 70
     9
 71
     3
 72
    17
 73
    13
 74
     0
 42
0.0000000001
 43
0.0000000001
 40
0.0
 40
0.0
 40
0.0
 40
0.0
 40
1.0
 40
1.0
 40
1.0
 40
2.0
 40
2.0
 40
2.0
 40
3.0
 40
3.0
 40
3.0
 40
4.0
 40
4.0
 40
4.0
 40
4.0
 10
108.6712699278825
 20
-156.9262076127994
 30
0.0
 10
108.6712699278825
 20
-156.8711037239244
 30
0.0
 10
108.6265024290246
 20
-156.8263009461577
 30
0.0
 10
108.5706577082271
 20
-156.8263009461577
 30
0.0
 10
108.5155538207441
 20
-156.8263009461577
 30
0.0
 10
108.4714565996468
 20
-156.8711037239244
 30
0.0
 10
108.4714565996468
 20
-156.9262076127994
 30
0.0
 10
108.4714565996468
 20
-156.9813467794524
 30
0.0
 10
108.5155538207441
 20
-157.026114279441
 30
0.0
 10
108.5706577082271
 20
-157.026114279441
 30
0.0
 10
108.6265024290246
 20
-157.026114279441
 30
0.0
 10
108.6712699278825
 20
-156.9813467794524
 30
0.0
 10
108.6712699278825
 20
-156.9262076127994
 30
0.0
  0
LINE
  5
126
330
7D
100
AcDbEntity
  8
レイヤー 1
 62
    18
420
        0
370
     9
100
AcDbLine
 10
108.5706577082271
 20
-156.9262076127994
 30
0.0
 11
101.4875503889326
 21
-156.9262076127994
 31
0.0
  0
LINE
  5
127
330
7D
100
AcDbEntity
  8
レイヤー 1
 62
    18
420
        0
370
     9
100
AcDbLine
 10
108.5706577082271
 20
-155.4662015020531
 30
0.0
 11
108.5706577082271
 21
-157.9259798347719
 31
0.0
  0
LINE
  5
128
330
7D
100
AcDbEntity
  8
レイヤー 1
 62
    18
420
        0
370
     9
100
AcDbLine
 10
101.4875503889326
 20
-155.4662015020531
 30
0.0
 11
101.4875503889326
 21
-157.9259798347719
 31
0.0
  0
INSERT
  5
12A
330
7D
100
AcDbEntity
  8
レイヤー 1
100
AcDbBlockReference
  2
Block_10
 10
0.0
 20
0.0
 30
0.0
  0
LINE
  5
12F
330
7D
100
AcDbEntity
  8
レイヤー 1
 62
    18
420
        0
370
     9
100
AcDbLine
 10
105.2689047369066
 20
-150.5011012255166
 30
0.0
 11
113.2690963585159
 21
-150.5011012255166
 31
0.0
  0
INSERT
  5
131
330
7D
100
AcDbEntity
  8
レイヤー 1
100
AcDbBlockReference
  2
Block_11
 10
0.0
 20
0.0
 30
0.0
  0
ENDBLK
  5
80
330
7D
100
AcDbEntity
  8
0
100
AcDbBlockEnd
  0
BLOCK
  5
EA
330
E8
100
AcDbEntity
  8
0
100
AcDbBlockBegin
  2
Block_2
 70
     0
 10
0.0
 20
0.0
 30
0.0
  3
Block_2
  1

  0
INSERT
  5
ED
330
E8
100
AcDbEntity
  8
レイヤー 1
100
AcDbBlockReference
  2
Block_3
 10
0.0
 20
0.0
 30
0.0
  0
ENDBLK
  5
EB
330
E8
100
AcDbEntity
  8
0
100
AcDbBlockEnd
  0
BLOCK
  5
EE
330
EC
100
AcDbEntity
  8
0
100
AcDbBlockBegin
  2
Block_3
 70
     0
 10
0.0
 20
0.0
 30
0.0
  3
Block_3
  1

  0
SPLINE
  5
F0
330
EC
100
AcDbEntity
  8
レイヤー 1
100
AcDbSpline
210
0.0
220
0.0
230
1.0
 70
     9
 71
     3
 72
    17
 73
    13
 74
     0
 42
0.0000000001
 43
0.0000000001
 40
0.0
 40
0.0
 40
0.0
 40
0.0
 40
1.0
 40
1.0
 40
1.0
 40
2.0
 40
2.0
 40
2.0
 40
3.0
 40
3.0
 40
3.0
 40
4.0
 40
4.0
 40
4.0
 40
4.0
 10
74.48141409813313
 20
-148.1577093813633
 30
0.0
 10
74.48141409813313
 20
-148.4074788040439
 30
0.0
 10
74.76477320179492
 20
-148.4539875930948
 30
0.0
 10
75.10962725986843
 20
-148.4539875930948
 30
0.0
 10
75.42915986612534
 20
-148.4539875930948
 30
0.0
 10
75.73801267637801
 20
-148.4178140904997
 30
0.0
 10
75.73801267637801
 20
-148.1577093813633
 30
0.0
 10
75.73801267637801
 20
-147.9100070159739
 30
0.0
 10
75.45654837523308
 20
-147.8614311696319
 30
0.0
 10
75.10962725986843
 20
-147.8614311696319
 30
0.0
 10
74.79026690838577
 20
-147.8614311696319
 30
0.0
 10
74.48141409813313
 20
-147.8996717295181
 30
0.0
 10
74.48141409813313
 20
-148.1577093813633
 30
0.0
  0
SPLINE
  5
F1
330
EC
100
AcDbEntity
  8
レイヤー 1
100
AcDbSpline
210
0.0
220
0.0
230
1.0
 70
     9
 71
     3
 72
    29
 73
    25
 74
     0
 42
0.0000000001
 43
0.0000000001
 40
0.0
 40
0.0
 40
0.0
 40
0.0
 40
1.0
 40
1.0
 40
1.0
 40
2.0
 40
2.0
 40
2.0
 40
3.0
 40
3.0
 40
3.0
 40
4.0
 40
4.0
 40
4.0
 40
5.0
 40
5.0
 40
5.0
 40
6.0
 40
6.0
 40
6.0
 40
7.0
 40
7.0
 40
7.0
 40
8.0
 40
8.0
 40
8.0
 40
8.0
 10
75.70407848584828
 20
-147.759800852817
 30
0.0
 10
75.91354029135148
 20
-147.8679768510538
 30
0.0
 10
75.93266057129461
 20
-148.0412651539619
 30
0.0
 10
75.93266057129461
 20
-148.1577093813633
 30
0.0
 10
75.93266057129461
 20
-148.3185953405245
 30
0.0
 10
75.88615178224374
 20
-148.4601887649683
 30
0.0
 10
75.70407848584828
 20
-148.5552734003612
 30
0.0
 10
75.50960284570594
 20
-148.6589707744672
 30
0.0
 10
75.27258027632075
 20
-148.6782633091846
 30
0.0
 10
75.10962725986843
 20
-148.6782633091846
 30
0.0
 10
74.96579452335925
 20
-148.6782633091846
 30
0.0
 10
74.71413029816175
 20
-148.6610378317583
 30
0.0
 10
74.51517603388857
 20
-148.5552734003612
 30
0.0
 10
74.3120876550331
 20
-148.4474419116729
 30
0.0
 10
74.28883326050765
 20
-148.2865559525117
 30
0.0
 10
74.28883326050765
 20
-148.1577093813633
 30
0.0
 10
74.28883326050765
 20
-147.9988904794933
 30
0.0
 10
74.33327499226738
 20
-147.8552299977584
 30
0.0
 10
74.51517603388857
 20
-147.759800852817
 30
0.0
 10
74.70775687151403
 20
-147.6605821028418
 30
0.0
 10
74.9361667021861
 20
-147.6371554535421
 30
0.0
 10
75.10962725986843
 20
-147.6371554535421
 30
0.0
 10
75.28102076025961
 20
-147.6371554535421
 30
0.0
 10
75.51166990299709
 20
-147.6585150455506
 30
0.0
 10
75.70407848584828
 20
-147.759800852817
 30
0.0
  0
HATCH
  5
F2
330
EC
100
AcDbEntity
  8
レイヤー 1
 62
    18
420
        0
440
 33554687
100
AcDbHatch
 10
0.0
 20
0.0
 30
0.0
210
0.0
220
0.0
230
1.0
  2
SOLID
 70
     1
 71
     1
 91
        2
 92
        1
 93
        1
 72
     4
 94
        3
 73
     0
 74
     0
 95
       17
 96
       13
 40
0.0
 40
0.0
 40
0.0
 40
0.0
 40
1.0
 40
1.0
 40
1.0
 40
2.0
 40
2.0
 40
2.0
 40
3.0
 40
3.0
 40
3.0
 40
4.0
 40
4.0
 40
4.0
 40
4.0
 10
74.48141409813313
 20
-148.1577093813633
 10
74.48141409813313
 20
-148.4074788040439
 10
74.76477320179492
 20
-148.4539875930948
 10
75.10962725986843
 20
-148.4539875930948
 10
75.42915986612534
 20
-148.4539875930948
 10
75.73801267637801
 20
-148.4178140904997
 10
75.73801267637801
 20
-148.1577093813633
 10
75.73801267637801
 20
-147.9100070159739
 10
75.45654837523308
 20
-147.8614311696319
 10
75.10962725986843
 20
-147.8614311696319
 10
74.79026690838577
 20
-147.8614311696319
 10
74.48141409813313
 20
-147.8996717295181
 10
74.48141409813313
 20
-148.1577093813633
 97
        0
 97
        1
330
F0
 92
        1
 93
        1
 72
     4
 94
        3
 73
     0
 74
     0
 95
       29
 96
       25
 40
0.0
 40
0.0
 40
0.0
 40
0.0
 40
1.0
 40
1.0
 40
1.0
 40
2.0
 40
2.0
 40
2.0
 40
3.0
 40
3.0
 40
3.0
 40
4.0
 40
4.0
 40
4.0
 40
5.0
 40
5.0
 40
5.0
 40
6.0
 40
6.0
 40
6.0
 40
7.0
 40
7.0
 40
7.0
 40
8.0
 40
8.0
 40
8.0
 40
8.0
 10
75.70407848584828
 20
-147.759800852817
 10
75.91354029135148
 20
-147.8679768510538
 10
75.93266057129461
 20
-148.0412651539619
 10
75.93266057129461
 20
-148.1577093813633
 10
75.93266057129461
 20
-148.3185953405245
 10
75.88615178224374
 20
-148.4601887649683
 10
75.70407848584828
 20
-148.5552734003612
 10
75.50960284570594
 20
-148.6589707744672
 10
75.27258027632075
 20
-148.6782633091846
 10
75.10962725986843
 20
-148.6782633091846
 10
74.96579452335925
 20
-148.6782633091846
 10
74.71413029816175
 20
-148.6610378317583
 10
74.51517603388857
 20
-148.5552734003612
 10
74.3120876550331
 20
-148.4474419116729
 10
74.28883326050765
 20
-148.2865559525117
 10
74.28883326050765
 20
-148.1577093813633
 10
74.28883326050765
 20
-147.9988904794933
 10
74.33327499226738
 20
-147.8552299977584
 10
74.51517603388857
 20
-147.759800852817
 10
74.70775687151403
 20
-147.6605821028418
 10
74.9361667021861
 20
-147.6371554535421
 10
75.10962725986843
 20
-147.6371554535421
 10
75.28102076025961
 20
-147.6371554535421
 10
75.51166990299709
 20
-147.6585150455506
 10
75.70407848584828
 20
-147.759800852817
 97
        0
 97
        1
330
F1
 75
     2
 76
     1
 98
        1
 10
0.0
 20
0.0
450
        0
451
        0
460
0.0
461
0.0
452
        0
462
0.0
453
        0
470

  0
SPLINE
  5
F3
330
EC
100
AcDbEntity
  8
レイヤー 1
100
AcDbSpline
210
0.0
220
0.0
230
1.0
 70
    11
 71
     3
 72
    17
 73
    13
 74
     0
 42
0.0000000001
 43
0.0000000001
 40
0.0
 40
0.0
 40
0.0
 40
0.0
 40
1.0
 40
1.0
 40
1.0
 40
2.0
 40
2.0
 40
2.0
 40
3.0
 40
3.0
 40
3.0
 40
4.0
 40
4.0
 40
4.0
 40
4.0
 10
75.88184541288718
 20
-147.4208034570684
 30
0.0
 10
75.88184541288718
 20
-147.4208034570684
 30
0.0
 10
75.63018118768969
 20
-147.4208034570684
 30
0.0
 10
75.63018118768969
 20
-147.4208034570684
 30
0.0
 10
75.63018118768969
 20
-147.4208034570684
 30
0.0
 10
75.63018118768969
 20
-147.1689669770966
 30
0.0
 10
75.63018118768969
 20
-147.1689669770966
 30
0.0
 10
75.63018118768969
 20
-147.1689669770966
 30
0.0
 10
75.88184541288718
 20
-147.1689669770966
 30
0.0
 10
75.88184541288718
 20
-147.1689669770966
 30
0.0
 10
75.88184541288718
 20
-147.1689669770966
 30
0.0
 10
75.88184541288718
 20
-147.4208034570684
 30
0.0
 10
75.88184541288718
 20
-147.4208034570684
 30
0.0
  0
HATCH
  5
F4
330
EC
100
AcDbEntity
  8
レイヤー 1
 62
    18
420
        0
440
 33554687
100
AcDbHatch
 10
0.0
 20
0.0
 30
0.0
210
0.0
220
0.0
230
1.0
  2
SOLID
 70
     1
 71
     1
 91
        1
 92
        1
 93
        1
 72
     4
 94
        3
 73
     0
 74
     0
 95
       17
 96
       13
 40
0.0
 40
0.0
 40
0.0
 40
0.0
 40
1.0
 40
1.0
 40
1.0
 40
2.0
 40
2.0
 40
2.0
 40
3.0
 40
3.0
 40
3.0
 40
4.0
 40
4.0
 40
4.0
 40
4.0
 10
75.88184541288718
 20
-147.4208034570684
 10
75.88184541288718
 20
-147.4208034570684
 10
75.63018118768969
 20
-147.4208034570684
 10
75.63018118768969
 20
-147.4208034570684
 10
75.63018118768969
 20
-147.4208034570684
 10
75.63018118768969
 20
-147.1689669770966
 10
75.63018118768969
 20
-147.1689669770966
 10
75.63018118768969
 20
-147.1689669770966
 10
75.88184541288718
 20
-147.1689669770966
 10
75.88184541288718
 20
-147.1689669770966
 10
75.88184541288718
 20
-147.1689669770966
 10
75.88184541288718
 20
-147.4208034570684
 10
75.88184541288718
 20
-147.4208034570684
 97
        0
 97
        1
330
F3
 75
     2
 76
     1
 98
        1
 10
0.0
 20
0.0
450
        0
451
        0
460
0.0
461
0.0
452
        0
462
0.0
453
        0
470

  0
SPLINE
  5
F5
330
EC
100
AcDbEntity
  8
レイヤー 1
100
AcDbSpline
210
0.0
220
0.0
230
1.0
 70
     9
 71
     3
 72
    53
 73
    49
 74
     0
 42
0.0000000001
 43
0.0000000001
 40
0.0
 40
0.0
 40
0.0
 40
0.0
 40
1.0
 40
1.0
 40
1.0
 40
2.0
 40
2.0
 40
2.0
 40
3.0
 40
3.0
 40
3.0
 40
4.0
 40
4.0
 40
4.0
 40
5.0
 40
5.0
 40
5.0
 40
6.0
 40
6.0
 40
6.0
 40
7.0
 40
7.0
 40
7.0
 40
8.0
 40
8.0
 40
8.0
 40
9.0
 40
9.0
 40
9.0
 40
10.0
 40
10.0
 40
10.0
 40
11.0
 40
11.0
 40
11.0
 40
12.0
 40
12.0
 40
12.0
 40
13.0
 40
13.0
 40
13.0
 40
14.0
 40
14.0
 40
14.0
 40
15.0
 40
15.0
 40
15.0
 40
16.0
 40
16.0
 40
16.0
 40
16.0
 10
75.93266057129461
 20
-146.4516980970676
 30
0.0
 10
75.93266057129461
 20
-146.5299017645828
 30
0.0
 10
75.91577960341689
 20
-146.6315320813976
 30
0.0
 10
75.85221759171403
 20
-146.7331623982125
 30
0.0
 10
75.7421467909603
 20
-146.9064507011206
 30
0.0
 10
75.61106090774655
 20
-146.9278102931292
 30
0.0
 10
75.50322941905823
 20
-146.946758318298
 30
0.0
 10
75.50322941905823
 20
-146.946758318298
 30
0.0
 10
75.50322941905823
 20
-146.7245496594994
 30
0.0
 10
75.50322941905823
 20
-146.7245496594994
 30
0.0
 10
75.70201142855714
 20
-146.6697726412839
 30
0.0
 10
75.73163924973029
 20
-146.5426486178782
 30
0.0
 10
75.73163924973029
 20
-146.4496310397765
 30
0.0
 10
75.73163924973029
 20
-146.3101046726239
 30
0.0
 10
75.63224824498083
 20
-146.1578314521758
 30
0.0
 10
75.39953204495221
 20
-146.1578314521758
 30
0.0
 10
75.14356145039814
 20
-146.1578314521758
 30
0.0
 10
75.07379826682182
 20
-146.3376654365058
 30
0.0
 10
75.07379826682182
 20
-146.4582437784896
 30
0.0
 10
75.07379826682182
 20
-146.4899386569539
 30
0.0
 10
75.07379826682182
 20
-146.6315320813976
 30
0.0
 10
75.20281709274444
 20
-146.7204155449171
 30
0.0
 10
75.20281709274444
 20
-146.7204155449171
 30
0.0
 10
75.1836968128013
 20
-146.8961154146648
 30
0.0
 10
75.1836968128013
 20
-146.8961154146648
 30
0.0
 10
75.1836968128013
 20
-146.8961154146648
 30
0.0
 10
74.33758136162395
 20
-146.7755370726811
 30
0.0
 10
74.33758136162395
 20
-146.7755370726811
 30
0.0
 10
74.33758136162395
 20
-146.7755370726811
 30
0.0
 10
74.33758136162395
 20
-145.9969454930146
 30
0.0
 10
74.33758136162395
 20
-145.9969454930146
 30
0.0
 10
74.33758136162395
 20
-145.9969454930146
 30
0.0
 10
74.53222925654056
 20
-145.9969454930146
 30
0.0
 10
74.53222925654056
 20
-145.9969454930146
 30
0.0
 10
74.53222925654056
 20
-145.9969454930146
 30
0.0
 10
74.53222925654056
 20
-146.6125840562288
 30
0.0
 10
74.53222925654056
 20
-146.6125840562288
 30
0.0
 10
74.53222925654056
 20
-146.6125840562288
 30
0.0
 10
74.95528698212924
 20
-146.6780408704485
 30
0.0
 10
74.95528698212924
 20
-146.6780408704485
 30
0.0
 10
74.92135279159953
 20
-146.6167181708111
 30
0.0
 10
74.88121742919637
 20
-146.5343803887136
 30
0.0
 10
74.88121742919637
 20
-146.415869104021
 30
0.0
 10
74.88121742919637
 20
-146.1619655667581
 30
0.0
 10
75.06742484017411
 20
-145.9249429973729
 30
0.0
 10
75.38041176500907
 20
-145.9249429973729
 30
0.0
 10
75.69787731397484
 20
-145.9249429973729
 30
0.0
 10
75.93266057129461
 20
-146.1492187134627
 30
0.0
 10
75.93266057129461
 20
-146.4516980970676
 30
0.0
  0
HATCH
  5
F6
330
EC
100
AcDbEntity
  8
レイヤー 1
 62
    18
420
        0
440
 33554687
100
AcDbHatch
 10
0.0
 20
0.0
 30
0.0
210
0.0
220
0.0
230
1.0
  2
SOLID
 70
     1
 71
     1
 91
        1
 92
        1
 93
        1
 72
     4
 94
        3
 73
     0
 74
     0
 95
       53
 96
       49
 40
0.0
 40
0.0
 40
0.0
 40
0.0
 40
1.0
 40
1.0
 40
1.0
 40
2.0
 40
2.0
 40
2.0
 40
3.0
 40
3.0
 40
3.0
 40
4.0
 40
4.0
 40
4.0
 40
5.0
 40
5.0
 40
5.0
 40
6.0
 40
6.0
 40
6.0
 40
7.0
 40
7.0
 40
7.0
 40
8.0
 40
8.0
 40
8.0
 40
9.0
 40
9.0
 40
9.0
 40
10.0
 40
10.0
 40
10.0
 40
11.0
 40
11.0
 40
11.0
 40
12.0
 40
12.0
 40
12.0
 40
13.0
 40
13.0
 40
13.0
 40
14.0
 40
14.0
 40
14.0
 40
15.0
 40
15.0
 40
15.0
 40
16.0
 40
16.0
 40
16.0
 40
16.0
 10
75.93266057129461
 20
-146.4516980970676
 10
75.93266057129461
 20
-146.5299017645828
 10
75.91577960341689
 20
-146.6315320813976
 10
75.85221759171403
 20
-146.7331623982125
 10
75.7421467909603
 20
-146.9064507011206
 10
75.61106090774655
 20
-146.9278102931292
 10
75.50322941905823
 20
-146.946758318298
 10
75.50322941905823
 20
-146.946758318298
 10
75.50322941905823
 20
-146.7245496594994
 10
75.50322941905823
 20
-146.7245496594994
 10
75.70201142855714
 20
-146.6697726412839
 10
75.73163924973029
 20
-146.5426486178782
 10
75.73163924973029
 20
-146.4496310397765
 10
75.73163924973029
 20
-146.3101046726239
 10
75.63224824498083
 20
-146.1578314521758
 10
75.39953204495221
 20
-146.1578314521758
 10
75.14356145039814
 20
-146.1578314521758
 10
75.07379826682182
 20
-146.3376654365058
 10
75.07379826682182
 20
-146.4582437784896
 10
75.07379826682182
 20
-146.4899386569539
 10
75.07379826682182
 20
-146.6315320813976
 10
75.20281709274444
 20
-146.7204155449171
 10
75.20281709274444
 20
-146.7204155449171
 10
75.1836968128013
 20
-146.8961154146648
 10
75.1836968128013
 20
-146.8961154146648
 10
75.1836968128013
 20
-146.8961154146648
 10
74.33758136162395
 20
-146.7755370726811
 10
74.33758136162395
 20
-146.7755370726811
 10
74.33758136162395
 20
-146.7755370726811
 10
74.33758136162395
 20
-145.9969454930146
 10
74.33758136162395
 20
-145.9969454930146
 10
74.33758136162395
 20
-145.9969454930146
 10
74.53222925654056
 20
-145.9969454930146
 10
74.53222925654056
 20
-145.9969454930146
 10
74.53222925654056
 20
-145.9969454930146
 10
74.53222925654056
 20
-146.6125840562288
 10
74.53222925654056
 20
-146.6125840562288
 10
74.53222925654056
 20
-146.6125840562288
 10
74.95528698212924
 20
-146.6780408704485
 10
74.95528698212924
 20
-146.6780408704485
 10
74.92135279159953
 20
-146.6167181708111
 10
74.88121742919637
 20
-146.5343803887136
 10
74.88121742919637
 20
-146.415869104021
 10
74.88121742919637
 20
-146.1619655667581
 10
75.06742484017411
 20
-145.9249429973729
 10
75.38041176500907
 20
-145.9249429973729
 10
75.69787731397484
 20
-145.9249429973729
 10
75.93266057129461
 20
-146.1492187134627
 10
75.93266057129461
 20
-146.4516980970676
 97
        0
 97
        1
330
F5
 75
     2
 76
     1
 98
        1
 10
0.0
 20
0.0
450
        0
451
        0
460
0.0
461
0.0
452
        0
462
0.0
453
        0
470

  0
ENDBLK
  5
EF
330
EC
100
AcDbEntity
  8
0
100
AcDbBlockEnd
  0
BLOCK
  5
FB
330
F9
100
AcDbEntity
  8
0
100
AcDbBlockBegin
  2
Block_4
 70
     0
 10
0.0
 20
0.0
 30
0.0
  3
Block_4
  1

  0
INSERT
  5
FE
330
F9
100
AcDbEntity
  8
レイヤー 1
100
AcDbBlockReference
  2
Block_5
 10
0.0
 20
0.0
 30
0.0
  0
ENDBLK
  5
FC
330
F9
100
AcDbEntity
  8
0
100
AcDbBlockEnd
  0
BLOCK
  5
FF
330
FD
100
AcDbEntity
  8
0
100
AcDbBlockBegin
  2
Block_5
 70
     0
 10
0.0
 20
0.0
 30
0.0
  3
Block_5
  1

  0
SPLINE
  5
101
330
FD
100
AcDbEntity
  8
レイヤー 1
100
AcDbSpline
210
0.0
220
0.0
230
1.0
 70
     9
 71
     3
 72
    44
 73
    40
 74
     0
 42
0.0000000001
 43
0.0000000001
 40
0.0
 40
0.0
 40
0.0
 40
0.0
 40
1.0
 40
1.0
 40
1.0
 40
2.0
 40
2.0
 40
2.0
 40
3.0
 40
3.0
 40
3.0
 40
4.0
 40
4.0
 40
4.0
 40
5.0
 40
5.0
 40
5.0
 40
6.0
 40
6.0
 40
6.0
 40
7.0
 40
7.0
 40
7.0
 40
8.0
 40
8.0
 40
8.0
 40
9.0
 40
9.0
 40
9.0
 40
10.0
 40
10.0
 40
10.0
 40
11.0
 40
11.0
 40
11.0
 40
12.0
 40
12.0
 40
12.0
 40
13.0
 40
13.0
 40
13.0
 40
13.0
 10
91.25506725149179
 20
-140.9454019829928
 30
0.0
 10
91.03716496204974
 20
-141.1040486300886
 30
0.0
 10
90.94397512917373
 20
-141.1781181830214
 30
0.0
 10
90.89539928283171
 20
-141.3219509195306
 30
0.0
 10
90.89539928283171
 20
-141.3219509195306
 30
0.0
 10
91.67381860772392
 20
-141.3219509195306
 30
0.0
 10
91.67381860772392
 20
-141.3219509195306
 30
0.0
 10
91.67381860772392
 20
-141.3219509195306
 30
0.0
 10
91.67381860772392
 20
-141.5271063556772
 30
0.0
 10
91.67381860772392
 20
-141.5271063556772
 30
0.0
 10
91.67381860772392
 20
-141.5271063556772
 30
0.0
 10
90.64580211492536
 20
-141.5271063556772
 30
0.0
 10
90.64580211492536
 20
-141.5271063556772
 30
0.0
 10
90.67749699338966
 20
-141.1695054443083
 30
0.0
 10
90.74295380760942
 20
-141.0913017767931
 30
0.0
 10
91.12811548286034
 20
-140.7929565077705
 30
0.0
 10
91.38408607741439
 20
-140.5941744982716
 30
0.0
 10
91.44954289163415
 20
-140.5264783719864
 30
0.0
 10
91.44954289163415
 20
-140.389019062125
 30
0.0
 10
91.44954289163415
 20
-140.2705077774324
 30
0.0
 10
91.37771265076668
 20
-140.1392496394443
 30
0.0
 10
91.18099769855893
 20
-140.1392496394443
 30
0.0
 10
90.9207207346483
 20
-140.1392496394443
 30
0.0
 10
90.91228025070943
 20
-140.3698987821818
 30
0.0
 10
90.90797388135287
 20
-140.4863430095833
 30
0.0
 10
90.90797388135287
 20
-140.4863430095833
 30
0.0
 10
90.68387042003736
 20
-140.4863430095833
 30
0.0
 10
90.68387042003736
 20
-140.4863430095833
 30
0.0
 10
90.69231090397623
 20
-140.3593912409518
 30
0.0
 10
90.70281844520625
 20
-140.2472533829069
 30
0.0
 10
90.78326142478683
 20
-140.1287420982143
 30
0.0
 10
90.8931599707663
 20
-139.9680283938274
 30
0.0
 10
91.07936738174405
 20
-139.9340942032977
 30
0.0
 10
91.19581160914549
 20
-139.9340942032977
 30
0.0
 10
91.47296954093384
 20
-139.9340942032977
 30
0.0
 10
91.68019203437163
 20
-140.1182345569843
 30
0.0
 10
91.68019203437163
 20
-140.3910861194161
 30
0.0
 10
91.68019203437163
 20
-140.6194959500882
 30
0.0
 10
91.56392006174444
 20
-140.7190592096119
 30
0.0
 10
91.25506725149179
 20
-140.9454019829928
 30
0.0
  0
HATCH
  5
102
330
FD
100
AcDbEntity
  8
レイヤー 1
 62
    18
420
        0
440
 33554687
100
AcDbHatch
 10
0.0
 20
0.0
 30
0.0
210
0.0
220
0.0
230
1.0
  2
SOLID
 70
     1
 71
     1
 91
        1
 92
        1
 93
        1
 72
     4
 94
        3
 73
     0
 74
     0
 95
       44
 96
       40
 40
0.0
 40
0.0
 40
0.0
 40
0.0
 40
1.0
 40
1.0
 40
1.0
 40
2.0
 40
2.0
 40
2.0
 40
3.0
 40
3.0
 40
3.0
 40
4.0
 40
4.0
 40
4.0
 40
5.0
 40
5.0
 40
5.0
 40
6.0
 40
6.0
 40
6.0
 40
7.0
 40
7.0
 40
7.0
 40
8.0
 40
8.0
 40
8.0
 40
9.0
 40
9.0
 40
9.0
 40
10.0
 40
10.0
 40
10.0
 40
11.0
 40
11.0
 40
11.0
 40
12.0
 40
12.0
 40
12.0
 40
13.0
 40
13.0
 40
13.0
 40
13.0
 10
91.25506725149179
 20
-140.9454019829928
 10
91.03716496204974
 20
-141.1040486300886
 10
90.94397512917373
 20
-141.1781181830214
 10
90.89539928283171
 20
-141.3219509195306
 10
90.89539928283171
 20
-141.3219509195306
 10
91.67381860772392
 20
-141.3219509195306
 10
91.67381860772392
 20
-141.3219509195306
 10
91.67381860772392
 20
-141.3219509195306
 10
91.67381860772392
 20
-141.5271063556772
 10
91.67381860772392
 20
-141.5271063556772
 10
91.67381860772392
 20
-141.5271063556772
 10
90.64580211492536
 20
-141.5271063556772
 10
90.64580211492536
 20
-141.5271063556772
 10
90.67749699338966
 20
-141.1695054443083
 10
90.74295380760942
 20
-141.0913017767931
 10
91.12811548286034
 20
-140.7929565077705
 10
91.38408607741439
 20
-140.5941744982716
 10
91.44954289163415
 20
-140.5264783719864
 10
91.44954289163415
 20
-140.389019062125
 10
91.44954289163415
 20
-140.2705077774324
 10
91.37771265076668
 20
-140.1392496394443
 10
91.18099769855893
 20
-140.1392496394443
 10
90.9207207346483
 20
-140.1392496394443
 10
90.91228025070943
 20
-140.3698987821818
 10
90.90797388135287
 20
-140.4863430095833
 10
90.90797388135287
 20
-140.4863430095833
 10
90.68387042003736
 20
-140.4863430095833
 10
90.68387042003736
 20
-140.4863430095833
 10
90.69231090397623
 20
-140.3593912409518
 10
90.70281844520625
 20
-140.2472533829069
 10
90.78326142478683
 20
-140.1287420982143
 10
90.8931599707663
 20
-139.9680283938274
 10
91.07936738174405
 20
-139.9340942032977
 10
91.19581160914549
 20
-139.9340942032977
 10
91.47296954093384
 20
-139.9340942032977
 10
91.68019203437163
 20
-140.1182345569843
 10
91.68019203437163
 20
-140.3910861194161
 10
91.68019203437163
 20
-140.6194959500882
 10
91.56392006174444
 20
-140.7190592096119
 10
91.25506725149179
 20
-140.9454019829928
 97
        0
 97
        1
330
101
 75
     2
 76
     1
 98
        1
 10
0.0
 20
0.0
450
        0
451
        0
460
0.0
461
0.0
452
        0
462
0.0
453
        0
470

  0
SPLINE
  5
103
330
FD
100
AcDbEntity
  8
レイヤー 1
100
AcDbSpline
210
0.0
220
0.0
230
1.0
 70
    11
 71
     3
 72
    26
 73
    22
 74
     0
 42
0.0000000001
 43
0.0000000001
 40
0.0
 40
0.0
 40
0.0
 40
0.0
 40
1.0
 40
1.0
 40
1.0
 40
2.0
 40
2.0
 40
2.0
 40
3.0
 40
3.0
 40
3.0
 40
4.0
 40
4.0
 40
4.0
 40
5.0
 40
5.0
 40
5.0
 40
6.0
 40
6.0
 40
6.0
 40
7.0
 40
7.0
 40
7.0
 40
7.0
 10
92.2901461900351
 20
-141.5271063556772
 30
0.0
 10
92.2901461900351
 20
-141.5271063556772
 30
0.0
 10
92.2901461900351
 20
-140.4227809978804
 30
0.0
 10
92.2901461900351
 20
-140.4227809978804
 30
0.0
 10
92.2901461900351
 20
-140.4227809978804
 30
0.0
 10
91.96010604254817
 20
-140.4227809978804
 30
0.0
 10
91.96010604254817
 20
-140.4227809978804
 30
0.0
 10
91.96010604254817
 20
-140.4227809978804
 30
0.0
 10
91.96010604254817
 20
-140.2746418920147
 30
0.0
 10
91.96010604254817
 20
-140.2746418920147
 30
0.0
 10
92.29221324732625
 20
-140.2600002362023
 30
0.0
 10
92.33872203637714
 20
-140.09704721975
 30
0.0
 10
92.36834985755027
 20
-139.982842304414
 30
0.0
 10
92.36834985755027
 20
-139.982842304414
 30
0.0
 10
92.51442190612486
 20
-139.982842304414
 30
0.0
 10
92.51442190612486
 20
-139.982842304414
 30
0.0
 10
92.51442190612486
 20
-139.982842304414
 30
0.0
 10
92.51442190612486
 20
-141.5271063556772
 30
0.0
 10
92.51442190612486
 20
-141.5271063556772
 30
0.0
 10
92.51442190612486
 20
-141.5271063556772
 30
0.0
 10
92.2901461900351
 20
-141.5271063556772
 30
0.0
 10
92.2901461900351
 20
-141.5271063556772
 30
0.0
  0
HATCH
  5
104
330
FD
100
AcDbEntity
  8
レイヤー 1
 62
    18
420
        0
440
 33554687
100
AcDbHatch
 10
0.0
 20
0.0
 30
0.0
210
0.0
220
0.0
230
1.0
  2
SOLID
 70
     1
 71
     1
 91
        1
 92
        1
 93
        1
 72
     4
 94
        3
 73
     0
 74
     0
 95
       26
 96
       22
 40
0.0
 40
0.0
 40
0.0
 40
0.0
 40
1.0
 40
1.0
 40
1.0
 40
2.0
 40
2.0
 40
2.0
 40
3.0
 40
3.0
 40
3.0
 40
4.0
 40
4.0
 40
4.0
 40
5.0
 40
5.0
 40
5.0
 40
6.0
 40
6.0
 40
6.0
 40
7.0
 40
7.0
 40
7.0
 40
7.0
 10
92.2901461900351
 20
-141.5271063556772
 10
92.2901461900351
 20
-141.5271063556772
 10
92.2901461900351
 20
-140.4227809978804
 10
92.2901461900351
 20
-140.4227809978804
 10
92.2901461900351
 20
-140.4227809978804
 10
91.96010604254817
 20
-140.4227809978804
 10
91.96010604254817
 20
-140.4227809978804
 10
91.96010604254817
 20
-140.4227809978804
 10
91.96010604254817
 20
-140.2746418920147
 10
91.96010604254817
 20
-140.2746418920147
 10
92.29221324732625
 20
-140.2600002362023
 10
92.33872203637714
 20
-140.09704721975
 10
92.36834985755027
 20
-139.982842304414
 10
92.36834985755027
 20
-139.982842304414
 10
92.51442190612486
 20
-139.982842304414
 10
92.51442190612486
 20
-139.982842304414
 10
92.51442190612486
 20
-139.982842304414
 10
92.51442190612486
 20
-141.5271063556772
 10
92.51442190612486
 20
-141.5271063556772
 10
92.51442190612486
 20
-141.5271063556772
 10
92.2901461900351
 20
-141.5271063556772
 10
92.2901461900351
 20
-141.5271063556772
 97
        0
 97
        1
330
103
 75
     2
 76
     1
 98
        1
 10
0.0
 20
0.0
450
        0
451
        0
460
0.0
461
0.0
452
        0
462
0.0
453
        0
470

  0
ENDBLK
  5
100
330
FD
100
AcDbEntity
  8
0
100
AcDbBlockEnd
  0
BLOCK
  5
109
330
107
100
AcDbEntity
  8
0
100
AcDbBlockBegin
  2
Block_6
 70
     0
 10
0.0
 20
0.0
 30
0.0
  3
Block_6
  1

  0
SPLINE
  5
10B
330
107
100
AcDbEntity
  8
レイヤー 1
100
AcDbSpline
210
0.0
220
0.0
230
1.0
 70
     9
 71
     3
 72
    53
 73
    49
 74
     0
 42
0.0000000001
 43
0.0000000001
 40
0.0
 40
0.0
 40
0.0
 40
0.0
 40
1.0
 40
1.0
 40
1.0
 40
2.0
 40
2.0
 40
2.0
 40
3.0
 40
3.0
 40
3.0
 40
4.0
 40
4.0
 40
4.0
 40
5.0
 40
5.0
 40
5.0
 40
6.0
 40
6.0
 40
6.0
 40
7.0
 40
7.0
 40
7.0
 40
8.0
 40
8.0
 40
8.0
 40
9.0
 40
9.0
 40
9.0
 40
10.0
 40
10.0
 40
10.0
 40
11.0
 40
11.0
 40
11.0
 40
12.0
 40
12.0
 40
12.0
 40
13.0
 40
13.0
 40
13.0
 40
14.0
 40
14.0
 40
14.0
 40
15.0
 40
15.0
 40
15.0
 40
16.0
 40
16.0
 40
16.0
 40
16.0
 10
76.66319306894185
 20
-150.6395561689373
 30
0.0
 10
76.66319306894185
 20
-150.7177598364525
 30
0.0
 10
76.64613984628985
 20
-150.8193901532674
 30
0.0
 10
76.58275008936126
 20
-150.9210204700822
 30
0.0
 10
76.47267928860753
 20
-151.0943087729903
 30
0.0
 10
76.34159340539376
 20
-151.1156683649988
 30
0.0
 10
76.23376191670544
 20
-151.1346163901677
 30
0.0
 10
76.23376191670544
 20
-151.1346163901677
 30
0.0
 10
76.23376191670544
 20
-150.9124077313691
 30
0.0
 10
76.23376191670544
 20
-150.9124077313691
 30
0.0
 10
76.43254392620438
 20
-150.8576307131536
 30
0.0
 10
76.46217174737751
 20
-150.7305066897479
 30
0.0
 10
76.46217174737751
 20
-150.6374891116462
 30
0.0
 10
76.46217174737751
 20
-150.4979627444936
 30
0.0
 10
76.36278074262806
 20
-150.3456895240455
 30
0.0
 10
76.13006454259942
 20
-150.3456895240455
 30
0.0
 10
75.87409394804537
 20
-150.3456895240455
 30
0.0
 10
75.80433076446905
 20
-150.5255235083755
 30
0.0
 10
75.80433076446905
 20
-150.6461018503593
 30
0.0
 10
75.80433076446905
 20
-150.6777967288236
 30
0.0
 10
75.80433076446905
 20
-150.8193901532674
 30
0.0
 10
75.93334959039167
 20
-150.9082736167868
 30
0.0
 10
75.93334959039167
 20
-150.9082736167868
 30
0.0
 10
75.91422931044853
 20
-151.0839734865345
 30
0.0
 10
75.91422931044853
 20
-151.0839734865345
 30
0.0
 10
75.91422931044853
 20
-151.0839734865345
 30
0.0
 10
75.06811385927116
 20
-150.9633951445508
 30
0.0
 10
75.06811385927116
 20
-150.9633951445508
 30
0.0
 10
75.06811385927116
 20
-150.9633951445508
 30
0.0
 10
75.06811385927116
 20
-150.1848035648843
 30
0.0
 10
75.06811385927116
 20
-150.1848035648843
 30
0.0
 10
75.06811385927116
 20
-150.1848035648843
 30
0.0
 10
75.26276175418778
 20
-150.1848035648843
 30
0.0
 10
75.26276175418778
 20
-150.1848035648843
 30
0.0
 10
75.26276175418778
 20
-150.1848035648843
 30
0.0
 10
75.26276175418778
 20
-150.8004421280985
 30
0.0
 10
75.26276175418778
 20
-150.8004421280985
 30
0.0
 10
75.26276175418778
 20
-150.8004421280985
 30
0.0
 10
75.68581947977647
 20
-150.8658989423182
 30
0.0
 10
75.68581947977647
 20
-150.8658989423182
 30
0.0
 10
75.65188528924675
 20
-150.8045762426808
 30
0.0
 10
75.6117499268436
 20
-150.7222384605833
 30
0.0
 10
75.6117499268436
 20
-150.6037271758907
 30
0.0
 10
75.6117499268436
 20
-150.3498236386278
 30
0.0
 10
75.79795733782134
 20
-150.1128010692426
 30
0.0
 10
76.11094426265629
 20
-150.1128010692426
 30
0.0
 10
76.42840981162208
 20
-150.1128010692426
 30
0.0
 10
76.66319306894185
 20
-150.3370767853324
 30
0.0
 10
76.66319306894185
 20
-150.6395561689373
 30
0.0
  0
HATCH
  5
10C
330
107
100
AcDbEntity
  8
レイヤー 1
 62
    18
420
        0
440
 33554687
100
AcDbHatch
 10
0.0
 20
0.0
 30
0.0
210
0.0
220
0.0
230
1.0
  2
SOLID
 70
     1
 71
     1
 91
        1
 92
        1
 93
        1
 72
     4
 94
        3
 73
     0
 74
     0
 95
       53
 96
       49
 40
0.0
 40
0.0
 40
0.0
 40
0.0
 40
1.0
 40
1.0
 40
1.0
 40
2.0
 40
2.0
 40
2.0
 40
3.0
 40
3.0
 40
3.0
 40
4.0
 40
4.0
 40
4.0
 40
5.0
 40
5.0
 40
5.0
 40
6.0
 40
6.0
 40
6.0
 40
7.0
 40
7.0
 40
7.0
 40
8.0
 40
8.0
 40
8.0
 40
9.0
 40
9.0
 40
9.0
 40
10.0
 40
10.0
 40
10.0
 40
11.0
 40
11.0
 40
11.0
 40
12.0
 40
12.0
 40
12.0
 40
13.0
 40
13.0
 40
13.0
 40
14.0
 40
14.0
 40
14.0
 40
15.0
 40
15.0
 40
15.0
 40
16.0
 40
16.0
 40
16.0
 40
16.0
 10
76.66319306894185
 20
-150.6395561689373
 10
76.66319306894185
 20
-150.7177598364525
 10
76.64613984628985
 20
-150.8193901532674
 10
76.58275008936126
 20
-150.9210204700822
 10
76.47267928860753
 20
-151.0943087729903
 10
76.34159340539376
 20
-151.1156683649988
 10
76.23376191670544
 20
-151.1346163901677
 10
76.23376191670544
 20
-151.1346163901677
 10
76.23376191670544
 20
-150.9124077313691
 10
76.23376191670544
 20
-150.9124077313691
 10
76.43254392620438
 20
-150.8576307131536
 10
76.46217174737751
 20
-150.7305066897479
 10
76.46217174737751
 20
-150.6374891116462
 10
76.46217174737751
 20
-150.4979627444936
 10
76.36278074262806
 20
-150.3456895240455
 10
76.13006454259942
 20
-150.3456895240455
 10
75.87409394804537
 20
-150.3456895240455
 10
75.80433076446905
 20
-150.5255235083755
 10
75.80433076446905
 20
-150.6461018503593
 10
75.80433076446905
 20
-150.6777967288236
 10
75.80433076446905
 20
-150.8193901532674
 10
75.93334959039167
 20
-150.9082736167868
 10
75.93334959039167
 20
-150.9082736167868
 10
75.91422931044853
 20
-151.0839734865345
 10
75.91422931044853
 20
-151.0839734865345
 10
75.91422931044853
 20
-151.0839734865345
 10
75.06811385927116
 20
-150.9633951445508
 10
75.06811385927116
 20
-150.9633951445508
 10
75.06811385927116
 20
-150.9633951445508
 10
75.06811385927116
 20
-150.1848035648843
 10
75.06811385927116
 20
-150.1848035648843
 10
75.06811385927116
 20
-150.1848035648843
 10
75.26276175418778
 20
-150.1848035648843
 10
75.26276175418778
 20
-150.1848035648843
 10
75.26276175418778
 20
-150.1848035648843
 10
75.26276175418778
 20
-150.8004421280985
 10
75.26276175418778
 20
-150.8004421280985
 10
75.26276175418778
 20
-150.8004421280985
 10
75.68581947977647
 20
-150.8658989423182
 10
75.68581947977647
 20
-150.8658989423182
 10
75.65188528924675
 20
-150.8045762426808
 10
75.6117499268436
 20
-150.7222384605833
 10
75.6117499268436
 20
-150.6037271758907
 10
75.6117499268436
 20
-150.3498236386278
 10
75.79795733782134
 20
-150.1128010692426
 10
76.11094426265629
 20
-150.1128010692426
 10
76.42840981162208
 20
-150.1128010692426
 10
76.66319306894185
 20
-150.3370767853324
 10
76.66319306894185
 20
-150.6395561689373
 97
        0
 97
        1
330
10B
 75
     2
 76
     1
 98
        1
 10
0.0
 20
0.0
450
        0
451
        0
460
0.0
461
0.0
452
        0
462
0.0
453
        0
470

  0
ENDBLK
  5
10A
330
107
100
AcDbEntity
  8
0
100
AcDbBlockEnd
  0
BLOCK
  5
111
330
10F
100
AcDbEntity
  8
0
100
AcDbBlockBegin
  2
Block_7
 70
     0
 10
0.0
 20
0.0
 30
0.0
  3
Block_7
  1

  0
INSERT
  5
114
330
10F
100
AcDbEntity
  8
レイヤー 1
100
AcDbBlockReference
  2
Block_8
 10
0.0
 20
0.0
 30
0.0
  0
ENDBLK
  5
112
330
10F
100
AcDbEntity
  8
0
100
AcDbBlockEnd
  0
BLOCK
  5
115
330
113
100
AcDbEntity
  8
0
100
AcDbBlockBegin
  2
Block_8
 70
     0
 10
0.0
 20
0.0
 30
0.0
  3
Block_8
  1

  0
SPLINE
  5
117
330
113
100
AcDbEntity
  8
レイヤー 1
100
AcDbSpline
210
0.0
220
0.0
230
1.0
 70
     9
 71
     3
 72
    44
 73
    40
 74
     0
 42
0.0000000001
 43
0.0000000001
 40
0.0
 40
0.0
 40
0.0
 40
0.0
 40
1.0
 40
1.0
 40
1.0
 40
2.0
 40
2.0
 40
2.0
 40
3.0
 40
3.0
 40
3.0
 40
4.0
 40
4.0
 40
4.0
 40
5.0
 40
5.0
 40
5.0
 40
6.0
 40
6.0
 40
6.0
 40
7.0
 40
7.0
 40
7.0
 40
8.0
 40
8.0
 40
8.0
 40
9.0
 40
9.0
 40
9.0
 40
10.0
 40
10.0
 40
10.0
 40
11.0
 40
11.0
 40
11.0
 40
12.0
 40
12.0
 40
12.0
 40
13.0
 40
13.0
 40
13.0
 40
13.0
 10
117.2565809168664
 20
-140.9454019829928
 30
0.0
 10
117.0388508821986
 20
-141.1040486300886
 30
0.0
 10
116.9458333040969
 20
-141.1781181830214
 30
0.0
 10
116.8969129482063
 20
-141.3219509195306
 30
0.0
 10
116.8969129482063
 20
-141.3219509195306
 30
0.0
 10
117.6755045278728
 20
-141.3219509195306
 30
0.0
 10
117.6755045278728
 20
-141.3219509195306
 30
0.0
 10
117.6755045278728
 20
-141.3219509195306
 30
0.0
 10
117.6755045278728
 20
-141.5271063556772
 30
0.0
 10
117.6755045278728
 20
-141.5271063556772
 30
0.0
 10
117.6755045278728
 20
-141.5271063556772
 30
0.0
 10
116.6474880350742
 20
-141.5271063556772
 30
0.0
 10
116.6474880350742
 20
-141.5271063556772
 30
0.0
 10
116.6791829135385
 20
-141.1695054443083
 30
0.0
 10
116.7446397277583
 20
-141.0913017767931
 30
0.0
 10
117.1298014030092
 20
-140.7929565077705
 30
0.0
 10
117.3857719975633
 20
-140.5941744982716
 30
0.0
 10
117.451228811783
 20
-140.5264783719864
 30
0.0
 10
117.451228811783
 20
-140.389019062125
 30
0.0
 10
117.451228811783
 20
-140.2705077774324
 30
0.0
 10
117.3792263161413
 20
-140.1392496394443
 30
0.0
 10
117.1825113639335
 20
-140.1392496394443
 30
0.0
 10
116.9224066547972
 20
-140.1392496394443
 30
0.0
 10
116.9141384256326
 20
-140.3698987821818
 30
0.0
 10
116.9096598015017
 20
-140.4863430095833
 30
0.0
 10
116.9096598015017
 20
-140.4863430095833
 30
0.0
 10
116.685384085412
 20
-140.4863430095833
 30
0.0
 10
116.685384085412
 20
-140.4863430095833
 30
0.0
 10
116.6939968241251
 20
-140.3593912409518
 30
0.0
 10
116.7046766201294
 20
-140.2472533829069
 30
0.0
 10
116.7849473449357
 20
-140.1287420982143
 30
0.0
 10
116.8948458909152
 20
-139.9680283938274
 30
0.0
 10
117.0812255566672
 20
-139.9340942032977
 30
0.0
 10
117.1973252745201
 20
-139.9340942032977
 30
0.0
 10
117.4746554610827
 20
-139.9340942032977
 30
0.0
 10
117.6820502092947
 20
-140.1182345569843
 30
0.0
 10
117.6820502092947
 20
-140.3910861194161
 30
0.0
 10
117.6820502092947
 20
-140.6194959500882
 30
0.0
 10
117.5656059818933
 20
-140.7190592096119
 30
0.0
 10
117.2565809168664
 20
-140.9454019829928
 30
0.0
  0
HATCH
  5
118
330
113
100
AcDbEntity
  8
レイヤー 1
 62
    18
420
        0
440
 33554687
100
AcDbHatch
 10
0.0
 20
0.0
 30
0.0
210
0.0
220
0.0
230
1.0
  2
SOLID
 70
     1
 71
     1
 91
        1
 92
        1
 93
        1
 72
     4
 94
        3
 73
     0
 74
     0
 95
       44
 96
       40
 40
0.0
 40
0.0
 40
0.0
 40
0.0
 40
1.0
 40
1.0
 40
1.0
 40
2.0
 40
2.0
 40
2.0
 40
3.0
 40
3.0
 40
3.0
 40
4.0
 40
4.0
 40
4.0
 40
5.0
 40
5.0
 40
5.0
 40
6.0
 40
6.0
 40
6.0
 40
7.0
 40
7.0
 40
7.0
 40
8.0
 40
8.0
 40
8.0
 40
9.0
 40
9.0
 40
9.0
 40
10.0
 40
10.0
 40
10.0
 40
11.0
 40
11.0
 40
11.0
 40
12.0
 40
12.0
 40
12.0
 40
13.0
 40
13.0
 40
13.0
 40
13.0
 10
117.2565809168664
 20
-140.9454019829928
 10
117.0388508821986
 20
-141.1040486300886
 10
116.9458333040969
 20
-141.1781181830214
 10
116.8969129482063
 20
-141.3219509195306
 10
116.8969129482063
 20
-141.3219509195306
 10
117.6755045278728
 20
-141.3219509195306
 10
117.6755045278728
 20
-141.3219509195306
 10
117.6755045278728
 20
-141.3219509195306
 10
117.6755045278728
 20
-141.5271063556772
 10
117.6755045278728
 20
-141.5271063556772
 10
117.6755045278728
 20
-141.5271063556772
 10
116.6474880350742
 20
-141.5271063556772
 10
116.6474880350742
 20
-141.5271063556772
 10
116.6791829135385
 20
-141.1695054443083
 10
116.7446397277583
 20
-141.0913017767931
 10
117.1298014030092
 20
-140.7929565077705
 10
117.3857719975633
 20
-140.5941744982716
 10
117.451228811783
 20
-140.5264783719864
 10
117.451228811783
 20
-140.389019062125
 10
117.451228811783
 20
-140.2705077774324
 10
117.3792263161413
 20
-140.1392496394443
 10
117.1825113639335
 20
-140.1392496394443
 10
116.9224066547972
 20
-140.1392496394443
 10
116.9141384256326
 20
-140.3698987821818
 10
116.9096598015017
 20
-140.4863430095833
 10
116.9096598015017
 20
-140.4863430095833
 10
116.685384085412
 20
-140.4863430095833
 10
116.685384085412
 20
-140.4863430095833
 10
116.6939968241251
 20
-140.3593912409518
 10
116.7046766201294
 20
-140.2472533829069
 10
116.7849473449357
 20
-140.1287420982143
 10
116.8948458909152
 20
-139.9680283938274
 10
117.0812255566672
 20
-139.9340942032977
 10
117.1973252745201
 20
-139.9340942032977
 10
117.4746554610827
 20
-139.9340942032977
 10
117.6820502092947
 20
-140.1182345569843
 10
117.6820502092947
 20
-140.3910861194161
 10
117.6820502092947
 20
-140.6194959500882
 10
117.5656059818933
 20
-140.7190592096119
 10
117.2565809168664
 20
-140.9454019829928
 97
        0
 97
        1
330
117
 75
     2
 76
     1
 98
        1
 10
0.0
 20
0.0
450
        0
451
        0
460
0.0
461
0.0
452
        0
462
0.0
453
        0
470

  0
SPLINE
  5
119
330
113
100
AcDbEntity
  8
レイヤー 1
100
AcDbSpline
210
0.0
220
0.0
230
1.0
 70
    11
 71
     3
 72
    26
 73
    22
 74
     0
 42
0.0000000001
 43
0.0000000001
 40
0.0
 40
0.0
 40
0.0
 40
0.0
 40
1.0
 40
1.0
 40
1.0
 40
2.0
 40
2.0
 40
2.0
 40
3.0
 40
3.0
 40
3.0
 40
4.0
 40
4.0
 40
4.0
 40
5.0
 40
5.0
 40
5.0
 40
6.0
 40
6.0
 40
6.0
 40
7.0
 40
7.0
 40
7.0
 40
7.0
 10
118.291832110184
 20
-141.5271063556772
 30
0.0
 10
118.291832110184
 20
-141.5271063556772
 30
0.0
 10
118.291832110184
 20
-140.4227809978804
 30
0.0
 10
118.291832110184
 20
-140.4227809978804
 30
0.0
 10
118.291832110184
 20
-140.4227809978804
 30
0.0
 10
117.961791962697
 20
-140.4227809978804
 30
0.0
 10
117.961791962697
 20
-140.4227809978804
 30
0.0
 10
117.961791962697
 20
-140.4227809978804
 30
0.0
 10
117.961791962697
 20
-140.2746418920147
 30
0.0
 10
117.961791962697
 20
-140.2746418920147
 30
0.0
 10
118.2938991674751
 20
-140.2600002362023
 30
0.0
 10
118.340407956526
 20
-140.09704721975
 30
0.0
 10
118.3700357776991
 20
-139.982842304414
 30
0.0
 10
118.3700357776991
 20
-139.982842304414
 30
0.0
 10
118.5161078262737
 20
-139.982842304414
 30
0.0
 10
118.5161078262737
 20
-139.982842304414
 30
0.0
 10
118.5161078262737
 20
-139.982842304414
 30
0.0
 10
118.5161078262737
 20
-141.5271063556772
 30
0.0
 10
118.5161078262737
 20
-141.5271063556772
 30
0.0
 10
118.5161078262737
 20
-141.5271063556772
 30
0.0
 10
118.291832110184
 20
-141.5271063556772
 30
0.0
 10
118.291832110184
 20
-141.5271063556772
 30
0.0
  0
HATCH
  5
11A
330
113
100
AcDbEntity
  8
レイヤー 1
 62
    18
420
        0
440
 33554687
100
AcDbHatch
 10
0.0
 20
0.0
 30
0.0
210
0.0
220
0.0
230
1.0
  2
SOLID
 70
     1
 71
     1
 91
        1
 92
        1
 93
        1
 72
     4
 94
        3
 73
     0
 74
     0
 95
       26
 96
       22
 40
0.0
 40
0.0
 40
0.0
 40
0.0
 40
1.0
 40
1.0
 40
1.0
 40
2.0
 40
2.0
 40
2.0
 40
3.0
 40
3.0
 40
3.0
 40
4.0
 40
4.0
 40
4.0
 40
5.0
 40
5.0
 40
5.0
 40
6.0
 40
6.0
 40
6.0
 40
7.0
 40
7.0
 40
7.0
 40
7.0
 10
118.291832110184
 20
-141.5271063556772
 10
118.291832110184
 20
-141.5271063556772
 10
118.291832110184
 20
-140.4227809978804
 10
118.291832110184
 20
-140.4227809978804
 10
118.291832110184
 20
-140.4227809978804
 10
117.961791962697
 20
-140.4227809978804
 10
117.961791962697
 20
-140.4227809978804
 10
117.961791962697
 20
-140.4227809978804
 10
117.961791962697
 20
-140.2746418920147
 10
117.961791962697
 20
-140.2746418920147
 10
118.2938991674751
 20
-140.2600002362023
 10
118.340407956526
 20
-140.09704721975
 10
118.3700357776991
 20
-139.982842304414
 10
118.3700357776991
 20
-139.982842304414
 10
118.5161078262737
 20
-139.982842304414
 10
118.5161078262737
 20
-139.982842304414
 10
118.5161078262737
 20
-139.982842304414
 10
118.5161078262737
 20
-141.5271063556772
 10
118.5161078262737
 20
-141.5271063556772
 10
118.5161078262737
 20
-141.5271063556772
 10
118.291832110184
 20
-141.5271063556772
 10
118.291832110184
 20
-141.5271063556772
 97
        0
 97
        1
330
119
 75
     2
 76
     1
 98
        1
 10
0.0
 20
0.0
450
        0
451
        0
460
0.0
461
0.0
452
        0
462
0.0
453
        0
470

  0
ENDBLK
  5
116
330
113
100
AcDbEntity
  8
0
100
AcDbBlockEnd
  0
BLOCK
  5
120
330
11E
100
AcDbEntity
  8
0
100
AcDbBlockBegin
  2
Block_9
 70
     0
 10
0.0
 20
0.0
 30
0.0
  3
Block_9
  1

  0
SPLINE
  5
122
330
11E
100
AcDbEntity
  8
レイヤー 1
100
AcDbSpline
210
0.0
220
0.0
230
1.0
 70
     9
 71
     3
 72
    53
 73
    49
 74
     0
 42
0.0000000001
 43
0.0000000001
 40
0.0
 40
0.0
 40
0.0
 40
0.0
 40
1.0
 40
1.0
 40
1.0
 40
2.0
 40
2.0
 40
2.0
 40
3.0
 40
3.0
 40
3.0
 40
4.0
 40
4.0
 40
4.0
 40
5.0
 40
5.0
 40
5.0
 40
6.0
 40
6.0
 40
6.0
 40
7.0
 40
7.0
 40
7.0
 40
8.0
 40
8.0
 40
8.0
 40
9.0
 40
9.0
 40
9.0
 40
10.0
 40
10.0
 40
10.0
 40
11.0
 40
11.0
 40
11.0
 40
12.0
 40
12.0
 40
12.0
 40
13.0
 40
13.0
 40
13.0
 40
14.0
 40
14.0
 40
14.0
 40
15.0
 40
15.0
 40
15.0
 40
16.0
 40
16.0
 40
16.0
 40
16.0
 10
104.81031220253
 20
-141.5779215140847
 30
0.0
 10
104.7319362802406
 20
-141.5779215140847
 30
0.0
 10
104.6304782182
 20
-141.561040546207
 30
0.0
 10
104.5288479013851
 20
-141.4974785345041
 30
0.0
 10
104.3553873437028
 20
-141.3874077337503
 30
0.0
 10
104.3342000064685
 20
-141.2563218505366
 30
0.0
 10
104.3152519812996
 20
-141.1484903618483
 30
0.0
 10
104.3152519812996
 20
-141.1484903618483
 30
0.0
 10
104.537288385324
 20
-141.1484903618483
 30
0.0
 10
104.537288385324
 20
-141.1484903618483
 30
0.0
 10
104.592409913088
 20
-141.3472723713472
 30
0.0
 10
104.7193616817194
 20
-141.3769001925203
 30
0.0
 10
104.8123792598212
 20
-141.3769001925203
 30
0.0
 10
104.9520778817481
 20
-141.3769001925203
 30
0.0
 10
105.1043511021961
 20
-141.2775091877709
 30
0.0
 10
105.1043511021961
 20
-141.0447929877423
 30
0.0
 10
105.1043511021961
 20
-140.7888223931882
 30
0.0
 10
104.9245171178661
 20
-140.7190592096119
 30
0.0
 10
104.8039387758823
 20
-140.7190592096119
 30
0.0
 10
104.772243897418
 20
-140.7190592096119
 30
0.0
 10
104.6304782182
 20
-140.7190592096119
 30
0.0
 10
104.5415947546805
 20
-140.8480780355345
 30
0.0
 10
104.5415947546805
 20
-140.8480780355345
 30
0.0
 10
104.3660671397071
 20
-140.8289577555914
 30
0.0
 10
104.3660671397071
 20
-140.8289577555914
 30
0.0
 10
104.3660671397071
 20
-140.8289577555914
 30
0.0
 10
104.4866454816908
 20
-139.982842304414
 30
0.0
 10
104.4866454816908
 20
-139.982842304414
 30
0.0
 10
104.4866454816908
 20
-139.982842304414
 30
0.0
 10
105.265064806583
 20
-139.982842304414
 30
0.0
 10
105.265064806583
 20
-139.982842304414
 30
0.0
 10
105.265064806583
 20
-139.982842304414
 30
0.0
 10
105.265064806583
 20
-140.1774901993306
 30
0.0
 10
105.265064806583
 20
-140.1774901993306
 30
0.0
 10
105.265064806583
 20
-140.1774901993306
 30
0.0
 10
104.6494262433689
 20
-140.1774901993306
 30
0.0
 10
104.6494262433689
 20
-140.1774901993306
 30
0.0
 10
104.6494262433689
 20
-140.1774901993306
 30
0.0
 10
104.5839694291491
 20
-140.6005479249193
 30
0.0
 10
104.5839694291491
 20
-140.6005479249193
 30
0.0
 10
104.6452921287866
 20
-140.5666137343896
 30
0.0
 10
104.7278021656583
 20
-140.5264783719864
 30
0.0
 10
104.8461411955766
 20
-140.5264783719864
 30
0.0
 10
105.1000447328396
 20
-140.5264783719864
 30
0.0
 10
105.3370673022247
 20
-140.7126857829642
 30
0.0
 10
105.3370673022247
 20
-141.0256727077991
 30
0.0
 10
105.3370673022247
 20
-141.3431382567649
 30
0.0
 10
105.112791586135
 20
-141.5779215140847
 30
0.0
 10
104.81031220253
 20
-141.5779215140847
 30
0.0
  0
HATCH
  5
123
330
11E
100
AcDbEntity
  8
レイヤー 1
 62
    18
420
        0
440
 33554687
100
AcDbHatch
 10
0.0
 20
0.0
 30
0.0
210
0.0
220
0.0
230
1.0
  2
SOLID
 70
     1
 71
     1
 91
        1
 92
        1
 93
        1
 72
     4
 94
        3
 73
     0
 74
     0
 95
       53
 96
       49
 40
0.0
 40
0.0
 40
0.0
 40
0.0
 40
1.0
 40
1.0
 40
1.0
 40
2.0
 40
2.0
 40
2.0
 40
3.0
 40
3.0
 40
3.0
 40
4.0
 40
4.0
 40
4.0
 40
5.0
 40
5.0
 40
5.0
 40
6.0
 40
6.0
 40
6.0
 40
7.0
 40
7.0
 40
7.0
 40
8.0
 40
8.0
 40
8.0
 40
9.0
 40
9.0
 40
9.0
 40
10.0
 40
10.0
 40
10.0
 40
11.0
 40
11.0
 40
11.0
 40
12.0
 40
12.0
 40
12.0
 40
13.0
 40
13.0
 40
13.0
 40
14.0
 40
14.0
 40
14.0
 40
15.0
 40
15.0
 40
15.0
 40
16.0
 40
16.0
 40
16.0
 40
16.0
 10
104.81031220253
 20
-141.5779215140847
 10
104.7319362802406
 20
-141.5779215140847
 10
104.6304782182
 20
-141.561040546207
 10
104.5288479013851
 20
-141.4974785345041
 10
104.3553873437028
 20
-141.3874077337503
 10
104.3342000064685
 20
-141.2563218505366
 10
104.3152519812996
 20
-141.1484903618483
 10
104.3152519812996
 20
-141.1484903618483
 10
104.537288385324
 20
-141.1484903618483
 10
104.537288385324
 20
-141.1484903618483
 10
104.592409913088
 20
-141.3472723713472
 10
104.7193616817194
 20
-141.3769001925203
 10
104.8123792598212
 20
-141.3769001925203
 10
104.9520778817481
 20
-141.3769001925203
 10
105.1043511021961
 20
-141.2775091877709
 10
105.1043511021961
 20
-141.0447929877423
 10
105.1043511021961
 20
-140.7888223931882
 10
104.9245171178661
 20
-140.7190592096119
 10
104.8039387758823
 20
-140.7190592096119
 10
104.772243897418
 20
-140.7190592096119
 10
104.6304782182
 20
-140.7190592096119
 10
104.5415947546805
 20
-140.8480780355345
 10
104.5415947546805
 20
-140.8480780355345
 10
104.3660671397071
 20
-140.8289577555914
 10
104.3660671397071
 20
-140.8289577555914
 10
104.3660671397071
 20
-140.8289577555914
 10
104.4866454816908
 20
-139.982842304414
 10
104.4866454816908
 20
-139.982842304414
 10
104.4866454816908
 20
-139.982842304414
 10
105.265064806583
 20
-139.982842304414
 10
105.265064806583
 20
-139.982842304414
 10
105.265064806583
 20
-139.982842304414
 10
105.265064806583
 20
-140.1774901993306
 10
105.265064806583
 20
-140.1774901993306
 10
105.265064806583
 20
-140.1774901993306
 10
104.6494262433689
 20
-140.1774901993306
 10
104.6494262433689
 20
-140.1774901993306
 10
104.6494262433689
 20
-140.1774901993306
 10
104.5839694291491
 20
-140.6005479249193
 10
104.5839694291491
 20
-140.6005479249193
 10
104.6452921287866
 20
-140.5666137343896
 10
104.7278021656583
 20
-140.5264783719864
 10
104.8461411955766
 20
-140.5264783719864
 10
105.1000447328396
 20
-140.5264783719864
 10
105.3370673022247
 20
-140.7126857829642
 10
105.3370673022247
 20
-141.0256727077991
 10
105.3370673022247
 20
-141.3431382567649
 10
105.112791586135
 20
-141.5779215140847
 10
104.81031220253
 20
-141.5779215140847
 97
        0
 97
        1
330
122
 75
     2
 76
     1
 98
        1
 10
0.0
 20
0.0
450
        0
451
        0
460
0.0
461
0.0
452
        0
462
0.0
453
        0
470

  0
ENDBLK
  5
121
330
11E
100
AcDbEntity
  8
0
100
AcDbBlockEnd
  0
BLOCK
  5
12B
330
129
100
AcDbEntity
  8
0
100
AcDbBlockBegin
  2
Block_10
 70
     0
 10
0.0
 20
0.0
 30
0.0
  3
Block_10
  1

  0
SPLINE
  5
12D
330
129
100
AcDbEntity
  8
レイヤー 1
100
AcDbSpline
210
0.0
220
0.0
230
1.0
 70
     9
 71
     3
 72
    26
 73
    22
 74
     0
 42
0.0000000001
 43
0.0000000001
 40
0.0
 40
0.0
 40
0.0
 40
0.0
 40
1.0
 40
1.0
 40
1.0
 40
2.0
 40
2.0
 40
2.0
 40
3.0
 40
3.0
 40
3.0
 40
4.0
 40
4.0
 40
4.0
 40
5.0
 40
5.0
 40
5.0
 40
6.0
 40
6.0
 40
6.0
 40
7.0
 40
7.0
 40
7.0
 40
7.0
 10
104.9400200475497
 20
-156.2123426258775
 30
0.0
 10
104.9400200475497
 20
-156.2123426258775
 30
0.0
 10
104.7029974781645
 20
-156.2123426258775
 30
0.0
 10
104.7029974781645
 20
-156.2123426258775
 30
0.0
 10
104.7284911847554
 20
-155.9033175608505
 30
0.0
 10
104.9210720223808
 20
-155.385175199869
 30
0.0
 10
105.3272487800918
 20
-154.8794351826343
 30
0.0
 10
105.3272487800918
 20
-154.8794351826343
 30
0.0
 10
104.489401558079
 20
-154.8794351826343
 30
0.0
 10
104.489401558079
 20
-154.8794351826343
 30
0.0
 10
104.489401558079
 20
-154.8794351826343
 30
0.0
 10
104.489401558079
 20
-154.6679063198399
 30
0.0
 10
104.489401558079
 20
-154.6679063198399
 30
0.0
 10
104.489401558079
 20
-154.6679063198399
 30
0.0
 10
105.564271349477
 20
-154.6679063198399
 30
0.0
 10
105.564271349477
 20
-154.6679063198399
 30
0.0
 10
105.564271349477
 20
-154.6679063198399
 30
0.0
 10
105.564271349477
 20
-154.8794351826343
 30
0.0
 10
105.564271349477
 20
-154.8794351826343
 30
0.0
 10
105.2404323738635
 20
-155.1695122224923
 30
0.0
 10
104.9737819833052
 20
-155.7617241364068
 30
0.0
 10
104.9400200475497
 20
-156.2123426258775
 30
0.0
  0
HATCH
  5
12E
330
129
100
AcDbEntity
  8
レイヤー 1
 62
    18
420
        0
440
 33554687
100
AcDbHatch
 10
0.0
 20
0.0
 30
0.0
210
0.0
220
0.0
230
1.0
  2
SOLID
 70
     1
 71
     1
 91
        1
 92
        1
 93
        1
 72
     4
 94
        3
 73
     0
 74
     0
 95
       26
 96
       22
 40
0.0
 40
0.0
 40
0.0
 40
0.0
 40
1.0
 40
1.0
 40
1.0
 40
2.0
 40
2.0
 40
2.0
 40
3.0
 40
3.0
 40
3.0
 40
4.0
 40
4.0
 40
4.0
 40
5.0
 40
5.0
 40
5.0
 40
6.0
 40
6.0
 40
6.0
 40
7.0
 40
7.0
 40
7.0
 40
7.0
 10
104.9400200475497
 20
-156.2123426258775
 10
104.9400200475497
 20
-156.2123426258775
 10
104.7029974781645
 20
-156.2123426258775
 10
104.7029974781645
 20
-156.2123426258775
 10
104.7284911847554
 20
-155.9033175608505
 10
104.9210720223808
 20
-155.385175199869
 10
105.3272487800918
 20
-154.8794351826343
 10
105.3272487800918
 20
-154.8794351826343
 10
104.489401558079
 20
-154.8794351826343
 10
104.489401558079
 20
-154.8794351826343
 10
104.489401558079
 20
-154.8794351826343
 10
104.489401558079
 20
-154.6679063198399
 10
104.489401558079
 20
-154.6679063198399
 10
104.489401558079
 20
-154.6679063198399
 10
105.564271349477
 20
-154.6679063198399
 10
105.564271349477
 20
-154.6679063198399
 10
105.564271349477
 20
-154.6679063198399
 10
105.564271349477
 20
-154.8794351826343
 10
105.564271349477
 20
-154.8794351826343
 10
105.2404323738635
 20
-155.1695122224923
 10
104.9737819833052
 20
-155.7617241364068
 10
104.9400200475497
 20
-156.2123426258775
 97
        0
 97
        1
330
12D
 75
     2
 76
     1
 98
        1
 10
0.0
 20
0.0
450
        0
451
        0
460
0.0
461
0.0
452
        0
462
0.0
453
        0
470

  0
ENDBLK
  5
12C
330
129
100
AcDbEntity
  8
0
100
AcDbBlockEnd
  0
BLOCK
  5
132
330
130
100
AcDbEntity
  8
0
100
AcDbBlockBegin
  2
Block_11
 70
     0
 10
0.0
 20
0.0
 30
0.0
  3
Block_11
  1

  0
SPLINE
  5
134
330
130
100
AcDbEntity
  8
レイヤー 1
100
AcDbSpline
210
0.0
220
0.0
230
1.0
 70
    11
 71
     3
 72
    26
 73
    22
 74
     0
 42
0.0000000001
 43
0.0000000001
 40
0.0
 40
0.0
 40
0.0
 40
0.0
 40
1.0
 40
1.0
 40
1.0
 40
2.0
 40
2.0
 40
2.0
 40
3.0
 40
3.0
 40
3.0
 40
4.0
 40
4.0
 40
4.0
 40
5.0
 40
5.0
 40
5.0
 40
6.0
 40
6.0
 40
6.0
 40
7.0
 40
7.0
 40
7.0
 40
7.0
 10
110.2289306365052
 20
-149.7334960563166
 30
0.0
 10
110.2289306365052
 20
-149.7334960563166
 30
0.0
 10
110.2289306365052
 20
-148.6289984437455
 30
0.0
 10
110.2289306365052
 20
-148.6289984437455
 30
0.0
 10
110.2289306365052
 20
-148.6289984437455
 30
0.0
 10
109.8988904890183
 20
-148.6289984437455
 30
0.0
 10
109.8988904890183
 20
-148.6289984437455
 30
0.0
 10
109.8988904890183
 20
-148.6289984437455
 30
0.0
 10
109.8988904890183
 20
-148.4808593378798
 30
0.0
 10
109.8988904890183
 20
-148.4808593378798
 30
0.0
 10
110.2309976937964
 20
-148.4662176820675
 30
0.0
 10
110.2775064828473
 20
-148.3032646656151
 30
0.0
 10
110.3071343040204
 20
-148.1890597502791
 30
0.0
 10
110.3071343040204
 20
-148.1890597502791
 30
0.0
 10
110.453206352595
 20
-148.1890597502791
 30
0.0
 10
110.453206352595
 20
-148.1890597502791
 30
0.0
 10
110.453206352595
 20
-148.1890597502791
 30
0.0
 10
110.453206352595
 20
-149.7334960563166
 30
0.0
 10
110.453206352595
 20
-149.7334960563166
 30
0.0
 10
110.453206352595
 20
-149.7334960563166
 30
0.0
 10
110.2289306365052
 20
-149.7334960563166
 30
0.0
 10
110.2289306365052
 20
-149.7334960563166
 30
0.0
  0
HATCH
  5
135
330
130
100
AcDbEntity
  8
レイヤー 1
 62
    18
420
        0
440
 33554687
100
AcDbHatch
 10
0.0
 20
0.0
 30
0.0
210
0.0
220
0.0
230
1.0
  2
SOLID
 70
     1
 71
     1
 91
        1
 92
        1
 93
        1
 72
     4
 94
        3
 73
     0
 74
     0
 95
       26
 96
       22
 40
0.0
 40
0.0
 40
0.0
 40
0.0
 40
1.0
 40
1.0
 40
1.0
 40
2.0
 40
2.0
 40
2.0
 40
3.0
 40
3.0
 40
3.0
 40
4.0
 40
4.0
 40
4.0
 40
5.0
 40
5.0
 40
5.0
 40
6.0
 40
6.0
 40
6.0
 40
7.0
 40
7.0
 40
7.0
 40
7.0
 10
110.2289306365052
 20
-149.7334960563166
 10
110.2289306365052
 20
-149.7334960563166
 10
110.2289306365052
 20
-148.6289984437455
 10
110.2289306365052
 20
-148.6289984437455
 10
110.2289306365052
 20
-148.6289984437455
 10
109.8988904890183
 20
-148.6289984437455
 10
109.8988904890183
 20
-148.6289984437455
 10
109.8988904890183
 20
-148.6289984437455
 10
109.8988904890183
 20
-148.4808593378798
 10
109.8988904890183
 20
-148.4808593378798
 10
110.2309976937964
 20
-148.4662176820675
 10
110.2775064828473
 20
-148.3032646656151
 10
110.3071343040204
 20
-148.1890597502791
 10
110.3071343040204
 20
-148.1890597502791
 10
110.453206352595
 20
-148.1890597502791
 10
110.453206352595
 20
-148.1890597502791
 10
110.453206352595
 20
-148.1890597502791
 10
110.453206352595
 20
-149.7334960563166
 10
110.453206352595
 20
-149.7334960563166
 10
110.453206352595
 20
-149.7334960563166
 10
110.2289306365052
 20
-149.7334960563166
 10
110.2289306365052
 20
-149.7334960563166
 97
        0
 97
        1
330
134
 75
     2
 76
     1
 98
        1
 10
0.0
 20
0.0
450
        0
451
        0
460
0.0
461
0.0
452
        0
462
0.0
453
        0
470

  0
ENDBLK
  5
133
330
130
100
AcDbEntity
  8
0
100
AcDbBlockEnd
  0
BLOCK
  5
138
330
136
100
AcDbEntity
  8
0
100
AcDbBlockBegin
  2
Block_12
 70
     0
 10
0.0
 20
0.0
 30
0.0
  3
Block_12
  1

  0
INSERT
  5
13B
330
136
100
AcDbEntity
  8
レイヤー 1
100
AcDbBlockReference
  2
Block_13
 10
0.0
 20
0.0
 30
0.0
  0
ENDBLK
  5
139
330
136
100
AcDbEntity
  8
0
100
AcDbBlockEnd
  0
BLOCK
  5
13C
330
13A
100
AcDbEntity
  8
0
100
AcDbBlockBegin
  2
Block_13
 70
     0
 10
0.0
 20
0.0
 30
0.0
  3
Block_13
  1

  0
SPLINE
  5
13E
330
13A
100
AcDbEntity
  8
レイヤー 1
100
AcDbSpline
210
0.0
220
0.0
230
1.0
 70
     9
 71
     3
 72
    59
 73
    55
 74
     0
 42
0.0000000001
 43
0.0000000001
 40
0.0
 40
0.0
 40
0.0
 40
0.0
 40
1.0
 40
1.0
 40
1.0
 40
2.0
 40
2.0
 40
2.0
 40
3.0
 40
3.0
 40
3.0
 40
4.0
 40
4.0
 40
4.0
 40
5.0
 40
5.0
 40
5.0
 40
6.0
 40
6.0
 40
6.0
 40
7.0
 40
7.0
 40
7.0
 40
8.0
 40
8.0
 40
8.0
 40
9.0
 40
9.0
 40
9.0
 40
10.0
 40
10.0
 40
10.0
 40
11.0
 40
11.0
 40
11.0
 40
12.0
 40
12.0
 40
12.0
 40
13.0
 40
13.0
 40
13.0
 40
14.0
 40
14.0
 40
14.0
 40
15.0
 40
15.0
 40
15.0
 40
16.0
 40
16.0
 40
16.0
 40
17.0
 40
17.0
 40
17.0
 40
18.0
 40
18.0
 40
18.0
 40
18.0
 10
125.9771511186793
 20
-150.0938530440737
 30
0.0
 10
125.8310790701047
 20
-150.5806450361395
 30
0.0
 10
125.6126600163399
 20
-151.1029215117034
 30
0.0
 10
125.0883164834849
 20
-151.4202148058949
 30
0.0
 10
125.0883164834849
 20
-151.4202148058949
 30
0.0
 10
124.9236409192899
 20
-151.2679415854469
 30
0.0
 10
124.9236409192899
 20
-151.2679415854469
 30
0.0
 10
125.0645453246366
 20
-151.1983506566448
 30
0.0
 10
125.2791747733677
 20
-151.0881076011168
 30
0.0
 10
125.4996608844237
 20
-150.7580674536299
 30
0.0
 10
125.7070556326357
 20
-150.4452527835692
 30
0.0
 10
125.7570095171718
 20
-150.1892821890152
 30
0.0
 10
125.7811251855686
 20
-150.0621581656095
 30
0.0
 10
125.7811251855686
 20
-150.0621581656095
 30
0.0
 10
125.214406978245
 20
-150.0621581656095
 30
0.0
 10
125.214406978245
 20
-150.0621581656095
 30
0.0
 10
125.1238009669829
 20
-150.2230441247706
 30
0.0
 10
125.0180365355858
 20
-150.3901312558052
 30
0.0
 10
124.849571366357
 20
-150.5613525014221
 30
0.0
 10
124.849571366357
 20
-150.5613525014221
 30
0.0
 10
124.6976426554575
 20
-150.4387071021473
 30
0.0
 10
124.6976426554575
 20
-150.4387071021473
 30
0.0
 10
124.7496635972848
 20
-150.3921983130964
 30
0.0
 10
124.8791991875302
 20
-150.2802327098257
 30
0.0
 10
125.0235486883621
 20
-150.0304632871451
 30
0.0
 10
125.090383540776
 20
-149.9119520024525
 30
0.0
 10
125.1809895520381
 20
-149.7427978141268
 30
0.0
 10
125.2033826726922
 20
-149.6201524148519
 30
0.0
 10
125.2033826726922
 20
-149.6201524148519
 30
0.0
 10
125.4052652681278
 20
-149.7214382221182
 30
0.0
 10
125.4052652681278
 20
-149.7214382221182
 30
0.0
 10
125.4180121214232
 20
-149.7279839035402
 30
0.0
 10
125.4311034842672
 20
-149.7362521327048
 30
0.0
 10
125.4311034842672
 20
-149.7510660432914
 30
0.0
 10
125.4311034842672
 20
-149.7724256352999
 30
0.0
 10
125.4087103636131
 20
-149.7851724885953
 30
0.0
 10
125.401475663094
 20
-149.7872395458865
 30
0.0
 10
125.3773599946973
 20
-149.7955077750511
 30
0.0
 10
125.3701252941783
 20
-149.7934407177599
 30
0.0
 10
125.3477321735241
 20
-149.8189344243508
 30
0.0
 10
125.32533905287
 20
-149.8444281309416
 30
0.0
 10
125.3274061101612
 20
-149.8526963601062
 30
0.0
 10
125.2995008367307
 20
-149.9057508305791
 30
0.0
 10
125.2995008367307
 20
-149.9057508305791
 30
0.0
 10
125.5919894434284
 20
-149.9057508305791
 30
0.0
 10
125.5919894434284
 20
-149.9057508305791
 30
0.0
 10
125.8162651595181
 20
-149.9057508305791
 30
0.0
 10
125.8441704329487
 20
-149.8930039772837
 30
0.0
 10
125.8941243174848
 20
-149.8633761561105
 30
0.0
 10
125.8941243174848
 20
-149.8633761561105
 30
0.0
 10
126.0308946082492
 20
-150.028396229854
 30
0.0
 10
126.0308946082492
 20
-150.028396229854
 30
0.0
 10
126.0012667870761
 20
-150.0642252229006
 30
0.0
 10
125.9995442393334
 20
-150.0662922801917
 30
0.0
 10
125.9771511186793
 20
-150.0938530440737
 30
0.0
  0
HATCH
  5
13F
330
13A
100
AcDbEntity
  8
レイヤー 1
 62
   250
420
  2299925
440
 33554687
100
AcDbHatch
 10
0.0
 20
0.0
 30
0.0
210
0.0
220
0.0
230
1.0
  2
SOLID
 70
     1
 71
     1
 91
        1
 92
        1
 93
        1
 72
     4
 94
        3
 73
     0
 74
     0
 95
       59
 96
       55
 40
0.0
 40
0.0
 40
0.0
 40
0.0
 40
1.0
 40
1.0
 40
1.0
 40
2.0
 40
2.0
 40
2.0
 40
3.0
 40
3.0
 40
3.0
 40
4.0
 40
4.0
 40
4.0
 40
5.0
 40
5.0
 40
5.0
 40
6.0
 40
6.0
 40
6.0
 40
7.0
 40
7.0
 40
7.0
 40
8.0
 40
8.0
 40
8.0
 40
9.0
 40
9.0
 40
9.0
 40
10.0
 40
10.0
 40
10.0
 40
11.0
 40
11.0
 40
11.0
 40
12.0
 40
12.0
 40
12.0
 40
13.0
 40
13.0
 40
13.0
 40
14.0
 40
14.0
 40
14.0
 40
15.0
 40
15.0
 40
15.0
 40
16.0
 40
16.0
 40
16.0
 40
17.0
 40
17.0
 40
17.0
 40
18.0
 40
18.0
 40
18.0
 40
18.0
 10
125.9771511186793
 20
-150.0938530440737
 10
125.8310790701047
 20
-150.5806450361395
 10
125.6126600163399
 20
-151.1029215117034
 10
125.0883164834849
 20
-151.4202148058949
 10
125.0883164834849
 20
-151.4202148058949
 10
124.9236409192899
 20
-151.2679415854469
 10
124.9236409192899
 20
-151.2679415854469
 10
125.0645453246366
 20
-151.1983506566448
 10
125.2791747733677
 20
-151.0881076011168
 10
125.4996608844237
 20
-150.7580674536299
 10
125.7070556326357
 20
-150.4452527835692
 10
125.7570095171718
 20
-150.1892821890152
 10
125.7811251855686
 20
-150.0621581656095
 10
125.7811251855686
 20
-150.0621581656095
 10
125.214406978245
 20
-150.0621581656095
 10
125.214406978245
 20
-150.0621581656095
 10
125.1238009669829
 20
-150.2230441247706
 10
125.0180365355858
 20
-150.3901312558052
 10
124.849571366357
 20
-150.5613525014221
 10
124.849571366357
 20
-150.5613525014221
 10
124.6976426554575
 20
-150.4387071021473
 10
124.6976426554575
 20
-150.4387071021473
 10
124.7496635972848
 20
-150.3921983130964
 10
124.8791991875302
 20
-150.2802327098257
 10
125.0235486883621
 20
-150.0304632871451
 10
125.090383540776
 20
-149.9119520024525
 10
125.1809895520381
 20
-149.7427978141268
 10
125.2033826726922
 20
-149.6201524148519
 10
125.2033826726922
 20
-149.6201524148519
 10
125.4052652681278
 20
-149.7214382221182
 10
125.4052652681278
 20
-149.7214382221182
 10
125.4180121214232
 20
-149.7279839035402
 10
125.4311034842672
 20
-149.7362521327048
 10
125.4311034842672
 20
-149.7510660432914
 10
125.4311034842672
 20
-149.7724256352999
 10
125.4087103636131
 20
-149.7851724885953
 10
125.401475663094
 20
-149.7872395458865
 10
125.3773599946973
 20
-149.7955077750511
 10
125.3701252941783
 20
-149.7934407177599
 10
125.3477321735241
 20
-149.8189344243508
 10
125.32533905287
 20
-149.8444281309416
 10
125.3274061101612
 20
-149.8526963601062
 10
125.2995008367307
 20
-149.9057508305791
 10
125.2995008367307
 20
-149.9057508305791
 10
125.5919894434284
 20
-149.9057508305791
 10
125.5919894434284
 20
-149.9057508305791
 10
125.8162651595181
 20
-149.9057508305791
 10
125.8441704329487
 20
-149.8930039772837
 10
125.8941243174848
 20
-149.8633761561105
 10
125.8941243174848
 20
-149.8633761561105
 10
126.0308946082492
 20
-150.028396229854
 10
126.0308946082492
 20
-150.028396229854
 10
126.0012667870761
 20
-150.0642252229006
 10
125.9995442393334
 20
-150.0662922801917
 10
125.9771511186793
 20
-150.0938530440737
 97
        0
 97
        1
330
13E
 75
     2
 76
     1
 98
        1
 10
0.0
 20
0.0
450
        0
451
        0
460
0.0
461
0.0
452
        0
462
0.0
453
        0
470

  0
SPLINE
  5
140
330
13A
100
AcDbEntity
  8
レイヤー 1
100
AcDbSpline
210
0.0
220
0.0
230
1.0
 70
    11
 71
     3
 72
    17
 73
    13
 74
     0
 42
0.0000000001
 43
0.0000000001
 40
0.0
 40
0.0
 40
0.0
 40
0.0
 40
1.0
 40
1.0
 40
1.0
 40
2.0
 40
2.0
 40
2.0
 40
3.0
 40
3.0
 40
3.0
 40
4.0
 40
4.0
 40
4.0
 40
4.0
 10
127.4161675028682
 20
-150.0029025232632
 30
0.0
 10
127.4161675028682
 20
-150.0029025232632
 30
0.0
 10
126.5049397470196
 20
-150.0029025232632
 30
0.0
 10
126.5049397470196
 20
-150.0029025232632
 30
0.0
 10
126.5049397470196
 20
-150.0029025232632
 30
0.0
 10
126.5049397470196
 20
-150.8913926489091
 30
0.0
 10
126.5049397470196
 20
-150.8913926489091
 30
0.0
 10
126.5049397470196
 20
-150.8913926489091
 30
0.0
 10
127.4161675028682
 20
-150.8913926489091
 30
0.0
 10
127.4161675028682
 20
-150.8913926489091
 30
0.0
 10
127.4161675028682
 20
-150.8913926489091
 30
0.0
 10
127.4161675028682
 20
-150.0029025232632
 30
0.0
 10
127.4161675028682
 20
-150.0029025232632
 30
0.0
  0
SPLINE
  5
141
330
13A
100
AcDbEntity
  8
レイヤー 1
100
AcDbSpline
210
0.0
220
0.0
230
1.0
 70
     9
 71
     3
 72
    53
 73
    49
 74
     0
 42
0.0000000001
 43
0.0000000001
 40
0.0
 40
0.0
 40
0.0
 40
0.0
 40
1.0
 40
1.0
 40
1.0
 40
2.0
 40
2.0
 40
2.0
 40
3.0
 40
3.0
 40
3.0
 40
4.0
 40
4.0
 40
4.0
 40
5.0
 40
5.0
 40
5.0
 40
6.0
 40
6.0
 40
6.0
 40
7.0
 40
7.0
 40
7.0
 40
8.0
 40
8.0
 40
8.0
 40
9.0
 40
9.0
 40
9.0
 40
10.0
 40
10.0
 40
10.0
 40
11.0
 40
11.0
 40
11.0
 40
12.0
 40
12.0
 40
12.0
 40
13.0
 40
13.0
 40
13.0
 40
14.0
 40
14.0
 40
14.0
 40
15.0
 40
15.0
 40
15.0
 40
16.0
 40
16.0
 40
16.0
 40
16.0
 10
127.3958414395052
 20
-151.2066188858094
 30
0.0
 10
127.4030761400242
 20
-151.1621771540497
 30
0.0
 10
127.4030761400242
 20
-151.1539089248851
 30
0.0
 10
127.4085882928006
 20
-151.0798393719522
 30
0.0
 10
127.4085882928006
 20
-151.0798393719522
 30
0.0
 10
126.5070068043107
 20
-151.0798393719522
 30
0.0
 10
126.5070068043107
 20
-151.0798393719522
 30
0.0
 10
126.5070068043107
 20
-151.1115342504165
 30
0.0
 10
126.5070068043107
 20
-151.1666557781806
 30
0.0
 10
126.510451899796
 20
-151.2024847712272
 30
0.0
 10
126.510451899796
 20
-151.2024847712272
 30
0.0
 10
126.2996120560987
 20
-151.2024847712272
 30
0.0
 10
126.2996120560987
 20
-151.2024847712272
 30
0.0
 10
126.3051242088751
 20
-151.1473632434631
 30
0.0
 10
126.3144259666853
 20
-151.0564127226525
 30
0.0
 10
126.3144259666853
 20
-150.9275661515042
 30
0.0
 10
126.3161485144279
 20
-150.7222384605833
 30
0.0
 10
126.3161485144279
 20
-150.6988118112836
 30
0.0
 10
126.3161485144279
 20
-150.6757296715324
 30
0.0
 10
126.3161485144279
 20
-150.6757296715324
 30
0.0
 10
126.3161485144279
 20
-150.235790978066
 30
0.0
 10
126.3161485144279
 20
-150.235790978066
 30
0.0
 10
126.3161485144279
 20
-150.1699896542977
 30
0.0
 10
126.3106363616515
 20
-149.8464951882328
 30
0.0
 10
126.3068467566177
 20
-149.7913736604688
 30
0.0
 10
126.4160562835001
 20
-149.8041205137642
 30
0.0
 10
126.6475667001089
 20
-149.8082546283465
 30
0.0
 10
126.7626328893163
 20
-149.8082546283465
 30
0.0
 10
126.7626328893163
 20
-149.8082546283465
 30
0.0
 10
127.1605414178626
 20
-149.8082546283465
 30
0.0
 10
127.1605414178626
 20
-149.8082546283465
 30
0.0
 10
127.2921440653992
 20
-149.8082546283465
 30
0.0
 10
127.4881699985099
 20
-149.8061875710554
 30
0.0
 10
127.6159830410127
 20
-149.7979193418908
 30
0.0
 10
127.6087483404936
 20
-149.9078178878702
 30
0.0
 10
127.6049587354598
 20
-150.1572428010023
 30
0.0
 10
127.6049587354598
 20
-150.2757540856949
 30
0.0
 10
127.6049587354598
 20
-150.2757540856949
 30
0.0
 10
127.6049587354598
 20
-150.6946776967013
 30
0.0
 10
127.6049587354598
 20
-150.6946776967013
 30
0.0
 10
127.6049587354598
 20
-150.7370523711699
 30
0.0
 10
127.6104708882362
 20
-150.9189534127911
 30
0.0
 10
127.6104708882362
 20
-150.9571939726773
 30
0.0
 10
127.6125379455274
 20
-151.1074001358343
 30
0.0
 10
127.6197726460464
 20
-151.1580430394674
 30
0.0
 10
127.627351856114
 20
-151.2066188858094
 30
0.0
 10
127.627351856114
 20
-151.2066188858094
 30
0.0
 10
127.3958414395052
 20
-151.2066188858094
 30
0.0
 10
127.3958414395052
 20
-151.2066188858094
 30
0.0
  0
HATCH
  5
142
330
13A
100
AcDbEntity
  8
レイヤー 1
 62
   250
420
  2299925
440
 33554687
100
AcDbHatch
 10
0.0
 20
0.0
 30
0.0
210
0.0
220
0.0
230
1.0
  2
SOLID
 70
     1
 71
     1
 91
        2
 92
        1
 93
        1
 72
     4
 94
        3
 73
     0
 74
     0
 95
       17
 96
       13
 40
0.0
 40
0.0
 40
0.0
 40
0.0
 40
1.0
 40
1.0
 40
1.0
 40
2.0
 40
2.0
 40
2.0
 40
3.0
 40
3.0
 40
3.0
 40
4.0
 40
4.0
 40
4.0
 40
4.0
 10
127.4161675028682
 20
-150.0029025232632
 10
127.4161675028682
 20
-150.0029025232632
 10
126.5049397470196
 20
-150.0029025232632
 10
126.5049397470196
 20
-150.0029025232632
 10
126.5049397470196
 20
-150.0029025232632
 10
126.5049397470196
 20
-150.8913926489091
 10
126.5049397470196
 20
-150.8913926489091
 10
126.5049397470196
 20
-150.8913926489091
 10
127.4161675028682
 20
-150.8913926489091
 10
127.4161675028682
 20
-150.8913926489091
 10
127.4161675028682
 20
-150.8913926489091
 10
127.4161675028682
 20
-150.0029025232632
 10
127.4161675028682
 20
-150.0029025232632
 97
        0
 97
        1
330
140
 92
        1
 93
        1
 72
     4
 94
        3
 73
     0
 74
     0
 95
       53
 96
       49
 40
0.0
 40
0.0
 40
0.0
 40
0.0
 40
1.0
 40
1.0
 40
1.0
 40
2.0
 40
2.0
 40
2.0
 40
3.0
 40
3.0
 40
3.0
 40
4.0
 40
4.0
 40
4.0
 40
5.0
 40
5.0
 40
5.0
 40
6.0
 40
6.0
 40
6.0
 40
7.0
 40
7.0
 40
7.0
 40
8.0
 40
8.0
 40
8.0
 40
9.0
 40
9.0
 40
9.0
 40
10.0
 40
10.0
 40
10.0
 40
11.0
 40
11.0
 40
11.0
 40
12.0
 40
12.0
 40
12.0
 40
13.0
 40
13.0
 40
13.0
 40
14.0
 40
14.0
 40
14.0
 40
15.0
 40
15.0
 40
15.0
 40
16.0
 40
16.0
 40
16.0
 40
16.0
 10
127.3958414395052
 20
-151.2066188858094
 10
127.4030761400242
 20
-151.1621771540497
 10
127.4030761400242
 20
-151.1539089248851
 10
127.4085882928006
 20
-151.0798393719522
 10
127.4085882928006
 20
-151.0798393719522
 10
126.5070068043107
 20
-151.0798393719522
 10
126.5070068043107
 20
-151.0798393719522
 10
126.5070068043107
 20
-151.1115342504165
 10
126.5070068043107
 20
-151.1666557781806
 10
126.510451899796
 20
-151.2024847712272
 10
126.510451899796
 20
-151.2024847712272
 10
126.2996120560987
 20
-151.2024847712272
 10
126.2996120560987
 20
-151.2024847712272
 10
126.3051242088751
 20
-151.1473632434631
 10
126.3144259666853
 20
-151.0564127226525
 10
126.3144259666853
 20
-150.9275661515042
 10
126.3161485144279
 20
-150.7222384605833
 10
126.3161485144279
 20
-150.6988118112836
 10
126.3161485144279
 20
-150.6757296715324
 10
126.3161485144279
 20
-150.6757296715324
 10
126.3161485144279
 20
-150.235790978066
 10
126.3161485144279
 20
-150.235790978066
 10
126.3161485144279
 20
-150.1699896542977
 10
126.3106363616515
 20
-149.8464951882328
 10
126.3068467566177
 20
-149.7913736604688
 10
126.4160562835001
 20
-149.8041205137642
 10
126.6475667001089
 20
-149.8082546283465
 10
126.7626328893163
 20
-149.8082546283465
 10
126.7626328893163
 20
-149.8082546283465
 10
127.1605414178626
 20
-149.8082546283465
 10
127.1605414178626
 20
-149.8082546283465
 10
127.2921440653992
 20
-149.8082546283465
 10
127.4881699985099
 20
-149.8061875710554
 10
127.6159830410127
 20
-149.7979193418908
 10
127.6087483404936
 20
-149.9078178878702
 10
127.6049587354598
 20
-150.1572428010023
 10
127.6049587354598
 20
-150.2757540856949
 10
127.6049587354598
 20
-150.2757540856949
 10
127.6049587354598
 20
-150.6946776967013
 10
127.6049587354598
 20
-150.6946776967013
 10
127.6049587354598
 20
-150.7370523711699
 10
127.6104708882362
 20
-150.9189534127911
 10
127.6104708882362
 20
-150.9571939726773
 10
127.6125379455274
 20
-151.1074001358343
 10
127.6197726460464
 20
-151.1580430394674
 10
127.627351856114
 20
-151.2066188858094
 10
127.627351856114
 20
-151.2066188858094
 10
127.3958414395052
 20
-151.2066188858094
 10
127.3958414395052
 20
-151.2066188858094
 97
        0
 97
        1
330
141
 75
     2
 76
     1
 98
        1
 10
0.0
 20
0.0
450
        0
451
        0
460
0.0
461
0.0
452
        0
462
0.0
453
        0
470

  0
SPLINE
  5
143
330
13A
100
AcDbEntity
  8
レイヤー 1
100
AcDbSpline
210
0.0
220
0.0
230
1.0
 70
     9
 71
     3
 72
    56
 73
    52
 74
     0
 42
0.0000000001
 43
0.0000000001
 40
0.0
 40
0.0
 40
0.0
 40
0.0
 40
1.0
 40
1.0
 40
1.0
 40
2.0
 40
2.0
 40
2.0
 40
3.0
 40
3.0
 40
3.0
 40
4.0
 40
4.0
 40
4.0
 40
5.0
 40
5.0
 40
5.0
 40
6.0
 40
6.0
 40
6.0
 40
7.0
 40
7.0
 40
7.0
 40
8.0
 40
8.0
 40
8.0
 40
9.0
 40
9.0
 40
9.0
 40
10.0
 40
10.0
 40
10.0
 40
11.0
 40
11.0
 40
11.0
 40
12.0
 40
12.0
 40
12.0
 40
13.0
 40
13.0
 40
13.0
 40
14.0
 40
14.0
 40
14.0
 40
15.0
 40
15.0
 40
15.0
 40
16.0
 40
16.0
 40
16.0
 40
17.0
 40
17.0
 40
17.0
 40
17.0
 10
129.1569742515649
 20
-151.2724202095777
 30
0.0
 10
128.9885090823362
 20
-150.9633951445508
 30
0.0
 10
128.7628553280523
 20
-150.7580674536299
 30
0.0
 10
128.6829291127945
 20
-150.6926106394102
 30
0.0
 10
128.4255804800464
 20
-151.0312635256102
 30
0.0
 10
128.172021452332
 20
-151.1835367460583
 30
0.0
 10
127.9980441303269
 20
-151.27655432416
 30
0.0
 10
127.9980441303269
 20
-151.27655432416
 30
0.0
 10
127.8588622727228
 20
-151.0881076011168
 30
0.0
 10
127.8588622727228
 20
-151.0881076011168
 30
0.0
 10
127.9498127935334
 20
-151.0522786080703
 30
0.0
 10
128.1368814783824
 20
-150.9761419978462
 30
0.0
 10
128.3404866215607
 20
-150.7901068416428
 30
0.0
 10
128.5719970381695
 20
-150.5782334692999
 30
0.0
 10
128.7349500546218
 20
-150.2905679962815
 30
0.0
 10
128.8424370337616
 20
-149.9777533262208
 30
0.0
 10
128.8424370337616
 20
-149.9777533262208
 30
0.0
 10
128.5127413958232
 20
-149.9777533262208
 30
0.0
 10
128.5127413958232
 20
-149.9777533262208
 30
0.0
 10
128.379416200544
 20
-149.9777533262208
 30
0.0
 10
128.1961371207287
 20
-149.9818874408031
 30
0.0
 10
128.0645344731922
 20
-150.000835465972
 30
0.0
 10
128.0645344731922
 20
-150.000835465972
 30
0.0
 10
128.0645344731922
 20
-149.7893066031777
 30
0.0
 10
128.0645344731922
 20
-149.7893066031777
 30
0.0
 10
128.1237901155385
 20
-149.7955077750511
 30
0.0
 10
128.3515109271135
 20
-149.8061875710554
 30
0.0
 10
128.4276475373375
 20
-149.8061875710554
 30
0.0
 10
128.4276475373375
 20
-149.8061875710554
 30
0.0
 10
128.6998100806723
 20
-149.8061875710554
 30
0.0
 10
128.6998100806723
 20
-149.8061875710554
 30
0.0
 10
128.8813666127449
 20
-149.8061875710554
 30
0.0
 10
128.9016926761079
 20
-149.7999863991819
 30
0.0
 10
128.9220187394709
 20
-149.7955077750511
 30
0.0
 10
128.9609483184542
 20
-149.7893066031777
 30
0.0
 10
128.9940212351126
 20
-149.7638128965868
 30
0.0
 10
129.0126247507329
 20
-149.7469319287091
 30
0.0
 10
129.0126247507329
 20
-149.7469319287091
 30
0.0
 10
129.1497395510459
 20
-149.9205647411657
 30
0.0
 10
129.1497395510459
 20
-149.9205647411657
 30
0.0
 10
129.1145995770963
 20
-149.9481255050477
 30
0.0
 10
129.103230761995
 20
-149.9584607915034
 30
0.0
 10
129.0608560875264
 20
-149.9946342940986
 30
0.0
 10
128.9478569556102
 20
-150.2419921499395
 30
0.0
 10
128.8775770077111
 20
-150.3921983130964
 30
0.0
 10
128.7866264869005
 20
-150.5382703616709
 30
0.0
 10
129.0608560875264
 20
-150.7560003963388
 30
0.0
 10
129.2606716256709
 20
-151.041598812066
 30
0.0
 10
129.3071804147218
 20
-151.1198024795811
 30
0.0
 10
129.3071804147218
 20
-151.1198024795811
 30
0.0
 10
129.1569742515649
 20
-151.2724202095777
 30
0.0
 10
129.1569742515649
 20
-151.2724202095777
 30
0.0
  0
HATCH
  5
144
330
13A
100
AcDbEntity
  8
レイヤー 1
 62
   250
420
  2299925
440
 33554687
100
AcDbHatch
 10
0.0
 20
0.0
 30
0.0
210
0.0
220
0.0
230
1.0
  2
SOLID
 70
     1
 71
     1
 91
        1
 92
        1
 93
        1
 72
     4
 94
        3
 73
     0
 74
     0
 95
       56
 96
       52
 40
0.0
 40
0.0
 40
0.0
 40
0.0
 40
1.0
 40
1.0
 40
1.0
 40
2.0
 40
2.0
 40
2.0
 40
3.0
 40
3.0
 40
3.0
 40
4.0
 40
4.0
 40
4.0
 40
5.0
 40
5.0
 40
5.0
 40
6.0
 40
6.0
 40
6.0
 40
7.0
 40
7.0
 40
7.0
 40
8.0
 40
8.0
 40
8.0
 40
9.0
 40
9.0
 40
9.0
 40
10.0
 40
10.0
 40
10.0
 40
11.0
 40
11.0
 40
11.0
 40
12.0
 40
12.0
 40
12.0
 40
13.0
 40
13.0
 40
13.0
 40
14.0
 40
14.0
 40
14.0
 40
15.0
 40
15.0
 40
15.0
 40
16.0
 40
16.0
 40
16.0
 40
17.0
 40
17.0
 40
17.0
 40
17.0
 10
129.1569742515649
 20
-151.2724202095777
 10
128.9885090823362
 20
-150.9633951445508
 10
128.7628553280523
 20
-150.7580674536299
 10
128.6829291127945
 20
-150.6926106394102
 10
128.4255804800464
 20
-151.0312635256102
 10
128.172021452332
 20
-151.1835367460583
 10
127.9980441303269
 20
-151.27655432416
 10
127.9980441303269
 20
-151.27655432416
 10
127.8588622727228
 20
-151.0881076011168
 10
127.8588622727228
 20
-151.0881076011168
 10
127.9498127935334
 20
-151.0522786080703
 10
128.1368814783824
 20
-150.9761419978462
 10
128.3404866215607
 20
-150.7901068416428
 10
128.5719970381695
 20
-150.5782334692999
 10
128.7349500546218
 20
-150.2905679962815
 10
128.8424370337616
 20
-149.9777533262208
 10
128.8424370337616
 20
-149.9777533262208
 10
128.5127413958232
 20
-149.9777533262208
 10
128.5127413958232
 20
-149.9777533262208
 10
128.379416200544
 20
-149.9777533262208
 10
128.1961371207287
 20
-149.9818874408031
 10
128.0645344731922
 20
-150.000835465972
 10
128.0645344731922
 20
-150.000835465972
 10
128.0645344731922
 20
-149.7893066031777
 10
128.0645344731922
 20
-149.7893066031777
 10
128.1237901155385
 20
-149.7955077750511
 10
128.3515109271135
 20
-149.8061875710554
 10
128.4276475373375
 20
-149.8061875710554
 10
128.4276475373375
 20
-149.8061875710554
 10
128.6998100806723
 20
-149.8061875710554
 10
128.6998100806723
 20
-149.8061875710554
 10
128.8813666127449
 20
-149.8061875710554
 10
128.9016926761079
 20
-149.7999863991819
 10
128.9220187394709
 20
-149.7955077750511
 10
128.9609483184542
 20
-149.7893066031777
 10
128.9940212351126
 20
-149.7638128965868
 10
129.0126247507329
 20
-149.7469319287091
 10
129.0126247507329
 20
-149.7469319287091
 10
129.1497395510459
 20
-149.9205647411657
 10
129.1497395510459
 20
-149.9205647411657
 10
129.1145995770963
 20
-149.9481255050477
 10
129.103230761995
 20
-149.9584607915034
 10
129.0608560875264
 20
-149.9946342940986
 10
128.9478569556102
 20
-150.2419921499395
 10
128.8775770077111
 20
-150.3921983130964
 10
128.7866264869005
 20
-150.5382703616709
 10
129.0608560875264
 20
-150.7560003963388
 10
129.2606716256709
 20
-151.041598812066
 10
129.3071804147218
 20
-151.1198024795811
 10
129.3071804147218
 20
-151.1198024795811
 10
129.1569742515649
 20
-151.2724202095777
 10
129.1569742515649
 20
-151.2724202095777
 97
        0
 97
        1
330
143
 75
     2
 76
     1
 98
        1
 10
0.0
 20
0.0
450
        0
451
        0
460
0.0
461
0.0
452
        0
462
0.0
453
        0
470

  0
SPLINE
  5
145
330
13A
100
AcDbEntity
  8
レイヤー 1
100
AcDbSpline
210
0.0
220
0.0
230
1.0
 70
    11
 71
     3
 72
    17
 73
    13
 74
     0
 42
0.0000000001
 43
0.0000000001
 40
0.0
 40
0.0
 40
0.0
 40
0.0
 40
1.0
 40
1.0
 40
1.0
 40
2.0
 40
2.0
 40
2.0
 40
3.0
 40
3.0
 40
3.0
 40
4.0
 40
4.0
 40
4.0
 40
4.0
 10
130.805452441257
 20
-150.2950466204123
 30
0.0
 10
130.805452441257
 20
-150.2950466204123
 30
0.0
 10
130.4037543076768
 20
-150.2950466204123
 30
0.0
 10
130.4037543076768
 20
-150.2950466204123
 30
0.0
 10
130.4037543076768
 20
-150.2950466204123
 30
0.0
 10
130.4037543076768
 20
-150.6037271758907
 30
0.0
 10
130.4037543076768
 20
-150.6037271758907
 30
0.0
 10
130.4037543076768
 20
-150.6037271758907
 30
0.0
 10
130.805452441257
 20
-150.6037271758907
 30
0.0
 10
130.805452441257
 20
-150.6037271758907
 30
0.0
 10
130.805452441257
 20
-150.6037271758907
 30
0.0
 10
130.805452441257
 20
-150.2950466204123
 30
0.0
 10
130.805452441257
 20
-150.2950466204123
 30
0.0
  0
SPLINE
  5
146
330
13A
100
AcDbEntity
  8
レイヤー 1
100
AcDbSpline
210
0.0
220
0.0
230
1.0
 70
    11
 71
     3
 72
    17
 73
    13
 74
     0
 42
0.0000000001
 43
0.0000000001
 40
0.0
 40
0.0
 40
0.0
 40
0.0
 40
1.0
 40
1.0
 40
1.0
 40
2.0
 40
2.0
 40
2.0
 40
3.0
 40
3.0
 40
3.0
 40
4.0
 40
4.0
 40
4.0
 40
4.0
 10
130.805452441257
 20
-149.8230685389331
 30
0.0
 10
130.805452441257
 20
-149.8230685389331
 30
0.0
 10
130.4037543076768
 20
-149.8230685389331
 30
0.0
 10
130.4037543076768
 20
-149.8230685389331
 30
0.0
 10
130.4037543076768
 20
-149.8230685389331
 30
0.0
 10
130.4037543076768
 20
-150.1276149798292
 30
0.0
 10
130.4037543076768
 20
-150.1276149798292
 30
0.0
 10
130.4037543076768
 20
-150.1276149798292
 30
0.0
 10
130.805452441257
 20
-150.1276149798292
 30
0.0
 10
130.805452441257
 20
-150.1276149798292
 30
0.0
 10
130.805452441257
 20
-150.1276149798292
 30
0.0
 10
130.805452441257
 20
-149.8230685389331
 30
0.0
 10
130.805452441257
 20
-149.8230685389331
 30
0.0
  0
SPLINE
  5
147
330
13A
100
AcDbEntity
  8
レイヤー 1
100
AcDbSpline
210
0.0
220
0.0
230
1.0
 70
    11
 71
     3
 72
    17
 73
    13
 74
     0
 42
0.0000000001
 43
0.0000000001
 40
0.0
 40
0.0
 40
0.0
 40
0.0
 40
1.0
 40
1.0
 40
1.0
 40
2.0
 40
2.0
 40
2.0
 40
3.0
 40
3.0
 40
3.0
 40
4.0
 40
4.0
 40
4.0
 40
4.0
 10
130.2370116861907
 20
-150.2950466204123
 30
0.0
 10
130.2370116861907
 20
-150.2950466204123
 30
0.0
 10
129.8535725586824
 20
-150.2950466204123
 30
0.0
 10
129.8535725586824
 20
-150.2950466204123
 30
0.0
 10
129.8535725586824
 20
-150.2950466204123
 30
0.0
 10
129.8535725586824
 20
-150.6037271758907
 30
0.0
 10
129.8535725586824
 20
-150.6037271758907
 30
0.0
 10
129.8535725586824
 20
-150.6037271758907
 30
0.0
 10
130.2370116861907
 20
-150.6037271758907
 30
0.0
 10
130.2370116861907
 20
-150.6037271758907
 30
0.0
 10
130.2370116861907
 20
-150.6037271758907
 30
0.0
 10
130.2370116861907
 20
-150.2950466204123
 30
0.0
 10
130.2370116861907
 20
-150.2950466204123
 30
0.0
  0
SPLINE
  5
148
330
13A
100
AcDbEntity
  8
レイヤー 1
100
AcDbSpline
210
0.0
220
0.0
230
1.0
 70
    11
 71
     3
 72
    17
 73
    13
 74
     0
 42
0.0000000001
 43
0.0000000001
 40
0.0
 40
0.0
 40
0.0
 40
0.0
 40
1.0
 40
1.0
 40
1.0
 40
2.0
 40
2.0
 40
2.0
 40
3.0
 40
3.0
 40
3.0
 40
4.0
 40
4.0
 40
4.0
 40
4.0
 10
130.2370116861907
 20
-149.8230685389331
 30
0.0
 10
130.2370116861907
 20
-149.8230685389331
 30
0.0
 10
129.8535725586824
 20
-149.8230685389331
 30
0.0
 10
129.8535725586824
 20
-149.8230685389331
 30
0.0
 10
129.8535725586824
 20
-149.8230685389331
 30
0.0
 10
129.8535725586824
 20
-150.1276149798292
 30
0.0
 10
129.8535725586824
 20
-150.1276149798292
 30
0.0
 10
129.8535725586824
 20
-150.1276149798292
 30
0.0
 10
130.2370116861907
 20
-150.1276149798292
 30
0.0
 10
130.2370116861907
 20
-150.1276149798292
 30
0.0
 10
130.2370116861907
 20
-150.1276149798292
 30
0.0
 10
130.2370116861907
 20
-149.8230685389331
 30
0.0
 10
130.2370116861907
 20
-149.8230685389331
 30
0.0
  0
SPLINE
  5
149
330
13A
100
AcDbEntity
  8
レイヤー 1
100
AcDbSpline
210
0.0
220
0.0
230
1.0
 70
     9
 71
     3
 72
    77
 73
    73
 74
     0
 42
0.0000000001
 43
0.0000000001
 40
0.0
 40
0.0
 40
0.0
 40
0.0
 40
1.0
 40
1.0
 40
1.0
 40
2.0
 40
2.0
 40
2.0
 40
3.0
 40
3.0
 40
3.0
 40
4.0
 40
4.0
 40
4.0
 40
5.0
 40
5.0
 40
5.0
 40
6.0
 40
6.0
 40
6.0
 40
7.0
 40
7.0
 40
7.0
 40
8.0
 40
8.0
 40
8.0
 40
9.0
 40
9.0
 40
9.0
 40
10.0
 40
10.0
 40
10.0
 40
11.0
 40
11.0
 40
11.0
 40
12.0
 40
12.0
 40
12.0
 40
13.0
 40
13.0
 40
13.0
 40
14.0
 40
14.0
 40
14.0
 40
15.0
 40
15.0
 40
15.0
 40
16.0
 40
16.0
 40
16.0
 40
17.0
 40
17.0
 40
17.0
 40
18.0
 40
18.0
 40
18.0
 40
19.0
 40
19.0
 40
19.0
 40
20.0
 40
20.0
 40
20.0
 40
21.0
 40
21.0
 40
21.0
 40
22.0
 40
22.0
 40
22.0
 40
23.0
 40
23.0
 40
23.0
 40
24.0
 40
24.0
 40
24.0
 40
24.0
 10
130.9239637259495
 20
-151.4098795194392
 30
0.0
 10
130.8833115992236
 20
-151.4350287164815
 30
0.0
 10
130.7741020723412
 20
-151.4477755697769
 30
0.0
 10
130.7055446721847
 20
-151.4477755697769
 30
0.0
 10
130.6941758570834
 20
-151.4477755697769
 30
0.0
 10
130.6721272459778
 20
-151.4477755697769
 30
0.0
 10
130.6424994248047
 20
-151.4436414551946
 30
0.0
 10
130.6424994248047
 20
-151.4436414551946
 30
0.0
 10
130.557405566319
 20
-151.2172986818137
 30
0.0
 10
130.557405566319
 20
-151.2172986818137
 30
0.0
 10
130.5832437824584
 20
-151.2234998536872
 30
0.0
 10
130.6331976669945
 20
-151.2321125924003
 30
0.0
 10
130.7351724933579
 20
-151.2321125924003
 30
0.0
 10
130.8037298935143
 20
-151.2321125924003
 30
0.0
 10
130.805452441257
 20
-151.1897379179317
 30
0.0
 10
130.805452441257
 20
-151.1325493328766
 30
0.0
 10
130.805452441257
 20
-151.1325493328766
 30
0.0
 10
130.805452441257
 20
-150.7835611602208
 30
0.0
 10
130.805452441257
 20
-150.7835611602208
 30
0.0
 10
130.805452441257
 20
-150.7835611602208
 30
0.0
 10
130.4037543076768
 20
-150.7835611602208
 30
0.0
 10
130.4037543076768
 20
-150.7835611602208
 30
0.0
 10
130.4054768554194
 20
-150.9210204700822
 30
0.0
 10
130.407199403162
 20
-151.1198024795811
 30
0.0
 10
130.413056065487
 20
-151.2531276748603
 30
0.0
 10
130.4147786132296
 20
-151.2806884387423
 30
0.0
 10
130.4147786132296
 20
-151.325130170502
 30
0.0
 10
130.4258029187824
 20
-151.3864528701395
 30
0.0
 10
130.4258029187824
 20
-151.3864528701395
 30
0.0
 10
130.2146185655366
 20
-151.3864528701395
 30
0.0
 10
130.2146185655366
 20
-151.3864528701395
 30
0.0
 10
130.2370116861907
 20
-151.2617404135734
 30
0.0
 10
130.2370116861907
 20
-150.9210204700822
 30
0.0
 10
130.2370116861907
 20
-150.7835611602208
 30
0.0
 10
130.2370116861907
 20
-150.7835611602208
 30
0.0
 10
129.8501274631972
 20
-150.7835611602208
 30
0.0
 10
129.8501274631972
 20
-150.7835611602208
 30
0.0
 10
129.8294568902857
 20
-150.9909559084328
 30
0.0
 10
129.7722683052305
 20
-151.2596733562823
 30
0.0
 10
129.600013530968
 20
-151.4436414551946
 30
0.0
 10
129.600013530968
 20
-151.4436414551946
 30
0.0
 10
129.4353379667731
 20
-151.3209960559197
 30
0.0
 10
129.4353379667731
 20
-151.3209960559197
 30
0.0
 10
129.6572021160232
 20
-151.1008544544123
 30
0.0
 10
129.6851073894537
 20
-150.7687472496342
 30
0.0
 10
129.6851073894537
 20
-150.4366400448561
 30
0.0
 10
129.6851073894537
 20
-150.4366400448561
 30
0.0
 10
129.6851073894537
 20
-150.000835465972
 30
0.0
 10
129.6851073894537
 20
-150.000835465972
 30
0.0
 10
129.6851073894537
 20
-149.9650064729254
 30
0.0
 10
129.6833848417111
 20
-149.7321180181225
 30
0.0
 10
129.6758056316435
 20
-149.6304877013076
 30
0.0
 10
129.7981065213699
 20
-149.6411674973119
 30
0.0
 10
130.0092908746157
 20
-149.6411674973119
 30
0.0
 10
130.1350368598273
 20
-149.6411674973119
 30
0.0
 10
130.1350368598273
 20
-149.6411674973119
 30
0.0
 10
130.537079502956
 20
-149.6411674973119
 30
0.0
 10
130.537079502956
 20
-149.6411674973119
 30
0.0
 10
130.5498263562514
 20
-149.6411674973119
 30
0.0
 10
130.8554063257931
 20
-149.6411674973119
 30
0.0
 10
130.9942436738486
 20
-149.6304877013076
 30
0.0
 10
130.992521126106
 20
-149.6835421717805
 30
0.0
 10
130.9870089733296
 20
-149.8444281309416
 30
0.0
 10
130.9870089733296
 20
-149.8950710345748
 30
0.0
 10
130.9870089733296
 20
-149.8950710345748
 30
0.0
 10
130.9870089733296
 20
-150.5020968590758
 30
0.0
 10
130.9870089733296
 20
-150.5020968590758
 30
0.0
 10
130.9870089733296
 20
-150.5213893937932
 30
0.0
 10
130.9963107311398
 20
-151.0925862252477
 30
0.0
 10
130.9963107311398
 20
-151.2045518285183
 30
0.0
 10
130.9963107311398
 20
-151.2617404135734
 30
0.0
 10
130.9963107311398
 20
-151.3633707303883
 30
0.0
 10
130.9239637259495
 20
-151.4098795194392
 30
0.0
  0
HATCH
  5
14A
330
13A
100
AcDbEntity
  8
レイヤー 1
 62
   250
420
  2299925
440
 33554687
100
AcDbHatch
 10
0.0
 20
0.0
 30
0.0
210
0.0
220
0.0
230
1.0
  2
SOLID
 70
     1
 71
     1
 91
        5
 92
        1
 93
        1
 72
     4
 94
        3
 73
     0
 74
     0
 95
       17
 96
       13
 40
0.0
 40
0.0
 40
0.0
 40
0.0
 40
1.0
 40
1.0
 40
1.0
 40
2.0
 40
2.0
 40
2.0
 40
3.0
 40
3.0
 40
3.0
 40
4.0
 40
4.0
 40
4.0
 40
4.0
 10
130.805452441257
 20
-150.2950466204123
 10
130.805452441257
 20
-150.2950466204123
 10
130.4037543076768
 20
-150.2950466204123
 10
130.4037543076768
 20
-150.2950466204123
 10
130.4037543076768
 20
-150.2950466204123
 10
130.4037543076768
 20
-150.6037271758907
 10
130.4037543076768
 20
-150.6037271758907
 10
130.4037543076768
 20
-150.6037271758907
 10
130.805452441257
 20
-150.6037271758907
 10
130.805452441257
 20
-150.6037271758907
 10
130.805452441257
 20
-150.6037271758907
 10
130.805452441257
 20
-150.2950466204123
 10
130.805452441257
 20
-150.2950466204123
 97
        0
 97
        1
330
145
 92
        1
 93
        1
 72
     4
 94
        3
 73
     0
 74
     0
 95
       17
 96
       13
 40
0.0
 40
0.0
 40
0.0
 40
0.0
 40
1.0
 40
1.0
 40
1.0
 40
2.0
 40
2.0
 40
2.0
 40
3.0
 40
3.0
 40
3.0
 40
4.0
 40
4.0
 40
4.0
 40
4.0
 10
130.805452441257
 20
-149.8230685389331
 10
130.805452441257
 20
-149.8230685389331
 10
130.4037543076768
 20
-149.8230685389331
 10
130.4037543076768
 20
-149.8230685389331
 10
130.4037543076768
 20
-149.8230685389331
 10
130.4037543076768
 20
-150.1276149798292
 10
130.4037543076768
 20
-150.1276149798292
 10
130.4037543076768
 20
-150.1276149798292
 10
130.805452441257
 20
-150.1276149798292
 10
130.805452441257
 20
-150.1276149798292
 10
130.805452441257
 20
-150.1276149798292
 10
130.805452441257
 20
-149.8230685389331
 10
130.805452441257
 20
-149.8230685389331
 97
        0
 97
        1
330
146
 92
        1
 93
        1
 72
     4
 94
        3
 73
     0
 74
     0
 95
       17
 96
       13
 40
0.0
 40
0.0
 40
0.0
 40
0.0
 40
1.0
 40
1.0
 40
1.0
 40
2.0
 40
2.0
 40
2.0
 40
3.0
 40
3.0
 40
3.0
 40
4.0
 40
4.0
 40
4.0
 40
4.0
 10
130.2370116861907
 20
-150.2950466204123
 10
130.2370116861907
 20
-150.2950466204123
 10
129.8535725586824
 20
-150.2950466204123
 10
129.8535725586824
 20
-150.2950466204123
 10
129.8535725586824
 20
-150.2950466204123
 10
129.8535725586824
 20
-150.6037271758907
 10
129.8535725586824
 20
-150.6037271758907
 10
129.8535725586824
 20
-150.6037271758907
 10
130.2370116861907
 20
-150.6037271758907
 10
130.2370116861907
 20
-150.6037271758907
 10
130.2370116861907
 20
-150.6037271758907
 10
130.2370116861907
 20
-150.2950466204123
 10
130.2370116861907
 20
-150.2950466204123
 97
        0
 97
        1
330
147
 92
        1
 93
        1
 72
     4
 94
        3
 73
     0
 74
     0
 95
       17
 96
       13
 40
0.0
 40
0.0
 40
0.0
 40
0.0
 40
1.0
 40
1.0
 40
1.0
 40
2.0
 40
2.0
 40
2.0
 40
3.0
 40
3.0
 40
3.0
 40
4.0
 40
4.0
 40
4.0
 40
4.0
 10
130.2370116861907
 20
-149.8230685389331
 10
130.2370116861907
 20
-149.8230685389331
 10
129.8535725586824
 20
-149.8230685389331
 10
129.8535725586824
 20
-149.8230685389331
 10
129.8535725586824
 20
-149.8230685389331
 10
129.8535725586824
 20
-150.1276149798292
 10
129.8535725586824
 20
-150.1276149798292
 10
129.8535725586824
 20
-150.1276149798292
 10
130.2370116861907
 20
-150.1276149798292
 10
130.2370116861907
 20
-150.1276149798292
 10
130.2370116861907
 20
-150.1276149798292
 10
130.2370116861907
 20
-149.8230685389331
 10
130.2370116861907
 20
-149.8230685389331
 97
        0
 97
        1
330
148
 92
        1
 93
        1
 72
     4
 94
        3
 73
     0
 74
     0
 95
       77
 96
       73
 40
0.0
 40
0.0
 40
0.0
 40
0.0
 40
1.0
 40
1.0
 40
1.0
 40
2.0
 40
2.0
 40
2.0
 40
3.0
 40
3.0
 40
3.0
 40
4.0
 40
4.0
 40
4.0
 40
5.0
 40
5.0
 40
5.0
 40
6.0
 40
6.0
 40
6.0
 40
7.0
 40
7.0
 40
7.0
 40
8.0
 40
8.0
 40
8.0
 40
9.0
 40
9.0
 40
9.0
 40
10.0
 40
10.0
 40
10.0
 40
11.0
 40
11.0
 40
11.0
 40
12.0
 40
12.0
 40
12.0
 40
13.0
 40
13.0
 40
13.0
 40
14.0
 40
14.0
 40
14.0
 40
15.0
 40
15.0
 40
15.0
 40
16.0
 40
16.0
 40
16.0
 40
17.0
 40
17.0
 40
17.0
 40
18.0
 40
18.0
 40
18.0
 40
19.0
 40
19.0
 40
19.0
 40
20.0
 40
20.0
 40
20.0
 40
21.0
 40
21.0
 40
21.0
 40
22.0
 40
22.0
 40
22.0
 40
23.0
 40
23.0
 40
23.0
 40
24.0
 40
24.0
 40
24.0
 40
24.0
 10
130.9239637259495
 20
-151.4098795194392
 10
130.8833115992236
 20
-151.4350287164815
 10
130.7741020723412
 20
-151.4477755697769
 10
130.7055446721847
 20
-151.4477755697769
 10
130.6941758570834
 20
-151.4477755697769
 10
130.6721272459778
 20
-151.4477755697769
 10
130.6424994248047
 20
-151.4436414551946
 10
130.6424994248047
 20
-151.4436414551946
 10
130.557405566319
 20
-151.2172986818137
 10
130.557405566319
 20
-151.2172986818137
 10
130.5832437824584
 20
-151.2234998536872
 10
130.6331976669945
 20
-151.2321125924003
 10
130.7351724933579
 20
-151.2321125924003
 10
130.8037298935143
 20
-151.2321125924003
 10
130.805452441257
 20
-151.1897379179317
 10
130.805452441257
 20
-151.1325493328766
 10
130.805452441257
 20
-151.1325493328766
 10
130.805452441257
 20
-150.7835611602208
 10
130.805452441257
 20
-150.7835611602208
 10
130.805452441257
 20
-150.7835611602208
 10
130.4037543076768
 20
-150.7835611602208
 10
130.4037543076768
 20
-150.7835611602208
 10
130.4054768554194
 20
-150.9210204700822
 10
130.407199403162
 20
-151.1198024795811
 10
130.413056065487
 20
-151.2531276748603
 10
130.4147786132296
 20
-151.2806884387423
 10
130.4147786132296
 20
-151.325130170502
 10
130.4258029187824
 20
-151.3864528701395
 10
130.4258029187824
 20
-151.3864528701395
 10
130.2146185655366
 20
-151.3864528701395
 10
130.2146185655366
 20
-151.3864528701395
 10
130.2370116861907
 20
-151.2617404135734
 10
130.2370116861907
 20
-150.9210204700822
 10
130.2370116861907
 20
-150.7835611602208
 10
130.2370116861907
 20
-150.7835611602208
 10
129.8501274631972
 20
-150.7835611602208
 10
129.8501274631972
 20
-150.7835611602208
 10
129.8294568902857
 20
-150.9909559084328
 10
129.7722683052305
 20
-151.2596733562823
 10
129.600013530968
 20
-151.4436414551946
 10
129.600013530968
 20
-151.4436414551946
 10
129.4353379667731
 20
-151.3209960559197
 10
129.4353379667731
 20
-151.3209960559197
 10
129.6572021160232
 20
-151.1008544544123
 10
129.6851073894537
 20
-150.7687472496342
 10
129.6851073894537
 20
-150.4366400448561
 10
129.6851073894537
 20
-150.4366400448561
 10
129.6851073894537
 20
-150.000835465972
 10
129.6851073894537
 20
-150.000835465972
 10
129.6851073894537
 20
-149.9650064729254
 10
129.6833848417111
 20
-149.7321180181225
 10
129.6758056316435
 20
-149.6304877013076
 10
129.7981065213699
 20
-149.6411674973119
 10
130.0092908746157
 20
-149.6411674973119
 10
130.1350368598273
 20
-149.6411674973119
 10
130.1350368598273
 20
-149.6411674973119
 10
130.537079502956
 20
-149.6411674973119
 10
130.537079502956
 20
-149.6411674973119
 10
130.5498263562514
 20
-149.6411674973119
 10
130.8554063257931
 20
-149.6411674973119
 10
130.9942436738486
 20
-149.6304877013076
 10
130.992521126106
 20
-149.6835421717805
 10
130.9870089733296
 20
-149.8444281309416
 10
130.9870089733296
 20
-149.8950710345748
 10
130.9870089733296
 20
-149.8950710345748
 10
130.9870089733296
 20
-150.5020968590758
 10
130.9870089733296
 20
-150.5020968590758
 10
130.9870089733296
 20
-150.5213893937932
 10
130.9963107311398
 20
-151.0925862252477
 10
130.9963107311398
 20
-151.2045518285183
 10
130.9963107311398
 20
-151.2617404135734
 10
130.9963107311398
 20
-151.3633707303883
 10
130.9239637259495
 20
-151.4098795194392
 97
        0
 97
        1
330
149
 75
     2
 76
     1
 98
        1
 10
0.0
 20
0.0
450
        0
451
        0
460
0.0
461
0.0
452
        0
462
0.0
453
        0
470

  0
SPLINE
  5
14B
330
13A
100
AcDbEntity
  8
レイヤー 1
100
AcDbSpline
210
0.0
220
0.0
230
1.0
 70
     9
 71
     3
 72
    17
 73
    13
 74
     0
 42
0.0000000001
 43
0.0000000001
 40
0.0
 40
0.0
 40
0.0
 40
0.0
 40
1.0
 40
1.0
 40
1.0
 40
2.0
 40
2.0
 40
2.0
 40
3.0
 40
3.0
 40
3.0
 40
4.0
 40
4.0
 40
4.0
 40
4.0
 10
126.1459607974565
 20
-152.1705566025823
 30
0.0
 10
126.0977294606631
 20
-152.1705566025823
 30
0.0
 10
126.0587998816797
 20
-152.2149983343421
 30
0.0
 10
126.0587998816797
 20
-152.2701198621061
 30
0.0
 10
126.0587998816797
 20
-152.3273084471612
 30
0.0
 10
126.0977294606631
 20
-152.3758842935032
 30
0.0
 10
126.1497504024903
 20
-152.3758842935032
 30
0.0
 10
126.2014268347691
 20
-152.3758842935032
 30
0.0
 10
126.2365668087186
 20
-152.3252413898701
 30
0.0
 10
126.2365668087186
 20
-152.2721869193972
 30
0.0
 10
126.2365668087186
 20
-152.2149983343421
 30
0.0
 10
126.1959146819927
 20
-152.1705566025823
 30
0.0
 10
126.1459607974565
 20
-152.1705566025823
 30
0.0
  0
SPLINE
  5
14C
330
13A
100
AcDbEntity
  8
レイヤー 1
100
AcDbSpline
210
0.0
220
0.0
230
1.0
 70
     9
 71
     3
 72
    17
 73
    13
 74
     0
 42
0.0000000001
 43
0.0000000001
 40
0.0
 40
0.0
 40
0.0
 40
0.0
 40
1.0
 40
1.0
 40
1.0
 40
2.0
 40
2.0
 40
2.0
 40
3.0
 40
3.0
 40
3.0
 40
4.0
 40
4.0
 40
4.0
 40
4.0
 10
126.1476833451992
 20
-152.5005967500693
 30
0.0
 10
126.0367512705741
 20
-152.5005967500693
 30
0.0
 10
125.9478678070547
 20
-152.3993109428029
 30
0.0
 10
125.9478678070547
 20
-152.2721869193972
 30
0.0
 10
125.9478678070547
 20
-152.14540740554
 30
0.0
 10
126.0367512705741
 20
-152.041710031434
 30
0.0
 10
126.1476833451992
 20
-152.041710031434
 30
0.0
 10
126.2589599293727
 20
-152.041710031434
 30
0.0
 10
126.3495659406348
 20
-152.14540740554
 30
0.0
 10
126.3495659406348
 20
-152.2721869193972
 30
0.0
 10
126.3495659406348
 20
-152.3993109428029
 30
0.0
 10
126.2589599293727
 20
-152.5005967500693
 30
0.0
 10
126.1476833451992
 20
-152.5005967500693
 30
0.0
  0
SPLINE
  5
14D
330
13A
100
AcDbEntity
  8
レイヤー 1
100
AcDbSpline
210
0.0
220
0.0
230
1.0
 70
     9
 71
     3
 72
    44
 73
    40
 74
     0
 42
0.0000000001
 43
0.0000000001
 40
0.0
 40
0.0
 40
0.0
 40
0.0
 40
1.0
 40
1.0
 40
1.0
 40
2.0
 40
2.0
 40
2.0
 40
3.0
 40
3.0
 40
3.0
 40
4.0
 40
4.0
 40
4.0
 40
5.0
 40
5.0
 40
5.0
 40
6.0
 40
6.0
 40
6.0
 40
7.0
 40
7.0
 40
7.0
 40
8.0
 40
8.0
 40
8.0
 40
9.0
 40
9.0
 40
9.0
 40
10.0
 40
10.0
 40
10.0
 40
11.0
 40
11.0
 40
11.0
 40
12.0
 40
12.0
 40
12.0
 40
13.0
 40
13.0
 40
13.0
 40
13.0
 10
125.9644042653839
 20
-152.6997232691167
 30
0.0
 10
125.8662190440543
 20
-153.0676594669414
 30
0.0
 10
125.8217773122945
 20
-153.2264783688114
 30
0.0
 10
125.649522538032
 20
-153.4759032819435
 30
0.0
 10
125.4886365788709
 20
-153.7067246794553
 30
0.0
 10
125.2812418306588
 20
-153.8927598356587
 30
0.0
 10
125.0366400512061
 20
-153.9857774137605
 30
0.0
 10
125.0366400512061
 20
-153.9857774137605
 30
0.0
 10
124.8681748819774
 20
-153.8059434294305
 30
0.0
 10
124.8681748819774
 20
-153.8059434294305
 30
0.0
 10
125.4293809365246
 20
-153.6536702089824
 30
0.0
 10
125.7180799381885
 20
-153.0972872881146
 30
0.0
 10
125.7738904850496
 20
-152.6573485946481
 30
0.0
 10
125.7738904850496
 20
-152.6573485946481
 30
0.0
 10
125.1034749036199
 20
-152.6573485946481
 30
0.0
 10
125.1034749036199
 20
-152.6573485946481
 30
0.0
 10
125.0218261406195
 20
-152.6573485946481
 30
0.0
 10
124.8609401814583
 20
-152.6614827092305
 30
0.0
 10
124.7238253811454
 20
-152.6804307343993
 30
0.0
 10
124.7238253811454
 20
-152.6804307343993
 30
0.0
 10
124.7238253811454
 20
-152.4606336424404
 30
0.0
 10
124.7238253811454
 20
-152.4606336424404
 30
0.0
 10
124.7996174818209
 20
-152.4816487249004
 30
0.0
 10
125.0201035928769
 20
-152.4816487249004
 30
0.0
 10
125.1069199991052
 20
-152.4816487249004
 30
0.0
 10
125.1069199991052
 20
-152.4816487249004
 30
0.0
 10
125.4848469738371
 20
-152.4816487249004
 30
0.0
 10
125.4848469738371
 20
-152.4816487249004
 30
0.0
 10
125.5217094955293
 20
-152.4816487249004
 30
0.0
 10
125.7273816959987
 20
-152.4795816676092
 30
0.0
 10
125.7607991222056
 20
-152.4733804957358
 30
0.0
 10
125.7976616438978
 20
-152.4668348143138
 30
0.0
 10
125.7997287011889
 20
-152.4647677570227
 30
0.0
 10
125.8534721907588
 20
-152.4244601398453
 30
0.0
 10
125.8534721907588
 20
-152.4244601398453
 30
0.0
 10
126.0181477549538
 20
-152.579144927133
 30
0.0
 10
126.0181477549538
 20
-152.579144927133
 30
0.0
 10
125.9923095388144
 20
-152.6087727483061
 30
0.0
 10
125.9792181759705
 20
-152.6404676267704
 30
0.0
 10
125.9644042653839
 20
-152.6997232691167
 30
0.0
  0
HATCH
  5
14E
330
13A
100
AcDbEntity
  8
レイヤー 1
 62
   250
420
  2299925
440
 33554687
100
AcDbHatch
 10
0.0
 20
0.0
 30
0.0
210
0.0
220
0.0
230
1.0
  2
SOLID
 70
     1
 71
     1
 91
        3
 92
        1
 93
        1
 72
     4
 94
        3
 73
     0
 74
     0
 95
       17
 96
       13
 40
0.0
 40
0.0
 40
0.0
 40
0.0
 40
1.0
 40
1.0
 40
1.0
 40
2.0
 40
2.0
 40
2.0
 40
3.0
 40
3.0
 40
3.0
 40
4.0
 40
4.0
 40
4.0
 40
4.0
 10
126.1459607974565
 20
-152.1705566025823
 10
126.0977294606631
 20
-152.1705566025823
 10
126.0587998816797
 20
-152.2149983343421
 10
126.0587998816797
 20
-152.2701198621061
 10
126.0587998816797
 20
-152.3273084471612
 10
126.0977294606631
 20
-152.3758842935032
 10
126.1497504024903
 20
-152.3758842935032
 10
126.2014268347691
 20
-152.3758842935032
 10
126.2365668087186
 20
-152.3252413898701
 10
126.2365668087186
 20
-152.2721869193972
 10
126.2365668087186
 20
-152.2149983343421
 10
126.1959146819927
 20
-152.1705566025823
 10
126.1459607974565
 20
-152.1705566025823
 97
        0
 97
        1
330
14B
 92
        1
 93
        1
 72
     4
 94
        3
 73
     0
 74
     0
 95
       17
 96
       13
 40
0.0
 40
0.0
 40
0.0
 40
0.0
 40
1.0
 40
1.0
 40
1.0
 40
2.0
 40
2.0
 40
2.0
 40
3.0
 40
3.0
 40
3.0
 40
4.0
 40
4.0
 40
4.0
 40
4.0
 10
126.1476833451992
 20
-152.5005967500693
 10
126.0367512705741
 20
-152.5005967500693
 10
125.9478678070547
 20
-152.3993109428029
 10
125.9478678070547
 20
-152.2721869193972
 10
125.9478678070547
 20
-152.14540740554
 10
126.0367512705741
 20
-152.041710031434
 10
126.1476833451992
 20
-152.041710031434
 10
126.2589599293727
 20
-152.041710031434
 10
126.3495659406348
 20
-152.14540740554
 10
126.3495659406348
 20
-152.2721869193972
 10
126.3495659406348
 20
-152.3993109428029
 10
126.2589599293727
 20
-152.5005967500693
 10
126.1476833451992
 20
-152.5005967500693
 97
        0
 97
        1
330
14C
 92
        1
 93
        1
 72
     4
 94
        3
 73
     0
 74
     0
 95
       44
 96
       40
 40
0.0
 40
0.0
 40
0.0
 40
0.0
 40
1.0
 40
1.0
 40
1.0
 40
2.0
 40
2.0
 40
2.0
 40
3.0
 40
3.0
 40
3.0
 40
4.0
 40
4.0
 40
4.0
 40
5.0
 40
5.0
 40
5.0
 40
6.0
 40
6.0
 40
6.0
 40
7.0
 40
7.0
 40
7.0
 40
8.0
 40
8.0
 40
8.0
 40
9.0
 40
9.0
 40
9.0
 40
10.0
 40
10.0
 40
10.0
 40
11.0
 40
11.0
 40
11.0
 40
12.0
 40
12.0
 40
12.0
 40
13.0
 40
13.0
 40
13.0
 40
13.0
 10
125.9644042653839
 20
-152.6997232691167
 10
125.8662190440543
 20
-153.0676594669414
 10
125.8217773122945
 20
-153.2264783688114
 10
125.649522538032
 20
-153.4759032819435
 10
125.4886365788709
 20
-153.7067246794553
 10
125.2812418306588
 20
-153.8927598356587
 10
125.0366400512061
 20
-153.9857774137605
 10
125.0366400512061
 20
-153.9857774137605
 10
124.8681748819774
 20
-153.8059434294305
 10
124.8681748819774
 20
-153.8059434294305
 10
125.4293809365246
 20
-153.6536702089824
 10
125.7180799381885
 20
-153.0972872881146
 10
125.7738904850496
 20
-152.6573485946481
 10
125.7738904850496
 20
-152.6573485946481
 10
125.1034749036199
 20
-152.6573485946481
 10
125.1034749036199
 20
-152.6573485946481
 10
125.0218261406195
 20
-152.6573485946481
 10
124.8609401814583
 20
-152.6614827092305
 10
124.7238253811454
 20
-152.6804307343993
 10
124.7238253811454
 20
-152.6804307343993
 10
124.7238253811454
 20
-152.4606336424404
 10
124.7238253811454
 20
-152.4606336424404
 10
124.7996174818209
 20
-152.4816487249004
 10
125.0201035928769
 20
-152.4816487249004
 10
125.1069199991052
 20
-152.4816487249004
 10
125.1069199991052
 20
-152.4816487249004
 10
125.4848469738371
 20
-152.4816487249004
 10
125.4848469738371
 20
-152.4816487249004
 10
125.5217094955293
 20
-152.4816487249004
 10
125.7273816959987
 20
-152.4795816676092
 10
125.7607991222056
 20
-152.4733804957358
 10
125.7976616438978
 20
-152.4668348143138
 10
125.7997287011889
 20
-152.4647677570227
 10
125.8534721907588
 20
-152.4244601398453
 10
125.8534721907588
 20
-152.4244601398453
 10
126.0181477549538
 20
-152.579144927133
 10
126.0181477549538
 20
-152.579144927133
 10
125.9923095388144
 20
-152.6087727483061
 10
125.9792181759705
 20
-152.6404676267704
 10
125.9644042653839
 20
-152.6997232691167
 97
        0
 97
        1
330
14D
 75
     2
 76
     1
 98
        1
 10
0.0
 20
0.0
450
        0
451
        0
460
0.0
461
0.0
452
        0
462
0.0
453
        0
470

  0
SPLINE
  5
14F
330
13A
100
AcDbEntity
  8
レイヤー 1
100
AcDbSpline
210
0.0
220
0.0
230
1.0
 70
     9
 71
     3
 72
    29
 73
    25
 74
     0
 42
0.0000000001
 43
0.0000000001
 40
0.0
 40
0.0
 40
0.0
 40
0.0
 40
1.0
 40
1.0
 40
1.0
 40
2.0
 40
2.0
 40
2.0
 40
3.0
 40
3.0
 40
3.0
 40
4.0
 40
4.0
 40
4.0
 40
5.0
 40
5.0
 40
5.0
 40
6.0
 40
6.0
 40
6.0
 40
7.0
 40
7.0
 40
7.0
 40
8.0
 40
8.0
 40
8.0
 40
8.0
 10
127.2886989699139
 20
-152.3824299749252
 30
0.0
 10
127.2886989699139
 20
-152.3824299749252
 30
0.0
 10
126.9906982104398
 20
-152.3824299749252
 30
0.0
 10
126.9906982104398
 20
-152.3824299749252
 30
0.0
 10
126.8907904413676
 20
-152.3824299749252
 30
0.0
 10
126.7888156150042
 20
-152.3865640895075
 30
0.0
 10
126.6889078459319
 20
-152.4013780000941
 30
0.0
 10
126.6889078459319
 20
-152.4013780000941
 30
0.0
 10
126.6889078459319
 20
-152.1919161945909
 30
0.0
 10
126.6889078459319
 20
-152.1919161945909
 30
0.0
 10
126.7926052200379
 20
-152.2067301051775
 30
0.0
 10
126.9445339309374
 20
-152.2108642197598
 30
0.0
 10
126.9906982104398
 20
-152.2108642197598
 30
0.0
 10
126.9906982104398
 20
-152.2108642197598
 30
0.0
 10
127.2886989699139
 20
-152.2108642197598
 30
0.0
 10
127.2886989699139
 20
-152.2108642197598
 30
0.0
 10
127.3906737962773
 20
-152.2108642197598
 30
0.0
 10
127.4923041130922
 20
-152.2067301051775
 30
0.0
 10
127.5942789394556
 20
-152.1919161945909
 30
0.0
 10
127.5942789394556
 20
-152.1919161945909
 30
0.0
 10
127.5942789394556
 20
-152.4013780000941
 30
0.0
 10
127.5942789394556
 20
-152.4013780000941
 30
0.0
 10
127.462676291919
 20
-152.3824299749252
 30
0.0
 10
127.3017903327579
 20
-152.3824299749252
 30
0.0
 10
127.2886989699139
 20
-152.3824299749252
 30
0.0
  0
SPLINE
  5
150
330
13A
100
AcDbEntity
  8
レイヤー 1
100
AcDbSpline
210
0.0
220
0.0
230
1.0
 70
     9
 71
     3
 72
    50
 73
    46
 74
     0
 42
0.0000000001
 43
0.0000000001
 40
0.0
 40
0.0
 40
0.0
 40
0.0
 40
1.0
 40
1.0
 40
1.0
 40
2.0
 40
2.0
 40
2.0
 40
3.0
 40
3.0
 40
3.0
 40
4.0
 40
4.0
 40
4.0
 40
5.0
 40
5.0
 40
5.0
 40
6.0
 40
6.0
 40
6.0
 40
7.0
 40
7.0
 40
7.0
 40
8.0
 40
8.0
 40
8.0
 40
9.0
 40
9.0
 40
9.0
 40
10.0
 40
10.0
 40
10.0
 40
11.0
 40
11.0
 40
11.0
 40
12.0
 40
12.0
 40
12.0
 40
13.0
 40
13.0
 40
13.0
 40
14.0
 40
14.0
 40
14.0
 40
15.0
 40
15.0
 40
15.0
 40
15.0
 10
127.7203694342157
 20
-153.0084038245951
 30
0.0
 10
127.6518120340593
 20
-153.186170751634
 30
0.0
 10
127.5333007493667
 20
-153.393565499846
 30
0.0
 10
127.4127224073829
 20
-153.5330918669987
 30
0.0
 10
127.2645833015172
 20
-153.7043131126156
 30
0.0
 10
127.1223008579764
 20
-153.793196576135
 30
0.0
 10
126.8425591045741
 20
-153.9351345101273
 30
0.0
 10
126.8425591045741
 20
-153.9351345101273
 30
0.0
 10
126.6944199987083
 20
-153.7466877870842
 30
0.0
 10
126.6944199987083
 20
-153.7466877870842
 30
0.0
 10
126.8573730151606
 20
-153.723605647333
 30
0.0
 10
127.007234668769
 20
-153.6367892411047
 30
0.0
 10
127.1405598640482
 20
-153.5310248097075
 30
0.0
 10
127.3703477329144
 20
-153.3491237680863
 30
0.0
 10
127.5370903544004
 20
-153.0359645884771
 30
0.0
 10
127.579465028869
 20
-152.8540635468559
 30
0.0
 10
127.579465028869
 20
-152.8540635468559
 30
0.0
 10
126.9924207581824
 20
-152.8540635468559
 30
0.0
 10
126.9924207581824
 20
-152.8540635468559
 30
0.0
 10
126.8535834101269
 20
-152.8540635468559
 30
0.0
 10
126.5979573251213
 20
-152.8623317760205
 30
0.0
 10
126.4646321298422
 20
-152.8795572534468
 30
0.0
 10
126.4646321298422
 20
-152.8795572534468
 30
0.0
 10
126.4646321298422
 20
-152.6508029132262
 30
0.0
 10
126.4646321298422
 20
-152.6508029132262
 30
0.0
 10
126.4942599510153
 20
-152.6573485946481
 30
0.0
 10
126.5166530716694
 20
-152.6635497665216
 30
0.0
 10
126.5628173511718
 20
-152.6676838811039
 30
0.0
 10
126.6517008146912
 20
-152.6742295625258
 30
0.0
 10
126.8239555889537
 20
-152.676296619817
 30
0.0
 10
126.8980251418866
 20
-152.676296619817
 30
0.0
 10
126.8980251418866
 20
-152.676296619817
 30
0.0
 10
127.3407199117412
 20
-152.676296619817
 30
0.0
 10
127.3407199117412
 20
-152.676296619817
 30
0.0
 10
127.3999755540875
 20
-152.676296619817
 30
0.0
 10
127.5277885965903
 20
-152.6721625052347
 30
0.0
 10
127.5811875766116
 20
-152.6656168238127
 30
0.0
 10
127.6442328239917
 20
-152.6573485946481
 30
0.0
 10
127.6683484923885
 20
-152.6425346840616
 30
0.0
 10
127.6979763135616
 20
-152.6191080347619
 30
0.0
 10
127.6979763135616
 20
-152.6191080347619
 30
0.0
 10
127.8423258143936
 20
-152.7861951657965
 30
0.0
 10
127.8423258143936
 20
-152.7861951657965
 30
0.0
 10
127.7813476243046
 20
-152.8540635468559
 30
0.0
 10
127.7406954975787
 20
-152.9577609209619
 30
0.0
 10
127.7203694342157
 20
-153.0084038245951
 30
0.0
  0
HATCH
  5
151
330
13A
100
AcDbEntity
  8
レイヤー 1
 62
   250
420
  2299925
440
 33554687
100
AcDbHatch
 10
0.0
 20
0.0
 30
0.0
210
0.0
220
0.0
230
1.0
  2
SOLID
 70
     1
 71
     1
 91
        2
 92
        1
 93
        1
 72
     4
 94
        3
 73
     0
 74
     0
 95
       29
 96
       25
 40
0.0
 40
0.0
 40
0.0
 40
0.0
 40
1.0
 40
1.0
 40
1.0
 40
2.0
 40
2.0
 40
2.0
 40
3.0
 40
3.0
 40
3.0
 40
4.0
 40
4.0
 40
4.0
 40
5.0
 40
5.0
 40
5.0
 40
6.0
 40
6.0
 40
6.0
 40
7.0
 40
7.0
 40
7.0
 40
8.0
 40
8.0
 40
8.0
 40
8.0
 10
127.2886989699139
 20
-152.3824299749252
 10
127.2886989699139
 20
-152.3824299749252
 10
126.9906982104398
 20
-152.3824299749252
 10
126.9906982104398
 20
-152.3824299749252
 10
126.8907904413676
 20
-152.3824299749252
 10
126.7888156150042
 20
-152.3865640895075
 10
126.6889078459319
 20
-152.4013780000941
 10
126.6889078459319
 20
-152.4013780000941
 10
126.6889078459319
 20
-152.1919161945909
 10
126.6889078459319
 20
-152.1919161945909
 10
126.7926052200379
 20
-152.2067301051775
 10
126.9445339309374
 20
-152.2108642197598
 10
126.9906982104398
 20
-152.2108642197598
 10
126.9906982104398
 20
-152.2108642197598
 10
127.2886989699139
 20
-152.2108642197598
 10
127.2886989699139
 20
-152.2108642197598
 10
127.3906737962773
 20
-152.2108642197598
 10
127.4923041130922
 20
-152.2067301051775
 10
127.5942789394556
 20
-152.1919161945909
 10
127.5942789394556
 20
-152.1919161945909
 10
127.5942789394556
 20
-152.4013780000941
 10
127.5942789394556
 20
-152.4013780000941
 10
127.462676291919
 20
-152.3824299749252
 10
127.3017903327579
 20
-152.3824299749252
 10
127.2886989699139
 20
-152.3824299749252
 97
        0
 97
        1
330
14F
 92
        1
 93
        1
 72
     4
 94
        3
 73
     0
 74
     0
 95
       50
 96
       46
 40
0.0
 40
0.0
 40
0.0
 40
0.0
 40
1.0
 40
1.0
 40
1.0
 40
2.0
 40
2.0
 40
2.0
 40
3.0
 40
3.0
 40
3.0
 40
4.0
 40
4.0
 40
4.0
 40
5.0
 40
5.0
 40
5.0
 40
6.0
 40
6.0
 40
6.0
 40
7.0
 40
7.0
 40
7.0
 40
8.0
 40
8.0
 40
8.0
 40
9.0
 40
9.0
 40
9.0
 40
10.0
 40
10.0
 40
10.0
 40
11.0
 40
11.0
 40
11.0
 40
12.0
 40
12.0
 40
12.0
 40
13.0
 40
13.0
 40
13.0
 40
14.0
 40
14.0
 40
14.0
 40
15.0
 40
15.0
 40
15.0
 40
15.0
 10
127.7203694342157
 20
-153.0084038245951
 10
127.6518120340593
 20
-153.186170751634
 10
127.5333007493667
 20
-153.393565499846
 10
127.4127224073829
 20
-153.5330918669987
 10
127.2645833015172
 20
-153.7043131126156
 10
127.1223008579764
 20
-153.793196576135
 10
126.8425591045741
 20
-153.9351345101273
 10
126.8425591045741
 20
-153.9351345101273
 10
126.6944199987083
 20
-153.7466877870842
 10
126.6944199987083
 20
-153.7466877870842
 10
126.8573730151606
 20
-153.723605647333
 10
127.007234668769
 20
-153.6367892411047
 10
127.1405598640482
 20
-153.5310248097075
 10
127.3703477329144
 20
-153.3491237680863
 10
127.5370903544004
 20
-153.0359645884771
 10
127.579465028869
 20
-152.8540635468559
 10
127.579465028869
 20
-152.8540635468559
 10
126.9924207581824
 20
-152.8540635468559
 10
126.9924207581824
 20
-152.8540635468559
 10
126.8535834101269
 20
-152.8540635468559
 10
126.5979573251213
 20
-152.8623317760205
 10
126.4646321298422
 20
-152.8795572534468
 10
126.4646321298422
 20
-152.8795572534468
 10
126.4646321298422
 20
-152.6508029132262
 10
126.4646321298422
 20
-152.6508029132262
 10
126.4942599510153
 20
-152.6573485946481
 10
126.5166530716694
 20
-152.6635497665216
 10
126.5628173511718
 20
-152.6676838811039
 10
126.6517008146912
 20
-152.6742295625258
 10
126.8239555889537
 20
-152.676296619817
 10
126.8980251418866
 20
-152.676296619817
 10
126.8980251418866
 20
-152.676296619817
 10
127.3407199117412
 20
-152.676296619817
 10
127.3407199117412
 20
-152.676296619817
 10
127.3999755540875
 20
-152.676296619817
 10
127.5277885965903
 20
-152.6721625052347
 10
127.5811875766116
 20
-152.6656168238127
 10
127.6442328239917
 20
-152.6573485946481
 10
127.6683484923885
 20
-152.6425346840616
 10
127.6979763135616
 20
-152.6191080347619
 10
127.6979763135616
 20
-152.6191080347619
 10
127.8423258143936
 20
-152.7861951657965
 10
127.8423258143936
 20
-152.7861951657965
 10
127.7813476243046
 20
-152.8540635468559
 10
127.7406954975787
 20
-152.9577609209619
 10
127.7203694342157
 20
-153.0084038245951
 97
        0
 97
        1
330
150
 75
     2
 76
     1
 98
        1
 10
0.0
 20
0.0
450
        0
451
        0
460
0.0
461
0.0
452
        0
462
0.0
453
        0
470

  0
SPLINE
  5
152
330
13A
100
AcDbEntity
  8
レイヤー 1
100
AcDbSpline
210
0.0
220
0.0
230
1.0
 70
     9
 71
     3
 72
    50
 73
    46
 74
     0
 42
0.0000000001
 43
0.0000000001
 40
0.0
 40
0.0
 40
0.0
 40
0.0
 40
1.0
 40
1.0
 40
1.0
 40
2.0
 40
2.0
 40
2.0
 40
3.0
 40
3.0
 40
3.0
 40
4.0
 40
4.0
 40
4.0
 40
5.0
 40
5.0
 40
5.0
 40
6.0
 40
6.0
 40
6.0
 40
7.0
 40
7.0
 40
7.0
 40
8.0
 40
8.0
 40
8.0
 40
9.0
 40
9.0
 40
9.0
 40
10.0
 40
10.0
 40
10.0
 40
11.0
 40
11.0
 40
11.0
 40
12.0
 40
12.0
 40
12.0
 40
13.0
 40
13.0
 40
13.0
 40
14.0
 40
14.0
 40
14.0
 40
15.0
 40
15.0
 40
15.0
 40
15.0
 10
129.2182969512023
 20
-152.3676160643386
 30
0.0
 10
129.0350178713871
 20
-152.5812119844241
 30
0.0
 10
128.9723171335555
 20
-152.6532144800659
 30
0.0
 10
128.847949186538
 20
-152.7713812552099
 30
0.0
 10
128.847949186538
 20
-152.7713812552099
 30
0.0
 10
128.847949186538
 20
-153.338443972082
 30
0.0
 10
128.847949186538
 20
-153.338443972082
 30
0.0
 10
128.847949186538
 20
-153.4886501352389
 30
0.0
 10
128.8538058488629
 20
-153.5075981604078
 30
0.0
 10
128.8572509443482
 20
-153.6853650874467
 30
0.0
 10
128.8593180016393
 20
-153.8166232254347
 30
0.0
 10
128.8648301544157
 20
-153.8651990717768
 30
0.0
 10
128.8703423071921
 20
-153.9244547141231
 30
0.0
 10
128.8703423071921
 20
-153.9244547141231
 30
0.0
 10
128.6722493167902
 20
-153.9244547141231
 30
0.0
 10
128.6722493167902
 20
-153.9244547141231
 30
0.0
 10
128.676038921824
 20
-153.8800129823633
 30
0.0
 10
128.6794840173093
 20
-153.8335041933124
 30
0.0
 10
128.6794840173093
 20
-153.8248914545993
 30
0.0
 10
128.6794840173093
 20
-153.744620729793
 30
0.0
 10
128.6832736223431
 20
-153.393565499846
 30
0.0
 10
128.6832736223431
 20
-153.3215630042043
 30
0.0
 10
128.6832736223431
 20
-153.3215630042043
 30
0.0
 10
128.6832736223431
 20
-152.9153862464933
 30
0.0
 10
128.6832736223431
 20
-152.9153862464933
 30
0.0
 10
128.5241102109245
 20
-153.0400987030594
 30
0.0
 10
128.3535779844046
 20
-153.1503417585874
 30
0.0
 10
128.1758110573657
 20
-153.2368136552672
 30
0.0
 10
128.1758110573657
 20
-153.2368136552672
 30
0.0
 10
127.9980441303269
 20
-153.0738606388148
 30
0.0
 10
127.9980441303269
 20
-153.0738606388148
 30
0.0
 10
128.1055311094666
 20
-153.0380316457683
 30
0.0
 10
128.3294623160079
 20
-152.9639620928354
 30
0.0
 10
128.6312526805158
 20
-152.7079914982813
 30
0.0
 10
128.820388422656
 20
-152.5495171059598
 30
0.0
 10
128.9888535918847
 20
-152.3610703829167
 30
0.0
 10
129.1221787871639
 20
-152.1409287814092
 30
0.0
 10
129.1221787871639
 20
-152.1409287814092
 30
0.0
 10
129.2906439563926
 20
-152.2849337726926
 30
0.0
 10
129.2906439563926
 20
-152.2849337726926
 30
0.0
 10
129.3016682619454
 20
-152.2956135686969
 30
0.0
 10
129.309247472013
 20
-152.3104274792835
 30
0.0
 10
129.309247472013
 20
-152.3231743325789
 30
0.0
 10
129.309247472013
 20
-152.3631374402078
 30
0.0
 10
129.275830045806
 20
-152.3631374402078
 30
0.0
 10
129.2182969512023
 20
-152.3676160643386
 30
0.0
  0
HATCH
  5
153
330
13A
100
AcDbEntity
  8
レイヤー 1
 62
   250
420
  2299925
440
 33554687
100
AcDbHatch
 10
0.0
 20
0.0
 30
0.0
210
0.0
220
0.0
230
1.0
  2
SOLID
 70
     1
 71
     1
 91
        1
 92
        1
 93
        1
 72
     4
 94
        3
 73
     0
 74
     0
 95
       50
 96
       46
 40
0.0
 40
0.0
 40
0.0
 40
0.0
 40
1.0
 40
1.0
 40
1.0
 40
2.0
 40
2.0
 40
2.0
 40
3.0
 40
3.0
 40
3.0
 40
4.0
 40
4.0
 40
4.0
 40
5.0
 40
5.0
 40
5.0
 40
6.0
 40
6.0
 40
6.0
 40
7.0
 40
7.0
 40
7.0
 40
8.0
 40
8.0
 40
8.0
 40
9.0
 40
9.0
 40
9.0
 40
10.0
 40
10.0
 40
10.0
 40
11.0
 40
11.0
 40
11.0
 40
12.0
 40
12.0
 40
12.0
 40
13.0
 40
13.0
 40
13.0
 40
14.0
 40
14.0
 40
14.0
 40
15.0
 40
15.0
 40
15.0
 40
15.0
 10
129.2182969512023
 20
-152.3676160643386
 10
129.0350178713871
 20
-152.5812119844241
 10
128.9723171335555
 20
-152.6532144800659
 10
128.847949186538
 20
-152.7713812552099
 10
128.847949186538
 20
-152.7713812552099
 10
128.847949186538
 20
-153.338443972082
 10
128.847949186538
 20
-153.338443972082
 10
128.847949186538
 20
-153.4886501352389
 10
128.8538058488629
 20
-153.5075981604078
 10
128.8572509443482
 20
-153.6853650874467
 10
128.8593180016393
 20
-153.8166232254347
 10
128.8648301544157
 20
-153.8651990717768
 10
128.8703423071921
 20
-153.9244547141231
 10
128.8703423071921
 20
-153.9244547141231
 10
128.6722493167902
 20
-153.9244547141231
 10
128.6722493167902
 20
-153.9244547141231
 10
128.676038921824
 20
-153.8800129823633
 10
128.6794840173093
 20
-153.8335041933124
 10
128.6794840173093
 20
-153.8248914545993
 10
128.6794840173093
 20
-153.744620729793
 10
128.6832736223431
 20
-153.393565499846
 10
128.6832736223431
 20
-153.3215630042043
 10
128.6832736223431
 20
-153.3215630042043
 10
128.6832736223431
 20
-152.9153862464933
 10
128.6832736223431
 20
-152.9153862464933
 10
128.5241102109245
 20
-153.0400987030594
 10
128.3535779844046
 20
-153.1503417585874
 10
128.1758110573657
 20
-153.2368136552672
 10
128.1758110573657
 20
-153.2368136552672
 10
127.9980441303269
 20
-153.0738606388148
 10
127.9980441303269
 20
-153.0738606388148
 10
128.1055311094666
 20
-153.0380316457683
 10
128.3294623160079
 20
-152.9639620928354
 10
128.6312526805158
 20
-152.7079914982813
 10
128.820388422656
 20
-152.5495171059598
 10
128.9888535918847
 20
-152.3610703829167
 10
129.1221787871639
 20
-152.1409287814092
 10
129.1221787871639
 20
-152.1409287814092
 10
129.2906439563926
 20
-152.2849337726926
 10
129.2906439563926
 20
-152.2849337726926
 10
129.3016682619454
 20
-152.2956135686969
 10
129.309247472013
 20
-152.3104274792835
 10
129.309247472013
 20
-152.3231743325789
 10
129.309247472013
 20
-152.3631374402078
 10
129.275830045806
 20
-152.3631374402078
 10
129.2182969512023
 20
-152.3676160643386
 97
        0
 97
        1
330
152
 75
     2
 76
     1
 98
        1
 10
0.0
 20
0.0
450
        0
451
        0
460
0.0
461
0.0
452
        0
462
0.0
453
        0
470

  0
SPLINE
  5
154
330
13A
100
AcDbEntity
  8
レイヤー 1
100
AcDbSpline
210
0.0
220
0.0
230
1.0
 70
     9
 71
     3
 72
    50
 73
    46
 74
     0
 42
0.0000000001
 43
0.0000000001
 40
0.0
 40
0.0
 40
0.0
 40
0.0
 40
1.0
 40
1.0
 40
1.0
 40
2.0
 40
2.0
 40
2.0
 40
3.0
 40
3.0
 40
3.0
 40
4.0
 40
4.0
 40
4.0
 40
5.0
 40
5.0
 40
5.0
 40
6.0
 40
6.0
 40
6.0
 40
7.0
 40
7.0
 40
7.0
 40
8.0
 40
8.0
 40
8.0
 40
9.0
 40
9.0
 40
9.0
 40
10.0
 40
10.0
 40
10.0
 40
11.0
 40
11.0
 40
11.0
 40
12.0
 40
12.0
 40
12.0
 40
13.0
 40
13.0
 40
13.0
 40
14.0
 40
14.0
 40
14.0
 40
15.0
 40
15.0
 40
15.0
 40
15.0
 10
130.7145019204464
 20
-152.8943711640333
 30
0.0
 10
130.661102940425
 20
-152.9660291501265
 30
0.0
 10
130.4330376193014
 20
-153.283322444318
 30
0.0
 10
130.3830837347653
 20
-153.3470567107952
 30
0.0
 10
130.4571532876982
 20
-153.4442084034792
 30
0.0
 10
130.5015950194579
 20
-153.5075981604078
 30
0.0
 10
130.5591281140616
 20
-153.5985486812184
 30
0.0
 10
130.5591281140616
 20
-153.5985486812184
 30
0.0
 10
130.3978976453519
 20
-153.7363525006284
 30
0.0
 10
130.3978976453519
 20
-153.7363525006284
 30
0.0
 10
130.2793863606593
 20
-153.5244791282855
 30
0.0
 10
130.1295247070509
 20
-153.3005479217443
 30
0.0
 10
129.8721760743028
 20
-153.1014214026968
 30
0.0
 10
129.8721760743028
 20
-153.1014214026968
 30
0.0
 10
130.0017116645482
 20
-152.9470811249577
 30
0.0
 10
130.0017116645482
 20
-152.9470811249577
 30
0.0
 10
130.0981743381351
 20
-153.027351849764
 30
0.0
 10
130.1887803493972
 20
-153.1162353132834
 30
0.0
 10
130.2738742078829
 20
-153.2116644582248
 30
0.0
 10
130.3331298502292
 20
-153.1355278480008
 30
0.0
 10
130.5108967772681
 20
-152.8919595971937
 30
0.0
 10
130.6276855142181
 20
-152.6635497665216
 30
0.0
 10
130.6276855142181
 20
-152.6635497665216
 30
0.0
 10
130.0389186957888
 20
-152.6635497665216
 30
0.0
 10
130.0389186957888
 20
-152.6635497665216
 30
0.0
 10
129.9293646593579
 20
-152.6635497665216
 30
0.0
 10
129.7092230578504
 20
-152.6721625052347
 30
0.0
 10
129.5259439780352
 20
-152.6824977916905
 30
0.0
 10
129.5259439780352
 20
-152.6824977916905
 30
0.0
 10
129.5259439780352
 20
-152.4627006997315
 30
0.0
 10
129.5259439780352
 20
-152.4627006997315
 30
0.0
 10
129.6868299371963
 20
-152.4816487249004
 30
0.0
 10
129.8666639215264
 20
-152.4857828394827
 30
0.0
 10
130.0313394857213
 20
-152.4857828394827
 30
0.0
 10
130.0313394857213
 20
-152.4857828394827
 30
0.0
 10
130.4719671982848
 20
-152.4857828394827
 30
0.0
 10
130.4719671982848
 20
-152.4857828394827
 30
0.0
 10
130.7682454100163
 20
-152.4857828394827
 30
0.0
 10
130.8071749889996
 20
-152.4709689288961
 30
0.0
 10
130.8795219941898
 20
-152.4310058212672
 30
0.0
 10
130.8795219941898
 20
-152.4310058212672
 30
0.0
 10
131.0255940427644
 20
-152.5894802135887
 30
0.0
 10
131.0255940427644
 20
-152.5894802135887
 30
0.0
 10
130.8922688474853
 20
-152.6614827092305
 30
0.0
 10
130.7665228622736
 20
-152.8244357256828
 30
0.0
 10
130.7145019204464
 20
-152.8943711640333
 30
0.0
  0
HATCH
  5
155
330
13A
100
AcDbEntity
  8
レイヤー 1
 62
   250
420
  2299925
440
 33554687
100
AcDbHatch
 10
0.0
 20
0.0
 30
0.0
210
0.0
220
0.0
230
1.0
  2
SOLID
 70
     1
 71
     1
 91
        1
 92
        1
 93
        1
 72
     4
 94
        3
 73
     0
 74
     0
 95
       50
 96
       46
 40
0.0
 40
0.0
 40
0.0
 40
0.0
 40
1.0
 40
1.0
 40
1.0
 40
2.0
 40
2.0
 40
2.0
 40
3.0
 40
3.0
 40
3.0
 40
4.0
 40
4.0
 40
4.0
 40
5.0
 40
5.0
 40
5.0
 40
6.0
 40
6.0
 40
6.0
 40
7.0
 40
7.0
 40
7.0
 40
8.0
 40
8.0
 40
8.0
 40
9.0
 40
9.0
 40
9.0
 40
10.0
 40
10.0
 40
10.0
 40
11.0
 40
11.0
 40
11.0
 40
12.0
 40
12.0
 40
12.0
 40
13.0
 40
13.0
 40
13.0
 40
14.0
 40
14.0
 40
14.0
 40
15.0
 40
15.0
 40
15.0
 40
15.0
 10
130.7145019204464
 20
-152.8943711640333
 10
130.661102940425
 20
-152.9660291501265
 10
130.4330376193014
 20
-153.283322444318
 10
130.3830837347653
 20
-153.3470567107952
 10
130.4571532876982
 20
-153.4442084034792
 10
130.5015950194579
 20
-153.5075981604078
 10
130.5591281140616
 20
-153.5985486812184
 10
130.5591281140616
 20
-153.5985486812184
 10
130.3978976453519
 20
-153.7363525006284
 10
130.3978976453519
 20
-153.7363525006284
 10
130.2793863606593
 20
-153.5244791282855
 10
130.1295247070509
 20
-153.3005479217443
 10
129.8721760743028
 20
-153.1014214026968
 10
129.8721760743028
 20
-153.1014214026968
 10
130.0017116645482
 20
-152.9470811249577
 10
130.0017116645482
 20
-152.9470811249577
 10
130.0981743381351
 20
-153.027351849764
 10
130.1887803493972
 20
-153.1162353132834
 10
130.2738742078829
 20
-153.2116644582248
 10
130.3331298502292
 20
-153.1355278480008
 10
130.5108967772681
 20
-152.8919595971937
 10
130.6276855142181
 20
-152.6635497665216
 10
130.6276855142181
 20
-152.6635497665216
 10
130.0389186957888
 20
-152.6635497665216
 10
130.0389186957888
 20
-152.6635497665216
 10
129.9293646593579
 20
-152.6635497665216
 10
129.7092230578504
 20
-152.6721625052347
 10
129.5259439780352
 20
-152.6824977916905
 10
129.5259439780352
 20
-152.6824977916905
 10
129.5259439780352
 20
-152.4627006997315
 10
129.5259439780352
 20
-152.4627006997315
 10
129.6868299371963
 20
-152.4816487249004
 10
129.8666639215264
 20
-152.4857828394827
 10
130.0313394857213
 20
-152.4857828394827
 10
130.0313394857213
 20
-152.4857828394827
 10
130.4719671982848
 20
-152.4857828394827
 10
130.4719671982848
 20
-152.4857828394827
 10
130.7682454100163
 20
-152.4857828394827
 10
130.8071749889996
 20
-152.4709689288961
 10
130.8795219941898
 20
-152.4310058212672
 10
130.8795219941898
 20
-152.4310058212672
 10
131.0255940427644
 20
-152.5894802135887
 10
131.0255940427644
 20
-152.5894802135887
 10
130.8922688474853
 20
-152.6614827092305
 10
130.7665228622736
 20
-152.8244357256828
 10
130.7145019204464
 20
-152.8943711640333
 97
        0
 97
        1
330
154
 75
     2
 76
     1
 98
        1
 10
0.0
 20
0.0
450
        0
451
        0
460
0.0
461
0.0
452
        0
462
0.0
453
        0
470

  0
SPLINE
  5
156
330
13A
100
AcDbEntity
  8
レイヤー 1
100
AcDbSpline
210
0.0
220
0.0
230
1.0
 70
     9
 71
     3
 72
    29
 73
    25
 74
     0
 42
0.0000000001
 43
0.0000000001
 40
0.0
 40
0.0
 40
0.0
 40
0.0
 40
1.0
 40
1.0
 40
1.0
 40
2.0
 40
2.0
 40
2.0
 40
3.0
 40
3.0
 40
3.0
 40
4.0
 40
4.0
 40
4.0
 40
5.0
 40
5.0
 40
5.0
 40
6.0
 40
6.0
 40
6.0
 40
7.0
 40
7.0
 40
7.0
 40
8.0
 40
8.0
 40
8.0
 40
8.0
 10
132.136981846306
 20
-153.137594905292
 30
0.0
 10
132.136981846306
 20
-153.137594905292
 30
0.0
 10
131.7128905920718
 20
-153.137594905292
 30
0.0
 10
131.7128905920718
 20
-153.137594905292
 30
0.0
 10
131.688774923675
 20
-153.137594905292
 30
0.0
 10
131.4107557180153
 20
-153.137594905292
 30
0.0
 10
131.2257540904574
 20
-153.1627441023343
 30
0.0
 10
131.2257540904574
 20
-153.1627441023343
 30
0.0
 10
131.2257540904574
 20
-152.9322672143711
 30
0.0
 10
131.2257540904574
 20
-152.9322672143711
 30
0.0
 10
131.364591438513
 20
-152.9556938636708
 30
0.0
 10
131.5313340599991
 20
-152.9577609209619
 30
0.0
 10
131.7128905920718
 20
-152.9577609209619
 30
0.0
 10
131.7128905920718
 20
-152.9577609209619
 30
0.0
 10
132.136981846306
 20
-152.9577609209619
 30
0.0
 10
132.136981846306
 20
-152.9577609209619
 30
0.0
 10
132.2995903532098
 20
-152.9577609209619
 30
0.0
 10
132.4628878792107
 20
-152.9556938636708
 30
0.0
 10
132.6237738383718
 20
-152.9322672143711
 30
0.0
 10
132.6237738383718
 20
-152.9322672143711
 30
0.0
 10
132.6237738383718
 20
-153.1627441023343
 30
0.0
 10
132.6237738383718
 20
-153.1627441023343
 30
0.0
 10
132.4628878792107
 20
-153.1396619625831
 30
0.0
 10
132.2461913731884
 20
-153.137594905292
 30
0.0
 10
132.136981846306
 20
-153.137594905292
 30
0.0
  0
HATCH
  5
157
330
13A
100
AcDbEntity
  8
レイヤー 1
 62
   250
420
  2299925
440
 33554687
100
AcDbHatch
 10
0.0
 20
0.0
 30
0.0
210
0.0
220
0.0
230
1.0
  2
SOLID
 70
     1
 71
     1
 91
        1
 92
        1
 93
        1
 72
     4
 94
        3
 73
     0
 74
     0
 95
       29
 96
       25
 40
0.0
 40
0.0
 40
0.0
 40
0.0
 40
1.0
 40
1.0
 40
1.0
 40
2.0
 40
2.0
 40
2.0
 40
3.0
 40
3.0
 40
3.0
 40
4.0
 40
4.0
 40
4.0
 40
5.0
 40
5.0
 40
5.0
 40
6.0
 40
6.0
 40
6.0
 40
7.0
 40
7.0
 40
7.0
 40
8.0
 40
8.0
 40
8.0
 40
8.0
 10
132.136981846306
 20
-153.137594905292
 10
132.136981846306
 20
-153.137594905292
 10
131.7128905920718
 20
-153.137594905292
 10
131.7128905920718
 20
-153.137594905292
 10
131.688774923675
 20
-153.137594905292
 10
131.4107557180153
 20
-153.137594905292
 10
131.2257540904574
 20
-153.1627441023343
 10
131.2257540904574
 20
-153.1627441023343
 10
131.2257540904574
 20
-152.9322672143711
 10
131.2257540904574
 20
-152.9322672143711
 10
131.364591438513
 20
-152.9556938636708
 10
131.5313340599991
 20
-152.9577609209619
 10
131.7128905920718
 20
-152.9577609209619
 10
131.7128905920718
 20
-152.9577609209619
 10
132.136981846306
 20
-152.9577609209619
 10
132.136981846306
 20
-152.9577609209619
 10
132.2995903532098
 20
-152.9577609209619
 10
132.4628878792107
 20
-152.9556938636708
 10
132.6237738383718
 20
-152.9322672143711
 10
132.6237738383718
 20
-152.9322672143711
 10
132.6237738383718
 20
-153.1627441023343
 10
132.6237738383718
 20
-153.1627441023343
 10
132.4628878792107
 20
-153.1396619625831
 10
132.2461913731884
 20
-153.137594905292
 10
132.136981846306
 20
-153.137594905292
 97
        0
 97
        1
330
156
 75
     2
 76
     1
 98
        1
 10
0.0
 20
0.0
450
        0
451
        0
460
0.0
461
0.0
452
        0
462
0.0
453
        0
470

  0
SPLINE
  5
158
330
13A
100
AcDbEntity
  8
レイヤー 1
100
AcDbSpline
210
0.0
220
0.0
230
1.0
 70
     9
 71
     3
 72
    20
 73
    16
 74
     0
 42
0.0000000001
 43
0.0000000001
 40
0.0
 40
0.0
 40
0.0
 40
0.0
 40
1.0
 40
1.0
 40
1.0
 40
2.0
 40
2.0
 40
2.0
 40
3.0
 40
3.0
 40
3.0
 40
4.0
 40
4.0
 40
4.0
 40
5.0
 40
5.0
 40
5.0
 40
5.0
 10
133.7127685212593
 20
-153.4886501352389
 30
0.0
 10
133.6721163945333
 20
-153.3108832082
 30
0.0
 10
133.5870225360477
 20
-153.1692897837563
 30
0.0
 10
133.4647216463213
 20
-153.0593912377768
 30
0.0
 10
133.4647216463213
 20
-153.0593912377768
 30
0.0
 10
133.605626051668
 20
-152.9450140676665
 30
0.0
 10
133.605626051668
 20
-152.9450140676665
 30
0.0
 10
133.6590250316894
 20
-152.9873887421351
 30
0.0
 10
133.6945095151875
 20
-153.0211506778905
 30
0.0
 10
133.7609998580528
 20
-153.1289821665789
 30
0.0
 10
133.8312798059519
 20
-153.2454263939803
 30
0.0
 10
133.8498833215722
 20
-153.2981363549046
 30
0.0
 10
133.8722764422264
 20
-153.3639376786729
 30
0.0
 10
133.8722764422264
 20
-153.3639376786729
 30
0.0
 10
133.7127685212593
 20
-153.4886501352389
 30
0.0
 10
133.7127685212593
 20
-153.4886501352389
 30
0.0
  0
SPLINE
  5
159
330
13A
100
AcDbEntity
  8
レイヤー 1
100
AcDbSpline
210
0.0
220
0.0
230
1.0
 70
     9
 71
     3
 72
    77
 73
    73
 74
     0
 42
0.0000000001
 43
0.0000000001
 40
0.0
 40
0.0
 40
0.0
 40
0.0
 40
1.0
 40
1.0
 40
1.0
 40
2.0
 40
2.0
 40
2.0
 40
3.0
 40
3.0
 40
3.0
 40
4.0
 40
4.0
 40
4.0
 40
5.0
 40
5.0
 40
5.0
 40
6.0
 40
6.0
 40
6.0
 40
7.0
 40
7.0
 40
7.0
 40
8.0
 40
8.0
 40
8.0
 40
9.0
 40
9.0
 40
9.0
 40
10.0
 40
10.0
 40
10.0
 40
11.0
 40
11.0
 40
11.0
 40
12.0
 40
12.0
 40
12.0
 40
13.0
 40
13.0
 40
13.0
 40
14.0
 40
14.0
 40
14.0
 40
15.0
 40
15.0
 40
15.0
 40
16.0
 40
16.0
 40
16.0
 40
17.0
 40
17.0
 40
17.0
 40
18.0
 40
18.0
 40
18.0
 40
19.0
 40
19.0
 40
19.0
 40
20.0
 40
20.0
 40
20.0
 40
21.0
 40
21.0
 40
21.0
 40
22.0
 40
22.0
 40
22.0
 40
23.0
 40
23.0
 40
23.0
 40
24.0
 40
24.0
 40
24.0
 40
24.0
 10
134.3869737077227
 20
-152.7631130260453
 30
0.0
 10
134.3259955176338
 20
-152.758978911463
 30
0.0
 10
134.2667398752875
 20
-152.758978911463
 30
0.0
 10
134.2074842329412
 20
-152.758978911463
 30
0.0
 10
134.2074842329412
 20
-152.758978911463
 30
0.0
 10
134.2074842329412
 20
-153.5330918669987
 30
0.0
 10
134.2074842329412
 20
-153.5330918669987
 30
0.0
 10
134.2074842329412
 20
-153.7976752002658
 30
0.0
 10
134.20541717565
 20
-153.827303021439
 30
0.0
 10
134.1999050228736
 20
-153.8569308426122
 30
0.0
 10
134.1702772017005
 20
-153.9899115283428
 30
0.0
 10
134.081393738181
 20
-153.9985242670559
 30
0.0
 10
133.9277424795389
 20
-153.9985242670559
 30
0.0
 10
133.8926025055893
 20
-153.9985242670559
 30
0.0
 10
133.8777885950028
 20
-153.9985242670559
 30
0.0
 10
133.8426486210532
 20
-153.9943901524736
 30
0.0
 10
133.8426486210532
 20
-153.9943901524736
 30
0.0
 10
133.7334390941708
 20
-153.7532334685061
 30
0.0
 10
133.7334390941708
 20
-153.7532334685061
 30
0.0
 10
133.8350694109857
 20
-153.7849283469704
 30
0.0
 10
133.9074164161759
 20
-153.7849283469704
 30
0.0
 10
133.9277424795389
 20
-153.7849283469704
 30
0.0
 10
133.9887206696278
 20
-153.7849283469704
 30
0.0
 10
134.018348490801
 20
-153.7680473790927
 30
0.0
 10
134.0221380958347
 20
-153.7108587940375
 30
0.0
 10
134.0221380958347
 20
-153.6981119407421
 30
0.0
 10
134.0238606435773
 20
-153.6009602480581
 30
0.0
 10
134.0238606435773
 20
-153.5437716630029
 30
0.0
 10
134.0238606435773
 20
-153.5437716630029
 30
0.0
 10
134.0238606435773
 20
-152.7565673446233
 30
0.0
 10
134.0238606435773
 20
-152.7565673446233
 30
0.0
 10
134.0238606435773
 20
-152.7565673446233
 30
0.0
 10
133.7665120108292
 20
-152.7565673446233
 30
0.0
 10
133.7665120108292
 20
-152.7565673446233
 30
0.0
 10
133.6386989683264
 20
-152.7565673446233
 30
0.0
 10
133.5108859258237
 20
-152.7631130260453
 30
0.0
 10
133.385139940612
 20
-152.7758598793407
 30
0.0
 10
133.385139940612
 20
-152.7758598793407
 30
0.0
 10
133.385139940612
 20
-152.5684651311287
 30
0.0
 10
133.385139940612
 20
-152.5684651311287
 30
0.0
 10
133.5167425881486
 20
-152.5812119844241
 30
0.0
 10
133.7072563684829
 20
-152.5853460990064
 30
0.0
 10
133.7665120108292
 20
-152.5853460990064
 30
0.0
 10
133.7665120108292
 20
-152.5853460990064
 30
0.0
 10
134.0238606435773
 20
-152.5853460990064
 30
0.0
 10
134.0238606435773
 20
-152.5853460990064
 30
0.0
 10
134.0221380958347
 20
-152.3166286511569
 30
0.0
 10
134.0221380958347
 20
-152.2404920409329
 30
0.0
 10
134.0145588857672
 20
-152.0923529350672
 30
0.0
 10
134.0145588857672
 20
-152.0923529350672
 30
0.0
 10
134.2405571495996
 20
-152.1305934949535
 30
0.0
 10
134.2405571495996
 20
-152.1305934949535
 30
0.0
 10
134.2536485124435
 20
-152.1326605522446
 30
0.0
 10
134.2667398752875
 20
-152.138861724118
 30
0.0
 10
134.2667398752875
 20
-152.1602213161266
 30
0.0
 10
134.2667398752875
 20
-152.1791693412955
 30
0.0
 10
134.2608832129625
 20
-152.1812363985866
 30
0.0
 10
134.2109293284264
 20
-152.2149983343421
 30
0.0
 10
134.2074842329412
 20
-152.2935465114058
 30
0.0
 10
134.2074842329412
 20
-152.3083604219923
 30
0.0
 10
134.2074842329412
 20
-152.5853460990064
 30
0.0
 10
134.3628580393259
 20
-152.5812119844241
 30
0.0
 10
134.3793944976551
 20
-152.5812119844241
 30
0.0
 10
134.4090223188283
 20
-152.5767333602933
 30
0.0
 10
134.453464050588
 20
-152.572599245711
 30
0.0
 10
134.4572536556218
 20
-152.5705321884198
 30
0.0
 10
134.4961832346051
 20
-152.5684651311287
 30
0.0
 10
134.4961832346051
 20
-152.5684651311287
 30
0.0
 10
134.4961832346051
 20
-152.7758598793407
 30
0.0
 10
134.4961832346051
 20
-152.7758598793407
 30
0.0
 10
134.4703450184657
 20
-152.7737928220496
 30
0.0
 10
134.4221136816722
 20
-152.7651800833365
 30
0.0
 10
134.3869737077227
 20
-152.7631130260453
 30
0.0
  0
SPLINE
  5
15A
330
13A
100
AcDbEntity
  8
レイヤー 1
100
AcDbSpline
210
0.0
220
0.0
230
1.0
 70
     9
 71
     3
 72
    53
 73
    49
 74
     0
 42
0.0000000001
 43
0.0000000001
 40
0.0
 40
0.0
 40
0.0
 40
0.0
 40
1.0
 40
1.0
 40
1.0
 40
2.0
 40
2.0
 40
2.0
 40
3.0
 40
3.0
 40
3.0
 40
4.0
 40
4.0
 40
4.0
 40
5.0
 40
5.0
 40
5.0
 40
6.0
 40
6.0
 40
6.0
 40
7.0
 40
7.0
 40
7.0
 40
8.0
 40
8.0
 40
8.0
 40
9.0
 40
9.0
 40
9.0
 40
10.0
 40
10.0
 40
10.0
 40
11.0
 40
11.0
 40
11.0
 40
12.0
 40
12.0
 40
12.0
 40
13.0
 40
13.0
 40
13.0
 40
14.0
 40
14.0
 40
14.0
 40
15.0
 40
15.0
 40
15.0
 40
16.0
 40
16.0
 40
16.0
 40
16.0
 10
133.3796277878356
 20
-152.2639186902326
 30
0.0
 10
133.3203721454893
 20
-152.4161919106806
 30
0.0
 10
133.2831651142486
 20
-152.4943955781958
 30
0.0
 10
133.2500921975902
 20
-152.5619194497067
 30
0.0
 10
133.2869547192824
 20
-152.5832790417153
 30
0.0
 10
133.2907443243162
 20
-152.5853460990064
 30
0.0
 10
133.2907443243162
 20
-152.600160009593
 30
0.0
 10
133.2907443243162
 20
-152.6129068628884
 30
0.0
 10
133.261116503143
 20
-152.6466687986439
 30
0.0
 10
133.2518147453329
 20
-152.655281537357
 30
0.0
 10
133.2500921975902
 20
-152.8519964895648
 30
0.0
 10
133.2500921975902
 20
-152.8730115720248
 30
0.0
 10
133.2500921975902
 20
-153.006336767304
 30
0.0
 10
133.2480251402991
 20
-153.0190836205994
 30
0.0
 10
133.2480251402991
 20
-153.0338975311859
 30
0.0
 10
133.2480251402991
 20
-153.0487114417725
 30
0.0
 10
133.2480251402991
 20
-153.0487114417725
 30
0.0
 10
133.2480251402991
 20
-153.5837347706318
 30
0.0
 10
133.2480251402991
 20
-153.5837347706318
 30
0.0
 10
133.2480251402991
 20
-153.6557372662735
 30
0.0
 10
133.2518147453329
 20
-153.8906927783676
 30
0.0
 10
133.2593939554004
 20
-154.0005913243471
 30
0.0
 10
133.2593939554004
 20
-154.0005913243471
 30
0.0
 10
133.0461425448634
 20
-154.0005913243471
 30
0.0
 10
133.0461425448634
 20
-154.0005913243471
 30
0.0
 10
133.0664686082264
 20
-153.8421169320256
 30
0.0
 10
133.0723252705513
 20
-153.6009602480581
 30
0.0
 10
133.0723252705513
 20
-153.5796006560495
 30
0.0
 10
133.0723252705513
 20
-153.5796006560495
 30
0.0
 10
133.0723252705513
 20
-152.8623317760205
 30
0.0
 10
133.0723252705513
 20
-152.8623317760205
 30
0.0
 10
132.9927435648421
 20
-152.9767089461308
 30
0.0
 10
132.9390000752722
 20
-153.0359645884771
 30
0.0
 10
132.9017930440315
 20
-153.0783392629457
 30
0.0
 10
132.9017930440315
 20
-153.0783392629457
 30
0.0
 10
132.7350504225454
 20
-152.9408799530842
 30
0.0
 10
132.7350504225454
 20
-152.9408799530842
 30
0.0
 10
132.9813747497408
 20
-152.724872466159
 30
0.0
 10
133.1498399189695
 20
-152.4161919106806
 30
0.0
 10
133.2480251402991
 20
-152.0796060817717
 30
0.0
 10
133.2480251402991
 20
-152.0796060817717
 30
0.0
 10
133.4406059779245
 20
-152.193983251882
 30
0.0
 10
133.4406059779245
 20
-152.193983251882
 30
0.0
 10
133.4516302834774
 20
-152.2001844237555
 30
0.0
 10
133.4592094935449
 20
-152.2046630478863
 30
0.0
 10
133.4592094935449
 20
-152.2194769584729
 30
0.0
 10
133.4592094935449
 20
-152.2446261555152
 30
0.0
 10
133.4443955829583
 20
-152.2491047796461
 30
0.0
 10
133.3796277878356
 20
-152.2639186902326
 30
0.0
  0
HATCH
  5
15B
330
13A
100
AcDbEntity
  8
レイヤー 1
 62
   250
420
  2299925
440
 33554687
100
AcDbHatch
 10
0.0
 20
0.0
 30
0.0
210
0.0
220
0.0
230
1.0
  2
SOLID
 70
     1
 71
     1
 91
        3
 92
        1
 93
        1
 72
     4
 94
        3
 73
     0
 74
     0
 95
       20
 96
       16
 40
0.0
 40
0.0
 40
0.0
 40
0.0
 40
1.0
 40
1.0
 40
1.0
 40
2.0
 40
2.0
 40
2.0
 40
3.0
 40
3.0
 40
3.0
 40
4.0
 40
4.0
 40
4.0
 40
5.0
 40
5.0
 40
5.0
 40
5.0
 10
133.7127685212593
 20
-153.4886501352389
 10
133.6721163945333
 20
-153.3108832082
 10
133.5870225360477
 20
-153.1692897837563
 10
133.4647216463213
 20
-153.0593912377768
 10
133.4647216463213
 20
-153.0593912377768
 10
133.605626051668
 20
-152.9450140676665
 10
133.605626051668
 20
-152.9450140676665
 10
133.6590250316894
 20
-152.9873887421351
 10
133.6945095151875
 20
-153.0211506778905
 10
133.7609998580528
 20
-153.1289821665789
 10
133.8312798059519
 20
-153.2454263939803
 10
133.8498833215722
 20
-153.2981363549046
 10
133.8722764422264
 20
-153.3639376786729
 10
133.8722764422264
 20
-153.3639376786729
 10
133.7127685212593
 20
-153.4886501352389
 10
133.7127685212593
 20
-153.4886501352389
 97
        0
 97
        1
330
158
 92
        1
 93
        1
 72
     4
 94
        3
 73
     0
 74
     0
 95
       77
 96
       73
 40
0.0
 40
0.0
 40
0.0
 40
0.0
 40
1.0
 40
1.0
 40
1.0
 40
2.0
 40
2.0
 40
2.0
 40
3.0
 40
3.0
 40
3.0
 40
4.0
 40
4.0
 40
4.0
 40
5.0
 40
5.0
 40
5.0
 40
6.0
 40
6.0
 40
6.0
 40
7.0
 40
7.0
 40
7.0
 40
8.0
 40
8.0
 40
8.0
 40
9.0
 40
9.0
 40
9.0
 40
10.0
 40
10.0
 40
10.0
 40
11.0
 40
11.0
 40
11.0
 40
12.0
 40
12.0
 40
12.0
 40
13.0
 40
13.0
 40
13.0
 40
14.0
 40
14.0
 40
14.0
 40
15.0
 40
15.0
 40
15.0
 40
16.0
 40
16.0
 40
16.0
 40
17.0
 40
17.0
 40
17.0
 40
18.0
 40
18.0
 40
18.0
 40
19.0
 40
19.0
 40
19.0
 40
20.0
 40
20.0
 40
20.0
 40
21.0
 40
21.0
 40
21.0
 40
22.0
 40
22.0
 40
22.0
 40
23.0
 40
23.0
 40
23.0
 40
24.0
 40
24.0
 40
24.0
 40
24.0
 10
134.3869737077227
 20
-152.7631130260453
 10
134.3259955176338
 20
-152.758978911463
 10
134.2667398752875
 20
-152.758978911463
 10
134.2074842329412
 20
-152.758978911463
 10
134.2074842329412
 20
-152.758978911463
 10
134.2074842329412
 20
-153.5330918669987
 10
134.2074842329412
 20
-153.5330918669987
 10
134.2074842329412
 20
-153.7976752002658
 10
134.20541717565
 20
-153.827303021439
 10
134.1999050228736
 20
-153.8569308426122
 10
134.1702772017005
 20
-153.9899115283428
 10
134.081393738181
 20
-153.9985242670559
 10
133.9277424795389
 20
-153.9985242670559
 10
133.8926025055893
 20
-153.9985242670559
 10
133.8777885950028
 20
-153.9985242670559
 10
133.8426486210532
 20
-153.9943901524736
 10
133.8426486210532
 20
-153.9943901524736
 10
133.7334390941708
 20
-153.7532334685061
 10
133.7334390941708
 20
-153.7532334685061
 10
133.8350694109857
 20
-153.7849283469704
 10
133.9074164161759
 20
-153.7849283469704
 10
133.9277424795389
 20
-153.7849283469704
 10
133.9887206696278
 20
-153.7849283469704
 10
134.018348490801
 20
-153.7680473790927
 10
134.0221380958347
 20
-153.7108587940375
 10
134.0221380958347
 20
-153.6981119407421
 10
134.0238606435773
 20
-153.6009602480581
 10
134.0238606435773
 20
-153.5437716630029
 10
134.0238606435773
 20
-153.5437716630029
 10
134.0238606435773
 20
-152.7565673446233
 10
134.0238606435773
 20
-152.7565673446233
 10
134.0238606435773
 20
-152.7565673446233
 10
133.7665120108292
 20
-152.7565673446233
 10
133.7665120108292
 20
-152.7565673446233
 10
133.6386989683264
 20
-152.7565673446233
 10
133.5108859258237
 20
-152.7631130260453
 10
133.385139940612
 20
-152.7758598793407
 10
133.385139940612
 20
-152.7758598793407
 10
133.385139940612
 20
-152.5684651311287
 10
133.385139940612
 20
-152.5684651311287
 10
133.5167425881486
 20
-152.5812119844241
 10
133.7072563684829
 20
-152.5853460990064
 10
133.7665120108292
 20
-152.5853460990064
 10
133.7665120108292
 20
-152.5853460990064
 10
134.0238606435773
 20
-152.5853460990064
 10
134.0238606435773
 20
-152.5853460990064
 10
134.0221380958347
 20
-152.3166286511569
 10
134.0221380958347
 20
-152.2404920409329
 10
134.0145588857672
 20
-152.0923529350672
 10
134.0145588857672
 20
-152.0923529350672
 10
134.2405571495996
 20
-152.1305934949535
 10
134.2405571495996
 20
-152.1305934949535
 10
134.2536485124435
 20
-152.1326605522446
 10
134.2667398752875
 20
-152.138861724118
 10
134.2667398752875
 20
-152.1602213161266
 10
134.2667398752875
 20
-152.1791693412955
 10
134.2608832129625
 20
-152.1812363985866
 10
134.2109293284264
 20
-152.2149983343421
 10
134.2074842329412
 20
-152.2935465114058
 10
134.2074842329412
 20
-152.3083604219923
 10
134.2074842329412
 20
-152.5853460990064
 10
134.3628580393259
 20
-152.5812119844241
 10
134.3793944976551
 20
-152.5812119844241
 10
134.4090223188283
 20
-152.5767333602933
 10
134.453464050588
 20
-152.572599245711
 10
134.4572536556218
 20
-152.5705321884198
 10
134.4961832346051
 20
-152.5684651311287
 10
134.4961832346051
 20
-152.5684651311287
 10
134.4961832346051
 20
-152.7758598793407
 10
134.4961832346051
 20
-152.7758598793407
 10
134.4703450184657
 20
-152.7737928220496
 10
134.4221136816722
 20
-152.7651800833365
 10
134.3869737077227
 20
-152.7631130260453
 97
        0
 97
        1
330
159
 92
        1
 93
        1
 72
     4
 94
        3
 73
     0
 74
     0
 95
       53
 96
       49
 40
0.0
 40
0.0
 40
0.0
 40
0.0
 40
1.0
 40
1.0
 40
1.0
 40
2.0
 40
2.0
 40
2.0
 40
3.0
 40
3.0
 40
3.0
 40
4.0
 40
4.0
 40
4.0
 40
5.0
 40
5.0
 40
5.0
 40
6.0
 40
6.0
 40
6.0
 40
7.0
 40
7.0
 40
7.0
 40
8.0
 40
8.0
 40
8.0
 40
9.0
 40
9.0
 40
9.0
 40
10.0
 40
10.0
 40
10.0
 40
11.0
 40
11.0
 40
11.0
 40
12.0
 40
12.0
 40
12.0
 40
13.0
 40
13.0
 40
13.0
 40
14.0
 40
14.0
 40
14.0
 40
15.0
 40
15.0
 40
15.0
 40
16.0
 40
16.0
 40
16.0
 40
16.0
 10
133.3796277878356
 20
-152.2639186902326
 10
133.3203721454893
 20
-152.4161919106806
 10
133.2831651142486
 20
-152.4943955781958
 10
133.2500921975902
 20
-152.5619194497067
 10
133.2869547192824
 20
-152.5832790417153
 10
133.2907443243162
 20
-152.5853460990064
 10
133.2907443243162
 20
-152.600160009593
 10
133.2907443243162
 20
-152.6129068628884
 10
133.261116503143
 20
-152.6466687986439
 10
133.2518147453329
 20
-152.655281537357
 10
133.2500921975902
 20
-152.8519964895648
 10
133.2500921975902
 20
-152.8730115720248
 10
133.2500921975902
 20
-153.006336767304
 10
133.2480251402991
 20
-153.0190836205994
 10
133.2480251402991
 20
-153.0338975311859
 10
133.2480251402991
 20
-153.0487114417725
 10
133.2480251402991
 20
-153.0487114417725
 10
133.2480251402991
 20
-153.5837347706318
 10
133.2480251402991
 20
-153.5837347706318
 10
133.2480251402991
 20
-153.6557372662735
 10
133.2518147453329
 20
-153.8906927783676
 10
133.2593939554004
 20
-154.0005913243471
 10
133.2593939554004
 20
-154.0005913243471
 10
133.0461425448634
 20
-154.0005913243471
 10
133.0461425448634
 20
-154.0005913243471
 10
133.0664686082264
 20
-153.8421169320256
 10
133.0723252705513
 20
-153.6009602480581
 10
133.0723252705513
 20
-153.5796006560495
 10
133.0723252705513
 20
-153.5796006560495
 10
133.0723252705513
 20
-152.8623317760205
 10
133.0723252705513
 20
-152.8623317760205
 10
132.9927435648421
 20
-152.9767089461308
 10
132.9390000752722
 20
-153.0359645884771
 10
132.9017930440315
 20
-153.0783392629457
 10
132.9017930440315
 20
-153.0783392629457
 10
132.7350504225454
 20
-152.9408799530842
 10
132.7350504225454
 20
-152.9408799530842
 10
132.9813747497408
 20
-152.724872466159
 10
133.1498399189695
 20
-152.4161919106806
 10
133.2480251402991
 20
-152.0796060817717
 10
133.2480251402991
 20
-152.0796060817717
 10
133.4406059779245
 20
-152.193983251882
 10
133.4406059779245
 20
-152.193983251882
 10
133.4516302834774
 20
-152.2001844237555
 10
133.4592094935449
 20
-152.2046630478863
 10
133.4592094935449
 20
-152.2194769584729
 10
133.4592094935449
 20
-152.2446261555152
 10
133.4443955829583
 20
-152.2491047796461
 10
133.3796277878356
 20
-152.2639186902326
 97
        0
 97
        1
330
15A
 75
     2
 76
     1
 98
        1
 10
0.0
 20
0.0
450
        0
451
        0
460
0.0
461
0.0
452
        0
462
0.0
453
        0
470

  0
ENDBLK
  5
13D
330
13A
100
AcDbEntity
  8
0
100
AcDbBlockEnd
  0
ENDSEC
  0
SECTION
  2
ENTITIES
  0
INSERT
  5
7A
330
70
100
AcDbEntity
  8
レイヤー 1
100
AcDbBlockReference
  2
Block_0
 10
0.0
 20
0.0
 30
0.0
  0
ENDSEC
  0
SECTION
  2
OBJECTS
  0
DICTIONARY
  5
C
330
0
100
AcDbDictionary
281
     1
  3
ACAD_COLOR
350
63
  3
ACAD_DETAILVIEWSTYLE
350
6A
  3
ACAD_GROUP
350
D
  3
ACAD_LAYOUT
350
62
  3
ACAD_MATERIAL
350
10
  3
ACAD_MLEADERSTYLE
350
66
  3
ACAD_MLINESTYLE
350
5F
  3
ACAD_PLOTSETTINGS
350
61
  3
ACAD_PLOTSTYLENAME
350
E
  3
ACAD_SCALELIST
350
42
  3
ACAD_SECTIONVIEWSTYLE
350
68
  3
ACAD_TABLESTYLE
350
64
  3
ACAD_VISUALSTYLE
350
29
  3
ACDB_RECOMPOSE_DATA
350
167
  3
AcDbVariableDictionary
350
15F
  0
DICTIONARY
  5
63
102
{ACAD_REACTORS
330
C
102
}
330
C
100
AcDbDictionary
281
     1
  0
DICTIONARY
  5
6A
102
{ACAD_REACTORS
330
C
102
}
330
C
100
AcDbDictionary
281
     1
  3
Imperial24
350
6B
  0
DICTIONARY
  5
D
102
{ACAD_REACTORS
330
C
102
}
330
C
100
AcDbDictionary
281
     1
  0
DICTIONARY
  5
62
102
{ACAD_REACTORS
330
C
102
}
330
C
100
AcDbDictionary
281
     1
  3
Layout1
350
6F
  3
Layout2
350
77
  3
Model
350
73
  0
DICTIONARY
  5
10
102
{ACAD_REACTORS
330
C
102
}
330
C
100
AcDbDictionary
281
     1
  3
ByBlock
350
19
  3
ByLayer
350
11
  3
Global
350
21
  0
DICTIONARY
  5
66
102
{ACAD_REACTORS
330
C
102
}
330
C
100
AcDbDictionary
281
     1
  3
Standard
350
67
  0
DICTIONARY
  5
5F
102
{ACAD_REACTORS
330
C
102
}
330
C
100
AcDbDictionary
281
     1
  3
Standard
350
60
  0
DICTIONARY
  5
61
102
{ACAD_REACTORS
330
C
102
}
330
C
100
AcDbDictionary
281
     1
  0
ACDBDICTIONARYWDFLT
  5
E
102
{ACAD_REACTORS
330
C
102
}
330
C
100
AcDbDictionary
281
     1
  3
Normal
350
F
100
AcDbDictionaryWithDefault
340
F
  0
DICTIONARY
  5
42
102
{ACAD_REACTORS
330
C
102
}
330
C
100
AcDbDictionary
281
     1
  3
A0
350
43
  3
A1
350
44
  3
A2
350
45
  3
A3
350
46
  3
A4
350
47
  3
A5
350
48
  3
A6
350
49
  3
A7
350
4A
  3
A8
350
4B
  3
A9
350
4C
  3
B0
350
4D
  3
B1
350
4E
  3
B2
350
4F
  3
B3
350
50
  3
B4
350
51
  3
B5
350
52
  3
B6
350
53
  0
DICTIONARY
  5
68
102
{ACAD_REACTORS
330
C
102
}
330
C
100
AcDbDictionary
281
     1
  3
Imperial24
350
69
  0
DICTIONARY
  5
64
102
{ACAD_REACTORS
330
C
102
}
330
C
100
AcDbDictionary
281
     1
  3
Standard
350
65
  0
DICTIONARY
  5
29
102
{ACAD_REACTORS
330
C
102
}
330
C
100
AcDbDictionary
281
     1
  3
2dWireframe
350
2F
  3
Basic
350
2E
  3
Brighten
350
35
  3
ColorChange
350
39
  3
Conceptual
350
32
  3
Dim
350
34
  3
EdgeColorOff
350
41
  3
Facepattern
350
38
  3
Flat
350
2A
  3
FlatWithEdges
350
2B
  3
Gouraud
350
2C
  3
GouraudWithEdges
350
2D
  3
Hidden
350
31
  3
JitterOff
350
3F
  3
Linepattern
350
37
  3
OverhangOff
350
40
  3
Realistic
350
33
  3
Shaded
350
3E
  3
Shaded with edges
350
3D
  3
Shades of Gray
350
3A
  3
Sketchy
350
3B
  3
Thicken
350
36
  3
Wireframe
350
30
  3
X-Ray
350
3C
  0
XRECORD
  5
167
102
{ACAD_REACTORS
330
C
102
}
330
C
100
AcDbXrecord
280
     1
 90
        1
330
65
  0
DICTIONARY
  5
15F
102
{ACAD_REACTORS
330
C
102
}
330
C
100
AcDbDictionary
281
     1
  3
CANNOSCALE
350
164
  3
CMLEADERSTYLE
350
161
  3
CTABLESTYLE
350
160
  3
CVIEWDETAILSTYLE
350
162
  3
CVIEWSECTIONSTYLE
350
163
  0
ACDBDETAILVIEWSTYLE
  5
6B
102
{ACAD_XDICTIONARY
360
19C
102
}
102
{ACAD_REACTORS
330
6A
102
}
330
6A
100
AcDbModelDocViewStyle
 70
     0
  3
Imperial24
290
     0
100
AcDbDetailViewStyle
 70
     0
 71
     0
 90
        3
 71
     1
340
55
 62
   256
 40
0.24
340
0
 62
   256
 40
0.24
300

 40
0.36
280
     3
 71
     2
340
5D
 90
       25
 62
   256
 71
     3
340
55
 62
   256
 40
0.24
 90
        1
 40
0.75
 90
        1
300
%<\AcVar ViewType \f "%tc1">% %<\AcVar ViewDetailId>%\PSCALE %<\AcVar ViewScale \f "%sn">%
 71
     4
340
5D
 90
       25
 62
   256
340
5D
 90
       25
 62
   256
280
     0
  0
LAYOUT
  5
6F
102
{ACAD_REACTORS
330
62
102
}
330
62
100
AcDbPlotSettings
  1

  2

  4

  6

 40
0.0
 41
0.0
 42
0.0
 43
0.0
 44
0.0
 45
0.0
 46
0.0
 47
0.0
 48
0.0
 49
0.0
140
0.0
141
0.0
142
1.0
143
1.0
 70
   688
 72
     0
 73
     0
 74
     5
  7

 75
    16
147
1.0
 76
     0
 77
     2
 78
   300
148
0.0
149
0.0
100
AcDbLayout
  1
Layout1
 70
     1
 71
     1
 10
0.0
 20
0.0
 11
12.0
 21
9.0
 12
0.0
 22
0.0
 32
0.0
 14
0.0
 24
0.0
 34
0.0
 15
0.0
 25
0.0
 35
0.0
146
0.0
 13
0.0
 23
0.0
 33
0.0
 16
1.0
 26
0.0
 36
0.0
 17
0.0
 27
1.0
 37
0.0
 76
     0
330
6C
  0
LAYOUT
  5
77
102
{ACAD_REACTORS
330
62
102
}
330
62
100
AcDbPlotSettings
  1

  2

  4

  6

 40
0.0
 41
0.0
 42
0.0
 43
0.0
 44
0.0
 45
0.0
 46
0.0
 47
0.0
 48
0.0
 49
0.0
140
0.0
141
0.0
142
1.0
143
1.0
 70
   688
 72
     0
 73
     0
 74
     5
  7

 75
    16
147
1.0
 76
     0
 77
     2
 78
   300
148
0.0
149
0.0
100
AcDbLayout
  1
Layout2
 70
     1
 71
     2
 10
0.0
 20
0.0
 11
12.0
 21
9.0
 12
0.0
 22
0.0
 32
0.0
 14
0.0
 24
0.0
 34
0.0
 15
0.0
 25
0.0
 35
0.0
146
0.0
 13
0.0
 23
0.0
 33
0.0
 16
1.0
 26
0.0
 36
0.0
 17
0.0
 27
1.0
 37
0.0
 76
     0
330
74
  0
LAYOUT
  5
73
102
{ACAD_REACTORS
330
62
102
}
330
62
100
AcDbPlotSettings
  1

  2

  4

  6

 40
0.0
 41
0.0
 42
0.0
 43
0.0
 44
0.0
 45
0.0
 46
0.0
 47
0.0
 48
0.0
 49
0.0
140
0.0
141
0.0
142
1.0
143
1.0
 70
  1712
 72
     0
 73
     0
 74
     0
  7

 75
     0
147
1.0
 76
     0
 77
     2
 78
   300
148
0.0
149
0.0
100
AcDbLayout
  1
Model
 70
     1
 71
     0
 10
0.0
 20
0.0
 11
12.0
 21
9.0
 12
0.0
 22
0.0
 32
0.0
 14
0.0
 24
0.0
 34
0.0
 15
0.0
 25
0.0
 35
0.0
146
0.0
 13
0.0
 23
0.0
 33
0.0
 16
1.0
 26
0.0
 36
0.0
 17
0.0
 27
1.0
 37
0.0
 76
     0
330
70
  0
MATERIAL
  5
19
102
{ACAD_XDICTIONARY
360
1A
102
}
102
{ACAD_REACTORS
330
10
102
}
330
10
100
AcDbMaterial
  1
ByBlock
 72
     0
 43
0.0208333333333333
 43
0.0
 43
0.0
 43
0.0
 43
0.0
 43
0.0208333333333333
 43
0.0
 43
0.0
 43
0.0
 43
0.0
 43
1.0
 43
0.0
 43
0.0
 43
0.0
 43
0.0
 43
1.0
 77
     0
 47
0.0208333333333333
 47
0.0
 47
0.0
 47
0.0
 47
0.0
 47
0.0208333333333333
 47
0.0
 47
0.0
 47
0.0
 47
0.0
 47
1.0
 47
0.0
 47
0.0
 47
0.0
 47
0.0
 47
1.0
171
     0
 49
0.0208333333333333
 49
0.0
 49
0.0
 49
0.0
 49
0.0
 49
0.0208333333333333
 49
0.0
 49
0.0
 49
0.0
 49
0.0
 49
1.0
 49
0.0
 49
0.0
 49
0.0
 49
0.0
 49
1.0
175
     0
142
0.0208333333333333
142
0.0
142
0.0
142
0.0
142
0.0
142
0.0208333333333333
142
0.0
142
0.0
142
0.0
142
0.0
142
1.0
142
0.0
142
0.0
142
0.0
142
0.0
142
1.0
179
     0
144
0.0208333333333333
144
0.0
144
0.0
144
0.0
144
0.0
144
0.0208333333333333
144
0.0
144
0.0
144
0.0
144
0.0
144
1.0
144
0.0
144
0.0
144
0.0
144
0.0
144
1.0
147
0.0208333333333333
147
0.0
147
0.0
147
0.0
147
0.0
147
0.0208333333333333
147
0.0
147
0.0
147
0.0
147
0.0
147
1.0
147
0.0
147
0.0
147
0.0
147
0.0
147
1.0
  0
MATERIAL
  5
11
102
{ACAD_XDICTIONARY
360
12
102
}
102
{ACAD_REACTORS
330
10
102
}
330
10
100
AcDbMaterial
  1
ByLayer
 72
     0
 43
0.0208333333333333
 43
0.0
 43
0.0
 43
0.0
 43
0.0
 43
0.0208333333333333
 43
0.0
 43
0.0
 43
0.0
 43
0.0
 43
1.0
 43
0.0
 43
0.0
 43
0.0
 43
0.0
 43
1.0
 77
     0
 47
0.0208333333333333
 47
0.0
 47
0.0
 47
0.0
 47
0.0
 47
0.0208333333333333
 47
0.0
 47
0.0
 47
0.0
 47
0.0
 47
1.0
 47
0.0
 47
0.0
 47
0.0
 47
0.0
 47
1.0
171
     0
 49
0.0208333333333333
 49
0.0
 49
0.0
 49
0.0
 49
0.0
 49
0.0208333333333333
 49
0.0
 49
0.0
 49
0.0
 49
0.0
 49
1.0
 49
0.0
 49
0.0
 49
0.0
 49
0.0
 49
1.0
175
     0
142
0.0208333333333333
142
0.0
142
0.0
142
0.0
142
0.0
142
0.0208333333333333
142
0.0
142
0.0
142
0.0
142
0.0
142
1.0
142
0.0
142
0.0
142
0.0
142
0.0
142
1.0
179
     0
144
0.0208333333333333
144
0.0
144
0.0
144
0.0
144
0.0
144
0.0208333333333333
144
0.0
144
0.0
144
0.0
144
0.0
144
1.0
144
0.0
144
0.0
144
0.0
144
0.0
144
1.0
147
0.0208333333333333
147
0.0
147
0.0
147
0.0
147
0.0
147
0.0208333333333333
147
0.0
147
0.0
147
0.0
147
0.0
147
1.0
147
0.0
147
0.0
147
0.0
147
0.0
147
1.0
  0
MATERIAL
  5
21
102
{ACAD_XDICTIONARY
360
22
102
}
102
{ACAD_REACTORS
330
10
102
}
330
10
100
AcDbMaterial
  1
Global
 72
     0
 43
0.0208333333333333
 43
0.0
 43
0.0
 43
0.0
 43
0.0
 43
0.0208333333333333
 43
0.0
 43
0.0
 43
0.0
 43
0.0
 43
1.0
 43
0.0
 43
0.0
 43
0.0
 43
0.0
 43
1.0
 77
     0
 47
0.0208333333333333
 47
0.0
 47
0.0
 47
0.0
 47
0.0
 47
0.0208333333333333
 47
0.0
 47
0.0
 47
0.0
 47
0.0
 47
1.0
 47
0.0
 47
0.0
 47
0.0
 47
0.0
 47
1.0
171
     0
 49
0.0208333333333333
 49
0.0
 49
0.0
 49
0.0
 49
0.0
 49
0.0208333333333333
 49
0.0
 49
0.0
 49
0.0
 49
0.0
 49
1.0
 49
0.0
 49
0.0
 49
0.0
 49
0.0
 49
1.0
175
     0
142
0.0208333333333333
142
0.0
142
0.0
142
0.0
142
0.0
142
0.0208333333333333
142
0.0
142
0.0
142
0.0
142
0.0
142
1.0
142
0.0
142
0.0
142
0.0
142
0.0
142
1.0
179
     0
144
0.0208333333333333
144
0.0
144
0.0
144
0.0
144
0.0
144
0.0208333333333333
144
0.0
144
0.0
144
0.0
144
0.0
144
1.0
144
0.0
144
0.0
144
0.0
144
0.0
144
1.0
147
0.0208333333333333
147
0.0
147
0.0
147
0.0
147
0.0
147
0.0208333333333333
147
0.0
147
0.0
147
0.0
147
0.0
147
1.0
147
0.0
147
0.0
147
0.0
147
0.0
147
1.0
  0
MLEADERSTYLE
  5
67
102
{ACAD_XDICTIONARY
360
198
102
}
102
{ACAD_REACTORS
330
66
102
}
330
66
100
AcDbMLeaderStyle
179
     2
170
     2
171
     1
172
     0
 90
        2
 40
0.0
 41
0.0
173
     1
 91
-1056964608
340
5B
 92
       -2
290
     1
 42
0.09
291
     1
 43
0.36
  3
Standard
 44
0.18
300

342
55
174
     1
178
     6
175
     1
176
     0
 93
-1056964608
 45
0.18
292
     0
297
     0
 46
0.18
 94
-1056964608
 47
1.0
 49
1.0
140
1.0
293
     1
141
0.0
294
     1
177
     0
142
1.0
295
     0
296
     0
143
0.125
271
     0
272
     9
273
     9
  0
MLINESTYLE
  5
60
102
{ACAD_REACTORS
330
5F
102
}
330
5F
100
AcDbMlineStyle
  2
STANDARD
 70
     0
  3

 62
   256
 51
90.0
 52
90.0
 71
     2
 49
0.5
 62
   256
  6
BYLAYER
 49
-0.5
 62
   256
  6
BYLAYER
  0
ACDBPLACEHOLDER
  5
F
102
{ACAD_REACTORS
330
E
102
}
330
E
  0
SCALE
  5
43
102
{ACAD_REACTORS
330
42
102
}
330
42
100
AcDbScale
 70
     0
300
1:1
140
1.0
141
1.0
290
     1
  0
SCALE
  5
44
102
{ACAD_REACTORS
330
42
102
}
330
42
100
AcDbScale
 70
     0
300
1/128" = 1'-0"
140
0.0078125
141
12.0
290
     0
  0
SCALE
  5
45
102
{ACAD_REACTORS
330
42
102
}
330
42
100
AcDbScale
 70
     0
300
1/64" = 1'-0"
140
0.015625
141
12.0
290
     0
  0
SCALE
  5
46
102
{ACAD_REACTORS
330
42
102
}
330
42
100
AcDbScale
 70
     0
300
1/32" = 1'-0"
140
0.03125
141
12.0
290
     0
  0
SCALE
  5
47
102
{ACAD_REACTORS
330
42
102
}
330
42
100
AcDbScale
 70
     0
300
1/16" = 1'-0"
140
0.0625
141
12.0
290
     0
  0
SCALE
  5
48
102
{ACAD_REACTORS
330
42
102
}
330
42
100
AcDbScale
 70
     0
300
3/32" = 1'-0"
140
0.09375
141
12.0
290
     0
  0
SCALE
  5
49
102
{ACAD_REACTORS
330
42
102
}
330
42
100
AcDbScale
 70
     0
300
1/8" = 1'-0"
140
0.125
141
12.0
290
     0
  0
SCALE
  5
4A
102
{ACAD_REACTORS
330
42
102
}
330
42
100
AcDbScale
 70
     0
300
3/16" = 1'-0"
140
0.1875
141
12.0
290
     0
  0
SCALE
  5
4B
102
{ACAD_REACTORS
330
42
102
}
330
42
100
AcDbScale
 70
     0
300
1/4" = 1'-0"
140
0.25
141
12.0
290
     0
  0
SCALE
  5
4C
102
{ACAD_REACTORS
330
42
102
}
330
42
100
AcDbScale
 70
     0
300
3/8" = 1'-0"
140
0.375
141
12.0
290
     0
  0
SCALE
  5
4D
102
{ACAD_REACTORS
330
42
102
}
330
42
100
AcDbScale
 70
     0
300
1/2" = 1'-0"
140
0.5
141
12.0
290
     0
  0
SCALE
  5
4E
102
{ACAD_REACTORS
330
42
102
}
330
42
100
AcDbScale
 70
     0
300
3/4" = 1'-0"
140
0.75
141
12.0
290
     0
  0
SCALE
  5
4F
102
{ACAD_REACTORS
330
42
102
}
330
42
100
AcDbScale
 70
     0
300
1" = 1'-0"
140
1.0
141
12.0
290
     0
  0
SCALE
  5
50
102
{ACAD_REACTORS
330
42
102
}
330
42
100
AcDbScale
 70
     0
300
1-1/2" = 1'-0"
140
1.5
141
12.0
290
     0
  0
SCALE
  5
51
102
{ACAD_REACTORS
330
42
102
}
330
42
100
AcDbScale
 70
     0
300
3" = 1'-0"
140
3.0
141
12.0
290
     0
  0
SCALE
  5
52
102
{ACAD_REACTORS
330
42
102
}
330
42
100
AcDbScale
 70
     0
300
6" = 1'-0"
140
6.0
141
12.0
290
     0
  0
SCALE
  5
53
102
{ACAD_REACTORS
330
42
102
}
330
42
100
AcDbScale
 70
     0
300
1'-0" = 1'-0"
140
12.0
141
12.0
290
     0
  0
ACDBSECTIONVIEWSTYLE
  5
69
102
{ACAD_XDICTIONARY
360
19A
102
}
102
{ACAD_REACTORS
330
68
102
}
330
68
100
AcDbModelDocViewStyle
 70
     0
  3
Imperial24
290
     0
100
AcDbSectionViewStyle
 70
     0
 71
     0
 90
       78
 71
     1
340
55
 62
   256
 40
0.24
340
0
340
0
 62
   256
 40
0.24
300
I, O, Q, S, X, Z
 40
0.48
 90
        3
 40
0.18
 90
        1
 71
     2
340
5D
 90
       25
 62
   256
340
5D
 90
       50
 62
   256
 40
0.24
 40
0.0
 40
0.24
 71
     3
340
55
 62
   256
 40
0.24
 90
        1
 40
0.75
 90
        1
300
%<\AcVar ViewType \f "%tc1">% %<\AcVar ViewSectionStartId>%-%<\AcVar ViewSectionEndId>%\PSCALE %<\AcVar ViewScale \f "%sn">%
 71
     4
 62
   256
 62
   257
300
ANSI31
 40
1.0
 90
        0
290
     0
290
     0
 90
        6
 40
0.0
 40
1.570796326794896
 40
0.2617993877991494
 40
1.308996938995747
 40
-0.2617993877991494
 40
1.832595714594046
  0
TABLESTYLE
  5
65
102
{ACAD_XDICTIONARY
360
165
102
}
102
{ACAD_REACTORS
330
64
102
}
330
64
100
AcDbTableStyle
280
     0
  3
Standard
 70
     0
 71
     0
 40
0.06
 41
0.06
280
     0
281
     0
  7
Standard
140
0.18
170
     2
 62
     0
 63
     7
283
     0
 90
      512
 91
        0
  1

274
    -2
284
     1
 64
     0
275
    -2
285
     1
 65
     0
276
    -2
286
     1
 66
     0
277
    -2
287
     1
 67
     0
278
    -2
288
     1
 68
     0
279
    -2
289
     1
 69
     0
  7
Standard
140
0.25
170
     5
 62
     0
 63
     7
283
     0
 90
      512
 91
        0
  1

274
    -2
284
     1
 64
     0
275
    -2
285
     1
 65
     0
276
    -2
286
     1
 66
     0
277
    -2
287
     1
 67
     0
278
    -2
288
     1
 68
     0
279
    -2
289
     1
 69
     0
  7
Standard
140
0.18
170
     5
 62
     0
 63
     7
283
     0
 90
      512
 91
        0
  1

274
    -2
284
     1
 64
     0
275
    -2
285
     1
 65
     0
276
    -2
286
     1
 66
     0
277
    -2
287
     1
 67
     0
278
    -2
288
     1
 68
     0
279
    -2
289
     1
 69
     0
  0
VISUALSTYLE
  5
2F
102
{ACAD_XDICTIONARY
360
172
102
}
102
{ACAD_REACTORS
330
29
102
}
330
29
100
AcDbVisualStyle
  2
2dWireframe
 70
     4
177
     2
291
     0
 71
     0
176
     1
 72
     2
176
     1
 73
     0
176
     1
 90
        0
176
     1
 40
0.6
176
     1
 41
30.0
176
     1
 63
     7
421
 16777215
176
     1
 74
     1
176
     1
 91
        4
176
     1
 64
     7
176
     1
 65
   257
176
     1
 75
     1
176
     1
175
     1
176
     1
 42
1.0
176
     1
 92
        0
176
     1
 66
   257
176
     1
 43
1.0
176
     1
 76
     1
176
     1
 77
     6
176
     1
 78
     2
176
     1
 67
     7
176
     1
 79
     5
176
     1
170
     0
176
     1
171
     0
176
     1
290
     0
176
     1
 93
        1
176
     1
 44
0.0
176
     1
173
     0
176
     1
1001
ACAD
1000
AcDbSavedByObjectVersion
1070
     0
  0
VISUALSTYLE
  5
2E
102
{ACAD_XDICTIONARY
360
170
102
}
102
{ACAD_REACTORS
330
29
102
}
330
29
100
AcDbVisualStyle
  2
Basic
 70
     7
177
     2
291
     1
 71
     1
176
     1
 72
     0
176
     1
 73
     1
176
     1
 90
        0
176
     1
 40
0.6
176
     1
 41
30.0
176
     1
 63
     7
421
 16777215
176
     1
 74
     0
176
     1
 91
        4
176
     1
 64
     7
176
     1
 65
   257
176
     1
 75
     1
176
     1
175
     1
176
     1
 42
1.0
176
     1
 92
        8
176
     1
 66
     7
176
     1
 43
1.0
176
     1
 76
     1
176
     1
 77
     6
176
     1
 78
     2
176
     1
 67
     7
176
     1
 79
     5
176
     1
170
     0
176
     1
171
     0
176
     1
290
     0
176
     1
 93
        1
176
     1
 44
0.0
176
     1
173
     0
176
     1
1001
ACAD
1000
AcDbSavedByObjectVersion
1070
     0
  0
VISUALSTYLE
  5
35
102
{ACAD_XDICTIONARY
360
17E
102
}
102
{ACAD_REACTORS
330
29
102
}
330
29
100
AcDbVisualStyle
  2
Brighten
 70
    12
177
     2
291
     1
 71
     2
176
     1
 72
     2
176
     1
 73
     0
176
     1
 90
        0
176
     1
 40
0.6
176
     1
 41
30.0
176
     1
 63
     7
421
 16777215
176
     1
 74
     1
176
     1
 91
        4
176
     1
 64
     7
176
     1
 65
   257
176
     1
 75
     1
176
     1
175
     1
176
     1
 42
1.0
176
     1
 92
        8
176
     1
 66
     7
176
     1
 43
1.0
176
     1
 76
     1
176
     1
 77
     6
176
     1
 78
     2
176
     1
 67
     7
176
     1
 79
     5
176
     1
170
     0
176
     1
171
     0
176
     1
290
     0
176
     1
 93
        1
176
     1
 44
50.0
176
     1
173
     0
176
     1
1001
ACAD
1000
AcDbSavedByObjectVersion
1070
     0
  0
VISUALSTYLE
  5
39
102
{ACAD_XDICTIONARY
360
186
102
}
102
{ACAD_REACTORS
330
29
102
}
330
29
100
AcDbVisualStyle
  2
ColorChange
 70
    16
177
     2
291
     1
 71
     2
176
     1
 72
     2
176
     1
 73
     3
176
     1
 90
        0
176
     1
 40
0.6
176
     1
 41
30.0
176
     1
 63
     8
421
  8421504
176
     1
 74
     1
176
     1
 91
        4
176
     1
 64
     7
176
     1
 65
   257
176
     1
 75
     1
176
     1
175
     1
176
     1
 42
1.0
176
     1
 92
        8
176
     1
 66
     8
424
  8421504
176
     1
 43
1.0
176
     1
 76
     1
176
     1
 77
     6
176
     1
 78
     2
176
     1
 67
     7
176
     1
 79
     5
176
     1
170
     0
176
     1
171
     0
176
     1
290
     0
176
     1
 93
        1
176
     1
 44
0.0
176
     1
173
     0
176
     1
1001
ACAD
1000
AcDbSavedByObjectVersion
1070
     0
  0
VISUALSTYLE
  5
32
102
{ACAD_XDICTIONARY
360
178
102
}
102
{ACAD_REACTORS
330
29
102
}
330
29
100
AcDbVisualStyle
  2
Conceptual
 70
     9
177
     2
291
     0
 71
     3
176
     1
 72
     2
176
     1
 73
     0
176
     1
 90
        0
176
     1
 40
0.6
176
     1
 41
30.0
176
     1
 63
     7
421
 16777215
176
     1
 74
     2
176
     1
 91
        2
176
     1
 64
     7
176
     1
 65
   257
176
     1
 75
     1
176
     1
175
     1
176
     1
 42
179.0
176
     1
 92
        8
176
     1
 66
     7
176
     1
 43
1.0
176
     1
 76
     1
176
     1
 77
     6
176
     1
 78
     2
176
     1
 67
     7
176
     1
 79
     3
176
     1
170
     0
176
     1
171
     0
176
     1
290
     0
176
     1
 93
        1
176
     1
 44
0.0
176
     1
173
     0
176
     1
1001
ACAD
1000
AcDbSavedByObjectVersion
1070
     0
  0
VISUALSTYLE
  5
34
102
{ACAD_XDICTIONARY
360
17C
102
}
102
{ACAD_REACTORS
330
29
102
}
330
29
100
AcDbVisualStyle
  2
Dim
 70
    11
177
     2
291
     1
 71
     2
176
     1
 72
     2
176
     1
 73
     0
176
     1
 90
        0
176
     1
 40
0.6
176
     1
 41
30.0
176
     1
 63
     7
421
 16777215
176
     1
 74
     1
176
     1
 91
        4
176
     1
 64
     7
176
     1
 65
   257
176
     1
 75
     1
176
     1
175
     1
176
     1
 42
1.0
176
     1
 92
        8
176
     1
 66
     7
176
     1
 43
1.0
176
     1
 76
     1
176
     1
 77
     6
176
     1
 78
     2
176
     1
 67
     7
176
     1
 79
     5
176
     1
170
     0
176
     1
171
     0
176
     1
290
     0
176
     1
 93
        1
176
     1
 44
-50.0
176
     1
173
     0
176
     1
1001
ACAD
1000
AcDbSavedByObjectVersion
1070
     0
  0
VISUALSTYLE
  5
41
102
{ACAD_XDICTIONARY
360
196
102
}
102
{ACAD_REACTORS
330
29
102
}
330
29
100
AcDbVisualStyle
  2
EdgeColorOff
 70
    22
177
     2
291
     1
 71
     2
176
     0
 72
     2
176
     0
 73
     0
176
     0
 90
        0
176
     0
 40
0.6
176
     0
 41
30.0
176
     0
 63
     7
421
 16777215
176
     0
 74
     1
176
     0
 91
        4
176
     0
 64
     7
176
     0
 65
   257
176
     0
 75
     1
176
     0
175
     1
176
     0
 42
1.0
176
     0
 92
        8
176
     2
 66
     7
176
     0
 43
1.0
176
     0
 76
     1
176
     0
 77
     6
176
     0
 78
     2
176
     0
 67
     7
176
     0
 79
     5
176
     0
170
     0
176
     0
171
     0
176
     0
290
     0
176
     0
 93
        1
176
     0
 44
0.0
176
     0
173
     0
176
     0
1001
ACAD
1000
AcDbSavedByObjectVersion
1070
     0
  0
VISUALSTYLE
  5
38
102
{ACAD_XDICTIONARY
360
184
102
}
102
{ACAD_REACTORS
330
29
102
}
330
29
100
AcDbVisualStyle
  2
Facepattern
 70
    15
177
     2
291
     1
 71
     2
176
     1
 72
     2
176
     1
 73
     0
176
     1
 90
        0
176
     1
 40
0.6
176
     1
 41
30.0
176
     1
 63
     7
421
 16777215
176
     1
 74
     1
176
     1
 91
        4
176
     1
 64
     7
176
     1
 65
   257
176
     1
 75
     1
176
     1
175
     1
176
     1
 42
1.0
176
     1
 92
        8
176
     1
 66
     7
176
     1
 43
1.0
176
     1
 76
     1
176
     1
 77
     6
176
     1
 78
     2
176
     1
 67
     7
176
     1
 79
     5
176
     1
170
     0
176
     1
171
     0
176
     1
290
     0
176
     1
 93
        1
176
     1
 44
0.0
176
     1
173
     0
176
     1
1001
ACAD
1000
AcDbSavedByObjectVersion
1070
     0
  0
VISUALSTYLE
  5
2A
102
{ACAD_XDICTIONARY
360
168
102
}
102
{ACAD_REACTORS
330
29
102
}
330
29
100
AcDbVisualStyle
  2
Flat
 70
     0
177
     2
291
     1
 71
     2
176
     1
 72
     1
176
     1
 73
     1
176
     1
 90
        2
176
     1
 40
0.6
176
     1
 41
30.0
176
     1
 63
     7
421
 16777215
176
     1
 74
     0
176
     1
 91
        0
176
     1
 64
     7
176
     1
 65
   257
176
     1
 75
     1
176
     1
175
     1
176
     1
 42
1.0
176
     1
 92
        8
176
     1
 66
     7
176
     1
 43
1.0
176
     1
 76
     1
176
     1
 77
     6
176
     1
 78
     2
176
     1
 67
     7
176
     1
 79
     5
176
     1
170
     0
176
     1
171
     0
176
     1
290
     0
176
     1
 93
       13
176
     1
 44
0.0
176
     1
173
     0
176
     1
1001
ACAD
1000
AcDbSavedByObjectVersion
1070
     0
  0
VISUALSTYLE
  5
2B
102
{ACAD_XDICTIONARY
360
16A
102
}
102
{ACAD_REACTORS
330
29
102
}
330
29
100
AcDbVisualStyle
  2
FlatWithEdges
 70
     1
177
     2
291
     1
 71
     2
176
     1
 72
     1
176
     1
 73
     1
176
     1
 90
        2
176
     1
 40
0.6
176
     1
 41
30.0
176
     1
 63
     7
421
 16777215
176
     1
 74
     1
176
     1
 91
        0
176
     1
 64
     7
176
     1
 65
   257
176
     1
 75
     1
176
     1
175
     1
176
     1
 42
1.0
176
     1
 92
        0
176
     1
 66
   257
176
     1
 43
1.0
176
     1
 76
     1
176
     1
 77
     6
176
     1
 78
     2
176
     1
 67
     7
176
     1
 79
     5
176
     1
170
     0
176
     1
171
     0
176
     1
290
     0
176
     1
 93
       13
176
     1
 44
0.0
176
     1
173
     0
176
     1
1001
ACAD
1000
AcDbSavedByObjectVersion
1070
     0
  0
VISUALSTYLE
  5
2C
102
{ACAD_XDICTIONARY
360
16C
102
}
102
{ACAD_REACTORS
330
29
102
}
330
29
100
AcDbVisualStyle
  2
Gouraud
 70
     2
177
     2
291
     1
 71
     2
176
     1
 72
     2
176
     1
 73
     1
176
     1
 90
        2
176
     1
 40
0.6
176
     1
 41
30.0
176
     1
 63
     7
421
 16777215
176
     1
 74
     0
176
     1
 91
        0
176
     1
 64
     7
176
     1
 65
   257
176
     1
 75
     1
176
     1
175
     1
176
     1
 42
1.0
176
     1
 92
        0
176
     1
 66
     7
176
     1
 43
1.0
176
     1
 76
     1
176
     1
 77
     6
176
     1
 78
     2
176
     1
 67
     7
176
     1
 79
     5
176
     1
170
     0
176
     1
171
     0
176
     1
290
     0
176
     1
 93
       13
176
     1
 44
0.0
176
     1
173
     0
176
     1
1001
ACAD
1000
AcDbSavedByObjectVersion
1070
     0
  0
VISUALSTYLE
  5
2D
102
{ACAD_XDICTIONARY
360
16E
102
}
102
{ACAD_REACTORS
330
29
102
}
330
29
100
AcDbVisualStyle
  2
GouraudWithEdges
 70
     3
177
     2
291
     1
 71
     2
176
     1
 72
     2
176
     1
 73
     1
176
     1
 90
        2
176
     1
 40
0.6
176
     1
 41
30.0
176
     1
 63
     7
421
 16777215
176
     1
 74
     1
176
     1
 91
        0
176
     1
 64
     7
176
     1
 65
   257
176
     1
 75
     1
176
     1
175
     1
176
     1
 42
1.0
176
     1
 92
        0
176
     1
 66
   257
176
     1
 43
1.0
176
     1
 76
     1
176
     1
 77
     6
176
     1
 78
     2
176
     1
 67
     7
176
     1
 79
     5
176
     1
170
     0
176
     1
171
     0
176
     1
290
     0
176
     1
 93
       13
176
     1
 44
0.0
176
     1
173
     0
176
     1
1001
ACAD
1000
AcDbSavedByObjectVersion
1070
     0
  0
VISUALSTYLE
  5
31
102
{ACAD_XDICTIONARY
360
176
102
}
102
{ACAD_REACTORS
330
29
102
}
330
29
100
AcDbVisualStyle
  2
Hidden
 70
     6
177
     2
291
     0
 71
     1
176
     1
 72
     2
176
     1
 73
     2
176
     1
 90
        0
176
     1
 40
0.6
176
     1
 41
30.0
176
     1
 63
     7
421
 16777215
176
     1
 74
     2
176
     1
 91
        2
176
     1
 64
     7
176
     1
 65
   257
176
     1
 75
     2
176
     1
175
     1
176
     1
 42
40.0
176
     1
 92
        0
176
     1
 66
   257
176
     1
 43
1.0
176
     1
 76
     1
176
     1
 77
     6
176
     1
 78
     2
176
     1
 67
     7
176
     1
 79
     3
176
     1
170
     0
176
     1
171
     0
176
     1
290
     0
176
     1
 93
        1
176
     1
 44
0.0
176
     1
173
     0
176
     1
1001
ACAD
1000
AcDbSavedByObjectVersion
1070
     0
  0
VISUALSTYLE
  5
3F
102
{ACAD_XDICTIONARY
360
192
102
}
102
{ACAD_REACTORS
330
29
102
}
330
29
100
AcDbVisualStyle
  2
JitterOff
 70
    20
177
     2
291
     1
 71
     2
176
     0
 72
     2
176
     0
 73
     0
176
     0
 90
        0
176
     0
 40
0.6
176
     0
 41
30.0
176
     0
 63
     7
421
 16777215
176
     0
 74
     1
176
     0
 91
        4
176
     0
 64
     7
176
     0
 65
   257
176
     0
 75
     1
176
     0
175
     1
176
     0
 42
1.0
176
     0
 92
       10
176
     2
 66
     7
176
     0
 43
1.0
176
     0
 76
     1
176
     0
 77
     6
176
     0
 78
     2
176
     0
 67
     7
176
     0
 79
     5
176
     0
170
     0
176
     0
171
     0
176
     0
290
     0
176
     0
 93
        1
176
     0
 44
0.0
176
     0
173
     0
176
     0
1001
ACAD
1000
AcDbSavedByObjectVersion
1070
     0
  0
VISUALSTYLE
  5
37
102
{ACAD_XDICTIONARY
360
182
102
}
102
{ACAD_REACTORS
330
29
102
}
330
29
100
AcDbVisualStyle
  2
Linepattern
 70
    14
177
     2
291
     1
 71
     2
176
     1
 72
     2
176
     1
 73
     0
176
     1
 90
        0
176
     1
 40
0.6
176
     1
 41
30.0
176
     1
 63
     7
421
 16777215
176
     1
 74
     1
176
     1
 91
        4
176
     1
 64
     7
176
     1
 65
   257
176
     1
 75
     7
176
     1
175
     7
176
     1
 42
1.0
176
     1
 92
        8
176
     1
 66
     7
176
     1
 43
1.0
176
     1
 76
     1
176
     1
 77
     6
176
     1
 78
     2
176
     1
 67
     7
176
     1
 79
     5
176
     1
170
     0
176
     1
171
     0
176
     1
290
     0
176
     1
 93
        1
176
     1
 44
0.0
176
     1
173
     0
176
     1
1001
ACAD
1000
AcDbSavedByObjectVersion
1070
     0
  0
VISUALSTYLE
  5
40
102
{ACAD_XDICTIONARY
360
194
102
}
102
{ACAD_REACTORS
330
29
102
}
330
29
100
AcDbVisualStyle
  2
OverhangOff
 70
    21
177
     2
291
     1
 71
     2
176
     0
 72
     2
176
     0
 73
     0
176
     0
 90
        0
176
     0
 40
0.6
176
     0
 41
30.0
176
     0
 63
     7
421
 16777215
176
     0
 74
     1
176
     0
 91
        4
176
     0
 64
     7
176
     0
 65
   257
176
     0
 75
     1
176
     0
175
     1
176
     0
 42
1.0
176
     0
 92
        9
176
     2
 66
     7
176
     0
 43
1.0
176
     0
 76
     1
176
     0
 77
     6
176
     0
 78
     2
176
     0
 67
     7
176
     0
 79
     5
176
     0
170
     0
176
     0
171
     0
176
     0
290
     0
176
     0
 93
        1
176
     0
 44
0.0
176
     0
173
     0
176
     0
1001
ACAD
1000
AcDbSavedByObjectVersion
1070
     0
  0
VISUALSTYLE
  5
33
102
{ACAD_XDICTIONARY
360
17A
102
}
102
{ACAD_REACTORS
330
29
102
}
330
29
100
AcDbVisualStyle
  2
Realistic
 70
     8
177
     2
291
     0
 71
     2
176
     1
 72
     3
176
     1
 73
     0
176
     1
 90
        2
176
     1
 40
0.6
176
     1
 41
30.0
176
     1
 63
     7
421
 16777215
176
     1
 74
     0
176
     1
 91
        0
176
     1
 64
     7
176
     1
 65
   257
176
     1
 75
     1
176
     1
175
     1
176
     1
 42
1.0
176
     1
 92
        8
176
     1
 66
   257
176
     1
 43
1.0
176
     1
 76
     1
176
     1
 77
     6
176
     1
 78
     2
176
     1
 67
     7
176
     1
 79
     3
176
     1
170
     0
176
     1
171
     0
176
     1
290
     0
176
     1
 93
       13
176
     1
 44
0.0
176
     1
173
     0
176
     1
1001
ACAD
1000
AcDbSavedByObjectVersion
1070
     0
  0
VISUALSTYLE
  5
3E
102
{ACAD_XDICTIONARY
360
190
102
}
102
{ACAD_REACTORS
330
29
102
}
330
29
100
AcDbVisualStyle
  2
Shaded
 70
    27
177
     2
291
     0
 71
     2
176
     1
 72
     2
176
     1
 73
     1
176
     1
 90
        2
176
     1
 40
0.6
176
     1
 41
30.0
176
     1
 63
     7
421
 16777215
176
     1
 74
     0
176
     1
 91
        4
176
     1
 64
     7
176
     1
 65
   257
176
     1
 75
     1
176
     1
175
     1
176
     1
 42
1.0
176
     1
 92
        8
176
     1
 66
   257
176
     1
 43
1.0
176
     1
 76
     1
176
     1
 77
     6
176
     1
 78
     2
176
     1
 67
     8
425
  7895160
176
     1
 79
     3
176
     1
170
     0
176
     1
171
     0
176
     1
290
     0
176
     1
 93
        5
176
     1
 44
0.0
176
     1
173
     0
176
     1
1001
ACAD
1000
AcDbSavedByObjectVersion
1070
     0
  0
VISUALSTYLE
  5
3D
102
{ACAD_XDICTIONARY
360
18E
102
}
102
{ACAD_REACTORS
330
29
102
}
330
29
100
AcDbVisualStyle
  2
Shaded with edges
 70
    26
177
     2
291
     0
 71
     2
176
     1
 72
     2
176
     1
 73
     1
176
     1
 90
        2
176
     1
 40
0.6
176
     1
 41
30.0
176
     1
 63
     7
421
 16777215
176
     1
 74
     1
176
     1
 91
        2
176
     1
 64
     7
176
     1
 65
   257
176
     1
 75
     2
176
     1
175
     1
176
     1
 42
1.0
176
     1
 92
        8
176
     1
 66
   257
176
     1
 43
1.0
176
     1
 76
     1
176
     1
 77
     6
176
     1
 78
     2
176
     1
 67
     7
176
     1
 79
     3
176
     1
170
     0
176
     1
171
     0
176
     1
290
     0
176
     1
 93
        5
176
     1
 44
0.0
176
     1
173
     0
176
     1
1001
ACAD
1000
AcDbSavedByObjectVersion
1070
     0
  0
VISUALSTYLE
  5
3A
102
{ACAD_XDICTIONARY
360
188
102
}
102
{ACAD_REACTORS
330
29
102
}
330
29
100
AcDbVisualStyle
  2
Shades of Gray
 70
    23
177
     2
291
     0
 71
     2
176
     1
 72
     2
176
     1
 73
     3
176
     1
 90
        0
176
     1
 40
0.6
176
     1
 41
30.0
176
     1
 63
     7
421
 16777215
176
     1
 74
     2
176
     1
 91
        2
176
     1
 64
     7
176
     1
 65
     7
176
     1
 75
     1
176
     1
175
     1
176
     1
 42
40.0
176
     1
 92
        8
176
     1
 66
     7
176
     1
 43
1.0
176
     1
 76
     1
176
     1
 77
     6
176
     1
 78
     2
176
     1
 67
     7
176
     1
 79
     3
176
     1
170
     0
176
     1
171
     0
176
     1
290
     0
176
     1
 93
        1
176
     1
 44
0.0
176
     1
173
     0
176
     1
1001
ACAD
1000
AcDbSavedByObjectVersion
1070
     0
  0
VISUALSTYLE
  5
3B
102
{ACAD_XDICTIONARY
360
18A
102
}
102
{ACAD_REACTORS
330
29
102
}
330
29
100
AcDbVisualStyle
  2
Sketchy
 70
    24
177
     2
291
     0
 71
     1
176
     1
 72
     2
176
     1
 73
     2
176
     1
 90
        0
176
     1
 40
0.6
176
     1
 41
30.0
176
     1
 63
     7
421
 16777215
176
     1
 74
     2
176
     1
 91
        2
176
     1
 64
     7
176
     1
 65
     7
176
     1
 75
     1
176
     1
175
     1
176
     1
 42
40.0
176
     1
 92
       11
176
     1
 66
     7
176
     1
 43
1.0
176
     1
 76
     1
176
     1
 77
     6
176
     1
 78
     2
176
     1
 67
     7
176
     1
 79
     6
176
     1
170
     0
176
     1
171
     0
176
     1
290
     0
176
     1
 93
        1
176
     1
 44
0.0
176
     1
173
     0
176
     1
1001
ACAD
1000
AcDbSavedByObjectVersion
1070
     0
  0
VISUALSTYLE
  5
36
102
{ACAD_XDICTIONARY
360
180
102
}
102
{ACAD_REACTORS
330
29
102
}
330
29
100
AcDbVisualStyle
  2
Thicken
 70
    13
177
     2
291
     1
 71
     2
176
     1
 72
     2
176
     1
 73
     0
176
     1
 90
        0
176
     1
 40
0.6
176
     1
 41
30.0
176
     1
 63
     7
421
 16777215
176
     1
 74
     1
176
     1
 91
        4
176
     1
 64
     7
176
     1
 65
   257
176
     1
 75
     1
176
     1
175
     1
176
     1
 42
1.0
176
     1
 92
       12
176
     1
 66
     7
176
     1
 43
1.0
176
     1
 76
     1
176
     1
 77
     6
176
     1
 78
     2
176
     1
 67
     7
176
     1
 79
     5
176
     1
170
     0
176
     1
171
     0
176
     1
290
     0
176
     1
 93
        1
176
     1
 44
0.0
176
     1
173
     0
176
     1
1001
ACAD
1000
AcDbSavedByObjectVersion
1070
     0
  0
VISUALSTYLE
  5
30
102
{ACAD_XDICTIONARY
360
174
102
}
102
{ACAD_REACTORS
330
29
102
}
330
29
100
AcDbVisualStyle
  2
Wireframe
 70
     5
177
     2
291
     0
 71
     0
176
     1
 72
     2
176
     1
 73
     0
176
     1
 90
        0
176
     1
 40
0.6
176
     1
 41
30.0
176
     1
 63
     7
421
 16777215
176
     1
 74
     1
176
     1
 91
        4
176
     1
 64
     7
176
     1
 65
   257
176
     1
 75
     1
176
     1
175
     1
176
     1
 42
1.0
176
     1
 92
        0
176
     1
 66
   257
176
     1
 43
1.0
176
     1
 76
     1
176
     1
 77
     6
176
     1
 78
     2
176
     1
 67
     7
176
     1
 79
     3
176
     1
170
     0
176
     1
171
     0
176
     1
290
     0
176
     1
 93
        1
176
     1
 44
0.0
176
     1
173
     0
176
     1
1001
ACAD
1000
AcDbSavedByObjectVersion
1070
     0
  0
VISUALSTYLE
  5
3C
102
{ACAD_XDICTIONARY
360
18C
102
}
102
{ACAD_REACTORS
330
29
102
}
330
29
100
AcDbVisualStyle
  2
X-Ray
 70
    25
177
     2
291
     0
 71
     2
176
     1
 72
     2
176
     1
 73
     1
176
     1
 90
        1
176
     1
 40
0.5
176
     1
 41
30.0
176
     1
 63
     7
421
 16777215
176
     1
 74
     1
176
     1
 91
        0
176
     1
 64
     7
176
     1
 65
   257
176
     1
 75
     1
176
     1
175
     1
176
     1
 42
1.0
176
     1
 92
        8
176
     1
 66
     7
176
     1
 43
1.0
176
     1
 76
     1
176
     1
 77
     6
176
     1
 78
     2
176
     1
 67
     7
176
     1
 79
     3
176
     1
170
     0
176
     1
171
     0
176
     1
290
     0
176
     1
 93
       13
176
     1
 44
0.0
176
     1
173
     0
176
     1
1001
ACAD
1000
AcDbSavedByObjectVersion
1070
     0
  0
DICTIONARYVAR
  5
164
102
{ACAD_REACTORS
330
15F
102
}
330
15F
100
DictionaryVariables
280
     0
  1
1:1
  0
DICTIONARYVAR
  5
161
102
{ACAD_REACTORS
330
15F
102
}
330
15F
100
DictionaryVariables
280
     0
  1
STANDARD
  0
DICTIONARYVAR
  5
160
102
{ACAD_REACTORS
330
15F
102
}
330
15F
100
DictionaryVariables
280
     0
  1
STANDARD
  0
DICTIONARYVAR
  5
162
102
{ACAD_REACTORS
330
15F
102
}
330
15F
100
DictionaryVariables
280
     0
  1
Imperial24
  0
DICTIONARYVAR
  5
163
102
{ACAD_REACTORS
330
15F
102
}
330
15F
100
DictionaryVariables
280
     0
  1
Imperial24
  0
DICTIONARY
  5
19C
330
6B
100
AcDbDictionary
280
     1
281
     1
  3
ACAD_XREC_ROUNDTRIP
360
19D
  0
DICTIONARY
  5
1A
330
19
100
AcDbDictionary
280
     1
281
     1
  3
BUMPTILE
360
1C
  3
DIFFUSETILE
360
1B
  3
OPACITYTILE
360
1F
  3
REFLECTIONTILE
360
1E
  3
REFRACTIONTILE
360
20
  3
SPECULARTILE
360
1D
  0
DICTIONARY
  5
12
330
11
100
AcDbDictionary
280
     1
281
     1
  3
BUMPTILE
360
14
  3
DIFFUSETILE
360
13
  3
OPACITYTILE
360
17
  3
REFLECTIONTILE
360
16
  3
REFRACTIONTILE
360
18
  3
SPECULARTILE
360
15
  0
DICTIONARY
  5
22
330
21
100
AcDbDictionary
280
     1
281
     1
  3
BUMPTILE
360
24
  3
DIFFUSETILE
360
23
  3
OPACITYTILE
360
27
  3
REFLECTIONTILE
360
26
  3
REFRACTIONTILE
360
28
  3
SPECULARTILE
360
25
  0
DICTIONARY
  5
198
330
67
100
AcDbDictionary
280
     1
281
     1
  3
ACAD_XREC_ROUNDTRIP
360
199
  0
DICTIONARY
  5
19A
330
69
100
AcDbDictionary
280
     1
281
     1
  3
ACAD_XREC_ROUNDTRIP
360
19B
  0
DICTIONARY
  5
165
330
65
100
AcDbDictionary
280
     1
281
     1
  3
ACAD_ROUNDTRIP_2008_TABLESTYLE_CELLSTYLEMAP
360
166
  0
DICTIONARY
  5
172
330
2F
100
AcDbDictionary
280
     1
281
     1
  3
ACAD_XREC_ROUNDTRIP
360
173
  0
DICTIONARY
  5
170
330
2E
100
AcDbDictionary
280
     1
281
     1
  3
ACAD_XREC_ROUNDTRIP
360
171
  0
DICTIONARY
  5
17E
330
35
100
AcDbDictionary
280
     1
281
     1
  3
ACAD_XREC_ROUNDTRIP
360
17F
  0
DICTIONARY
  5
186
330
39
100
AcDbDictionary
280
     1
281
     1
  3
ACAD_XREC_ROUNDTRIP
360
187
  0
DICTIONARY
  5
178
330
32
100
AcDbDictionary
280
     1
281
     1
  3
ACAD_XREC_ROUNDTRIP
360
179
  0
DICTIONARY
  5
17C
330
34
100
AcDbDictionary
280
     1
281
     1
  3
ACAD_XREC_ROUNDTRIP
360
17D
  0
DICTIONARY
  5
196
330
41
100
AcDbDictionary
280
     1
281
     1
  3
ACAD_XREC_ROUNDTRIP
360
197
  0
DICTIONARY
  5
184
330
38
100
AcDbDictionary
280
     1
281
     1
  3
ACAD_XREC_ROUNDTRIP
360
185
  0
DICTIONARY
  5
168
330
2A
100
AcDbDictionary
280
     1
281
     1
  3
ACAD_XREC_ROUNDTRIP
360
169
  0
DICTIONARY
  5
16A
330
2B
100
AcDbDictionary
280
     1
281
     1
  3
ACAD_XREC_ROUNDTRIP
360
16B
  0
DICTIONARY
  5
16C
330
2C
100
AcDbDictionary
280
     1
281
     1
  3
ACAD_XREC_ROUNDTRIP
360
16D
  0
DICTIONARY
  5
16E
330
2D
100
AcDbDictionary
280
     1
281
     1
  3
ACAD_XREC_ROUNDTRIP
360
16F
  0
DICTIONARY
  5
176
330
31
100
AcDbDictionary
280
     1
281
     1
  3
ACAD_XREC_ROUNDTRIP
360
177
  0
DICTIONARY
  5
192
330
3F
100
AcDbDictionary
280
     1
281
     1
  3
ACAD_XREC_ROUNDTRIP
360
193
  0
DICTIONARY
  5
182
330
37
100
AcDbDictionary
280
     1
281
     1
  3
ACAD_XREC_ROUNDTRIP
360
183
  0
DICTIONARY
  5
194
330
40
100
AcDbDictionary
280
     1
281
     1
  3
ACAD_XREC_ROUNDTRIP
360
195
  0
DICTIONARY
  5
17A
330
33
100
AcDbDictionary
280
     1
281
     1
  3
ACAD_XREC_ROUNDTRIP
360
17B
  0
DICTIONARY
  5
190
330
3E
100
AcDbDictionary
280
     1
281
     1
  3
ACAD_XREC_ROUNDTRIP
360
191
  0
DICTIONARY
  5
18E
330
3D
100
AcDbDictionary
280
     1
281
     1
  3
ACAD_XREC_ROUNDTRIP
360
18F
  0
DICTIONARY
  5
188
330
3A
100
AcDbDictionary
280
     1
281
     1
  3
ACAD_XREC_ROUNDTRIP
360
189
  0
DICTIONARY
  5
18A
330
3B
100
AcDbDictionary
280
     1
281
     1
  3
ACAD_XREC_ROUNDTRIP
360
18B
  0
DICTIONARY
  5
180
330
36
100
AcDbDictionary
280
     1
281
     1
  3
ACAD_XREC_ROUNDTRIP
360
181
  0
DICTIONARY
  5
174
330
30
100
AcDbDictionary
280
     1
281
     1
  3
ACAD_XREC_ROUNDTRIP
360
175
  0
DICTIONARY
  5
18C
330
3C
100
AcDbDictionary
280
     1
281
     1
  3
ACAD_XREC_ROUNDTRIP
360
18D
  0
XRECORD
  5
19D
102
{ACAD_REACTORS
330
19C
102
}
330
19C
100
AcDbXrecord
280
     1
102
DISPLAYNAME
  1
Imperial24
102
FLAGS
 90
        0
  0
XRECORD
  5
1C
102
{ACAD_REACTORS
330
1A
102
}
330
1A
100
AcDbXrecord
280
     1
270
     1
271
     1
  0
XRECORD
  5
1B
102
{ACAD_REACTORS
330
1A
102
}
330
1A
100
AcDbXrecord
280
     1
270
     1
271
     1
  0
XRECORD
  5
1F
102
{ACAD_REACTORS
330
1A
102
}
330
1A
100
AcDbXrecord
280
     1
270
     1
271
     1
  0
XRECORD
  5
1E
102
{ACAD_REACTORS
330
1A
102
}
330
1A
100
AcDbXrecord
280
     1
270
     1
271
     1
  0
XRECORD
  5
20
102
{ACAD_REACTORS
330
1A
102
}
330
1A
100
AcDbXrecord
280
     1
270
     1
271
     1
  0
XRECORD
  5
1D
102
{ACAD_REACTORS
330
1A
102
}
330
1A
100
AcDbXrecord
280
     1
270
     1
271
     1
  0
XRECORD
  5
14
102
{ACAD_REACTORS
330
12
102
}
330
12
100
AcDbXrecord
280
     1
270
     1
271
     1
  0
XRECORD
  5
13
102
{ACAD_REACTORS
330
12
102
}
330
12
100
AcDbXrecord
280
     1
270
     1
271
     1
  0
XRECORD
  5
17
102
{ACAD_REACTORS
330
12
102
}
330
12
100
AcDbXrecord
280
     1
270
     1
271
     1
  0
XRECORD
  5
16
102
{ACAD_REACTORS
330
12
102
}
330
12
100
AcDbXrecord
280
     1
270
     1
271
     1
  0
XRECORD
  5
18
102
{ACAD_REACTORS
330
12
102
}
330
12
100
AcDbXrecord
280
     1
270
     1
271
     1
  0
XRECORD
  5
15
102
{ACAD_REACTORS
330
12
102
}
330
12
100
AcDbXrecord
280
     1
270
     1
271
     1
  0
XRECORD
  5
24
102
{ACAD_REACTORS
330
22
102
}
330
22
100
AcDbXrecord
280
     1
270
     1
271
     1
  0
XRECORD
  5
23
102
{ACAD_REACTORS
330
22
102
}
330
22
100
AcDbXrecord
280
     1
270
     1
271
     1
  0
XRECORD
  5
27
102
{ACAD_REACTORS
330
22
102
}
330
22
100
AcDbXrecord
280
     1
270
     1
271
     1
  0
XRECORD
  5
26
102
{ACAD_REACTORS
330
22
102
}
330
22
100
AcDbXrecord
280
     1
270
     1
271
     1
  0
XRECORD
  5
28
102
{ACAD_REACTORS
330
22
102
}
330
22
100
AcDbXrecord
280
     1
270
     1
271
     1
  0
XRECORD
  5
25
102
{ACAD_REACTORS
330
22
102
}
330
22
100
AcDbXrecord
280
     1
270
     1
271
     1
  0
XRECORD
  5
199
102
{ACAD_REACTORS
330
198
102
}
330
198
100
AcDbXrecord
280
     1
102
ACAD_ROUNDTRIP_2012_MLEADER_STYLE
298
     1
  0
XRECORD
  5
19B
102
{ACAD_REACTORS
330
19A
102
}
330
19A
100
AcDbXrecord
280
     1
102
DISPLAYNAME
  1
Imperial24
102
FLAGS
 90
        0
  0
CELLSTYLEMAP
  5
166
102
{ACAD_REACTORS
330
165
102
}
330
165
100
AcDbCellStyleMap
 90
        3
300
CELLSTYLE
  1
TABLEFORMAT_BEGIN
 90
        5
170
     1
 91
        0
 92
    32768
 62
   257
 93
        1
300
CONTENTFORMAT
  1
CONTENTFORMAT_BEGIN
 90
        0
 91
        0
 92
      512
 93
        0
300

 40
0.0
140
1.0
 94
        5
 62
     0
340
55
144
0.25
309
CONTENTFORMAT_END
171
     0
 94
        0
309
TABLEFORMAT_END
  1
CELLSTYLE_BEGIN
 90
        1
 91
        1
300
_TITLE
309
CELLSTYLE_END
300
CELLSTYLE
  1
TABLEFORMAT_BEGIN
 90
        5
170
     1
 91
        0
 92
        0
 62
   257
 93
        1
300
CONTENTFORMAT
  1
CONTENTFORMAT_BEGIN
 90
        0
 91
        0
 92
      512
 93
        0
300

 40
0.0
140
1.0
 94
        5
 62
     0
340
55
144
0.18
309
CONTENTFORMAT_END
171
     0
 94
        0
309
TABLEFORMAT_END
  1
CELLSTYLE_BEGIN
 90
        2
 91
        1
300
_HEADER
309
CELLSTYLE_END
300
CELLSTYLE
  1
TABLEFORMAT_BEGIN
 90
        5
170
     1
 91
        0
 92
        0
 62
   257
 93
        1
300
CONTENTFORMAT
  1
CONTENTFORMAT_BEGIN
 90
        0
 91
        0
 92
      512
 93
        0
300

 40
0.0
140
1.0
 94
        2
 62
     0
340
55
144
0.18
309
CONTENTFORMAT_END
171
     0
 94
        0
309
TABLEFORMAT_END
  1
CELLSTYLE_BEGIN
 90
        3
 91
        2
300
_DATA
309
CELLSTYLE_END
  0
XRECORD
  5
173
102
{ACAD_REACTORS
330
172
102
}
330
172
100
AcDbXrecord
280
     1
102
RTVSPost2010Prop28
280
     1
102
RTVSPost2010PropOp28
 70
     1
102
RTVSPost2010Prop29
280
     1
102
RTVSPost2010PropOp29
 70
     1
102
RTVSPost2010Prop30
280
     0
102
RTVSPost2010PropOp30
 70
     1
102
RTVSPost2010Prop31
280
     0
102
RTVSPost2010PropOp31
 70
     1
102
RTVSPost2010Prop32
280
     0
102
RTVSPost2010PropOp32
 70
     1
102
RTVSPost2010Prop33
280
     0
102
RTVSPost2010PropOp33
 70
     1
102
RTVSPost2010Prop34
280
     0
102
RTVSPost2010PropOp34
 70
     1
102
RTVSPost2010Prop35
280
     0
102
RTVSPost2010PropOp35
 70
     1
102
RTVSPost2010Prop36
280
     0
102
RTVSPost2010PropOp36
 70
     1
102
RTVSPost2010Prop37
 90
       50
102
RTVSPost2010PropOp37
 70
     1
102
RTVSPost2010Prop38
140
0.0
102
RTVSPost2010PropOp38
 70
     1
102
RTVSPost2010Prop39
140
1.0
102
RTVSPost2010PropOp39
 70
     1
102
RTVSPost2010Prop40
 90
        0
102
RTVSPost2010PropOp40
 70
     1
102
RTVSPost2010Prop41ColorIndex
 90
       18
102
RTVSPost2010Prop41ColorRGB
 90
        0
102
RTVSPost2010PropOp41
 70
     1
102
RTVSPost2010Prop42
 90
       50
102
RTVSPost2010PropOp42
 70
     1
102
RTVSPost2010Prop43
 90
        3
102
RTVSPost2010PropOp43
 70
     1
102
RTVSPost2010Prop44ColorIndex
 90
        5
102
RTVSPost2010Prop44ColorRGB
 90
      255
102
RTVSPost2010PropOp44
 70
     1
102
RTVSPost2010Prop45
280
     0
102
RTVSPost2010PropOp45
 70
     1
102
RTVSPost2010Prop46
 90
       50
102
RTVSPost2010PropOp46
 70
     1
102
RTVSPost2010Prop47
 90
       50
102
RTVSPost2010PropOp47
 70
     1
102
RTVSPost2010Prop48
 90
       50
102
RTVSPost2010PropOp48
 70
     1
102
RTVSPost2010Prop49
280
     0
102
RTVSPost2010PropOp49
 70
     1
102
RTVSPost2010Prop50
 90
       50
102
RTVSPost2010PropOp50
 70
     1
102
RTVSPost2010Prop51ColorIndex
 90
      256
102
RTVSPost2010Prop51ColorRGB
 90
-16777216
102
RTVSPost2010PropOp51
 70
     0
102
RTVSPost2010Prop52
140
1.0
102
RTVSPost2010PropOp52
 70
     0
102
RTVSPost2010Prop53
 90
        2
102
RTVSPost2010PropOp53
 70
     1
102
RTVSPost2010Prop54
  1
strokes_ogs.tif
102
RTVSPost2010PropOp54
 70
     1
102
RTVSPost2010Prop55
280
     0
102
RTVSPost2010PropOp55
 70
     1
102
RTVSPost2010Prop56
140
1.0
102
RTVSPost2010PropOp56
 70
     1
102
RTVSPost2010Prop57
140
1.0
102
RTVSPost2010PropOp57
 70
     1
  0
XRECORD
  5
171
102
{ACAD_REACTORS
330
170
102
}
330
170
100
AcDbXrecord
280
     1
102
RTVSPost2010Prop28
280
     0
102
RTVSPost2010PropOp28
 70
     1
102
RTVSPost2010Prop29
280
     1
102
RTVSPost2010PropOp29
 70
     1
102
RTVSPost2010Prop30
280
     1
102
RTVSPost2010PropOp30
 70
     1
102
RTVSPost2010Prop31
280
     0
102
RTVSPost2010PropOp31
 70
     1
102
RTVSPost2010Prop32
280
     0
102
RTVSPost2010PropOp32
 70
     1
102
RTVSPost2010Prop33
280
     0
102
RTVSPost2010PropOp33
 70
     1
102
RTVSPost2010Prop34
280
     0
102
RTVSPost2010PropOp34
 70
     1
102
RTVSPost2010Prop35
280
     0
102
RTVSPost2010PropOp35
 70
     1
102
RTVSPost2010Prop36
280
     0
102
RTVSPost2010PropOp36
 70
     1
102
RTVSPost2010Prop37
 90
       50
102
RTVSPost2010PropOp37
 70
     1
102
RTVSPost2010Prop38
140
0.0
102
RTVSPost2010PropOp38
 70
     1
102
RTVSPost2010Prop39
140
1.0
102
RTVSPost2010PropOp39
 70
     1
102
RTVSPost2010Prop40
 90
        0
102
RTVSPost2010PropOp40
 70
     1
102
RTVSPost2010Prop41ColorIndex
 90
       18
102
RTVSPost2010Prop41ColorRGB
 90
        0
102
RTVSPost2010PropOp41
 70
     1
102
RTVSPost2010Prop42
 90
       50
102
RTVSPost2010PropOp42
 70
     1
102
RTVSPost2010Prop43
 90
        3
102
RTVSPost2010PropOp43
 70
     1
102
RTVSPost2010Prop44ColorIndex
 90
        5
102
RTVSPost2010Prop44ColorRGB
 90
      255
102
RTVSPost2010PropOp44
 70
     1
102
RTVSPost2010Prop45
280
     0
102
RTVSPost2010PropOp45
 70
     1
102
RTVSPost2010Prop46
 90
       50
102
RTVSPost2010PropOp46
 70
     1
102
RTVSPost2010Prop47
 90
       50
102
RTVSPost2010PropOp47
 70
     1
102
RTVSPost2010Prop48
 90
       50
102
RTVSPost2010PropOp48
 70
     1
102
RTVSPost2010Prop49
280
     0
102
RTVSPost2010PropOp49
 70
     1
102
RTVSPost2010Prop50
 90
       50
102
RTVSPost2010PropOp50
 70
     1
102
RTVSPost2010Prop51ColorIndex
 90
      256
102
RTVSPost2010Prop51ColorRGB
 90
-16777216
102
RTVSPost2010PropOp51
 70
     0
102
RTVSPost2010Prop52
140
1.0
102
RTVSPost2010PropOp52
 70
     0
102
RTVSPost2010Prop53
 90
        2
102
RTVSPost2010PropOp53
 70
     1
102
RTVSPost2010Prop54
  1
strokes_ogs.tif
102
RTVSPost2010PropOp54
 70
     1
102
RTVSPost2010Prop55
280
     0
102
RTVSPost2010PropOp55
 70
     1
102
RTVSPost2010Prop56
140
1.0
102
RTVSPost2010PropOp56
 70
     1
102
RTVSPost2010Prop57
140
1.0
102
RTVSPost2010PropOp57
 70
     1
  0
XRECORD
  5
17F
102
{ACAD_REACTORS
330
17E
102
}
330
17E
100
AcDbXrecord
280
     1
102
RTVSPost2010Prop28
280
     0
102
RTVSPost2010PropOp28
 70
     1
102
RTVSPost2010Prop29
280
     1
102
RTVSPost2010PropOp29
 70
     1
102
RTVSPost2010Prop30
280
     1
102
RTVSPost2010PropOp30
 70
     1
102
RTVSPost2010Prop31
280
     0
102
RTVSPost2010PropOp31
 70
     1
102
RTVSPost2010Prop32
280
     0
102
RTVSPost2010PropOp32
 70
     1
102
RTVSPost2010Prop33
280
     0
102
RTVSPost2010PropOp33
 70
     1
102
RTVSPost2010Prop34
280
     0
102
RTVSPost2010PropOp34
 70
     1
102
RTVSPost2010Prop35
280
     0
102
RTVSPost2010PropOp35
 70
     1
102
RTVSPost2010Prop36
280
     0
102
RTVSPost2010PropOp36
 70
     1
102
RTVSPost2010Prop37
 90
       50
102
RTVSPost2010PropOp37
 70
     1
102
RTVSPost2010Prop38
140
0.0
102
RTVSPost2010PropOp38
 70
     1
102
RTVSPost2010Prop39
140
1.0
102
RTVSPost2010PropOp39
 70
     1
102
RTVSPost2010Prop40
 90
        0
102
RTVSPost2010PropOp40
 70
     1
102
RTVSPost2010Prop41ColorIndex
 90
       18
102
RTVSPost2010Prop41ColorRGB
 90
        0
102
RTVSPost2010PropOp41
 70
     1
102
RTVSPost2010Prop42
 90
       50
102
RTVSPost2010PropOp42
 70
     1
102
RTVSPost2010Prop43
 90
        3
102
RTVSPost2010PropOp43
 70
     1
102
RTVSPost2010Prop44ColorIndex
 90
        5
102
RTVSPost2010Prop44ColorRGB
 90
      255
102
RTVSPost2010PropOp44
 70
     1
102
RTVSPost2010Prop45
280
     0
102
RTVSPost2010PropOp45
 70
     1
102
RTVSPost2010Prop46
 90
       50
102
RTVSPost2010PropOp46
 70
     1
102
RTVSPost2010Prop47
 90
       50
102
RTVSPost2010PropOp47
 70
     1
102
RTVSPost2010Prop48
 90
       50
102
RTVSPost2010PropOp48
 70
     1
102
RTVSPost2010Prop49
280
     0
102
RTVSPost2010PropOp49
 70
     1
102
RTVSPost2010Prop50
 90
       50
102
RTVSPost2010PropOp50
 70
     1
102
RTVSPost2010Prop51ColorIndex
 90
      256
102
RTVSPost2010Prop51ColorRGB
 90
-16777216
102
RTVSPost2010PropOp51
 70
     0
102
RTVSPost2010Prop52
140
1.0
102
RTVSPost2010PropOp52
 70
     0
102
RTVSPost2010Prop53
 90
        2
102
RTVSPost2010PropOp53
 70
     1
102
RTVSPost2010Prop54
  1
strokes_ogs.tif
102
RTVSPost2010PropOp54
 70
     1
102
RTVSPost2010Prop55
280
     0
102
RTVSPost2010PropOp55
 70
     1
102
RTVSPost2010Prop56
140
1.0
102
RTVSPost2010PropOp56
 70
     1
102
RTVSPost2010Prop57
140
1.0
102
RTVSPost2010PropOp57
 70
     1
  0
XRECORD
  5
187
102
{ACAD_REACTORS
330
186
102
}
330
186
100
AcDbXrecord
280
     1
102
RTVSPost2010Prop28
280
     0
102
RTVSPost2010PropOp28
 70
     1
102
RTVSPost2010Prop29
280
     1
102
RTVSPost2010PropOp29
 70
     1
102
RTVSPost2010Prop30
280
     1
102
RTVSPost2010PropOp30
 70
     1
102
RTVSPost2010Prop31
280
     0
102
RTVSPost2010PropOp31
 70
     1
102
RTVSPost2010Prop32
280
     0
102
RTVSPost2010PropOp32
 70
     1
102
RTVSPost2010Prop33
280
     0
102
RTVSPost2010PropOp33
 70
     1
102
RTVSPost2010Prop34
280
     0
102
RTVSPost2010PropOp34
 70
     1
102
RTVSPost2010Prop35
280
     0
102
RTVSPost2010PropOp35
 70
     1
102
RTVSPost2010Prop36
280
     0
102
RTVSPost2010PropOp36
 70
     1
102
RTVSPost2010Prop37
 90
       50
102
RTVSPost2010PropOp37
 70
     1
102
RTVSPost2010Prop38
140
0.0
102
RTVSPost2010PropOp38
 70
     1
102
RTVSPost2010Prop39
140
1.0
102
RTVSPost2010PropOp39
 70
     1
102
RTVSPost2010Prop40
 90
        0
102
RTVSPost2010PropOp40
 70
     1
102
RTVSPost2010Prop41ColorIndex
 90
       18
102
RTVSPost2010Prop41ColorRGB
 90
        0
102
RTVSPost2010PropOp41
 70
     1
102
RTVSPost2010Prop42
 90
       50
102
RTVSPost2010PropOp42
 70
     1
102
RTVSPost2010Prop43
 90
        3
102
RTVSPost2010PropOp43
 70
     1
102
RTVSPost2010Prop44ColorIndex
 90
        5
102
RTVSPost2010Prop44ColorRGB
 90
      255
102
RTVSPost2010PropOp44
 70
     1
102
RTVSPost2010Prop45
280
     0
102
RTVSPost2010PropOp45
 70
     1
102
RTVSPost2010Prop46
 90
       50
102
RTVSPost2010PropOp46
 70
     1
102
RTVSPost2010Prop47
 90
       50
102
RTVSPost2010PropOp47
 70
     1
102
RTVSPost2010Prop48
 90
       50
102
RTVSPost2010PropOp48
 70
     1
102
RTVSPost2010Prop49
280
     0
102
RTVSPost2010PropOp49
 70
     1
102
RTVSPost2010Prop50
 90
       50
102
RTVSPost2010PropOp50
 70
     1
102
RTVSPost2010Prop51ColorIndex
 90
      256
102
RTVSPost2010Prop51ColorRGB
 90
-16777216
102
RTVSPost2010PropOp51
 70
     0
102
RTVSPost2010Prop52
140
1.0
102
RTVSPost2010PropOp52
 70
     0
102
RTVSPost2010Prop53
 90
        2
102
RTVSPost2010PropOp53
 70
     1
102
RTVSPost2010Prop54
  1
strokes_ogs.tif
102
RTVSPost2010PropOp54
 70
     1
102
RTVSPost2010Prop55
280
     0
102
RTVSPost2010PropOp55
 70
     1
102
RTVSPost2010Prop56
140
1.0
102
RTVSPost2010PropOp56
 70
     1
102
RTVSPost2010Prop57
140
1.0
102
RTVSPost2010PropOp57
 70
     1
  0
XRECORD
  5
179
102
{ACAD_REACTORS
330
178
102
}
330
178
100
AcDbXrecord
280
     1
102
RTVSPost2010Prop28
280
     0
102
RTVSPost2010PropOp28
 70
     1
102
RTVSPost2010Prop29
280
     1
102
RTVSPost2010PropOp29
 70
     1
102
RTVSPost2010Prop30
280
     1
102
RTVSPost2010PropOp30
 70
     1
102
RTVSPost2010Prop31
280
     0
102
RTVSPost2010PropOp31
 70
     1
102
RTVSPost2010Prop32
280
     0
102
RTVSPost2010PropOp32
 70
     1
102
RTVSPost2010Prop33
280
     0
102
RTVSPost2010PropOp33
 70
     1
102
RTVSPost2010Prop34
280
     0
102
RTVSPost2010PropOp34
 70
     1
102
RTVSPost2010Prop35
280
     0
102
RTVSPost2010PropOp35
 70
     1
102
RTVSPost2010Prop36
280
     0
102
RTVSPost2010PropOp36
 70
     1
102
RTVSPost2010Prop37
 90
       50
102
RTVSPost2010PropOp37
 70
     1
102
RTVSPost2010Prop38
140
0.0
102
RTVSPost2010PropOp38
 70
     1
102
RTVSPost2010Prop39
140
1.0
102
RTVSPost2010PropOp39
 70
     1
102
RTVSPost2010Prop40
 90
        0
102
RTVSPost2010PropOp40
 70
     1
102
RTVSPost2010Prop41ColorIndex
 90
       18
102
RTVSPost2010Prop41ColorRGB
 90
        0
102
RTVSPost2010PropOp41
 70
     1
102
RTVSPost2010Prop42
 90
       50
102
RTVSPost2010PropOp42
 70
     1
102
RTVSPost2010Prop43
 90
        3
102
RTVSPost2010PropOp43
 70
     1
102
RTVSPost2010Prop44ColorIndex
 90
        5
102
RTVSPost2010Prop44ColorRGB
 90
      255
102
RTVSPost2010PropOp44
 70
     1
102
RTVSPost2010Prop45
280
     0
102
RTVSPost2010PropOp45
 70
     1
102
RTVSPost2010Prop46
 90
       50
102
RTVSPost2010PropOp46
 70
     1
102
RTVSPost2010Prop47
 90
       50
102
RTVSPost2010PropOp47
 70
     1
102
RTVSPost2010Prop48
 90
       50
102
RTVSPost2010PropOp48
 70
     1
102
RTVSPost2010Prop49
280
     0
102
RTVSPost2010PropOp49
 70
     1
102
RTVSPost2010Prop50
 90
       50
102
RTVSPost2010PropOp50
 70
     1
102
RTVSPost2010Prop51ColorIndex
 90
      256
102
RTVSPost2010Prop51ColorRGB
 90
-16777216
102
RTVSPost2010PropOp51
 70
     0
102
RTVSPost2010Prop52
140
1.0
102
RTVSPost2010PropOp52
 70
     0
102
RTVSPost2010Prop53
 90
        2
102
RTVSPost2010PropOp53
 70
     1
102
RTVSPost2010Prop54
  1
strokes_ogs.tif
102
RTVSPost2010PropOp54
 70
     1
102
RTVSPost2010Prop55
280
     0
102
RTVSPost2010PropOp55
 70
     1
102
RTVSPost2010Prop56
140
1.0
102
RTVSPost2010PropOp56
 70
     1
102
RTVSPost2010Prop57
140
1.0
102
RTVSPost2010PropOp57
 70
     1
  0
XRECORD
  5
17D
102
{ACAD_REACTORS
330
17C
102
}
330
17C
100
AcDbXrecord
280
     1
102
RTVSPost2010Prop28
280
     0
102
RTVSPost2010PropOp28
 70
     1
102
RTVSPost2010Prop29
280
     1
102
RTVSPost2010PropOp29
 70
     1
102
RTVSPost2010Prop30
280
     1
102
RTVSPost2010PropOp30
 70
     1
102
RTVSPost2010Prop31
280
     0
102
RTVSPost2010PropOp31
 70
     1
102
RTVSPost2010Prop32
280
     0
102
RTVSPost2010PropOp32
 70
     1
102
RTVSPost2010Prop33
280
     0
102
RTVSPost2010PropOp33
 70
     1
102
RTVSPost2010Prop34
280
     0
102
RTVSPost2010PropOp34
 70
     1
102
RTVSPost2010Prop35
280
     0
102
RTVSPost2010PropOp35
 70
     1
102
RTVSPost2010Prop36
280
     0
102
RTVSPost2010PropOp36
 70
     1
102
RTVSPost2010Prop37
 90
       50
102
RTVSPost2010PropOp37
 70
     1
102
RTVSPost2010Prop38
140
0.0
102
RTVSPost2010PropOp38
 70
     1
102
RTVSPost2010Prop39
140
1.0
102
RTVSPost2010PropOp39
 70
     1
102
RTVSPost2010Prop40
 90
        0
102
RTVSPost2010PropOp40
 70
     1
102
RTVSPost2010Prop41ColorIndex
 90
       18
102
RTVSPost2010Prop41ColorRGB
 90
        0
102
RTVSPost2010PropOp41
 70
     1
102
RTVSPost2010Prop42
 90
       50
102
RTVSPost2010PropOp42
 70
     1
102
RTVSPost2010Prop43
 90
        3
102
RTVSPost2010PropOp43
 70
     1
102
RTVSPost2010Prop44ColorIndex
 90
        5
102
RTVSPost2010Prop44ColorRGB
 90
      255
102
RTVSPost2010PropOp44
 70
     1
102
RTVSPost2010Prop45
280
     0
102
RTVSPost2010PropOp45
 70
     1
102
RTVSPost2010Prop46
 90
       50
102
RTVSPost2010PropOp46
 70
     1
102
RTVSPost2010Prop47
 90
       50
102
RTVSPost2010PropOp47
 70
     1
102
RTVSPost2010Prop48
 90
       50
102
RTVSPost2010PropOp48
 70
     1
102
RTVSPost2010Prop49
280
     0
102
RTVSPost2010PropOp49
 70
     1
102
RTVSPost2010Prop50
 90
       50
102
RTVSPost2010PropOp50
 70
     1
102
RTVSPost2010Prop51ColorIndex
 90
      256
102
RTVSPost2010Prop51ColorRGB
 90
-16777216
102
RTVSPost2010PropOp51
 70
     0
102
RTVSPost2010Prop52
140
1.0
102
RTVSPost2010PropOp52
 70
     0
102
RTVSPost2010Prop53
 90
        2
102
RTVSPost2010PropOp53
 70
     1
102
RTVSPost2010Prop54
  1
strokes_ogs.tif
102
RTVSPost2010PropOp54
 70
     1
102
RTVSPost2010Prop55
280
     0
102
RTVSPost2010PropOp55
 70
     1
102
RTVSPost2010Prop56
140
1.0
102
RTVSPost2010PropOp56
 70
     1
102
RTVSPost2010Prop57
140
1.0
102
RTVSPost2010PropOp57
 70
     1
  0
XRECORD
  5
197
102
{ACAD_REACTORS
330
196
102
}
330
196
100
AcDbXrecord
280
     1
102
RTVSPost2010Prop28
280
     0
102
RTVSPost2010PropOp28
 70
     0
102
RTVSPost2010Prop29
280
     1
102
RTVSPost2010PropOp29
 70
     0
102
RTVSPost2010Prop30
280
     1
102
RTVSPost2010PropOp30
 70
     0
102
RTVSPost2010Prop31
280
     0
102
RTVSPost2010PropOp31
 70
     0
102
RTVSPost2010Prop32
280
     0
102
RTVSPost2010PropOp32
 70
     0
102
RTVSPost2010Prop33
280
     0
102
RTVSPost2010PropOp33
 70
     0
102
RTVSPost2010Prop34
280
     0
102
RTVSPost2010PropOp34
 70
     0
102
RTVSPost2010Prop35
280
     0
102
RTVSPost2010PropOp35
 70
     0
102
RTVSPost2010Prop36
280
     0
102
RTVSPost2010PropOp36
 70
     0
102
RTVSPost2010Prop37
 90
       50
102
RTVSPost2010PropOp37
 70
     0
102
RTVSPost2010Prop38
140
0.0
102
RTVSPost2010PropOp38
 70
     0
102
RTVSPost2010Prop39
140
1.0
102
RTVSPost2010PropOp39
 70
     0
102
RTVSPost2010Prop40
 90
        0
102
RTVSPost2010PropOp40
 70
     0
102
RTVSPost2010Prop41ColorIndex
 90
       18
102
RTVSPost2010Prop41ColorRGB
 90
        0
102
RTVSPost2010PropOp41
 70
     0
102
RTVSPost2010Prop42
 90
       50
102
RTVSPost2010PropOp42
 70
     0
102
RTVSPost2010Prop43
 90
        3
102
RTVSPost2010PropOp43
 70
     0
102
RTVSPost2010Prop44ColorIndex
 90
        5
102
RTVSPost2010Prop44ColorRGB
 90
      255
102
RTVSPost2010PropOp44
 70
     0
102
RTVSPost2010Prop45
280
     0
102
RTVSPost2010PropOp45
 70
     0
102
RTVSPost2010Prop46
 90
       50
102
RTVSPost2010PropOp46
 70
     0
102
RTVSPost2010Prop47
 90
       50
102
RTVSPost2010PropOp47
 70
     0
102
RTVSPost2010Prop48
 90
       50
102
RTVSPost2010PropOp48
 70
     0
102
RTVSPost2010Prop49
280
     0
102
RTVSPost2010PropOp49
 70
     0
102
RTVSPost2010Prop50
 90
       50
102
RTVSPost2010PropOp50
 70
     0
102
RTVSPost2010Prop51ColorIndex
 90
      256
102
RTVSPost2010Prop51ColorRGB
 90
-16777216
102
RTVSPost2010PropOp51
 70
     0
102
RTVSPost2010Prop52
140
1.0
102
RTVSPost2010PropOp52
 70
     0
102
RTVSPost2010Prop53
 90
        2
102
RTVSPost2010PropOp53
 70
     0
102
RTVSPost2010Prop54
  1
strokes_ogs.tif
102
RTVSPost2010PropOp54
 70
     0
102
RTVSPost2010Prop55
280
     0
102
RTVSPost2010PropOp55
 70
     0
102
RTVSPost2010Prop56
140
1.0
102
RTVSPost2010PropOp56
 70
     0
102
RTVSPost2010Prop57
140
1.0
102
RTVSPost2010PropOp57
 70
     0
  0
XRECORD
  5
185
102
{ACAD_REACTORS
330
184
102
}
330
184
100
AcDbXrecord
280
     1
102
RTVSPost2010Prop28
280
     0
102
RTVSPost2010PropOp28
 70
     1
102
RTVSPost2010Prop29
280
     1
102
RTVSPost2010PropOp29
 70
     1
102
RTVSPost2010Prop30
280
     1
102
RTVSPost2010PropOp30
 70
     1
102
RTVSPost2010Prop31
280
     0
102
RTVSPost2010PropOp31
 70
     1
102
RTVSPost2010Prop32
280
     0
102
RTVSPost2010PropOp32
 70
     1
102
RTVSPost2010Prop33
280
     0
102
RTVSPost2010PropOp33
 70
     1
102
RTVSPost2010Prop34
280
     0
102
RTVSPost2010PropOp34
 70
     1
102
RTVSPost2010Prop35
280
     0
102
RTVSPost2010PropOp35
 70
     1
102
RTVSPost2010Prop36
280
     0
102
RTVSPost2010PropOp36
 70
     1
102
RTVSPost2010Prop37
 90
       50
102
RTVSPost2010PropOp37
 70
     1
102
RTVSPost2010Prop38
140
0.0
102
RTVSPost2010PropOp38
 70
     1
102
RTVSPost2010Prop39
140
1.0
102
RTVSPost2010PropOp39
 70
     1
102
RTVSPost2010Prop40
 90
        0
102
RTVSPost2010PropOp40
 70
     1
102
RTVSPost2010Prop41ColorIndex
 90
       18
102
RTVSPost2010Prop41ColorRGB
 90
        0
102
RTVSPost2010PropOp41
 70
     1
102
RTVSPost2010Prop42
 90
       50
102
RTVSPost2010PropOp42
 70
     1
102
RTVSPost2010Prop43
 90
        3
102
RTVSPost2010PropOp43
 70
     1
102
RTVSPost2010Prop44ColorIndex
 90
        5
102
RTVSPost2010Prop44ColorRGB
 90
      255
102
RTVSPost2010PropOp44
 70
     1
102
RTVSPost2010Prop45
280
     0
102
RTVSPost2010PropOp45
 70
     1
102
RTVSPost2010Prop46
 90
       50
102
RTVSPost2010PropOp46
 70
     1
102
RTVSPost2010Prop47
 90
       50
102
RTVSPost2010PropOp47
 70
     1
102
RTVSPost2010Prop48
 90
       50
102
RTVSPost2010PropOp48
 70
     1
102
RTVSPost2010Prop49
280
     0
102
RTVSPost2010PropOp49
 70
     1
102
RTVSPost2010Prop50
 90
       50
102
RTVSPost2010PropOp50
 70
     1
102
RTVSPost2010Prop51ColorIndex
 90
      256
102
RTVSPost2010Prop51ColorRGB
 90
-16777216
102
RTVSPost2010PropOp51
 70
     0
102
RTVSPost2010Prop52
140
1.0
102
RTVSPost2010PropOp52
 70
     0
102
RTVSPost2010Prop53
 90
        2
102
RTVSPost2010PropOp53
 70
     1
102
RTVSPost2010Prop54
  1
strokes_ogs.tif
102
RTVSPost2010PropOp54
 70
     1
102
RTVSPost2010Prop55
280
     0
102
RTVSPost2010PropOp55
 70
     1
102
RTVSPost2010Prop56
140
1.0
102
RTVSPost2010PropOp56
 70
     1
102
RTVSPost2010Prop57
140
1.0
102
RTVSPost2010PropOp57
 70
     1
  0
XRECORD
  5
169
102
{ACAD_REACTORS
330
168
102
}
330
168
100
AcDbXrecord
280
     1
102
RTVSPost2010Prop28
280
     0
102
RTVSPost2010PropOp28
 70
     1
102
RTVSPost2010Prop29
280
     1
102
RTVSPost2010PropOp29
 70
     1
102
RTVSPost2010Prop30
280
     1
102
RTVSPost2010PropOp30
 70
     1
102
RTVSPost2010Prop31
280
     0
102
RTVSPost2010PropOp31
 70
     1
102
RTVSPost2010Prop32
280
     0
102
RTVSPost2010PropOp32
 70
     1
102
RTVSPost2010Prop33
280
     0
102
RTVSPost2010PropOp33
 70
     1
102
RTVSPost2010Prop34
280
     0
102
RTVSPost2010PropOp34
 70
     1
102
RTVSPost2010Prop35
280
     0
102
RTVSPost2010PropOp35
 70
     1
102
RTVSPost2010Prop36
280
     0
102
RTVSPost2010PropOp36
 70
     1
102
RTVSPost2010Prop37
 90
       50
102
RTVSPost2010PropOp37
 70
     1
102
RTVSPost2010Prop38
140
0.0
102
RTVSPost2010PropOp38
 70
     1
102
RTVSPost2010Prop39
140
1.0
102
RTVSPost2010PropOp39
 70
     1
102
RTVSPost2010Prop40
 90
        0
102
RTVSPost2010PropOp40
 70
     1
102
RTVSPost2010Prop41ColorIndex
 90
       18
102
RTVSPost2010Prop41ColorRGB
 90
        0
102
RTVSPost2010PropOp41
 70
     1
102
RTVSPost2010Prop42
 90
       50
102
RTVSPost2010PropOp42
 70
     1
102
RTVSPost2010Prop43
 90
        3
102
RTVSPost2010PropOp43
 70
     1
102
RTVSPost2010Prop44ColorIndex
 90
        5
102
RTVSPost2010Prop44ColorRGB
 90
      255
102
RTVSPost2010PropOp44
 70
     1
102
RTVSPost2010Prop45
280
     0
102
RTVSPost2010PropOp45
 70
     1
102
RTVSPost2010Prop46
 90
       50
102
RTVSPost2010PropOp46
 70
     1
102
RTVSPost2010Prop47
 90
       50
102
RTVSPost2010PropOp47
 70
     1
102
RTVSPost2010Prop48
 90
       50
102
RTVSPost2010PropOp48
 70
     1
102
RTVSPost2010Prop49
280
     0
102
RTVSPost2010PropOp49
 70
     1
102
RTVSPost2010Prop50
 90
       50
102
RTVSPost2010PropOp50
 70
     1
102
RTVSPost2010Prop51ColorIndex
 90
      256
102
RTVSPost2010Prop51ColorRGB
 90
-16777216
102
RTVSPost2010PropOp51
 70
     0
102
RTVSPost2010Prop52
140
1.0
102
RTVSPost2010PropOp52
 70
     0
102
RTVSPost2010Prop53
 90
        2
102
RTVSPost2010PropOp53
 70
     1
102
RTVSPost2010Prop54
  1
strokes_ogs.tif
102
RTVSPost2010PropOp54
 70
     1
102
RTVSPost2010Prop55
280
     0
102
RTVSPost2010PropOp55
 70
     1
102
RTVSPost2010Prop56
140
1.0
102
RTVSPost2010PropOp56
 70
     1
102
RTVSPost2010Prop57
140
1.0
102
RTVSPost2010PropOp57
 70
     1
  0
XRECORD
  5
16B
102
{ACAD_REACTORS
330
16A
102
}
330
16A
100
AcDbXrecord
280
     1
102
RTVSPost2010Prop28
280
     0
102
RTVSPost2010PropOp28
 70
     1
102
RTVSPost2010Prop29
280
     1
102
RTVSPost2010PropOp29
 70
     1
102
RTVSPost2010Prop30
280
     1
102
RTVSPost2010PropOp30
 70
     1
102
RTVSPost2010Prop31
280
     0
102
RTVSPost2010PropOp31
 70
     1
102
RTVSPost2010Prop32
280
     0
102
RTVSPost2010PropOp32
 70
     1
102
RTVSPost2010Prop33
280
     0
102
RTVSPost2010PropOp33
 70
     1
102
RTVSPost2010Prop34
280
     0
102
RTVSPost2010PropOp34
 70
     1
102
RTVSPost2010Prop35
280
     0
102
RTVSPost2010PropOp35
 70
     1
102
RTVSPost2010Prop36
280
     0
102
RTVSPost2010PropOp36
 70
     1
102
RTVSPost2010Prop37
 90
       50
102
RTVSPost2010PropOp37
 70
     1
102
RTVSPost2010Prop38
140
0.0
102
RTVSPost2010PropOp38
 70
     1
102
RTVSPost2010Prop39
140
1.0
102
RTVSPost2010PropOp39
 70
     1
102
RTVSPost2010Prop40
 90
        0
102
RTVSPost2010PropOp40
 70
     1
102
RTVSPost2010Prop41ColorIndex
 90
       18
102
RTVSPost2010Prop41ColorRGB
 90
        0
102
RTVSPost2010PropOp41
 70
     1
102
RTVSPost2010Prop42
 90
       50
102
RTVSPost2010PropOp42
 70
     1
102
RTVSPost2010Prop43
 90
        3
102
RTVSPost2010PropOp43
 70
     1
102
RTVSPost2010Prop44ColorIndex
 90
        5
102
RTVSPost2010Prop44ColorRGB
 90
      255
102
RTVSPost2010PropOp44
 70
     1
102
RTVSPost2010Prop45
280
     0
102
RTVSPost2010PropOp45
 70
     1
102
RTVSPost2010Prop46
 90
       50
102
RTVSPost2010PropOp46
 70
     1
102
RTVSPost2010Prop47
 90
       50
102
RTVSPost2010PropOp47
 70
     1
102
RTVSPost2010Prop48
 90
       50
102
RTVSPost2010PropOp48
 70
     1
102
RTVSPost2010Prop49
280
     0
102
RTVSPost2010PropOp49
 70
     1
102
RTVSPost2010Prop50
 90
       50
102
RTVSPost2010PropOp50
 70
     1
102
RTVSPost2010Prop51ColorIndex
 90
      256
102
RTVSPost2010Prop51ColorRGB
 90
-16777216
102
RTVSPost2010PropOp51
 70
     0
102
RTVSPost2010Prop52
140
1.0
102
RTVSPost2010PropOp52
 70
     0
102
RTVSPost2010Prop53
 90
        2
102
RTVSPost2010PropOp53
 70
     1
102
RTVSPost2010Prop54
  1
strokes_ogs.tif
102
RTVSPost2010PropOp54
 70
     1
102
RTVSPost2010Prop55
280
     0
102
RTVSPost2010PropOp55
 70
     1
102
RTVSPost2010Prop56
140
1.0
102
RTVSPost2010PropOp56
 70
     1
102
RTVSPost2010Prop57
140
1.0
102
RTVSPost2010PropOp57
 70
     1
  0
XRECORD
  5
16D
102
{ACAD_REACTORS
330
16C
102
}
330
16C
100
AcDbXrecord
280
     1
102
RTVSPost2010Prop28
280
     0
102
RTVSPost2010PropOp28
 70
     1
102
RTVSPost2010Prop29
280
     1
102
RTVSPost2010PropOp29
 70
     1
102
RTVSPost2010Prop30
280
     1
102
RTVSPost2010PropOp30
 70
     1
102
RTVSPost2010Prop31
280
     0
102
RTVSPost2010PropOp31
 70
     1
102
RTVSPost2010Prop32
280
     0
102
RTVSPost2010PropOp32
 70
     1
102
RTVSPost2010Prop33
280
     0
102
RTVSPost2010PropOp33
 70
     1
102
RTVSPost2010Prop34
280
     0
102
RTVSPost2010PropOp34
 70
     1
102
RTVSPost2010Prop35
280
     0
102
RTVSPost2010PropOp35
 70
     1
102
RTVSPost2010Prop36
280
     0
102
RTVSPost2010PropOp36
 70
     1
102
RTVSPost2010Prop37
 90
       50
102
RTVSPost2010PropOp37
 70
     1
102
RTVSPost2010Prop38
140
0.0
102
RTVSPost2010PropOp38
 70
     1
102
RTVSPost2010Prop39
140
1.0
102
RTVSPost2010PropOp39
 70
     1
102
RTVSPost2010Prop40
 90
        0
102
RTVSPost2010PropOp40
 70
     1
102
RTVSPost2010Prop41ColorIndex
 90
       18
102
RTVSPost2010Prop41ColorRGB
 90
        0
102
RTVSPost2010PropOp41
 70
     1
102
RTVSPost2010Prop42
 90
       50
102
RTVSPost2010PropOp42
 70
     1
102
RTVSPost2010Prop43
 90
        3
102
RTVSPost2010PropOp43
 70
     1
102
RTVSPost2010Prop44ColorIndex
 90
        5
102
RTVSPost2010Prop44ColorRGB
 90
      255
102
RTVSPost2010PropOp44
 70
     1
102
RTVSPost2010Prop45
280
     0
102
RTVSPost2010PropOp45
 70
     1
102
RTVSPost2010Prop46
 90
       50
102
RTVSPost2010PropOp46
 70
     1
102
RTVSPost2010Prop47
 90
       50
102
RTVSPost2010PropOp47
 70
     1
102
RTVSPost2010Prop48
 90
       50
102
RTVSPost2010PropOp48
 70
     1
102
RTVSPost2010Prop49
280
     0
102
RTVSPost2010PropOp49
 70
     1
102
RTVSPost2010Prop50
 90
       50
102
RTVSPost2010PropOp50
 70
     1
102
RTVSPost2010Prop51ColorIndex
 90
      256
102
RTVSPost2010Prop51ColorRGB
 90
-16777216
102
RTVSPost2010PropOp51
 70
     0
102
RTVSPost2010Prop52
140
1.0
102
RTVSPost2010PropOp52
 70
     0
102
RTVSPost2010Prop53
 90
        2
102
RTVSPost2010PropOp53
 70
     1
102
RTVSPost2010Prop54
  1
strokes_ogs.tif
102
RTVSPost2010PropOp54
 70
     1
102
RTVSPost2010Prop55
280
     0
102
RTVSPost2010PropOp55
 70
     1
102
RTVSPost2010Prop56
140
1.0
102
RTVSPost2010PropOp56
 70
     1
102
RTVSPost2010Prop57
140
1.0
102
RTVSPost2010PropOp57
 70
     1
  0
XRECORD
  5
16F
102
{ACAD_REACTORS
330
16E
102
}
330
16E
100
AcDbXrecord
280
     1
102
RTVSPost2010Prop28
280
     0
102
RTVSPost2010PropOp28
 70
     1
102
RTVSPost2010Prop29
280
     1
102
RTVSPost2010PropOp29
 70
     1
102
RTVSPost2010Prop30
280
     1
102
RTVSPost2010PropOp30
 70
     1
102
RTVSPost2010Prop31
280
     0
102
RTVSPost2010PropOp31
 70
     1
102
RTVSPost2010Prop32
280
     0
102
RTVSPost2010PropOp32
 70
     1
102
RTVSPost2010Prop33
280
     0
102
RTVSPost2010PropOp33
 70
     1
102
RTVSPost2010Prop34
280
     0
102
RTVSPost2010PropOp34
 70
     1
102
RTVSPost2010Prop35
280
     0
102
RTVSPost2010PropOp35
 70
     1
102
RTVSPost2010Prop36
280
     0
102
RTVSPost2010PropOp36
 70
     1
102
RTVSPost2010Prop37
 90
       50
102
RTVSPost2010PropOp37
 70
     1
102
RTVSPost2010Prop38
140
0.0
102
RTVSPost2010PropOp38
 70
     1
102
RTVSPost2010Prop39
140
1.0
102
RTVSPost2010PropOp39
 70
     1
102
RTVSPost2010Prop40
 90
        0
102
RTVSPost2010PropOp40
 70
     1
102
RTVSPost2010Prop41ColorIndex
 90
       18
102
RTVSPost2010Prop41ColorRGB
 90
        0
102
RTVSPost2010PropOp41
 70
     1
102
RTVSPost2010Prop42
 90
       50
102
RTVSPost2010PropOp42
 70
     1
102
RTVSPost2010Prop43
 90
        3
102
RTVSPost2010PropOp43
 70
     1
102
RTVSPost2010Prop44ColorIndex
 90
        5
102
RTVSPost2010Prop44ColorRGB
 90
      255
102
RTVSPost2010PropOp44
 70
     1
102
RTVSPost2010Prop45
280
     0
102
RTVSPost2010PropOp45
 70
     1
102
RTVSPost2010Prop46
 90
       50
102
RTVSPost2010PropOp46
 70
     1
102
RTVSPost2010Prop47
 90
       50
102
RTVSPost2010PropOp47
 70
     1
102
RTVSPost2010Prop48
 90
       50
102
RTVSPost2010PropOp48
 70
     1
102
RTVSPost2010Prop49
280
     0
102
RTVSPost2010PropOp49
 70
     1
102
RTVSPost2010Prop50
 90
       50
102
RTVSPost2010PropOp50
 70
     1
102
RTVSPost2010Prop51ColorIndex
 90
      256
102
RTVSPost2010Prop51ColorRGB
 90
-16777216
102
RTVSPost2010PropOp51
 70
     0
102
RTVSPost2010Prop52
140
1.0
102
RTVSPost2010PropOp52
 70
     0
102
RTVSPost2010Prop53
 90
        2
102
RTVSPost2010PropOp53
 70
     1
102
RTVSPost2010Prop54
  1
strokes_ogs.tif
102
RTVSPost2010PropOp54
 70
     1
102
RTVSPost2010Prop55
280
     0
102
RTVSPost2010PropOp55
 70
     1
102
RTVSPost2010Prop56
140
1.0
102
RTVSPost2010PropOp56
 70
     1
102
RTVSPost2010Prop57
140
1.0
102
RTVSPost2010PropOp57
 70
     1
  0
XRECORD
  5
177
102
{ACAD_REACTORS
330
176
102
}
330
176
100
AcDbXrecord
280
     1
102
RTVSPost2010Prop28
280
     0
102
RTVSPost2010PropOp28
 70
     1
102
RTVSPost2010Prop29
280
     1
102
RTVSPost2010PropOp29
 70
     1
102
RTVSPost2010Prop30
280
     1
102
RTVSPost2010PropOp30
 70
     1
102
RTVSPost2010Prop31
280
     0
102
RTVSPost2010PropOp31
 70
     1
102
RTVSPost2010Prop32
280
     0
102
RTVSPost2010PropOp32
 70
     1
102
RTVSPost2010Prop33
280
     0
102
RTVSPost2010PropOp33
 70
     1
102
RTVSPost2010Prop34
280
     0
102
RTVSPost2010PropOp34
 70
     1
102
RTVSPost2010Prop35
280
     0
102
RTVSPost2010PropOp35
 70
     1
102
RTVSPost2010Prop36
280
     0
102
RTVSPost2010PropOp36
 70
     1
102
RTVSPost2010Prop37
 90
       50
102
RTVSPost2010PropOp37
 70
     1
102
RTVSPost2010Prop38
140
0.0
102
RTVSPost2010PropOp38
 70
     1
102
RTVSPost2010Prop39
140
1.0
102
RTVSPost2010PropOp39
 70
     1
102
RTVSPost2010Prop40
 90
        0
102
RTVSPost2010PropOp40
 70
     1
102
RTVSPost2010Prop41ColorIndex
 90
       18
102
RTVSPost2010Prop41ColorRGB
 90
        0
102
RTVSPost2010PropOp41
 70
     1
102
RTVSPost2010Prop42
 90
       50
102
RTVSPost2010PropOp42
 70
     1
102
RTVSPost2010Prop43
 90
        3
102
RTVSPost2010PropOp43
 70
     1
102
RTVSPost2010Prop44ColorIndex
 90
        5
102
RTVSPost2010Prop44ColorRGB
 90
      255
102
RTVSPost2010PropOp44
 70
     1
102
RTVSPost2010Prop45
280
     0
102
RTVSPost2010PropOp45
 70
     1
102
RTVSPost2010Prop46
 90
       50
102
RTVSPost2010PropOp46
 70
     1
102
RTVSPost2010Prop47
 90
       50
102
RTVSPost2010PropOp47
 70
     1
102
RTVSPost2010Prop48
 90
       50
102
RTVSPost2010PropOp48
 70
     1
102
RTVSPost2010Prop49
280
     0
102
RTVSPost2010PropOp49
 70
     1
102
RTVSPost2010Prop50
 90
       50
102
RTVSPost2010PropOp50
 70
     1
102
RTVSPost2010Prop51ColorIndex
 90
      256
102
RTVSPost2010Prop51ColorRGB
 90
-16777216
102
RTVSPost2010PropOp51
 70
     0
102
RTVSPost2010Prop52
140
1.0
102
RTVSPost2010PropOp52
 70
     0
102
RTVSPost2010Prop53
 90
        2
102
RTVSPost2010PropOp53
 70
     1
102
RTVSPost2010Prop54
  1
strokes_ogs.tif
102
RTVSPost2010PropOp54
 70
     1
102
RTVSPost2010Prop55
280
     0
102
RTVSPost2010PropOp55
 70
     1
102
RTVSPost2010Prop56
140
1.0
102
RTVSPost2010PropOp56
 70
     1
102
RTVSPost2010Prop57
140
1.0
102
RTVSPost2010PropOp57
 70
     1
  0
XRECORD
  5
193
102
{ACAD_REACTORS
330
192
102
}
330
192
100
AcDbXrecord
280
     1
102
RTVSPost2010Prop28
280
     0
102
RTVSPost2010PropOp28
 70
     0
102
RTVSPost2010Prop29
280
     1
102
RTVSPost2010PropOp29
 70
     0
102
RTVSPost2010Prop30
280
     1
102
RTVSPost2010PropOp30
 70
     0
102
RTVSPost2010Prop31
280
     0
102
RTVSPost2010PropOp31
 70
     0
102
RTVSPost2010Prop32
280
     0
102
RTVSPost2010PropOp32
 70
     0
102
RTVSPost2010Prop33
280
     0
102
RTVSPost2010PropOp33
 70
     0
102
RTVSPost2010Prop34
280
     0
102
RTVSPost2010PropOp34
 70
     0
102
RTVSPost2010Prop35
280
     0
102
RTVSPost2010PropOp35
 70
     0
102
RTVSPost2010Prop36
280
     0
102
RTVSPost2010PropOp36
 70
     0
102
RTVSPost2010Prop37
 90
       50
102
RTVSPost2010PropOp37
 70
     0
102
RTVSPost2010Prop38
140
0.0
102
RTVSPost2010PropOp38
 70
     0
102
RTVSPost2010Prop39
140
1.0
102
RTVSPost2010PropOp39
 70
     0
102
RTVSPost2010Prop40
 90
        0
102
RTVSPost2010PropOp40
 70
     0
102
RTVSPost2010Prop41ColorIndex
 90
       18
102
RTVSPost2010Prop41ColorRGB
 90
        0
102
RTVSPost2010PropOp41
 70
     0
102
RTVSPost2010Prop42
 90
       50
102
RTVSPost2010PropOp42
 70
     0
102
RTVSPost2010Prop43
 90
        3
102
RTVSPost2010PropOp43
 70
     0
102
RTVSPost2010Prop44ColorIndex
 90
        5
102
RTVSPost2010Prop44ColorRGB
 90
      255
102
RTVSPost2010PropOp44
 70
     0
102
RTVSPost2010Prop45
280
     0
102
RTVSPost2010PropOp45
 70
     0
102
RTVSPost2010Prop46
 90
       50
102
RTVSPost2010PropOp46
 70
     0
102
RTVSPost2010Prop47
 90
       50
102
RTVSPost2010PropOp47
 70
     0
102
RTVSPost2010Prop48
 90
       50
102
RTVSPost2010PropOp48
 70
     0
102
RTVSPost2010Prop49
280
     0
102
RTVSPost2010PropOp49
 70
     0
102
RTVSPost2010Prop50
 90
       50
102
RTVSPost2010PropOp50
 70
     0
102
RTVSPost2010Prop51ColorIndex
 90
      256
102
RTVSPost2010Prop51ColorRGB
 90
-16777216
102
RTVSPost2010PropOp51
 70
     0
102
RTVSPost2010Prop52
140
1.0
102
RTVSPost2010PropOp52
 70
     0
102
RTVSPost2010Prop53
 90
        2
102
RTVSPost2010PropOp53
 70
     0
102
RTVSPost2010Prop54
  1
strokes_ogs.tif
102
RTVSPost2010PropOp54
 70
     0
102
RTVSPost2010Prop55
280
     0
102
RTVSPost2010PropOp55
 70
     0
102
RTVSPost2010Prop56
140
1.0
102
RTVSPost2010PropOp56
 70
     0
102
RTVSPost2010Prop57
140
1.0
102
RTVSPost2010PropOp57
 70
     0
  0
XRECORD
  5
183
102
{ACAD_REACTORS
330
182
102
}
330
182
100
AcDbXrecord
280
     1
102
RTVSPost2010Prop28
280
     0
102
RTVSPost2010PropOp28
 70
     1
102
RTVSPost2010Prop29
280
     1
102
RTVSPost2010PropOp29
 70
     1
102
RTVSPost2010Prop30
280
     1
102
RTVSPost2010PropOp30
 70
     1
102
RTVSPost2010Prop31
280
     0
102
RTVSPost2010PropOp31
 70
     1
102
RTVSPost2010Prop32
280
     0
102
RTVSPost2010PropOp32
 70
     1
102
RTVSPost2010Prop33
280
     0
102
RTVSPost2010PropOp33
 70
     1
102
RTVSPost2010Prop34
280
     0
102
RTVSPost2010PropOp34
 70
     1
102
RTVSPost2010Prop35
280
     0
102
RTVSPost2010PropOp35
 70
     1
102
RTVSPost2010Prop36
280
     0
102
RTVSPost2010PropOp36
 70
     1
102
RTVSPost2010Prop37
 90
       50
102
RTVSPost2010PropOp37
 70
     1
102
RTVSPost2010Prop38
140
0.0
102
RTVSPost2010PropOp38
 70
     1
102
RTVSPost2010Prop39
140
1.0
102
RTVSPost2010PropOp39
 70
     1
102
RTVSPost2010Prop40
 90
        0
102
RTVSPost2010PropOp40
 70
     1
102
RTVSPost2010Prop41ColorIndex
 90
       18
102
RTVSPost2010Prop41ColorRGB
 90
        0
102
RTVSPost2010PropOp41
 70
     1
102
RTVSPost2010Prop42
 90
       50
102
RTVSPost2010PropOp42
 70
     1
102
RTVSPost2010Prop43
 90
        3
102
RTVSPost2010PropOp43
 70
     1
102
RTVSPost2010Prop44ColorIndex
 90
        5
102
RTVSPost2010Prop44ColorRGB
 90
      255
102
RTVSPost2010PropOp44
 70
     1
102
RTVSPost2010Prop45
280
     0
102
RTVSPost2010PropOp45
 70
     1
102
RTVSPost2010Prop46
 90
       50
102
RTVSPost2010PropOp46
 70
     1
102
RTVSPost2010Prop47
 90
       50
102
RTVSPost2010PropOp47
 70
     1
102
RTVSPost2010Prop48
 90
       50
102
RTVSPost2010PropOp48
 70
     1
102
RTVSPost2010Prop49
280
     0
102
RTVSPost2010PropOp49
 70
     1
102
RTVSPost2010Prop50
 90
       50
102
RTVSPost2010PropOp50
 70
     1
102
RTVSPost2010Prop51ColorIndex
 90
      256
102
RTVSPost2010Prop51ColorRGB
 90
-16777216
102
RTVSPost2010PropOp51
 70
     0
102
RTVSPost2010Prop52
140
1.0
102
RTVSPost2010PropOp52
 70
     0
102
RTVSPost2010Prop53
 90
        2
102
RTVSPost2010PropOp53
 70
     1
102
RTVSPost2010Prop54
  1
strokes_ogs.tif
102
RTVSPost2010PropOp54
 70
     1
102
RTVSPost2010Prop55
280
     0
102
RTVSPost2010PropOp55
 70
     1
102
RTVSPost2010Prop56
140
1.0
102
RTVSPost2010PropOp56
 70
     1
102
RTVSPost2010Prop57
140
1.0
102
RTVSPost2010PropOp57
 70
     1
  0
XRECORD
  5
195
102
{ACAD_REACTORS
330
194
102
}
330
194
100
AcDbXrecord
280
     1
102
RTVSPost2010Prop28
280
     0
102
RTVSPost2010PropOp28
 70
     0
102
RTVSPost2010Prop29
280
     1
102
RTVSPost2010PropOp29
 70
     0
102
RTVSPost2010Prop30
280
     1
102
RTVSPost2010PropOp30
 70
     0
102
RTVSPost2010Prop31
280
     0
102
RTVSPost2010PropOp31
 70
     0
102
RTVSPost2010Prop32
280
     0
102
RTVSPost2010PropOp32
 70
     0
102
RTVSPost2010Prop33
280
     0
102
RTVSPost2010PropOp33
 70
     0
102
RTVSPost2010Prop34
280
     0
102
RTVSPost2010PropOp34
 70
     0
102
RTVSPost2010Prop35
280
     0
102
RTVSPost2010PropOp35
 70
     0
102
RTVSPost2010Prop36
280
     0
102
RTVSPost2010PropOp36
 70
     0
102
RTVSPost2010Prop37
 90
       50
102
RTVSPost2010PropOp37
 70
     0
102
RTVSPost2010Prop38
140
0.0
102
RTVSPost2010PropOp38
 70
     0
102
RTVSPost2010Prop39
140
1.0
102
RTVSPost2010PropOp39
 70
     0
102
RTVSPost2010Prop40
 90
        0
102
RTVSPost2010PropOp40
 70
     0
102
RTVSPost2010Prop41ColorIndex
 90
       18
102
RTVSPost2010Prop41ColorRGB
 90
        0
102
RTVSPost2010PropOp41
 70
     0
102
RTVSPost2010Prop42
 90
       50
102
RTVSPost2010PropOp42
 70
     0
102
RTVSPost2010Prop43
 90
        3
102
RTVSPost2010PropOp43
 70
     0
102
RTVSPost2010Prop44ColorIndex
 90
        5
102
RTVSPost2010Prop44ColorRGB
 90
      255
102
RTVSPost2010PropOp44
 70
     0
102
RTVSPost2010Prop45
280
     0
102
RTVSPost2010PropOp45
 70
     0
102
RTVSPost2010Prop46
 90
       50
102
RTVSPost2010PropOp46
 70
     0
102
RTVSPost2010Prop47
 90
       50
102
RTVSPost2010PropOp47
 70
     0
102
RTVSPost2010Prop48
 90
       50
102
RTVSPost2010PropOp48
 70
     0
102
RTVSPost2010Prop49
280
     0
102
RTVSPost2010PropOp49
 70
     0
102
RTVSPost2010Prop50
 90
       50
102
RTVSPost2010PropOp50
 70
     0
102
RTVSPost2010Prop51ColorIndex
 90
      256
102
RTVSPost2010Prop51ColorRGB
 90
-16777216
102
RTVSPost2010PropOp51
 70
     0
102
RTVSPost2010Prop52
140
1.0
102
RTVSPost2010PropOp52
 70
     0
102
RTVSPost2010Prop53
 90
        2
102
RTVSPost2010PropOp53
 70
     0
102
RTVSPost2010Prop54
  1
strokes_ogs.tif
102
RTVSPost2010PropOp54
 70
     0
102
RTVSPost2010Prop55
280
     0
102
RTVSPost2010PropOp55
 70
     0
102
RTVSPost2010Prop56
140
1.0
102
RTVSPost2010PropOp56
 70
     0
102
RTVSPost2010Prop57
140
1.0
102
RTVSPost2010PropOp57
 70
     0
  0
XRECORD
  5
17B
102
{ACAD_REACTORS
330
17A
102
}
330
17A
100
AcDbXrecord
280
     1
102
RTVSPost2010Prop28
280
     0
102
RTVSPost2010PropOp28
 70
     1
102
RTVSPost2010Prop29
280
     1
102
RTVSPost2010PropOp29
 70
     1
102
RTVSPost2010Prop30
280
     1
102
RTVSPost2010PropOp30
 70
     1
102
RTVSPost2010Prop31
280
     0
102
RTVSPost2010PropOp31
 70
     1
102
RTVSPost2010Prop32
280
     0
102
RTVSPost2010PropOp32
 70
     1
102
RTVSPost2010Prop33
280
     0
102
RTVSPost2010PropOp33
 70
     1
102
RTVSPost2010Prop34
280
     0
102
RTVSPost2010PropOp34
 70
     1
102
RTVSPost2010Prop35
280
     0
102
RTVSPost2010PropOp35
 70
     1
102
RTVSPost2010Prop36
280
     0
102
RTVSPost2010PropOp36
 70
     1
102
RTVSPost2010Prop37
 90
       50
102
RTVSPost2010PropOp37
 70
     1
102
RTVSPost2010Prop38
140
0.0
102
RTVSPost2010PropOp38
 70
     1
102
RTVSPost2010Prop39
140
1.0
102
RTVSPost2010PropOp39
 70
     1
102
RTVSPost2010Prop40
 90
        0
102
RTVSPost2010PropOp40
 70
     1
102
RTVSPost2010Prop41ColorIndex
 90
       18
102
RTVSPost2010Prop41ColorRGB
 90
        0
102
RTVSPost2010PropOp41
 70
     1
102
RTVSPost2010Prop42
 90
       50
102
RTVSPost2010PropOp42
 70
     1
102
RTVSPost2010Prop43
 90
        3
102
RTVSPost2010PropOp43
 70
     1
102
RTVSPost2010Prop44ColorIndex
 90
        5
102
RTVSPost2010Prop44ColorRGB
 90
      255
102
RTVSPost2010PropOp44
 70
     1
102
RTVSPost2010Prop45
280
     0
102
RTVSPost2010PropOp45
 70
     1
102
RTVSPost2010Prop46
 90
       50
102
RTVSPost2010PropOp46
 70
     1
102
RTVSPost2010Prop47
 90
       50
102
RTVSPost2010PropOp47
 70
     1
102
RTVSPost2010Prop48
 90
       50
102
RTVSPost2010PropOp48
 70
     1
102
RTVSPost2010Prop49
280
     0
102
RTVSPost2010PropOp49
 70
     1
102
RTVSPost2010Prop50
 90
       50
102
RTVSPost2010PropOp50
 70
     1
102
RTVSPost2010Prop51ColorIndex
 90
      256
102
RTVSPost2010Prop51ColorRGB
 90
-16777216
102
RTVSPost2010PropOp51
 70
     0
102
RTVSPost2010Prop52
140
1.0
102
RTVSPost2010PropOp52
 70
     0
102
RTVSPost2010Prop53
 90
        2
102
RTVSPost2010PropOp53
 70
     1
102
RTVSPost2010Prop54
  1
strokes_ogs.tif
102
RTVSPost2010PropOp54
 70
     1
102
RTVSPost2010Prop55
280
     0
102
RTVSPost2010PropOp55
 70
     1
102
RTVSPost2010Prop56
140
1.0
102
RTVSPost2010PropOp56
 70
     1
102
RTVSPost2010Prop57
140
1.0
102
RTVSPost2010PropOp57
 70
     1
  0
XRECORD
  5
191
102
{ACAD_REACTORS
330
190
102
}
330
190
100
AcDbXrecord
280
     1
102
RTVSPost2010Prop28
280
     0
102
RTVSPost2010PropOp28
 70
     1
102
RTVSPost2010Prop29
280
     1
102
RTVSPost2010PropOp29
 70
     1
102
RTVSPost2010Prop30
280
     1
102
RTVSPost2010PropOp30
 70
     1
102
RTVSPost2010Prop31
280
     0
102
RTVSPost2010PropOp31
 70
     1
102
RTVSPost2010Prop32
280
     0
102
RTVSPost2010PropOp32
 70
     1
102
RTVSPost2010Prop33
280
     0
102
RTVSPost2010PropOp33
 70
     1
102
RTVSPost2010Prop34
280
     0
102
RTVSPost2010PropOp34
 70
     1
102
RTVSPost2010Prop35
280
     0
102
RTVSPost2010PropOp35
 70
     1
102
RTVSPost2010Prop36
280
     0
102
RTVSPost2010PropOp36
 70
     1
102
RTVSPost2010Prop37
 90
       50
102
RTVSPost2010PropOp37
 70
     1
102
RTVSPost2010Prop38
140
0.0
102
RTVSPost2010PropOp38
 70
     1
102
RTVSPost2010Prop39
140
1.0
102
RTVSPost2010PropOp39
 70
     1
102
RTVSPost2010Prop40
 90
        0
102
RTVSPost2010PropOp40
 70
     1
102
RTVSPost2010Prop41ColorIndex
 90
       18
102
RTVSPost2010Prop41ColorRGB
 90
        0
102
RTVSPost2010PropOp41
 70
     1
102
RTVSPost2010Prop42
 90
       50
102
RTVSPost2010PropOp42
 70
     1
102
RTVSPost2010Prop43
 90
        3
102
RTVSPost2010PropOp43
 70
     1
102
RTVSPost2010Prop44ColorIndex
 90
        5
102
RTVSPost2010Prop44ColorRGB
 90
      255
102
RTVSPost2010PropOp44
 70
     1
102
RTVSPost2010Prop45
280
     0
102
RTVSPost2010PropOp45
 70
     1
102
RTVSPost2010Prop46
 90
       50
102
RTVSPost2010PropOp46
 70
     1
102
RTVSPost2010Prop47
 90
       50
102
RTVSPost2010PropOp47
 70
     1
102
RTVSPost2010Prop48
 90
       50
102
RTVSPost2010PropOp48
 70
     1
102
RTVSPost2010Prop49
280
     0
102
RTVSPost2010PropOp49
 70
     1
102
RTVSPost2010Prop50
 90
       50
102
RTVSPost2010PropOp50
 70
     1
102
RTVSPost2010Prop51ColorIndex
 90
      256
102
RTVSPost2010Prop51ColorRGB
 90
-16777216
102
RTVSPost2010PropOp51
 70
     0
102
RTVSPost2010Prop52
140
1.0
102
RTVSPost2010PropOp52
 70
     0
102
RTVSPost2010Prop53
 90
        2
102
RTVSPost2010PropOp53
 70
     1
102
RTVSPost2010Prop54
  1
strokes_ogs.tif
102
RTVSPost2010PropOp54
 70
     1
102
RTVSPost2010Prop55
280
     0
102
RTVSPost2010PropOp55
 70
     1
102
RTVSPost2010Prop56
140
1.0
102
RTVSPost2010PropOp56
 70
     1
102
RTVSPost2010Prop57
140
1.0
102
RTVSPost2010PropOp57
 70
     1
  0
XRECORD
  5
18F
102
{ACAD_REACTORS
330
18E
102
}
330
18E
100
AcDbXrecord
280
     1
102
RTVSPost2010Prop28
280
     0
102
RTVSPost2010PropOp28
 70
     1
102
RTVSPost2010Prop29
280
     1
102
RTVSPost2010PropOp29
 70
     1
102
RTVSPost2010Prop30
280
     1
102
RTVSPost2010PropOp30
 70
     1
102
RTVSPost2010Prop31
280
     0
102
RTVSPost2010PropOp31
 70
     1
102
RTVSPost2010Prop32
280
     0
102
RTVSPost2010PropOp32
 70
     1
102
RTVSPost2010Prop33
280
     0
102
RTVSPost2010PropOp33
 70
     1
102
RTVSPost2010Prop34
280
     0
102
RTVSPost2010PropOp34
 70
     1
102
RTVSPost2010Prop35
280
     0
102
RTVSPost2010PropOp35
 70
     1
102
RTVSPost2010Prop36
280
     0
102
RTVSPost2010PropOp36
 70
     1
102
RTVSPost2010Prop37
 90
       50
102
RTVSPost2010PropOp37
 70
     1
102
RTVSPost2010Prop38
140
0.0
102
RTVSPost2010PropOp38
 70
     1
102
RTVSPost2010Prop39
140
1.0
102
RTVSPost2010PropOp39
 70
     1
102
RTVSPost2010Prop40
 90
        0
102
RTVSPost2010PropOp40
 70
     1
102
RTVSPost2010Prop41ColorIndex
 90
       18
102
RTVSPost2010Prop41ColorRGB
 90
        0
102
RTVSPost2010PropOp41
 70
     1
102
RTVSPost2010Prop42
 90
       50
102
RTVSPost2010PropOp42
 70
     1
102
RTVSPost2010Prop43
 90
        3
102
RTVSPost2010PropOp43
 70
     1
102
RTVSPost2010Prop44ColorIndex
 90
        5
102
RTVSPost2010Prop44ColorRGB
 90
      255
102
RTVSPost2010PropOp44
 70
     1
102
RTVSPost2010Prop45
280
     0
102
RTVSPost2010PropOp45
 70
     1
102
RTVSPost2010Prop46
 90
       50
102
RTVSPost2010PropOp46
 70
     1
102
RTVSPost2010Prop47
 90
       50
102
RTVSPost2010PropOp47
 70
     1
102
RTVSPost2010Prop48
 90
       50
102
RTVSPost2010PropOp48
 70
     1
102
RTVSPost2010Prop49
280
     0
102
RTVSPost2010PropOp49
 70
     1
102
RTVSPost2010Prop50
 90
       50
102
RTVSPost2010PropOp50
 70
     1
102
RTVSPost2010Prop51ColorIndex
 90
      256
102
RTVSPost2010Prop51ColorRGB
 90
-16777216
102
RTVSPost2010PropOp51
 70
     0
102
RTVSPost2010Prop52
140
1.0
102
RTVSPost2010PropOp52
 70
     0
102
RTVSPost2010Prop53
 90
        2
102
RTVSPost2010PropOp53
 70
     1
102
RTVSPost2010Prop54
  1
strokes_ogs.tif
102
RTVSPost2010PropOp54
 70
     1
102
RTVSPost2010Prop55
280
     0
102
RTVSPost2010PropOp55
 70
     1
102
RTVSPost2010Prop56
140
1.0
102
RTVSPost2010PropOp56
 70
     1
102
RTVSPost2010Prop57
140
1.0
102
RTVSPost2010PropOp57
 70
     1
  0
XRECORD
  5
189
102
{ACAD_REACTORS
330
188
102
}
330
188
100
AcDbXrecord
280
     1
102
RTVSPost2010Prop28
280
     0
102
RTVSPost2010PropOp28
 70
     1
102
RTVSPost2010Prop29
280
     1
102
RTVSPost2010PropOp29
 70
     1
102
RTVSPost2010Prop30
280
     1
102
RTVSPost2010PropOp30
 70
     1
102
RTVSPost2010Prop31
280
     0
102
RTVSPost2010PropOp31
 70
     1
102
RTVSPost2010Prop32
280
     0
102
RTVSPost2010PropOp32
 70
     1
102
RTVSPost2010Prop33
280
     0
102
RTVSPost2010PropOp33
 70
     1
102
RTVSPost2010Prop34
280
     0
102
RTVSPost2010PropOp34
 70
     1
102
RTVSPost2010Prop35
280
     0
102
RTVSPost2010PropOp35
 70
     1
102
RTVSPost2010Prop36
280
     0
102
RTVSPost2010PropOp36
 70
     1
102
RTVSPost2010Prop37
 90
       50
102
RTVSPost2010PropOp37
 70
     1
102
RTVSPost2010Prop38
140
0.0
102
RTVSPost2010PropOp38
 70
     1
102
RTVSPost2010Prop39
140
1.0
102
RTVSPost2010PropOp39
 70
     1
102
RTVSPost2010Prop40
 90
        0
102
RTVSPost2010PropOp40
 70
     1
102
RTVSPost2010Prop41ColorIndex
 90
       18
102
RTVSPost2010Prop41ColorRGB
 90
        0
102
RTVSPost2010PropOp41
 70
     1
102
RTVSPost2010Prop42
 90
       50
102
RTVSPost2010PropOp42
 70
     1
102
RTVSPost2010Prop43
 90
        3
102
RTVSPost2010PropOp43
 70
     1
102
RTVSPost2010Prop44ColorIndex
 90
        5
102
RTVSPost2010Prop44ColorRGB
 90
      255
102
RTVSPost2010PropOp44
 70
     1
102
RTVSPost2010Prop45
280
     0
102
RTVSPost2010PropOp45
 70
     1
102
RTVSPost2010Prop46
 90
       50
102
RTVSPost2010PropOp46
 70
     1
102
RTVSPost2010Prop47
 90
       50
102
RTVSPost2010PropOp47
 70
     1
102
RTVSPost2010Prop48
 90
       50
102
RTVSPost2010PropOp48
 70
     1
102
RTVSPost2010Prop49
280
     0
102
RTVSPost2010PropOp49
 70
     1
102
RTVSPost2010Prop50
 90
       50
102
RTVSPost2010PropOp50
 70
     1
102
RTVSPost2010Prop51ColorIndex
 90
      256
102
RTVSPost2010Prop51ColorRGB
 90
-16777216
102
RTVSPost2010PropOp51
 70
     0
102
RTVSPost2010Prop52
140
1.0
102
RTVSPost2010PropOp52
 70
     0
102
RTVSPost2010Prop53
 90
        2
102
RTVSPost2010PropOp53
 70
     1
102
RTVSPost2010Prop54
  1
strokes_ogs.tif
102
RTVSPost2010PropOp54
 70
     1
102
RTVSPost2010Prop55
280
     0
102
RTVSPost2010PropOp55
 70
     1
102
RTVSPost2010Prop56
140
1.0
102
RTVSPost2010PropOp56
 70
     1
102
RTVSPost2010Prop57
140
1.0
102
RTVSPost2010PropOp57
 70
     1
  0
XRECORD
  5
18B
102
{ACAD_REACTORS
330
18A
102
}
330
18A
100
AcDbXrecord
280
     1
102
RTVSPost2010Prop28
280
     0
102
RTVSPost2010PropOp28
 70
     1
102
RTVSPost2010Prop29
280
     1
102
RTVSPost2010PropOp29
 70
     1
102
RTVSPost2010Prop30
280
     1
102
RTVSPost2010PropOp30
 70
     1
102
RTVSPost2010Prop31
280
     0
102
RTVSPost2010PropOp31
 70
     1
102
RTVSPost2010Prop32
280
     0
102
RTVSPost2010PropOp32
 70
     1
102
RTVSPost2010Prop33
280
     0
102
RTVSPost2010PropOp33
 70
     1
102
RTVSPost2010Prop34
280
     0
102
RTVSPost2010PropOp34
 70
     1
102
RTVSPost2010Prop35
280
     0
102
RTVSPost2010PropOp35
 70
     1
102
RTVSPost2010Prop36
280
     0
102
RTVSPost2010PropOp36
 70
     1
102
RTVSPost2010Prop37
 90
       50
102
RTVSPost2010PropOp37
 70
     1
102
RTVSPost2010Prop38
140
0.0
102
RTVSPost2010PropOp38
 70
     1
102
RTVSPost2010Prop39
140
1.0
102
RTVSPost2010PropOp39
 70
     1
102
RTVSPost2010Prop40
 90
        0
102
RTVSPost2010PropOp40
 70
     1
102
RTVSPost2010Prop41ColorIndex
 90
       18
102
RTVSPost2010Prop41ColorRGB
 90
        0
102
RTVSPost2010PropOp41
 70
     1
102
RTVSPost2010Prop42
 90
       50
102
RTVSPost2010PropOp42
 70
     1
102
RTVSPost2010Prop43
 90
        3
102
RTVSPost2010PropOp43
 70
     1
102
RTVSPost2010Prop44ColorIndex
 90
        5
102
RTVSPost2010Prop44ColorRGB
 90
      255
102
RTVSPost2010PropOp44
 70
     1
102
RTVSPost2010Prop45
280
     0
102
RTVSPost2010PropOp45
 70
     1
102
RTVSPost2010Prop46
 90
       50
102
RTVSPost2010PropOp46
 70
     1
102
RTVSPost2010Prop47
 90
       50
102
RTVSPost2010PropOp47
 70
     1
102
RTVSPost2010Prop48
 90
       50
102
RTVSPost2010PropOp48
 70
     1
102
RTVSPost2010Prop49
280
     0
102
RTVSPost2010PropOp49
 70
     1
102
RTVSPost2010Prop50
 90
       50
102
RTVSPost2010PropOp50
 70
     1
102
RTVSPost2010Prop51ColorIndex
 90
      256
102
RTVSPost2010Prop51ColorRGB
 90
-16777216
102
RTVSPost2010PropOp51
 70
     0
102
RTVSPost2010Prop52
140
1.0
102
RTVSPost2010PropOp52
 70
     0
102
RTVSPost2010Prop53
 90
        2
102
RTVSPost2010PropOp53
 70
     1
102
RTVSPost2010Prop54
  1
strokes_ogs.tif
102
RTVSPost2010PropOp54
 70
     1
102
RTVSPost2010Prop55
280
     0
102
RTVSPost2010PropOp55
 70
     1
102
RTVSPost2010Prop56
140
1.0
102
RTVSPost2010PropOp56
 70
     1
102
RTVSPost2010Prop57
140
1.0
102
RTVSPost2010PropOp57
 70
     1
  0
XRECORD
  5
181
102
{ACAD_REACTORS
330
180
102
}
330
180
100
AcDbXrecord
280
     1
102
RTVSPost2010Prop28
280
     0
102
RTVSPost2010PropOp28
 70
     1
102
RTVSPost2010Prop29
280
     1
102
RTVSPost2010PropOp29
 70
     1
102
RTVSPost2010Prop30
280
     1
102
RTVSPost2010PropOp30
 70
     1
102
RTVSPost2010Prop31
280
     0
102
RTVSPost2010PropOp31
 70
     1
102
RTVSPost2010Prop32
280
     0
102
RTVSPost2010PropOp32
 70
     1
102
RTVSPost2010Prop33
280
     0
102
RTVSPost2010PropOp33
 70
     1
102
RTVSPost2010Prop34
280
     0
102
RTVSPost2010PropOp34
 70
     1
102
RTVSPost2010Prop35
280
     0
102
RTVSPost2010PropOp35
 70
     1
102
RTVSPost2010Prop36
280
     0
102
RTVSPost2010PropOp36
 70
     1
102
RTVSPost2010Prop37
 90
       50
102
RTVSPost2010PropOp37
 70
     1
102
RTVSPost2010Prop38
140
0.0
102
RTVSPost2010PropOp38
 70
     1
102
RTVSPost2010Prop39
140
1.0
102
RTVSPost2010PropOp39
 70
     1
102
RTVSPost2010Prop40
 90
        0
102
RTVSPost2010PropOp40
 70
     1
102
RTVSPost2010Prop41ColorIndex
 90
       18
102
RTVSPost2010Prop41ColorRGB
 90
        0
102
RTVSPost2010PropOp41
 70
     1
102
RTVSPost2010Prop42
 90
       50
102
RTVSPost2010PropOp42
 70
     1
102
RTVSPost2010Prop43
 90
        3
102
RTVSPost2010PropOp43
 70
     1
102
RTVSPost2010Prop44ColorIndex
 90
        5
102
RTVSPost2010Prop44ColorRGB
 90
      255
102
RTVSPost2010PropOp44
 70
     1
102
RTVSPost2010Prop45
280
     0
102
RTVSPost2010PropOp45
 70
     1
102
RTVSPost2010Prop46
 90
       50
102
RTVSPost2010PropOp46
 70
     1
102
RTVSPost2010Prop47
 90
       50
102
RTVSPost2010PropOp47
 70
     1
102
RTVSPost2010Prop48
 90
       50
102
RTVSPost2010PropOp48
 70
     1
102
RTVSPost2010Prop49
280
     0
102
RTVSPost2010PropOp49
 70
     1
102
RTVSPost2010Prop50
 90
       50
102
RTVSPost2010PropOp50
 70
     1
102
RTVSPost2010Prop51ColorIndex
 90
      256
102
RTVSPost2010Prop51ColorRGB
 90
-16777216
102
RTVSPost2010PropOp51
 70
     0
102
RTVSPost2010Prop52
140
1.0
102
RTVSPost2010PropOp52
 70
     0
102
RTVSPost2010Prop53
 90
        2
102
RTVSPost2010PropOp53
 70
     1
102
RTVSPost2010Prop54
  1
strokes_ogs.tif
102
RTVSPost2010PropOp54
 70
     1
102
RTVSPost2010Prop55
280
     0
102
RTVSPost2010PropOp55
 70
     1
102
RTVSPost2010Prop56
140
1.0
102
RTVSPost2010PropOp56
 70
     1
102
RTVSPost2010Prop57
140
1.0
102
RTVSPost2010PropOp57
 70
     1
  0
XRECORD
  5
175
102
{ACAD_REACTORS
330
174
102
}
330
174
100
AcDbXrecord
280
     1
102
RTVSPost2010Prop28
280
     0
102
RTVSPost2010PropOp28
 70
     1
102
RTVSPost2010Prop29
280
     1
102
RTVSPost2010PropOp29
 70
     1
102
RTVSPost2010Prop30
280
     1
102
RTVSPost2010PropOp30
 70
     1
102
RTVSPost2010Prop31
280
     0
102
RTVSPost2010PropOp31
 70
     1
102
RTVSPost2010Prop32
280
     0
102
RTVSPost2010PropOp32
 70
     1
102
RTVSPost2010Prop33
280
     0
102
RTVSPost2010PropOp33
 70
     1
102
RTVSPost2010Prop34
280
     0
102
RTVSPost2010PropOp34
 70
     1
102
RTVSPost2010Prop35
280
     0
102
RTVSPost2010PropOp35
 70
     1
102
RTVSPost2010Prop36
280
     0
102
RTVSPost2010PropOp36
 70
     1
102
RTVSPost2010Prop37
 90
       50
102
RTVSPost2010PropOp37
 70
     1
102
RTVSPost2010Prop38
140
0.0
102
RTVSPost2010PropOp38
 70
     1
102
RTVSPost2010Prop39
140
1.0
102
RTVSPost2010PropOp39
 70
     1
102
RTVSPost2010Prop40
 90
        0
102
RTVSPost2010PropOp40
 70
     1
102
RTVSPost2010Prop41ColorIndex
 90
       18
102
RTVSPost2010Prop41ColorRGB
 90
        0
102
RTVSPost2010PropOp41
 70
     1
102
RTVSPost2010Prop42
 90
       50
102
RTVSPost2010PropOp42
 70
     1
102
RTVSPost2010Prop43
 90
        3
102
RTVSPost2010PropOp43
 70
     1
102
RTVSPost2010Prop44ColorIndex
 90
        5
102
RTVSPost2010Prop44ColorRGB
 90
      255
102
RTVSPost2010PropOp44
 70
     1
102
RTVSPost2010Prop45
280
     0
102
RTVSPost2010PropOp45
 70
     1
102
RTVSPost2010Prop46
 90
       50
102
RTVSPost2010PropOp46
 70
     1
102
RTVSPost2010Prop47
 90
       50
102
RTVSPost2010PropOp47
 70
     1
102
RTVSPost2010Prop48
 90
       50
102
RTVSPost2010PropOp48
 70
     1
102
RTVSPost2010Prop49
280
     0
102
RTVSPost2010PropOp49
 70
     1
102
RTVSPost2010Prop50
 90
       50
102
RTVSPost2010PropOp50
 70
     1
102
RTVSPost2010Prop51ColorIndex
 90
      256
102
RTVSPost2010Prop51ColorRGB
 90
-16777216
102
RTVSPost2010PropOp51
 70
     0
102
RTVSPost2010Prop52
140
1.0
102
RTVSPost2010PropOp52
 70
     0
102
RTVSPost2010Prop53
 90
        2
102
RTVSPost2010PropOp53
 70
     1
102
RTVSPost2010Prop54
  1
strokes_ogs.tif
102
RTVSPost2010PropOp54
 70
     1
102
RTVSPost2010Prop55
280
     0
102
RTVSPost2010PropOp55
 70
     1
102
RTVSPost2010Prop56
140
1.0
102
RTVSPost2010PropOp56
 70
     1
102
RTVSPost2010Prop57
140
1.0
102
RTVSPost2010PropOp57
 70
     1
  0
XRECORD
  5
18D
102
{ACAD_REACTORS
330
18C
102
}
330
18C
100
AcDbXrecord
280
     1
102
RTVSPost2010Prop28
280
     0
102
RTVSPost2010PropOp28
 70
     1
102
RTVSPost2010Prop29
280
     1
102
RTVSPost2010PropOp29
 70
     1
102
RTVSPost2010Prop30
280
     1
102
RTVSPost2010PropOp30
 70
     1
102
RTVSPost2010Prop31
280
     0
102
RTVSPost2010PropOp31
 70
     1
102
RTVSPost2010Prop32
280
     0
102
RTVSPost2010PropOp32
 70
     1
102
RTVSPost2010Prop33
280
     0
102
RTVSPost2010PropOp33
 70
     1
102
RTVSPost2010Prop34
280
     0
102
RTVSPost2010PropOp34
 70
     1
102
RTVSPost2010Prop35
280
     0
102
RTVSPost2010PropOp35
 70
     1
102
RTVSPost2010Prop36
280
     0
102
RTVSPost2010PropOp36
 70
     1
102
RTVSPost2010Prop37
 90
       50
102
RTVSPost2010PropOp37
 70
     1
102
RTVSPost2010Prop38
140
0.0
102
RTVSPost2010PropOp38
 70
     1
102
RTVSPost2010Prop39
140
1.0
102
RTVSPost2010PropOp39
 70
     1
102
RTVSPost2010Prop40
 90
        0
102
RTVSPost2010PropOp40
 70
     1
102
RTVSPost2010Prop41ColorIndex
 90
       18
102
RTVSPost2010Prop41ColorRGB
 90
        0
102
RTVSPost2010PropOp41
 70
     1
102
RTVSPost2010Prop42
 90
       50
102
RTVSPost2010PropOp42
 70
     1
102
RTVSPost2010Prop43
 90
        3
102
RTVSPost2010PropOp43
 70
     1
102
RTVSPost2010Prop44ColorIndex
 90
        5
102
RTVSPost2010Prop44ColorRGB
 90
      255
102
RTVSPost2010PropOp44
 70
     1
102
RTVSPost2010Prop45
280
     0
102
RTVSPost2010PropOp45
 70
     1
102
RTVSPost2010Prop46
 90
       50
102
RTVSPost2010PropOp46
 70
     1
102
RTVSPost2010Prop47
 90
       50
102
RTVSPost2010PropOp47
 70
     1
102
RTVSPost2010Prop48
 90
       50
102
RTVSPost2010PropOp48
 70
     1
102
RTVSPost2010Prop49
280
     0
102
RTVSPost2010PropOp49
 70
     1
102
RTVSPost2010Prop50
 90
       50
102
RTVSPost2010PropOp50
 70
     1
102
RTVSPost2010Prop51ColorIndex
 90
      256
102
RTVSPost2010Prop51ColorRGB
 90
-16777216
102
RTVSPost2010PropOp51
 70
     0
102
RTVSPost2010Prop52
140
1.0
102
RTVSPost2010PropOp52
 70
     0
102
RTVSPost2010Prop53
 90
        2
102
RTVSPost2010PropOp53
 70
     1
102
RTVSPost2010Prop54
  1
strokes_ogs.tif
102
RTVSPost2010PropOp54
 70
     1
102
RTVSPost2010Prop55
280
     0
102
RTVSPost2010PropOp55
 70
     1
102
RTVSPost2010Prop56
140
1.0
102
RTVSPost2010PropOp56
 70
     1
102
RTVSPost2010Prop57
140
1.0
102
RTVSPost2010PropOp57
 70
     1
  0
ENDSEC
  0
EOF
