  0
SECTION
  2
HEADER
  9
$ACADVER
  1
AC1024
  9
$ACADMAINTVER
 70
   226
  9
$DWGCODEPAGE
  3
ANSI_932
  9
$INSBASE
 10
0.0
 20
0.0
 30
0.0
  9
$EXTMIN
 10
1.000000000000000E+20
 20
1.000000000000000E+20
 30
1.000000000000000E+20
  9
$EXTMAX
 10
-1.000000000000000E+20
 20
-1.000000000000000E+20
 30
-1.000000000000000E+20
  9
$LIMMIN
 10
0.0
 20
0.0
  9
$LIMMAX
 10
12.0
 20
9.0
  9
$ORTHOMODE
 70
     0
  9
$REGENMODE
 70
     1
  9
$FILLMODE
 70
     1
  9
$QTEXTMODE
 70
     0
  9
$MIRRTEXT
 70
     0
  9
$LTSCALE
 40
1.0
  9
$ATTMODE
 70
     1
  9
$TEXTSIZE
 40
0.2
  9
$TRACEWID
 40
0.05
  9
$TEXTSTYLE
  7
Standard
  9
$CLAYER
  8
0
  9
$CELTYPE
  6
ByLayer
  9
$CECOLOR
 62
   256
  9
$CELTSCALE
 40
1.0
  9
$DISPSILH
 70
     0
  9
$DIMSCALE
 40
1.0
  9
$DIMASZ
 40
0.18
  9
$DIMEXO
 40
0.0625
  9
$DIMDLI
 40
0.38
  9
$DIMRND
 40
0.0
  9
$DIMDLE
 40
0.0
  9
$DIMEXE
 40
0.18
  9
$DIMTP
 40
0.0
  9
$DIMTM
 40
0.0
  9
$DIMTXT
 40
0.18
  9
$DIMCEN
 40
0.09
  9
$DIMTSZ
 40
0.0
  9
$DIMTOL
 70
     0
  9
$DIMLIM
 70
     0
  9
$DIMTIH
 70
     1
  9
$DIMTOH
 70
     1
  9
$DIMSE1
 70
     0
  9
$DIMSE2
 70
     0
  9
$DIMTAD
 70
     0
  9
$DIMZIN
 70
     0
  9
$DIMBLK
  1

  9
$DIMASO
 70
     1
  9
$DIMSHO
 70
     1
  9
$DIMPOST
  1

  9
$DIMAPOST
  1

  9
$DIMALT
 70
     0
  9
$DIMALTD
 70
     2
  9
$DIMALTF
 40
25.4
  9
$DIMLFAC
 40
1.0
  9
$DIMTOFL
 70
     0
  9
$DIMTVP
 40
0.0
  9
$DIMTIX
 70
     0
  9
$DIMSOXD
 70
     0
  9
$DIMSAH
 70
     0
  9
$DIMBLK1
  1

  9
$DIMBLK2
  1

  9
$DIMSTYLE
  2
Standard
  9
$DIMCLRD
 70
     0
  9
$DIMCLRE
 70
     0
  9
$DIMCLRT
 70
     0
  9
$DIMTFAC
 40
1.0
  9
$DIMGAP
 40
0.09
  9
$DIMJUST
 70
     0
  9
$DIMSD1
 70
     0
  9
$DIMSD2
 70
     0
  9
$DIMTOLJ
 70
     1
  9
$DIMTZIN
 70
     0
  9
$DIMALTZ
 70
     0
  9
$DIMALTTZ
 70
     0
  9
$DIMUPT
 70
     0
  9
$DIMDEC
 70
     4
  9
$DIMTDEC
 70
     4
  9
$DIMALTU
 70
     2
  9
$DIMALTTD
 70
     2
  9
$DIMTXSTY
  7
Standard
  9
$DIMAUNIT
 70
     0
  9
$DIMADEC
 70
     0
  9
$DIMALTRND
 40
0.0
  9
$DIMAZIN
 70
     0
  9
$DIMDSEP
 70
    46
  9
$DIMATFIT
 70
     3
  9
$DIMFRAC
 70
     0
  9
$DIMLDRBLK
  1

  9
$DIMLUNIT
 70
     2
  9
$DIMLWD
 70
    -2
  9
$DIMLWE
 70
    -2
  9
$DIMTMOVE
 70
     0
  9
$DIMFXL
 40
1.0
  9
$DIMFXLON
 70
     0
  9
$DIMJOGANG
 40
0.7853981633974483
  9
$DIMTFILL
 70
     0
  9
$DIMTFILLCLR
 70
     0
  9
$DIMARCSYM
 70
     0
  9
$DIMLTYPE
  6

  9
$DIMLTEX1
  6

  9
$DIMLTEX2
  6

  9
$DIMTXTDIRECTION
 70
     0
  9
$LUNITS
 70
     2
  9
$LUPREC
 70
     4
  9
$SKETCHINC
 40
0.1
  9
$FILLETRAD
 40
0.0
  9
$AUNITS
 70
     0
  9
$AUPREC
 70
     0
  9
$MENU
  1
.
  9
$ELEVATION
 40
0.0
  9
$PELEVATION
 40
0.0
  9
$THICKNESS
 40
0.0
  9
$LIMCHECK
 70
     0
  9
$CHAMFERA
 40
0.0
  9
$CHAMFERB
 40
0.0
  9
$CHAMFERC
 40
0.0
  9
$CHAMFERD
 40
0.0
  9
$SKPOLY
 70
     0
  9
$TDCREATE
 40
2459569.503055556
  9
$TDUCREATE
 40
2459569.128055556
  9
$TDUPDATE
 40
2459569.503055556
  9
$TDUUPDATE
 40
2459569.128055556
  9
$TDINDWG
 40
0.0000000000
  9
$TDUSRTIMER
 40
0.0000000000
  9
$USRTIMER
 70
     1
  9
$ANGBASE
 50
0.0
  9
$ANGDIR
 70
     0
  9
$PDMODE
 70
     0
  9
$PDSIZE
 40
0.0
  9
$PLINEWID
 40
0.0
  9
$SPLFRAME
 70
     0
  9
$SPLINETYPE
 70
     6
  9
$SPLINESEGS
 70
     8
  9
$HANDSEED
  5
1D9
  9
$SURFTAB1
 70
     6
  9
$SURFTAB2
 70
     6
  9
$SURFTYPE
 70
     6
  9
$SURFU
 70
     6
  9
$SURFV
 70
     6
  9
$UCSBASE
  2

  9
$UCSNAME
  2

  9
$UCSORG
 10
0.0
 20
0.0
 30
0.0
  9
$UCSXDIR
 10
1.0
 20
0.0
 30
0.0
  9
$UCSYDIR
 10
0.0
 20
1.0
 30
0.0
  9
$UCSORTHOREF
  2

  9
$UCSORTHOVIEW
 70
     0
  9
$UCSORGTOP
 10
0.0
 20
0.0
 30
0.0
  9
$UCSORGBOTTOM
 10
0.0
 20
0.0
 30
0.0
  9
$UCSORGLEFT
 10
0.0
 20
0.0
 30
0.0
  9
$UCSORGRIGHT
 10
0.0
 20
0.0
 30
0.0
  9
$UCSORGFRONT
 10
0.0
 20
0.0
 30
0.0
  9
$UCSORGBACK
 10
0.0
 20
0.0
 30
0.0
  9
$PUCSBASE
  2

  9
$PUCSNAME
  2

  9
$PUCSORG
 10
0.0
 20
0.0
 30
0.0
  9
$PUCSXDIR
 10
1.0
 20
0.0
 30
0.0
  9
$PUCSYDIR
 10
0.0
 20
1.0
 30
0.0
  9
$PUCSORTHOREF
  2

  9
$PUCSORTHOVIEW
 70
     0
  9
$PUCSORGTOP
 10
0.0
 20
0.0
 30
0.0
  9
$PUCSORGBOTTOM
 10
0.0
 20
0.0
 30
0.0
  9
$PUCSORGLEFT
 10
0.0
 20
0.0
 30
0.0
  9
$PUCSORGRIGHT
 10
0.0
 20
0.0
 30
0.0
  9
$PUCSORGFRONT
 10
0.0
 20
0.0
 30
0.0
  9
$PUCSORGBACK
 10
0.0
 20
0.0
 30
0.0
  9
$USERI1
 70
     0
  9
$USERI2
 70
     0
  9
$USERI3
 70
     0
  9
$USERI4
 70
     0
  9
$USERI5
 70
     0
  9
$USERR1
 40
0.0
  9
$USERR2
 40
0.0
  9
$USERR3
 40
0.0
  9
$USERR4
 40
0.0
  9
$USERR5
 40
0.0
  9
$WORLDVIEW
 70
     1
  9
$SHADEDGE
 70
     3
  9
$SHADEDIF
 70
    70
  9
$TILEMODE
 70
     1
  9
$MAXACTVP
 70
    64
  9
$PINSBASE
 10
0.0
 20
0.0
 30
0.0
  9
$PLIMCHECK
 70
     0
  9
$PEXTMIN
 10
1.000000000000000E+20
 20
1.000000000000000E+20
 30
1.000000000000000E+20
  9
$PEXTMAX
 10
-1.000000000000000E+20
 20
-1.000000000000000E+20
 30
-1.000000000000000E+20
  9
$PLIMMIN
 10
0.0
 20
0.0
  9
$PLIMMAX
 10
12.0
 20
9.0
  9
$UNITMODE
 70
     0
  9
$VISRETAIN
 70
     1
  9
$PLINEGEN
 70
     0
  9
$PSLTSCALE
 70
     1
  9
$TREEDEPTH
 70
  3020
  9
$CMLSTYLE
  2
Standard
  9
$CMLJUST
 70
     0
  9
$CMLSCALE
 40
1.0
  9
$PROXYGRAPHICS
 70
     1
  9
$MEASUREMENT
 70
     0
  9
$CELWEIGHT
370
    -1
  9
$ENDCAPS
280
     0
  9
$JOINSTYLE
280
     0
  9
$LWDISPLAY
290
     1
  9
$INSUNITS
 70
     4
  9
$HYPERLINKBASE
  1

  9
$STYLESHEET
  1

  9
$XEDIT
290
     1
  9
$CEPSNTYPE
380
     0
  9
$PSTYLEMODE
290
     1
  9
$FINGERPRINTGUID
  2
{07FC5523-C425-1945-A973-03E7F9A2DF3C}
  9
$VERSIONGUID
  2
{4C480A5C-4C4C-ED4A-9749-AE94228F7B99}
  9
$EXTNAMES
290
     1
  9
$PSVPSCALE
 40
0.0
  9
$OLESTARTUP
290
     0
  9
$SORTENTS
280
   127
  9
$INDEXCTL
280
     0
  9
$HIDETEXT
280
     1
  9
$XCLIPFRAME
280
     2
  9
$HALOGAP
280
     0
  9
$OBSCOLOR
 70
   257
  9
$OBSLTYPE
280
     0
  9
$INTERSECTIONDISPLAY
280
     0
  9
$INTERSECTIONCOLOR
 70
   257
  9
$DIMASSOC
280
     2
  9
$PROJECTNAME
  1

  9
$CAMERADISPLAY
290
     0
  9
$LENSLENGTH
 40
50.0
  9
$CAMERAHEIGHT
 40
0.0
  9
$STEPSPERSEC
 40
2.0
  9
$STEPSIZE
 40
6.0
  9
$3DDWFPREC
 40
2.0
  9
$PSOLWIDTH
 40
0.25
  9
$PSOLHEIGHT
 40
4.0
  9
$LOFTANG1
 40
1.570796326794896
  9
$LOFTANG2
 40
1.570796326794896
  9
$LOFTMAG1
 40
0.0
  9
$LOFTMAG2
 40
0.0
  9
$LOFTPARAM
 70
     7
  9
$LOFTNORMALS
280
     1
  9
$LATITUDE
 40
37.795
  9
$LONGITUDE
 40
-122.394
  9
$NORTHDIRECTION
 40
0.0
  9
$TIMEZONE
 70
 -8000
  9
$LIGHTGLYPHDISPLAY
280
     1
  9
$TILEMODELIGHTSYNCH
280
     1
  9
$CMATERIAL
347
11
  9
$SOLIDHIST
280
     0
  9
$SHOWHIST
280
     1
  9
$DWFFRAME
280
     2
  9
$DGNFRAME
280
     0
  9
$REALWORLDSCALE
290
     1
  9
$INTERFERECOLOR
 62
     1
  9
$INTERFEREOBJVS
345
33
  9
$INTERFEREVPVS
346
30
  9
$CSHADOW
280
     0
  9
$SHADOWPLANELOCATION
 40
0.0
  0
ENDSEC
  0
SECTION
  2
CLASSES
  0
CLASS
  1
ACDBDICTIONARYWDFLT
  2
AcDbDictionaryWithDefault
  3
ObjectDBX Classes
 90
        0
 91
        1
280
     0
281
     0
  0
CLASS
  1
MATERIAL
  2
AcDbMaterial
  3
ObjectDBX Classes
 90
     1153
 91
        3
280
     0
281
     0
  0
CLASS
  1
VISUALSTYLE
  2
AcDbVisualStyle
  3
ObjectDBX Classes
 90
     4095
 91
       24
280
     0
281
     0
  0
CLASS
  1
SCALE
  2
AcDbScale
  3
ObjectDBX Classes
 90
     1153
 91
       17
280
     0
281
     0
  0
CLASS
  1
TABLESTYLE
  2
AcDbTableStyle
  3
ObjectDBX Classes
 90
     4095
 91
        1
280
     0
281
     0
  0
CLASS
  1
MLEADERSTYLE
  2
AcDbMLeaderStyle
  3
ACDB_MLEADERSTYLE_CLASS
 90
     4095
 91
        1
280
     0
281
     0
  0
CLASS
  1
ACDBSECTIONVIEWSTYLE
  2
AcDbSectionViewStyle
  3
ObjectDBX Classes
 90
     1025
 91
        1
280
     0
281
     0
  0
CLASS
  1
ACDBDETAILVIEWSTYLE
  2
AcDbDetailViewStyle
  3
ObjectDBX Classes
 90
     1025
 91
        1
280
     0
281
     0
  0
CLASS
  1
DICTIONARYVAR
  2
AcDbDictionaryVar
  3
ObjectDBX Classes
 90
        0
 91
        5
280
     0
281
     0
  0
CLASS
  1
CELLSTYLEMAP
  2
AcDbCellStyleMap
  3
ObjectDBX Classes
 90
     1152
 91
        1
280
     0
281
     0
  0
ENDSEC
  0
SECTION
  2
TABLES
  0
TABLE
  2
VPORT
  5
8
330
0
100
AcDbSymbolTable
 70
     1
  0
VPORT
  5
57
330
8
100
AcDbSymbolTableRecord
100
AcDbViewportTableRecord
  2
*Active
 70
     0
 10
0.0
 20
0.0
 11
1.0
 21
1.0
 12
0.0
 22
0.0
 13
0.0
 23
0.0
 14
1.0
 24
1.0
 15
0.0
 25
0.0
 16
0.0
 26
0.0
 36
1.0
 17
104.9999999737534
 27
-148.4999999628701
 37
0.0
 40
302.939999924255
 41
0.7070707070707534
 42
50.0
 43
0.0
 44
0.0
 50
0.0
 51
0.0
 71
     0
 72
   100
 73
     1
 74
     0
 75
     1
 76
     0
 77
     0
 78
     0
281
     0
 65
     1
110
0.0
120
0.0
130
0.0
111
1.0
121
0.0
131
0.0
112
0.0
122
1.0
132
0.0
 79
     0
146
0.0
 60
     3
 61
     5
292
     1
282
     1
141
0.0
142
0.0
 63
   250
421
  3355443
  0
ENDTAB
  0
TABLE
  2
LTYPE
  5
5
330
0
100
AcDbSymbolTable
 70
     3
  0
LTYPE
  5
5B
330
5
100
AcDbSymbolTableRecord
100
AcDbLinetypeTableRecord
  2
ByBlock
 70
     0
  3

 72
    65
 73
     0
 40
0.0
  0
LTYPE
  5
5C
330
5
100
AcDbSymbolTableRecord
100
AcDbLinetypeTableRecord
  2
ByLayer
 70
     0
  3

 72
    65
 73
     0
 40
0.0
  0
LTYPE
  5
5D
330
5
100
AcDbSymbolTableRecord
100
AcDbLinetypeTableRecord
  2
Continuous
 70
     0
  3
Solid line
 72
    65
 73
     0
 40
0.0
  0
LTYPE
  5
BC
330
5
100
AcDbSymbolTableRecord
100
AcDbLinetypeTableRecord
  2
AI-Linetype-0
 70
     0
  3
Adobe Illustrator Linetype No. 0
 72
    65
 73
     2
 40
1.411111110758333
 49
0.7055555553791667
 74
     0
 49
-0.7055555553791667
 74
     0
  0
LTYPE
  5
BE
330
5
100
AcDbSymbolTableRecord
100
AcDbLinetypeTableRecord
  2
AI-Linetype-1
 70
     0
  3
Adobe Illustrator Linetype No. 1
 72
    65
 73
     2
 40
1.411111110758333
 49
0.7055555553791667
 74
     0
 49
-0.7055555553791667
 74
     0
  0
ENDTAB
  0
TABLE
  2
LAYER
  5
2
330
0
100
AcDbSymbolTable
 70
     2
  0
LAYER
  5
54
330
2
100
AcDbSymbolTableRecord
100
AcDbLayerTableRecord
  2
0
 70
     0
 62
     7
  6
Continuous
370
    -3
390
F
347
21
  0
LAYER
  5
78
330
2
100
AcDbSymbolTableRecord
100
AcDbLayerTableRecord
  2
レイヤー 1
 70
     0
 62
     7
  6
Continuous
370
     0
390
F
347
21
  0
ENDTAB
  0
TABLE
  2
STYLE
  5
3
330
0
100
AcDbSymbolTable
 70
     2
  0
STYLE
  5
55
330
3
100
AcDbSymbolTableRecord
100
AcDbTextStyleTableRecord
  2
Standard
 70
     0
 40
0.0
 41
1.0
 50
0.0
 71
     0
 42
0.2
  3
txt
  4

  0
STYLE
  5
5A
330
3
100
AcDbSymbolTableRecord
100
AcDbTextStyleTableRecord
  2
Annotative
 70
     0
 40
0.0
 41
1.0
 50
0.0
 71
     0
 42
0.2
  3
txt
  4

1001
AcadAnnotative
1000
AnnotativeData
1002
{
1070
     1
1070
     1
1002
}
  0
ENDTAB
  0
TABLE
  2
VIEW
  5
6
330
0
100
AcDbSymbolTable
 70
     0
  0
ENDTAB
  0
TABLE
  2
UCS
  5
7
330
0
100
AcDbSymbolTable
 70
     0
  0
ENDTAB
  0
TABLE
  2
APPID
  5
9
330
0
100
AcDbSymbolTable
 70
     2
  0
APPID
  5
56
330
9
100
AcDbSymbolTableRecord
100
AcDbRegAppTableRecord
  2
ACAD
 70
     0
  0
APPID
  5
5E
330
9
100
AcDbSymbolTableRecord
100
AcDbRegAppTableRecord
  2
AcadAnnotative
 70
     0
  0
ENDTAB
  0
TABLE
  2
DIMSTYLE
  5
A
330
0
100
AcDbSymbolTable
 70
     2
100
AcDbDimStyleTable
 71
     0
  0
DIMSTYLE
105
58
330
A
100
AcDbSymbolTableRecord
100
AcDbDimStyleTableRecord
  2
Standard
 70
     0
340
55
  0
DIMSTYLE
105
59
330
A
100
AcDbSymbolTableRecord
100
AcDbDimStyleTableRecord
  2
Annotative
 70
     0
340
55
1001
AcadAnnotative
1000
AnnotativeData
1002
{
1070
     1
1070
     1
1002
}
  0
ENDTAB
  0
TABLE
  2
BLOCK_RECORD
  5
1
330
0
100
AcDbSymbolTable
 70
    18
  0
BLOCK_RECORD
  5
70
330
1
100
AcDbSymbolTableRecord
100
AcDbBlockTableRecord
  2
*Model_Space
340
73
 70
     0
280
     1
281
     0
  0
BLOCK_RECORD
  5
6C
330
1
100
AcDbSymbolTableRecord
100
AcDbBlockTableRecord
  2
*Paper_Space
340
6F
 70
     0
280
     1
281
     0
  0
BLOCK_RECORD
  5
74
330
1
100
AcDbSymbolTableRecord
100
AcDbBlockTableRecord
  2
*Paper_Space0
340
77
 70
     0
280
     1
281
     0
  0
BLOCK_RECORD
  5
79
330
1
100
AcDbSymbolTableRecord
100
AcDbBlockTableRecord
  2
Block_0
340
0
102
{BLKREFS
331
7A
102
}
 70
     0
280
     1
281
     0
  0
BLOCK_RECORD
  5
7D
330
1
100
AcDbSymbolTableRecord
100
AcDbBlockTableRecord
  2
Block_1
340
0
102
{BLKREFS
331
7E
102
}
 70
     0
280
     1
281
     0
  0
BLOCK_RECORD
  5
B7
330
1
100
AcDbSymbolTableRecord
100
AcDbBlockTableRecord
  2
Block_2
340
0
102
{BLKREFS
331
B8
102
}
 70
     0
280
     1
281
     0
  0
BLOCK_RECORD
  5
126
330
1
100
AcDbSymbolTableRecord
100
AcDbBlockTableRecord
  2
Block_3
340
0
102
{BLKREFS
331
127
102
}
 70
     0
280
     1
281
     0
  0
BLOCK_RECORD
  5
12A
330
1
100
AcDbSymbolTableRecord
100
AcDbBlockTableRecord
  2
Block_4
340
0
102
{BLKREFS
331
12B
102
}
 70
     0
280
     1
281
     0
  0
BLOCK_RECORD
  5
137
330
1
100
AcDbSymbolTableRecord
100
AcDbBlockTableRecord
  2
Block_5
340
0
102
{BLKREFS
331
138
102
}
 70
     0
280
     1
281
     0
  0
BLOCK_RECORD
  5
13B
330
1
100
AcDbSymbolTableRecord
100
AcDbBlockTableRecord
  2
Block_6
340
0
102
{BLKREFS
331
13C
102
}
 70
     0
280
     1
281
     0
  0
BLOCK_RECORD
  5
145
330
1
100
AcDbSymbolTableRecord
100
AcDbBlockTableRecord
  2
Block_7
340
0
102
{BLKREFS
331
146
102
}
 70
     0
280
     1
281
     0
  0
BLOCK_RECORD
  5
14D
330
1
100
AcDbSymbolTableRecord
100
AcDbBlockTableRecord
  2
Block_8
340
0
102
{BLKREFS
331
14E
102
}
 70
     0
280
     1
281
     0
  0
BLOCK_RECORD
  5
151
330
1
100
AcDbSymbolTableRecord
100
AcDbBlockTableRecord
  2
Block_9
340
0
102
{BLKREFS
331
152
102
}
 70
     0
280
     1
281
     0
  0
BLOCK_RECORD
  5
15C
330
1
100
AcDbSymbolTableRecord
100
AcDbBlockTableRecord
  2
Block_10
340
0
102
{BLKREFS
331
15D
102
}
 70
     0
280
     1
281
     0
  0
BLOCK_RECORD
  5
167
330
1
100
AcDbSymbolTableRecord
100
AcDbBlockTableRecord
  2
Block_11
340
0
102
{BLKREFS
331
168
102
}
 70
     0
280
     1
281
     0
  0
BLOCK_RECORD
  5
16E
330
1
100
AcDbSymbolTableRecord
100
AcDbBlockTableRecord
  2
Block_12
340
0
102
{BLKREFS
331
16F
102
}
 70
     0
280
     1
281
     0
  0
BLOCK_RECORD
  5
174
330
1
100
AcDbSymbolTableRecord
100
AcDbBlockTableRecord
  2
Block_13
340
0
102
{BLKREFS
331
175
102
}
 70
     0
280
     1
281
     0
  0
BLOCK_RECORD
  5
178
330
1
100
AcDbSymbolTableRecord
100
AcDbBlockTableRecord
  2
Block_14
340
0
102
{BLKREFS
331
179
102
}
 70
     0
280
     1
281
     0
  0
BLOCK_RECORD
  5
17F
330
1
100
AcDbSymbolTableRecord
100
AcDbBlockTableRecord
  2
Block_15
340
0
102
{BLKREFS
331
180
102
}
 70
     0
280
     1
281
     0
  0
BLOCK_RECORD
  5
183
330
1
100
AcDbSymbolTableRecord
100
AcDbBlockTableRecord
  2
Block_16
340
0
102
{BLKREFS
331
184
102
}
 70
     0
280
     1
281
     0
  0
ENDTAB
  0
ENDSEC
  0
SECTION
  2
BLOCKS
  0
BLOCK
  5
71
330
70
100
AcDbEntity
  8
0
100
AcDbBlockBegin
  2
*Model_Space
 70
     0
 10
0.0
 20
0.0
 30
0.0
  3
*Model_Space
  1

  0
ENDBLK
  5
72
330
70
100
AcDbEntity
  8
0
100
AcDbBlockEnd
  0
BLOCK
  5
6D
330
6C
100
AcDbEntity
 67
     1
  8
0
100
AcDbBlockBegin
  2
*Paper_Space
 70
     0
 10
0.0
 20
0.0
 30
0.0
  3
*Paper_Space
  1

  0
ENDBLK
  5
6E
330
6C
100
AcDbEntity
 67
     1
  8
0
100
AcDbBlockEnd
  0
BLOCK
  5
75
330
74
100
AcDbEntity
 67
     1
  8
0
100
AcDbBlockBegin
  2
*Paper_Space0
 70
     0
 10
0.0
 20
0.0
 30
0.0
  3
*Paper_Space0
  1

  0
ENDBLK
  5
76
330
74
100
AcDbEntity
 67
     1
  8
0
100
AcDbBlockEnd
  0
BLOCK
  5
7B
330
79
100
AcDbEntity
  8
0
100
AcDbBlockBegin
  2
Block_0
 70
     0
 10
0.0
 20
0.0
 30
0.0
  3
Block_0
  1

  0
INSERT
  5
7E
330
79
100
AcDbEntity
  8
レイヤー 1
100
AcDbBlockReference
  2
Block_1
 10
0.0
 20
0.0
 30
0.0
  0
INSERT
  5
B8
330
79
100
AcDbEntity
  8
レイヤー 1
100
AcDbBlockReference
  2
Block_2
 10
0.0
 20
0.0
 30
0.0
  0
INSERT
  5
175
330
79
100
AcDbEntity
  8
レイヤー 1
100
AcDbBlockReference
  2
Block_13
 10
0.0
 20
0.0
 30
0.0
  0
ENDBLK
  5
7C
330
79
100
AcDbEntity
  8
0
100
AcDbBlockEnd
  0
BLOCK
  5
7F
330
7D
100
AcDbEntity
  8
0
100
AcDbBlockBegin
  2
Block_1
 70
     0
 10
0.0
 20
0.0
 30
0.0
  3
Block_1
  1

  0
SPLINE
  5
81
330
7D
100
AcDbEntity
  8
レイヤー 1
 62
   250
420
  2299925
370
     9
100
AcDbSpline
210
0.0
220
0.0
230
1.0
 70
     8
 71
     3
 72
     8
 73
     4
 74
     0
 42
0.0000000001
 43
0.0000000001
 40
0.0
 40
0.0
 40
0.0
 40
0.0
 40
1.0
 40
1.0
 40
1.0
 40
1.0
 10
133.6410355333926
 20
-153.5437544365614
 30
0.0
 10
133.6410355333926
 20
-153.5437544365614
 30
0.0
 10
132.9354799958373
 20
-153.0665872144591
 30
0.0
 10
132.8204391654389
 20
-153.486216381021
 30
0.0
  0
SPLINE
  5
82
330
7D
100
AcDbEntity
  8
レイヤー 1
 62
   250
420
  2299925
370
     9
100
AcDbSpline
210
0.0
220
0.0
230
1.0
 70
     8
 71
     3
 72
    26
 73
    22
 74
     0
 42
0.0000000001
 43
0.0000000001
 40
0.0
 40
0.0
 40
0.0
 40
0.0
 40
1.0
 40
1.0
 40
1.0
 40
2.0
 40
2.0
 40
2.0
 40
3.0
 40
3.0
 40
3.0
 40
4.0
 40
4.0
 40
4.0
 40
5.0
 40
5.0
 40
5.0
 40
6.0
 40
6.0
 40
6.0
 40
7.0
 40
7.0
 40
7.0
 40
7.0
 10
134.176415167339
 20
-146.4962774938791
 30
0.0
 10
134.176415167339
 20
-146.4962774938791
 30
0.0
 10
125.543692128862
 20
-149.5331297153422
 30
0.0
 10
125.543692128862
 20
-149.5331297153422
 30
0.0
 10
125.543692128862
 20
-149.5331297153422
 30
0.0
 10
124.1690935528198
 20
-149.800641104164
 30
0.0
 10
124.684501873004
 20
-150.2588288818274
 30
0.0
 10
124.684501873004
 20
-150.2588288818274
 30
0.0
 10
124.9904346140797
 20
-150.4498580484467
 30
0.0
 10
125.5251007404474
 20
-150.6600077706157
 30
0.0
 10
125.5251007404474
 20
-150.6600077706157
 30
0.0
 10
130.5859447780012
 20
-152.7034730478825
 30
0.0
 10
130.5859447780012
 20
-152.7034730478825
 30
0.0
 10
130.5859447780012
 20
-152.7034730478825
 30
0.0
 10
130.5473508900969
 20
-155.7778961026697
 30
0.0
 10
130.5473508900969
 20
-155.7778961026697
 30
0.0
 10
130.5473508900969
 20
-155.7778961026697
 30
0.0
 10
133.2021447112563
 20
-157.0577386023503
 30
0.0
 10
133.2021447112563
 20
-157.0577386023503
 30
0.0
 10
133.2021447112563
 20
-157.0577386023503
 30
0.0
 10
136.9269840606722
 20
-155.4724611027463
 30
0.0
 10
136.9269840606722
 20
-155.4724611027463
 30
0.0
  0
LINE
  5
83
330
7D
100
AcDbEntity
  8
レイヤー 1
 62
   250
420
  2299925
370
     9
100
AcDbLine
 10
132.8969213857099
 20
-153.3525488810538
 30
0.0
 11
142.2351958696929
 21
-149.3422769376117
 31
0.0
  0
SPLINE
  5
84
330
7D
100
AcDbEntity
  8
レイヤー 1
 62
   250
420
  2299925
370
     9
100
AcDbSpline
210
0.0
220
0.0
230
1.0
 70
     8
 71
     3
 72
    26
 73
    22
 74
     0
 42
0.0000000001
 43
0.0000000001
 40
0.0
 40
0.0
 40
0.0
 40
0.0
 40
1.0
 40
1.0
 40
1.0
 40
2.0
 40
2.0
 40
2.0
 40
3.0
 40
3.0
 40
3.0
 40
4.0
 40
4.0
 40
4.0
 40
5.0
 40
5.0
 40
5.0
 40
6.0
 40
6.0
 40
6.0
 40
7.0
 40
7.0
 40
7.0
 40
7.0
 10
134.2714846839752
 20
-146.668538882725
 30
0.0
 10
134.2714846839752
 20
-146.668538882725
 30
0.0
 10
125.3335424120011
 20
-149.800641104164
 30
0.0
 10
125.3335424120011
 20
-149.800641104164
 30
0.0
 10
125.3335424120011
 20
-149.800641104164
 30
0.0
 10
124.856731836335
 20
-149.8767705485894
 30
0.0
 10
124.8946515898648
 20
-150.0488555485467
 30
0.0
 10
124.8946515898648
 20
-150.0488555485467
 30
0.0
 10
124.8753546459127
 20
-150.1251613818609
 30
0.0
 10
125.1812873918101
 20
-150.2202702707259
 30
0.0
 10
125.1812873918101
 20
-150.2202702707259
 30
0.0
 10
130.8911681035476
 20
-152.4743791590514
 30
0.0
 10
130.8911681035476
 20
-152.4743791590514
 30
0.0
 10
130.8911681035476
 20
-152.4743791590514
 30
0.0
 10
130.8911681035476
 20
-155.4535169360842
 30
0.0
 10
130.8911681035476
 20
-155.4535169360842
 30
0.0
 10
130.8911681035476
 20
-155.4535169360842
 30
0.0
 10
132.7060373899282
 20
-156.312918880314
 30
0.0
 10
132.7060373899282
 20
-156.312918880314
 30
0.0
 10
132.7060373899282
 20
-156.312918880314
 30
0.0
 10
132.8390346121174
 20
-153.486216381021
 30
0.0
 10
132.8390346121174
 20
-153.486216381021
 30
0.0
  0
LINE
  5
85
330
7D
100
AcDbEntity
  8
レイヤー 1
 62
   250
420
  2299925
370
     9
100
AcDbLine
 10
140.2494450870203
 20
-148.7309483266538
 30
0.0
 11
130.8911681035476
 21
-152.5315644368147
 31
0.0
  0
SPLINE
  5
86
330
7D
100
AcDbEntity
  8
レイヤー 1
 62
   250
420
  2299925
370
     9
100
AcDbSpline
210
0.0
220
0.0
230
1.0
 70
     8
 71
     3
 72
    20
 73
    16
 74
     0
 42
0.0000000001
 43
0.0000000001
 40
0.0
 40
0.0
 40
0.0
 40
0.0
 40
1.0
 40
1.0
 40
1.0
 40
2.0
 40
2.0
 40
2.0
 40
3.0
 40
3.0
 40
3.0
 40
4.0
 40
4.0
 40
4.0
 40
5.0
 40
5.0
 40
5.0
 40
5.0
 10
133.2021447112563
 20
-157.0577386023503
 30
0.0
 10
133.2021447112563
 20
-157.0577386023503
 30
0.0
 10
133.2021447112563
 20
-154.1166655475292
 30
0.0
 10
133.2021447112563
 20
-154.1166655475292
 30
0.0
 10
133.2021447112563
 20
-154.1166655475292
 30
0.0
 10
133.2021447112563
 20
-153.773024714282
 30
0.0
 10
133.4315913720693
 20
-153.9066922142485
 30
0.0
 10
133.4315913720693
 20
-153.9066922142485
 30
0.0
 10
138.7218820704361
 20
-156.2174924914488
 30
0.0
 10
138.7218820704361
 20
-156.2174924914488
 30
0.0
 10
138.7218820704361
 20
-156.2174924914488
 30
0.0
 10
139.4667017736564
 20
-156.6756802691116
 30
0.0
 10
140.1729628667493
 20
-156.4657069358308
 30
0.0
 10
140.1729628667493
 20
-156.4657069358308
 30
0.0
 10
149.7606512332581
 20
-152.3975441590705
 30
0.0
 10
149.7606512332581
 20
-152.3975441590705
 30
0.0
  0
SPLINE
  5
87
330
7D
100
AcDbEntity
  8
レイヤー 1
 62
   250
420
  2299925
370
     9
100
AcDbSpline
210
0.0
220
0.0
230
1.0
 70
     8
 71
     3
 72
    20
 73
    16
 74
     0
 42
0.0000000001
 43
0.0000000001
 40
0.0
 40
0.0
 40
0.0
 40
0.0
 40
1.0
 40
1.0
 40
1.0
 40
2.0
 40
2.0
 40
2.0
 40
3.0
 40
3.0
 40
3.0
 40
4.0
 40
4.0
 40
4.0
 40
5.0
 40
5.0
 40
5.0
 40
5.0
 10
133.3744060957505
 20
-153.4100869365949
 30
0.0
 10
133.3744060957505
 20
-153.4100869365949
 30
0.0
 10
136.9070168389594
 20
-155.0333938806338
 30
0.0
 10
137.0792429456766
 20
-155.1286438806101
 30
0.0
 10
137.0792429456766
 20
-155.1286438806101
 30
0.0
 10
139.2372551128434
 20
-156.1410102692457
 30
0.0
 10
139.2372551128434
 20
-156.1410102692457
 30
0.0
 10
139.2372551128434
 20
-156.1410102692457
 30
0.0
 10
139.6575545465651
 20
-156.4850038802707
 30
0.0
 10
140.5739653565188
 20
-156.0266044359409
 30
0.0
 10
140.5739653565188
 20
-156.0266044359409
 30
0.0
 10
147.9078623916378
 20
-152.8371405478496
 30
0.0
 10
147.9078623916378
 20
-152.8371405478496
 30
0.0
 10
147.9078623916378
 20
-152.8371405478496
 30
0.0
 10
149.5690929048118
 20
-152.1303855480264
 30
0.0
 10
149.5690929048118
 20
-152.1303855480264
 30
0.0
  0
LINE
  5
88
330
7D
100
AcDbEntity
  8
レイヤー 1
 62
   250
420
  2299925
370
     9
100
AcDbLine
 10
130.8911681035476
 20
-155.4535169360842
 30
0.0
 11
132.7439569451679
 21
-154.7850030473629
 31
0.0
  0
SPLINE
  5
89
330
7D
100
AcDbEntity
  8
レイヤー 1
 62
   250
420
  2299925
370
     9
100
AcDbSpline
210
0.0
220
0.0
230
1.0
 70
     9
 71
     3
 72
    17
 73
    13
 74
     0
 42
0.0000000001
 43
0.0000000001
 40
0.0
 40
0.0
 40
0.0
 40
0.0
 40
1.0
 40
1.0
 40
1.0
 40
2.0
 40
2.0
 40
2.0
 40
3.0
 40
3.0
 40
3.0
 40
4.0
 40
4.0
 40
4.0
 40
4.0
 10
137.5167932122916
 20
-148.5111324933755
 30
0.0
 10
137.5167932122916
 20
-148.7469644377609
 30
0.0
 10
137.1860640540625
 20
-148.9388402710461
 30
0.0
 10
136.7802285088607
 20
-148.9388402710461
 30
0.0
 10
136.3723115748231
 20
-148.9388402710461
 30
0.0
 10
136.0422879721316
 20
-148.7469644377609
 30
0.0
 10
136.0422879721316
 20
-148.5111324933755
 30
0.0
 10
136.0422879721316
 20
-148.2748066601013
 30
0.0
 10
136.3723115748231
 20
-148.0834247157045
 30
0.0
 10
136.7802285088607
 20
-148.0834247157045
 30
0.0
 10
137.1860640540625
 20
-148.0834247157045
 30
0.0
 10
137.5167932122916
 20
-148.2748066601013
 30
0.0
 10
137.5167932122916
 20
-148.5111324933755
 30
0.0
  0
SPLINE
  5
8A
330
7D
100
AcDbEntity
  8
レイヤー 1
 62
   250
420
  2299925
370
     9
100
AcDbSpline
210
0.0
220
0.0
230
1.0
 70
     8
 71
     3
 72
    11
 73
     7
 74
     0
 42
0.0000000001
 43
0.0000000001
 40
0.0
 40
0.0
 40
0.0
 40
0.0
 40
1.0
 40
1.0
 40
1.0
 40
2.0
 40
2.0
 40
2.0
 40
2.0
 10
136.1704521355285
 20
-148.7459413822057
 30
0.0
 10
136.1704521355285
 20
-148.7459413822057
 30
0.0
 10
136.1490738027406
 20
-148.2327908267785
 30
0.0
 10
136.9827935036928
 20
-148.276358882323
 30
0.0
 10
136.9827935036928
 20
-148.276358882323
 30
0.0
 10
137.4733662689551
 20
-148.3397530489737
 30
0.0
 10
137.3886290488947
 20
-148.7249158266553
 30
0.0
  0
SPLINE
  5
8B
330
7D
100
AcDbEntity
  8
レイヤー 1
 62
   250
420
  2299925
370
     9
100
AcDbSpline
210
0.0
220
0.0
230
1.0
 70
     9
 71
     3
 72
    17
 73
    13
 74
     0
 42
0.0000000001
 43
0.0000000001
 40
0.0
 40
0.0
 40
0.0
 40
0.0
 40
1.0
 40
1.0
 40
1.0
 40
2.0
 40
2.0
 40
2.0
 40
3.0
 40
3.0
 40
3.0
 40
4.0
 40
4.0
 40
4.0
 40
4.0
 10
137.2797618294499
 20
-147.4254236047578
 30
0.0
 10
137.2797618294499
 20
-147.6615730491435
 30
0.0
 10
136.9490326712208
 20
-147.8529549935399
 30
0.0
 10
136.5424957223025
 20
-147.8529549935399
 30
0.0
 10
136.1346099142207
 20
-147.8529549935399
 30
0.0
 10
135.8052565892899
 20
-147.6615730491435
 30
0.0
 10
135.8052565892899
 20
-147.4254236047578
 30
0.0
 10
135.8052565892899
 20
-147.1892741603725
 30
0.0
 10
136.1346099142207
 20
-146.9980686048649
 30
0.0
 10
136.5424957223025
 20
-146.9980686048649
 30
0.0
 10
136.9490326712208
 20
-146.9980686048649
 30
0.0
 10
137.2797618294499
 20
-147.1892741603725
 30
0.0
 10
137.2797618294499
 20
-147.4254236047578
 30
0.0
  0
SPLINE
  5
8C
330
7D
100
AcDbEntity
  8
レイヤー 1
 62
   250
420
  2299925
370
     9
100
AcDbSpline
210
0.0
220
0.0
230
1.0
 70
     8
 71
     3
 72
    11
 73
     7
 74
     0
 42
0.0000000001
 43
0.0000000001
 40
0.0
 40
0.0
 40
0.0
 40
0.0
 40
1.0
 40
1.0
 40
1.0
 40
2.0
 40
2.0
 40
2.0
 40
2.0
 10
135.9327151971492
 20
-147.660549993588
 30
0.0
 10
135.9327151971492
 20
-147.660549993588
 30
0.0
 10
135.9120424198989
 20
-147.147046660383
 30
0.0
 10
136.7443862875529
 20
-147.1906499937054
 30
0.0
 10
136.7443862875529
 20
-147.1906499937054
 30
0.0
 10
137.2363348861133
 20
-147.2540441603564
 30
0.0
 10
137.1509273882923
 20
-147.639206938038
 30
0.0
  0
SPLINE
  5
8D
330
7D
100
AcDbEntity
  8
レイヤー 1
 62
   250
420
  2299925
370
     9
100
AcDbSpline
210
0.0
220
0.0
230
1.0
 70
     9
 71
     3
 72
    17
 73
    13
 74
     0
 42
0.0000000001
 43
0.0000000001
 40
0.0
 40
0.0
 40
0.0
 40
0.0
 40
1.0
 40
1.0
 40
1.0
 40
2.0
 40
2.0
 40
2.0
 40
3.0
 40
3.0
 40
3.0
 40
4.0
 40
4.0
 40
4.0
 40
4.0
 10
127.5770012801004
 20
-150.0376724929934
 30
0.0
 10
127.5770012801004
 20
-150.2736455484902
 30
0.0
 10
127.2469384742974
 20
-150.4648511039984
 30
0.0
 10
126.8397270957974
 20
-150.4648511039984
 30
0.0
 10
126.4325157172973
 20
-150.4648511039984
 30
0.0
 10
126.1031976701433
 20
-150.2736455484902
 30
0.0
 10
126.1031976701433
 20
-150.0376724929934
 30
0.0
 10
126.1031976701433
 20
-149.8016641597198
 30
0.0
 10
126.4325157172973
 20
-149.6097883264342
 30
0.0
 10
126.8397270957974
 20
-149.6097883264342
 30
0.0
 10
127.2469384742974
 20
-149.6097883264342
 30
0.0
 10
127.5770012801004
 20
-149.8016641597198
 30
0.0
 10
127.5770012801004
 20
-150.0376724929934
 30
0.0
  0
SPLINE
  5
8E
330
7D
100
AcDbEntity
  8
レイヤー 1
 62
   250
420
  2299925
370
     9
100
AcDbSpline
210
0.0
220
0.0
230
1.0
 70
     8
 71
     3
 72
    11
 73
     7
 74
     0
 42
0.0000000001
 43
0.0000000001
 40
0.0
 40
0.0
 40
0.0
 40
0.0
 40
1.0
 40
1.0
 40
1.0
 40
2.0
 40
2.0
 40
2.0
 40
2.0
 10
126.2313265557634
 20
-150.2724461040462
 30
0.0
 10
126.2313265557634
 20
-150.2724461040462
 30
0.0
 10
126.2092818359978
 20
-149.7591191597297
 30
0.0
 10
127.0423273684064
 20
-149.8023697152753
 30
0.0
 10
127.0423273684064
 20
-149.8023697152753
 30
0.0
 10
127.5335704114293
 20
-149.8662577708142
 30
0.0
 10
127.4488331913689
 20
-150.2511030484961
 30
0.0
  0
SPLINE
  5
8F
330
7D
100
AcDbEntity
  8
レイヤー 1
 62
   250
420
  2299925
370
     9
100
AcDbSpline
210
0.0
220
0.0
230
1.0
 70
     9
 71
     3
 72
    17
 73
    13
 74
     0
 42
0.0000000001
 43
0.0000000001
 40
0.0
 40
0.0
 40
0.0
 40
0.0
 40
1.0
 40
1.0
 40
1.0
 40
2.0
 40
2.0
 40
2.0
 40
3.0
 40
3.0
 40
3.0
 40
4.0
 40
4.0
 40
4.0
 40
4.0
 10
135.3112266018936
 20
-149.5970530486592
 30
0.0
 10
135.3112266018936
 20
-149.8326733263782
 30
0.0
 10
134.9798271659039
 20
-150.0242316596642
 30
0.0
 10
134.5739957227952
 20
-150.0242316596642
 30
0.0
 10
134.1660746866644
 20
-150.0242316596642
 30
0.0
 10
133.8374269172712
 20
-149.8326733263782
 30
0.0
 10
133.8374269172712
 20
-149.5970530486592
 30
0.0
 10
133.8374269172712
 20
-149.360868326496
 30
0.0
 10
134.1660746866644
 20
-149.1693452709882
 30
0.0
 10
134.5739957227952
 20
-149.1693452709882
 30
0.0
 10
134.9798271659039
 20
-149.1693452709882
 30
0.0
 10
135.3112266018936
 20
-149.360868326496
 30
0.0
 10
135.3112266018936
 20
-149.5970530486592
 30
0.0
  0
SPLINE
  5
90
330
7D
100
AcDbEntity
  8
レイヤー 1
 62
   250
420
  2299925
370
     9
100
AcDbSpline
210
0.0
220
0.0
230
1.0
 70
     8
 71
     3
 72
    11
 73
     7
 74
     0
 42
0.0000000001
 43
0.0000000001
 40
0.0
 40
0.0
 40
0.0
 40
0.0
 40
1.0
 40
1.0
 40
1.0
 40
2.0
 40
2.0
 40
2.0
 40
2.0
 10
133.9655910806681
 20
-149.8316502708231
 30
0.0
 10
133.9655910806681
 20
-149.8316502708231
 30
0.0
 10
133.9435424701195
 20
-149.3184997153955
 30
0.0
 10
134.7772268932948
 20
-149.3619266598293
 30
0.0
 10
134.7772268932948
 20
-149.3619266598293
 30
0.0
 10
135.2685052140946
 20
-149.4254619375917
 30
0.0
 10
135.1830624384967
 20
-149.8104483263844
 30
0.0
  0
SPLINE
  5
91
330
7D
100
AcDbEntity
  8
レイヤー 1
 62
   250
420
  2299925
370
     9
100
AcDbSpline
210
0.0
220
0.0
230
1.0
 70
     9
 71
     3
 72
    17
 73
    13
 74
     0
 42
0.0000000001
 43
0.0000000001
 40
0.0
 40
0.0
 40
0.0
 40
0.0
 40
1.0
 40
1.0
 40
1.0
 40
2.0
 40
2.0
 40
2.0
 40
3.0
 40
3.0
 40
3.0
 40
4.0
 40
4.0
 40
4.0
 40
4.0
 10
135.0735290560041
 20
-148.5111324933755
 30
0.0
 10
135.0735290560041
 20
-148.7469644377609
 30
0.0
 10
134.7427957830622
 20
-148.9388402710461
 30
0.0
 10
134.3369602378603
 20
-148.9388402710461
 30
0.0
 10
133.9290433038227
 20
-148.9388402710461
 30
0.0
 10
133.5997252566688
 20
-148.7469644377609
 30
0.0
 10
133.5997252566688
 20
-148.5111324933755
 30
0.0
 10
133.5997252566688
 20
-148.2748066601013
 30
0.0
 10
133.9290433038227
 20
-148.0834247157045
 30
0.0
 10
134.3369602378603
 20
-148.0834247157045
 30
0.0
 10
134.7427957830622
 20
-148.0834247157045
 30
0.0
 10
135.0735290560041
 20
-148.2748066601013
 30
0.0
 10
135.0735290560041
 20
-148.5111324933755
 30
0.0
  0
SPLINE
  5
92
330
7D
100
AcDbEntity
  8
レイヤー 1
 62
   250
420
  2299925
370
     9
100
AcDbSpline
210
0.0
220
0.0
230
1.0
 70
     8
 71
     3
 72
    11
 73
     7
 74
     0
 42
0.0000000001
 43
0.0000000001
 40
0.0
 40
0.0
 40
0.0
 40
0.0
 40
1.0
 40
1.0
 40
1.0
 40
2.0
 40
2.0
 40
2.0
 40
2.0
 10
133.7278541422888
 20
-148.7459413822057
 30
0.0
 10
133.7278541422888
 20
-148.7459413822057
 30
0.0
 10
133.7065151674569
 20
-148.2327908267785
 30
0.0
 10
134.5395252326925
 20
-148.276358882323
 30
0.0
 10
134.5395252326925
 20
-148.276358882323
 30
0.0
 10
135.0314738312529
 20
-148.3397530489737
 30
0.0
 10
134.9453607778943
 20
-148.7249158266553
 30
0.0
  0
SPLINE
  5
93
330
7D
100
AcDbEntity
  8
レイヤー 1
 62
   250
420
  2299925
370
     9
100
AcDbSpline
210
0.0
220
0.0
230
1.0
 70
     9
 71
     3
 72
    17
 73
    13
 74
     0
 42
0.0000000001
 43
0.0000000001
 40
0.0
 40
0.0
 40
0.0
 40
0.0
 40
1.0
 40
1.0
 40
1.0
 40
2.0
 40
2.0
 40
2.0
 40
3.0
 40
3.0
 40
3.0
 40
4.0
 40
4.0
 40
4.0
 40
4.0
 10
134.5305646773655
 20
-147.5613488825019
 30
0.0
 10
134.5305646773655
 20
-147.7976747157761
 30
0.0
 10
134.200541074674
 20
-147.9887038823948
 30
0.0
 10
133.7940040563238
 20
-147.9887038823948
 30
0.0
 10
133.3867885954346
 20
-147.9887038823948
 30
0.0
 10
133.0567649927431
 20
-147.7976747157761
 30
0.0
 10
133.0567649927431
 20
-147.5613488825019
 30
0.0
 10
133.0567649927431
 20
-147.3253405492273
 30
0.0
 10
133.3867885954346
 20
-147.133782215942
 30
0.0
 10
133.7940040563238
 20
-147.133782215942
 30
0.0
 10
134.200541074674
 20
-147.133782215942
 30
0.0
 10
134.5305646773655
 20
-147.3253405492273
 30
0.0
 10
134.5305646773655
 20
-147.5613488825019
 30
0.0
  0
SPLINE
  5
94
330
7D
100
AcDbEntity
  8
レイヤー 1
 62
   250
420
  2299925
370
     9
100
AcDbSpline
210
0.0
220
0.0
230
1.0
 70
     8
 71
     3
 72
    11
 73
     7
 74
     0
 42
0.0000000001
 43
0.0000000001
 40
0.0
 40
0.0
 40
0.0
 40
0.0
 40
1.0
 40
1.0
 40
1.0
 40
2.0
 40
2.0
 40
2.0
 40
2.0
 10
133.18492915614
 20
-147.7964752713318
 30
0.0
 10
133.18492915614
 20
-147.7964752713318
 30
0.0
 10
133.1635508233521
 20
-147.2831483270156
 30
0.0
 10
133.9966002465436
 20
-147.3261872158939
 30
0.0
 10
133.9966002465436
 20
-147.3261872158939
 30
0.0
 10
134.4885488451041
 20
-147.3901105492112
 30
0.0
 10
134.4031060695062
 20
-147.7752733268927
 30
0.0
  0
SPLINE
  5
95
330
7D
100
AcDbEntity
  8
レイヤー 1
 62
   250
420
  2299925
370
     9
100
AcDbSpline
210
0.0
220
0.0
230
1.0
 70
     9
 71
     3
 72
    17
 73
    13
 74
     0
 42
0.0000000001
 43
0.0000000001
 40
0.0
 40
0.0
 40
0.0
 40
0.0
 40
1.0
 40
1.0
 40
1.0
 40
2.0
 40
2.0
 40
2.0
 40
3.0
 40
3.0
 40
3.0
 40
4.0
 40
4.0
 40
4.0
 40
4.0
 10
133.0044127718564
 20
-150.410770270678
 30
0.0
 10
133.0044127718564
 20
-150.6470961039525
 30
0.0
 10
132.6736836136274
 20
-150.8383016594607
 30
0.0
 10
132.267142512888
 20
-150.8383016594607
 30
0.0
 10
131.859931134388
 20
-150.8383016594607
 30
0.0
 10
131.5305818346671
 20
-150.6470961039525
 30
0.0
 10
131.5305818346671
 20
-150.410770270678
 30
0.0
 10
131.5305818346671
 20
-150.1746208262929
 30
0.0
 10
131.859931134388
 20
-149.9832388818965
 30
0.0
 10
132.267142512888
 20
-149.9832388818965
 30
0.0
 10
132.6736836136274
 20
-149.9832388818965
 30
0.0
 10
133.0044127718564
 20
-150.1746208262929
 30
0.0
 10
133.0044127718564
 20
-150.410770270678
 30
0.0
  0
SPLINE
  5
96
330
7D
100
AcDbEntity
  8
レイヤー 1
 62
   250
420
  2299925
370
     9
100
AcDbSpline
210
0.0
220
0.0
230
1.0
 70
     8
 71
     3
 72
    11
 73
     7
 74
     0
 42
0.0000000001
 43
0.0000000001
 40
0.0
 40
0.0
 40
0.0
 40
0.0
 40
1.0
 40
1.0
 40
1.0
 40
2.0
 40
2.0
 40
2.0
 40
2.0
 10
131.658741972854
 20
-150.6455438817307
 30
0.0
 10
131.658741972854
 20
-150.6455438817307
 30
0.0
 10
131.6366933623054
 20
-150.1323933263037
 30
0.0
 10
132.4704130632577
 20
-150.1756438818481
 30
0.0
 10
132.4704130632577
 20
-150.1756438818481
 30
0.0
 10
132.9616913840575
 20
-150.2397083262765
 30
0.0
 10
132.875543052922
 20
-150.6245536039578
 30
0.0
  0
SPLINE
  5
97
330
7D
100
AcDbEntity
  8
レイヤー 1
 62
   250
420
  2299925
370
     9
100
AcDbSpline
210
0.0
220
0.0
230
1.0
 70
     9
 71
     3
 72
    17
 73
    13
 74
     0
 42
0.0000000001
 43
0.0000000001
 40
0.0
 40
0.0
 40
0.0
 40
0.0
 40
1.0
 40
1.0
 40
1.0
 40
2.0
 40
2.0
 40
2.0
 40
3.0
 40
3.0
 40
3.0
 40
4.0
 40
4.0
 40
4.0
 40
4.0
 10
132.7660096121361
 20
-149.3252377709498
 30
0.0
 10
132.7660096121361
 20
-149.5612108264466
 30
0.0
 10
132.4359466752481
 20
-149.7524163819535
 30
0.0
 10
132.0294408522856
 20
-149.7524163819535
 30
0.0
 10
131.6222294737856
 20
-149.7524163819535
 30
0.0
 10
131.2928761488547
 20
-149.5612108264466
 30
0.0
 10
131.2928761488547
 20
-149.3252377709498
 30
0.0
 10
131.2928761488547
 20
-149.0892294376749
 30
0.0
 10
131.6222294737856
 20
-148.89735360439
 30
0.0
 10
132.0294408522856
 20
-148.89735360439
 30
0.0
 10
132.4359466752481
 20
-148.89735360439
 30
0.0
 10
132.7660096121361
 20
-149.0892294376749
 30
0.0
 10
132.7660096121361
 20
-149.3252377709498
 30
0.0
  0
SPLINE
  5
98
330
7D
100
AcDbEntity
  8
レイヤー 1
 62
   250
420
  2299925
370
     9
100
AcDbSpline
210
0.0
220
0.0
230
1.0
 70
     8
 71
     3
 72
    11
 73
     7
 74
     0
 42
0.0000000001
 43
0.0000000001
 40
0.0
 40
0.0
 40
0.0
 40
0.0
 40
1.0
 40
1.0
 40
1.0
 40
2.0
 40
2.0
 40
2.0
 40
2.0
 10
131.4210403122517
 20
-149.5596586042242
 30
0.0
 10
131.4210403122517
 20
-149.5596586042242
 30
0.0
 10
131.3996619794637
 20
-149.0466844376861
 30
0.0
 10
132.2327114026553
 20
-149.0900761043418
 30
0.0
 10
132.2327114026553
 20
-149.0900761043418
 30
0.0
 10
132.7239544456782
 20
-149.1538230487706
 30
0.0
 10
132.6385116700802
 20
-149.5388094375632
 30
0.0
  0
SPLINE
  5
99
330
7D
100
AcDbEntity
  8
レイヤー 1
 62
   250
420
  2299925
370
     9
100
AcDbSpline
210
0.0
220
0.0
230
1.0
 70
     9
 71
     3
 72
    17
 73
    13
 74
     0
 42
0.0000000001
 43
0.0000000001
 40
0.0
 40
0.0
 40
0.0
 40
0.0
 40
1.0
 40
1.0
 40
1.0
 40
2.0
 40
2.0
 40
2.0
 40
3.0
 40
3.0
 40
3.0
 40
4.0
 40
4.0
 40
4.0
 40
4.0
 10
132.224421125089
 20
-148.3750661045207
 30
0.0
 10
132.224421125089
 20
-148.6113919377949
 30
0.0
 10
131.89369196686
 20
-148.8027738821913
 30
0.0
 10
131.4878564216581
 20
-148.8027738821913
 30
0.0
 10
131.0799747653974
 20
-148.8027738821913
 30
0.0
 10
130.749915884929
 20
-148.6113919377949
 30
0.0
 10
130.749915884929
 20
-148.3750661045207
 30
0.0
 10
130.749915884929
 20
-148.1390577712464
 30
0.0
 10
131.0799747653974
 20
-147.9482049935162
 30
0.0
 10
131.4878564216581
 20
-147.9482049935162
 30
0.0
 10
131.89369196686
 20
-147.9482049935162
 30
0.0
 10
132.224421125089
 20
-148.1390577712464
 30
0.0
 10
132.224421125089
 20
-148.3750661045207
 30
0.0
  0
SPLINE
  5
9A
330
7D
100
AcDbEntity
  8
レイヤー 1
 62
   250
420
  2299925
370
     9
100
AcDbSpline
210
0.0
220
0.0
230
1.0
 70
     8
 71
     3
 72
    11
 73
     7
 74
     0
 42
0.0000000001
 43
0.0000000001
 40
0.0
 40
0.0
 40
0.0
 40
0.0
 40
1.0
 40
1.0
 40
1.0
 40
2.0
 40
2.0
 40
2.0
 40
2.0
 10
130.8780800483259
 20
-148.6103688822394
 30
0.0
 10
130.8780800483259
 20
-148.6103688822394
 30
0.0
 10
130.8560314377773
 20
-148.0966891601458
 30
0.0
 10
131.6897511387296
 20
-148.1404688823571
 30
0.0
 10
131.6897511387296
 20
-148.1404688823571
 30
0.0
 10
132.1803239039918
 20
-148.2040041601188
 30
0.0
 10
132.0962569616921
 20
-148.5888141600226
 30
0.0
  0
SPLINE
  5
9B
330
7D
100
AcDbEntity
  8
レイヤー 1
 62
   250
420
  2299925
370
     9
100
AcDbSpline
210
0.0
220
0.0
230
1.0
 70
     9
 71
     3
 72
    17
 73
    13
 74
     0
 42
0.0000000001
 43
0.0000000001
 40
0.0
 40
0.0
 40
0.0
 40
0.0
 40
1.0
 40
1.0
 40
1.0
 40
2.0
 40
2.0
 40
2.0
 40
3.0
 40
3.0
 40
3.0
 40
4.0
 40
4.0
 40
4.0
 40
4.0
 10
130.5611485015762
 20
-151.2251930482522
 30
0.0
 10
130.5611485015762
 20
-151.461166103749
 30
0.0
 10
130.2310856203877
 20
-151.6525480481455
 30
0.0
 10
129.8245797974252
 20
-151.6525480481455
 30
0.0
 10
129.4166628633876
 20
-151.6525480481455
 30
0.0
 10
129.0866392606961
 20
-151.461166103749
 30
0.0
 10
129.0866392606961
 20
-151.2251930482522
 30
0.0
 10
129.0866392606961
 20
-150.9888672149783
 30
0.0
 10
129.4166628633876
 20
-150.797308881693
 30
0.0
 10
129.8245797974252
 20
-150.797308881693
 30
0.0
 10
130.2310856203877
 20
-150.797308881693
 30
0.0
 10
130.5611485015762
 20
-150.9888672149783
 30
0.0
 10
130.5611485015762
 20
-151.2251930482522
 30
0.0
  0
SPLINE
  5
9C
330
7D
100
AcDbEntity
  8
レイヤー 1
 62
   250
420
  2299925
370
     9
100
AcDbSpline
210
0.0
220
0.0
230
1.0
 70
     8
 71
     3
 72
    11
 73
     7
 74
     0
 42
0.0000000001
 43
0.0000000001
 40
0.0
 40
0.0
 40
0.0
 40
0.0
 40
1.0
 40
1.0
 40
1.0
 40
2.0
 40
2.0
 40
2.0
 40
2.0
 10
129.214803424093
 20
-151.4601430481939
 30
0.0
 10
129.214803424093
 20
-151.4601430481939
 30
0.0
 10
129.1934290574736
 20
-150.9466397149885
 30
0.0
 10
130.0271447922573
 20
-150.9898902705335
 30
0.0
 10
130.0271447922573
 20
-150.9898902705335
 30
0.0
 10
130.5190933908178
 20
-151.0534608260734
 30
0.0
 10
130.4336506152198
 20
-151.4387999926438
 30
0.0
  0
SPLINE
  5
9D
330
7D
100
AcDbEntity
  8
レイヤー 1
 62
   250
420
  2299925
370
     9
100
AcDbSpline
210
0.0
220
0.0
230
1.0
 70
     9
 71
     3
 72
    17
 73
    13
 74
     0
 42
0.0000000001
 43
0.0000000001
 40
0.0
 40
0.0
 40
0.0
 40
0.0
 40
1.0
 40
1.0
 40
1.0
 40
2.0
 40
2.0
 40
2.0
 40
3.0
 40
3.0
 40
3.0
 40
4.0
 40
4.0
 40
4.0
 40
4.0
 10
130.3241131180144
 20
-150.1393077707463
 30
0.0
 10
130.3241131180144
 20
-150.3754572151313
 30
0.0
 10
129.9933839597853
 20
-150.5670155484173
 30
0.0
 10
129.5868781368228
 20
-150.5670155484173
 30
0.0
 10
129.1796707241434
 20
-150.5670155484173
 30
0.0
 10
128.8503134333919
 20
-150.3754572151313
 30
0.0
 10
128.8503134333919
 20
-150.1393077707463
 30
0.0
 10
128.8503134333919
 20
-149.9031230485832
 30
0.0
 10
129.1796707241434
 20
-149.7120938819645
 30
0.0
 10
129.5868781368228
 20
-149.7120938819645
 30
0.0
 10
129.9933839597853
 20
-149.7120938819645
 30
0.0
 10
130.3241131180144
 20
-149.9031230485832
 30
0.0
 10
130.3241131180144
 20
-150.1393077707463
 30
0.0
  0
SPLINE
  5
9E
330
7D
100
AcDbEntity
  8
レイヤー 1
 62
   250
420
  2299925
370
     9
100
AcDbSpline
210
0.0
220
0.0
230
1.0
 70
     8
 71
     3
 72
    11
 73
     7
 74
     0
 42
0.0000000001
 43
0.0000000001
 40
0.0
 40
0.0
 40
0.0
 40
0.0
 40
1.0
 40
1.0
 40
1.0
 40
2.0
 40
2.0
 40
2.0
 40
2.0
 10
128.978442319012
 20
-150.3744341595762
 30
0.0
 10
128.978442319012
 20
-150.3744341595762
 30
0.0
 10
128.9570992640009
 20
-149.8609308263709
 30
0.0
 10
129.7901134094156
 20
-149.9043577708047
 30
0.0
 10
129.7901134094156
 20
-149.9043577708047
 30
0.0
 10
130.2821012794234
 20
-149.9680694374553
 30
0.0
 10
130.1959489546175
 20
-150.3532322151375
 30
0.0
  0
SPLINE
  5
9F
330
7D
100
AcDbEntity
  8
レイヤー 1
 62
   250
420
  2299925
370
     9
100
AcDbSpline
210
0.0
220
0.0
230
1.0
 70
     9
 71
     3
 72
    17
 73
    13
 74
     0
 42
0.0000000001
 43
0.0000000001
 40
0.0
 40
0.0
 40
0.0
 40
0.0
 40
1.0
 40
1.0
 40
1.0
 40
2.0
 40
2.0
 40
2.0
 40
3.0
 40
3.0
 40
3.0
 40
4.0
 40
4.0
 40
4.0
 40
4.0
 10
129.7811568351048
 20
-149.1893124932054
 30
0.0
 10
129.7811568351048
 20
-149.4254619375917
 30
0.0
 10
129.4504236958596
 20
-149.6170202708764
 30
0.0
 10
129.0445881506578
 20
-149.6170202708764
 30
0.0
 10
128.636706494397
 20
-149.6170202708764
 30
0.0
 10
128.3073531694662
 20
-149.4254619375917
 30
0.0
 10
128.3073531694662
 20
-149.1893124932054
 30
0.0
 10
128.3073531694662
 20
-148.95348054882
 30
0.0
 10
128.636706494397
 20
-148.7621338822017
 30
0.0
 10
129.0445881506578
 20
-148.7621338822017
 30
0.0
 10
129.4504236958596
 20
-148.7621338822017
 30
0.0
 10
129.7811568351048
 20
-148.95348054882
 30
0.0
 10
129.7811568351048
 20
-149.1893124932054
 30
0.0
  0
SPLINE
  5
A0
330
7D
100
AcDbEntity
  8
レイヤー 1
 62
   250
420
  2299925
370
     9
100
AcDbSpline
210
0.0
220
0.0
230
1.0
 70
     8
 71
     3
 72
    11
 73
     7
 74
     0
 42
0.0000000001
 43
0.0000000001
 40
0.0
 40
0.0
 40
0.0
 40
0.0
 40
1.0
 40
1.0
 40
1.0
 40
2.0
 40
2.0
 40
2.0
 40
2.0
 10
128.4355173328631
 20
-149.4244388820359
 30
0.0
 10
128.4355173328631
 20
-149.4244388820359
 30
0.0
 10
128.4141429465577
 20
-148.9111119377195
 30
0.0
 10
129.2471884232668
 20
-148.9545388821533
 30
0.0
 10
129.2471884232668
 20
-148.9545388821533
 30
0.0
 10
129.7384314662897
 20
-149.0182505488039
 30
0.0
 10
129.6530239684686
 20
-149.4032369375966
 30
0.0
  0
SPLINE
  5
A1
330
7D
100
AcDbEntity
  8
レイヤー 1
 62
   250
420
  2299925
370
     9
100
AcDbSpline
210
0.0
220
0.0
230
1.0
 70
     9
 71
     3
 72
    17
 73
    13
 74
     0
 42
0.0000000001
 43
0.0000000001
 40
0.0
 40
0.0
 40
0.0
 40
0.0
 40
1.0
 40
1.0
 40
1.0
 40
2.0
 40
2.0
 40
2.0
 40
3.0
 40
3.0
 40
3.0
 40
4.0
 40
4.0
 40
4.0
 40
4.0
 10
140.1626264781241
 20
-153.9390772142411
 30
0.0
 10
140.1626264781241
 20
-154.175403047515
 30
0.0
 10
139.831897319895
 20
-154.3667849919114
 30
0.0
 10
139.4260617746932
 20
-154.3667849919114
 30
0.0
 10
139.0181448406556
 20
-154.3667849919114
 30
0.0
 10
138.6887957217668
 20
-154.175403047515
 30
0.0
 10
138.6887957217668
 20
-153.9390772142411
 30
0.0
 10
138.6887957217668
 20
-153.703245269855
 30
0.0
 10
139.0181448406556
 20
-153.5120397143475
 30
0.0
 10
139.4260617746932
 20
-153.5120397143475
 30
0.0
 10
139.831897319895
 20
-153.5120397143475
 30
0.0
 10
140.1626264781241
 20
-153.703245269855
 30
0.0
 10
140.1626264781241
 20
-153.9390772142411
 30
0.0
  0
SPLINE
  5
A2
330
7D
100
AcDbEntity
  8
レイヤー 1
 62
   250
420
  2299925
370
     9
100
AcDbSpline
210
0.0
220
0.0
230
1.0
 70
     8
 71
     3
 72
    11
 73
     7
 74
     0
 42
0.0000000001
 43
0.0000000001
 40
0.0
 40
0.0
 40
0.0
 40
0.0
 40
1.0
 40
1.0
 40
1.0
 40
2.0
 40
2.0
 40
2.0
 40
2.0
 10
138.816285401361
 20
-154.1742036030709
 30
0.0
 10
138.816285401361
 20
-154.1742036030709
 30
0.0
 10
138.7949070685731
 20
-153.6610530476434
 30
0.0
 10
139.6286267695253
 20
-153.7046211031885
 30
0.0
 10
139.6286267695253
 20
-153.7046211031885
 30
0.0
 10
140.1199050903251
 20
-153.7680152698389
 30
0.0
 10
140.0344623147272
 20
-154.1528252697427
 30
0.0
  0
SPLINE
  5
A3
330
7D
100
AcDbEntity
  8
レイヤー 1
 62
   250
420
  2299925
370
     9
100
AcDbSpline
210
0.0
220
0.0
230
1.0
 70
     9
 71
     3
 72
    17
 73
    13
 74
     0
 42
0.0000000001
 43
0.0000000001
 40
0.0
 40
0.0
 40
0.0
 40
0.0
 40
1.0
 40
1.0
 40
1.0
 40
2.0
 40
2.0
 40
2.0
 40
3.0
 40
3.0
 40
3.0
 40
4.0
 40
4.0
 40
4.0
 40
4.0
 10
140.1626264781241
 20
-155.2623113805766
 30
0.0
 10
140.1626264781241
 20
-155.4984961027398
 30
0.0
 10
139.831897319895
 20
-155.6900191582476
 30
0.0
 10
139.4260617746932
 20
-155.6900191582476
 30
0.0
 10
139.0181448406556
 20
-155.6900191582476
 30
0.0
 10
138.6887957217668
 20
-155.4984961027398
 30
0.0
 10
138.6887957217668
 20
-155.2623113805766
 30
0.0
 10
138.6887957217668
 20
-155.0263383250799
 30
0.0
 10
139.0181448406556
 20
-154.8349563806834
 30
0.0
 10
139.4260617746932
 20
-154.8349563806834
 30
0.0
 10
139.831897319895
 20
-154.8349563806834
 30
0.0
 10
140.1626264781241
 20
-155.0263383250799
 30
0.0
 10
140.1626264781241
 20
-155.2623113805766
 30
0.0
  0
SPLINE
  5
A4
330
7D
100
AcDbEntity
  8
レイヤー 1
 62
   250
420
  2299925
370
     9
100
AcDbSpline
210
0.0
220
0.0
230
1.0
 70
     8
 71
     3
 72
    11
 73
     7
 74
     0
 42
0.0000000001
 43
0.0000000001
 40
0.0
 40
0.0
 40
0.0
 40
0.0
 40
1.0
 40
1.0
 40
1.0
 40
2.0
 40
2.0
 40
2.0
 40
2.0
 10
138.816285401361
 20
-155.4972966582951
 30
0.0
 10
138.816285401361
 20
-155.4972966582951
 30
0.0
 10
138.7949070685731
 20
-154.9841461028682
 30
0.0
 10
139.6286267695253
 20
-155.0275377695245
 30
0.0
 10
139.6286267695253
 20
-155.0275377695245
 30
0.0
 10
140.1199050903251
 20
-155.0909319361749
 30
0.0
 10
140.0344623147272
 20
-155.4760947138564
 30
0.0
  0
SPLINE
  5
A5
330
7D
100
AcDbEntity
  8
レイヤー 1
 62
   250
420
  2299925
370
     9
100
AcDbSpline
210
0.0
220
0.0
230
1.0
 70
     9
 71
     3
 72
    17
 73
    13
 74
     0
 42
0.0000000001
 43
0.0000000001
 40
0.0
 40
0.0
 40
0.0
 40
0.0
 40
1.0
 40
1.0
 40
1.0
 40
2.0
 40
2.0
 40
2.0
 40
3.0
 40
3.0
 40
3.0
 40
4.0
 40
4.0
 40
4.0
 40
4.0
 10
140.1626264781241
 20
-152.7179369367681
 30
0.0
 10
140.1626264781241
 20
-152.9542980478202
 30
0.0
 10
139.831897319895
 20
-153.1455036033277
 30
0.0
 10
139.4260617746932
 20
-153.1455036033277
 30
0.0
 10
139.0181448406556
 20
-153.1455036033277
 30
0.0
 10
138.6887957217668
 20
-152.9542980478202
 30
0.0
 10
138.6887957217668
 20
-152.7179369367681
 30
0.0
 10
138.6887957217668
 20
-152.4817874923831
 30
0.0
 10
139.0181448406556
 20
-152.2907583257638
 30
0.0
 10
139.4260617746932
 20
-152.2907583257638
 30
0.0
 10
139.831897319895
 20
-152.2907583257638
 30
0.0
 10
140.1626264781241
 20
-152.4817874923831
 30
0.0
 10
140.1626264781241
 20
-152.7179369367681
 30
0.0
  0
SPLINE
  5
A6
330
7D
100
AcDbEntity
  8
レイヤー 1
 62
   250
420
  2299925
370
     9
100
AcDbSpline
210
0.0
220
0.0
230
1.0
 70
     8
 71
     3
 72
    11
 73
     7
 74
     0
 42
0.0000000001
 43
0.0000000001
 40
0.0
 40
0.0
 40
0.0
 40
0.0
 40
1.0
 40
1.0
 40
1.0
 40
2.0
 40
2.0
 40
2.0
 40
2.0
 10
138.816285401361
 20
-152.9529222144873
 30
0.0
 10
138.816285401361
 20
-152.9529222144873
 30
0.0
 10
138.7949070685731
 20
-152.4395952701708
 30
0.0
 10
139.6286267695253
 20
-152.4829869368265
 30
0.0
 10
139.6286267695253
 20
-152.4829869368265
 30
0.0
 10
140.1199050903251
 20
-152.5469102701442
 30
0.0
 10
140.0344623147272
 20
-152.931720270048
 30
0.0
  0
SPLINE
  5
A7
330
7D
100
AcDbEntity
  8
レイヤー 1
 62
   250
420
  2299925
370
     9
100
AcDbSpline
210
0.0
220
0.0
230
1.0
 70
     9
 71
     3
 72
    17
 73
    13
 74
     0
 42
0.0000000001
 43
0.0000000001
 40
0.0
 40
0.0
 40
0.0
 40
0.0
 40
1.0
 40
1.0
 40
1.0
 40
2.0
 40
2.0
 40
2.0
 40
3.0
 40
3.0
 40
3.0
 40
4.0
 40
4.0
 40
4.0
 40
4.0
 10
142.3847030881008
 20
-153.1086383255594
 30
0.0
 10
142.3847030881008
 20
-153.3446113810555
 30
0.0
 10
142.0539739298718
 20
-153.5356405476748
 30
0.0
 10
141.6474681069093
 20
-153.5356405476748
 30
0.0
 10
141.2402567284092
 20
-153.5356405476748
 30
0.0
 10
140.9101978479409
 20
-153.3446113810555
 30
0.0
 10
140.9101978479409
 20
-153.1086383255594
 30
0.0
 10
140.9101978479409
 20
-152.8719597145077
 30
0.0
 10
141.2402567284092
 20
-152.6807541589995
 30
0.0
 10
141.6474681069093
 20
-152.6807541589995
 30
0.0
 10
142.0539739298718
 20
-152.6807541589995
 30
0.0
 10
142.3847030881008
 20
-152.8719597145077
 30
0.0
 10
142.3847030881008
 20
-153.1086383255594
 30
0.0
  0
SPLINE
  5
A8
330
7D
100
AcDbEntity
  8
レイヤー 1
 62
   250
420
  2299925
370
     9
100
AcDbSpline
210
0.0
220
0.0
230
1.0
 70
     8
 71
     3
 72
    11
 73
     7
 74
     0
 42
0.0000000001
 43
0.0000000001
 40
0.0
 40
0.0
 40
0.0
 40
0.0
 40
1.0
 40
1.0
 40
1.0
 40
2.0
 40
2.0
 40
2.0
 40
2.0
 10
141.0383620113378
 20
-153.3432355477226
 30
0.0
 10
141.0383620113378
 20
-153.3432355477226
 30
0.0
 10
141.0169836785499
 20
-152.8300849922957
 30
0.0
 10
141.8507033795021
 20
-152.8731591589511
 30
0.0
 10
141.8507033795021
 20
-152.8731591589511
 30
0.0
 10
142.3419817003019
 20
-152.9370472144912
 30
0.0
 10
142.2565389247039
 20
-153.3222099921728
 30
0.0
  0
SPLINE
  5
A9
330
7D
100
AcDbEntity
  8
レイヤー 1
 62
   250
420
  2299925
370
     9
100
AcDbSpline
210
0.0
220
0.0
230
1.0
 70
     9
 71
     3
 72
    17
 73
    13
 74
     0
 42
0.0000000001
 43
0.0000000001
 40
0.0
 40
0.0
 40
0.0
 40
0.0
 40
1.0
 40
1.0
 40
1.0
 40
2.0
 40
2.0
 40
2.0
 40
3.0
 40
3.0
 40
3.0
 40
4.0
 40
4.0
 40
4.0
 40
4.0
 10
142.3847030881008
 20
-154.4315549918953
 30
0.0
 10
142.3847030881008
 20
-154.6675280473914
 30
0.0
 10
142.0539739298718
 20
-154.8589099917885
 30
0.0
 10
141.6474681069093
 20
-154.8589099917885
 30
0.0
 10
141.2402567284092
 20
-154.8589099917885
 30
0.0
 10
140.9101978479409
 20
-154.6675280473914
 30
0.0
 10
140.9101978479409
 20
-154.4315549918953
 30
0.0
 10
140.9101978479409
 20
-154.1951938808433
 30
0.0
 10
141.2402567284092
 20
-154.0038472142243
 30
0.0
 10
141.6474681069093
 20
-154.0038472142243
 30
0.0
 10
142.0539739298718
 20
-154.0038472142243
 30
0.0
 10
142.3847030881008
 20
-154.1951938808433
 30
0.0
 10
142.3847030881008
 20
-154.4315549918953
 30
0.0
  0
SPLINE
  5
AA
330
7D
100
AcDbEntity
  8
レイヤー 1
 62
   250
420
  2299925
370
     9
100
AcDbSpline
210
0.0
220
0.0
230
1.0
 70
     8
 71
     3
 72
    11
 73
     7
 74
     0
 42
0.0000000001
 43
0.0000000001
 40
0.0
 40
0.0
 40
0.0
 40
0.0
 40
1.0
 40
1.0
 40
1.0
 40
2.0
 40
2.0
 40
2.0
 40
2.0
 10
141.0383620113378
 20
-154.6663286029481
 30
0.0
 10
141.0383620113378
 20
-154.6663286029481
 30
0.0
 10
141.0169836785499
 20
-154.1528252697427
 30
0.0
 10
141.8507033795021
 20
-154.1964286030648
 30
0.0
 10
141.8507033795021
 20
-154.1964286030648
 30
0.0
 10
142.3419817003019
 20
-154.2599638808272
 30
0.0
 10
142.2565389247039
 20
-154.6453030473976
 30
0.0
  0
SPLINE
  5
AB
330
7D
100
AcDbEntity
  8
レイヤー 1
 62
   250
420
  2299925
370
     9
100
AcDbSpline
210
0.0
220
0.0
230
1.0
 70
     9
 71
     3
 72
    17
 73
    13
 74
     0
 42
0.0000000001
 43
0.0000000001
 40
0.0
 40
0.0
 40
0.0
 40
0.0
 40
1.0
 40
1.0
 40
1.0
 40
2.0
 40
2.0
 40
2.0
 40
3.0
 40
3.0
 40
3.0
 40
4.0
 40
4.0
 40
4.0
 40
4.0
 10
142.3847030881008
 20
-151.8871805480868
 30
0.0
 10
142.3847030881008
 20
-152.1229772146947
 30
0.0
 10
142.0539739298718
 20
-152.3141827702023
 30
0.0
 10
141.6474681069093
 20
-152.3141827702023
 30
0.0
 10
141.2402567284092
 20
-152.3141827702023
 30
0.0
 10
140.9101978479409
 20
-152.1229772146947
 30
0.0
 10
140.9101978479409
 20
-151.8871805480868
 30
0.0
 10
140.9101978479409
 20
-151.6511722148126
 30
0.0
 10
141.2402567284092
 20
-151.4594727704165
 30
0.0
 10
141.6474681069093
 20
-151.4594727704165
 30
0.0
 10
142.0539739298718
 20
-151.4594727704165
 30
0.0
 10
142.3847030881008
 20
-151.6511722148126
 30
0.0
 10
142.3847030881008
 20
-151.8871805480868
 30
0.0
  0
SPLINE
  5
AC
330
7D
100
AcDbEntity
  8
レイヤー 1
 62
   250
420
  2299925
370
     9
100
AcDbSpline
210
0.0
220
0.0
230
1.0
 70
     8
 71
     3
 72
    11
 73
     7
 74
     0
 42
0.0000000001
 43
0.0000000001
 40
0.0
 40
0.0
 40
0.0
 40
0.0
 40
1.0
 40
1.0
 40
1.0
 40
2.0
 40
2.0
 40
2.0
 40
2.0
 10
141.0383620113378
 20
-152.1219541591396
 30
0.0
 10
141.0383620113378
 20
-152.1219541591396
 30
0.0
 10
141.0169836785499
 20
-151.6086272148231
 30
0.0
 10
141.8507033795021
 20
-151.6518777703681
 30
0.0
 10
141.8507033795021
 20
-151.6518777703681
 30
0.0
 10
142.3419817003019
 20
-151.7155894370187
 30
0.0
 10
142.2565389247039
 20
-152.1005758258114
 30
0.0
  0
SPLINE
  5
AD
330
7D
100
AcDbEntity
  8
レイヤー 1
 62
   250
420
  2299925
370
     9
100
AcDbSpline
210
0.0
220
0.0
230
1.0
 70
     9
 71
     3
 72
    17
 73
    13
 74
     0
 42
0.0000000001
 43
0.0000000001
 40
0.0
 40
0.0
 40
0.0
 40
0.0
 40
1.0
 40
1.0
 40
1.0
 40
2.0
 40
2.0
 40
2.0
 40
3.0
 40
3.0
 40
3.0
 40
4.0
 40
4.0
 40
4.0
 40
4.0
 10
144.8438110809194
 20
-152.1753647146814
 30
0.0
 10
144.8438110809194
 20
-152.411514159067
 30
0.0
 10
144.5137874782278
 20
-152.6028961034635
 30
0.0
 10
144.1072463774885
 20
-152.6028961034635
 30
0.0
 10
143.7000349989884
 20
-152.6028961034635
 30
0.0
 10
143.3693058407593
 20
-152.411514159067
 30
0.0
 10
143.3693058407593
 20
-152.1753647146814
 30
0.0
 10
143.3693058407593
 20
-151.9393563814071
 30
0.0
 10
143.7000349989884
 20
-151.7476569370104
 30
0.0
 10
144.1072463774885
 20
-151.7476569370104
 30
0.0
 10
144.5137874782278
 20
-151.7476569370104
 30
0.0
 10
144.8438110809194
 20
-151.9393563814071
 30
0.0
 10
144.8438110809194
 20
-152.1753647146814
 30
0.0
  0
SPLINE
  5
AE
330
7D
100
AcDbEntity
  8
レイヤー 1
 62
   250
420
  2299925
370
     9
100
AcDbSpline
210
0.0
220
0.0
230
1.0
 70
     8
 71
     3
 72
    11
 73
     7
 74
     0
 42
0.0000000001
 43
0.0000000001
 40
0.0
 40
0.0
 40
0.0
 40
0.0
 40
1.0
 40
1.0
 40
1.0
 40
2.0
 40
2.0
 40
2.0
 40
2.0
 10
143.4981402819169
 20
-152.4101383257335
 30
0.0
 10
143.4981402819169
 20
-152.4101383257335
 30
0.0
 10
143.4767972269059
 20
-151.8966349925294
 30
0.0
 10
144.3091410945599
 20
-151.9400619369626
 30
0.0
 10
144.3091410945599
 20
-151.9400619369626
 30
0.0
 10
144.8010896931204
 20
-152.0039499925021
 30
0.0
 10
144.7163568313708
 20
-152.3891127701837
 30
0.0
  0
SPLINE
  5
AF
330
7D
100
AcDbEntity
  8
レイヤー 1
 62
   250
420
  2299925
370
     9
100
AcDbSpline
210
0.0
220
0.0
230
1.0
 70
     9
 71
     3
 72
    17
 73
    13
 74
     0
 42
0.0000000001
 43
0.0000000001
 40
0.0
 40
0.0
 40
0.0
 40
0.0
 40
1.0
 40
1.0
 40
1.0
 40
2.0
 40
2.0
 40
2.0
 40
3.0
 40
3.0
 40
3.0
 40
4.0
 40
4.0
 40
4.0
 40
4.0
 10
144.8438110809194
 20
-153.4982813810174
 30
0.0
 10
144.8438110809194
 20
-153.7347836031807
 30
0.0
 10
144.5137874782278
 20
-153.9258127697994
 30
0.0
 10
144.1072463774885
 20
-153.9258127697994
 30
0.0
 10
143.7000349989884
 20
-153.9258127697994
 30
0.0
 10
143.3693058407593
 20
-153.7347836031807
 30
0.0
 10
143.3693058407593
 20
-153.4982813810174
 30
0.0
 10
143.3693058407593
 20
-153.262273047743
 30
0.0
 10
143.7000349989884
 20
-153.0710674922355
 30
0.0
 10
144.1072463774885
 20
-153.0710674922355
 30
0.0
 10
144.5137874782278
 20
-153.0710674922355
 30
0.0
 10
144.8438110809194
 20
-153.262273047743
 30
0.0
 10
144.8438110809194
 20
-153.4982813810174
 30
0.0
  0
SPLINE
  5
B0
330
7D
100
AcDbEntity
  8
レイヤー 1
 62
   250
420
  2299925
370
     9
100
AcDbSpline
210
0.0
220
0.0
230
1.0
 70
     8
 71
     3
 72
    11
 73
     7
 74
     0
 42
0.0000000001
 43
0.0000000001
 40
0.0
 40
0.0
 40
0.0
 40
0.0
 40
1.0
 40
1.0
 40
1.0
 40
2.0
 40
2.0
 40
2.0
 40
2.0
 10
143.4981402819169
 20
-153.7334077698472
 30
0.0
 10
143.4981402819169
 20
-153.7334077698472
 30
0.0
 10
143.4767972269059
 20
-153.2199044366431
 30
0.0
 10
144.3091410945599
 20
-153.2632961032988
 30
0.0
 10
144.3091410945599
 20
-153.2632961032988
 30
0.0
 10
144.8010896931204
 20
-153.3273958255047
 30
0.0
 10
144.7163568313708
 20
-153.7122058254085
 30
0.0
  0
SPLINE
  5
B1
330
7D
100
AcDbEntity
  8
レイヤー 1
 62
   250
420
  2299925
370
     9
100
AcDbSpline
210
0.0
220
0.0
230
1.0
 70
     9
 71
     3
 72
    17
 73
    13
 74
     0
 42
0.0000000001
 43
0.0000000001
 40
0.0
 40
0.0
 40
0.0
 40
0.0
 40
1.0
 40
1.0
 40
1.0
 40
2.0
 40
2.0
 40
2.0
 40
3.0
 40
3.0
 40
3.0
 40
4.0
 40
4.0
 40
4.0
 40
4.0
 10
144.8438110809194
 20
-150.9539069372088
 30
0.0
 10
144.8438110809194
 20
-151.1900563815945
 30
0.0
 10
144.5137874782278
 20
-151.3812619371021
 30
0.0
 10
144.1072463774885
 20
-151.3812619371021
 30
0.0
 10
143.7000349989884
 20
-151.3812619371021
 30
0.0
 10
143.3693058407593
 20
-151.1900563815945
 30
0.0
 10
143.3693058407593
 20
-150.9539069372088
 30
0.0
 10
143.3693058407593
 20
-150.7178986039352
 30
0.0
 10
143.7000349989884
 20
-150.5265166595381
 30
0.0
 10
144.1072463774885
 20
-150.5265166595381
 30
0.0
 10
144.5137874782278
 20
-150.5265166595381
 30
0.0
 10
144.8438110809194
 20
-150.7178986039352
 30
0.0
 10
144.8438110809194
 20
-150.9539069372088
 30
0.0
  0
SPLINE
  5
B2
330
7D
100
AcDbEntity
  8
レイヤー 1
 62
   250
420
  2299925
370
     9
100
AcDbSpline
210
0.0
220
0.0
230
1.0
 70
     8
 71
     3
 72
    11
 73
     7
 74
     0
 42
0.0000000001
 43
0.0000000001
 40
0.0
 40
0.0
 40
0.0
 40
0.0
 40
1.0
 40
1.0
 40
1.0
 40
2.0
 40
2.0
 40
2.0
 40
2.0
 10
143.4981402819169
 20
-151.1890333260394
 30
0.0
 10
143.4981402819169
 20
-151.1890333260394
 30
0.0
 10
143.4767972269059
 20
-150.6758827706124
 30
0.0
 10
144.3091410945599
 20
-150.7189216594904
 30
0.0
 10
144.3091410945599
 20
-150.7189216594904
 30
0.0
 10
144.8010896931204
 20
-150.7830213816963
 30
0.0
 10
144.7163568313708
 20
-151.1678313816
 30
0.0
  0
SPLINE
  5
B3
330
7D
100
AcDbEntity
  8
レイヤー 1
 62
   250
420
  2299925
370
     9
100
AcDbSpline
210
0.0
220
0.0
230
1.0
 70
     9
 71
     3
 72
    17
 73
    13
 74
     0
 42
0.0000000001
 43
0.0000000001
 40
0.0
 40
0.0
 40
0.0
 40
0.0
 40
1.0
 40
1.0
 40
1.0
 40
2.0
 40
2.0
 40
2.0
 40
3.0
 40
3.0
 40
3.0
 40
4.0
 40
4.0
 40
4.0
 40
4.0
 10
147.2188521314381
 20
-152.7179369367681
 30
0.0
 10
147.2188521314381
 20
-152.9542980478202
 30
0.0
 10
146.888122973209
 20
-153.1455036033277
 30
0.0
 10
146.4816171502465
 20
-153.1455036033277
 30
0.0
 10
146.0744057717465
 20
-153.1455036033277
 30
0.0
 10
145.7443512755584
 20
-152.9542980478202
 30
0.0
 10
145.7443512755584
 20
-152.7179369367681
 30
0.0
 10
145.7443512755584
 20
-152.4817874923831
 30
0.0
 10
146.0744057717465
 20
-152.2907583257638
 30
0.0
 10
146.4816171502465
 20
-152.2907583257638
 30
0.0
 10
146.888122973209
 20
-152.2907583257638
 30
0.0
 10
147.2188521314381
 20
-152.4817874923831
 30
0.0
 10
147.2188521314381
 20
-152.7179369367681
 30
0.0
  0
SPLINE
  5
B4
330
7D
100
AcDbEntity
  8
レイヤー 1
 62
   250
420
  2299925
370
     9
100
AcDbSpline
210
0.0
220
0.0
230
1.0
 70
     8
 71
     3
 72
    11
 73
     7
 74
     0
 42
0.0000000001
 43
0.0000000001
 40
0.0
 40
0.0
 40
0.0
 40
0.0
 40
1.0
 40
1.0
 40
1.0
 40
2.0
 40
2.0
 40
2.0
 40
2.0
 10
145.872511054675
 20
-152.9529222144873
 30
0.0
 10
145.872511054675
 20
-152.9529222144873
 30
0.0
 10
145.851167999664
 20
-152.4395952701708
 30
0.0
 10
146.684856830878
 20
-152.4829869368265
 30
0.0
 10
146.684856830878
 20
-152.4829869368265
 30
0.0
 10
147.1761307436391
 20
-152.5469102701442
 30
0.0
 10
147.0900176902805
 20
-152.931720270048
 30
0.0
  0
SPLINE
  5
B5
330
7D
100
AcDbEntity
  8
レイヤー 1
 62
   250
420
  2299925
370
     9
100
AcDbSpline
210
0.0
220
0.0
230
1.0
 70
     9
 71
     3
 72
    17
 73
    13
 74
     0
 42
0.0000000001
 43
0.0000000001
 40
0.0
 40
0.0
 40
0.0
 40
0.0
 40
1.0
 40
1.0
 40
1.0
 40
2.0
 40
2.0
 40
2.0
 40
3.0
 40
3.0
 40
3.0
 40
4.0
 40
4.0
 40
4.0
 40
4.0
 10
147.2188521314381
 20
-151.4970083259622
 30
0.0
 10
147.2188521314381
 20
-151.7326638814588
 30
0.0
 10
146.888122973209
 20
-151.9241869369666
 30
0.0
 10
146.4816171502465
 20
-151.9241869369666
 30
0.0
 10
146.0744057717465
 20
-151.9241869369666
 30
0.0
 10
145.7443512755584
 20
-151.7326638814588
 30
0.0
 10
145.7443512755584
 20
-151.4970083259622
 30
0.0
 10
145.7443512755584
 20
-151.2608588815766
 30
0.0
 10
146.0744057717465
 20
-151.0691241594024
 30
0.0
 10
146.4816171502465
 20
-151.0691241594024
 30
0.0
 10
146.888122973209
 20
-151.0691241594024
 30
0.0
 10
147.2188521314381
 20
-151.2608588815766
 30
0.0
 10
147.2188521314381
 20
-151.4970083259622
 30
0.0
  0
SPLINE
  5
B6
330
7D
100
AcDbEntity
  8
レイヤー 1
 62
   250
420
  2299925
370
     9
100
AcDbSpline
210
0.0
220
0.0
230
1.0
 70
     8
 71
     3
 72
    11
 73
     7
 74
     0
 42
0.0000000001
 43
0.0000000001
 40
0.0
 40
0.0
 40
0.0
 40
0.0
 40
1.0
 40
1.0
 40
1.0
 40
2.0
 40
2.0
 40
2.0
 40
2.0
 10
145.872511054675
 20
-151.7316055481255
 30
0.0
 10
145.872511054675
 20
-151.7316055481255
 30
0.0
 10
145.851167999664
 20
-151.2183138815878
 30
0.0
 10
146.684856830878
 20
-151.2617055482435
 30
0.0
 10
146.684856830878
 20
-151.2617055482435
 30
0.0
 10
147.1761307436391
 20
-151.3254524926723
 30
0.0
 10
147.0900176902805
 20
-151.7104388814649
 30
0.0
  0
ENDBLK
  5
80
330
7D
100
AcDbEntity
  8
0
100
AcDbBlockEnd
  0
BLOCK
  5
B9
330
B7
100
AcDbEntity
  8
0
100
AcDbBlockBegin
  2
Block_2
 70
     0
 10
0.0
 20
0.0
 30
0.0
  3
Block_2
  1

  0
LINE
  5
BB
330
B7
100
AcDbEntity
  8
レイヤー 1
  6
AI-Linetype-0
 62
   154
420
    23468
370
    25
100
AcDbLine
 10
67.49936666525197
 20
-148.0253927712746
 30
0.0
 11
77.49892307680871
 21
-148.0253927712746
 31
0.0
  0
LINE
  5
BD
330
B7
100
AcDbEntity
  8
レイヤー 1
  6
AI-Linetype-1
 62
   154
420
    23468
370
    25
100
AcDbLine
 10
104.0369835108775
 20
-148.0253927712746
 30
0.0
 11
114.0374218668558
 21
-148.0253927712746
 31
0.0
  0
LINE
  5
BF
330
B7
100
AcDbEntity
  8
レイヤー 1
 62
    18
420
        0
370
    25
100
AcDbLine
 10
94.50097708749462
 20
-152.5026366590441
 30
0.0
 11
87.50087837719311
 21
-152.5026366590441
 31
0.0
  0
LINE
  5
C0
330
B7
100
AcDbEntity
  8
レイヤー 1
 62
    18
420
        0
370
    25
100
AcDbLine
 10
67.49936666525197
 20
-147.0021961048639
 30
0.0
 11
67.49936666525197
 21
-147.5024349936276
 31
0.0
  0
LINE
  5
C1
330
B7
100
AcDbEntity
  8
レイヤー 1
 62
    18
420
        0
370
    25
100
AcDbLine
 10
87.50087837719311
 20
-147.5024349936276
 30
0.0
 11
67.49936666525197
 21
-147.5024349936276
 31
0.0
  0
LINE
  5
C2
330
B7
100
AcDbEntity
  8
レイヤー 1
 62
    18
420
        0
370
    25
100
AcDbLine
 10
67.49936666525197
 20
-147.0021961048639
 30
0.0
 11
68.01336387436103
 21
-147.3846072158794
 31
0.0
  0
LINE
  5
C3
330
B7
100
AcDbEntity
  8
レイヤー 1
 62
    18
420
        0
370
    25
100
AcDbLine
 10
68.01336387436103
 20
-147.3846072158794
 30
0.0
 11
68.49843330643065
 21
-146.9670594382059
 31
0.0
  0
LINE
  5
C4
330
B7
100
AcDbEntity
  8
レイヤー 1
 62
    18
420
        0
370
    25
100
AcDbLine
 10
69.01243051553939
 20
-147.3487649936661
 30
0.0
 11
69.49820550314623
 21
-146.9312172159926
 31
0.0
  0
LINE
  5
C5
330
B7
100
AcDbEntity
  8
レイヤー 1
 62
    18
420
        0
370
    25
100
AcDbLine
 10
68.49843330643065
 20
-146.9670594382059
 30
0.0
 11
69.01243051553939
 21
-147.3487649936661
 31
0.0
  0
LINE
  5
C6
330
B7
100
AcDbEntity
  8
レイヤー 1
 62
    18
420
        0
370
    25
100
AcDbLine
 10
69.49820550314623
 20
-146.9312172159926
 30
0.0
 11
70.0122027122553
 21
-147.3129580492304
 31
0.0
  0
LINE
  5
C7
330
B7
100
AcDbEntity
  8
レイヤー 1
 62
    18
420
        0
370
    25
100
AcDbLine
 10
70.0122027122553
 20
-147.3129580492304
 30
0.0
 11
70.49727214432458
 21
-146.8954102715572
 31
0.0
  0
LINE
  5
C8
330
B7
100
AcDbEntity
  8
レイヤー 1
 62
    18
420
        0
370
    25
100
AcDbLine
 10
70.49727214432458
 20
-146.8954102715572
 30
0.0
 11
71.01126935343365
 21
-147.2771158270171
 31
0.0
  0
LINE
  5
C9
330
B7
100
AcDbEntity
  8
レイヤー 1
 62
    18
420
        0
370
    25
100
AcDbLine
 10
71.01126935343365
 20
-147.2771158270171
 30
0.0
 11
71.49704434104018
 21
-146.8595680493439
 31
0.0
  0
LINE
  5
CA
330
B7
100
AcDbEntity
  8
レイヤー 1
 62
    18
420
        0
370
    25
100
AcDbLine
 10
71.49704434104018
 20
-146.8595680493439
 30
0.0
 11
72.01104155014988
 21
-147.2412736048039
 31
0.0
  0
LINE
  5
CB
330
B7
100
AcDbEntity
  8
レイヤー 1
 62
    18
420
        0
370
    25
100
AcDbLine
 10
72.01104155014988
 20
-147.2412736048039
 30
0.0
 11
72.49611098221885
 21
-146.8237258271307
 31
0.0
  0
LINE
  5
CC
330
B7
100
AcDbEntity
  8
レイヤー 1
 62
    18
420
        0
370
    25
100
AcDbLine
 10
72.49611098221885
 20
-146.8237258271307
 30
0.0
 11
73.01014346910479
 21
-147.2061369381462
 31
0.0
  0
LINE
  5
CD
330
B7
100
AcDbEntity
  8
レイヤー 1
 62
    18
420
        0
370
    25
100
AcDbLine
 10
73.01014346910479
 20
-147.2061369381462
 30
0.0
 11
73.49588317893476
 21
-146.7885891604727
 31
0.0
  0
LINE
  5
CE
330
B7
100
AcDbEntity
  8
レイヤー 1
 62
    18
420
        0
370
    25
100
AcDbLine
 10
73.49588317893476
 20
-146.7885891604727
 30
0.0
 11
74.00921011028315
 21
-147.1703299937107
 31
0.0
  0
LINE
  5
CF
330
B7
100
AcDbEntity
  8
レイヤー 1
 62
    18
420
        0
370
    25
100
AcDbLine
 10
74.00921011028315
 20
-147.1703299937107
 30
0.0
 11
74.4949498201131
 21
-146.7527822160372
 31
0.0
  0
LINE
  5
D0
330
B7
100
AcDbEntity
  8
レイヤー 1
 62
    18
420
        0
370
    25
100
AcDbLine
 10
75.00898230699873
 20
-147.1344877714975
 30
0.0
 11
75.49405173906866
 21
-146.716939993824
 31
0.0
  0
LINE
  5
D1
330
B7
100
AcDbEntity
  8
レイヤー 1
 62
    18
420
        0
370
    25
100
AcDbLine
 10
74.4949498201131
 20
-146.7527822160372
 30
0.0
 11
75.00898230699873
 21
-147.1344877714975
 31
0.0
  0
LINE
  5
D2
330
B7
100
AcDbEntity
  8
レイヤー 1
 62
    18
420
        0
370
    25
100
AcDbLine
 10
75.49405173906866
 20
-146.716939993824
 30
0.0
 11
76.00787255929302
 21
-147.0986455492839
 31
0.0
  0
LINE
  5
D3
330
B7
100
AcDbEntity
  8
レイヤー 1
 62
    18
420
        0
370
    25
100
AcDbLine
 10
76.00787255929302
 20
-147.0986455492839
 30
0.0
 11
76.49364754689987
 21
-146.6810977716107
 31
0.0
  0
LINE
  5
D4
330
B7
100
AcDbEntity
  8
レイヤー 1
 62
    18
420
        0
370
    25
100
AcDbLine
 10
77.00764475600893
 20
-147.0628386048485
 30
0.0
 11
77.4927141880779
 21
-146.6452908271754
 31
0.0
  0
LINE
  5
D5
330
B7
100
AcDbEntity
  8
レイヤー 1
 62
    18
420
        0
370
    25
100
AcDbLine
 10
76.49364754689987
 20
-146.6810977716107
 30
0.0
 11
77.00764475600893
 21
-147.0628386048485
 31
0.0
  0
LINE
  5
D6
330
B7
100
AcDbEntity
  8
レイヤー 1
 62
    18
420
        0
370
    25
100
AcDbLine
 10
78.00688778607167
 20
-147.0277019381908
 30
0.0
 11
78.49266277367852
 21
-146.6101541605173
 31
0.0
  0
LINE
  5
D7
330
B7
100
AcDbEntity
  8
レイヤー 1
 62
    18
420
        0
370
    25
100
AcDbLine
 10
77.4927141880779
 20
-146.6452908271754
 30
0.0
 11
78.00688778607167
 21
-147.0277019381908
 31
0.0
  0
LINE
  5
D8
330
B7
100
AcDbEntity
  8
レイヤー 1
 62
    18
420
        0
370
    25
100
AcDbLine
 10
78.49266277367852
 20
-146.6101541605173
 30
0.0
 11
79.00665998278758
 21
-146.9918597159775
 31
0.0
  0
LINE
  5
D9
330
B7
100
AcDbEntity
  8
レイヤー 1
 62
    18
420
        0
370
    25
100
AcDbLine
 10
79.00665998278758
 20
-146.9918597159775
 30
0.0
 11
79.49172941485686
 21
-146.5743119383041
 31
0.0
  0
LINE
  5
DA
330
B7
100
AcDbEntity
  8
レイヤー 1
 62
    18
420
        0
370
    25
100
AcDbLine
 10
79.49172941485686
 20
-146.5743119383041
 30
0.0
 11
80.00572662396592
 21
-146.9560174937643
 31
0.0
  0
LINE
  5
DB
330
B7
100
AcDbEntity
  8
レイヤー 1
 62
    18
420
        0
370
    25
100
AcDbLine
 10
80.00572662396592
 20
-146.9560174937643
 30
0.0
 11
80.49079605603521
 21
-146.5384697160908
 31
0.0
  0
LINE
  5
DC
330
B7
100
AcDbEntity
  8
レイヤー 1
 62
    18
420
        0
370
    25
100
AcDbLine
 10
80.49079605603521
 20
-146.5384697160908
 30
0.0
 11
81.00482854292115
 21
-146.9202105493286
 31
0.0
  0
LINE
  5
DD
330
B7
100
AcDbEntity
  8
レイヤー 1
 62
    18
420
        0
370
    25
100
AcDbLine
 10
81.00482854292115
 20
-146.9202105493286
 30
0.0
 11
81.4905682527508
 21
-146.5026627716554
 31
0.0
  0
LINE
  5
DE
330
B7
100
AcDbEntity
  8
レイヤー 1
 62
    18
420
        0
370
    25
100
AcDbLine
 10
81.4905682527508
 20
-146.5026627716554
 30
0.0
 11
82.00456546186051
 21
-146.8843683271153
 31
0.0
  0
LINE
  5
DF
330
B7
100
AcDbEntity
  8
レイヤー 1
 62
    18
420
        0
370
    25
100
AcDbLine
 10
82.00456546186051
 20
-146.8843683271153
 30
0.0
 11
82.48963489392947
 21
-146.4668205494422
 31
0.0
  0
LINE
  5
E0
330
B7
100
AcDbEntity
  8
レイヤー 1
 62
    18
420
        0
370
    25
100
AcDbLine
 10
82.48963489392947
 20
-146.4668205494422
 30
0.0
 11
83.00366738081541
 21
-146.8492316604576
 31
0.0
  0
LINE
  5
E1
330
B7
100
AcDbEntity
  8
レイヤー 1
 62
    18
420
        0
370
    25
100
AcDbLine
 10
83.00366738081541
 20
-146.8492316604576
 30
0.0
 11
83.48940709064539
 21
-146.4316838827841
 31
0.0
  0
LINE
  5
E2
330
B7
100
AcDbEntity
  8
レイヤー 1
 62
    18
420
        0
370
    25
100
AcDbLine
 10
83.48940709064539
 20
-146.4316838827841
 30
0.0
 11
84.00343957753133
 21
-146.8133894382444
 31
0.0
  0
LINE
  5
E3
330
B7
100
AcDbEntity
  8
レイヤー 1
 62
    18
420
        0
370
    25
100
AcDbLine
 10
84.00343957753133
 20
-146.8133894382444
 30
0.0
 11
84.48850900960062
 21
-146.3958416605709
 31
0.0
  0
LINE
  5
E4
330
B7
100
AcDbEntity
  8
レイヤー 1
 62
    18
420
        0
370
    25
100
AcDbLine
 10
84.48850900960062
 20
-146.3958416605709
 30
0.0
 11
85.00250621870936
 21
-146.777582493809
 31
0.0
  0
LINE
  5
E5
330
B7
100
AcDbEntity
  8
レイヤー 1
 62
    18
420
        0
370
    25
100
AcDbLine
 10
85.00250621870936
 20
-146.777582493809
 30
0.0
 11
85.48824592853966
 21
-146.3600347161354
 31
0.0
  0
LINE
  5
E6
330
B7
100
AcDbEntity
  8
レイヤー 1
 62
    18
420
        0
370
    25
100
AcDbLine
 10
85.48824592853966
 20
-146.3600347161354
 30
0.0
 11
86.0022784154256
 21
-146.7417402715957
 31
0.0
  0
LINE
  5
E7
330
B7
100
AcDbEntity
  8
レイヤー 1
 62
    18
420
        0
370
    25
100
AcDbLine
 10
86.0022784154256
 20
-146.7417402715957
 30
0.0
 11
86.48734784749489
 21
-146.3241924939222
 31
0.0
  0
LINE
  5
E8
330
B7
100
AcDbEntity
  8
レイヤー 1
 62
    18
420
        0
370
    25
100
AcDbLine
 10
86.48734784749489
 20
-146.3241924939222
 30
0.0
 11
87.00134505660393
 21
-146.7058980493824
 31
0.0
  0
LINE
  5
E9
330
B7
100
AcDbEntity
  8
レイヤー 1
 62
    18
420
        0
370
    25
100
AcDbLine
 10
87.00134505660393
 20
-146.7058980493824
 30
0.0
 11
87.48712004421079
 21
-146.2883855494868
 31
0.0
  0
LINE
  5
EA
330
B7
100
AcDbEntity
  8
レイヤー 1
 62
    18
420
        0
370
    25
100
AcDbLine
 10
87.55118740121806
 20
-146.2401255494988
 30
0.0
 11
88.50065057390903
 21
-146.2401255494988
 31
0.0
  0
LINE
  5
EB
330
B7
100
AcDbEntity
  8
レイヤー 1
 62
    18
420
        0
370
    25
100
AcDbLine
 10
88.50065057390903
 20
-146.2401255494988
 30
0.0
 11
88.50065057390903
 21
-151.5021941592942
 31
0.0
  0
LINE
  5
EC
330
B7
100
AcDbEntity
  8
レイヤー 1
 62
    18
420
        0
370
    25
100
AcDbLine
 10
87.50087837719311
 20
-147.5024349936276
 30
0.0
 11
87.50087837719311
 21
-152.5026366590441
 31
0.0
  0
LINE
  5
ED
330
B7
100
AcDbEntity
  8
レイヤー 1
 62
    18
420
        0
370
    25
100
AcDbLine
 10
93.50053461301802
 20
-151.5021941592942
 30
0.0
 11
88.50065057390903
 21
-151.5021941592942
 31
0.0
  0
LINE
  5
EE
330
B7
100
AcDbEntity
  8
レイヤー 1
 62
    18
420
        0
370
    25
100
AcDbLine
 10
104.5082946099644
 20
-146.6452908271754
 30
0.0
 11
103.9942974008554
 21
-147.0277019381908
 31
0.0
  0
LINE
  5
EF
330
B7
100
AcDbEntity
  8
レイヤー 1
 62
    18
420
        0
370
    25
100
AcDbLine
 10
109.505038926931
 20
-146.8237258271307
 30
0.0
 11
108.9910417178219
 21
-147.2061369381462
 31
0.0
  0
LINE
  5
F0
330
B7
100
AcDbEntity
  8
レイヤー 1
 62
    18
420
        0
370
    25
100
AcDbLine
 10
104.9933640420337
 20
-147.0628386048485
 30
0.0
 11
104.5082946099644
 21
-146.6452908271754
 31
0.0
  0
LINE
  5
F1
330
B7
100
AcDbEntity
  8
レイヤー 1
 62
    18
420
        0
370
    25
100
AcDbLine
 10
105.9931362387493
 20
-147.0986455492839
 30
0.0
 11
105.5073612511425
 21
-146.6810977716107
 31
0.0
  0
LINE
  5
F2
330
B7
100
AcDbEntity
  8
レイヤー 1
 62
    18
420
        0
370
    25
100
AcDbLine
 10
103.9942974008554
 20
-147.0277019381908
 30
0.0
 11
103.5092279687861
 21
-146.6101541605173
 31
0.0
  0
LINE
  5
F3
330
B7
100
AcDbEntity
  8
レイヤー 1
 62
    18
420
        0
370
    25
100
AcDbLine
 10
105.5073612511425
 20
-146.6810977716107
 30
0.0
 11
104.9933640420337
 21
-147.0628386048485
 31
0.0
  0
LINE
  5
F4
330
B7
100
AcDbEntity
  8
レイヤー 1
 62
    18
420
        0
370
    25
100
AcDbLine
 10
113.5027518804964
 20
-146.9670594382059
 30
0.0
 11
112.9887193936104
 21
-147.3487649936661
 31
0.0
  0
LINE
  5
F5
330
B7
100
AcDbEntity
  8
レイヤー 1
 62
    18
420
        0
370
    25
100
AcDbLine
 10
106.5071334478584
 20
-146.716939993824
 30
0.0
 11
105.9931362387493
 21
-147.0986455492839
 31
0.0
  0
LINE
  5
F6
330
B7
100
AcDbEntity
  8
レイヤー 1
 62
    18
420
        0
370
    25
100
AcDbLine
 10
107.5062000890367
 20
-146.7527822160372
 30
0.0
 11
106.9922028799277
 21
-147.1344877714975
 31
0.0
  0
LINE
  5
F7
330
B7
100
AcDbEntity
  8
レイヤー 1
 62
    18
420
        0
370
    25
100
AcDbLine
 10
93.50053461301802
 20
-146.2401255494988
 30
0.0
 11
93.50053461301802
 21
-151.5021941592942
 31
0.0
  0
LINE
  5
F8
330
B7
100
AcDbEntity
  8
レイヤー 1
 62
    18
420
        0
370
    25
100
AcDbLine
 10
106.9922028799277
 20
-147.1344877714975
 30
0.0
 11
106.5071334478584
 21
-146.716939993824
 31
0.0
  0
LINE
  5
F9
330
B7
100
AcDbEntity
  8
レイヤー 1
 62
    18
420
        0
370
    25
100
AcDbLine
 10
107.9919750766436
 20
-147.1703299937107
 30
0.0
 11
107.5062000890367
 21
-146.7527822160372
 31
0.0
  0
LINE
  5
FA
330
B7
100
AcDbEntity
  8
レイヤー 1
 62
    18
420
        0
370
    25
100
AcDbLine
 10
112.9887193936104
 20
-147.3487649936661
 30
0.0
 11
112.5029796837805
 21
-146.9312172159926
 31
0.0
  0
LINE
  5
FB
330
B7
100
AcDbEntity
  8
レイヤー 1
 62
    18
420
        0
370
    25
100
AcDbLine
 10
108.5059722857526
 20
-146.7885891604727
 30
0.0
 11
107.9919750766436
 21
-147.1703299937107
 31
0.0
  0
LINE
  5
FC
330
B7
100
AcDbEntity
  8
レイヤー 1
 62
    18
420
        0
370
    25
100
AcDbLine
 10
108.9910417178219
 20
-147.2061369381462
 30
0.0
 11
108.5059722857526
 21
-146.7885891604727
 31
0.0
  0
LINE
  5
FD
330
B7
100
AcDbEntity
  8
レイヤー 1
 62
    18
420
        0
370
    25
100
AcDbLine
 10
113.9878213125657
 20
-147.3846072158794
 30
0.0
 11
113.5027518804964
 21
-146.9670594382059
 31
0.0
  0
LINE
  5
FE
330
B7
100
AcDbEntity
  8
レイヤー 1
 62
    18
420
        0
370
    25
100
AcDbLine
 10
110.5041408458862
 20
-146.8595680493439
 30
0.0
 11
109.9908139145378
 21
-147.2412736048039
 31
0.0
  0
LINE
  5
FF
330
B7
100
AcDbEntity
  8
レイヤー 1
 62
    18
420
        0
370
    25
100
AcDbLine
 10
111.5039130426021
 20
-146.8954102715572
 30
0.0
 11
110.9898805557162
 21
-147.2771158270171
 31
0.0
  0
LINE
  5
100
330
B7
100
AcDbEntity
  8
レイヤー 1
 62
    18
420
        0
370
    25
100
AcDbLine
 10
110.9898805557162
 20
-147.2771158270171
 30
0.0
 11
110.5041408458862
 21
-146.8595680493439
 31
0.0
  0
LINE
  5
101
330
B7
100
AcDbEntity
  8
レイヤー 1
 62
    18
420
        0
370
    25
100
AcDbLine
 10
114.5018185216747
 20
-147.0021961048639
 30
0.0
 11
113.9878213125657
 21
-147.3846072158794
 31
0.0
  0
LINE
  5
102
330
B7
100
AcDbEntity
  8
レイヤー 1
 62
    18
420
        0
370
    25
100
AcDbLine
 10
109.9908139145378
 20
-147.2412736048039
 30
0.0
 11
109.505038926931
 21
-146.8237258271307
 31
0.0
  0
LINE
  5
103
330
B7
100
AcDbEntity
  8
レイヤー 1
 62
    18
420
        0
370
    25
100
AcDbLine
 10
112.5029796837805
 20
-146.9312172159926
 30
0.0
 11
111.9889824746714
 21
-147.3129580492304
 31
0.0
  0
LINE
  5
104
330
B7
100
AcDbEntity
  8
レイヤー 1
 62
    18
420
        0
370
    25
100
AcDbLine
 10
111.9889824746714
 20
-147.3129580492304
 30
0.0
 11
111.5039130426021
 21
-146.8954102715572
 31
0.0
  0
LINE
  5
105
330
B7
100
AcDbEntity
  8
レイヤー 1
 62
    18
420
        0
370
    25
100
AcDbLine
 10
114.5018185216747
 20
-147.0021961048639
 30
0.0
 11
114.5018185216747
 21
-147.5024349936276
 31
0.0
  0
LINE
  5
106
330
B7
100
AcDbEntity
  8
レイヤー 1
 62
    18
420
        0
370
    25
100
AcDbLine
 10
94.50097708749462
 20
-147.5024349936276
 30
0.0
 11
114.5018185216747
 21
-147.5024349936276
 31
0.0
  0
LINE
  5
107
330
B7
100
AcDbEntity
  8
レイヤー 1
 62
    18
420
        0
370
    25
100
AcDbLine
 10
103.5092279687861
 20
-146.6101541605173
 30
0.0
 11
102.9951954819001
 21
-146.9918597159775
 31
0.0
  0
LINE
  5
108
330
B7
100
AcDbEntity
  8
レイヤー 1
 62
    18
420
        0
370
    25
100
AcDbLine
 10
102.9951954819001
 20
-146.9918597159775
 30
0.0
 11
102.5094557720702
 21
-146.5743119383041
 31
0.0
  0
LINE
  5
109
330
B7
100
AcDbEntity
  8
レイヤー 1
 62
    18
420
        0
370
    25
100
AcDbLine
 10
102.5094557720702
 20
-146.5743119383041
 30
0.0
 11
101.9954232851842
 21
-146.9560174937643
 31
0.0
  0
LINE
  5
10A
330
B7
100
AcDbEntity
  8
レイヤー 1
 62
    18
420
        0
370
    25
100
AcDbLine
 10
101.9954232851842
 20
-146.9560174937643
 30
0.0
 11
101.5103538531149
 21
-146.5384697160908
 31
0.0
  0
LINE
  5
10B
330
B7
100
AcDbEntity
  8
レイヤー 1
 62
    18
420
        0
370
    25
100
AcDbLine
 10
101.5103538531149
 20
-146.5384697160908
 30
0.0
 11
100.9963566440059
 21
-146.9202105493286
 31
0.0
  0
LINE
  5
10C
330
B7
100
AcDbEntity
  8
レイヤー 1
 62
    18
420
        0
370
    25
100
AcDbLine
 10
100.9963566440059
 20
-146.9202105493286
 30
0.0
 11
100.5106169341756
 21
-146.5026627716554
 31
0.0
  0
LINE
  5
10D
330
B7
100
AcDbEntity
  8
レイヤー 1
 62
    18
420
        0
370
    25
100
AcDbLine
 10
100.5106169341756
 20
-146.5026627716554
 30
0.0
 11
99.99658444729
 21
-146.8843683271153
 31
0.0
  0
LINE
  5
10E
330
B7
100
AcDbEntity
  8
レイヤー 1
 62
    18
420
        0
370
    25
100
AcDbLine
 10
99.99658444729
 20
-146.8843683271153
 30
0.0
 11
99.51151501522069
 21
-146.4668205494422
 31
0.0
  0
LINE
  5
10F
330
B7
100
AcDbEntity
  8
レイヤー 1
 62
    18
420
        0
370
    25
100
AcDbLine
 10
99.51151501522069
 20
-146.4668205494422
 30
0.0
 11
98.99751780611163
 21
-146.8492316604576
 31
0.0
  0
LINE
  5
110
330
B7
100
AcDbEntity
  8
レイヤー 1
 62
    18
420
        0
370
    25
100
AcDbLine
 10
98.99751780611163
 20
-146.8492316604576
 30
0.0
 11
98.51244837404236
 21
-146.4316838827841
 31
0.0
  0
LINE
  5
111
330
B7
100
AcDbEntity
  8
レイヤー 1
 62
    18
420
        0
370
    25
100
AcDbLine
 10
98.51244837404236
 20
-146.4316838827841
 30
0.0
 11
97.9984511649333
 21
-146.8133894382444
 31
0.0
  0
LINE
  5
112
330
B7
100
AcDbEntity
  8
レイヤー 1
 62
    18
420
        0
370
    25
100
AcDbLine
 10
97.9984511649333
 20
-146.8133894382444
 30
0.0
 11
97.51267617732676
 21
-146.3958416605709
 31
0.0
  0
LINE
  5
113
330
B7
100
AcDbEntity
  8
レイヤー 1
 62
    18
420
        0
370
    25
100
AcDbLine
 10
97.51267617732676
 20
-146.3958416605709
 30
0.0
 11
96.99867896821706
 21
-146.777582493809
 31
0.0
  0
LINE
  5
114
330
B7
100
AcDbEntity
  8
レイヤー 1
 62
    18
420
        0
370
    25
100
AcDbLine
 10
96.99867896821706
 20
-146.777582493809
 30
0.0
 11
96.51360953614808
 21
-146.3600347161354
 31
0.0
  0
LINE
  5
115
330
B7
100
AcDbEntity
  8
レイヤー 1
 62
    18
420
        0
370
    25
100
AcDbLine
 10
96.51360953614808
 20
-146.3600347161354
 30
0.0
 11
95.99957704926215
 21
-146.7417402715957
 31
0.0
  0
LINE
  5
116
330
B7
100
AcDbEntity
  8
レイヤー 1
 62
    18
420
        0
370
    25
100
AcDbLine
 10
95.99957704926215
 20
-146.7417402715957
 30
0.0
 11
95.51383733943216
 21
-146.3241924939222
 31
0.0
  0
LINE
  5
117
330
B7
100
AcDbEntity
  8
レイヤー 1
 62
    18
420
        0
370
    25
100
AcDbLine
 10
95.51383733943216
 20
-146.3241924939222
 30
0.0
 11
94.9998401303231
 21
-146.7058980493824
 31
0.0
  0
LINE
  5
118
330
B7
100
AcDbEntity
  8
レイヤー 1
 62
    18
420
        0
370
    25
100
AcDbLine
 10
94.9998401303231
 20
-146.7058980493824
 30
0.0
 11
94.51477069825383
 21
-146.2883855494868
 31
0.0
  0
LINE
  5
119
330
B7
100
AcDbEntity
  8
レイヤー 1
 62
    18
420
        0
370
    25
100
AcDbLine
 10
94.4633373543224
 20
-146.2401255494988
 30
0.0
 11
93.50053461301802
 21
-146.2401255494988
 31
0.0
  0
LINE
  5
11A
330
B7
100
AcDbEntity
  8
レイヤー 1
 62
    18
420
        0
370
    25
100
AcDbLine
 10
94.50097708749462
 20
-147.5024349936276
 30
0.0
 11
94.50097708749462
 21
-152.5026366590441
 31
0.0
  0
SPLINE
  5
11B
330
B7
100
AcDbEntity
  8
レイヤー 1
 62
    18
420
        0
370
     9
100
AcDbSpline
210
0.0
220
0.0
230
1.0
 70
     9
 71
     3
 72
    17
 73
    13
 74
     0
 42
0.0000000001
 43
0.0000000001
 40
0.0
 40
0.0
 40
0.0
 40
0.0
 40
1.0
 40
1.0
 40
1.0
 40
2.0
 40
2.0
 40
2.0
 40
3.0
 40
3.0
 40
3.0
 40
4.0
 40
4.0
 40
4.0
 40
4.0
 10
67.59927332936981
 20
-142.2403663838319
 30
0.0
 10
67.59927332936981
 20
-142.185262494957
 30
0.0
 10
67.55447055273504
 20
-142.1404597171903
 30
0.0
 10
67.49936666525197
 20
-142.1404597171903
 30
0.0
 10
67.44422749999202
 20
-142.1404597171903
 30
0.0
 10
67.39946240625551
 20
-142.185262494957
 30
0.0
 10
67.39946240625551
 20
-142.2403663838319
 30
0.0
 10
67.39946240625551
 20
-142.295505550485
 30
0.0
 10
67.44422749999202
 20
-142.3402730504738
 30
0.0
 10
67.49936666525197
 20
-142.3402730504738
 30
0.0
 10
67.55447055273504
 20
-142.3402730504738
 30
0.0
 10
67.59927332936981
 20
-142.295505550485
 30
0.0
 10
67.59927332936981
 20
-142.2403663838319
 30
0.0
  0
CIRCLE
  5
11C
330
B7
100
AcDbEntity
  8
レイヤー 1
 62
    18
420
        0
370
     9
100
AcDbCircle
 10
63.49960760062782
 20
-147.0021961048638
 30
0.0
 40
0.0999066653797766
  0
CIRCLE
  5
11D
330
B7
100
AcDbEntity
  8
レイヤー 1
 62
    18
420
        0
370
     9
100
AcDbCircle
 10
63.49960760062782
 20
-147.5024349936276
 30
0.0
 40
0.0999066653796563
  0
CIRCLE
  5
11E
330
B7
100
AcDbEntity
  8
レイヤー 1
 62
    18
420
        0
370
     9
100
AcDbCircle
 10
63.49960760062782
 20
-152.5026366590442
 30
0.0
 40
0.0999066653797365
  0
CIRCLE
  5
11F
330
B7
100
AcDbEntity
  8
レイヤー 1
 62
    18
420
        0
370
     9
100
AcDbCircle
 10
88.50065057390896
 20
-142.240366383832
 30
0.0
 40
0.0999066653798969
  0
CIRCLE
  5
120
330
B7
100
AcDbEntity
  8
レイヤー 1
 62
    18
420
        0
370
     9
100
AcDbCircle
 10
114.5018185216747
 20
-142.240366383832
 30
0.0
 40
0.0999066653797766
  0
CIRCLE
  5
121
330
B7
100
AcDbEntity
  8
レイヤー 1
 62
    18
420
        0
370
     9
100
AcDbCircle
 10
93.50053461301795
 20
-142.240366383832
 30
0.0
 40
0.0999066653797365
  0
LINE
  5
122
330
B7
100
AcDbEntity
  8
レイヤー 1
 62
    18
420
        0
370
     9
100
AcDbLine
 10
63.49960760062766
 20
-147.0021961048639
 30
0.0
 11
63.49960760062766
 21
-141.744290272845
 31
0.0
  0
LINE
  5
123
330
B7
100
AcDbEntity
  8
レイヤー 1
 62
    18
420
        0
370
     9
100
AcDbLine
 10
63.49960760062766
 20
-147.0021961048639
 30
0.0
 11
63.49960760062766
 21
-147.5024349936276
 31
0.0
  0
LINE
  5
124
330
B7
100
AcDbEntity
  8
レイヤー 1
 62
    18
420
        0
370
     9
100
AcDbLine
 10
64.95961367449059
 20
-147.0021961048639
 30
0.0
 11
62.49912984837419
 21
-147.0021961048639
 31
0.0
  0
LINE
  5
125
330
B7
100
AcDbEntity
  8
レイヤー 1
 62
    18
420
        0
370
     9
100
AcDbLine
 10
64.95961367449059
 20
-147.5024349936276
 30
0.0
 11
62.49912984837419
 21
-147.5024349936276
 31
0.0
  0
INSERT
  5
127
330
B7
100
AcDbEntity
  8
レイヤー 1
100
AcDbBlockReference
  2
Block_3
 10
0.0
 20
0.0
 30
0.0
  0
LINE
  5
135
330
B7
100
AcDbEntity
  8
レイヤー 1
 62
    18
420
        0
370
     9
100
AcDbLine
 10
67.49936666525197
 20
-142.2403663838319
 30
0.0
 11
88.50065057390903
 21
-142.2403663838319
 31
0.0
  0
LINE
  5
136
330
B7
100
AcDbEntity
  8
レイヤー 1
 62
    18
420
        0
370
     9
100
AcDbLine
 10
67.49936666525197
 20
-144.4624783277211
 30
0.0
 11
67.49936666525197
 21
-141.2406294396375
 31
0.0
  0
INSERT
  5
138
330
B7
100
AcDbEntity
  8
レイヤー 1
100
AcDbBlockReference
  2
Block_5
 10
0.0
 20
0.0
 30
0.0
  0
LINE
  5
143
330
B7
100
AcDbEntity
  8
レイヤー 1
 62
    18
420
        0
370
     9
100
AcDbLine
 10
63.49960760062766
 20
-147.5024349936276
 30
0.0
 11
63.49960760062766
 21
-152.5026366590441
 31
0.0
  0
LINE
  5
144
330
B7
100
AcDbEntity
  8
レイヤー 1
 62
    18
420
        0
370
     9
100
AcDbLine
 10
84.96116066420894
 20
-152.5026366590441
 30
0.0
 11
62.49912984837419
 21
-152.5026366590441
 31
0.0
  0
INSERT
  5
146
330
B7
100
AcDbEntity
  8
レイヤー 1
100
AcDbBlockReference
  2
Block_7
 10
0.0
 20
0.0
 30
0.0
  0
LINE
  5
14B
330
B7
100
AcDbEntity
  8
レイヤー 1
 62
    18
420
        0
370
     9
100
AcDbLine
 10
114.5018185216747
 20
-142.2403663838319
 30
0.0
 11
93.50053461301802
 21
-142.2403663838319
 31
0.0
  0
LINE
  5
14C
330
B7
100
AcDbEntity
  8
レイヤー 1
 62
    18
420
        0
370
     9
100
AcDbLine
 10
114.5018185216747
 20
-144.4624783277211
 30
0.0
 11
114.5018185216747
 21
-141.2406294396375
 31
0.0
  0
INSERT
  5
14E
330
B7
100
AcDbEntity
  8
レイヤー 1
100
AcDbBlockReference
  2
Block_8
 10
0.0
 20
0.0
 30
0.0
  0
LINE
  5
159
330
B7
100
AcDbEntity
  8
レイヤー 1
 62
    18
420
        0
370
     9
100
AcDbLine
 10
88.50065057390903
 20
-142.2403663838319
 30
0.0
 11
93.50053461301802
 21
-142.2403663838319
 31
0.0
  0
LINE
  5
15A
330
B7
100
AcDbEntity
  8
レイヤー 1
 62
    18
420
        0
370
     9
100
AcDbLine
 10
88.50065057390903
 20
-143.7004077723559
 30
0.0
 11
88.50065057390903
 21
-141.2406294396375
 31
0.0
  0
LINE
  5
15B
330
B7
100
AcDbEntity
  8
レイヤー 1
 62
    18
420
        0
370
     9
100
AcDbLine
 10
93.50053461301802
 20
-143.7004077723559
 30
0.0
 11
93.50053461301802
 21
-141.2406294396375
 31
0.0
  0
INSERT
  5
15D
330
B7
100
AcDbEntity
  8
レイヤー 1
100
AcDbBlockReference
  2
Block_10
 10
0.0
 20
0.0
 30
0.0
  0
SPLINE
  5
162
330
B7
100
AcDbEntity
  8
レイヤー 1
 62
    18
420
        0
370
     9
100
AcDbSpline
210
0.0
220
0.0
230
1.0
 70
     9
 71
     3
 72
    17
 73
    13
 74
     0
 42
0.0000000001
 43
0.0000000001
 40
0.0
 40
0.0
 40
0.0
 40
0.0
 40
1.0
 40
1.0
 40
1.0
 40
2.0
 40
2.0
 40
2.0
 40
3.0
 40
3.0
 40
3.0
 40
4.0
 40
4.0
 40
4.0
 40
4.0
 10
87.76066392612099
 20
-156.9261524912715
 30
0.0
 10
87.76066392612099
 20
-156.8710133246185
 30
0.0
 10
87.71586114948624
 20
-156.8262105468517
 30
0.0
 10
87.66072198422628
 20
-156.8262105468517
 30
0.0
 10
87.60526531897443
 20
-156.8262105468517
 30
0.0
 10
87.56081532010844
 20
-156.8710133246185
 30
0.0
 10
87.56081532010844
 20
-156.9261524912715
 30
0.0
 10
87.56081532010844
 20
-156.9812563801465
 30
0.0
 10
87.60526531897443
 20
-157.0260591579132
 30
0.0
 10
87.66072198422628
 20
-157.0260591579132
 30
0.0
 10
87.71586114948624
 20
-157.0260591579132
 30
0.0
 10
87.76066392612099
 20
-156.9812563801465
 30
0.0
 10
87.76066392612099
 20
-156.9261524912715
 30
0.0
  0
SPLINE
  5
163
330
B7
100
AcDbEntity
  8
レイヤー 1
 62
    18
420
        0
370
     9
100
AcDbSpline
210
0.0
220
0.0
230
1.0
 70
     9
 71
     3
 72
    17
 73
    13
 74
     0
 42
0.0000000001
 43
0.0000000001
 40
0.0
 40
0.0
 40
0.0
 40
0.0
 40
1.0
 40
1.0
 40
1.0
 40
2.0
 40
2.0
 40
2.0
 40
3.0
 40
3.0
 40
3.0
 40
4.0
 40
4.0
 40
4.0
 40
4.0
 10
94.84444152317655
 20
-156.9261524912715
 30
0.0
 10
94.84444152317655
 20
-156.8710133246185
 30
0.0
 10
94.79967402431865
 20
-156.8262105468517
 30
0.0
 10
94.74418208128993
 20
-156.8262105468517
 30
0.0
 10
94.68872541603808
 20
-156.8262105468517
 30
0.0
 10
94.64462819494087
 20
-156.8710133246185
 30
0.0
 10
94.64462819494087
 20
-156.9261524912715
 30
0.0
 10
94.64462819494087
 20
-156.9812563801465
 30
0.0
 10
94.68872541603808
 20
-157.0260591579132
 30
0.0
 10
94.74418208128993
 20
-157.0260591579132
 30
0.0
 10
94.79967402431865
 20
-157.0260591579132
 30
0.0
 10
94.84444152317655
 20
-156.9812563801465
 30
0.0
 10
94.84444152317655
 20
-156.9261524912715
 30
0.0
  0
LINE
  5
164
330
B7
100
AcDbEntity
  8
レイヤー 1
 62
    18
420
        0
370
     9
100
AcDbLine
 10
94.74418208128993
 20
-156.9261524912715
 30
0.0
 11
87.66072198422628
 21
-156.9261524912715
 31
0.0
  0
LINE
  5
165
330
B7
100
AcDbEntity
  8
レイヤー 1
 62
    18
420
        0
370
     9
100
AcDbLine
 10
94.74418208128993
 20
-155.4661111027478
 30
0.0
 11
94.74418208128993
 21
-157.9258894354659
 31
0.0
  0
LINE
  5
166
330
B7
100
AcDbEntity
  8
レイヤー 1
 62
    18
420
        0
370
     9
100
AcDbLine
 10
87.66072198422628
 20
-155.4661111027478
 30
0.0
 11
87.66072198422628
 21
-157.9258894354659
 31
0.0
  0
INSERT
  5
168
330
B7
100
AcDbEntity
  8
レイヤー 1
100
AcDbBlockReference
  2
Block_11
 10
0.0
 20
0.0
 30
0.0
  0
LINE
  5
16D
330
B7
100
AcDbEntity
  8
レイヤー 1
 62
    18
420
        0
370
     9
100
AcDbLine
 10
91.44242910996911
 20
-150.5010461039888
 30
0.0
 11
99.4426207315781
 21
-150.5010461039888
 31
0.0
  0
INSERT
  5
16F
330
B7
100
AcDbEntity
  8
レイヤー 1
100
AcDbBlockReference
  2
Block_12
 10
0.0
 20
0.0
 30
0.0
  0
ENDBLK
  5
BA
330
B7
100
AcDbEntity
  8
0
100
AcDbBlockEnd
  0
BLOCK
  5
128
330
126
100
AcDbEntity
  8
0
100
AcDbBlockBegin
  2
Block_3
 70
     0
 10
0.0
 20
0.0
 30
0.0
  3
Block_3
  1

  0
INSERT
  5
12B
330
126
100
AcDbEntity
  8
レイヤー 1
100
AcDbBlockReference
  2
Block_4
 10
0.0
 20
0.0
 30
0.0
  0
ENDBLK
  5
129
330
126
100
AcDbEntity
  8
0
100
AcDbBlockEnd
  0
BLOCK
  5
12C
330
12A
100
AcDbEntity
  8
0
100
AcDbBlockBegin
  2
Block_4
 70
     0
 10
0.0
 20
0.0
 30
0.0
  3
Block_4
  1

  0
SPLINE
  5
12E
330
12A
100
AcDbEntity
  8
レイヤー 1
100
AcDbSpline
210
0.0
220
0.0
230
1.0
 70
     9
 71
     3
 72
    17
 73
    13
 74
     0
 42
0.0000000001
 43
0.0000000001
 40
0.0
 40
0.0
 40
0.0
 40
0.0
 40
1.0
 40
1.0
 40
1.0
 40
2.0
 40
2.0
 40
2.0
 40
3.0
 40
3.0
 40
3.0
 40
4.0
 40
4.0
 40
4.0
 40
4.0
 10
60.65504013240569
 20
-148.1578816361376
 30
0.0
 10
60.65504013240569
 20
-148.4076510588182
 30
0.0
 10
60.93839923606749
 20
-148.4541598478691
 30
0.0
 10
61.28325329414099
 20
-148.4541598478691
 30
0.0
 10
61.60278590039792
 20
-148.4541598478691
 30
0.0
 10
61.91163871065056
 20
-148.417986345274
 30
0.0
 10
61.91163871065056
 20
-148.1578816361376
 30
0.0
 10
61.91163871065056
 20
-147.9101792707481
 30
0.0
 10
61.63017440950565
 20
-147.8616034244061
 30
0.0
 10
61.28325329414099
 20
-147.8616034244061
 30
0.0
 10
60.96389294265833
 20
-147.8616034244061
 30
0.0
 10
60.65504013240569
 20
-147.8998439842924
 30
0.0
 10
60.65504013240569
 20
-148.1578816361376
 30
0.0
  0
SPLINE
  5
12F
330
12A
100
AcDbEntity
  8
レイヤー 1
100
AcDbSpline
210
0.0
220
0.0
230
1.0
 70
     9
 71
     3
 72
    29
 73
    25
 74
     0
 42
0.0000000001
 43
0.0000000001
 40
0.0
 40
0.0
 40
0.0
 40
0.0
 40
1.0
 40
1.0
 40
1.0
 40
2.0
 40
2.0
 40
2.0
 40
3.0
 40
3.0
 40
3.0
 40
4.0
 40
4.0
 40
4.0
 40
5.0
 40
5.0
 40
5.0
 40
6.0
 40
6.0
 40
6.0
 40
7.0
 40
7.0
 40
7.0
 40
8.0
 40
8.0
 40
8.0
 40
8.0
 10
61.87770452012085
 20
-147.7599731075912
 30
0.0
 10
62.08716632562405
 20
-147.8681491058281
 30
0.0
 10
62.10628660556718
 20
-148.0414374087362
 30
0.0
 10
62.10628660556718
 20
-148.1578816361376
 30
0.0
 10
62.10628660556718
 20
-148.3187675952988
 30
0.0
 10
62.05977781651631
 20
-148.4603610197425
 30
0.0
 10
61.87770452012085
 20
-148.5554456551354
 30
0.0
 10
61.6832288799785
 20
-148.6591430292414
 30
0.0
 10
61.44620631059331
 20
-148.6784355639588
 30
0.0
 10
61.28325329414099
 20
-148.6784355639588
 30
0.0
 10
61.13942055763182
 20
-148.6784355639588
 30
0.0
 10
60.88775633243431
 20
-148.6612100865326
 30
0.0
 10
60.68880206816114
 20
-148.5554456551354
 30
0.0
 10
60.48571368930566
 20
-148.4476141664471
 30
0.0
 10
60.46245929478022
 20
-148.2867282072859
 30
0.0
 10
60.46245929478022
 20
-148.1578816361376
 30
0.0
 10
60.46245929478022
 20
-147.9990627342676
 30
0.0
 10
60.50690102653994
 20
-147.8554022525327
 30
0.0
 10
60.68880206816114
 20
-147.7599731075912
 30
0.0
 10
60.8813829057866
 20
-147.660754357616
 30
0.0
 10
61.10979273645867
 20
-147.6373277083164
 30
0.0
 10
61.28325329414099
 20
-147.6373277083164
 30
0.0
 10
61.45464679453217
 20
-147.6373277083164
 30
0.0
 10
61.68529593726965
 20
-147.6586873003249
 30
0.0
 10
61.87770452012085
 20
-147.7599731075912
 30
0.0
  0
HATCH
  5
130
330
12A
100
AcDbEntity
  8
レイヤー 1
 62
    18
420
        0
440
 33554687
100
AcDbHatch
 10
0.0
 20
0.0
 30
0.0
210
0.0
220
0.0
230
1.0
  2
SOLID
 70
     1
 71
     1
 91
        2
 92
        1
 93
        1
 72
     4
 94
        3
 73
     0
 74
     0
 95
       17
 96
       13
 40
0.0
 40
0.0
 40
0.0
 40
0.0
 40
1.0
 40
1.0
 40
1.0
 40
2.0
 40
2.0
 40
2.0
 40
3.0
 40
3.0
 40
3.0
 40
4.0
 40
4.0
 40
4.0
 40
4.0
 10
60.65504013240569
 20
-148.1578816361376
 10
60.65504013240569
 20
-148.4076510588182
 10
60.93839923606749
 20
-148.4541598478691
 10
61.28325329414099
 20
-148.4541598478691
 10
61.60278590039792
 20
-148.4541598478691
 10
61.91163871065056
 20
-148.417986345274
 10
61.91163871065056
 20
-148.1578816361376
 10
61.91163871065056
 20
-147.9101792707481
 10
61.63017440950565
 20
-147.8616034244061
 10
61.28325329414099
 20
-147.8616034244061
 10
60.96389294265833
 20
-147.8616034244061
 10
60.65504013240569
 20
-147.8998439842924
 10
60.65504013240569
 20
-148.1578816361376
 97
        0
 97
        1
330
12E
 92
        1
 93
        1
 72
     4
 94
        3
 73
     0
 74
     0
 95
       29
 96
       25
 40
0.0
 40
0.0
 40
0.0
 40
0.0
 40
1.0
 40
1.0
 40
1.0
 40
2.0
 40
2.0
 40
2.0
 40
3.0
 40
3.0
 40
3.0
 40
4.0
 40
4.0
 40
4.0
 40
5.0
 40
5.0
 40
5.0
 40
6.0
 40
6.0
 40
6.0
 40
7.0
 40
7.0
 40
7.0
 40
8.0
 40
8.0
 40
8.0
 40
8.0
 10
61.87770452012085
 20
-147.7599731075912
 10
62.08716632562405
 20
-147.8681491058281
 10
62.10628660556718
 20
-148.0414374087362
 10
62.10628660556718
 20
-148.1578816361376
 10
62.10628660556718
 20
-148.3187675952988
 10
62.05977781651631
 20
-148.4603610197425
 10
61.87770452012085
 20
-148.5554456551354
 10
61.6832288799785
 20
-148.6591430292414
 10
61.44620631059331
 20
-148.6784355639588
 10
61.28325329414099
 20
-148.6784355639588
 10
61.13942055763182
 20
-148.6784355639588
 10
60.88775633243431
 20
-148.6612100865326
 10
60.68880206816114
 20
-148.5554456551354
 10
60.48571368930566
 20
-148.4476141664471
 10
60.46245929478022
 20
-148.2867282072859
 10
60.46245929478022
 20
-148.1578816361376
 10
60.46245929478022
 20
-147.9990627342676
 10
60.50690102653994
 20
-147.8554022525327
 10
60.68880206816114
 20
-147.7599731075912
 10
60.8813829057866
 20
-147.660754357616
 10
61.10979273645867
 20
-147.6373277083164
 10
61.28325329414099
 20
-147.6373277083164
 10
61.45464679453217
 20
-147.6373277083164
 10
61.68529593726965
 20
-147.6586873003249
 10
61.87770452012085
 20
-147.7599731075912
 97
        0
 97
        1
330
12F
 75
     2
 76
     1
 98
        1
 10
0.0
 20
0.0
450
        0
451
        0
460
0.0
461
0.0
452
        0
462
0.0
453
        0
470

  0
SPLINE
  5
131
330
12A
100
AcDbEntity
  8
レイヤー 1
100
AcDbSpline
210
0.0
220
0.0
230
1.0
 70
    11
 71
     3
 72
    17
 73
    13
 74
     0
 42
0.0000000001
 43
0.0000000001
 40
0.0
 40
0.0
 40
0.0
 40
0.0
 40
1.0
 40
1.0
 40
1.0
 40
2.0
 40
2.0
 40
2.0
 40
3.0
 40
3.0
 40
3.0
 40
4.0
 40
4.0
 40
4.0
 40
4.0
 10
62.05547144715975
 20
-147.4209757118427
 30
0.0
 10
62.05547144715975
 20
-147.4209757118427
 30
0.0
 10
61.80380722196225
 20
-147.4209757118427
 30
0.0
 10
61.80380722196225
 20
-147.4209757118427
 30
0.0
 10
61.80380722196225
 20
-147.4209757118427
 30
0.0
 10
61.80380722196225
 20
-147.1691392318709
 30
0.0
 10
61.80380722196225
 20
-147.1691392318709
 30
0.0
 10
61.80380722196225
 20
-147.1691392318709
 30
0.0
 10
62.05547144715975
 20
-147.1691392318709
 30
0.0
 10
62.05547144715975
 20
-147.1691392318709
 30
0.0
 10
62.05547144715975
 20
-147.1691392318709
 30
0.0
 10
62.05547144715975
 20
-147.4209757118427
 30
0.0
 10
62.05547144715975
 20
-147.4209757118427
 30
0.0
  0
HATCH
  5
132
330
12A
100
AcDbEntity
  8
レイヤー 1
 62
    18
420
        0
440
 33554687
100
AcDbHatch
 10
0.0
 20
0.0
 30
0.0
210
0.0
220
0.0
230
1.0
  2
SOLID
 70
     1
 71
     1
 91
        1
 92
        1
 93
        1
 72
     4
 94
        3
 73
     0
 74
     0
 95
       17
 96
       13
 40
0.0
 40
0.0
 40
0.0
 40
0.0
 40
1.0
 40
1.0
 40
1.0
 40
2.0
 40
2.0
 40
2.0
 40
3.0
 40
3.0
 40
3.0
 40
4.0
 40
4.0
 40
4.0
 40
4.0
 10
62.05547144715975
 20
-147.4209757118427
 10
62.05547144715975
 20
-147.4209757118427
 10
61.80380722196225
 20
-147.4209757118427
 10
61.80380722196225
 20
-147.4209757118427
 10
61.80380722196225
 20
-147.4209757118427
 10
61.80380722196225
 20
-147.1691392318709
 10
61.80380722196225
 20
-147.1691392318709
 10
61.80380722196225
 20
-147.1691392318709
 10
62.05547144715975
 20
-147.1691392318709
 10
62.05547144715975
 20
-147.1691392318709
 10
62.05547144715975
 20
-147.1691392318709
 10
62.05547144715975
 20
-147.4209757118427
 10
62.05547144715975
 20
-147.4209757118427
 97
        0
 97
        1
330
131
 75
     2
 76
     1
 98
        1
 10
0.0
 20
0.0
450
        0
451
        0
460
0.0
461
0.0
452
        0
462
0.0
453
        0
470

  0
SPLINE
  5
133
330
12A
100
AcDbEntity
  8
レイヤー 1
100
AcDbSpline
210
0.0
220
0.0
230
1.0
 70
     9
 71
     3
 72
    53
 73
    49
 74
     0
 42
0.0000000001
 43
0.0000000001
 40
0.0
 40
0.0
 40
0.0
 40
0.0
 40
1.0
 40
1.0
 40
1.0
 40
2.0
 40
2.0
 40
2.0
 40
3.0
 40
3.0
 40
3.0
 40
4.0
 40
4.0
 40
4.0
 40
5.0
 40
5.0
 40
5.0
 40
6.0
 40
6.0
 40
6.0
 40
7.0
 40
7.0
 40
7.0
 40
8.0
 40
8.0
 40
8.0
 40
9.0
 40
9.0
 40
9.0
 40
10.0
 40
10.0
 40
10.0
 40
11.0
 40
11.0
 40
11.0
 40
12.0
 40
12.0
 40
12.0
 40
13.0
 40
13.0
 40
13.0
 40
14.0
 40
14.0
 40
14.0
 40
15.0
 40
15.0
 40
15.0
 40
16.0
 40
16.0
 40
16.0
 40
16.0
 10
62.10628660556718
 20
-146.4518703518419
 30
0.0
 10
62.10628660556718
 20
-146.530074019357
 30
0.0
 10
62.08940563768946
 20
-146.6317043361719
 30
0.0
 10
62.0258436259866
 20
-146.7333346529868
 30
0.0
 10
61.91577282523287
 20
-146.9066229558948
 30
0.0
 10
61.7846869420191
 20
-146.9279825479034
 30
0.0
 10
61.67685545333078
 20
-146.9469305730723
 30
0.0
 10
61.67685545333078
 20
-146.9469305730723
 30
0.0
 10
61.67685545333078
 20
-146.7247219142737
 30
0.0
 10
61.67685545333078
 20
-146.7247219142737
 30
0.0
 10
61.87563746282971
 20
-146.6699448960582
 30
0.0
 10
61.90526528400285
 20
-146.5428208726525
 30
0.0
 10
61.90526528400285
 20
-146.4498032945507
 30
0.0
 10
61.90526528400285
 20
-146.3102769273981
 30
0.0
 10
61.80587427925339
 20
-146.1580037069501
 30
0.0
 10
61.57315807922477
 20
-146.1580037069501
 30
0.0
 10
61.3171874846707
 20
-146.1580037069501
 30
0.0
 10
61.24742430109439
 20
-146.3378376912801
 30
0.0
 10
61.24742430109439
 20
-146.4584160332639
 30
0.0
 10
61.24742430109439
 20
-146.4901109117282
 30
0.0
 10
61.24742430109439
 20
-146.6317043361719
 30
0.0
 10
61.376443127017
 20
-146.7205877996914
 30
0.0
 10
61.376443127017
 20
-146.7205877996914
 30
0.0
 10
61.35732284707387
 20
-146.8962876694391
 30
0.0
 10
61.35732284707387
 20
-146.8962876694391
 30
0.0
 10
61.35732284707387
 20
-146.8962876694391
 30
0.0
 10
60.5112073958965
 20
-146.7757093274554
 30
0.0
 10
60.5112073958965
 20
-146.7757093274554
 30
0.0
 10
60.5112073958965
 20
-146.7757093274554
 30
0.0
 10
60.5112073958965
 20
-145.9971177477889
 30
0.0
 10
60.5112073958965
 20
-145.9971177477889
 30
0.0
 10
60.5112073958965
 20
-145.9971177477889
 30
0.0
 10
60.70585529081312
 20
-145.9971177477889
 30
0.0
 10
60.70585529081312
 20
-145.9971177477889
 30
0.0
 10
60.70585529081312
 20
-145.9971177477889
 30
0.0
 10
60.70585529081312
 20
-146.612756311003
 30
0.0
 10
60.70585529081312
 20
-146.612756311003
 30
0.0
 10
60.70585529081312
 20
-146.612756311003
 30
0.0
 10
61.1289130164018
 20
-146.6782131252228
 30
0.0
 10
61.1289130164018
 20
-146.6782131252228
 30
0.0
 10
61.09497882587209
 20
-146.6168904255853
 30
0.0
 10
61.05484346346893
 20
-146.5345526434879
 30
0.0
 10
61.05484346346893
 20
-146.4160413587953
 30
0.0
 10
61.05484346346893
 20
-146.1621378215324
 30
0.0
 10
61.24105087444668
 20
-145.9251152521472
 30
0.0
 10
61.55403779928163
 20
-145.9251152521472
 30
0.0
 10
61.8715033482474
 20
-145.9251152521472
 30
0.0
 10
62.10628660556718
 20
-146.1493909682369
 30
0.0
 10
62.10628660556718
 20
-146.4518703518419
 30
0.0
  0
HATCH
  5
134
330
12A
100
AcDbEntity
  8
レイヤー 1
 62
    18
420
        0
440
 33554687
100
AcDbHatch
 10
0.0
 20
0.0
 30
0.0
210
0.0
220
0.0
230
1.0
  2
SOLID
 70
     1
 71
     1
 91
        1
 92
        1
 93
        1
 72
     4
 94
        3
 73
     0
 74
     0
 95
       53
 96
       49
 40
0.0
 40
0.0
 40
0.0
 40
0.0
 40
1.0
 40
1.0
 40
1.0
 40
2.0
 40
2.0
 40
2.0
 40
3.0
 40
3.0
 40
3.0
 40
4.0
 40
4.0
 40
4.0
 40
5.0
 40
5.0
 40
5.0
 40
6.0
 40
6.0
 40
6.0
 40
7.0
 40
7.0
 40
7.0
 40
8.0
 40
8.0
 40
8.0
 40
9.0
 40
9.0
 40
9.0
 40
10.0
 40
10.0
 40
10.0
 40
11.0
 40
11.0
 40
11.0
 40
12.0
 40
12.0
 40
12.0
 40
13.0
 40
13.0
 40
13.0
 40
14.0
 40
14.0
 40
14.0
 40
15.0
 40
15.0
 40
15.0
 40
16.0
 40
16.0
 40
16.0
 40
16.0
 10
62.10628660556718
 20
-146.4518703518419
 10
62.10628660556718
 20
-146.530074019357
 10
62.08940563768946
 20
-146.6317043361719
 10
62.0258436259866
 20
-146.7333346529868
 10
61.91577282523287
 20
-146.9066229558948
 10
61.7846869420191
 20
-146.9279825479034
 10
61.67685545333078
 20
-146.9469305730723
 10
61.67685545333078
 20
-146.9469305730723
 10
61.67685545333078
 20
-146.7247219142737
 10
61.67685545333078
 20
-146.7247219142737
 10
61.87563746282971
 20
-146.6699448960582
 10
61.90526528400285
 20
-146.5428208726525
 10
61.90526528400285
 20
-146.4498032945507
 10
61.90526528400285
 20
-146.3102769273981
 10
61.80587427925339
 20
-146.1580037069501
 10
61.57315807922477
 20
-146.1580037069501
 10
61.3171874846707
 20
-146.1580037069501
 10
61.24742430109439
 20
-146.3378376912801
 10
61.24742430109439
 20
-146.4584160332639
 10
61.24742430109439
 20
-146.4901109117282
 10
61.24742430109439
 20
-146.6317043361719
 10
61.376443127017
 20
-146.7205877996914
 10
61.376443127017
 20
-146.7205877996914
 10
61.35732284707387
 20
-146.8962876694391
 10
61.35732284707387
 20
-146.8962876694391
 10
61.35732284707387
 20
-146.8962876694391
 10
60.5112073958965
 20
-146.7757093274554
 10
60.5112073958965
 20
-146.7757093274554
 10
60.5112073958965
 20
-146.7757093274554
 10
60.5112073958965
 20
-145.9971177477889
 10
60.5112073958965
 20
-145.9971177477889
 10
60.5112073958965
 20
-145.9971177477889
 10
60.70585529081312
 20
-145.9971177477889
 10
60.70585529081312
 20
-145.9971177477889
 10
60.70585529081312
 20
-145.9971177477889
 10
60.70585529081312
 20
-146.612756311003
 10
60.70585529081312
 20
-146.612756311003
 10
60.70585529081312
 20
-146.612756311003
 10
61.1289130164018
 20
-146.6782131252228
 10
61.1289130164018
 20
-146.6782131252228
 10
61.09497882587209
 20
-146.6168904255853
 10
61.05484346346893
 20
-146.5345526434879
 10
61.05484346346893
 20
-146.4160413587953
 10
61.05484346346893
 20
-146.1621378215324
 10
61.24105087444668
 20
-145.9251152521472
 10
61.55403779928163
 20
-145.9251152521472
 10
61.8715033482474
 20
-145.9251152521472
 10
62.10628660556718
 20
-146.1493909682369
 10
62.10628660556718
 20
-146.4518703518419
 97
        0
 97
        1
330
133
 75
     2
 76
     1
 98
        1
 10
0.0
 20
0.0
450
        0
451
        0
460
0.0
461
0.0
452
        0
462
0.0
453
        0
470

  0
ENDBLK
  5
12D
330
12A
100
AcDbEntity
  8
0
100
AcDbBlockEnd
  0
BLOCK
  5
139
330
137
100
AcDbEntity
  8
0
100
AcDbBlockBegin
  2
Block_5
 70
     0
 10
0.0
 20
0.0
 30
0.0
  3
Block_5
  1

  0
INSERT
  5
13C
330
137
100
AcDbEntity
  8
レイヤー 1
100
AcDbBlockReference
  2
Block_6
 10
0.0
 20
0.0
 30
0.0
  0
ENDBLK
  5
13A
330
137
100
AcDbEntity
  8
0
100
AcDbBlockEnd
  0
BLOCK
  5
13D
330
13B
100
AcDbEntity
  8
0
100
AcDbBlockBegin
  2
Block_6
 70
     0
 10
0.0
 20
0.0
 30
0.0
  3
Block_6
  1

  0
SPLINE
  5
13F
330
13B
100
AcDbEntity
  8
レイヤー 1
100
AcDbSpline
210
0.0
220
0.0
230
1.0
 70
     9
 71
     3
 72
    44
 73
    40
 74
     0
 42
0.0000000001
 43
0.0000000001
 40
0.0
 40
0.0
 40
0.0
 40
0.0
 40
1.0
 40
1.0
 40
1.0
 40
2.0
 40
2.0
 40
2.0
 40
3.0
 40
3.0
 40
3.0
 40
4.0
 40
4.0
 40
4.0
 40
5.0
 40
5.0
 40
5.0
 40
6.0
 40
6.0
 40
6.0
 40
7.0
 40
7.0
 40
7.0
 40
8.0
 40
8.0
 40
8.0
 40
9.0
 40
9.0
 40
9.0
 40
10.0
 40
10.0
 40
10.0
 40
11.0
 40
11.0
 40
11.0
 40
12.0
 40
12.0
 40
12.0
 40
13.0
 40
13.0
 40
13.0
 40
13.0
 10
77.42869328576436
 20
-140.9455742377671
 30
0.0
 10
77.2107909963223
 20
-141.1042208848628
 30
0.0
 10
77.11760116344629
 20
-141.1782904377957
 30
0.0
 10
77.06902531710428
 20
-141.3221231743049
 30
0.0
 10
77.06902531710428
 20
-141.3221231743049
 30
0.0
 10
77.84744464199647
 20
-141.3221231743049
 30
0.0
 10
77.84744464199647
 20
-141.3221231743049
 30
0.0
 10
77.84744464199647
 20
-141.3221231743049
 30
0.0
 10
77.84744464199647
 20
-141.5272786104515
 30
0.0
 10
77.84744464199647
 20
-141.5272786104515
 30
0.0
 10
77.84744464199647
 20
-141.5272786104515
 30
0.0
 10
76.81942814919792
 20
-141.5272786104515
 30
0.0
 10
76.81942814919792
 20
-141.5272786104515
 30
0.0
 10
76.85112302766222
 20
-141.1696776990826
 30
0.0
 10
76.91657984188196
 20
-141.0914740315674
 30
0.0
 10
77.30174151713289
 20
-140.7931287625447
 30
0.0
 10
77.55771211168696
 20
-140.5943467530458
 30
0.0
 10
77.62316892590671
 20
-140.5266506267607
 30
0.0
 10
77.62316892590671
 20
-140.3891913168992
 30
0.0
 10
77.62316892590671
 20
-140.2706800322066
 30
0.0
 10
77.55133868503925
 20
-140.1394218942186
 30
0.0
 10
77.35462373283148
 20
-140.1394218942186
 30
0.0
 10
77.09434676892086
 20
-140.1394218942186
 30
0.0
 10
77.085906284982
 20
-140.3700710369561
 30
0.0
 10
77.08159991562543
 20
-140.4865152643575
 30
0.0
 10
77.08159991562543
 20
-140.4865152643575
 30
0.0
 10
76.85749645430994
 20
-140.4865152643575
 30
0.0
 10
76.85749645430994
 20
-140.4865152643575
 30
0.0
 10
76.86593693824879
 20
-140.3595634957261
 30
0.0
 10
76.87644447947881
 20
-140.2474256376812
 30
0.0
 10
76.95688745905939
 20
-140.1289143529886
 30
0.0
 10
77.06678600503886
 20
-139.9682006486017
 30
0.0
 10
77.25299341601662
 20
-139.934266458072
 30
0.0
 10
77.36943764341806
 20
-139.934266458072
 30
0.0
 10
77.64659557520641
 20
-139.934266458072
 30
0.0
 10
77.85381806864418
 20
-140.1184068117586
 30
0.0
 10
77.85381806864418
 20
-140.3912583741904
 30
0.0
 10
77.85381806864418
 20
-140.6196682048624
 30
0.0
 10
77.737546096017
 20
-140.7192314643862
 30
0.0
 10
77.42869328576436
 20
-140.9455742377671
 30
0.0
  0
HATCH
  5
140
330
13B
100
AcDbEntity
  8
レイヤー 1
 62
    18
420
        0
440
 33554687
100
AcDbHatch
 10
0.0
 20
0.0
 30
0.0
210
0.0
220
0.0
230
1.0
  2
SOLID
 70
     1
 71
     1
 91
        1
 92
        1
 93
        1
 72
     4
 94
        3
 73
     0
 74
     0
 95
       44
 96
       40
 40
0.0
 40
0.0
 40
0.0
 40
0.0
 40
1.0
 40
1.0
 40
1.0
 40
2.0
 40
2.0
 40
2.0
 40
3.0
 40
3.0
 40
3.0
 40
4.0
 40
4.0
 40
4.0
 40
5.0
 40
5.0
 40
5.0
 40
6.0
 40
6.0
 40
6.0
 40
7.0
 40
7.0
 40
7.0
 40
8.0
 40
8.0
 40
8.0
 40
9.0
 40
9.0
 40
9.0
 40
10.0
 40
10.0
 40
10.0
 40
11.0
 40
11.0
 40
11.0
 40
12.0
 40
12.0
 40
12.0
 40
13.0
 40
13.0
 40
13.0
 40
13.0
 10
77.42869328576436
 20
-140.9455742377671
 10
77.2107909963223
 20
-141.1042208848628
 10
77.11760116344629
 20
-141.1782904377957
 10
77.06902531710428
 20
-141.3221231743049
 10
77.06902531710428
 20
-141.3221231743049
 10
77.84744464199647
 20
-141.3221231743049
 10
77.84744464199647
 20
-141.3221231743049
 10
77.84744464199647
 20
-141.3221231743049
 10
77.84744464199647
 20
-141.5272786104515
 10
77.84744464199647
 20
-141.5272786104515
 10
77.84744464199647
 20
-141.5272786104515
 10
76.81942814919792
 20
-141.5272786104515
 10
76.81942814919792
 20
-141.5272786104515
 10
76.85112302766222
 20
-141.1696776990826
 10
76.91657984188196
 20
-141.0914740315674
 10
77.30174151713289
 20
-140.7931287625447
 10
77.55771211168696
 20
-140.5943467530458
 10
77.62316892590671
 20
-140.5266506267607
 10
77.62316892590671
 20
-140.3891913168992
 10
77.62316892590671
 20
-140.2706800322066
 10
77.55133868503925
 20
-140.1394218942186
 10
77.35462373283148
 20
-140.1394218942186
 10
77.09434676892086
 20
-140.1394218942186
 10
77.085906284982
 20
-140.3700710369561
 10
77.08159991562543
 20
-140.4865152643575
 10
77.08159991562543
 20
-140.4865152643575
 10
76.85749645430994
 20
-140.4865152643575
 10
76.85749645430994
 20
-140.4865152643575
 10
76.86593693824879
 20
-140.3595634957261
 10
76.87644447947881
 20
-140.2474256376812
 10
76.95688745905939
 20
-140.1289143529886
 10
77.06678600503886
 20
-139.9682006486017
 10
77.25299341601662
 20
-139.934266458072
 10
77.36943764341806
 20
-139.934266458072
 10
77.64659557520641
 20
-139.934266458072
 10
77.85381806864418
 20
-140.1184068117586
 10
77.85381806864418
 20
-140.3912583741904
 10
77.85381806864418
 20
-140.6196682048624
 10
77.737546096017
 20
-140.7192314643862
 10
77.42869328576436
 20
-140.9455742377671
 97
        0
 97
        1
330
13F
 75
     2
 76
     1
 98
        1
 10
0.0
 20
0.0
450
        0
451
        0
460
0.0
461
0.0
452
        0
462
0.0
453
        0
470

  0
SPLINE
  5
141
330
13B
100
AcDbEntity
  8
レイヤー 1
100
AcDbSpline
210
0.0
220
0.0
230
1.0
 70
    11
 71
     3
 72
    26
 73
    22
 74
     0
 42
0.0000000001
 43
0.0000000001
 40
0.0
 40
0.0
 40
0.0
 40
0.0
 40
1.0
 40
1.0
 40
1.0
 40
2.0
 40
2.0
 40
2.0
 40
3.0
 40
3.0
 40
3.0
 40
4.0
 40
4.0
 40
4.0
 40
5.0
 40
5.0
 40
5.0
 40
6.0
 40
6.0
 40
6.0
 40
7.0
 40
7.0
 40
7.0
 40
7.0
 10
78.46377222430767
 20
-141.5272786104515
 30
0.0
 10
78.46377222430767
 20
-141.5272786104515
 30
0.0
 10
78.46377222430767
 20
-140.4229532526547
 30
0.0
 10
78.46377222430767
 20
-140.4229532526547
 30
0.0
 10
78.46377222430767
 20
-140.4229532526547
 30
0.0
 10
78.13373207682073
 20
-140.4229532526547
 30
0.0
 10
78.13373207682073
 20
-140.4229532526547
 30
0.0
 10
78.13373207682073
 20
-140.4229532526547
 30
0.0
 10
78.13373207682073
 20
-140.2748141467889
 30
0.0
 10
78.13373207682073
 20
-140.2748141467889
 30
0.0
 10
78.46583928159882
 20
-140.2601724909766
 30
0.0
 10
78.51234807064969
 20
-140.0972194745243
 30
0.0
 10
78.54197589182284
 20
-139.9830145591883
 30
0.0
 10
78.54197589182284
 20
-139.9830145591883
 30
0.0
 10
78.68804794039744
 20
-139.9830145591883
 30
0.0
 10
78.68804794039744
 20
-139.9830145591883
 30
0.0
 10
78.68804794039744
 20
-139.9830145591883
 30
0.0
 10
78.68804794039744
 20
-141.5272786104515
 30
0.0
 10
78.68804794039744
 20
-141.5272786104515
 30
0.0
 10
78.68804794039744
 20
-141.5272786104515
 30
0.0
 10
78.46377222430767
 20
-141.5272786104515
 30
0.0
 10
78.46377222430767
 20
-141.5272786104515
 30
0.0
  0
HATCH
  5
142
330
13B
100
AcDbEntity
  8
レイヤー 1
 62
    18
420
        0
440
 33554687
100
AcDbHatch
 10
0.0
 20
0.0
 30
0.0
210
0.0
220
0.0
230
1.0
  2
SOLID
 70
     1
 71
     1
 91
        1
 92
        1
 93
        1
 72
     4
 94
        3
 73
     0
 74
     0
 95
       26
 96
       22
 40
0.0
 40
0.0
 40
0.0
 40
0.0
 40
1.0
 40
1.0
 40
1.0
 40
2.0
 40
2.0
 40
2.0
 40
3.0
 40
3.0
 40
3.0
 40
4.0
 40
4.0
 40
4.0
 40
5.0
 40
5.0
 40
5.0
 40
6.0
 40
6.0
 40
6.0
 40
7.0
 40
7.0
 40
7.0
 40
7.0
 10
78.46377222430767
 20
-141.5272786104515
 10
78.46377222430767
 20
-141.5272786104515
 10
78.46377222430767
 20
-140.4229532526547
 10
78.46377222430767
 20
-140.4229532526547
 10
78.46377222430767
 20
-140.4229532526547
 10
78.13373207682073
 20
-140.4229532526547
 10
78.13373207682073
 20
-140.4229532526547
 10
78.13373207682073
 20
-140.4229532526547
 10
78.13373207682073
 20
-140.2748141467889
 10
78.13373207682073
 20
-140.2748141467889
 10
78.46583928159882
 20
-140.2601724909766
 10
78.51234807064969
 20
-140.0972194745243
 10
78.54197589182284
 20
-139.9830145591883
 10
78.54197589182284
 20
-139.9830145591883
 10
78.68804794039744
 20
-139.9830145591883
 10
78.68804794039744
 20
-139.9830145591883
 10
78.68804794039744
 20
-139.9830145591883
 10
78.68804794039744
 20
-141.5272786104515
 10
78.68804794039744
 20
-141.5272786104515
 10
78.68804794039744
 20
-141.5272786104515
 10
78.46377222430767
 20
-141.5272786104515
 10
78.46377222430767
 20
-141.5272786104515
 97
        0
 97
        1
330
141
 75
     2
 76
     1
 98
        1
 10
0.0
 20
0.0
450
        0
451
        0
460
0.0
461
0.0
452
        0
462
0.0
453
        0
470

  0
ENDBLK
  5
13E
330
13B
100
AcDbEntity
  8
0
100
AcDbBlockEnd
  0
BLOCK
  5
147
330
145
100
AcDbEntity
  8
0
100
AcDbBlockBegin
  2
Block_7
 70
     0
 10
0.0
 20
0.0
 30
0.0
  3
Block_7
  1

  0
SPLINE
  5
149
330
145
100
AcDbEntity
  8
レイヤー 1
100
AcDbSpline
210
0.0
220
0.0
230
1.0
 70
     9
 71
     3
 72
    53
 73
    49
 74
     0
 42
0.0000000001
 43
0.0000000001
 40
0.0
 40
0.0
 40
0.0
 40
0.0
 40
1.0
 40
1.0
 40
1.0
 40
2.0
 40
2.0
 40
2.0
 40
3.0
 40
3.0
 40
3.0
 40
4.0
 40
4.0
 40
4.0
 40
5.0
 40
5.0
 40
5.0
 40
6.0
 40
6.0
 40
6.0
 40
7.0
 40
7.0
 40
7.0
 40
8.0
 40
8.0
 40
8.0
 40
9.0
 40
9.0
 40
9.0
 40
10.0
 40
10.0
 40
10.0
 40
11.0
 40
11.0
 40
11.0
 40
12.0
 40
12.0
 40
12.0
 40
13.0
 40
13.0
 40
13.0
 40
14.0
 40
14.0
 40
14.0
 40
15.0
 40
15.0
 40
15.0
 40
16.0
 40
16.0
 40
16.0
 40
16.0
 10
62.83664684844015
 20
-150.6392116593888
 30
0.0
 10
62.83664684844015
 20
-150.717415326904
 30
0.0
 10
62.81959362578816
 20
-150.8190456437188
 30
0.0
 10
62.75620386885957
 20
-150.9206759605337
 30
0.0
 10
62.64613306810583
 20
-151.0939642634418
 30
0.0
 10
62.51504718489208
 20
-151.1153238554503
 30
0.0
 10
62.40721569620376
 20
-151.1342718806192
 30
0.0
 10
62.40721569620376
 20
-151.1342718806192
 30
0.0
 10
62.40721569620376
 20
-150.9120632218206
 30
0.0
 10
62.40721569620376
 20
-150.9120632218206
 30
0.0
 10
62.60599770570267
 20
-150.8572862036051
 30
0.0
 10
62.63562552687582
 20
-150.7301621801994
 30
0.0
 10
62.63562552687582
 20
-150.6371446020976
 30
0.0
 10
62.63562552687582
 20
-150.497618234945
 30
0.0
 10
62.53623452212636
 20
-150.345345014497
 30
0.0
 10
62.30351832209773
 20
-150.345345014497
 30
0.0
 10
62.04754772754367
 20
-150.345345014497
 30
0.0
 10
61.97778454396736
 20
-150.525178998827
 30
0.0
 10
61.97778454396736
 20
-150.6457573408108
 30
0.0
 10
61.97778454396736
 20
-150.6774522192751
 30
0.0
 10
61.97778454396736
 20
-150.8190456437188
 30
0.0
 10
62.10680336988996
 20
-150.9079291072383
 30
0.0
 10
62.10680336988996
 20
-150.9079291072383
 30
0.0
 10
62.08768308994683
 20
-151.083628976986
 30
0.0
 10
62.08768308994683
 20
-151.083628976986
 30
0.0
 10
62.08768308994683
 20
-151.083628976986
 30
0.0
 10
61.24156763876947
 20
-150.9630506350023
 30
0.0
 10
61.24156763876947
 20
-150.9630506350023
 30
0.0
 10
61.24156763876947
 20
-150.9630506350023
 30
0.0
 10
61.24156763876947
 20
-150.1844590553358
 30
0.0
 10
61.24156763876947
 20
-150.1844590553358
 30
0.0
 10
61.24156763876947
 20
-150.1844590553358
 30
0.0
 10
61.43621553368609
 20
-150.1844590553358
 30
0.0
 10
61.43621553368609
 20
-150.1844590553358
 30
0.0
 10
61.43621553368609
 20
-150.1844590553358
 30
0.0
 10
61.43621553368609
 20
-150.8000976185499
 30
0.0
 10
61.43621553368609
 20
-150.8000976185499
 30
0.0
 10
61.43621553368609
 20
-150.8000976185499
 30
0.0
 10
61.85927325927476
 20
-150.8655544327697
 30
0.0
 10
61.85927325927476
 20
-150.8655544327697
 30
0.0
 10
61.82533906874506
 20
-150.8042317331322
 30
0.0
 10
61.78520370634189
 20
-150.7218939510348
 30
0.0
 10
61.78520370634189
 20
-150.6033826663422
 30
0.0
 10
61.78520370634189
 20
-150.3494791290793
 30
0.0
 10
61.97141111731965
 20
-150.1124565596941
 30
0.0
 10
62.2843980421546
 20
-150.1124565596941
 30
0.0
 10
62.60186359112037
 20
-150.1124565596941
 30
0.0
 10
62.83664684844015
 20
-150.3367322757839
 30
0.0
 10
62.83664684844015
 20
-150.6392116593888
 30
0.0
  0
HATCH
  5
14A
330
145
100
AcDbEntity
  8
レイヤー 1
 62
    18
420
        0
440
 33554687
100
AcDbHatch
 10
0.0
 20
0.0
 30
0.0
210
0.0
220
0.0
230
1.0
  2
SOLID
 70
     1
 71
     1
 91
        1
 92
        1
 93
        1
 72
     4
 94
        3
 73
     0
 74
     0
 95
       53
 96
       49
 40
0.0
 40
0.0
 40
0.0
 40
0.0
 40
1.0
 40
1.0
 40
1.0
 40
2.0
 40
2.0
 40
2.0
 40
3.0
 40
3.0
 40
3.0
 40
4.0
 40
4.0
 40
4.0
 40
5.0
 40
5.0
 40
5.0
 40
6.0
 40
6.0
 40
6.0
 40
7.0
 40
7.0
 40
7.0
 40
8.0
 40
8.0
 40
8.0
 40
9.0
 40
9.0
 40
9.0
 40
10.0
 40
10.0
 40
10.0
 40
11.0
 40
11.0
 40
11.0
 40
12.0
 40
12.0
 40
12.0
 40
13.0
 40
13.0
 40
13.0
 40
14.0
 40
14.0
 40
14.0
 40
15.0
 40
15.0
 40
15.0
 40
16.0
 40
16.0
 40
16.0
 40
16.0
 10
62.83664684844015
 20
-150.6392116593888
 10
62.83664684844015
 20
-150.717415326904
 10
62.81959362578816
 20
-150.8190456437188
 10
62.75620386885957
 20
-150.9206759605337
 10
62.64613306810583
 20
-151.0939642634418
 10
62.51504718489208
 20
-151.1153238554503
 10
62.40721569620376
 20
-151.1342718806192
 10
62.40721569620376
 20
-151.1342718806192
 10
62.40721569620376
 20
-150.9120632218206
 10
62.40721569620376
 20
-150.9120632218206
 10
62.60599770570267
 20
-150.8572862036051
 10
62.63562552687582
 20
-150.7301621801994
 10
62.63562552687582
 20
-150.6371446020976
 10
62.63562552687582
 20
-150.497618234945
 10
62.53623452212636
 20
-150.345345014497
 10
62.30351832209773
 20
-150.345345014497
 10
62.04754772754367
 20
-150.345345014497
 10
61.97778454396736
 20
-150.525178998827
 10
61.97778454396736
 20
-150.6457573408108
 10
61.97778454396736
 20
-150.6774522192751
 10
61.97778454396736
 20
-150.8190456437188
 10
62.10680336988996
 20
-150.9079291072383
 10
62.10680336988996
 20
-150.9079291072383
 10
62.08768308994683
 20
-151.083628976986
 10
62.08768308994683
 20
-151.083628976986
 10
62.08768308994683
 20
-151.083628976986
 10
61.24156763876947
 20
-150.9630506350023
 10
61.24156763876947
 20
-150.9630506350023
 10
61.24156763876947
 20
-150.9630506350023
 10
61.24156763876947
 20
-150.1844590553358
 10
61.24156763876947
 20
-150.1844590553358
 10
61.24156763876947
 20
-150.1844590553358
 10
61.43621553368609
 20
-150.1844590553358
 10
61.43621553368609
 20
-150.1844590553358
 10
61.43621553368609
 20
-150.1844590553358
 10
61.43621553368609
 20
-150.8000976185499
 10
61.43621553368609
 20
-150.8000976185499
 10
61.43621553368609
 20
-150.8000976185499
 10
61.85927325927476
 20
-150.8655544327697
 10
61.85927325927476
 20
-150.8655544327697
 10
61.82533906874506
 20
-150.8042317331322
 10
61.78520370634189
 20
-150.7218939510348
 10
61.78520370634189
 20
-150.6033826663422
 10
61.78520370634189
 20
-150.3494791290793
 10
61.97141111731965
 20
-150.1124565596941
 10
62.2843980421546
 20
-150.1124565596941
 10
62.60186359112037
 20
-150.1124565596941
 10
62.83664684844015
 20
-150.3367322757839
 10
62.83664684844015
 20
-150.6392116593888
 97
        0
 97
        1
330
149
 75
     2
 76
     1
 98
        1
 10
0.0
 20
0.0
450
        0
451
        0
460
0.0
461
0.0
452
        0
462
0.0
453
        0
470

  0
ENDBLK
  5
148
330
145
100
AcDbEntity
  8
0
100
AcDbBlockEnd
  0
BLOCK
  5
14F
330
14D
100
AcDbEntity
  8
0
100
AcDbBlockBegin
  2
Block_8
 70
     0
 10
0.0
 20
0.0
 30
0.0
  3
Block_8
  1

  0
INSERT
  5
152
330
14D
100
AcDbEntity
  8
レイヤー 1
100
AcDbBlockReference
  2
Block_9
 10
0.0
 20
0.0
 30
0.0
  0
ENDBLK
  5
150
330
14D
100
AcDbEntity
  8
0
100
AcDbBlockEnd
  0
BLOCK
  5
153
330
151
100
AcDbEntity
  8
0
100
AcDbBlockBegin
  2
Block_9
 70
     0
 10
0.0
 20
0.0
 30
0.0
  3
Block_9
  1

  0
SPLINE
  5
155
330
151
100
AcDbEntity
  8
レイヤー 1
100
AcDbSpline
210
0.0
220
0.0
230
1.0
 70
     9
 71
     3
 72
    44
 73
    40
 74
     0
 42
0.0000000001
 43
0.0000000001
 40
0.0
 40
0.0
 40
0.0
 40
0.0
 40
1.0
 40
1.0
 40
1.0
 40
2.0
 40
2.0
 40
2.0
 40
3.0
 40
3.0
 40
3.0
 40
4.0
 40
4.0
 40
4.0
 40
5.0
 40
5.0
 40
5.0
 40
6.0
 40
6.0
 40
6.0
 40
7.0
 40
7.0
 40
7.0
 40
8.0
 40
8.0
 40
8.0
 40
9.0
 40
9.0
 40
9.0
 40
10.0
 40
10.0
 40
10.0
 40
11.0
 40
11.0
 40
11.0
 40
12.0
 40
12.0
 40
12.0
 40
13.0
 40
13.0
 40
13.0
 40
13.0
 10
103.4300346963647
 20
-140.9455742377671
 30
0.0
 10
103.2123046616969
 20
-141.1042208848628
 30
0.0
 10
103.1192870835952
 20
-141.1782904377957
 30
0.0
 10
103.0703667277046
 20
-141.3221231743049
 30
0.0
 10
103.0703667277046
 20
-141.3221231743049
 30
0.0
 10
103.8489583073711
 20
-141.3221231743049
 30
0.0
 10
103.8489583073711
 20
-141.3221231743049
 30
0.0
 10
103.8489583073711
 20
-141.3221231743049
 30
0.0
 10
103.8489583073711
 20
-141.5272786104515
 30
0.0
 10
103.8489583073711
 20
-141.5272786104515
 30
0.0
 10
103.8489583073711
 20
-141.5272786104515
 30
0.0
 10
102.8209418145725
 20
-141.5272786104515
 30
0.0
 10
102.8209418145725
 20
-141.5272786104515
 30
0.0
 10
102.8526366930368
 20
-141.1696776990826
 30
0.0
 10
102.9180935072566
 20
-141.0914740315674
 30
0.0
 10
103.3032551825075
 20
-140.7931287625447
 30
0.0
 10
103.5592257770616
 20
-140.5943467530458
 30
0.0
 10
103.6246825912813
 20
-140.5266506267607
 30
0.0
 10
103.6246825912813
 20
-140.3891913168992
 30
0.0
 10
103.6246825912813
 20
-140.2706800322066
 30
0.0
 10
103.5526800956396
 20
-140.1394218942186
 30
0.0
 10
103.3559651434318
 20
-140.1394218942186
 30
0.0
 10
103.0958604342955
 20
-140.1394218942186
 30
0.0
 10
103.0875922051309
 20
-140.3700710369561
 30
0.0
 10
103.083113581
 20
-140.4865152643575
 30
0.0
 10
103.083113581
 20
-140.4865152643575
 30
0.0
 10
102.8588378649103
 20
-140.4865152643575
 30
0.0
 10
102.8588378649103
 20
-140.4865152643575
 30
0.0
 10
102.8674506036234
 20
-140.3595634957261
 30
0.0
 10
102.8781303996277
 20
-140.2474256376812
 30
0.0
 10
102.958401124434
 20
-140.1289143529886
 30
0.0
 10
103.0682996704135
 20
-139.9682006486017
 30
0.0
 10
103.2546793361655
 20
-139.934266458072
 30
0.0
 10
103.3707790540184
 20
-139.934266458072
 30
0.0
 10
103.648109240581
 20
-139.934266458072
 30
0.0
 10
103.8555039887931
 20
-140.1184068117586
 30
0.0
 10
103.8555039887931
 20
-140.3912583741904
 30
0.0
 10
103.8555039887931
 20
-140.6196682048624
 30
0.0
 10
103.7390597613916
 20
-140.7192314643862
 30
0.0
 10
103.4300346963647
 20
-140.9455742377671
 30
0.0
  0
HATCH
  5
156
330
151
100
AcDbEntity
  8
レイヤー 1
 62
    18
420
        0
440
 33554687
100
AcDbHatch
 10
0.0
 20
0.0
 30
0.0
210
0.0
220
0.0
230
1.0
  2
SOLID
 70
     1
 71
     1
 91
        1
 92
        1
 93
        1
 72
     4
 94
        3
 73
     0
 74
     0
 95
       44
 96
       40
 40
0.0
 40
0.0
 40
0.0
 40
0.0
 40
1.0
 40
1.0
 40
1.0
 40
2.0
 40
2.0
 40
2.0
 40
3.0
 40
3.0
 40
3.0
 40
4.0
 40
4.0
 40
4.0
 40
5.0
 40
5.0
 40
5.0
 40
6.0
 40
6.0
 40
6.0
 40
7.0
 40
7.0
 40
7.0
 40
8.0
 40
8.0
 40
8.0
 40
9.0
 40
9.0
 40
9.0
 40
10.0
 40
10.0
 40
10.0
 40
11.0
 40
11.0
 40
11.0
 40
12.0
 40
12.0
 40
12.0
 40
13.0
 40
13.0
 40
13.0
 40
13.0
 10
103.4300346963647
 20
-140.9455742377671
 10
103.2123046616969
 20
-141.1042208848628
 10
103.1192870835952
 20
-141.1782904377957
 10
103.0703667277046
 20
-141.3221231743049
 10
103.0703667277046
 20
-141.3221231743049
 10
103.8489583073711
 20
-141.3221231743049
 10
103.8489583073711
 20
-141.3221231743049
 10
103.8489583073711
 20
-141.3221231743049
 10
103.8489583073711
 20
-141.5272786104515
 10
103.8489583073711
 20
-141.5272786104515
 10
103.8489583073711
 20
-141.5272786104515
 10
102.8209418145725
 20
-141.5272786104515
 10
102.8209418145725
 20
-141.5272786104515
 10
102.8526366930368
 20
-141.1696776990826
 10
102.9180935072566
 20
-141.0914740315674
 10
103.3032551825075
 20
-140.7931287625447
 10
103.5592257770616
 20
-140.5943467530458
 10
103.6246825912813
 20
-140.5266506267607
 10
103.6246825912813
 20
-140.3891913168992
 10
103.6246825912813
 20
-140.2706800322066
 10
103.5526800956396
 20
-140.1394218942186
 10
103.3559651434318
 20
-140.1394218942186
 10
103.0958604342955
 20
-140.1394218942186
 10
103.0875922051309
 20
-140.3700710369561
 10
103.083113581
 20
-140.4865152643575
 10
103.083113581
 20
-140.4865152643575
 10
102.8588378649103
 20
-140.4865152643575
 10
102.8588378649103
 20
-140.4865152643575
 10
102.8674506036234
 20
-140.3595634957261
 10
102.8781303996277
 20
-140.2474256376812
 10
102.958401124434
 20
-140.1289143529886
 10
103.0682996704135
 20
-139.9682006486017
 10
103.2546793361655
 20
-139.934266458072
 10
103.3707790540184
 20
-139.934266458072
 10
103.648109240581
 20
-139.934266458072
 10
103.8555039887931
 20
-140.1184068117586
 10
103.8555039887931
 20
-140.3912583741904
 10
103.8555039887931
 20
-140.6196682048624
 10
103.7390597613916
 20
-140.7192314643862
 10
103.4300346963647
 20
-140.9455742377671
 97
        0
 97
        1
330
155
 75
     2
 76
     1
 98
        1
 10
0.0
 20
0.0
450
        0
451
        0
460
0.0
461
0.0
452
        0
462
0.0
453
        0
470

  0
SPLINE
  5
157
330
151
100
AcDbEntity
  8
レイヤー 1
100
AcDbSpline
210
0.0
220
0.0
230
1.0
 70
    11
 71
     3
 72
    26
 73
    22
 74
     0
 42
0.0000000001
 43
0.0000000001
 40
0.0
 40
0.0
 40
0.0
 40
0.0
 40
1.0
 40
1.0
 40
1.0
 40
2.0
 40
2.0
 40
2.0
 40
3.0
 40
3.0
 40
3.0
 40
4.0
 40
4.0
 40
4.0
 40
5.0
 40
5.0
 40
5.0
 40
6.0
 40
6.0
 40
6.0
 40
7.0
 40
7.0
 40
7.0
 40
7.0
 10
104.4652858896823
 20
-141.5272786104515
 30
0.0
 10
104.4652858896823
 20
-141.5272786104515
 30
0.0
 10
104.4652858896823
 20
-140.4229532526547
 30
0.0
 10
104.4652858896823
 20
-140.4229532526547
 30
0.0
 10
104.4652858896823
 20
-140.4229532526547
 30
0.0
 10
104.1352457421953
 20
-140.4229532526547
 30
0.0
 10
104.1352457421953
 20
-140.4229532526547
 30
0.0
 10
104.1352457421953
 20
-140.4229532526547
 30
0.0
 10
104.1352457421953
 20
-140.2748141467889
 30
0.0
 10
104.1352457421953
 20
-140.2748141467889
 30
0.0
 10
104.4673529469734
 20
-140.2601724909766
 30
0.0
 10
104.5138617360243
 20
-140.0972194745243
 30
0.0
 10
104.5434895571974
 20
-139.9830145591883
 30
0.0
 10
104.5434895571974
 20
-139.9830145591883
 30
0.0
 10
104.689561605772
 20
-139.9830145591883
 30
0.0
 10
104.689561605772
 20
-139.9830145591883
 30
0.0
 10
104.689561605772
 20
-139.9830145591883
 30
0.0
 10
104.689561605772
 20
-141.5272786104515
 30
0.0
 10
104.689561605772
 20
-141.5272786104515
 30
0.0
 10
104.689561605772
 20
-141.5272786104515
 30
0.0
 10
104.4652858896823
 20
-141.5272786104515
 30
0.0
 10
104.4652858896823
 20
-141.5272786104515
 30
0.0
  0
HATCH
  5
158
330
151
100
AcDbEntity
  8
レイヤー 1
 62
    18
420
        0
440
 33554687
100
AcDbHatch
 10
0.0
 20
0.0
 30
0.0
210
0.0
220
0.0
230
1.0
  2
SOLID
 70
     1
 71
     1
 91
        1
 92
        1
 93
        1
 72
     4
 94
        3
 73
     0
 74
     0
 95
       26
 96
       22
 40
0.0
 40
0.0
 40
0.0
 40
0.0
 40
1.0
 40
1.0
 40
1.0
 40
2.0
 40
2.0
 40
2.0
 40
3.0
 40
3.0
 40
3.0
 40
4.0
 40
4.0
 40
4.0
 40
5.0
 40
5.0
 40
5.0
 40
6.0
 40
6.0
 40
6.0
 40
7.0
 40
7.0
 40
7.0
 40
7.0
 10
104.4652858896823
 20
-141.5272786104515
 10
104.4652858896823
 20
-141.5272786104515
 10
104.4652858896823
 20
-140.4229532526547
 10
104.4652858896823
 20
-140.4229532526547
 10
104.4652858896823
 20
-140.4229532526547
 10
104.1352457421953
 20
-140.4229532526547
 10
104.1352457421953
 20
-140.4229532526547
 10
104.1352457421953
 20
-140.4229532526547
 10
104.1352457421953
 20
-140.2748141467889
 10
104.1352457421953
 20
-140.2748141467889
 10
104.4673529469734
 20
-140.2601724909766
 10
104.5138617360243
 20
-140.0972194745243
 10
104.5434895571974
 20
-139.9830145591883
 10
104.5434895571974
 20
-139.9830145591883
 10
104.689561605772
 20
-139.9830145591883
 10
104.689561605772
 20
-139.9830145591883
 10
104.689561605772
 20
-139.9830145591883
 10
104.689561605772
 20
-141.5272786104515
 10
104.689561605772
 20
-141.5272786104515
 10
104.689561605772
 20
-141.5272786104515
 10
104.4652858896823
 20
-141.5272786104515
 10
104.4652858896823
 20
-141.5272786104515
 97
        0
 97
        1
330
157
 75
     2
 76
     1
 98
        1
 10
0.0
 20
0.0
450
        0
451
        0
460
0.0
461
0.0
452
        0
462
0.0
453
        0
470

  0
ENDBLK
  5
154
330
151
100
AcDbEntity
  8
0
100
AcDbBlockEnd
  0
BLOCK
  5
15E
330
15C
100
AcDbEntity
  8
0
100
AcDbBlockBegin
  2
Block_10
 70
     0
 10
0.0
 20
0.0
 30
0.0
  3
Block_10
  1

  0
SPLINE
  5
160
330
15C
100
AcDbEntity
  8
レイヤー 1
100
AcDbSpline
210
0.0
220
0.0
230
1.0
 70
     9
 71
     3
 72
    53
 73
    49
 74
     0
 42
0.0000000001
 43
0.0000000001
 40
0.0
 40
0.0
 40
0.0
 40
0.0
 40
1.0
 40
1.0
 40
1.0
 40
2.0
 40
2.0
 40
2.0
 40
3.0
 40
3.0
 40
3.0
 40
4.0
 40
4.0
 40
4.0
 40
5.0
 40
5.0
 40
5.0
 40
6.0
 40
6.0
 40
6.0
 40
7.0
 40
7.0
 40
7.0
 40
8.0
 40
8.0
 40
8.0
 40
9.0
 40
9.0
 40
9.0
 40
10.0
 40
10.0
 40
10.0
 40
11.0
 40
11.0
 40
11.0
 40
12.0
 40
12.0
 40
12.0
 40
13.0
 40
13.0
 40
13.0
 40
14.0
 40
14.0
 40
14.0
 40
15.0
 40
15.0
 40
15.0
 40
16.0
 40
16.0
 40
16.0
 40
16.0
 10
90.98393823680263
 20
-141.5779215140847
 30
0.0
 10
90.90556231451319
 20
-141.5779215140847
 30
0.0
 10
90.80410425247258
 20
-141.561040546207
 30
0.0
 10
90.70247393565772
 20
-141.4974785345041
 30
0.0
 10
90.52901337797539
 20
-141.3874077337503
 30
0.0
 10
90.50782604074111
 20
-141.2563218505366
 30
0.0
 10
90.48887801557222
 20
-141.1484903618483
 30
0.0
 10
90.48887801557222
 20
-141.1484903618483
 30
0.0
 10
90.71091441959657
 20
-141.1484903618483
 30
0.0
 10
90.71091441959657
 20
-141.1484903618483
 30
0.0
 10
90.76603594736058
 20
-141.3472723713472
 30
0.0
 10
90.89298771599203
 20
-141.3769001925203
 30
0.0
 10
90.98600529409379
 20
-141.3769001925203
 30
0.0
 10
91.12553166124639
 20
-141.3769001925203
 30
0.0
 10
91.2779771364687
 20
-141.2775091877709
 30
0.0
 10
91.2779771364687
 20
-141.0447929877423
 30
0.0
 10
91.2779771364687
 20
-140.7888223931882
 30
0.0
 10
91.09814315213865
 20
-140.7190592096119
 30
0.0
 10
90.97756481015492
 20
-140.7190592096119
 30
0.0
 10
90.94586993169063
 20
-140.7190592096119
 30
0.0
 10
90.80410425247258
 20
-140.7190592096119
 30
0.0
 10
90.71522078895315
 20
-140.8480780355345
 30
0.0
 10
90.71522078895315
 20
-140.8480780355345
 30
0.0
 10
90.53969317397966
 20
-140.8289577555914
 30
0.0
 10
90.53969317397966
 20
-140.8289577555914
 30
0.0
 10
90.53969317397966
 20
-140.8289577555914
 30
0.0
 10
90.6602715159634
 20
-139.982842304414
 30
0.0
 10
90.6602715159634
 20
-139.982842304414
 30
0.0
 10
90.6602715159634
 20
-139.982842304414
 30
0.0
 10
91.43869084085562
 20
-139.982842304414
 30
0.0
 10
91.43869084085562
 20
-139.982842304414
 30
0.0
 10
91.43869084085562
 20
-139.982842304414
 30
0.0
 10
91.43869084085562
 20
-140.1774901993306
 30
0.0
 10
91.43869084085562
 20
-140.1774901993306
 30
0.0
 10
91.43869084085562
 20
-140.1774901993306
 30
0.0
 10
90.82305227764146
 20
-140.1774901993306
 30
0.0
 10
90.82305227764146
 20
-140.1774901993306
 30
0.0
 10
90.82305227764146
 20
-140.1774901993306
 30
0.0
 10
90.75759546342172
 20
-140.6005479249193
 30
0.0
 10
90.75759546342172
 20
-140.6005479249193
 30
0.0
 10
90.81891816305917
 20
-140.5666137343896
 30
0.0
 10
90.90142819993088
 20
-140.5264783719864
 30
0.0
 10
91.01976722984922
 20
-140.5264783719864
 30
0.0
 10
91.27367076711214
 20
-140.5264783719864
 30
0.0
 10
91.51069333649733
 20
-140.7126857829642
 30
0.0
 10
91.51069333649733
 20
-141.0256727077991
 30
0.0
 10
91.51069333649733
 20
-141.3431382567649
 30
0.0
 10
91.28641762040755
 20
-141.5779215140847
 30
0.0
 10
90.98393823680263
 20
-141.5779215140847
 30
0.0
  0
HATCH
  5
161
330
15C
100
AcDbEntity
  8
レイヤー 1
 62
    18
420
        0
440
 33554687
100
AcDbHatch
 10
0.0
 20
0.0
 30
0.0
210
0.0
220
0.0
230
1.0
  2
SOLID
 70
     1
 71
     1
 91
        1
 92
        1
 93
        1
 72
     4
 94
        3
 73
     0
 74
     0
 95
       53
 96
       49
 40
0.0
 40
0.0
 40
0.0
 40
0.0
 40
1.0
 40
1.0
 40
1.0
 40
2.0
 40
2.0
 40
2.0
 40
3.0
 40
3.0
 40
3.0
 40
4.0
 40
4.0
 40
4.0
 40
5.0
 40
5.0
 40
5.0
 40
6.0
 40
6.0
 40
6.0
 40
7.0
 40
7.0
 40
7.0
 40
8.0
 40
8.0
 40
8.0
 40
9.0
 40
9.0
 40
9.0
 40
10.0
 40
10.0
 40
10.0
 40
11.0
 40
11.0
 40
11.0
 40
12.0
 40
12.0
 40
12.0
 40
13.0
 40
13.0
 40
13.0
 40
14.0
 40
14.0
 40
14.0
 40
15.0
 40
15.0
 40
15.0
 40
16.0
 40
16.0
 40
16.0
 40
16.0
 10
90.98393823680263
 20
-141.5779215140847
 10
90.90556231451319
 20
-141.5779215140847
 10
90.80410425247258
 20
-141.561040546207
 10
90.70247393565772
 20
-141.4974785345041
 10
90.52901337797539
 20
-141.3874077337503
 10
90.50782604074111
 20
-141.2563218505366
 10
90.48887801557222
 20
-141.1484903618483
 10
90.48887801557222
 20
-141.1484903618483
 10
90.71091441959657
 20
-141.1484903618483
 10
90.71091441959657
 20
-141.1484903618483
 10
90.76603594736058
 20
-141.3472723713472
 10
90.89298771599203
 20
-141.3769001925203
 10
90.98600529409379
 20
-141.3769001925203
 10
91.12553166124639
 20
-141.3769001925203
 10
91.2779771364687
 20
-141.2775091877709
 10
91.2779771364687
 20
-141.0447929877423
 10
91.2779771364687
 20
-140.7888223931882
 10
91.09814315213865
 20
-140.7190592096119
 10
90.97756481015492
 20
-140.7190592096119
 10
90.94586993169063
 20
-140.7190592096119
 10
90.80410425247258
 20
-140.7190592096119
 10
90.71522078895315
 20
-140.8480780355345
 10
90.71522078895315
 20
-140.8480780355345
 10
90.53969317397966
 20
-140.8289577555914
 10
90.53969317397966
 20
-140.8289577555914
 10
90.53969317397966
 20
-140.8289577555914
 10
90.6602715159634
 20
-139.982842304414
 10
90.6602715159634
 20
-139.982842304414
 10
90.6602715159634
 20
-139.982842304414
 10
91.43869084085562
 20
-139.982842304414
 10
91.43869084085562
 20
-139.982842304414
 10
91.43869084085562
 20
-139.982842304414
 10
91.43869084085562
 20
-140.1774901993306
 10
91.43869084085562
 20
-140.1774901993306
 10
91.43869084085562
 20
-140.1774901993306
 10
90.82305227764146
 20
-140.1774901993306
 10
90.82305227764146
 20
-140.1774901993306
 10
90.82305227764146
 20
-140.1774901993306
 10
90.75759546342172
 20
-140.6005479249193
 10
90.75759546342172
 20
-140.6005479249193
 10
90.81891816305917
 20
-140.5666137343896
 10
90.90142819993088
 20
-140.5264783719864
 10
91.01976722984922
 20
-140.5264783719864
 10
91.27367076711214
 20
-140.5264783719864
 10
91.51069333649733
 20
-140.7126857829642
 10
91.51069333649733
 20
-141.0256727077991
 10
91.51069333649733
 20
-141.3431382567649
 10
91.28641762040755
 20
-141.5779215140847
 10
90.98393823680263
 20
-141.5779215140847
 97
        0
 97
        1
330
160
 75
     2
 76
     1
 98
        1
 10
0.0
 20
0.0
450
        0
451
        0
460
0.0
461
0.0
452
        0
462
0.0
453
        0
470

  0
ENDBLK
  5
15F
330
15C
100
AcDbEntity
  8
0
100
AcDbBlockEnd
  0
BLOCK
  5
169
330
167
100
AcDbEntity
  8
0
100
AcDbBlockBegin
  2
Block_11
 70
     0
 10
0.0
 20
0.0
 30
0.0
  3
Block_11
  1

  0
SPLINE
  5
16B
330
167
100
AcDbEntity
  8
レイヤー 1
100
AcDbSpline
210
0.0
220
0.0
230
1.0
 70
     9
 71
     3
 72
    26
 73
    22
 74
     0
 42
0.0000000001
 43
0.0000000001
 40
0.0
 40
0.0
 40
0.0
 40
0.0
 40
1.0
 40
1.0
 40
1.0
 40
2.0
 40
2.0
 40
2.0
 40
3.0
 40
3.0
 40
3.0
 40
4.0
 40
4.0
 40
4.0
 40
5.0
 40
5.0
 40
5.0
 40
6.0
 40
6.0
 40
6.0
 40
7.0
 40
7.0
 40
7.0
 40
7.0
 10
91.11364608182228
 20
-156.2123426258775
 30
0.0
 10
91.11364608182228
 20
-156.2123426258775
 30
0.0
 10
90.87662351243709
 20
-156.2123426258775
 30
0.0
 10
90.87662351243709
 20
-156.2123426258775
 30
0.0
 10
90.90211721902795
 20
-155.9033175608505
 30
0.0
 10
91.09469805665341
 20
-155.385175199869
 30
0.0
 10
91.50087481436436
 20
-154.8794351826343
 30
0.0
 10
91.50087481436436
 20
-154.8794351826343
 30
0.0
 10
90.66302759235162
 20
-154.8794351826343
 30
0.0
 10
90.66302759235162
 20
-154.8794351826343
 30
0.0
 10
90.66302759235162
 20
-154.8794351826343
 30
0.0
 10
90.66302759235162
 20
-154.6679063198399
 30
0.0
 10
90.66302759235162
 20
-154.6679063198399
 30
0.0
 10
90.66302759235162
 20
-154.6679063198399
 30
0.0
 10
91.73789738374955
 20
-154.6679063198399
 30
0.0
 10
91.73789738374955
 20
-154.6679063198399
 30
0.0
 10
91.73789738374955
 20
-154.6679063198399
 30
0.0
 10
91.73789738374955
 20
-154.8794351826343
 30
0.0
 10
91.73789738374955
 20
-154.8794351826343
 30
0.0
 10
91.41405840813607
 20
-155.1695122224923
 30
0.0
 10
91.14740801757774
 20
-155.7617241364068
 30
0.0
 10
91.11364608182228
 20
-156.2123426258775
 30
0.0
  0
HATCH
  5
16C
330
167
100
AcDbEntity
  8
レイヤー 1
 62
    18
420
        0
440
 33554687
100
AcDbHatch
 10
0.0
 20
0.0
 30
0.0
210
0.0
220
0.0
230
1.0
  2
SOLID
 70
     1
 71
     1
 91
        1
 92
        1
 93
        1
 72
     4
 94
        3
 73
     0
 74
     0
 95
       26
 96
       22
 40
0.0
 40
0.0
 40
0.0
 40
0.0
 40
1.0
 40
1.0
 40
1.0
 40
2.0
 40
2.0
 40
2.0
 40
3.0
 40
3.0
 40
3.0
 40
4.0
 40
4.0
 40
4.0
 40
5.0
 40
5.0
 40
5.0
 40
6.0
 40
6.0
 40
6.0
 40
7.0
 40
7.0
 40
7.0
 40
7.0
 10
91.11364608182228
 20
-156.2123426258775
 10
91.11364608182228
 20
-156.2123426258775
 10
90.87662351243709
 20
-156.2123426258775
 10
90.87662351243709
 20
-156.2123426258775
 10
90.90211721902795
 20
-155.9033175608505
 10
91.09469805665341
 20
-155.385175199869
 10
91.50087481436436
 20
-154.8794351826343
 10
91.50087481436436
 20
-154.8794351826343
 10
90.66302759235162
 20
-154.8794351826343
 10
90.66302759235162
 20
-154.8794351826343
 10
90.66302759235162
 20
-154.8794351826343
 10
90.66302759235162
 20
-154.6679063198399
 10
90.66302759235162
 20
-154.6679063198399
 10
90.66302759235162
 20
-154.6679063198399
 10
91.73789738374955
 20
-154.6679063198399
 10
91.73789738374955
 20
-154.6679063198399
 10
91.73789738374955
 20
-154.6679063198399
 10
91.73789738374955
 20
-154.8794351826343
 10
91.73789738374955
 20
-154.8794351826343
 10
91.41405840813607
 20
-155.1695122224923
 10
91.14740801757774
 20
-155.7617241364068
 10
91.11364608182228
 20
-156.2123426258775
 97
        0
 97
        1
330
16B
 75
     2
 76
     1
 98
        1
 10
0.0
 20
0.0
450
        0
451
        0
460
0.0
461
0.0
452
        0
462
0.0
453
        0
470

  0
ENDBLK
  5
16A
330
167
100
AcDbEntity
  8
0
100
AcDbBlockEnd
  0
BLOCK
  5
170
330
16E
100
AcDbEntity
  8
0
100
AcDbBlockBegin
  2
Block_12
 70
     0
 10
0.0
 20
0.0
 30
0.0
  3
Block_12
  1

  0
SPLINE
  5
172
330
16E
100
AcDbEntity
  8
レイヤー 1
100
AcDbSpline
210
0.0
220
0.0
230
1.0
 70
    11
 71
     3
 72
    26
 73
    22
 74
     0
 42
0.0000000001
 43
0.0000000001
 40
0.0
 40
0.0
 40
0.0
 40
0.0
 40
1.0
 40
1.0
 40
1.0
 40
2.0
 40
2.0
 40
2.0
 40
3.0
 40
3.0
 40
3.0
 40
4.0
 40
4.0
 40
4.0
 40
5.0
 40
5.0
 40
5.0
 40
6.0
 40
6.0
 40
6.0
 40
7.0
 40
7.0
 40
7.0
 40
7.0
 10
96.40255667077784
 20
-149.7334960563166
 30
0.0
 10
96.40255667077784
 20
-149.7334960563166
 30
0.0
 10
96.40255667077784
 20
-148.6291706985198
 30
0.0
 10
96.40255667077784
 20
-148.6291706985198
 30
0.0
 10
96.40255667077784
 20
-148.6291706985198
 30
0.0
 10
96.0725165232909
 20
-148.6291706985198
 30
0.0
 10
96.0725165232909
 20
-148.6291706985198
 30
0.0
 10
96.0725165232909
 20
-148.6291706985198
 30
0.0
 10
96.0725165232909
 20
-148.481031592654
 30
0.0
 10
96.0725165232909
 20
-148.481031592654
 30
0.0
 10
96.40462372806899
 20
-148.4663899368417
 30
0.0
 10
96.45113251711986
 20
-148.3034369203894
 30
0.0
 10
96.48076033829301
 20
-148.1892320050534
 30
0.0
 10
96.48076033829301
 20
-148.1892320050534
 30
0.0
 10
96.6268323868676
 20
-148.1892320050534
 30
0.0
 10
96.6268323868676
 20
-148.1892320050534
 30
0.0
 10
96.6268323868676
 20
-148.1892320050534
 30
0.0
 10
96.6268323868676
 20
-149.7334960563166
 30
0.0
 10
96.6268323868676
 20
-149.7334960563166
 30
0.0
 10
96.6268323868676
 20
-149.7334960563166
 30
0.0
 10
96.40255667077784
 20
-149.7334960563166
 30
0.0
 10
96.40255667077784
 20
-149.7334960563166
 30
0.0
  0
HATCH
  5
173
330
16E
100
AcDbEntity
  8
レイヤー 1
 62
    18
420
        0
440
 33554687
100
AcDbHatch
 10
0.0
 20
0.0
 30
0.0
210
0.0
220
0.0
230
1.0
  2
SOLID
 70
     1
 71
     1
 91
        1
 92
        1
 93
        1
 72
     4
 94
        3
 73
     0
 74
     0
 95
       26
 96
       22
 40
0.0
 40
0.0
 40
0.0
 40
0.0
 40
1.0
 40
1.0
 40
1.0
 40
2.0
 40
2.0
 40
2.0
 40
3.0
 40
3.0
 40
3.0
 40
4.0
 40
4.0
 40
4.0
 40
5.0
 40
5.0
 40
5.0
 40
6.0
 40
6.0
 40
6.0
 40
7.0
 40
7.0
 40
7.0
 40
7.0
 10
96.40255667077784
 20
-149.7334960563166
 10
96.40255667077784
 20
-149.7334960563166
 10
96.40255667077784
 20
-148.6291706985198
 10
96.40255667077784
 20
-148.6291706985198
 10
96.40255667077784
 20
-148.6291706985198
 10
96.0725165232909
 20
-148.6291706985198
 10
96.0725165232909
 20
-148.6291706985198
 10
96.0725165232909
 20
-148.6291706985198
 10
96.0725165232909
 20
-148.481031592654
 10
96.0725165232909
 20
-148.481031592654
 10
96.40462372806899
 20
-148.4663899368417
 10
96.45113251711986
 20
-148.3034369203894
 10
96.48076033829301
 20
-148.1892320050534
 10
96.48076033829301
 20
-148.1892320050534
 10
96.6268323868676
 20
-148.1892320050534
 10
96.6268323868676
 20
-148.1892320050534
 10
96.6268323868676
 20
-148.1892320050534
 10
96.6268323868676
 20
-149.7334960563166
 10
96.6268323868676
 20
-149.7334960563166
 10
96.6268323868676
 20
-149.7334960563166
 10
96.40255667077784
 20
-149.7334960563166
 10
96.40255667077784
 20
-149.7334960563166
 97
        0
 97
        1
330
172
 75
     2
 76
     1
 98
        1
 10
0.0
 20
0.0
450
        0
451
        0
460
0.0
461
0.0
452
        0
462
0.0
453
        0
470

  0
ENDBLK
  5
171
330
16E
100
AcDbEntity
  8
0
100
AcDbBlockEnd
  0
BLOCK
  5
176
330
174
100
AcDbEntity
  8
0
100
AcDbBlockBegin
  2
Block_13
 70
     0
 10
0.0
 20
0.0
 30
0.0
  3
Block_13
  1

  0
INSERT
  5
179
330
174
100
AcDbEntity
  8
レイヤー 1
100
AcDbBlockReference
  2
Block_14
 10
0.0
 20
0.0
 30
0.0
  0
INSERT
  5
180
330
174
100
AcDbEntity
  8
レイヤー 1
100
AcDbBlockReference
  2
Block_15
 10
0.0
 20
0.0
 30
0.0
  0
ENDBLK
  5
177
330
174
100
AcDbEntity
  8
0
100
AcDbBlockEnd
  0
BLOCK
  5
17A
330
178
100
AcDbEntity
  8
0
100
AcDbBlockBegin
  2
Block_14
 70
     0
 10
0.0
 20
0.0
 30
0.0
  3
Block_14
  1

  0
LINE
  5
17C
330
178
100
AcDbEntity
  8
レイヤー 1
 62
    18
420
        0
370
     9
100
AcDbLine
 10
105.8539301311896
 20
-148.485838326715
 30
0.0
 11
106.6652484438245
 21
-149.0704616599024
 31
0.0
  0
LINE
  5
17D
330
178
100
AcDbEntity
  8
レイヤー 1
 62
    18
420
        0
370
     9
100
AcDbLine
 10
105.8539301311896
 20
-148.485838326715
 30
0.0
 11
108.4315714543174
 21
-151.6429172148146
 31
0.0
  0
LINE
  5
17E
330
178
100
AcDbEntity
  8
レイヤー 1
 62
    18
420
        0
370
     9
100
AcDbLine
 10
105.8539301311896
 20
-148.485838326715
 30
0.0
 11
106.2642459540549
 21
-149.3979099931533
 31
0.0
  0
ENDBLK
  5
17B
330
178
100
AcDbEntity
  8
0
100
AcDbBlockEnd
  0
BLOCK
  5
181
330
17F
100
AcDbEntity
  8
0
100
AcDbBlockBegin
  2
Block_15
 70
     0
 10
0.0
 20
0.0
 30
0.0
  3
Block_15
  1

  0
INSERT
  5
184
330
17F
100
AcDbEntity
  8
レイヤー 1
100
AcDbBlockReference
  2
Block_16
 10
0.0
 20
0.0
 30
0.0
  0
ENDBLK
  5
182
330
17F
100
AcDbEntity
  8
0
100
AcDbBlockEnd
  0
BLOCK
  5
185
330
183
100
AcDbEntity
  8
0
100
AcDbBlockBegin
  2
Block_16
 70
     0
 10
0.0
 20
0.0
 30
0.0
  3
Block_16
  1

  0
SPLINE
  5
187
330
183
100
AcDbEntity
  8
レイヤー 1
100
AcDbSpline
210
0.0
220
0.0
230
1.0
 70
     9
 71
     3
 72
    17
 73
    13
 74
     0
 42
0.0000000001
 43
0.0000000001
 40
0.0
 40
0.0
 40
0.0
 40
0.0
 40
1.0
 40
1.0
 40
1.0
 40
2.0
 40
2.0
 40
2.0
 40
3.0
 40
3.0
 40
3.0
 40
4.0
 40
4.0
 40
4.0
 40
4.0
 10
110.0983615176143
 20
-152.0906303873245
 30
0.0
 10
110.0814805497366
 20
-152.1202582084977
 30
0.0
 10
110.0308376461034
 20
-152.2132757865994
 30
0.0
 10
110.0201578500991
 20
-152.2322238117683
 30
0.0
 10
110.2106716304334
 20
-152.2914794541146
 30
0.0
 10
110.2316867128934
 20
-152.2980251355366
 30
0.0
 10
110.3036892085352
 20
-152.3252413898701
 30
0.0
 10
110.3584662267506
 20
-152.2387694931903
 30
0.0
 10
110.3818928760503
 20
-152.1646999402574
 30
0.0
 10
110.3967067866369
 20
-152.0906303873245
 30
0.0
 10
110.3967067866369
 20
-152.0906303873245
 30
0.0
 10
110.0983615176143
 20
-152.0906303873245
 30
0.0
 10
110.0983615176143
 20
-152.0906303873245
 30
0.0
  0
SPLINE
  5
188
330
183
100
AcDbEntity
  8
レイヤー 1
100
AcDbSpline
210
0.0
220
0.0
230
1.0
 70
    11
 71
     3
 72
    20
 73
    16
 74
     0
 42
0.0000000001
 43
0.0000000001
 40
0.0
 40
0.0
 40
0.0
 40
0.0
 40
1.0
 40
1.0
 40
1.0
 40
2.0
 40
2.0
 40
2.0
 40
3.0
 40
3.0
 40
3.0
 40
4.0
 40
4.0
 40
4.0
 40
5.0
 40
5.0
 40
5.0
 40
5.0
 10
110.0349717606857
 20
-151.2400363120164
 30
0.0
 10
110.0349717606857
 20
-151.2400363120164
 30
0.0
 10
110.0032768822214
 20
-151.2400363120164
 30
0.0
 10
110.0032768822214
 20
-151.2400363120164
 30
0.0
 10
110.0497856712723
 20
-151.3395995715401
 30
0.0
 10
110.0814805497366
 20
-151.4198702963464
 30
0.0
 10
110.115242485492
 20
-151.5469943197521
 30
0.0
 10
110.115242485492
 20
-151.5469943197521
 30
0.0
 10
110.3226372337041
 20
-151.5469943197521
 30
0.0
 10
110.3226372337041
 20
-151.5469943197521
 30
0.0
 10
110.3543321121683
 20
-151.4539767416504
 30
0.0
 10
110.377758761468
 20
-151.3692273927132
 30
0.0
 10
110.4008409012192
 20
-151.2400363120164
 30
0.0
 10
110.4008409012192
 20
-151.2400363120164
 30
0.0
 10
110.0349717606857
 20
-151.2400363120164
 30
0.0
 10
110.0349717606857
 20
-151.2400363120164
 30
0.0
  0
SPLINE
  5
189
330
183
100
AcDbEntity
  8
レイヤー 1
100
AcDbSpline
210
0.0
220
0.0
230
1.0
 70
     9
 71
     3
 72
   242
 73
   238
 74
     0
 42
0.0000000001
 43
0.0000000001
 40
0.0
 40
0.0
 40
0.0
 40
0.0
 40
1.0
 40
1.0
 40
1.0
 40
2.0
 40
2.0
 40
2.0
 40
3.0
 40
3.0
 40
3.0
 40
4.0
 40
4.0
 40
4.0
 40
5.0
 40
5.0
 40
5.0
 40
6.0
 40
6.0
 40
6.0
 40
7.0
 40
7.0
 40
7.0
 40
8.0
 40
8.0
 40
8.0
 40
9.0
 40
9.0
 40
9.0
 40
10.0
 40
10.0
 40
10.0
 40
11.0
 40
11.0
 40
11.0
 40
12.0
 40
12.0
 40
12.0
 40
13.0
 40
13.0
 40
13.0
 40
14.0
 40
14.0
 40
14.0
 40
15.0
 40
15.0
 40
15.0
 40
16.0
 40
16.0
 40
16.0
 40
17.0
 40
17.0
 40
17.0
 40
18.0
 40
18.0
 40
18.0
 40
19.0
 40
19.0
 40
19.0
 40
20.0
 40
20.0
 40
20.0
 40
21.0
 40
21.0
 40
21.0
 40
22.0
 40
22.0
 40
22.0
 40
23.0
 40
23.0
 40
23.0
 40
24.0
 40
24.0
 40
24.0
 40
25.0
 40
25.0
 40
25.0
 40
26.0
 40
26.0
 40
26.0
 40
27.0
 40
27.0
 40
27.0
 40
28.0
 40
28.0
 40
28.0
 40
29.0
 40
29.0
 40
29.0
 40
30.0
 40
30.0
 40
30.0
 40
31.0
 40
31.0
 40
31.0
 40
32.0
 40
32.0
 40
32.0
 40
33.0
 40
33.0
 40
33.0
 40
34.0
 40
34.0
 40
34.0
 40
35.0
 40
35.0
 40
35.0
 40
36.0
 40
36.0
 40
36.0
 40
37.0
 40
37.0
 40
37.0
 40
38.0
 40
38.0
 40
38.0
 40
39.0
 40
39.0
 40
39.0
 40
40.0
 40
40.0
 40
40.0
 40
41.0
 40
41.0
 40
41.0
 40
42.0
 40
42.0
 40
42.0
 40
43.0
 40
43.0
 40
43.0
 40
44.0
 40
44.0
 40
44.0
 40
45.0
 40
45.0
 40
45.0
 40
46.0
 40
46.0
 40
46.0
 40
47.0
 40
47.0
 40
47.0
 40
48.0
 40
48.0
 40
48.0
 40
49.0
 40
49.0
 40
49.0
 40
50.0
 40
50.0
 40
50.0
 40
51.0
 40
51.0
 40
51.0
 40
52.0
 40
52.0
 40
52.0
 40
53.0
 40
53.0
 40
53.0
 40
54.0
 40
54.0
 40
54.0
 40
55.0
 40
55.0
 40
55.0
 40
56.0
 40
56.0
 40
56.0
 40
57.0
 40
57.0
 40
57.0
 40
58.0
 40
58.0
 40
58.0
 40
59.0
 40
59.0
 40
59.0
 40
60.0
 40
60.0
 40
60.0
 40
61.0
 40
61.0
 40
61.0
 40
62.0
 40
62.0
 40
62.0
 40
63.0
 40
63.0
 40
63.0
 40
64.0
 40
64.0
 40
64.0
 40
65.0
 40
65.0
 40
65.0
 40
66.0
 40
66.0
 40
66.0
 40
67.0
 40
67.0
 40
67.0
 40
68.0
 40
68.0
 40
68.0
 40
69.0
 40
69.0
 40
69.0
 40
70.0
 40
70.0
 40
70.0
 40
71.0
 40
71.0
 40
71.0
 40
72.0
 40
72.0
 40
72.0
 40
73.0
 40
73.0
 40
73.0
 40
74.0
 40
74.0
 40
74.0
 40
75.0
 40
75.0
 40
75.0
 40
76.0
 40
76.0
 40
76.0
 40
77.0
 40
77.0
 40
77.0
 40
78.0
 40
78.0
 40
78.0
 40
79.0
 40
79.0
 40
79.0
 40
79.0
 10
110.6633571771953
 20
-151.7054687120736
 30
0.0
 10
110.6633571771953
 20
-151.7054687120736
 30
0.0
 10
110.4094536399323
 20
-151.7054687120736
 30
0.0
 10
110.4094536399323
 20
-151.7054687120736
 30
0.0
 10
110.4094536399323
 20
-151.7054687120736
 30
0.0
 10
110.1321234533697
 20
-151.7054687120736
 30
0.0
 10
110.1321234533697
 20
-151.7054687120736
 30
0.0
 10
110.1321234533697
 20
-151.7054687120736
 30
0.0
 10
110.2592474767754
 20
-151.7478433865422
 30
0.0
 10
110.2592474767754
 20
-151.7478433865422
 30
0.0
 10
110.2699272727797
 20
-151.7519775011245
 30
0.0
 10
110.2823296165266
 20
-151.7585231825465
 30
0.0
 10
110.2823296165266
 20
-151.7712700358419
 30
0.0
 10
110.2823296165266
 20
-151.7922851183019
 30
0.0
 10
110.2506347380623
 20
-151.7984862901754
 30
0.0
 10
110.2296196556023
 20
-151.8029649143062
 30
0.0
 10
110.218939859598
 20
-151.8260470540574
 30
0.0
 10
110.1893120384249
 20
-151.8918483778256
 30
0.0
 10
110.170364013256
 20
-151.9362901095854
 30
0.0
 10
110.170364013256
 20
-151.9362901095854
 30
0.0
 10
110.4411485183966
 20
-151.9362901095854
 30
0.0
 10
110.4411485183966
 20
-151.9362901095854
 30
0.0
 10
110.5320990392072
 20
-151.9362901095854
 30
0.0
 10
110.728813991415
 20
-151.9318114854545
 30
0.0
 10
110.8704074158588
 20
-151.9235432562899
 30
0.0
 10
110.8704074158588
 20
-151.9235432562899
 30
0.0
 10
110.8704074158588
 20
-152.1013101833288
 30
0.0
 10
110.8704074158588
 20
-152.1013101833288
 30
0.0
 10
110.7880696337613
 20
-152.096831559198
 30
0.0
 10
110.7670545513013
 20
-152.096831559198
 30
0.0
 10
110.5872205669712
 20
-152.0926974446157
 30
0.0
 10
110.5555256885069
 20
-152.2470377223549
 30
0.0
 10
110.5110839567472
 20
-152.3276529567097
 30
0.0
 10
110.4666422249875
 20
-152.3972438855118
 30
0.0
 10
110.5872205669712
 20
-152.4564995278581
 30
0.0
 10
110.6929849983684
 20
-152.5243679089175
 30
0.0
 10
110.7966823724744
 20
-152.606705691015
 30
0.0
 10
110.7966823724744
 20
-152.606705691015
 30
0.0
 10
110.6781710877818
 20
-152.7737928220496
 30
0.0
 10
110.6781710877818
 20
-152.7737928220496
 30
0.0
 10
110.6547444384821
 20
-152.7548447968807
 30
0.0
 10
110.6419975851867
 20
-152.7462320581676
 30
0.0
 10
110.5300319819161
 20
-152.661827218779
 30
0.0
 10
110.4814561355741
 20
-152.6235866588927
 30
0.0
 10
110.4222004932278
 20
-152.5877576658461
 30
0.0
 10
110.3415852588729
 20
-152.5433159340864
 30
0.0
 10
110.1300563960786
 20
-152.7293510902899
 30
0.0
 10
109.9250732147062
 20
-152.7527777395896
 30
0.0
 10
109.6349961748482
 20
-152.7824055607627
 30
0.0
 10
109.6349961748482
 20
-152.7824055607627
 30
0.0
 10
109.5312988007421
 20
-152.6025715764327
 30
0.0
 10
109.5312988007421
 20
-152.6025715764327
 30
0.0
 10
109.8489366044822
 20
-152.5984374618504
 30
0.0
 10
110.0242919646814
 20
-152.5729437552595
 30
0.0
 10
110.1765651851295
 20
-152.46304520928
 30
0.0
 10
110.0580539004369
 20
-152.4120577960984
 30
0.0
 10
109.9695149464659
 20
-152.3844970322164
 30
0.0
 10
109.9333414438708
 20
-152.3720946884695
 30
0.0
 10
109.9143934187019
 20
-152.3993109428029
 30
0.0
 10
109.8995795081154
 20
-152.4186034775203
 30
0.0
 10
109.8720187442334
 20
-152.4523654132758
 30
0.0
 10
109.8720187442334
 20
-152.4523654132758
 30
0.0
 10
109.6753037920256
 20
-152.3696831216298
 30
0.0
 10
109.6753037920256
 20
-152.3696831216298
 30
0.0
 10
109.7579860836716
 20
-152.2894123968234
 30
0.0
 10
109.8193087833091
 20
-152.1943277614306
 30
0.0
 10
109.8761528588157
 20
-152.0926974446157
 30
0.0
 10
109.6859835880299
 20
-152.096831559198
 30
0.0
 10
109.6646239960213
 20
-152.096831559198
 30
0.0
 10
109.5822862139238
 20
-152.1013101833288
 30
0.0
 10
109.5822862139238
 20
-152.1013101833288
 30
0.0
 10
109.5822862139238
 20
-151.9235432562899
 30
0.0
 10
109.5822862139238
 20
-151.9235432562899
 30
0.0
 10
109.7218125810765
 20
-151.9297444281634
 30
0.0
 10
109.9312743865797
 20
-151.9338785427457
 30
0.0
 10
109.9567680931705
 20
-151.9338785427457
 30
0.0
 10
109.9736490610482
 20
-151.9001166069902
 30
0.0
 10
110.0287705888122
 20
-151.7795382650065
 30
0.0
 10
110.0477186139811
 20
-151.7054687120736
 30
0.0
 10
110.0287705888122
 20
-151.7054687120736
 30
0.0
 10
109.8510036617733
 20
-151.7120143934956
 30
0.0
 10
109.6563557668567
 20
-151.724761246791
 30
0.0
 10
109.6563557668567
 20
-151.724761246791
 30
0.0
 10
109.6563557668567
 20
-151.8577419325217
 30
0.0
 10
109.6563557668567
 20
-151.8577419325217
 30
0.0
 10
109.6077799205147
 20
-151.8832356391125
 30
0.0
 10
109.5485242781684
 20
-151.9149305175768
 30
0.0
 10
109.4151990828892
 20
-151.9807318413451
 30
0.0
 10
109.4151990828892
 20
-151.9807318413451
 30
0.0
 10
109.4151990828892
 20
-152.1264593803711
 30
0.0
 10
109.4151990828892
 20
-152.1264593803711
 30
0.0
 10
109.4151990828892
 20
-152.1264593803711
 30
0.0
 10
109.4151990828892
 20
-152.5939588377196
 30
0.0
 10
109.4151990828892
 20
-152.5939588377196
 30
0.0
 10
109.4151990828892
 20
-152.7210828611253
 30
0.0
 10
109.3790255802941
 20
-152.7803385034716
 30
0.0
 10
109.095494221858
 20
-152.7717257647584
 30
0.0
 10
109.095494221858
 20
-152.7717257647584
 30
0.0
 10
108.9921413573005
 20
-152.5643310165464
 30
0.0
 10
108.9921413573005
 20
-152.5643310165464
 30
0.0
 10
109.0555311142292
 20
-152.5770778698418
 30
0.0
 10
109.1041069605712
 20
-152.5812119844241
 30
0.0
 10
109.1444145777486
 20
-152.5812119844241
 30
0.0
 10
109.2205511879726
 20
-152.5812119844241
 30
0.0
 10
109.2308864744284
 20
-152.558129844673
 30
0.0
 10
109.2308864744284
 20
-152.4926730304532
 30
0.0
 10
109.2308864744284
 20
-152.4926730304532
 30
0.0
 10
109.2308864744284
 20
-152.0630696234426
 30
0.0
 10
109.2308864744284
 20
-152.0630696234426
 30
0.0
 10
109.1337347817443
 20
-152.10337724062
 30
0.0
 10
109.1168538138666
 20
-152.1095784124934
 30
0.0
 10
109.0703450248157
 20
-152.1285264376623
 30
0.0
 10
109.0662109102334
 20
-152.1498860296708
 30
0.0
 10
109.0617322861026
 20
-152.179513850844
 30
0.0
 10
109.0427842609337
 20
-152.179513850844
 30
0.0
 10
109.0341715222206
 20
-152.179513850844
 30
0.0
 10
109.0238362357649
 20
-152.1753797362617
 30
0.0
 10
109.0172905543429
 20
-152.151953086962
 30
0.0
 10
109.0172905543429
 20
-152.151953086962
 30
0.0
 10
108.9645805934186
 20
-151.9593722493365
 30
0.0
 10
108.9645805934186
 20
-151.9593722493365
 30
0.0
 10
109.1103081324446
 20
-151.9128634602856
 30
0.0
 10
109.1761094562129
 20
-151.8897813205345
 30
0.0
 10
109.2308864744284
 20
-151.8684217285259
 30
0.0
 10
109.2308864744284
 20
-151.8684217285259
 30
0.0
 10
109.2308864744284
 20
-151.4560437989415
 30
0.0
 10
109.2308864744284
 20
-151.4560437989415
 30
0.0
 10
109.2308864744284
 20
-151.4560437989415
 30
0.0
 10
109.178176513504
 20
-151.4560437989415
 30
0.0
 10
109.178176513504
 20
-151.4560437989415
 30
0.0
 10
109.178176513504
 20
-151.4560437989415
 30
0.0
 10
109.0999728459889
 20
-151.4560437989415
 30
0.0
 10
109.0999728459889
 20
-151.4560437989415
 30
0.0
 10
109.0321044649295
 20
-151.4560437989415
 30
0.0
 10
109.0238362357649
 20
-151.4560437989415
 30
0.0
 10
108.9876627331697
 20
-151.462244970815
 30
0.0
 10
108.9876627331697
 20
-151.462244970815
 30
0.0
 10
108.9876627331697
 20
-151.2675970758984
 30
0.0
 10
108.9876627331697
 20
-151.2675970758984
 30
0.0
 10
109.0152234970517
 20
-151.2741427573203
 30
0.0
 10
109.0238362357649
 20
-151.2741427573203
 30
0.0
 10
109.0934271645669
 20
-151.2741427573203
 30
0.0
 10
109.0934271645669
 20
-151.2741427573203
 30
0.0
 10
109.2267523598461
 20
-151.2741427573203
 30
0.0
 10
109.2267523598461
 20
-151.2741427573203
 30
0.0
 10
109.2267523598461
 20
-151.2042073189698
 30
0.0
 10
109.2267523598461
 20
-151.1215250273238
 30
0.0
 10
109.2246853025549
 20
-151.1173909127415
 30
0.0
 10
109.2164170733903
 20
-150.9375569284114
 30
0.0
 10
109.2164170733903
 20
-150.9186089032426
 30
0.0
 10
109.2140055065506
 20
-150.8721001141917
 30
0.0
 10
109.2140055065506
 20
-150.8721001141917
 30
0.0
 10
109.4300129934758
 20
-150.8803683433563
 30
0.0
 10
109.4300129934758
 20
-150.8803683433563
 30
0.0
 10
109.4403482799316
 20
-150.8803683433563
 30
0.0
 10
109.4617078719401
 20
-150.882779910196
 30
0.0
 10
109.4617078719401
 20
-150.8996608780737
 30
0.0
 10
109.4617078719401
 20
-150.9186089032426
 30
0.0
 10
109.4468939613535
 20
-150.9292886992468
 30
0.0
 10
109.4214002547627
 20
-150.9482367244157
 30
0.0
 10
109.4214002547627
 20
-150.9988796280489
 30
0.0
 10
109.4151990828892
 20
-151.2272894587209
 30
0.0
 10
109.4172661401804
 20
-151.2741427573203
 30
0.0
 10
109.5461127113287
 20
-151.2741427573203
 30
0.0
 10
109.5588595646242
 20
-151.2741427573203
 30
0.0
 10
109.6563557668567
 20
-151.2655300186072
 30
0.0
 10
109.6563557668567
 20
-151.2655300186072
 30
0.0
 10
109.6563557668567
 20
-151.4601779135238
 30
0.0
 10
109.6563557668567
 20
-151.4601779135238
 30
0.0
 10
109.6181152069704
 20
-151.4581108562327
 30
0.0
 10
109.5505913354596
 20
-151.4539767416504
 30
0.0
 10
109.4151990828892
 20
-151.4560437989415
 30
0.0
 10
109.4151990828892
 20
-151.4560437989415
 30
0.0
 10
109.4151990828892
 20
-151.794352175593
 30
0.0
 10
109.4151990828892
 20
-151.794352175593
 30
0.0
 10
109.4699761011047
 20
-151.7712700358419
 30
0.0
 10
109.535777424873
 20
-151.7437092719599
 30
0.0
 10
109.584353271215
 20
-151.7202826226602
 30
0.0
 10
109.584353271215
 20
-151.7202826226602
 30
0.0
 10
109.584353271215
 20
-151.5425156956213
 30
0.0
 10
109.584353271215
 20
-151.5425156956213
 30
0.0
 10
109.6987304413253
 20
-151.5552625489167
 30
0.0
 10
109.8168972164694
 20
-151.5552625489167
 30
0.0
 10
109.9333414438708
 20
-151.5552625489167
 30
0.0
 10
109.9102593041196
 20
-151.4601779135238
 30
0.0
 10
109.8826985402376
 20
-151.3774956218778
 30
0.0
 10
109.8193087833091
 20
-151.2445149361472
 30
0.0
 10
109.7748670515493
 20
-151.2465819934383
 30
0.0
 10
109.6921847599033
 20
-151.2507161080207
 30
0.0
 10
109.6542887095656
 20
-151.2527831653118
 30
0.0
 10
109.6542887095656
 20
-151.2527831653118
 30
0.0
 10
109.6542887095656
 20
-151.0729491809818
 30
0.0
 10
109.6542887095656
 20
-151.0729491809818
 30
0.0
 10
109.7790011661316
 20
-151.0815619196949
 30
0.0
 10
109.9522894690397
 20
-151.0856960342772
 30
0.0
 10
110.0349717606857
 20
-151.0856960342772
 30
0.0
 10
110.0349717606857
 20
-151.0856960342772
 30
0.0
 10
110.1173095427832
 20
-151.0856960342772
 30
0.0
 10
110.1173095427832
 20
-151.0856960342772
 30
0.0
 10
110.1173095427832
 20
-150.9227430178248
 30
0.0
 10
110.1173095427832
 20
-150.9124077313691
 30
0.0
 10
110.115242485492
 20
-150.8572862036051
 30
0.0
 10
110.115242485492
 20
-150.8572862036051
 30
0.0
 10
110.3395182015818
 20
-150.882779910196
 30
0.0
 10
110.3395182015818
 20
-150.882779910196
 30
0.0
 10
110.3436523161641
 20
-150.882779910196
 30
0.0
 10
110.3650119081726
 20
-150.8848469674871
 30
0.0
 10
110.3650119081726
 20
-150.9017279353648
 30
0.0
 10
110.3650119081726
 20
-150.9165418459514
 30
0.0
 10
110.3543321121683
 20
-150.924810075116
 30
0.0
 10
110.3267713482863
 20
-150.9396239857026
 30
0.0
 10
110.3205701764129
 20
-151.0054253094708
 30
0.0
 10
110.3185031191217
 20
-151.0264403919309
 30
0.0
 10
110.3185031191217
 20
-151.0856960342772
 30
0.0
 10
110.3185031191217
 20
-151.0856960342772
 30
0.0
 10
110.4135877545146
 20
-151.0856960342772
 30
0.0
 10
110.4135877545146
 20
-151.0856960342772
 30
0.0
 10
110.4962700461606
 20
-151.0856960342772
 30
0.0
 10
110.6695583490687
 20
-151.0815619196949
 30
0.0
 10
110.7942708056347
 20
-151.0729491809818
 30
0.0
 10
110.7942708056347
 20
-151.0729491809818
 30
0.0
 10
110.7942708056347
 20
-151.2527831653118
 30
0.0
 10
110.7942708056347
 20
-151.2527831653118
 30
0.0
 10
110.7646429844616
 20
-151.2507161080207
 30
0.0
 10
110.6464762093175
 20
-151.2465819934383
 30
0.0
 10
110.6061685921401
 20
-151.2445149361472
 30
0.0
 10
110.5913546815535
 20
-151.2951578397804
 30
0.0
 10
110.5575927457981
 20
-151.407123443051
 30
0.0
 10
110.4917914220298
 20
-151.5469943197521
 30
0.0
 10
110.5341660964984
 20
-151.5469943197521
 30
0.0
 10
110.811496283061
 20
-151.5277017850347
 30
0.0
 10
110.8728189826984
 20
-151.5256347277436
 30
0.0
 10
110.8728189826984
 20
-151.5256347277436
 30
0.0
 10
110.8728189826984
 20
-151.7099473362044
 30
0.0
 10
110.8728189826984
 20
-151.7099473362044
 30
0.0
 10
110.8431911615253
 20
-151.7099473362044
 30
0.0
 10
110.8263101936476
 20
-151.7054687120736
 30
0.0
 10
110.6633571771953
 20
-151.7054687120736
 30
0.0
  0
HATCH
  5
18A
330
183
100
AcDbEntity
  8
レイヤー 1
 62
    18
420
        0
440
 33554687
100
AcDbHatch
 10
0.0
 20
0.0
 30
0.0
210
0.0
220
0.0
230
1.0
  2
SOLID
 70
     1
 71
     1
 91
        3
 92
        1
 93
        1
 72
     4
 94
        3
 73
     0
 74
     0
 95
       17
 96
       13
 40
0.0
 40
0.0
 40
0.0
 40
0.0
 40
1.0
 40
1.0
 40
1.0
 40
2.0
 40
2.0
 40
2.0
 40
3.0
 40
3.0
 40
3.0
 40
4.0
 40
4.0
 40
4.0
 40
4.0
 10
110.0983615176143
 20
-152.0906303873245
 10
110.0814805497366
 20
-152.1202582084977
 10
110.0308376461034
 20
-152.2132757865994
 10
110.0201578500991
 20
-152.2322238117683
 10
110.2106716304334
 20
-152.2914794541146
 10
110.2316867128934
 20
-152.2980251355366
 10
110.3036892085352
 20
-152.3252413898701
 10
110.3584662267506
 20
-152.2387694931903
 10
110.3818928760503
 20
-152.1646999402574
 10
110.3967067866369
 20
-152.0906303873245
 10
110.3967067866369
 20
-152.0906303873245
 10
110.0983615176143
 20
-152.0906303873245
 10
110.0983615176143
 20
-152.0906303873245
 97
        0
 97
        1
330
187
 92
        1
 93
        1
 72
     4
 94
        3
 73
     0
 74
     0
 95
       20
 96
       16
 40
0.0
 40
0.0
 40
0.0
 40
0.0
 40
1.0
 40
1.0
 40
1.0
 40
2.0
 40
2.0
 40
2.0
 40
3.0
 40
3.0
 40
3.0
 40
4.0
 40
4.0
 40
4.0
 40
5.0
 40
5.0
 40
5.0
 40
5.0
 10
110.0349717606857
 20
-151.2400363120164
 10
110.0349717606857
 20
-151.2400363120164
 10
110.0032768822214
 20
-151.2400363120164
 10
110.0032768822214
 20
-151.2400363120164
 10
110.0497856712723
 20
-151.3395995715401
 10
110.0814805497366
 20
-151.4198702963464
 10
110.115242485492
 20
-151.5469943197521
 10
110.115242485492
 20
-151.5469943197521
 10
110.3226372337041
 20
-151.5469943197521
 10
110.3226372337041
 20
-151.5469943197521
 10
110.3543321121683
 20
-151.4539767416504
 10
110.377758761468
 20
-151.3692273927132
 10
110.4008409012192
 20
-151.2400363120164
 10
110.4008409012192
 20
-151.2400363120164
 10
110.0349717606857
 20
-151.2400363120164
 10
110.0349717606857
 20
-151.2400363120164
 97
        0
 97
        1
330
188
 92
        1
 93
        1
 72
     4
 94
        3
 73
     0
 74
     0
 95
      242
 96
      238
 40
0.0
 40
0.0
 40
0.0
 40
0.0
 40
1.0
 40
1.0
 40
1.0
 40
2.0
 40
2.0
 40
2.0
 40
3.0
 40
3.0
 40
3.0
 40
4.0
 40
4.0
 40
4.0
 40
5.0
 40
5.0
 40
5.0
 40
6.0
 40
6.0
 40
6.0
 40
7.0
 40
7.0
 40
7.0
 40
8.0
 40
8.0
 40
8.0
 40
9.0
 40
9.0
 40
9.0
 40
10.0
 40
10.0
 40
10.0
 40
11.0
 40
11.0
 40
11.0
 40
12.0
 40
12.0
 40
12.0
 40
13.0
 40
13.0
 40
13.0
 40
14.0
 40
14.0
 40
14.0
 40
15.0
 40
15.0
 40
15.0
 40
16.0
 40
16.0
 40
16.0
 40
17.0
 40
17.0
 40
17.0
 40
18.0
 40
18.0
 40
18.0
 40
19.0
 40
19.0
 40
19.0
 40
20.0
 40
20.0
 40
20.0
 40
21.0
 40
21.0
 40
21.0
 40
22.0
 40
22.0
 40
22.0
 40
23.0
 40
23.0
 40
23.0
 40
24.0
 40
24.0
 40
24.0
 40
25.0
 40
25.0
 40
25.0
 40
26.0
 40
26.0
 40
26.0
 40
27.0
 40
27.0
 40
27.0
 40
28.0
 40
28.0
 40
28.0
 40
29.0
 40
29.0
 40
29.0
 40
30.0
 40
30.0
 40
30.0
 40
31.0
 40
31.0
 40
31.0
 40
32.0
 40
32.0
 40
32.0
 40
33.0
 40
33.0
 40
33.0
 40
34.0
 40
34.0
 40
34.0
 40
35.0
 40
35.0
 40
35.0
 40
36.0
 40
36.0
 40
36.0
 40
37.0
 40
37.0
 40
37.0
 40
38.0
 40
38.0
 40
38.0
 40
39.0
 40
39.0
 40
39.0
 40
40.0
 40
40.0
 40
40.0
 40
41.0
 40
41.0
 40
41.0
 40
42.0
 40
42.0
 40
42.0
 40
43.0
 40
43.0
 40
43.0
 40
44.0
 40
44.0
 40
44.0
 40
45.0
 40
45.0
 40
45.0
 40
46.0
 40
46.0
 40
46.0
 40
47.0
 40
47.0
 40
47.0
 40
48.0
 40
48.0
 40
48.0
 40
49.0
 40
49.0
 40
49.0
 40
50.0
 40
50.0
 40
50.0
 40
51.0
 40
51.0
 40
51.0
 40
52.0
 40
52.0
 40
52.0
 40
53.0
 40
53.0
 40
53.0
 40
54.0
 40
54.0
 40
54.0
 40
55.0
 40
55.0
 40
55.0
 40
56.0
 40
56.0
 40
56.0
 40
57.0
 40
57.0
 40
57.0
 40
58.0
 40
58.0
 40
58.0
 40
59.0
 40
59.0
 40
59.0
 40
60.0
 40
60.0
 40
60.0
 40
61.0
 40
61.0
 40
61.0
 40
62.0
 40
62.0
 40
62.0
 40
63.0
 40
63.0
 40
63.0
 40
64.0
 40
64.0
 40
64.0
 40
65.0
 40
65.0
 40
65.0
 40
66.0
 40
66.0
 40
66.0
 40
67.0
 40
67.0
 40
67.0
 40
68.0
 40
68.0
 40
68.0
 40
69.0
 40
69.0
 40
69.0
 40
70.0
 40
70.0
 40
70.0
 40
71.0
 40
71.0
 40
71.0
 40
72.0
 40
72.0
 40
72.0
 40
73.0
 40
73.0
 40
73.0
 40
74.0
 40
74.0
 40
74.0
 40
75.0
 40
75.0
 40
75.0
 40
76.0
 40
76.0
 40
76.0
 40
77.0
 40
77.0
 40
77.0
 40
78.0
 40
78.0
 40
78.0
 40
79.0
 40
79.0
 40
79.0
 40
79.0
 10
110.6633571771953
 20
-151.7054687120736
 10
110.6633571771953
 20
-151.7054687120736
 10
110.4094536399323
 20
-151.7054687120736
 10
110.4094536399323
 20
-151.7054687120736
 10
110.4094536399323
 20
-151.7054687120736
 10
110.1321234533697
 20
-151.7054687120736
 10
110.1321234533697
 20
-151.7054687120736
 10
110.1321234533697
 20
-151.7054687120736
 10
110.2592474767754
 20
-151.7478433865422
 10
110.2592474767754
 20
-151.7478433865422
 10
110.2699272727797
 20
-151.7519775011245
 10
110.2823296165266
 20
-151.7585231825465
 10
110.2823296165266
 20
-151.7712700358419
 10
110.2823296165266
 20
-151.7922851183019
 10
110.2506347380623
 20
-151.7984862901754
 10
110.2296196556023
 20
-151.8029649143062
 10
110.218939859598
 20
-151.8260470540574
 10
110.1893120384249
 20
-151.8918483778256
 10
110.170364013256
 20
-151.9362901095854
 10
110.170364013256
 20
-151.9362901095854
 10
110.4411485183966
 20
-151.9362901095854
 10
110.4411485183966
 20
-151.9362901095854
 10
110.5320990392072
 20
-151.9362901095854
 10
110.728813991415
 20
-151.9318114854545
 10
110.8704074158588
 20
-151.9235432562899
 10
110.8704074158588
 20
-151.9235432562899
 10
110.8704074158588
 20
-152.1013101833288
 10
110.8704074158588
 20
-152.1013101833288
 10
110.7880696337613
 20
-152.096831559198
 10
110.7670545513013
 20
-152.096831559198
 10
110.5872205669712
 20
-152.0926974446157
 10
110.5555256885069
 20
-152.2470377223549
 10
110.5110839567472
 20
-152.3276529567097
 10
110.4666422249875
 20
-152.3972438855118
 10
110.5872205669712
 20
-152.4564995278581
 10
110.6929849983684
 20
-152.5243679089175
 10
110.7966823724744
 20
-152.606705691015
 10
110.7966823724744
 20
-152.606705691015
 10
110.6781710877818
 20
-152.7737928220496
 10
110.6781710877818
 20
-152.7737928220496
 10
110.6547444384821
 20
-152.7548447968807
 10
110.6419975851867
 20
-152.7462320581676
 10
110.5300319819161
 20
-152.661827218779
 10
110.4814561355741
 20
-152.6235866588927
 10
110.4222004932278
 20
-152.5877576658461
 10
110.3415852588729
 20
-152.5433159340864
 10
110.1300563960786
 20
-152.7293510902899
 10
109.9250732147062
 20
-152.7527777395896
 10
109.6349961748482
 20
-152.7824055607627
 10
109.6349961748482
 20
-152.7824055607627
 10
109.5312988007421
 20
-152.6025715764327
 10
109.5312988007421
 20
-152.6025715764327
 10
109.8489366044822
 20
-152.5984374618504
 10
110.0242919646814
 20
-152.5729437552595
 10
110.1765651851295
 20
-152.46304520928
 10
110.0580539004369
 20
-152.4120577960984
 10
109.9695149464659
 20
-152.3844970322164
 10
109.9333414438708
 20
-152.3720946884695
 10
109.9143934187019
 20
-152.3993109428029
 10
109.8995795081154
 20
-152.4186034775203
 10
109.8720187442334
 20
-152.4523654132758
 10
109.8720187442334
 20
-152.4523654132758
 10
109.6753037920256
 20
-152.3696831216298
 10
109.6753037920256
 20
-152.3696831216298
 10
109.7579860836716
 20
-152.2894123968234
 10
109.8193087833091
 20
-152.1943277614306
 10
109.8761528588157
 20
-152.0926974446157
 10
109.6859835880299
 20
-152.096831559198
 10
109.6646239960213
 20
-152.096831559198
 10
109.5822862139238
 20
-152.1013101833288
 10
109.5822862139238
 20
-152.1013101833288
 10
109.5822862139238
 20
-151.9235432562899
 10
109.5822862139238
 20
-151.9235432562899
 10
109.7218125810765
 20
-151.9297444281634
 10
109.9312743865797
 20
-151.9338785427457
 10
109.9567680931705
 20
-151.9338785427457
 10
109.9736490610482
 20
-151.9001166069902
 10
110.0287705888122
 20
-151.7795382650065
 10
110.0477186139811
 20
-151.7054687120736
 10
110.0287705888122
 20
-151.7054687120736
 10
109.8510036617733
 20
-151.7120143934956
 10
109.6563557668567
 20
-151.724761246791
 10
109.6563557668567
 20
-151.724761246791
 10
109.6563557668567
 20
-151.8577419325217
 10
109.6563557668567
 20
-151.8577419325217
 10
109.6077799205147
 20
-151.8832356391125
 10
109.5485242781684
 20
-151.9149305175768
 10
109.4151990828892
 20
-151.9807318413451
 10
109.4151990828892
 20
-151.9807318413451
 10
109.4151990828892
 20
-152.1264593803711
 10
109.4151990828892
 20
-152.1264593803711
 10
109.4151990828892
 20
-152.1264593803711
 10
109.4151990828892
 20
-152.5939588377196
 10
109.4151990828892
 20
-152.5939588377196
 10
109.4151990828892
 20
-152.7210828611253
 10
109.3790255802941
 20
-152.7803385034716
 10
109.095494221858
 20
-152.7717257647584
 10
109.095494221858
 20
-152.7717257647584
 10
108.9921413573005
 20
-152.5643310165464
 10
108.9921413573005
 20
-152.5643310165464
 10
109.0555311142292
 20
-152.5770778698418
 10
109.1041069605712
 20
-152.5812119844241
 10
109.1444145777486
 20
-152.5812119844241
 10
109.2205511879726
 20
-152.5812119844241
 10
109.2308864744284
 20
-152.558129844673
 10
109.2308864744284
 20
-152.4926730304532
 10
109.2308864744284
 20
-152.4926730304532
 10
109.2308864744284
 20
-152.0630696234426
 10
109.2308864744284
 20
-152.0630696234426
 10
109.1337347817443
 20
-152.10337724062
 10
109.1168538138666
 20
-152.1095784124934
 10
109.0703450248157
 20
-152.1285264376623
 10
109.0662109102334
 20
-152.1498860296708
 10
109.0617322861026
 20
-152.179513850844
 10
109.0427842609337
 20
-152.179513850844
 10
109.0341715222206
 20
-152.179513850844
 10
109.0238362357649
 20
-152.1753797362617
 10
109.0172905543429
 20
-152.151953086962
 10
109.0172905543429
 20
-152.151953086962
 10
108.9645805934186
 20
-151.9593722493365
 10
108.9645805934186
 20
-151.9593722493365
 10
109.1103081324446
 20
-151.9128634602856
 10
109.1761094562129
 20
-151.8897813205345
 10
109.2308864744284
 20
-151.8684217285259
 10
109.2308864744284
 20
-151.8684217285259
 10
109.2308864744284
 20
-151.4560437989415
 10
109.2308864744284
 20
-151.4560437989415
 10
109.2308864744284
 20
-151.4560437989415
 10
109.178176513504
 20
-151.4560437989415
 10
109.178176513504
 20
-151.4560437989415
 10
109.178176513504
 20
-151.4560437989415
 10
109.0999728459889
 20
-151.4560437989415
 10
109.0999728459889
 20
-151.4560437989415
 10
109.0321044649295
 20
-151.4560437989415
 10
109.0238362357649
 20
-151.4560437989415
 10
108.9876627331697
 20
-151.462244970815
 10
108.9876627331697
 20
-151.462244970815
 10
108.9876627331697
 20
-151.2675970758984
 10
108.9876627331697
 20
-151.2675970758984
 10
109.0152234970517
 20
-151.2741427573203
 10
109.0238362357649
 20
-151.2741427573203
 10
109.0934271645669
 20
-151.2741427573203
 10
109.0934271645669
 20
-151.2741427573203
 10
109.2267523598461
 20
-151.2741427573203
 10
109.2267523598461
 20
-151.2741427573203
 10
109.2267523598461
 20
-151.2042073189698
 10
109.2267523598461
 20
-151.1215250273238
 10
109.2246853025549
 20
-151.1173909127415
 10
109.2164170733903
 20
-150.9375569284114
 10
109.2164170733903
 20
-150.9186089032426
 10
109.2140055065506
 20
-150.8721001141917
 10
109.2140055065506
 20
-150.8721001141917
 10
109.4300129934758
 20
-150.8803683433563
 10
109.4300129934758
 20
-150.8803683433563
 10
109.4403482799316
 20
-150.8803683433563
 10
109.4617078719401
 20
-150.882779910196
 10
109.4617078719401
 20
-150.8996608780737
 10
109.4617078719401
 20
-150.9186089032426
 10
109.4468939613535
 20
-150.9292886992468
 10
109.4214002547627
 20
-150.9482367244157
 10
109.4214002547627
 20
-150.9988796280489
 10
109.4151990828892
 20
-151.2272894587209
 10
109.4172661401804
 20
-151.2741427573203
 10
109.5461127113287
 20
-151.2741427573203
 10
109.5588595646242
 20
-151.2741427573203
 10
109.6563557668567
 20
-151.2655300186072
 10
109.6563557668567
 20
-151.2655300186072
 10
109.6563557668567
 20
-151.4601779135238
 10
109.6563557668567
 20
-151.4601779135238
 10
109.6181152069704
 20
-151.4581108562327
 10
109.5505913354596
 20
-151.4539767416504
 10
109.4151990828892
 20
-151.4560437989415
 10
109.4151990828892
 20
-151.4560437989415
 10
109.4151990828892
 20
-151.794352175593
 10
109.4151990828892
 20
-151.794352175593
 10
109.4699761011047
 20
-151.7712700358419
 10
109.535777424873
 20
-151.7437092719599
 10
109.584353271215
 20
-151.7202826226602
 10
109.584353271215
 20
-151.7202826226602
 10
109.584353271215
 20
-151.5425156956213
 10
109.584353271215
 20
-151.5425156956213
 10
109.6987304413253
 20
-151.5552625489167
 10
109.8168972164694
 20
-151.5552625489167
 10
109.9333414438708
 20
-151.5552625489167
 10
109.9102593041196
 20
-151.4601779135238
 10
109.8826985402376
 20
-151.3774956218778
 10
109.8193087833091
 20
-151.2445149361472
 10
109.7748670515493
 20
-151.2465819934383
 10
109.6921847599033
 20
-151.2507161080207
 10
109.6542887095656
 20
-151.2527831653118
 10
109.6542887095656
 20
-151.2527831653118
 10
109.6542887095656
 20
-151.0729491809818
 10
109.6542887095656
 20
-151.0729491809818
 10
109.7790011661316
 20
-151.0815619196949
 10
109.9522894690397
 20
-151.0856960342772
 10
110.0349717606857
 20
-151.0856960342772
 10
110.0349717606857
 20
-151.0856960342772
 10
110.1173095427832
 20
-151.0856960342772
 10
110.1173095427832
 20
-151.0856960342772
 10
110.1173095427832
 20
-150.9227430178248
 10
110.1173095427832
 20
-150.9124077313691
 10
110.115242485492
 20
-150.8572862036051
 10
110.115242485492
 20
-150.8572862036051
 10
110.3395182015818
 20
-150.882779910196
 10
110.3395182015818
 20
-150.882779910196
 10
110.3436523161641
 20
-150.882779910196
 10
110.3650119081726
 20
-150.8848469674871
 10
110.3650119081726
 20
-150.9017279353648
 10
110.3650119081726
 20
-150.9165418459514
 10
110.3543321121683
 20
-150.924810075116
 10
110.3267713482863
 20
-150.9396239857026
 10
110.3205701764129
 20
-151.0054253094708
 10
110.3185031191217
 20
-151.0264403919309
 10
110.3185031191217
 20
-151.0856960342772
 10
110.3185031191217
 20
-151.0856960342772
 10
110.4135877545146
 20
-151.0856960342772
 10
110.4135877545146
 20
-151.0856960342772
 10
110.4962700461606
 20
-151.0856960342772
 10
110.6695583490687
 20
-151.0815619196949
 10
110.7942708056347
 20
-151.0729491809818
 10
110.7942708056347
 20
-151.0729491809818
 10
110.7942708056347
 20
-151.2527831653118
 10
110.7942708056347
 20
-151.2527831653118
 10
110.7646429844616
 20
-151.2507161080207
 10
110.6464762093175
 20
-151.2465819934383
 10
110.6061685921401
 20
-151.2445149361472
 10
110.5913546815535
 20
-151.2951578397804
 10
110.5575927457981
 20
-151.407123443051
 10
110.4917914220298
 20
-151.5469943197521
 10
110.5341660964984
 20
-151.5469943197521
 10
110.811496283061
 20
-151.5277017850347
 10
110.8728189826984
 20
-151.5256347277436
 10
110.8728189826984
 20
-151.5256347277436
 10
110.8728189826984
 20
-151.7099473362044
 10
110.8728189826984
 20
-151.7099473362044
 10
110.8431911615253
 20
-151.7099473362044
 10
110.8263101936476
 20
-151.7054687120736
 10
110.6633571771953
 20
-151.7054687120736
 97
        0
 97
        1
330
189
 75
     2
 76
     1
 98
        1
 10
0.0
 20
0.0
450
        0
451
        0
460
0.0
461
0.0
452
        0
462
0.0
453
        0
470

  0
SPLINE
  5
18B
330
183
100
AcDbEntity
  8
レイヤー 1
100
AcDbSpline
210
0.0
220
0.0
230
1.0
 70
    11
 71
     3
 72
    17
 73
    13
 74
     0
 42
0.0000000001
 43
0.0000000001
 40
0.0
 40
0.0
 40
0.0
 40
0.0
 40
1.0
 40
1.0
 40
1.0
 40
2.0
 40
2.0
 40
2.0
 40
3.0
 40
3.0
 40
3.0
 40
4.0
 40
4.0
 40
4.0
 40
4.0
 10
112.5195746246479
 20
-152.5050753742001
 30
0.0
 10
112.5195746246479
 20
-152.5050753742001
 30
0.0
 10
111.8129855406231
 20
-152.5050753742001
 30
0.0
 10
111.8129855406231
 20
-152.5050753742001
 30
0.0
 10
111.8129855406231
 20
-152.5050753742001
 30
0.0
 10
111.8129855406231
 20
-152.6194525443104
 30
0.0
 10
111.8129855406231
 20
-152.6194525443104
 30
0.0
 10
111.8129855406231
 20
-152.6194525443104
 30
0.0
 10
112.5195746246479
 20
-152.6194525443104
 30
0.0
 10
112.5195746246479
 20
-152.6194525443104
 30
0.0
 10
112.5195746246479
 20
-152.6194525443104
 30
0.0
 10
112.5195746246479
 20
-152.5050753742001
 30
0.0
 10
112.5195746246479
 20
-152.5050753742001
 30
0.0
  0
SPLINE
  5
18C
330
183
100
AcDbEntity
  8
レイヤー 1
100
AcDbSpline
210
0.0
220
0.0
230
1.0
 70
    11
 71
     3
 72
    17
 73
    13
 74
     0
 42
0.0000000001
 43
0.0000000001
 40
0.0
 40
0.0
 40
0.0
 40
0.0
 40
1.0
 40
1.0
 40
1.0
 40
2.0
 40
2.0
 40
2.0
 40
3.0
 40
3.0
 40
3.0
 40
4.0
 40
4.0
 40
4.0
 40
4.0
 10
112.5195746246479
 20
-152.2618516329415
 30
0.0
 10
112.5195746246479
 20
-152.2618516329415
 30
0.0
 10
111.8129855406231
 20
-152.2618516329415
 30
0.0
 10
111.8129855406231
 20
-152.2618516329415
 30
0.0
 10
111.8129855406231
 20
-152.2618516329415
 30
0.0
 10
111.8129855406231
 20
-152.3762288030518
 30
0.0
 10
111.8129855406231
 20
-152.3762288030518
 30
0.0
 10
111.8129855406231
 20
-152.3762288030518
 30
0.0
 10
112.5195746246479
 20
-152.3762288030518
 30
0.0
 10
112.5195746246479
 20
-152.3762288030518
 30
0.0
 10
112.5195746246479
 20
-152.3762288030518
 30
0.0
 10
112.5195746246479
 20
-152.2618516329415
 30
0.0
 10
112.5195746246479
 20
-152.2618516329415
 30
0.0
  0
SPLINE
  5
18D
330
183
100
AcDbEntity
  8
レイヤー 1
100
AcDbSpline
210
0.0
220
0.0
230
1.0
 70
    11
 71
     3
 72
    17
 73
    13
 74
     0
 42
0.0000000001
 43
0.0000000001
 40
0.0
 40
0.0
 40
0.0
 40
0.0
 40
1.0
 40
1.0
 40
1.0
 40
2.0
 40
2.0
 40
2.0
 40
3.0
 40
3.0
 40
3.0
 40
4.0
 40
4.0
 40
4.0
 40
4.0
 10
112.5195746246479
 20
-152.0293076876871
 30
0.0
 10
112.5195746246479
 20
-152.0293076876871
 30
0.0
 10
111.8129855406231
 20
-152.0293076876871
 30
0.0
 10
111.8129855406231
 20
-152.0293076876871
 30
0.0
 10
111.8129855406231
 20
-152.0293076876871
 30
0.0
 10
111.8129855406231
 20
-152.1371391763754
 30
0.0
 10
111.8129855406231
 20
-152.1371391763754
 30
0.0
 10
111.8129855406231
 20
-152.1371391763754
 30
0.0
 10
112.5195746246479
 20
-152.1371391763754
 30
0.0
 10
112.5195746246479
 20
-152.1371391763754
 30
0.0
 10
112.5195746246479
 20
-152.1371391763754
 30
0.0
 10
112.5195746246479
 20
-152.0293076876871
 30
0.0
 10
112.5195746246479
 20
-152.0293076876871
 30
0.0
  0
SPLINE
  5
18E
330
183
100
AcDbEntity
  8
レイヤー 1
100
AcDbSpline
210
0.0
220
0.0
230
1.0
 70
     9
 71
     3
 72
   203
 73
   199
 74
     0
 42
0.0000000001
 43
0.0000000001
 40
0.0
 40
0.0
 40
0.0
 40
0.0
 40
1.0
 40
1.0
 40
1.0
 40
2.0
 40
2.0
 40
2.0
 40
3.0
 40
3.0
 40
3.0
 40
4.0
 40
4.0
 40
4.0
 40
5.0
 40
5.0
 40
5.0
 40
6.0
 40
6.0
 40
6.0
 40
7.0
 40
7.0
 40
7.0
 40
8.0
 40
8.0
 40
8.0
 40
9.0
 40
9.0
 40
9.0
 40
10.0
 40
10.0
 40
10.0
 40
11.0
 40
11.0
 40
11.0
 40
12.0
 40
12.0
 40
12.0
 40
13.0
 40
13.0
 40
13.0
 40
14.0
 40
14.0
 40
14.0
 40
15.0
 40
15.0
 40
15.0
 40
16.0
 40
16.0
 40
16.0
 40
17.0
 40
17.0
 40
17.0
 40
18.0
 40
18.0
 40
18.0
 40
19.0
 40
19.0
 40
19.0
 40
20.0
 40
20.0
 40
20.0
 40
21.0
 40
21.0
 40
21.0
 40
22.0
 40
22.0
 40
22.0
 40
23.0
 40
23.0
 40
23.0
 40
24.0
 40
24.0
 40
24.0
 40
25.0
 40
25.0
 40
25.0
 40
26.0
 40
26.0
 40
26.0
 40
27.0
 40
27.0
 40
27.0
 40
28.0
 40
28.0
 40
28.0
 40
29.0
 40
29.0
 40
29.0
 40
30.0
 40
30.0
 40
30.0
 40
31.0
 40
31.0
 40
31.0
 40
32.0
 40
32.0
 40
32.0
 40
33.0
 40
33.0
 40
33.0
 40
34.0
 40
34.0
 40
34.0
 40
35.0
 40
35.0
 40
35.0
 40
36.0
 40
36.0
 40
36.0
 40
37.0
 40
37.0
 40
37.0
 40
38.0
 40
38.0
 40
38.0
 40
39.0
 40
39.0
 40
39.0
 40
40.0
 40
40.0
 40
40.0
 40
41.0
 40
41.0
 40
41.0
 40
42.0
 40
42.0
 40
42.0
 40
43.0
 40
43.0
 40
43.0
 40
44.0
 40
44.0
 40
44.0
 40
45.0
 40
45.0
 40
45.0
 40
46.0
 40
46.0
 40
46.0
 40
47.0
 40
47.0
 40
47.0
 40
48.0
 40
48.0
 40
48.0
 40
49.0
 40
49.0
 40
49.0
 40
50.0
 40
50.0
 40
50.0
 40
51.0
 40
51.0
 40
51.0
 40
52.0
 40
52.0
 40
52.0
 40
53.0
 40
53.0
 40
53.0
 40
54.0
 40
54.0
 40
54.0
 40
55.0
 40
55.0
 40
55.0
 40
56.0
 40
56.0
 40
56.0
 40
57.0
 40
57.0
 40
57.0
 40
58.0
 40
58.0
 40
58.0
 40
59.0
 40
59.0
 40
59.0
 40
60.0
 40
60.0
 40
60.0
 40
61.0
 40
61.0
 40
61.0
 40
62.0
 40
62.0
 40
62.0
 40
63.0
 40
63.0
 40
63.0
 40
64.0
 40
64.0
 40
64.0
 40
65.0
 40
65.0
 40
65.0
 40
66.0
 40
66.0
 40
66.0
 40
66.0
 10
112.3545545509044
 20
-151.773337093133
 30
0.0
 10
112.3545545509044
 20
-151.773337093133
 30
0.0
 10
111.7961045727454
 20
-151.773337093133
 30
0.0
 10
111.7961045727454
 20
-151.773337093133
 30
0.0
 10
111.7857692862896
 20
-151.8177788248928
 30
0.0
 10
111.7771565475765
 20
-151.8494737033571
 30
0.0
 10
111.7644096942811
 20
-151.8873697536948
 30
0.0
 10
111.789903400872
 20
-151.8873697536948
 30
0.0
 10
111.8047173114585
 20
-151.8897813205345
 30
0.0
 10
111.810918483332
 20
-151.8897813205345
 30
0.0
 10
111.810918483332
 20
-151.8897813205345
 30
0.0
 10
111.9993652063751
 20
-151.8897813205345
 30
0.0
 10
111.9993652063751
 20
-151.8897813205345
 30
0.0
 10
111.9993652063751
 20
-151.8897813205345
 30
0.0
 10
112.3738470856218
 20
-151.8897813205345
 30
0.0
 10
112.3738470856218
 20
-151.8897813205345
 30
0.0
 10
112.424489989255
 20
-151.8897813205345
 30
0.0
 10
112.708021347691
 20
-151.8770344672391
 30
0.0
 10
112.7397162261553
 20
-151.8770344672391
 30
0.0
 10
112.7376491688642
 20
-151.904595231121
 30
0.0
 10
112.735582111573
 20
-151.9235432562899
 30
0.0
 10
112.735582111573
 20
-151.9531710774631
 30
0.0
 10
112.7335150542819
 20
-151.9848659559274
 30
0.0
 10
112.7335150542819
 20
-152.1202582084977
 30
0.0
 10
112.7335150542819
 20
-152.1478189723797
 30
0.0
 10
112.7335150542819
 20
-152.1478189723797
 30
0.0
 10
112.7335150542819
 20
-152.3931097709295
 30
0.0
 10
112.7335150542819
 20
-152.3931097709295
 30
0.0
 10
112.7335150542819
 20
-152.4375515026892
 30
0.0
 10
112.7376491688642
 20
-152.634266454897
 30
0.0
 10
112.7417832834465
 20
-152.786539675345
 30
0.0
 10
112.7417832834465
 20
-152.786539675345
 30
0.0
 10
112.5154405100656
 20
-152.786539675345
 30
0.0
 10
112.5154405100656
 20
-152.786539675345
 30
0.0
 10
112.5154405100656
 20
-152.786539675345
 30
0.0
 10
112.5175075673567
 20
-152.7527777395896
 30
0.0
 10
112.5175075673567
 20
-152.7527777395896
 30
0.0
 10
112.5175075673567
 20
-152.7527777395896
 30
0.0
 10
111.8153971074628
 20
-152.7527777395896
 30
0.0
 10
111.8153971074628
 20
-152.7527777395896
 30
0.0
 10
111.8153971074628
 20
-152.7527777395896
 30
0.0
 10
111.8174641647539
 20
-152.786539675345
 30
0.0
 10
111.8174641647539
 20
-152.786539675345
 30
0.0
 10
111.8174641647539
 20
-152.786539675345
 30
0.0
 10
111.5993896205376
 20
-152.786539675345
 30
0.0
 10
111.5993896205376
 20
-152.786539675345
 30
0.0
 10
111.6038682446685
 20
-152.731418147581
 30
0.0
 10
111.6038682446685
 20
-152.7190158038341
 30
0.0
 10
111.6100694165419
 20
-152.6046386337238
 30
0.0
 10
111.6121364738331
 20
-152.5770778698418
 30
0.0
 10
111.6142035311242
 20
-152.4437526745627
 30
0.0
 10
111.6142035311242
 20
-152.4248046493938
 30
0.0
 10
111.6142035311242
 20
-152.4248046493938
 30
0.0
 10
111.6142035311242
 20
-152.2218885253125
 30
0.0
 10
111.6142035311242
 20
-152.2218885253125
 30
0.0
 10
111.4746771639716
 20
-152.4713134384446
 30
0.0
 10
111.3055229756458
 20
-152.6025715764327
 30
0.0
 10
111.1997585442487
 20
-152.6680283906524
 30
0.0
 10
111.1997585442487
 20
-152.6680283906524
 30
0.0
 10
111.0261257317921
 20
-152.5285020234998
 30
0.0
 10
111.0261257317921
 20
-152.5285020234998
 30
0.0
 10
111.1150091953115
 20
-152.4778591198666
 30
0.0
 10
111.2590141865949
 20
-152.3910427136383
 30
0.0
 10
111.3964734964564
 20
-152.1963948187217
 30
0.0
 10
111.487424017267
 20
-152.069270795316
 30
0.0
 10
111.5528808314868
 20
-151.9256103135811
 30
0.0
 10
111.5866427672422
 20
-151.773337093133
 30
0.0
 10
111.3582329365701
 20
-151.7754041504242
 30
0.0
 10
111.1783989522401
 20
-151.7816053222976
 30
0.0
 10
111.0833143168472
 20
-151.7836723795888
 30
0.0
 10
111.0833143168472
 20
-151.7836723795888
 30
0.0
 10
111.0833143168472
 20
-151.6062499620984
 30
0.0
 10
111.0833143168472
 20
-151.6062499620984
 30
0.0
 10
111.280029269055
 20
-151.6124511339719
 30
0.0
 10
111.563560627491
 20
-151.6165852485542
 30
0.0
 10
111.7137667906479
 20
-151.6165852485542
 30
0.0
 10
111.7137667906479
 20
-151.6165852485542
 30
0.0
 10
111.9273627107334
 20
-151.6165852485542
 30
0.0
 10
111.9273627107334
 20
-151.6165852485542
 30
0.0
 10
111.9273627107334
 20
-151.6165852485542
 30
0.0
 10
111.9273627107334
 20
-151.5087537598659
 30
0.0
 10
111.9273627107334
 20
-151.5087537598659
 30
0.0
 10
111.9273627107334
 20
-151.5087537598659
 30
0.0
 10
111.7812906621588
 20
-151.5087537598659
 30
0.0
 10
111.7812906621588
 20
-151.5087537598659
 30
0.0
 10
111.6121364738331
 20
-151.5087537598659
 30
0.0
 10
111.4429822855073
 20
-151.5128878744482
 30
0.0
 10
111.2758951544727
 20
-151.5194335558701
 30
0.0
 10
111.2758951544727
 20
-151.5194335558701
 30
0.0
 10
111.2758951544727
 20
-151.3482123102532
 30
0.0
 10
111.2758951544727
 20
-151.3482123102532
 30
0.0
 10
111.4302354322119
 20
-151.3585475967089
 30
0.0
 10
111.6162705884153
 20
-151.3585475967089
 30
0.0
 10
111.7812906621588
 20
-151.3585475967089
 30
0.0
 10
111.7812906621588
 20
-151.3585475967089
 30
0.0
 10
111.9273627107334
 20
-151.3585475967089
 30
0.0
 10
111.9273627107334
 20
-151.3585475967089
 30
0.0
 10
111.9273627107334
 20
-151.3585475967089
 30
0.0
 10
111.9273627107334
 20
-151.2400363120164
 30
0.0
 10
111.9273627107334
 20
-151.2400363120164
 30
0.0
 10
111.9273627107334
 20
-151.2400363120164
 30
0.0
 10
111.7961045727454
 20
-151.2400363120164
 30
0.0
 10
111.7961045727454
 20
-151.2400363120164
 30
0.0
 10
111.7495957836945
 20
-151.2400363120164
 30
0.0
 10
111.5466796596133
 20
-151.2486490507295
 30
0.0
 10
111.5043049851447
 20
-151.2486490507295
 30
0.0
 10
111.301044351515
 20
-151.2527831653118
 30
0.0
 10
111.224907741291
 20
-151.2548502226029
 30
0.0
 10
111.1467040737758
 20
-151.2569172798941
 30
0.0
 10
111.1467040737758
 20
-151.2569172798941
 30
0.0
 10
111.1467040737758
 20
-151.0729491809818
 30
0.0
 10
111.1467040737758
 20
-151.0729491809818
 30
0.0
 10
111.2610812438861
 20
-151.0815619196949
 30
0.0
 10
111.3055229756458
 20
-151.0815619196949
 30
0.0
 10
111.6882730840571
 20
-151.0898301488595
 30
0.0
 10
111.6248833271285
 20
-150.9947455134666
 30
0.0
 10
111.5973225632465
 20
-150.9671847495846
 30
0.0
 10
111.5614935701999
 20
-150.931355756538
 30
0.0
 10
111.5614935701999
 20
-150.931355756538
 30
0.0
 10
111.7368489303991
 20
-150.848673464892
 30
0.0
 10
111.7368489303991
 20
-150.848673464892
 30
0.0
 10
111.7771565475765
 20
-150.8848469674871
 30
0.0
 10
111.8215982793362
 20
-150.9272216419557
 30
0.0
 10
111.8956678322691
 20
-151.0371201879351
 30
0.0
 10
111.8956678322691
 20
-151.0371201879351
 30
0.0
 10
111.7812906621588
 20
-151.0922417156991
 30
0.0
 10
111.7812906621588
 20
-151.0922417156991
 30
0.0
 10
111.7812906621588
 20
-151.0922417156991
 30
0.0
 10
111.7919704581631
 20
-151.0922417156991
 30
0.0
 10
111.7919704581631
 20
-151.0922417156991
 30
0.0
 10
111.7919704581631
 20
-151.0922417156991
 30
0.0
 10
112.3145914432755
 20
-151.0922417156991
 30
0.0
 10
112.3145914432755
 20
-151.0922417156991
 30
0.0
 10
112.3145914432755
 20
-151.0922417156991
 30
0.0
 10
112.2191622983341
 20
-151.0477999839394
 30
0.0
 10
112.2191622983341
 20
-151.0477999839394
 30
0.0
 10
112.2467230622161
 20
-151.0095594240532
 30
0.0
 10
112.3039116472712
 20
-150.9292886992468
 30
0.0
 10
112.3187255578578
 20
-150.8552191463139
 30
0.0
 10
112.3187255578578
 20
-150.8552191463139
 30
0.0
 10
112.5323214779433
 20
-150.9186089032426
 30
0.0
 10
112.5323214779433
 20
-150.9186089032426
 30
0.0
 10
112.5409342166564
 20
-150.9206759605337
 30
0.0
 10
112.5619492991164
 20
-150.931355756538
 30
0.0
 10
112.5619492991164
 20
-150.952370838998
 30
0.0
 10
112.5619492991164
 20
-150.9906113988843
 30
0.0
 10
112.4964924848967
 20
-150.9906113988843
 30
0.0
 10
112.4775444597278
 20
-150.9906113988843
 30
0.0
 10
112.4668646637235
 20
-151.0095594240532
 30
0.0
 10
112.4434380144238
 20
-151.0498670412306
 30
0.0
 10
112.4138101932507
 20
-151.0898301488595
 30
0.0
 10
112.8137857790882
 20
-151.083628976986
 30
0.0
 10
112.8434136002613
 20
-151.0815619196949
 30
0.0
 10
112.9195502104854
 20
-151.0750162382729
 30
0.0
 10
112.9195502104854
 20
-151.0750162382729
 30
0.0
 10
112.9195502104854
 20
-151.2569172798941
 30
0.0
 10
112.9195502104854
 20
-151.2569172798941
 30
0.0
 10
112.9006021853165
 20
-151.2569172798941
 30
0.0
 10
112.8751084787257
 20
-151.2548502226029
 30
0.0
 10
112.6549668772182
 20
-151.2465819934383
 30
0.0
 10
112.604323973585
 20
-151.2445149361472
 30
0.0
 10
112.3841823720775
 20
-151.2400363120164
 30
0.0
 10
112.3397406403178
 20
-151.2400363120164
 30
0.0
 10
112.3397406403178
 20
-151.2400363120164
 30
0.0
 10
112.1240776629412
 20
-151.2400363120164
 30
0.0
 10
112.1240776629412
 20
-151.2400363120164
 30
0.0
 10
112.1240776629412
 20
-151.2400363120164
 30
0.0
 10
112.1240776629412
 20
-151.3585475967089
 30
0.0
 10
112.1240776629412
 20
-151.3585475967089
 30
0.0
 10
112.1240776629412
 20
-151.3585475967089
 30
0.0
 10
112.2977104753978
 20
-151.3585475967089
 30
0.0
 10
112.2977104753978
 20
-151.3585475967089
 30
0.0
 10
112.4603189823016
 20
-151.3585475967089
 30
0.0
 10
112.6508327626359
 20
-151.3585475967089
 30
0.0
 10
112.8075846072148
 20
-151.3482123102532
 30
0.0
 10
112.8075846072148
 20
-151.3482123102532
 30
0.0
 10
112.8075846072148
 20
-151.5194335558701
 30
0.0
 10
112.8075846072148
 20
-151.5194335558701
 30
0.0
 10
112.5981228017115
 20
-151.510820817157
 30
0.0
 10
112.4014078495038
 20
-151.5087537598659
 30
0.0
 10
112.2977104753978
 20
-151.5087537598659
 30
0.0
 10
112.2977104753978
 20
-151.5087537598659
 30
0.0
 10
112.1240776629412
 20
-151.5087537598659
 30
0.0
 10
112.1240776629412
 20
-151.5087537598659
 30
0.0
 10
112.1240776629412
 20
-151.5087537598659
 30
0.0
 10
112.1240776629412
 20
-151.6165852485542
 30
0.0
 10
112.1240776629412
 20
-151.6165852485542
 30
0.0
 10
112.1240776629412
 20
-151.6165852485542
 30
0.0
 10
112.3545545509044
 20
-151.6165852485542
 30
0.0
 10
112.3545545509044
 20
-151.6165852485542
 30
0.0
 10
112.4878797461836
 20
-151.6165852485542
 30
0.0
 10
112.7755452192019
 20
-151.6124511339719
 30
0.0
 10
112.9850070247051
 20
-151.6062499620984
 30
0.0
 10
112.9850070247051
 20
-151.6062499620984
 30
0.0
 10
112.9850070247051
 20
-151.7836723795888
 30
0.0
 10
112.9850070247051
 20
-151.7836723795888
 30
0.0
 10
112.7927706966282
 20
-151.7774712077153
 30
0.0
 10
112.479611517019
 20
-151.773337093133
 30
0.0
 10
112.3545545509044
 20
-151.773337093133
 30
0.0
  0
HATCH
  5
18F
330
183
100
AcDbEntity
  8
レイヤー 1
 62
    18
420
        0
440
 33554687
100
AcDbHatch
 10
0.0
 20
0.0
 30
0.0
210
0.0
220
0.0
230
1.0
  2
SOLID
 70
     1
 71
     1
 91
        4
 92
        1
 93
        1
 72
     4
 94
        3
 73
     0
 74
     0
 95
       17
 96
       13
 40
0.0
 40
0.0
 40
0.0
 40
0.0
 40
1.0
 40
1.0
 40
1.0
 40
2.0
 40
2.0
 40
2.0
 40
3.0
 40
3.0
 40
3.0
 40
4.0
 40
4.0
 40
4.0
 40
4.0
 10
112.5195746246479
 20
-152.5050753742001
 10
112.5195746246479
 20
-152.5050753742001
 10
111.8129855406231
 20
-152.5050753742001
 10
111.8129855406231
 20
-152.5050753742001
 10
111.8129855406231
 20
-152.5050753742001
 10
111.8129855406231
 20
-152.6194525443104
 10
111.8129855406231
 20
-152.6194525443104
 10
111.8129855406231
 20
-152.6194525443104
 10
112.5195746246479
 20
-152.6194525443104
 10
112.5195746246479
 20
-152.6194525443104
 10
112.5195746246479
 20
-152.6194525443104
 10
112.5195746246479
 20
-152.5050753742001
 10
112.5195746246479
 20
-152.5050753742001
 97
        0
 97
        1
330
18B
 92
        1
 93
        1
 72
     4
 94
        3
 73
     0
 74
     0
 95
       17
 96
       13
 40
0.0
 40
0.0
 40
0.0
 40
0.0
 40
1.0
 40
1.0
 40
1.0
 40
2.0
 40
2.0
 40
2.0
 40
3.0
 40
3.0
 40
3.0
 40
4.0
 40
4.0
 40
4.0
 40
4.0
 10
112.5195746246479
 20
-152.2618516329415
 10
112.5195746246479
 20
-152.2618516329415
 10
111.8129855406231
 20
-152.2618516329415
 10
111.8129855406231
 20
-152.2618516329415
 10
111.8129855406231
 20
-152.2618516329415
 10
111.8129855406231
 20
-152.3762288030518
 10
111.8129855406231
 20
-152.3762288030518
 10
111.8129855406231
 20
-152.3762288030518
 10
112.5195746246479
 20
-152.3762288030518
 10
112.5195746246479
 20
-152.3762288030518
 10
112.5195746246479
 20
-152.3762288030518
 10
112.5195746246479
 20
-152.2618516329415
 10
112.5195746246479
 20
-152.2618516329415
 97
        0
 97
        1
330
18C
 92
        1
 93
        1
 72
     4
 94
        3
 73
     0
 74
     0
 95
       17
 96
       13
 40
0.0
 40
0.0
 40
0.0
 40
0.0
 40
1.0
 40
1.0
 40
1.0
 40
2.0
 40
2.0
 40
2.0
 40
3.0
 40
3.0
 40
3.0
 40
4.0
 40
4.0
 40
4.0
 40
4.0
 10
112.5195746246479
 20
-152.0293076876871
 10
112.5195746246479
 20
-152.0293076876871
 10
111.8129855406231
 20
-152.0293076876871
 10
111.8129855406231
 20
-152.0293076876871
 10
111.8129855406231
 20
-152.0293076876871
 10
111.8129855406231
 20
-152.1371391763754
 10
111.8129855406231
 20
-152.1371391763754
 10
111.8129855406231
 20
-152.1371391763754
 10
112.5195746246479
 20
-152.1371391763754
 10
112.5195746246479
 20
-152.1371391763754
 10
112.5195746246479
 20
-152.1371391763754
 10
112.5195746246479
 20
-152.0293076876871
 10
112.5195746246479
 20
-152.0293076876871
 97
        0
 97
        1
330
18D
 92
        1
 93
        1
 72
     4
 94
        3
 73
     0
 74
     0
 95
      203
 96
      199
 40
0.0
 40
0.0
 40
0.0
 40
0.0
 40
1.0
 40
1.0
 40
1.0
 40
2.0
 40
2.0
 40
2.0
 40
3.0
 40
3.0
 40
3.0
 40
4.0
 40
4.0
 40
4.0
 40
5.0
 40
5.0
 40
5.0
 40
6.0
 40
6.0
 40
6.0
 40
7.0
 40
7.0
 40
7.0
 40
8.0
 40
8.0
 40
8.0
 40
9.0
 40
9.0
 40
9.0
 40
10.0
 40
10.0
 40
10.0
 40
11.0
 40
11.0
 40
11.0
 40
12.0
 40
12.0
 40
12.0
 40
13.0
 40
13.0
 40
13.0
 40
14.0
 40
14.0
 40
14.0
 40
15.0
 40
15.0
 40
15.0
 40
16.0
 40
16.0
 40
16.0
 40
17.0
 40
17.0
 40
17.0
 40
18.0
 40
18.0
 40
18.0
 40
19.0
 40
19.0
 40
19.0
 40
20.0
 40
20.0
 40
20.0
 40
21.0
 40
21.0
 40
21.0
 40
22.0
 40
22.0
 40
22.0
 40
23.0
 40
23.0
 40
23.0
 40
24.0
 40
24.0
 40
24.0
 40
25.0
 40
25.0
 40
25.0
 40
26.0
 40
26.0
 40
26.0
 40
27.0
 40
27.0
 40
27.0
 40
28.0
 40
28.0
 40
28.0
 40
29.0
 40
29.0
 40
29.0
 40
30.0
 40
30.0
 40
30.0
 40
31.0
 40
31.0
 40
31.0
 40
32.0
 40
32.0
 40
32.0
 40
33.0
 40
33.0
 40
33.0
 40
34.0
 40
34.0
 40
34.0
 40
35.0
 40
35.0
 40
35.0
 40
36.0
 40
36.0
 40
36.0
 40
37.0
 40
37.0
 40
37.0
 40
38.0
 40
38.0
 40
38.0
 40
39.0
 40
39.0
 40
39.0
 40
40.0
 40
40.0
 40
40.0
 40
41.0
 40
41.0
 40
41.0
 40
42.0
 40
42.0
 40
42.0
 40
43.0
 40
43.0
 40
43.0
 40
44.0
 40
44.0
 40
44.0
 40
45.0
 40
45.0
 40
45.0
 40
46.0
 40
46.0
 40
46.0
 40
47.0
 40
47.0
 40
47.0
 40
48.0
 40
48.0
 40
48.0
 40
49.0
 40
49.0
 40
49.0
 40
50.0
 40
50.0
 40
50.0
 40
51.0
 40
51.0
 40
51.0
 40
52.0
 40
52.0
 40
52.0
 40
53.0
 40
53.0
 40
53.0
 40
54.0
 40
54.0
 40
54.0
 40
55.0
 40
55.0
 40
55.0
 40
56.0
 40
56.0
 40
56.0
 40
57.0
 40
57.0
 40
57.0
 40
58.0
 40
58.0
 40
58.0
 40
59.0
 40
59.0
 40
59.0
 40
60.0
 40
60.0
 40
60.0
 40
61.0
 40
61.0
 40
61.0
 40
62.0
 40
62.0
 40
62.0
 40
63.0
 40
63.0
 40
63.0
 40
64.0
 40
64.0
 40
64.0
 40
65.0
 40
65.0
 40
65.0
 40
66.0
 40
66.0
 40
66.0
 40
66.0
 10
112.3545545509044
 20
-151.773337093133
 10
112.3545545509044
 20
-151.773337093133
 10
111.7961045727454
 20
-151.773337093133
 10
111.7961045727454
 20
-151.773337093133
 10
111.7857692862896
 20
-151.8177788248928
 10
111.7771565475765
 20
-151.8494737033571
 10
111.7644096942811
 20
-151.8873697536948
 10
111.789903400872
 20
-151.8873697536948
 10
111.8047173114585
 20
-151.8897813205345
 10
111.810918483332
 20
-151.8897813205345
 10
111.810918483332
 20
-151.8897813205345
 10
111.9993652063751
 20
-151.8897813205345
 10
111.9993652063751
 20
-151.8897813205345
 10
111.9993652063751
 20
-151.8897813205345
 10
112.3738470856218
 20
-151.8897813205345
 10
112.3738470856218
 20
-151.8897813205345
 10
112.424489989255
 20
-151.8897813205345
 10
112.708021347691
 20
-151.8770344672391
 10
112.7397162261553
 20
-151.8770344672391
 10
112.7376491688642
 20
-151.904595231121
 10
112.735582111573
 20
-151.9235432562899
 10
112.735582111573
 20
-151.9531710774631
 10
112.7335150542819
 20
-151.9848659559274
 10
112.7335150542819
 20
-152.1202582084977
 10
112.7335150542819
 20
-152.1478189723797
 10
112.7335150542819
 20
-152.1478189723797
 10
112.7335150542819
 20
-152.3931097709295
 10
112.7335150542819
 20
-152.3931097709295
 10
112.7335150542819
 20
-152.4375515026892
 10
112.7376491688642
 20
-152.634266454897
 10
112.7417832834465
 20
-152.786539675345
 10
112.7417832834465
 20
-152.786539675345
 10
112.5154405100656
 20
-152.786539675345
 10
112.5154405100656
 20
-152.786539675345
 10
112.5154405100656
 20
-152.786539675345
 10
112.5175075673567
 20
-152.7527777395896
 10
112.5175075673567
 20
-152.7527777395896
 10
112.5175075673567
 20
-152.7527777395896
 10
111.8153971074628
 20
-152.7527777395896
 10
111.8153971074628
 20
-152.7527777395896
 10
111.8153971074628
 20
-152.7527777395896
 10
111.8174641647539
 20
-152.786539675345
 10
111.8174641647539
 20
-152.786539675345
 10
111.8174641647539
 20
-152.786539675345
 10
111.5993896205376
 20
-152.786539675345
 10
111.5993896205376
 20
-152.786539675345
 10
111.6038682446685
 20
-152.731418147581
 10
111.6038682446685
 20
-152.7190158038341
 10
111.6100694165419
 20
-152.6046386337238
 10
111.6121364738331
 20
-152.5770778698418
 10
111.6142035311242
 20
-152.4437526745627
 10
111.6142035311242
 20
-152.4248046493938
 10
111.6142035311242
 20
-152.4248046493938
 10
111.6142035311242
 20
-152.2218885253125
 10
111.6142035311242
 20
-152.2218885253125
 10
111.4746771639716
 20
-152.4713134384446
 10
111.3055229756458
 20
-152.6025715764327
 10
111.1997585442487
 20
-152.6680283906524
 10
111.1997585442487
 20
-152.6680283906524
 10
111.0261257317921
 20
-152.5285020234998
 10
111.0261257317921
 20
-152.5285020234998
 10
111.1150091953115
 20
-152.4778591198666
 10
111.2590141865949
 20
-152.3910427136383
 10
111.3964734964564
 20
-152.1963948187217
 10
111.487424017267
 20
-152.069270795316
 10
111.5528808314868
 20
-151.9256103135811
 10
111.5866427672422
 20
-151.773337093133
 10
111.3582329365701
 20
-151.7754041504242
 10
111.1783989522401
 20
-151.7816053222976
 10
111.0833143168472
 20
-151.7836723795888
 10
111.0833143168472
 20
-151.7836723795888
 10
111.0833143168472
 20
-151.6062499620984
 10
111.0833143168472
 20
-151.6062499620984
 10
111.280029269055
 20
-151.6124511339719
 10
111.563560627491
 20
-151.6165852485542
 10
111.7137667906479
 20
-151.6165852485542
 10
111.7137667906479
 20
-151.6165852485542
 10
111.9273627107334
 20
-151.6165852485542
 10
111.9273627107334
 20
-151.6165852485542
 10
111.9273627107334
 20
-151.6165852485542
 10
111.9273627107334
 20
-151.5087537598659
 10
111.9273627107334
 20
-151.5087537598659
 10
111.9273627107334
 20
-151.5087537598659
 10
111.7812906621588
 20
-151.5087537598659
 10
111.7812906621588
 20
-151.5087537598659
 10
111.6121364738331
 20
-151.5087537598659
 10
111.4429822855073
 20
-151.5128878744482
 10
111.2758951544727
 20
-151.5194335558701
 10
111.2758951544727
 20
-151.5194335558701
 10
111.2758951544727
 20
-151.3482123102532
 10
111.2758951544727
 20
-151.3482123102532
 10
111.4302354322119
 20
-151.3585475967089
 10
111.6162705884153
 20
-151.3585475967089
 10
111.7812906621588
 20
-151.3585475967089
 10
111.7812906621588
 20
-151.3585475967089
 10
111.9273627107334
 20
-151.3585475967089
 10
111.9273627107334
 20
-151.3585475967089
 10
111.9273627107334
 20
-151.3585475967089
 10
111.9273627107334
 20
-151.2400363120164
 10
111.9273627107334
 20
-151.2400363120164
 10
111.9273627107334
 20
-151.2400363120164
 10
111.7961045727454
 20
-151.2400363120164
 10
111.7961045727454
 20
-151.2400363120164
 10
111.7495957836945
 20
-151.2400363120164
 10
111.5466796596133
 20
-151.2486490507295
 10
111.5043049851447
 20
-151.2486490507295
 10
111.301044351515
 20
-151.2527831653118
 10
111.224907741291
 20
-151.2548502226029
 10
111.1467040737758
 20
-151.2569172798941
 10
111.1467040737758
 20
-151.2569172798941
 10
111.1467040737758
 20
-151.0729491809818
 10
111.1467040737758
 20
-151.0729491809818
 10
111.2610812438861
 20
-151.0815619196949
 10
111.3055229756458
 20
-151.0815619196949
 10
111.6882730840571
 20
-151.0898301488595
 10
111.6248833271285
 20
-150.9947455134666
 10
111.5973225632465
 20
-150.9671847495846
 10
111.5614935701999
 20
-150.931355756538
 10
111.5614935701999
 20
-150.931355756538
 10
111.7368489303991
 20
-150.848673464892
 10
111.7368489303991
 20
-150.848673464892
 10
111.7771565475765
 20
-150.8848469674871
 10
111.8215982793362
 20
-150.9272216419557
 10
111.8956678322691
 20
-151.0371201879351
 10
111.8956678322691
 20
-151.0371201879351
 10
111.7812906621588
 20
-151.0922417156991
 10
111.7812906621588
 20
-151.0922417156991
 10
111.7812906621588
 20
-151.0922417156991
 10
111.7919704581631
 20
-151.0922417156991
 10
111.7919704581631
 20
-151.0922417156991
 10
111.7919704581631
 20
-151.0922417156991
 10
112.3145914432755
 20
-151.0922417156991
 10
112.3145914432755
 20
-151.0922417156991
 10
112.3145914432755
 20
-151.0922417156991
 10
112.2191622983341
 20
-151.0477999839394
 10
112.2191622983341
 20
-151.0477999839394
 10
112.2467230622161
 20
-151.0095594240532
 10
112.3039116472712
 20
-150.9292886992468
 10
112.3187255578578
 20
-150.8552191463139
 10
112.3187255578578
 20
-150.8552191463139
 10
112.5323214779433
 20
-150.9186089032426
 10
112.5323214779433
 20
-150.9186089032426
 10
112.5409342166564
 20
-150.9206759605337
 10
112.5619492991164
 20
-150.931355756538
 10
112.5619492991164
 20
-150.952370838998
 10
112.5619492991164
 20
-150.9906113988843
 10
112.4964924848967
 20
-150.9906113988843
 10
112.4775444597278
 20
-150.9906113988843
 10
112.4668646637235
 20
-151.0095594240532
 10
112.4434380144238
 20
-151.0498670412306
 10
112.4138101932507
 20
-151.0898301488595
 10
112.8137857790882
 20
-151.083628976986
 10
112.8434136002613
 20
-151.0815619196949
 10
112.9195502104854
 20
-151.0750162382729
 10
112.9195502104854
 20
-151.0750162382729
 10
112.9195502104854
 20
-151.2569172798941
 10
112.9195502104854
 20
-151.2569172798941
 10
112.9006021853165
 20
-151.2569172798941
 10
112.8751084787257
 20
-151.2548502226029
 10
112.6549668772182
 20
-151.2465819934383
 10
112.604323973585
 20
-151.2445149361472
 10
112.3841823720775
 20
-151.2400363120164
 10
112.3397406403178
 20
-151.2400363120164
 10
112.3397406403178
 20
-151.2400363120164
 10
112.1240776629412
 20
-151.2400363120164
 10
112.1240776629412
 20
-151.2400363120164
 10
112.1240776629412
 20
-151.2400363120164
 10
112.1240776629412
 20
-151.3585475967089
 10
112.1240776629412
 20
-151.3585475967089
 10
112.1240776629412
 20
-151.3585475967089
 10
112.2977104753978
 20
-151.3585475967089
 10
112.2977104753978
 20
-151.3585475967089
 10
112.4603189823016
 20
-151.3585475967089
 10
112.6508327626359
 20
-151.3585475967089
 10
112.8075846072148
 20
-151.3482123102532
 10
112.8075846072148
 20
-151.3482123102532
 10
112.8075846072148
 20
-151.5194335558701
 10
112.8075846072148
 20
-151.5194335558701
 10
112.5981228017115
 20
-151.510820817157
 10
112.4014078495038
 20
-151.5087537598659
 10
112.2977104753978
 20
-151.5087537598659
 10
112.2977104753978
 20
-151.5087537598659
 10
112.1240776629412
 20
-151.5087537598659
 10
112.1240776629412
 20
-151.5087537598659
 10
112.1240776629412
 20
-151.5087537598659
 10
112.1240776629412
 20
-151.6165852485542
 10
112.1240776629412
 20
-151.6165852485542
 10
112.1240776629412
 20
-151.6165852485542
 10
112.3545545509044
 20
-151.6165852485542
 10
112.3545545509044
 20
-151.6165852485542
 10
112.4878797461836
 20
-151.6165852485542
 10
112.7755452192019
 20
-151.6124511339719
 10
112.9850070247051
 20
-151.6062499620984
 10
112.9850070247051
 20
-151.6062499620984
 10
112.9850070247051
 20
-151.7836723795888
 10
112.9850070247051
 20
-151.7836723795888
 10
112.7927706966282
 20
-151.7774712077153
 10
112.479611517019
 20
-151.773337093133
 10
112.3545545509044
 20
-151.773337093133
 97
        0
 97
        1
330
18E
 75
     2
 76
     1
 98
        1
 10
0.0
 20
0.0
450
        0
451
        0
460
0.0
461
0.0
452
        0
462
0.0
453
        0
470

  0
SPLINE
  5
190
330
183
100
AcDbEntity
  8
レイヤー 1
100
AcDbSpline
210
0.0
220
0.0
230
1.0
 70
     9
 71
     3
 72
    29
 73
    25
 74
     0
 42
0.0000000001
 43
0.0000000001
 40
0.0
 40
0.0
 40
0.0
 40
0.0
 40
1.0
 40
1.0
 40
1.0
 40
2.0
 40
2.0
 40
2.0
 40
3.0
 40
3.0
 40
3.0
 40
4.0
 40
4.0
 40
4.0
 40
5.0
 40
5.0
 40
5.0
 40
6.0
 40
6.0
 40
6.0
 40
7.0
 40
7.0
 40
7.0
 40
8.0
 40
8.0
 40
8.0
 40
8.0
 10
114.2300645330744
 20
-151.2210882868475
 30
0.0
 10
114.2300645330744
 20
-151.2210882868475
 30
0.0
 10
113.8769422458363
 20
-151.2210882868475
 30
0.0
 10
113.8769422458363
 20
-151.2210882868475
 30
0.0
 10
113.7646321330172
 20
-151.2210882868475
 30
0.0
 10
113.6251057658645
 20
-151.2272894587209
 30
0.0
 10
113.5172742771762
 20
-151.2400363120164
 30
0.0
 10
113.5172742771762
 20
-151.2400363120164
 30
0.0
 10
113.5172742771762
 20
-151.0054253094708
 30
0.0
 10
113.5172742771762
 20
-151.0054253094708
 30
0.0
 10
113.6357855618688
 20
-151.0202392200574
 30
0.0
 10
113.8197536607812
 20
-151.0243733346397
 30
0.0
 10
113.8769422458363
 20
-151.0243733346397
 30
0.0
 10
113.8769422458363
 20
-151.0243733346397
 30
0.0
 10
114.2300645330744
 20
-151.0243733346397
 30
0.0
 10
114.2300645330744
 20
-151.0243733346397
 30
0.0
 10
114.2493570677918
 20
-151.0243733346397
 30
0.0
 10
114.452273191873
 20
-151.0243733346397
 30
0.0
 10
114.5938666163168
 20
-151.0054253094708
 30
0.0
 10
114.5938666163168
 20
-151.0054253094708
 30
0.0
 10
114.5938666163168
 20
-151.2400363120164
 30
0.0
 10
114.5938666163168
 20
-151.2400363120164
 30
0.0
 10
114.4374592812865
 20
-151.2210882868475
 30
0.0
 10
114.2469455009521
 20
-151.2210882868475
 30
0.0
 10
114.2300645330744
 20
-151.2210882868475
 30
0.0
  0
SPLINE
  5
191
330
183
100
AcDbEntity
  8
レイヤー 1
100
AcDbSpline
210
0.0
220
0.0
230
1.0
 70
     9
 71
     3
 72
    47
 73
    43
 74
     0
 42
0.0000000001
 43
0.0000000001
 40
0.0
 40
0.0
 40
0.0
 40
0.0
 40
1.0
 40
1.0
 40
1.0
 40
2.0
 40
2.0
 40
2.0
 40
3.0
 40
3.0
 40
3.0
 40
4.0
 40
4.0
 40
4.0
 40
5.0
 40
5.0
 40
5.0
 40
6.0
 40
6.0
 40
6.0
 40
7.0
 40
7.0
 40
7.0
 40
8.0
 40
8.0
 40
8.0
 40
9.0
 40
9.0
 40
9.0
 40
10.0
 40
10.0
 40
10.0
 40
11.0
 40
11.0
 40
11.0
 40
12.0
 40
12.0
 40
12.0
 40
13.0
 40
13.0
 40
13.0
 40
14.0
 40
14.0
 40
14.0
 40
14.0
 10
114.3316948498893
 20
-151.7499104438333
 30
0.0
 10
114.3316948498893
 20
-151.7499104438333
 30
0.0
 10
114.2300645330744
 20
-151.7499104438333
 30
0.0
 10
114.2300645330744
 20
-151.7499104438333
 30
0.0
 10
114.2300645330744
 20
-151.8367268500616
 30
0.0
 10
114.2090494506144
 20
-152.2260226398949
 30
0.0
 10
114.0123344984066
 20
-152.4461642414023
 30
0.0
 10
113.8600612779586
 20
-152.6153184297281
 30
0.0
 10
113.6526665297465
 20
-152.6849093585302
 30
0.0
 10
113.5679171808094
 20
-152.7124701224121
 30
0.0
 10
113.5679171808094
 20
-152.7124701224121
 30
0.0
 10
113.3732692858928
 20
-152.5453829913775
 30
0.0
 10
113.3732692858928
 20
-152.5453829913775
 30
0.0
 10
113.4707654881253
 20
-152.5326361380821
 30
0.0
 10
113.6461208483246
 20
-152.5095539983309
 30
0.0
 10
113.8345675713677
 20
-152.3211072752878
 30
0.0
 10
113.9086371243006
 20
-152.2491047796461
 30
0.0
 10
114.0123344984066
 20
-152.1095784124934
 30
0.0
 10
114.0123344984066
 20
-151.7499104438333
 30
0.0
 10
114.0123344984066
 20
-151.7499104438333
 30
0.0
 10
113.7815131008949
 20
-151.7499104438333
 30
0.0
 10
113.7815131008949
 20
-151.7499104438333
 30
0.0
 10
113.5954779446914
 20
-151.7499104438333
 30
0.0
 10
113.4094427884879
 20
-151.7543890679642
 30
0.0
 10
113.2230631227359
 20
-151.7688584690022
 30
0.0
 10
113.2230631227359
 20
-151.7688584690022
 30
0.0
 10
113.2230631227359
 20
-151.5490613770433
 30
0.0
 10
113.2230631227359
 20
-151.5490613770433
 30
0.0
 10
113.411509845779
 20
-151.5638752876299
 30
0.0
 10
113.6971082615063
 20
-151.5680094022122
 30
0.0
 10
113.7815131008949
 20
-151.5680094022122
 30
0.0
 10
113.7815131008949
 20
-151.5680094022122
 30
0.0
 10
114.3316948498893
 20
-151.5680094022122
 30
0.0
 10
114.3316948498893
 20
-151.5680094022122
 30
0.0
 10
114.3506428750582
 20
-151.5680094022122
 30
0.0
 10
114.6679361692497
 20
-151.5680094022122
 30
0.0
 10
114.8966905094702
 20
-151.5490613770433
 30
0.0
 10
114.8966905094702
 20
-151.5490613770433
 30
0.0
 10
114.8966905094702
 20
-151.7688584690022
 30
0.0
 10
114.8966905094702
 20
-151.7688584690022
 30
0.0
 10
114.7082437864271
 20
-151.7543890679642
 30
0.0
 10
114.5201415729324
 20
-151.7499104438333
 30
0.0
 10
114.3316948498893
 20
-151.7499104438333
 30
0.0
  0
HATCH
  5
192
330
183
100
AcDbEntity
  8
レイヤー 1
 62
    18
420
        0
440
 33554687
100
AcDbHatch
 10
0.0
 20
0.0
 30
0.0
210
0.0
220
0.0
230
1.0
  2
SOLID
 70
     1
 71
     1
 91
        2
 92
        1
 93
        1
 72
     4
 94
        3
 73
     0
 74
     0
 95
       29
 96
       25
 40
0.0
 40
0.0
 40
0.0
 40
0.0
 40
1.0
 40
1.0
 40
1.0
 40
2.0
 40
2.0
 40
2.0
 40
3.0
 40
3.0
 40
3.0
 40
4.0
 40
4.0
 40
4.0
 40
5.0
 40
5.0
 40
5.0
 40
6.0
 40
6.0
 40
6.0
 40
7.0
 40
7.0
 40
7.0
 40
8.0
 40
8.0
 40
8.0
 40
8.0
 10
114.2300645330744
 20
-151.2210882868475
 10
114.2300645330744
 20
-151.2210882868475
 10
113.8769422458363
 20
-151.2210882868475
 10
113.8769422458363
 20
-151.2210882868475
 10
113.7646321330172
 20
-151.2210882868475
 10
113.6251057658645
 20
-151.2272894587209
 10
113.5172742771762
 20
-151.2400363120164
 10
113.5172742771762
 20
-151.2400363120164
 10
113.5172742771762
 20
-151.0054253094708
 10
113.5172742771762
 20
-151.0054253094708
 10
113.6357855618688
 20
-151.0202392200574
 10
113.8197536607812
 20
-151.0243733346397
 10
113.8769422458363
 20
-151.0243733346397
 10
113.8769422458363
 20
-151.0243733346397
 10
114.2300645330744
 20
-151.0243733346397
 10
114.2300645330744
 20
-151.0243733346397
 10
114.2493570677918
 20
-151.0243733346397
 10
114.452273191873
 20
-151.0243733346397
 10
114.5938666163168
 20
-151.0054253094708
 10
114.5938666163168
 20
-151.0054253094708
 10
114.5938666163168
 20
-151.2400363120164
 10
114.5938666163168
 20
-151.2400363120164
 10
114.4374592812865
 20
-151.2210882868475
 10
114.2469455009521
 20
-151.2210882868475
 10
114.2300645330744
 20
-151.2210882868475
 97
        0
 97
        1
330
190
 92
        1
 93
        1
 72
     4
 94
        3
 73
     0
 74
     0
 95
       47
 96
       43
 40
0.0
 40
0.0
 40
0.0
 40
0.0
 40
1.0
 40
1.0
 40
1.0
 40
2.0
 40
2.0
 40
2.0
 40
3.0
 40
3.0
 40
3.0
 40
4.0
 40
4.0
 40
4.0
 40
5.0
 40
5.0
 40
5.0
 40
6.0
 40
6.0
 40
6.0
 40
7.0
 40
7.0
 40
7.0
 40
8.0
 40
8.0
 40
8.0
 40
9.0
 40
9.0
 40
9.0
 40
10.0
 40
10.0
 40
10.0
 40
11.0
 40
11.0
 40
11.0
 40
12.0
 40
12.0
 40
12.0
 40
13.0
 40
13.0
 40
13.0
 40
14.0
 40
14.0
 40
14.0
 40
14.0
 10
114.3316948498893
 20
-151.7499104438333
 10
114.3316948498893
 20
-151.7499104438333
 10
114.2300645330744
 20
-151.7499104438333
 10
114.2300645330744
 20
-151.7499104438333
 10
114.2300645330744
 20
-151.8367268500616
 10
114.2090494506144
 20
-152.2260226398949
 10
114.0123344984066
 20
-152.4461642414023
 10
113.8600612779586
 20
-152.6153184297281
 10
113.6526665297465
 20
-152.6849093585302
 10
113.5679171808094
 20
-152.7124701224121
 10
113.5679171808094
 20
-152.7124701224121
 10
113.3732692858928
 20
-152.5453829913775
 10
113.3732692858928
 20
-152.5453829913775
 10
113.4707654881253
 20
-152.5326361380821
 10
113.6461208483246
 20
-152.5095539983309
 10
113.8345675713677
 20
-152.3211072752878
 10
113.9086371243006
 20
-152.2491047796461
 10
114.0123344984066
 20
-152.1095784124934
 10
114.0123344984066
 20
-151.7499104438333
 10
114.0123344984066
 20
-151.7499104438333
 10
113.7815131008949
 20
-151.7499104438333
 10
113.7815131008949
 20
-151.7499104438333
 10
113.5954779446914
 20
-151.7499104438333
 10
113.4094427884879
 20
-151.7543890679642
 10
113.2230631227359
 20
-151.7688584690022
 10
113.2230631227359
 20
-151.7688584690022
 10
113.2230631227359
 20
-151.5490613770433
 10
113.2230631227359
 20
-151.5490613770433
 10
113.411509845779
 20
-151.5638752876299
 10
113.6971082615063
 20
-151.5680094022122
 10
113.7815131008949
 20
-151.5680094022122
 10
113.7815131008949
 20
-151.5680094022122
 10
114.3316948498893
 20
-151.5680094022122
 10
114.3316948498893
 20
-151.5680094022122
 10
114.3506428750582
 20
-151.5680094022122
 10
114.6679361692497
 20
-151.5680094022122
 10
114.8966905094702
 20
-151.5490613770433
 10
114.8966905094702
 20
-151.5490613770433
 10
114.8966905094702
 20
-151.7688584690022
 10
114.8966905094702
 20
-151.7688584690022
 10
114.7082437864271
 20
-151.7543890679642
 10
114.5201415729324
 20
-151.7499104438333
 10
114.3316948498893
 20
-151.7499104438333
 97
        0
 97
        1
330
191
 75
     2
 76
     1
 98
        1
 10
0.0
 20
0.0
450
        0
451
        0
460
0.0
461
0.0
452
        0
462
0.0
453
        0
470

  0
SPLINE
  5
193
330
183
100
AcDbEntity
  8
レイヤー 1
100
AcDbSpline
210
0.0
220
0.0
230
1.0
 70
     9
 71
     3
 72
    29
 73
    25
 74
     0
 42
0.0000000001
 43
0.0000000001
 40
0.0
 40
0.0
 40
0.0
 40
0.0
 40
1.0
 40
1.0
 40
1.0
 40
2.0
 40
2.0
 40
2.0
 40
3.0
 40
3.0
 40
3.0
 40
4.0
 40
4.0
 40
4.0
 40
5.0
 40
5.0
 40
5.0
 40
6.0
 40
6.0
 40
6.0
 40
7.0
 40
7.0
 40
7.0
 40
8.0
 40
8.0
 40
8.0
 40
8.0
 10
116.1775770108862
 20
-151.9128634602856
 30
0.0
 10
116.1775770108862
 20
-151.9128634602856
 30
0.0
 10
115.69319658566
 20
-151.9128634602856
 30
0.0
 10
115.69319658566
 20
-151.9128634602856
 30
0.0
 10
115.665635821778
 20
-151.9128634602856
 30
0.0
 10
115.3483425275865
 20
-151.9128634602856
 30
0.0
 10
115.1368136647922
 20
-151.9383571668765
 30
0.0
 10
115.1368136647922
 20
-151.9383571668765
 30
0.0
 10
115.1368136647922
 20
-151.7075357693648
 30
0.0
 10
115.1368136647922
 20
-151.7075357693648
 30
0.0
 10
115.2952880571137
 20
-151.7309624186645
 30
0.0
 10
115.485801837448
 20
-151.7330294759556
 30
0.0
 10
115.69319658566
 20
-151.7330294759556
 30
0.0
 10
115.69319658566
 20
-151.7330294759556
 30
0.0
 10
116.1775770108862
 20
-151.7330294759556
 30
0.0
 10
116.1775770108862
 20
-151.7330294759556
 30
0.0
 10
116.3636121670896
 20
-151.7330294759556
 30
0.0
 10
116.5496473232931
 20
-151.7309624186645
 30
0.0
 10
116.733959931754
 20
-151.7075357693648
 30
0.0
 10
116.733959931754
 20
-151.7075357693648
 30
0.0
 10
116.733959931754
 20
-151.9383571668765
 30
0.0
 10
116.733959931754
 20
-151.9383571668765
 30
0.0
 10
116.5496473232931
 20
-151.9149305175768
 30
0.0
 10
116.3022894674522
 20
-151.9128634602856
 30
0.0
 10
116.1775770108862
 20
-151.9128634602856
 30
0.0
  0
HATCH
  5
194
330
183
100
AcDbEntity
  8
レイヤー 1
 62
    18
420
        0
440
 33554687
100
AcDbHatch
 10
0.0
 20
0.0
 30
0.0
210
0.0
220
0.0
230
1.0
  2
SOLID
 70
     1
 71
     1
 91
        1
 92
        1
 93
        1
 72
     4
 94
        3
 73
     0
 74
     0
 95
       29
 96
       25
 40
0.0
 40
0.0
 40
0.0
 40
0.0
 40
1.0
 40
1.0
 40
1.0
 40
2.0
 40
2.0
 40
2.0
 40
3.0
 40
3.0
 40
3.0
 40
4.0
 40
4.0
 40
4.0
 40
5.0
 40
5.0
 40
5.0
 40
6.0
 40
6.0
 40
6.0
 40
7.0
 40
7.0
 40
7.0
 40
8.0
 40
8.0
 40
8.0
 40
8.0
 10
116.1775770108862
 20
-151.9128634602856
 10
116.1775770108862
 20
-151.9128634602856
 10
115.69319658566
 20
-151.9128634602856
 10
115.69319658566
 20
-151.9128634602856
 10
115.665635821778
 20
-151.9128634602856
 10
115.3483425275865
 20
-151.9128634602856
 10
115.1368136647922
 20
-151.9383571668765
 10
115.1368136647922
 20
-151.9383571668765
 10
115.1368136647922
 20
-151.7075357693648
 10
115.1368136647922
 20
-151.7075357693648
 10
115.2952880571137
 20
-151.7309624186645
 10
115.485801837448
 20
-151.7330294759556
 10
115.69319658566
 20
-151.7330294759556
 10
115.69319658566
 20
-151.7330294759556
 10
116.1775770108862
 20
-151.7330294759556
 10
116.1775770108862
 20
-151.7330294759556
 10
116.3636121670896
 20
-151.7330294759556
 10
116.5496473232931
 20
-151.7309624186645
 10
116.733959931754
 20
-151.7075357693648
 10
116.733959931754
 20
-151.7075357693648
 10
116.733959931754
 20
-151.9383571668765
 10
116.733959931754
 20
-151.9383571668765
 10
116.5496473232931
 20
-151.9149305175768
 10
116.3022894674522
 20
-151.9128634602856
 10
116.1775770108862
 20
-151.9128634602856
 97
        0
 97
        1
330
193
 75
     2
 76
     1
 98
        1
 10
0.0
 20
0.0
450
        0
451
        0
460
0.0
461
0.0
452
        0
462
0.0
453
        0
470

  0
SPLINE
  5
195
330
183
100
AcDbEntity
  8
レイヤー 1
100
AcDbSpline
210
0.0
220
0.0
230
1.0
 70
     9
 71
     3
 72
    47
 73
    43
 74
     0
 42
0.0000000001
 43
0.0000000001
 40
0.0
 40
0.0
 40
0.0
 40
0.0
 40
1.0
 40
1.0
 40
1.0
 40
2.0
 40
2.0
 40
2.0
 40
3.0
 40
3.0
 40
3.0
 40
4.0
 40
4.0
 40
4.0
 40
5.0
 40
5.0
 40
5.0
 40
6.0
 40
6.0
 40
6.0
 40
7.0
 40
7.0
 40
7.0
 40
8.0
 40
8.0
 40
8.0
 40
9.0
 40
9.0
 40
9.0
 40
10.0
 40
10.0
 40
10.0
 40
11.0
 40
11.0
 40
11.0
 40
12.0
 40
12.0
 40
12.0
 40
13.0
 40
13.0
 40
13.0
 40
14.0
 40
14.0
 40
14.0
 40
14.0
 10
118.3975965415811
 20
-151.3185844890801
 30
0.0
 10
118.3280056127791
 20
-151.5976372233853
 30
0.0
 10
118.2515244930065
 20
-151.9021836642814
 30
0.0
 10
117.9387098229458
 20
-152.2342908690595
 30
0.0
 10
117.7016872535607
 20
-152.4840602917401
 30
0.0
 10
117.4563964550109
 20
-152.5836235512638
 30
0.0
 10
117.3506320236137
 20
-152.6256537161839
 30
0.0
 10
117.3506320236137
 20
-152.6256537161839
 30
0.0
 10
117.1559841286971
 20
-152.4437526745627
 30
0.0
 10
117.1559841286971
 20
-152.4437526745627
 30
0.0
 10
117.3420192849006
 20
-152.3972438855118
 30
0.0
 10
117.7037543108518
 20
-152.30422630741
 30
0.0
 10
118.0000325225833
 20
-151.8091660861796
 30
0.0
 10
118.1605739721959
 20
-151.5425156956213
 30
0.0
 10
118.1733208254914
 20
-151.3692273927132
 30
0.0
 10
118.1819335642045
 20
-151.2782768719026
 30
0.0
 10
118.1819335642045
 20
-151.2782768719026
 30
0.0
 10
117.6761935469698
 20
-151.2782768719026
 30
0.0
 10
117.6761935469698
 20
-151.2782768719026
 30
0.0
 10
117.5576822622772
 20
-151.2782768719026
 30
0.0
 10
117.1366915939797
 20
-151.2972248970715
 30
0.0
 10
116.9844183735317
 20
-151.3079046930758
 30
0.0
 10
116.9844183735317
 20
-151.3079046930758
 30
0.0
 10
116.9844183735317
 20
-151.0984428875726
 30
0.0
 10
116.9844183735317
 20
-151.0984428875726
 30
0.0
 10
117.1263563075239
 20
-151.111189740868
 30
0.0
 10
117.403341984538
 20
-151.1153238554503
 30
0.0
 10
117.5197862119395
 20
-151.1153238554503
 30
0.0
 10
117.5197862119395
 20
-151.1153238554503
 30
0.0
 10
117.8749755564687
 20
-151.1153238554503
 30
0.0
 10
117.8749755564687
 20
-151.1153238554503
 30
0.0
 10
117.9025363203507
 20
-151.1153238554503
 30
0.0
 10
118.0634222795119
 20
-151.1132567981592
 30
0.0
 10
118.1733208254914
 20
-151.0984428875726
 30
0.0
 10
118.2305094105465
 20
-151.0922417156991
 30
0.0
 10
118.2473903784242
 20
-151.0729491809818
 30
0.0
 10
118.2708170277239
 20
-151.0498670412306
 30
0.0
 10
118.2708170277239
 20
-151.0498670412306
 30
0.0
 10
118.4589192412186
 20
-151.2000732043875
 30
0.0
 10
118.4589192412186
 20
-151.2000732043875
 30
0.0
 10
118.444105330632
 20
-151.2297010255606
 30
0.0
 10
118.4337700441763
 20
-151.2486490507295
 30
0.0
 10
118.3975965415811
 20
-151.3185844890801
 30
0.0
  0
HATCH
  5
196
330
183
100
AcDbEntity
  8
レイヤー 1
 62
    18
420
        0
440
 33554687
100
AcDbHatch
 10
0.0
 20
0.0
 30
0.0
210
0.0
220
0.0
230
1.0
  2
SOLID
 70
     1
 71
     1
 91
        1
 92
        1
 93
        1
 72
     4
 94
        3
 73
     0
 74
     0
 95
       47
 96
       43
 40
0.0
 40
0.0
 40
0.0
 40
0.0
 40
1.0
 40
1.0
 40
1.0
 40
2.0
 40
2.0
 40
2.0
 40
3.0
 40
3.0
 40
3.0
 40
4.0
 40
4.0
 40
4.0
 40
5.0
 40
5.0
 40
5.0
 40
6.0
 40
6.0
 40
6.0
 40
7.0
 40
7.0
 40
7.0
 40
8.0
 40
8.0
 40
8.0
 40
9.0
 40
9.0
 40
9.0
 40
10.0
 40
10.0
 40
10.0
 40
11.0
 40
11.0
 40
11.0
 40
12.0
 40
12.0
 40
12.0
 40
13.0
 40
13.0
 40
13.0
 40
14.0
 40
14.0
 40
14.0
 40
14.0
 10
118.3975965415811
 20
-151.3185844890801
 10
118.3280056127791
 20
-151.5976372233853
 10
118.2515244930065
 20
-151.9021836642814
 10
117.9387098229458
 20
-152.2342908690595
 10
117.7016872535607
 20
-152.4840602917401
 10
117.4563964550109
 20
-152.5836235512638
 10
117.3506320236137
 20
-152.6256537161839
 10
117.3506320236137
 20
-152.6256537161839
 10
117.1559841286971
 20
-152.4437526745627
 10
117.1559841286971
 20
-152.4437526745627
 10
117.3420192849006
 20
-152.3972438855118
 10
117.7037543108518
 20
-152.30422630741
 10
118.0000325225833
 20
-151.8091660861796
 10
118.1605739721959
 20
-151.5425156956213
 10
118.1733208254914
 20
-151.3692273927132
 10
118.1819335642045
 20
-151.2782768719026
 10
118.1819335642045
 20
-151.2782768719026
 10
117.6761935469698
 20
-151.2782768719026
 10
117.6761935469698
 20
-151.2782768719026
 10
117.5576822622772
 20
-151.2782768719026
 10
117.1366915939797
 20
-151.2972248970715
 10
116.9844183735317
 20
-151.3079046930758
 10
116.9844183735317
 20
-151.3079046930758
 10
116.9844183735317
 20
-151.0984428875726
 10
116.9844183735317
 20
-151.0984428875726
 10
117.1263563075239
 20
-151.111189740868
 10
117.403341984538
 20
-151.1153238554503
 10
117.5197862119395
 20
-151.1153238554503
 10
117.5197862119395
 20
-151.1153238554503
 10
117.8749755564687
 20
-151.1153238554503
 10
117.8749755564687
 20
-151.1153238554503
 10
117.9025363203507
 20
-151.1153238554503
 10
118.0634222795119
 20
-151.1132567981592
 10
118.1733208254914
 20
-151.0984428875726
 10
118.2305094105465
 20
-151.0922417156991
 10
118.2473903784242
 20
-151.0729491809818
 10
118.2708170277239
 20
-151.0498670412306
 10
118.2708170277239
 20
-151.0498670412306
 10
118.4589192412186
 20
-151.2000732043875
 10
118.4589192412186
 20
-151.2000732043875
 10
118.444105330632
 20
-151.2297010255606
 10
118.4337700441763
 20
-151.2486490507295
 10
118.3975965415811
 20
-151.3185844890801
 97
        0
 97
        1
330
195
 75
     2
 76
     1
 98
        1
 10
0.0
 20
0.0
450
        0
451
        0
460
0.0
461
0.0
452
        0
462
0.0
453
        0
470

  0
SPLINE
  5
197
330
183
100
AcDbEntity
  8
レイヤー 1
100
AcDbSpline
210
0.0
220
0.0
230
1.0
 70
    11
 71
     3
 72
    17
 73
    13
 74
     0
 42
0.0000000001
 43
0.0000000001
 40
0.0
 40
0.0
 40
0.0
 40
0.0
 40
1.0
 40
1.0
 40
1.0
 40
2.0
 40
2.0
 40
2.0
 40
3.0
 40
3.0
 40
3.0
 40
4.0
 40
4.0
 40
4.0
 40
4.0
 10
118.7879258600599
 20
-151.1005099448637
 30
0.0
 10
118.7879258600599
 20
-151.15976558721
 30
0.0
 10
118.8344346491108
 20
-151.2062743762609
 30
0.0
 10
118.8936902914571
 20
-151.2062743762609
 30
0.0
 10
118.9529459338034
 20
-151.2062743762609
 30
0.0
 10
119.0015217801454
 20
-151.15976558721
 30
0.0
 10
119.0015217801454
 20
-151.1005099448637
 30
0.0
 10
119.0015217801454
 20
-151.0412543025174
 30
0.0
 10
118.9529459338034
 20
-150.9926784561754
 30
0.0
 10
118.8936902914571
 20
-150.9926784561754
 30
0.0
 10
118.8344346491108
 20
-150.9926784561754
 30
0.0
 10
118.7879258600599
 20
-151.0412543025174
 30
0.0
 10
118.7879258600599
 20
-151.1005099448637
 30
0.0
  0
SPLINE
  5
198
330
183
100
AcDbEntity
  8
レイヤー 1
100
AcDbSpline
210
0.0
220
0.0
230
1.0
 70
     9
 71
     3
 72
    17
 73
    13
 74
     0
 42
0.0000000001
 43
0.0000000001
 40
0.0
 40
0.0
 40
0.0
 40
0.0
 40
1.0
 40
1.0
 40
1.0
 40
2.0
 40
2.0
 40
2.0
 40
3.0
 40
3.0
 40
3.0
 40
4.0
 40
4.0
 40
4.0
 40
4.0
 10
119.1031520969603
 20
-151.1005099448637
 30
0.0
 10
119.1031520969603
 20
-151.214887114974
 30
0.0
 10
119.0101345188586
 20
-151.309971750367
 30
0.0
 10
118.8936902914571
 20
-151.309971750367
 30
0.0
 10
118.7793131213468
 20
-151.309971750367
 30
0.0
 10
118.6842284859539
 20
-151.214887114974
 30
0.0
 10
118.6842284859539
 20
-151.1005099448637
 30
0.0
 10
118.6842284859539
 20
-150.9840657174623
 30
0.0
 10
118.7793131213468
 20
-150.8910481393606
 30
0.0
 10
118.8936902914571
 20
-150.8910481393606
 30
0.0
 10
119.0080674615674
 20
-150.8910481393606
 30
0.0
 10
119.1031520969603
 20
-150.9840657174623
 30
0.0
 10
119.1031520969603
 20
-151.1005099448637
 30
0.0
  0
HATCH
  5
199
330
183
100
AcDbEntity
  8
レイヤー 1
 62
    18
420
        0
440
 33554687
100
AcDbHatch
 10
0.0
 20
0.0
 30
0.0
210
0.0
220
0.0
230
1.0
  2
SOLID
 70
     1
 71
     1
 91
        2
 92
        1
 93
        1
 72
     4
 94
        3
 73
     0
 74
     0
 95
       17
 96
       13
 40
0.0
 40
0.0
 40
0.0
 40
0.0
 40
1.0
 40
1.0
 40
1.0
 40
2.0
 40
2.0
 40
2.0
 40
3.0
 40
3.0
 40
3.0
 40
4.0
 40
4.0
 40
4.0
 40
4.0
 10
118.7879258600599
 20
-151.1005099448637
 10
118.7879258600599
 20
-151.15976558721
 10
118.8344346491108
 20
-151.2062743762609
 10
118.8936902914571
 20
-151.2062743762609
 10
118.9529459338034
 20
-151.2062743762609
 10
119.0015217801454
 20
-151.15976558721
 10
119.0015217801454
 20
-151.1005099448637
 10
119.0015217801454
 20
-151.0412543025174
 10
118.9529459338034
 20
-150.9926784561754
 10
118.8936902914571
 20
-150.9926784561754
 10
118.8344346491108
 20
-150.9926784561754
 10
118.7879258600599
 20
-151.0412543025174
 10
118.7879258600599
 20
-151.1005099448637
 97
        0
 97
        1
330
197
 92
        1
 93
        1
 72
     4
 94
        3
 73
     0
 74
     0
 95
       17
 96
       13
 40
0.0
 40
0.0
 40
0.0
 40
0.0
 40
1.0
 40
1.0
 40
1.0
 40
2.0
 40
2.0
 40
2.0
 40
3.0
 40
3.0
 40
3.0
 40
4.0
 40
4.0
 40
4.0
 40
4.0
 10
119.1031520969603
 20
-151.1005099448637
 10
119.1031520969603
 20
-151.214887114974
 10
119.0101345188586
 20
-151.309971750367
 10
118.8936902914571
 20
-151.309971750367
 10
118.7793131213468
 20
-151.309971750367
 10
118.6842284859539
 20
-151.214887114974
 10
118.6842284859539
 20
-151.1005099448637
 10
118.6842284859539
 20
-150.9840657174623
 10
118.7793131213468
 20
-150.8910481393606
 10
118.8936902914571
 20
-150.8910481393606
 10
119.0080674615674
 20
-150.8910481393606
 10
119.1031520969603
 20
-150.9840657174623
 10
119.1031520969603
 20
-151.1005099448637
 97
        0
 97
        1
330
198
 75
     2
 76
     1
 98
        1
 10
0.0
 20
0.0
450
        0
451
        0
460
0.0
461
0.0
452
        0
462
0.0
453
        0
470

  0
ENDBLK
  5
186
330
183
100
AcDbEntity
  8
0
100
AcDbBlockEnd
  0
ENDSEC
  0
SECTION
  2
ENTITIES
  0
INSERT
  5
7A
330
70
100
AcDbEntity
  8
レイヤー 1
100
AcDbBlockReference
  2
Block_0
 10
0.0
 20
0.0
 30
0.0
  0
ENDSEC
  0
SECTION
  2
OBJECTS
  0
DICTIONARY
  5
C
330
0
100
AcDbDictionary
281
     1
  3
ACAD_COLOR
350
63
  3
ACAD_DETAILVIEWSTYLE
350
6A
  3
ACAD_GROUP
350
D
  3
ACAD_LAYOUT
350
62
  3
ACAD_MATERIAL
350
10
  3
ACAD_MLEADERSTYLE
350
66
  3
ACAD_MLINESTYLE
350
5F
  3
ACAD_PLOTSETTINGS
350
61
  3
ACAD_PLOTSTYLENAME
350
E
  3
ACAD_SCALELIST
350
42
  3
ACAD_SECTIONVIEWSTYLE
350
68
  3
ACAD_TABLESTYLE
350
64
  3
ACAD_VISUALSTYLE
350
29
  3
ACDB_RECOMPOSE_DATA
350
1A2
  3
AcDbVariableDictionary
350
19A
  0
DICTIONARY
  5
63
102
{ACAD_REACTORS
330
C
102
}
330
C
100
AcDbDictionary
281
     1
  0
DICTIONARY
  5
6A
102
{ACAD_REACTORS
330
C
102
}
330
C
100
AcDbDictionary
281
     1
  3
Imperial24
350
6B
  0
DICTIONARY
  5
D
102
{ACAD_REACTORS
330
C
102
}
330
C
100
AcDbDictionary
281
     1
  0
DICTIONARY
  5
62
102
{ACAD_REACTORS
330
C
102
}
330
C
100
AcDbDictionary
281
     1
  3
Layout1
350
6F
  3
Layout2
350
77
  3
Model
350
73
  0
DICTIONARY
  5
10
102
{ACAD_REACTORS
330
C
102
}
330
C
100
AcDbDictionary
281
     1
  3
ByBlock
350
19
  3
ByLayer
350
11
  3
Global
350
21
  0
DICTIONARY
  5
66
102
{ACAD_REACTORS
330
C
102
}
330
C
100
AcDbDictionary
281
     1
  3
Standard
350
67
  0
DICTIONARY
  5
5F
102
{ACAD_REACTORS
330
C
102
}
330
C
100
AcDbDictionary
281
     1
  3
Standard
350
60
  0
DICTIONARY
  5
61
102
{ACAD_REACTORS
330
C
102
}
330
C
100
AcDbDictionary
281
     1
  0
ACDBDICTIONARYWDFLT
  5
E
102
{ACAD_REACTORS
330
C
102
}
330
C
100
AcDbDictionary
281
     1
  3
Normal
350
F
100
AcDbDictionaryWithDefault
340
F
  0
DICTIONARY
  5
42
102
{ACAD_REACTORS
330
C
102
}
330
C
100
AcDbDictionary
281
     1
  3
A0
350
43
  3
A1
350
44
  3
A2
350
45
  3
A3
350
46
  3
A4
350
47
  3
A5
350
48
  3
A6
350
49
  3
A7
350
4A
  3
A8
350
4B
  3
A9
350
4C
  3
B0
350
4D
  3
B1
350
4E
  3
B2
350
4F
  3
B3
350
50
  3
B4
350
51
  3
B5
350
52
  3
B6
350
53
  0
DICTIONARY
  5
68
102
{ACAD_REACTORS
330
C
102
}
330
C
100
AcDbDictionary
281
     1
  3
Imperial24
350
69
  0
DICTIONARY
  5
64
102
{ACAD_REACTORS
330
C
102
}
330
C
100
AcDbDictionary
281
     1
  3
Standard
350
65
  0
DICTIONARY
  5
29
102
{ACAD_REACTORS
330
C
102
}
330
C
100
AcDbDictionary
281
     1
  3
2dWireframe
350
2F
  3
Basic
350
2E
  3
Brighten
350
35
  3
ColorChange
350
39
  3
Conceptual
350
32
  3
Dim
350
34
  3
EdgeColorOff
350
41
  3
Facepattern
350
38
  3
Flat
350
2A
  3
FlatWithEdges
350
2B
  3
Gouraud
350
2C
  3
GouraudWithEdges
350
2D
  3
Hidden
350
31
  3
JitterOff
350
3F
  3
Linepattern
350
37
  3
OverhangOff
350
40
  3
Realistic
350
33
  3
Shaded
350
3E
  3
Shaded with edges
350
3D
  3
Shades of Gray
350
3A
  3
Sketchy
350
3B
  3
Thicken
350
36
  3
Wireframe
350
30
  3
X-Ray
350
3C
  0
XRECORD
  5
1A2
102
{ACAD_REACTORS
330
C
102
}
330
C
100
AcDbXrecord
280
     1
 90
        1
330
65
  0
DICTIONARY
  5
19A
102
{ACAD_REACTORS
330
C
102
}
330
C
100
AcDbDictionary
281
     1
  3
CANNOSCALE
350
19F
  3
CMLEADERSTYLE
350
19C
  3
CTABLESTYLE
350
19B
  3
CVIEWDETAILSTYLE
350
19D
  3
CVIEWSECTIONSTYLE
350
19E
  0
ACDBDETAILVIEWSTYLE
  5
6B
102
{ACAD_XDICTIONARY
360
1D7
102
}
102
{ACAD_REACTORS
330
6A
102
}
330
6A
100
AcDbModelDocViewStyle
 70
     0
  3
Imperial24
290
     0
100
AcDbDetailViewStyle
 70
     0
 71
     0
 90
        3
 71
     1
340
55
 62
   256
 40
0.24
340
0
 62
   256
 40
0.24
300

 40
0.36
280
     3
 71
     2
340
5D
 90
       25
 62
   256
 71
     3
340
55
 62
   256
 40
0.24
 90
        1
 40
0.75
 90
        1
300
%<\AcVar ViewType \f "%tc1">% %<\AcVar ViewDetailId>%\PSCALE %<\AcVar ViewScale \f "%sn">%
 71
     4
340
5D
 90
       25
 62
   256
340
5D
 90
       25
 62
   256
280
     0
  0
LAYOUT
  5
6F
102
{ACAD_REACTORS
330
62
102
}
330
62
100
AcDbPlotSettings
  1

  2

  4

  6

 40
0.0
 41
0.0
 42
0.0
 43
0.0
 44
0.0
 45
0.0
 46
0.0
 47
0.0
 48
0.0
 49
0.0
140
0.0
141
0.0
142
1.0
143
1.0
 70
   688
 72
     0
 73
     0
 74
     5
  7

 75
    16
147
1.0
 76
     0
 77
     2
 78
   300
148
0.0
149
0.0
100
AcDbLayout
  1
Layout1
 70
     1
 71
     1
 10
0.0
 20
0.0
 11
12.0
 21
9.0
 12
0.0
 22
0.0
 32
0.0
 14
0.0
 24
0.0
 34
0.0
 15
0.0
 25
0.0
 35
0.0
146
0.0
 13
0.0
 23
0.0
 33
0.0
 16
1.0
 26
0.0
 36
0.0
 17
0.0
 27
1.0
 37
0.0
 76
     0
330
6C
  0
LAYOUT
  5
77
102
{ACAD_REACTORS
330
62
102
}
330
62
100
AcDbPlotSettings
  1

  2

  4

  6

 40
0.0
 41
0.0
 42
0.0
 43
0.0
 44
0.0
 45
0.0
 46
0.0
 47
0.0
 48
0.0
 49
0.0
140
0.0
141
0.0
142
1.0
143
1.0
 70
   688
 72
     0
 73
     0
 74
     5
  7

 75
    16
147
1.0
 76
     0
 77
     2
 78
   300
148
0.0
149
0.0
100
AcDbLayout
  1
Layout2
 70
     1
 71
     2
 10
0.0
 20
0.0
 11
12.0
 21
9.0
 12
0.0
 22
0.0
 32
0.0
 14
0.0
 24
0.0
 34
0.0
 15
0.0
 25
0.0
 35
0.0
146
0.0
 13
0.0
 23
0.0
 33
0.0
 16
1.0
 26
0.0
 36
0.0
 17
0.0
 27
1.0
 37
0.0
 76
     0
330
74
  0
LAYOUT
  5
73
102
{ACAD_REACTORS
330
62
102
}
330
62
100
AcDbPlotSettings
  1

  2

  4

  6

 40
0.0
 41
0.0
 42
0.0
 43
0.0
 44
0.0
 45
0.0
 46
0.0
 47
0.0
 48
0.0
 49
0.0
140
0.0
141
0.0
142
1.0
143
1.0
 70
  1712
 72
     0
 73
     0
 74
     0
  7

 75
     0
147
1.0
 76
     0
 77
     2
 78
   300
148
0.0
149
0.0
100
AcDbLayout
  1
Model
 70
     1
 71
     0
 10
0.0
 20
0.0
 11
12.0
 21
9.0
 12
0.0
 22
0.0
 32
0.0
 14
0.0
 24
0.0
 34
0.0
 15
0.0
 25
0.0
 35
0.0
146
0.0
 13
0.0
 23
0.0
 33
0.0
 16
1.0
 26
0.0
 36
0.0
 17
0.0
 27
1.0
 37
0.0
 76
     0
330
70
  0
MATERIAL
  5
19
102
{ACAD_XDICTIONARY
360
1A
102
}
102
{ACAD_REACTORS
330
10
102
}
330
10
100
AcDbMaterial
  1
ByBlock
 72
     0
 43
0.0208333333333333
 43
0.0
 43
0.0
 43
0.0
 43
0.0
 43
0.0208333333333333
 43
0.0
 43
0.0
 43
0.0
 43
0.0
 43
1.0
 43
0.0
 43
0.0
 43
0.0
 43
0.0
 43
1.0
 77
     0
 47
0.0208333333333333
 47
0.0
 47
0.0
 47
0.0
 47
0.0
 47
0.0208333333333333
 47
0.0
 47
0.0
 47
0.0
 47
0.0
 47
1.0
 47
0.0
 47
0.0
 47
0.0
 47
0.0
 47
1.0
171
     0
 49
0.0208333333333333
 49
0.0
 49
0.0
 49
0.0
 49
0.0
 49
0.0208333333333333
 49
0.0
 49
0.0
 49
0.0
 49
0.0
 49
1.0
 49
0.0
 49
0.0
 49
0.0
 49
0.0
 49
1.0
175
     0
142
0.0208333333333333
142
0.0
142
0.0
142
0.0
142
0.0
142
0.0208333333333333
142
0.0
142
0.0
142
0.0
142
0.0
142
1.0
142
0.0
142
0.0
142
0.0
142
0.0
142
1.0
179
     0
144
0.0208333333333333
144
0.0
144
0.0
144
0.0
144
0.0
144
0.0208333333333333
144
0.0
144
0.0
144
0.0
144
0.0
144
1.0
144
0.0
144
0.0
144
0.0
144
0.0
144
1.0
147
0.0208333333333333
147
0.0
147
0.0
147
0.0
147
0.0
147
0.0208333333333333
147
0.0
147
0.0
147
0.0
147
0.0
147
1.0
147
0.0
147
0.0
147
0.0
147
0.0
147
1.0
  0
MATERIAL
  5
11
102
{ACAD_XDICTIONARY
360
12
102
}
102
{ACAD_REACTORS
330
10
102
}
330
10
100
AcDbMaterial
  1
ByLayer
 72
     0
 43
0.0208333333333333
 43
0.0
 43
0.0
 43
0.0
 43
0.0
 43
0.0208333333333333
 43
0.0
 43
0.0
 43
0.0
 43
0.0
 43
1.0
 43
0.0
 43
0.0
 43
0.0
 43
0.0
 43
1.0
 77
     0
 47
0.0208333333333333
 47
0.0
 47
0.0
 47
0.0
 47
0.0
 47
0.0208333333333333
 47
0.0
 47
0.0
 47
0.0
 47
0.0
 47
1.0
 47
0.0
 47
0.0
 47
0.0
 47
0.0
 47
1.0
171
     0
 49
0.0208333333333333
 49
0.0
 49
0.0
 49
0.0
 49
0.0
 49
0.0208333333333333
 49
0.0
 49
0.0
 49
0.0
 49
0.0
 49
1.0
 49
0.0
 49
0.0
 49
0.0
 49
0.0
 49
1.0
175
     0
142
0.0208333333333333
142
0.0
142
0.0
142
0.0
142
0.0
142
0.0208333333333333
142
0.0
142
0.0
142
0.0
142
0.0
142
1.0
142
0.0
142
0.0
142
0.0
142
0.0
142
1.0
179
     0
144
0.0208333333333333
144
0.0
144
0.0
144
0.0
144
0.0
144
0.0208333333333333
144
0.0
144
0.0
144
0.0
144
0.0
144
1.0
144
0.0
144
0.0
144
0.0
144
0.0
144
1.0
147
0.0208333333333333
147
0.0
147
0.0
147
0.0
147
0.0
147
0.0208333333333333
147
0.0
147
0.0
147
0.0
147
0.0
147
1.0
147
0.0
147
0.0
147
0.0
147
0.0
147
1.0
  0
MATERIAL
  5
21
102
{ACAD_XDICTIONARY
360
22
102
}
102
{ACAD_REACTORS
330
10
102
}
330
10
100
AcDbMaterial
  1
Global
 72
     0
 43
0.0208333333333333
 43
0.0
 43
0.0
 43
0.0
 43
0.0
 43
0.0208333333333333
 43
0.0
 43
0.0
 43
0.0
 43
0.0
 43
1.0
 43
0.0
 43
0.0
 43
0.0
 43
0.0
 43
1.0
 77
     0
 47
0.0208333333333333
 47
0.0
 47
0.0
 47
0.0
 47
0.0
 47
0.0208333333333333
 47
0.0
 47
0.0
 47
0.0
 47
0.0
 47
1.0
 47
0.0
 47
0.0
 47
0.0
 47
0.0
 47
1.0
171
     0
 49
0.0208333333333333
 49
0.0
 49
0.0
 49
0.0
 49
0.0
 49
0.0208333333333333
 49
0.0
 49
0.0
 49
0.0
 49
0.0
 49
1.0
 49
0.0
 49
0.0
 49
0.0
 49
0.0
 49
1.0
175
     0
142
0.0208333333333333
142
0.0
142
0.0
142
0.0
142
0.0
142
0.0208333333333333
142
0.0
142
0.0
142
0.0
142
0.0
142
1.0
142
0.0
142
0.0
142
0.0
142
0.0
142
1.0
179
     0
144
0.0208333333333333
144
0.0
144
0.0
144
0.0
144
0.0
144
0.0208333333333333
144
0.0
144
0.0
144
0.0
144
0.0
144
1.0
144
0.0
144
0.0
144
0.0
144
0.0
144
1.0
147
0.0208333333333333
147
0.0
147
0.0
147
0.0
147
0.0
147
0.0208333333333333
147
0.0
147
0.0
147
0.0
147
0.0
147
1.0
147
0.0
147
0.0
147
0.0
147
0.0
147
1.0
  0
MLEADERSTYLE
  5
67
102
{ACAD_XDICTIONARY
360
1D3
102
}
102
{ACAD_REACTORS
330
66
102
}
330
66
100
AcDbMLeaderStyle
179
     2
170
     2
171
     1
172
     0
 90
        2
 40
0.0
 41
0.0
173
     1
 91
-1056964608
340
5B
 92
       -2
290
     1
 42
0.09
291
     1
 43
0.36
  3
Standard
 44
0.18
300

342
55
174
     1
178
     6
175
     1
176
     0
 93
-1056964608
 45
0.18
292
     0
297
     0
 46
0.18
 94
-1056964608
 47
1.0
 49
1.0
140
1.0
293
     1
141
0.0
294
     1
177
     0
142
1.0
295
     0
296
     0
143
0.125
271
     0
272
     9
273
     9
  0
MLINESTYLE
  5
60
102
{ACAD_REACTORS
330
5F
102
}
330
5F
100
AcDbMlineStyle
  2
STANDARD
 70
     0
  3

 62
   256
 51
90.0
 52
90.0
 71
     2
 49
0.5
 62
   256
  6
BYLAYER
 49
-0.5
 62
   256
  6
BYLAYER
  0
ACDBPLACEHOLDER
  5
F
102
{ACAD_REACTORS
330
E
102
}
330
E
  0
SCALE
  5
43
102
{ACAD_REACTORS
330
42
102
}
330
42
100
AcDbScale
 70
     0
300
1:1
140
1.0
141
1.0
290
     1
  0
SCALE
  5
44
102
{ACAD_REACTORS
330
42
102
}
330
42
100
AcDbScale
 70
     0
300
1/128" = 1'-0"
140
0.0078125
141
12.0
290
     0
  0
SCALE
  5
45
102
{ACAD_REACTORS
330
42
102
}
330
42
100
AcDbScale
 70
     0
300
1/64" = 1'-0"
140
0.015625
141
12.0
290
     0
  0
SCALE
  5
46
102
{ACAD_REACTORS
330
42
102
}
330
42
100
AcDbScale
 70
     0
300
1/32" = 1'-0"
140
0.03125
141
12.0
290
     0
  0
SCALE
  5
47
102
{ACAD_REACTORS
330
42
102
}
330
42
100
AcDbScale
 70
     0
300
1/16" = 1'-0"
140
0.0625
141
12.0
290
     0
  0
SCALE
  5
48
102
{ACAD_REACTORS
330
42
102
}
330
42
100
AcDbScale
 70
     0
300
3/32" = 1'-0"
140
0.09375
141
12.0
290
     0
  0
SCALE
  5
49
102
{ACAD_REACTORS
330
42
102
}
330
42
100
AcDbScale
 70
     0
300
1/8" = 1'-0"
140
0.125
141
12.0
290
     0
  0
SCALE
  5
4A
102
{ACAD_REACTORS
330
42
102
}
330
42
100
AcDbScale
 70
     0
300
3/16" = 1'-0"
140
0.1875
141
12.0
290
     0
  0
SCALE
  5
4B
102
{ACAD_REACTORS
330
42
102
}
330
42
100
AcDbScale
 70
     0
300
1/4" = 1'-0"
140
0.25
141
12.0
290
     0
  0
SCALE
  5
4C
102
{ACAD_REACTORS
330
42
102
}
330
42
100
AcDbScale
 70
     0
300
3/8" = 1'-0"
140
0.375
141
12.0
290
     0
  0
SCALE
  5
4D
102
{ACAD_REACTORS
330
42
102
}
330
42
100
AcDbScale
 70
     0
300
1/2" = 1'-0"
140
0.5
141
12.0
290
     0
  0
SCALE
  5
4E
102
{ACAD_REACTORS
330
42
102
}
330
42
100
AcDbScale
 70
     0
300
3/4" = 1'-0"
140
0.75
141
12.0
290
     0
  0
SCALE
  5
4F
102
{ACAD_REACTORS
330
42
102
}
330
42
100
AcDbScale
 70
     0
300
1" = 1'-0"
140
1.0
141
12.0
290
     0
  0
SCALE
  5
50
102
{ACAD_REACTORS
330
42
102
}
330
42
100
AcDbScale
 70
     0
300
1-1/2" = 1'-0"
140
1.5
141
12.0
290
     0
  0
SCALE
  5
51
102
{ACAD_REACTORS
330
42
102
}
330
42
100
AcDbScale
 70
     0
300
3" = 1'-0"
140
3.0
141
12.0
290
     0
  0
SCALE
  5
52
102
{ACAD_REACTORS
330
42
102
}
330
42
100
AcDbScale
 70
     0
300
6" = 1'-0"
140
6.0
141
12.0
290
     0
  0
SCALE
  5
53
102
{ACAD_REACTORS
330
42
102
}
330
42
100
AcDbScale
 70
     0
300
1'-0" = 1'-0"
140
12.0
141
12.0
290
     0
  0
ACDBSECTIONVIEWSTYLE
  5
69
102
{ACAD_XDICTIONARY
360
1D5
102
}
102
{ACAD_REACTORS
330
68
102
}
330
68
100
AcDbModelDocViewStyle
 70
     0
  3
Imperial24
290
     0
100
AcDbSectionViewStyle
 70
     0
 71
     0
 90
       78
 71
     1
340
55
 62
   256
 40
0.24
340
0
340
0
 62
   256
 40
0.24
300
I, O, Q, S, X, Z
 40
0.48
 90
        3
 40
0.18
 90
        1
 71
     2
340
5D
 90
       25
 62
   256
340
5D
 90
       50
 62
   256
 40
0.24
 40
0.0
 40
0.24
 71
     3
340
55
 62
   256
 40
0.24
 90
        1
 40
0.75
 90
        1
300
%<\AcVar ViewType \f "%tc1">% %<\AcVar ViewSectionStartId>%-%<\AcVar ViewSectionEndId>%\PSCALE %<\AcVar ViewScale \f "%sn">%
 71
     4
 62
   256
 62
   257
300
ANSI31
 40
1.0
 90
        0
290
     0
290
     0
 90
        6
 40
0.0
 40
1.570796326794896
 40
0.2617993877991494
 40
1.308996938995747
 40
-0.2617993877991494
 40
1.832595714594046
  0
TABLESTYLE
  5
65
102
{ACAD_XDICTIONARY
360
1A0
102
}
102
{ACAD_REACTORS
330
64
102
}
330
64
100
AcDbTableStyle
280
     0
  3
Standard
 70
     0
 71
     0
 40
0.06
 41
0.06
280
     0
281
     0
  7
Standard
140
0.18
170
     2
 62
     0
 63
     7
283
     0
 90
      512
 91
        0
  1

274
    -2
284
     1
 64
     0
275
    -2
285
     1
 65
     0
276
    -2
286
     1
 66
     0
277
    -2
287
     1
 67
     0
278
    -2
288
     1
 68
     0
279
    -2
289
     1
 69
     0
  7
Standard
140
0.25
170
     5
 62
     0
 63
     7
283
     0
 90
      512
 91
        0
  1

274
    -2
284
     1
 64
     0
275
    -2
285
     1
 65
     0
276
    -2
286
     1
 66
     0
277
    -2
287
     1
 67
     0
278
    -2
288
     1
 68
     0
279
    -2
289
     1
 69
     0
  7
Standard
140
0.18
170
     5
 62
     0
 63
     7
283
     0
 90
      512
 91
        0
  1

274
    -2
284
     1
 64
     0
275
    -2
285
     1
 65
     0
276
    -2
286
     1
 66
     0
277
    -2
287
     1
 67
     0
278
    -2
288
     1
 68
     0
279
    -2
289
     1
 69
     0
  0
VISUALSTYLE
  5
2F
102
{ACAD_XDICTIONARY
360
1AD
102
}
102
{ACAD_REACTORS
330
29
102
}
330
29
100
AcDbVisualStyle
  2
2dWireframe
 70
     4
177
     2
291
     0
 71
     0
176
     1
 72
     2
176
     1
 73
     0
176
     1
 90
        0
176
     1
 40
0.6
176
     1
 41
30.0
176
     1
 63
     7
421
 16777215
176
     1
 74
     1
176
     1
 91
        4
176
     1
 64
     7
176
     1
 65
   257
176
     1
 75
     1
176
     1
175
     1
176
     1
 42
1.0
176
     1
 92
        0
176
     1
 66
   257
176
     1
 43
1.0
176
     1
 76
     1
176
     1
 77
     6
176
     1
 78
     2
176
     1
 67
     7
176
     1
 79
     5
176
     1
170
     0
176
     1
171
     0
176
     1
290
     0
176
     1
 93
        1
176
     1
 44
0.0
176
     1
173
     0
176
     1
1001
ACAD
1000
AcDbSavedByObjectVersion
1070
     0
  0
VISUALSTYLE
  5
2E
102
{ACAD_XDICTIONARY
360
1AB
102
}
102
{ACAD_REACTORS
330
29
102
}
330
29
100
AcDbVisualStyle
  2
Basic
 70
     7
177
     2
291
     1
 71
     1
176
     1
 72
     0
176
     1
 73
     1
176
     1
 90
        0
176
     1
 40
0.6
176
     1
 41
30.0
176
     1
 63
     7
421
 16777215
176
     1
 74
     0
176
     1
 91
        4
176
     1
 64
     7
176
     1
 65
   257
176
     1
 75
     1
176
     1
175
     1
176
     1
 42
1.0
176
     1
 92
        8
176
     1
 66
     7
176
     1
 43
1.0
176
     1
 76
     1
176
     1
 77
     6
176
     1
 78
     2
176
     1
 67
     7
176
     1
 79
     5
176
     1
170
     0
176
     1
171
     0
176
     1
290
     0
176
     1
 93
        1
176
     1
 44
0.0
176
     1
173
     0
176
     1
1001
ACAD
1000
AcDbSavedByObjectVersion
1070
     0
  0
VISUALSTYLE
  5
35
102
{ACAD_XDICTIONARY
360
1B9
102
}
102
{ACAD_REACTORS
330
29
102
}
330
29
100
AcDbVisualStyle
  2
Brighten
 70
    12
177
     2
291
     1
 71
     2
176
     1
 72
     2
176
     1
 73
     0
176
     1
 90
        0
176
     1
 40
0.6
176
     1
 41
30.0
176
     1
 63
     7
421
 16777215
176
     1
 74
     1
176
     1
 91
        4
176
     1
 64
     7
176
     1
 65
   257
176
     1
 75
     1
176
     1
175
     1
176
     1
 42
1.0
176
     1
 92
        8
176
     1
 66
     7
176
     1
 43
1.0
176
     1
 76
     1
176
     1
 77
     6
176
     1
 78
     2
176
     1
 67
     7
176
     1
 79
     5
176
     1
170
     0
176
     1
171
     0
176
     1
290
     0
176
     1
 93
        1
176
     1
 44
50.0
176
     1
173
     0
176
     1
1001
ACAD
1000
AcDbSavedByObjectVersion
1070
     0
  0
VISUALSTYLE
  5
39
102
{ACAD_XDICTIONARY
360
1C1
102
}
102
{ACAD_REACTORS
330
29
102
}
330
29
100
AcDbVisualStyle
  2
ColorChange
 70
    16
177
     2
291
     1
 71
     2
176
     1
 72
     2
176
     1
 73
     3
176
     1
 90
        0
176
     1
 40
0.6
176
     1
 41
30.0
176
     1
 63
     8
421
  8421504
176
     1
 74
     1
176
     1
 91
        4
176
     1
 64
     7
176
     1
 65
   257
176
     1
 75
     1
176
     1
175
     1
176
     1
 42
1.0
176
     1
 92
        8
176
     1
 66
     8
424
  8421504
176
     1
 43
1.0
176
     1
 76
     1
176
     1
 77
     6
176
     1
 78
     2
176
     1
 67
     7
176
     1
 79
     5
176
     1
170
     0
176
     1
171
     0
176
     1
290
     0
176
     1
 93
        1
176
     1
 44
0.0
176
     1
173
     0
176
     1
1001
ACAD
1000
AcDbSavedByObjectVersion
1070
     0
  0
VISUALSTYLE
  5
32
102
{ACAD_XDICTIONARY
360
1B3
102
}
102
{ACAD_REACTORS
330
29
102
}
330
29
100
AcDbVisualStyle
  2
Conceptual
 70
     9
177
     2
291
     0
 71
     3
176
     1
 72
     2
176
     1
 73
     0
176
     1
 90
        0
176
     1
 40
0.6
176
     1
 41
30.0
176
     1
 63
     7
421
 16777215
176
     1
 74
     2
176
     1
 91
        2
176
     1
 64
     7
176
     1
 65
   257
176
     1
 75
     1
176
     1
175
     1
176
     1
 42
179.0
176
     1
 92
        8
176
     1
 66
     7
176
     1
 43
1.0
176
     1
 76
     1
176
     1
 77
     6
176
     1
 78
     2
176
     1
 67
     7
176
     1
 79
     3
176
     1
170
     0
176
     1
171
     0
176
     1
290
     0
176
     1
 93
        1
176
     1
 44
0.0
176
     1
173
     0
176
     1
1001
ACAD
1000
AcDbSavedByObjectVersion
1070
     0
  0
VISUALSTYLE
  5
34
102
{ACAD_XDICTIONARY
360
1B7
102
}
102
{ACAD_REACTORS
330
29
102
}
330
29
100
AcDbVisualStyle
  2
Dim
 70
    11
177
     2
291
     1
 71
     2
176
     1
 72
     2
176
     1
 73
     0
176
     1
 90
        0
176
     1
 40
0.6
176
     1
 41
30.0
176
     1
 63
     7
421
 16777215
176
     1
 74
     1
176
     1
 91
        4
176
     1
 64
     7
176
     1
 65
   257
176
     1
 75
     1
176
     1
175
     1
176
     1
 42
1.0
176
     1
 92
        8
176
     1
 66
     7
176
     1
 43
1.0
176
     1
 76
     1
176
     1
 77
     6
176
     1
 78
     2
176
     1
 67
     7
176
     1
 79
     5
176
     1
170
     0
176
     1
171
     0
176
     1
290
     0
176
     1
 93
        1
176
     1
 44
-50.0
176
     1
173
     0
176
     1
1001
ACAD
1000
AcDbSavedByObjectVersion
1070
     0
  0
VISUALSTYLE
  5
41
102
{ACAD_XDICTIONARY
360
1D1
102
}
102
{ACAD_REACTORS
330
29
102
}
330
29
100
AcDbVisualStyle
  2
EdgeColorOff
 70
    22
177
     2
291
     1
 71
     2
176
     0
 72
     2
176
     0
 73
     0
176
     0
 90
        0
176
     0
 40
0.6
176
     0
 41
30.0
176
     0
 63
     7
421
 16777215
176
     0
 74
     1
176
     0
 91
        4
176
     0
 64
     7
176
     0
 65
   257
176
     0
 75
     1
176
     0
175
     1
176
     0
 42
1.0
176
     0
 92
        8
176
     2
 66
     7
176
     0
 43
1.0
176
     0
 76
     1
176
     0
 77
     6
176
     0
 78
     2
176
     0
 67
     7
176
     0
 79
     5
176
     0
170
     0
176
     0
171
     0
176
     0
290
     0
176
     0
 93
        1
176
     0
 44
0.0
176
     0
173
     0
176
     0
1001
ACAD
1000
AcDbSavedByObjectVersion
1070
     0
  0
VISUALSTYLE
  5
38
102
{ACAD_XDICTIONARY
360
1BF
102
}
102
{ACAD_REACTORS
330
29
102
}
330
29
100
AcDbVisualStyle
  2
Facepattern
 70
    15
177
     2
291
     1
 71
     2
176
     1
 72
     2
176
     1
 73
     0
176
     1
 90
        0
176
     1
 40
0.6
176
     1
 41
30.0
176
     1
 63
     7
421
 16777215
176
     1
 74
     1
176
     1
 91
        4
176
     1
 64
     7
176
     1
 65
   257
176
     1
 75
     1
176
     1
175
     1
176
     1
 42
1.0
176
     1
 92
        8
176
     1
 66
     7
176
     1
 43
1.0
176
     1
 76
     1
176
     1
 77
     6
176
     1
 78
     2
176
     1
 67
     7
176
     1
 79
     5
176
     1
170
     0
176
     1
171
     0
176
     1
290
     0
176
     1
 93
        1
176
     1
 44
0.0
176
     1
173
     0
176
     1
1001
ACAD
1000
AcDbSavedByObjectVersion
1070
     0
  0
VISUALSTYLE
  5
2A
102
{ACAD_XDICTIONARY
360
1A3
102
}
102
{ACAD_REACTORS
330
29
102
}
330
29
100
AcDbVisualStyle
  2
Flat
 70
     0
177
     2
291
     1
 71
     2
176
     1
 72
     1
176
     1
 73
     1
176
     1
 90
        2
176
     1
 40
0.6
176
     1
 41
30.0
176
     1
 63
     7
421
 16777215
176
     1
 74
     0
176
     1
 91
        0
176
     1
 64
     7
176
     1
 65
   257
176
     1
 75
     1
176
     1
175
     1
176
     1
 42
1.0
176
     1
 92
        8
176
     1
 66
     7
176
     1
 43
1.0
176
     1
 76
     1
176
     1
 77
     6
176
     1
 78
     2
176
     1
 67
     7
176
     1
 79
     5
176
     1
170
     0
176
     1
171
     0
176
     1
290
     0
176
     1
 93
       13
176
     1
 44
0.0
176
     1
173
     0
176
     1
1001
ACAD
1000
AcDbSavedByObjectVersion
1070
     0
  0
VISUALSTYLE
  5
2B
102
{ACAD_XDICTIONARY
360
1A5
102
}
102
{ACAD_REACTORS
330
29
102
}
330
29
100
AcDbVisualStyle
  2
FlatWithEdges
 70
     1
177
     2
291
     1
 71
     2
176
     1
 72
     1
176
     1
 73
     1
176
     1
 90
        2
176
     1
 40
0.6
176
     1
 41
30.0
176
     1
 63
     7
421
 16777215
176
     1
 74
     1
176
     1
 91
        0
176
     1
 64
     7
176
     1
 65
   257
176
     1
 75
     1
176
     1
175
     1
176
     1
 42
1.0
176
     1
 92
        0
176
     1
 66
   257
176
     1
 43
1.0
176
     1
 76
     1
176
     1
 77
     6
176
     1
 78
     2
176
     1
 67
     7
176
     1
 79
     5
176
     1
170
     0
176
     1
171
     0
176
     1
290
     0
176
     1
 93
       13
176
     1
 44
0.0
176
     1
173
     0
176
     1
1001
ACAD
1000
AcDbSavedByObjectVersion
1070
     0
  0
VISUALSTYLE
  5
2C
102
{ACAD_XDICTIONARY
360
1A7
102
}
102
{ACAD_REACTORS
330
29
102
}
330
29
100
AcDbVisualStyle
  2
Gouraud
 70
     2
177
     2
291
     1
 71
     2
176
     1
 72
     2
176
     1
 73
     1
176
     1
 90
        2
176
     1
 40
0.6
176
     1
 41
30.0
176
     1
 63
     7
421
 16777215
176
     1
 74
     0
176
     1
 91
        0
176
     1
 64
     7
176
     1
 65
   257
176
     1
 75
     1
176
     1
175
     1
176
     1
 42
1.0
176
     1
 92
        0
176
     1
 66
     7
176
     1
 43
1.0
176
     1
 76
     1
176
     1
 77
     6
176
     1
 78
     2
176
     1
 67
     7
176
     1
 79
     5
176
     1
170
     0
176
     1
171
     0
176
     1
290
     0
176
     1
 93
       13
176
     1
 44
0.0
176
     1
173
     0
176
     1
1001
ACAD
1000
AcDbSavedByObjectVersion
1070
     0
  0
VISUALSTYLE
  5
2D
102
{ACAD_XDICTIONARY
360
1A9
102
}
102
{ACAD_REACTORS
330
29
102
}
330
29
100
AcDbVisualStyle
  2
GouraudWithEdges
 70
     3
177
     2
291
     1
 71
     2
176
     1
 72
     2
176
     1
 73
     1
176
     1
 90
        2
176
     1
 40
0.6
176
     1
 41
30.0
176
     1
 63
     7
421
 16777215
176
     1
 74
     1
176
     1
 91
        0
176
     1
 64
     7
176
     1
 65
   257
176
     1
 75
     1
176
     1
175
     1
176
     1
 42
1.0
176
     1
 92
        0
176
     1
 66
   257
176
     1
 43
1.0
176
     1
 76
     1
176
     1
 77
     6
176
     1
 78
     2
176
     1
 67
     7
176
     1
 79
     5
176
     1
170
     0
176
     1
171
     0
176
     1
290
     0
176
     1
 93
       13
176
     1
 44
0.0
176
     1
173
     0
176
     1
1001
ACAD
1000
AcDbSavedByObjectVersion
1070
     0
  0
VISUALSTYLE
  5
31
102
{ACAD_XDICTIONARY
360
1B1
102
}
102
{ACAD_REACTORS
330
29
102
}
330
29
100
AcDbVisualStyle
  2
Hidden
 70
     6
177
     2
291
     0
 71
     1
176
     1
 72
     2
176
     1
 73
     2
176
     1
 90
        0
176
     1
 40
0.6
176
     1
 41
30.0
176
     1
 63
     7
421
 16777215
176
     1
 74
     2
176
     1
 91
        2
176
     1
 64
     7
176
     1
 65
   257
176
     1
 75
     2
176
     1
175
     1
176
     1
 42
40.0
176
     1
 92
        0
176
     1
 66
   257
176
     1
 43
1.0
176
     1
 76
     1
176
     1
 77
     6
176
     1
 78
     2
176
     1
 67
     7
176
     1
 79
     3
176
     1
170
     0
176
     1
171
     0
176
     1
290
     0
176
     1
 93
        1
176
     1
 44
0.0
176
     1
173
     0
176
     1
1001
ACAD
1000
AcDbSavedByObjectVersion
1070
     0
  0
VISUALSTYLE
  5
3F
102
{ACAD_XDICTIONARY
360
1CD
102
}
102
{ACAD_REACTORS
330
29
102
}
330
29
100
AcDbVisualStyle
  2
JitterOff
 70
    20
177
     2
291
     1
 71
     2
176
     0
 72
     2
176
     0
 73
     0
176
     0
 90
        0
176
     0
 40
0.6
176
     0
 41
30.0
176
     0
 63
     7
421
 16777215
176
     0
 74
     1
176
     0
 91
        4
176
     0
 64
     7
176
     0
 65
   257
176
     0
 75
     1
176
     0
175
     1
176
     0
 42
1.0
176
     0
 92
       10
176
     2
 66
     7
176
     0
 43
1.0
176
     0
 76
     1
176
     0
 77
     6
176
     0
 78
     2
176
     0
 67
     7
176
     0
 79
     5
176
     0
170
     0
176
     0
171
     0
176
     0
290
     0
176
     0
 93
        1
176
     0
 44
0.0
176
     0
173
     0
176
     0
1001
ACAD
1000
AcDbSavedByObjectVersion
1070
     0
  0
VISUALSTYLE
  5
37
102
{ACAD_XDICTIONARY
360
1BD
102
}
102
{ACAD_REACTORS
330
29
102
}
330
29
100
AcDbVisualStyle
  2
Linepattern
 70
    14
177
     2
291
     1
 71
     2
176
     1
 72
     2
176
     1
 73
     0
176
     1
 90
        0
176
     1
 40
0.6
176
     1
 41
30.0
176
     1
 63
     7
421
 16777215
176
     1
 74
     1
176
     1
 91
        4
176
     1
 64
     7
176
     1
 65
   257
176
     1
 75
     7
176
     1
175
     7
176
     1
 42
1.0
176
     1
 92
        8
176
     1
 66
     7
176
     1
 43
1.0
176
     1
 76
     1
176
     1
 77
     6
176
     1
 78
     2
176
     1
 67
     7
176
     1
 79
     5
176
     1
170
     0
176
     1
171
     0
176
     1
290
     0
176
     1
 93
        1
176
     1
 44
0.0
176
     1
173
     0
176
     1
1001
ACAD
1000
AcDbSavedByObjectVersion
1070
     0
  0
VISUALSTYLE
  5
40
102
{ACAD_XDICTIONARY
360
1CF
102
}
102
{ACAD_REACTORS
330
29
102
}
330
29
100
AcDbVisualStyle
  2
OverhangOff
 70
    21
177
     2
291
     1
 71
     2
176
     0
 72
     2
176
     0
 73
     0
176
     0
 90
        0
176
     0
 40
0.6
176
     0
 41
30.0
176
     0
 63
     7
421
 16777215
176
     0
 74
     1
176
     0
 91
        4
176
     0
 64
     7
176
     0
 65
   257
176
     0
 75
     1
176
     0
175
     1
176
     0
 42
1.0
176
     0
 92
        9
176
     2
 66
     7
176
     0
 43
1.0
176
     0
 76
     1
176
     0
 77
     6
176
     0
 78
     2
176
     0
 67
     7
176
     0
 79
     5
176
     0
170
     0
176
     0
171
     0
176
     0
290
     0
176
     0
 93
        1
176
     0
 44
0.0
176
     0
173
     0
176
     0
1001
ACAD
1000
AcDbSavedByObjectVersion
1070
     0
  0
VISUALSTYLE
  5
33
102
{ACAD_XDICTIONARY
360
1B5
102
}
102
{ACAD_REACTORS
330
29
102
}
330
29
100
AcDbVisualStyle
  2
Realistic
 70
     8
177
     2
291
     0
 71
     2
176
     1
 72
     3
176
     1
 73
     0
176
     1
 90
        2
176
     1
 40
0.6
176
     1
 41
30.0
176
     1
 63
     7
421
 16777215
176
     1
 74
     0
176
     1
 91
        0
176
     1
 64
     7
176
     1
 65
   257
176
     1
 75
     1
176
     1
175
     1
176
     1
 42
1.0
176
     1
 92
        8
176
     1
 66
   257
176
     1
 43
1.0
176
     1
 76
     1
176
     1
 77
     6
176
     1
 78
     2
176
     1
 67
     7
176
     1
 79
     3
176
     1
170
     0
176
     1
171
     0
176
     1
290
     0
176
     1
 93
       13
176
     1
 44
0.0
176
     1
173
     0
176
     1
1001
ACAD
1000
AcDbSavedByObjectVersion
1070
     0
  0
VISUALSTYLE
  5
3E
102
{ACAD_XDICTIONARY
360
1CB
102
}
102
{ACAD_REACTORS
330
29
102
}
330
29
100
AcDbVisualStyle
  2
Shaded
 70
    27
177
     2
291
     0
 71
     2
176
     1
 72
     2
176
     1
 73
     1
176
     1
 90
        2
176
     1
 40
0.6
176
     1
 41
30.0
176
     1
 63
     7
421
 16777215
176
     1
 74
     0
176
     1
 91
        4
176
     1
 64
     7
176
     1
 65
   257
176
     1
 75
     1
176
     1
175
     1
176
     1
 42
1.0
176
     1
 92
        8
176
     1
 66
   257
176
     1
 43
1.0
176
     1
 76
     1
176
     1
 77
     6
176
     1
 78
     2
176
     1
 67
     8
425
  7895160
176
     1
 79
     3
176
     1
170
     0
176
     1
171
     0
176
     1
290
     0
176
     1
 93
        5
176
     1
 44
0.0
176
     1
173
     0
176
     1
1001
ACAD
1000
AcDbSavedByObjectVersion
1070
     0
  0
VISUALSTYLE
  5
3D
102
{ACAD_XDICTIONARY
360
1C9
102
}
102
{ACAD_REACTORS
330
29
102
}
330
29
100
AcDbVisualStyle
  2
Shaded with edges
 70
    26
177
     2
291
     0
 71
     2
176
     1
 72
     2
176
     1
 73
     1
176
     1
 90
        2
176
     1
 40
0.6
176
     1
 41
30.0
176
     1
 63
     7
421
 16777215
176
     1
 74
     1
176
     1
 91
        2
176
     1
 64
     7
176
     1
 65
   257
176
     1
 75
     2
176
     1
175
     1
176
     1
 42
1.0
176
     1
 92
        8
176
     1
 66
   257
176
     1
 43
1.0
176
     1
 76
     1
176
     1
 77
     6
176
     1
 78
     2
176
     1
 67
     7
176
     1
 79
     3
176
     1
170
     0
176
     1
171
     0
176
     1
290
     0
176
     1
 93
        5
176
     1
 44
0.0
176
     1
173
     0
176
     1
1001
ACAD
1000
AcDbSavedByObjectVersion
1070
     0
  0
VISUALSTYLE
  5
3A
102
{ACAD_XDICTIONARY
360
1C3
102
}
102
{ACAD_REACTORS
330
29
102
}
330
29
100
AcDbVisualStyle
  2
Shades of Gray
 70
    23
177
     2
291
     0
 71
     2
176
     1
 72
     2
176
     1
 73
     3
176
     1
 90
        0
176
     1
 40
0.6
176
     1
 41
30.0
176
     1
 63
     7
421
 16777215
176
     1
 74
     2
176
     1
 91
        2
176
     1
 64
     7
176
     1
 65
     7
176
     1
 75
     1
176
     1
175
     1
176
     1
 42
40.0
176
     1
 92
        8
176
     1
 66
     7
176
     1
 43
1.0
176
     1
 76
     1
176
     1
 77
     6
176
     1
 78
     2
176
     1
 67
     7
176
     1
 79
     3
176
     1
170
     0
176
     1
171
     0
176
     1
290
     0
176
     1
 93
        1
176
     1
 44
0.0
176
     1
173
     0
176
     1
1001
ACAD
1000
AcDbSavedByObjectVersion
1070
     0
  0
VISUALSTYLE
  5
3B
102
{ACAD_XDICTIONARY
360
1C5
102
}
102
{ACAD_REACTORS
330
29
102
}
330
29
100
AcDbVisualStyle
  2
Sketchy
 70
    24
177
     2
291
     0
 71
     1
176
     1
 72
     2
176
     1
 73
     2
176
     1
 90
        0
176
     1
 40
0.6
176
     1
 41
30.0
176
     1
 63
     7
421
 16777215
176
     1
 74
     2
176
     1
 91
        2
176
     1
 64
     7
176
     1
 65
     7
176
     1
 75
     1
176
     1
175
     1
176
     1
 42
40.0
176
     1
 92
       11
176
     1
 66
     7
176
     1
 43
1.0
176
     1
 76
     1
176
     1
 77
     6
176
     1
 78
     2
176
     1
 67
     7
176
     1
 79
     6
176
     1
170
     0
176
     1
171
     0
176
     1
290
     0
176
     1
 93
        1
176
     1
 44
0.0
176
     1
173
     0
176
     1
1001
ACAD
1000
AcDbSavedByObjectVersion
1070
     0
  0
VISUALSTYLE
  5
36
102
{ACAD_XDICTIONARY
360
1BB
102
}
102
{ACAD_REACTORS
330
29
102
}
330
29
100
AcDbVisualStyle
  2
Thicken
 70
    13
177
     2
291
     1
 71
     2
176
     1
 72
     2
176
     1
 73
     0
176
     1
 90
        0
176
     1
 40
0.6
176
     1
 41
30.0
176
     1
 63
     7
421
 16777215
176
     1
 74
     1
176
     1
 91
        4
176
     1
 64
     7
176
     1
 65
   257
176
     1
 75
     1
176
     1
175
     1
176
     1
 42
1.0
176
     1
 92
       12
176
     1
 66
     7
176
     1
 43
1.0
176
     1
 76
     1
176
     1
 77
     6
176
     1
 78
     2
176
     1
 67
     7
176
     1
 79
     5
176
     1
170
     0
176
     1
171
     0
176
     1
290
     0
176
     1
 93
        1
176
     1
 44
0.0
176
     1
173
     0
176
     1
1001
ACAD
1000
AcDbSavedByObjectVersion
1070
     0
  0
VISUALSTYLE
  5
30
102
{ACAD_XDICTIONARY
360
1AF
102
}
102
{ACAD_REACTORS
330
29
102
}
330
29
100
AcDbVisualStyle
  2
Wireframe
 70
     5
177
     2
291
     0
 71
     0
176
     1
 72
     2
176
     1
 73
     0
176
     1
 90
        0
176
     1
 40
0.6
176
     1
 41
30.0
176
     1
 63
     7
421
 16777215
176
     1
 74
     1
176
     1
 91
        4
176
     1
 64
     7
176
     1
 65
   257
176
     1
 75
     1
176
     1
175
     1
176
     1
 42
1.0
176
     1
 92
        0
176
     1
 66
   257
176
     1
 43
1.0
176
     1
 76
     1
176
     1
 77
     6
176
     1
 78
     2
176
     1
 67
     7
176
     1
 79
     3
176
     1
170
     0
176
     1
171
     0
176
     1
290
     0
176
     1
 93
        1
176
     1
 44
0.0
176
     1
173
     0
176
     1
1001
ACAD
1000
AcDbSavedByObjectVersion
1070
     0
  0
VISUALSTYLE
  5
3C
102
{ACAD_XDICTIONARY
360
1C7
102
}
102
{ACAD_REACTORS
330
29
102
}
330
29
100
AcDbVisualStyle
  2
X-Ray
 70
    25
177
     2
291
     0
 71
     2
176
     1
 72
     2
176
     1
 73
     1
176
     1
 90
        1
176
     1
 40
0.5
176
     1
 41
30.0
176
     1
 63
     7
421
 16777215
176
     1
 74
     1
176
     1
 91
        0
176
     1
 64
     7
176
     1
 65
   257
176
     1
 75
     1
176
     1
175
     1
176
     1
 42
1.0
176
     1
 92
        8
176
     1
 66
     7
176
     1
 43
1.0
176
     1
 76
     1
176
     1
 77
     6
176
     1
 78
     2
176
     1
 67
     7
176
     1
 79
     3
176
     1
170
     0
176
     1
171
     0
176
     1
290
     0
176
     1
 93
       13
176
     1
 44
0.0
176
     1
173
     0
176
     1
1001
ACAD
1000
AcDbSavedByObjectVersion
1070
     0
  0
DICTIONARYVAR
  5
19F
102
{ACAD_REACTORS
330
19A
102
}
330
19A
100
DictionaryVariables
280
     0
  1
1:1
  0
DICTIONARYVAR
  5
19C
102
{ACAD_REACTORS
330
19A
102
}
330
19A
100
DictionaryVariables
280
     0
  1
STANDARD
  0
DICTIONARYVAR
  5
19B
102
{ACAD_REACTORS
330
19A
102
}
330
19A
100
DictionaryVariables
280
     0
  1
STANDARD
  0
DICTIONARYVAR
  5
19D
102
{ACAD_REACTORS
330
19A
102
}
330
19A
100
DictionaryVariables
280
     0
  1
Imperial24
  0
DICTIONARYVAR
  5
19E
102
{ACAD_REACTORS
330
19A
102
}
330
19A
100
DictionaryVariables
280
     0
  1
Imperial24
  0
DICTIONARY
  5
1D7
330
6B
100
AcDbDictionary
280
     1
281
     1
  3
ACAD_XREC_ROUNDTRIP
360
1D8
  0
DICTIONARY
  5
1A
330
19
100
AcDbDictionary
280
     1
281
     1
  3
BUMPTILE
360
1C
  3
DIFFUSETILE
360
1B
  3
OPACITYTILE
360
1F
  3
REFLECTIONTILE
360
1E
  3
REFRACTIONTILE
360
20
  3
SPECULARTILE
360
1D
  0
DICTIONARY
  5
12
330
11
100
AcDbDictionary
280
     1
281
     1
  3
BUMPTILE
360
14
  3
DIFFUSETILE
360
13
  3
OPACITYTILE
360
17
  3
REFLECTIONTILE
360
16
  3
REFRACTIONTILE
360
18
  3
SPECULARTILE
360
15
  0
DICTIONARY
  5
22
330
21
100
AcDbDictionary
280
     1
281
     1
  3
BUMPTILE
360
24
  3
DIFFUSETILE
360
23
  3
OPACITYTILE
360
27
  3
REFLECTIONTILE
360
26
  3
REFRACTIONTILE
360
28
  3
SPECULARTILE
360
25
  0
DICTIONARY
  5
1D3
330
67
100
AcDbDictionary
280
     1
281
     1
  3
ACAD_XREC_ROUNDTRIP
360
1D4
  0
DICTIONARY
  5
1D5
330
69
100
AcDbDictionary
280
     1
281
     1
  3
ACAD_XREC_ROUNDTRIP
360
1D6
  0
DICTIONARY
  5
1A0
330
65
100
AcDbDictionary
280
     1
281
     1
  3
ACAD_ROUNDTRIP_2008_TABLESTYLE_CELLSTYLEMAP
360
1A1
  0
DICTIONARY
  5
1AD
330
2F
100
AcDbDictionary
280
     1
281
     1
  3
ACAD_XREC_ROUNDTRIP
360
1AE
  0
DICTIONARY
  5
1AB
330
2E
100
AcDbDictionary
280
     1
281
     1
  3
ACAD_XREC_ROUNDTRIP
360
1AC
  0
DICTIONARY
  5
1B9
330
35
100
AcDbDictionary
280
     1
281
     1
  3
ACAD_XREC_ROUNDTRIP
360
1BA
  0
DICTIONARY
  5
1C1
330
39
100
AcDbDictionary
280
     1
281
     1
  3
ACAD_XREC_ROUNDTRIP
360
1C2
  0
DICTIONARY
  5
1B3
330
32
100
AcDbDictionary
280
     1
281
     1
  3
ACAD_XREC_ROUNDTRIP
360
1B4
  0
DICTIONARY
  5
1B7
330
34
100
AcDbDictionary
280
     1
281
     1
  3
ACAD_XREC_ROUNDTRIP
360
1B8
  0
DICTIONARY
  5
1D1
330
41
100
AcDbDictionary
280
     1
281
     1
  3
ACAD_XREC_ROUNDTRIP
360
1D2
  0
DICTIONARY
  5
1BF
330
38
100
AcDbDictionary
280
     1
281
     1
  3
ACAD_XREC_ROUNDTRIP
360
1C0
  0
DICTIONARY
  5
1A3
330
2A
100
AcDbDictionary
280
     1
281
     1
  3
ACAD_XREC_ROUNDTRIP
360
1A4
  0
DICTIONARY
  5
1A5
330
2B
100
AcDbDictionary
280
     1
281
     1
  3
ACAD_XREC_ROUNDTRIP
360
1A6
  0
DICTIONARY
  5
1A7
330
2C
100
AcDbDictionary
280
     1
281
     1
  3
ACAD_XREC_ROUNDTRIP
360
1A8
  0
DICTIONARY
  5
1A9
330
2D
100
AcDbDictionary
280
     1
281
     1
  3
ACAD_XREC_ROUNDTRIP
360
1AA
  0
DICTIONARY
  5
1B1
330
31
100
AcDbDictionary
280
     1
281
     1
  3
ACAD_XREC_ROUNDTRIP
360
1B2
  0
DICTIONARY
  5
1CD
330
3F
100
AcDbDictionary
280
     1
281
     1
  3
ACAD_XREC_ROUNDTRIP
360
1CE
  0
DICTIONARY
  5
1BD
330
37
100
AcDbDictionary
280
     1
281
     1
  3
ACAD_XREC_ROUNDTRIP
360
1BE
  0
DICTIONARY
  5
1CF
330
40
100
AcDbDictionary
280
     1
281
     1
  3
ACAD_XREC_ROUNDTRIP
360
1D0
  0
DICTIONARY
  5
1B5
330
33
100
AcDbDictionary
280
     1
281
     1
  3
ACAD_XREC_ROUNDTRIP
360
1B6
  0
DICTIONARY
  5
1CB
330
3E
100
AcDbDictionary
280
     1
281
     1
  3
ACAD_XREC_ROUNDTRIP
360
1CC
  0
DICTIONARY
  5
1C9
330
3D
100
AcDbDictionary
280
     1
281
     1
  3
ACAD_XREC_ROUNDTRIP
360
1CA
  0
DICTIONARY
  5
1C3
330
3A
100
AcDbDictionary
280
     1
281
     1
  3
ACAD_XREC_ROUNDTRIP
360
1C4
  0
DICTIONARY
  5
1C5
330
3B
100
AcDbDictionary
280
     1
281
     1
  3
ACAD_XREC_ROUNDTRIP
360
1C6
  0
DICTIONARY
  5
1BB
330
36
100
AcDbDictionary
280
     1
281
     1
  3
ACAD_XREC_ROUNDTRIP
360
1BC
  0
DICTIONARY
  5
1AF
330
30
100
AcDbDictionary
280
     1
281
     1
  3
ACAD_XREC_ROUNDTRIP
360
1B0
  0
DICTIONARY
  5
1C7
330
3C
100
AcDbDictionary
280
     1
281
     1
  3
ACAD_XREC_ROUNDTRIP
360
1C8
  0
XRECORD
  5
1D8
102
{ACAD_REACTORS
330
1D7
102
}
330
1D7
100
AcDbXrecord
280
     1
102
DISPLAYNAME
  1
Imperial24
102
FLAGS
 90
        0
  0
XRECORD
  5
1C
102
{ACAD_REACTORS
330
1A
102
}
330
1A
100
AcDbXrecord
280
     1
270
     1
271
     1
  0
XRECORD
  5
1B
102
{ACAD_REACTORS
330
1A
102
}
330
1A
100
AcDbXrecord
280
     1
270
     1
271
     1
  0
XRECORD
  5
1F
102
{ACAD_REACTORS
330
1A
102
}
330
1A
100
AcDbXrecord
280
     1
270
     1
271
     1
  0
XRECORD
  5
1E
102
{ACAD_REACTORS
330
1A
102
}
330
1A
100
AcDbXrecord
280
     1
270
     1
271
     1
  0
XRECORD
  5
20
102
{ACAD_REACTORS
330
1A
102
}
330
1A
100
AcDbXrecord
280
     1
270
     1
271
     1
  0
XRECORD
  5
1D
102
{ACAD_REACTORS
330
1A
102
}
330
1A
100
AcDbXrecord
280
     1
270
     1
271
     1
  0
XRECORD
  5
14
102
{ACAD_REACTORS
330
12
102
}
330
12
100
AcDbXrecord
280
     1
270
     1
271
     1
  0
XRECORD
  5
13
102
{ACAD_REACTORS
330
12
102
}
330
12
100
AcDbXrecord
280
     1
270
     1
271
     1
  0
XRECORD
  5
17
102
{ACAD_REACTORS
330
12
102
}
330
12
100
AcDbXrecord
280
     1
270
     1
271
     1
  0
XRECORD
  5
16
102
{ACAD_REACTORS
330
12
102
}
330
12
100
AcDbXrecord
280
     1
270
     1
271
     1
  0
XRECORD
  5
18
102
{ACAD_REACTORS
330
12
102
}
330
12
100
AcDbXrecord
280
     1
270
     1
271
     1
  0
XRECORD
  5
15
102
{ACAD_REACTORS
330
12
102
}
330
12
100
AcDbXrecord
280
     1
270
     1
271
     1
  0
XRECORD
  5
24
102
{ACAD_REACTORS
330
22
102
}
330
22
100
AcDbXrecord
280
     1
270
     1
271
     1
  0
XRECORD
  5
23
102
{ACAD_REACTORS
330
22
102
}
330
22
100
AcDbXrecord
280
     1
270
     1
271
     1
  0
XRECORD
  5
27
102
{ACAD_REACTORS
330
22
102
}
330
22
100
AcDbXrecord
280
     1
270
     1
271
     1
  0
XRECORD
  5
26
102
{ACAD_REACTORS
330
22
102
}
330
22
100
AcDbXrecord
280
     1
270
     1
271
     1
  0
XRECORD
  5
28
102
{ACAD_REACTORS
330
22
102
}
330
22
100
AcDbXrecord
280
     1
270
     1
271
     1
  0
XRECORD
  5
25
102
{ACAD_REACTORS
330
22
102
}
330
22
100
AcDbXrecord
280
     1
270
     1
271
     1
  0
XRECORD
  5
1D4
102
{ACAD_REACTORS
330
1D3
102
}
330
1D3
100
AcDbXrecord
280
     1
102
ACAD_ROUNDTRIP_2012_MLEADER_STYLE
298
     1
  0
XRECORD
  5
1D6
102
{ACAD_REACTORS
330
1D5
102
}
330
1D5
100
AcDbXrecord
280
     1
102
DISPLAYNAME
  1
Imperial24
102
FLAGS
 90
        0
  0
CELLSTYLEMAP
  5
1A1
102
{ACAD_REACTORS
330
1A0
102
}
330
1A0
100
AcDbCellStyleMap
 90
        3
300
CELLSTYLE
  1
TABLEFORMAT_BEGIN
 90
        5
170
     1
 91
        0
 92
    32768
 62
   257
 93
        1
300
CONTENTFORMAT
  1
CONTENTFORMAT_BEGIN
 90
        0
 91
        0
 92
      512
 93
        0
300

 40
0.0
140
1.0
 94
        5
 62
     0
340
55
144
0.25
309
CONTENTFORMAT_END
171
     0
 94
        0
309
TABLEFORMAT_END
  1
CELLSTYLE_BEGIN
 90
        1
 91
        1
300
_TITLE
309
CELLSTYLE_END
300
CELLSTYLE
  1
TABLEFORMAT_BEGIN
 90
        5
170
     1
 91
        0
 92
        0
 62
   257
 93
        1
300
CONTENTFORMAT
  1
CONTENTFORMAT_BEGIN
 90
        0
 91
        0
 92
      512
 93
        0
300

 40
0.0
140
1.0
 94
        5
 62
     0
340
55
144
0.18
309
CONTENTFORMAT_END
171
     0
 94
        0
309
TABLEFORMAT_END
  1
CELLSTYLE_BEGIN
 90
        2
 91
        1
300
_HEADER
309
CELLSTYLE_END
300
CELLSTYLE
  1
TABLEFORMAT_BEGIN
 90
        5
170
     1
 91
        0
 92
        0
 62
   257
 93
        1
300
CONTENTFORMAT
  1
CONTENTFORMAT_BEGIN
 90
        0
 91
        0
 92
      512
 93
        0
300

 40
0.0
140
1.0
 94
        2
 62
     0
340
55
144
0.18
309
CONTENTFORMAT_END
171
     0
 94
        0
309
TABLEFORMAT_END
  1
CELLSTYLE_BEGIN
 90
        3
 91
        2
300
_DATA
309
CELLSTYLE_END
  0
XRECORD
  5
1AE
102
{ACAD_REACTORS
330
1AD
102
}
330
1AD
100
AcDbXrecord
280
     1
102
RTVSPost2010Prop28
280
     1
102
RTVSPost2010PropOp28
 70
     1
102
RTVSPost2010Prop29
280
     1
102
RTVSPost2010PropOp29
 70
     1
102
RTVSPost2010Prop30
280
     0
102
RTVSPost2010PropOp30
 70
     1
102
RTVSPost2010Prop31
280
     0
102
RTVSPost2010PropOp31
 70
     1
102
RTVSPost2010Prop32
280
     0
102
RTVSPost2010PropOp32
 70
     1
102
RTVSPost2010Prop33
280
     0
102
RTVSPost2010PropOp33
 70
     1
102
RTVSPost2010Prop34
280
     0
102
RTVSPost2010PropOp34
 70
     1
102
RTVSPost2010Prop35
280
     0
102
RTVSPost2010PropOp35
 70
     1
102
RTVSPost2010Prop36
280
     0
102
RTVSPost2010PropOp36
 70
     1
102
RTVSPost2010Prop37
 90
       50
102
RTVSPost2010PropOp37
 70
     1
102
RTVSPost2010Prop38
140
0.0
102
RTVSPost2010PropOp38
 70
     1
102
RTVSPost2010Prop39
140
1.0
102
RTVSPost2010PropOp39
 70
     1
102
RTVSPost2010Prop40
 90
        0
102
RTVSPost2010PropOp40
 70
     1
102
RTVSPost2010Prop41ColorIndex
 90
       18
102
RTVSPost2010Prop41ColorRGB
 90
        0
102
RTVSPost2010PropOp41
 70
     1
102
RTVSPost2010Prop42
 90
       50
102
RTVSPost2010PropOp42
 70
     1
102
RTVSPost2010Prop43
 90
        3
102
RTVSPost2010PropOp43
 70
     1
102
RTVSPost2010Prop44ColorIndex
 90
        5
102
RTVSPost2010Prop44ColorRGB
 90
      255
102
RTVSPost2010PropOp44
 70
     1
102
RTVSPost2010Prop45
280
     0
102
RTVSPost2010PropOp45
 70
     1
102
RTVSPost2010Prop46
 90
       50
102
RTVSPost2010PropOp46
 70
     1
102
RTVSPost2010Prop47
 90
       50
102
RTVSPost2010PropOp47
 70
     1
102
RTVSPost2010Prop48
 90
       50
102
RTVSPost2010PropOp48
 70
     1
102
RTVSPost2010Prop49
280
     0
102
RTVSPost2010PropOp49
 70
     1
102
RTVSPost2010Prop50
 90
       50
102
RTVSPost2010PropOp50
 70
     1
102
RTVSPost2010Prop51ColorIndex
 90
      256
102
RTVSPost2010Prop51ColorRGB
 90
-16777216
102
RTVSPost2010PropOp51
 70
     0
102
RTVSPost2010Prop52
140
1.0
102
RTVSPost2010PropOp52
 70
     0
102
RTVSPost2010Prop53
 90
        2
102
RTVSPost2010PropOp53
 70
     1
102
RTVSPost2010Prop54
  1
strokes_ogs.tif
102
RTVSPost2010PropOp54
 70
     1
102
RTVSPost2010Prop55
280
     0
102
RTVSPost2010PropOp55
 70
     1
102
RTVSPost2010Prop56
140
1.0
102
RTVSPost2010PropOp56
 70
     1
102
RTVSPost2010Prop57
140
1.0
102
RTVSPost2010PropOp57
 70
     1
  0
XRECORD
  5
1AC
102
{ACAD_REACTORS
330
1AB
102
}
330
1AB
100
AcDbXrecord
280
     1
102
RTVSPost2010Prop28
280
     0
102
RTVSPost2010PropOp28
 70
     1
102
RTVSPost2010Prop29
280
     1
102
RTVSPost2010PropOp29
 70
     1
102
RTVSPost2010Prop30
280
     1
102
RTVSPost2010PropOp30
 70
     1
102
RTVSPost2010Prop31
280
     0
102
RTVSPost2010PropOp31
 70
     1
102
RTVSPost2010Prop32
280
     0
102
RTVSPost2010PropOp32
 70
     1
102
RTVSPost2010Prop33
280
     0
102
RTVSPost2010PropOp33
 70
     1
102
RTVSPost2010Prop34
280
     0
102
RTVSPost2010PropOp34
 70
     1
102
RTVSPost2010Prop35
280
     0
102
RTVSPost2010PropOp35
 70
     1
102
RTVSPost2010Prop36
280
     0
102
RTVSPost2010PropOp36
 70
     1
102
RTVSPost2010Prop37
 90
       50
102
RTVSPost2010PropOp37
 70
     1
102
RTVSPost2010Prop38
140
0.0
102
RTVSPost2010PropOp38
 70
     1
102
RTVSPost2010Prop39
140
1.0
102
RTVSPost2010PropOp39
 70
     1
102
RTVSPost2010Prop40
 90
        0
102
RTVSPost2010PropOp40
 70
     1
102
RTVSPost2010Prop41ColorIndex
 90
       18
102
RTVSPost2010Prop41ColorRGB
 90
        0
102
RTVSPost2010PropOp41
 70
     1
102
RTVSPost2010Prop42
 90
       50
102
RTVSPost2010PropOp42
 70
     1
102
RTVSPost2010Prop43
 90
        3
102
RTVSPost2010PropOp43
 70
     1
102
RTVSPost2010Prop44ColorIndex
 90
        5
102
RTVSPost2010Prop44ColorRGB
 90
      255
102
RTVSPost2010PropOp44
 70
     1
102
RTVSPost2010Prop45
280
     0
102
RTVSPost2010PropOp45
 70
     1
102
RTVSPost2010Prop46
 90
       50
102
RTVSPost2010PropOp46
 70
     1
102
RTVSPost2010Prop47
 90
       50
102
RTVSPost2010PropOp47
 70
     1
102
RTVSPost2010Prop48
 90
       50
102
RTVSPost2010PropOp48
 70
     1
102
RTVSPost2010Prop49
280
     0
102
RTVSPost2010PropOp49
 70
     1
102
RTVSPost2010Prop50
 90
       50
102
RTVSPost2010PropOp50
 70
     1
102
RTVSPost2010Prop51ColorIndex
 90
      256
102
RTVSPost2010Prop51ColorRGB
 90
-16777216
102
RTVSPost2010PropOp51
 70
     0
102
RTVSPost2010Prop52
140
1.0
102
RTVSPost2010PropOp52
 70
     0
102
RTVSPost2010Prop53
 90
        2
102
RTVSPost2010PropOp53
 70
     1
102
RTVSPost2010Prop54
  1
strokes_ogs.tif
102
RTVSPost2010PropOp54
 70
     1
102
RTVSPost2010Prop55
280
     0
102
RTVSPost2010PropOp55
 70
     1
102
RTVSPost2010Prop56
140
1.0
102
RTVSPost2010PropOp56
 70
     1
102
RTVSPost2010Prop57
140
1.0
102
RTVSPost2010PropOp57
 70
     1
  0
XRECORD
  5
1BA
102
{ACAD_REACTORS
330
1B9
102
}
330
1B9
100
AcDbXrecord
280
     1
102
RTVSPost2010Prop28
280
     0
102
RTVSPost2010PropOp28
 70
     1
102
RTVSPost2010Prop29
280
     1
102
RTVSPost2010PropOp29
 70
     1
102
RTVSPost2010Prop30
280
     1
102
RTVSPost2010PropOp30
 70
     1
102
RTVSPost2010Prop31
280
     0
102
RTVSPost2010PropOp31
 70
     1
102
RTVSPost2010Prop32
280
     0
102
RTVSPost2010PropOp32
 70
     1
102
RTVSPost2010Prop33
280
     0
102
RTVSPost2010PropOp33
 70
     1
102
RTVSPost2010Prop34
280
     0
102
RTVSPost2010PropOp34
 70
     1
102
RTVSPost2010Prop35
280
     0
102
RTVSPost2010PropOp35
 70
     1
102
RTVSPost2010Prop36
280
     0
102
RTVSPost2010PropOp36
 70
     1
102
RTVSPost2010Prop37
 90
       50
102
RTVSPost2010PropOp37
 70
     1
102
RTVSPost2010Prop38
140
0.0
102
RTVSPost2010PropOp38
 70
     1
102
RTVSPost2010Prop39
140
1.0
102
RTVSPost2010PropOp39
 70
     1
102
RTVSPost2010Prop40
 90
        0
102
RTVSPost2010PropOp40
 70
     1
102
RTVSPost2010Prop41ColorIndex
 90
       18
102
RTVSPost2010Prop41ColorRGB
 90
        0
102
RTVSPost2010PropOp41
 70
     1
102
RTVSPost2010Prop42
 90
       50
102
RTVSPost2010PropOp42
 70
     1
102
RTVSPost2010Prop43
 90
        3
102
RTVSPost2010PropOp43
 70
     1
102
RTVSPost2010Prop44ColorIndex
 90
        5
102
RTVSPost2010Prop44ColorRGB
 90
      255
102
RTVSPost2010PropOp44
 70
     1
102
RTVSPost2010Prop45
280
     0
102
RTVSPost2010PropOp45
 70
     1
102
RTVSPost2010Prop46
 90
       50
102
RTVSPost2010PropOp46
 70
     1
102
RTVSPost2010Prop47
 90
       50
102
RTVSPost2010PropOp47
 70
     1
102
RTVSPost2010Prop48
 90
       50
102
RTVSPost2010PropOp48
 70
     1
102
RTVSPost2010Prop49
280
     0
102
RTVSPost2010PropOp49
 70
     1
102
RTVSPost2010Prop50
 90
       50
102
RTVSPost2010PropOp50
 70
     1
102
RTVSPost2010Prop51ColorIndex
 90
      256
102
RTVSPost2010Prop51ColorRGB
 90
-16777216
102
RTVSPost2010PropOp51
 70
     0
102
RTVSPost2010Prop52
140
1.0
102
RTVSPost2010PropOp52
 70
     0
102
RTVSPost2010Prop53
 90
        2
102
RTVSPost2010PropOp53
 70
     1
102
RTVSPost2010Prop54
  1
strokes_ogs.tif
102
RTVSPost2010PropOp54
 70
     1
102
RTVSPost2010Prop55
280
     0
102
RTVSPost2010PropOp55
 70
     1
102
RTVSPost2010Prop56
140
1.0
102
RTVSPost2010PropOp56
 70
     1
102
RTVSPost2010Prop57
140
1.0
102
RTVSPost2010PropOp57
 70
     1
  0
XRECORD
  5
1C2
102
{ACAD_REACTORS
330
1C1
102
}
330
1C1
100
AcDbXrecord
280
     1
102
RTVSPost2010Prop28
280
     0
102
RTVSPost2010PropOp28
 70
     1
102
RTVSPost2010Prop29
280
     1
102
RTVSPost2010PropOp29
 70
     1
102
RTVSPost2010Prop30
280
     1
102
RTVSPost2010PropOp30
 70
     1
102
RTVSPost2010Prop31
280
     0
102
RTVSPost2010PropOp31
 70
     1
102
RTVSPost2010Prop32
280
     0
102
RTVSPost2010PropOp32
 70
     1
102
RTVSPost2010Prop33
280
     0
102
RTVSPost2010PropOp33
 70
     1
102
RTVSPost2010Prop34
280
     0
102
RTVSPost2010PropOp34
 70
     1
102
RTVSPost2010Prop35
280
     0
102
RTVSPost2010PropOp35
 70
     1
102
RTVSPost2010Prop36
280
     0
102
RTVSPost2010PropOp36
 70
     1
102
RTVSPost2010Prop37
 90
       50
102
RTVSPost2010PropOp37
 70
     1
102
RTVSPost2010Prop38
140
0.0
102
RTVSPost2010PropOp38
 70
     1
102
RTVSPost2010Prop39
140
1.0
102
RTVSPost2010PropOp39
 70
     1
102
RTVSPost2010Prop40
 90
        0
102
RTVSPost2010PropOp40
 70
     1
102
RTVSPost2010Prop41ColorIndex
 90
       18
102
RTVSPost2010Prop41ColorRGB
 90
        0
102
RTVSPost2010PropOp41
 70
     1
102
RTVSPost2010Prop42
 90
       50
102
RTVSPost2010PropOp42
 70
     1
102
RTVSPost2010Prop43
 90
        3
102
RTVSPost2010PropOp43
 70
     1
102
RTVSPost2010Prop44ColorIndex
 90
        5
102
RTVSPost2010Prop44ColorRGB
 90
      255
102
RTVSPost2010PropOp44
 70
     1
102
RTVSPost2010Prop45
280
     0
102
RTVSPost2010PropOp45
 70
     1
102
RTVSPost2010Prop46
 90
       50
102
RTVSPost2010PropOp46
 70
     1
102
RTVSPost2010Prop47
 90
       50
102
RTVSPost2010PropOp47
 70
     1
102
RTVSPost2010Prop48
 90
       50
102
RTVSPost2010PropOp48
 70
     1
102
RTVSPost2010Prop49
280
     0
102
RTVSPost2010PropOp49
 70
     1
102
RTVSPost2010Prop50
 90
       50
102
RTVSPost2010PropOp50
 70
     1
102
RTVSPost2010Prop51ColorIndex
 90
      256
102
RTVSPost2010Prop51ColorRGB
 90
-16777216
102
RTVSPost2010PropOp51
 70
     0
102
RTVSPost2010Prop52
140
1.0
102
RTVSPost2010PropOp52
 70
     0
102
RTVSPost2010Prop53
 90
        2
102
RTVSPost2010PropOp53
 70
     1
102
RTVSPost2010Prop54
  1
strokes_ogs.tif
102
RTVSPost2010PropOp54
 70
     1
102
RTVSPost2010Prop55
280
     0
102
RTVSPost2010PropOp55
 70
     1
102
RTVSPost2010Prop56
140
1.0
102
RTVSPost2010PropOp56
 70
     1
102
RTVSPost2010Prop57
140
1.0
102
RTVSPost2010PropOp57
 70
     1
  0
XRECORD
  5
1B4
102
{ACAD_REACTORS
330
1B3
102
}
330
1B3
100
AcDbXrecord
280
     1
102
RTVSPost2010Prop28
280
     0
102
RTVSPost2010PropOp28
 70
     1
102
RTVSPost2010Prop29
280
     1
102
RTVSPost2010PropOp29
 70
     1
102
RTVSPost2010Prop30
280
     1
102
RTVSPost2010PropOp30
 70
     1
102
RTVSPost2010Prop31
280
     0
102
RTVSPost2010PropOp31
 70
     1
102
RTVSPost2010Prop32
280
     0
102
RTVSPost2010PropOp32
 70
     1
102
RTVSPost2010Prop33
280
     0
102
RTVSPost2010PropOp33
 70
     1
102
RTVSPost2010Prop34
280
     0
102
RTVSPost2010PropOp34
 70
     1
102
RTVSPost2010Prop35
280
     0
102
RTVSPost2010PropOp35
 70
     1
102
RTVSPost2010Prop36
280
     0
102
RTVSPost2010PropOp36
 70
     1
102
RTVSPost2010Prop37
 90
       50
102
RTVSPost2010PropOp37
 70
     1
102
RTVSPost2010Prop38
140
0.0
102
RTVSPost2010PropOp38
 70
     1
102
RTVSPost2010Prop39
140
1.0
102
RTVSPost2010PropOp39
 70
     1
102
RTVSPost2010Prop40
 90
        0
102
RTVSPost2010PropOp40
 70
     1
102
RTVSPost2010Prop41ColorIndex
 90
       18
102
RTVSPost2010Prop41ColorRGB
 90
        0
102
RTVSPost2010PropOp41
 70
     1
102
RTVSPost2010Prop42
 90
       50
102
RTVSPost2010PropOp42
 70
     1
102
RTVSPost2010Prop43
 90
        3
102
RTVSPost2010PropOp43
 70
     1
102
RTVSPost2010Prop44ColorIndex
 90
        5
102
RTVSPost2010Prop44ColorRGB
 90
      255
102
RTVSPost2010PropOp44
 70
     1
102
RTVSPost2010Prop45
280
     0
102
RTVSPost2010PropOp45
 70
     1
102
RTVSPost2010Prop46
 90
       50
102
RTVSPost2010PropOp46
 70
     1
102
RTVSPost2010Prop47
 90
       50
102
RTVSPost2010PropOp47
 70
     1
102
RTVSPost2010Prop48
 90
       50
102
RTVSPost2010PropOp48
 70
     1
102
RTVSPost2010Prop49
280
     0
102
RTVSPost2010PropOp49
 70
     1
102
RTVSPost2010Prop50
 90
       50
102
RTVSPost2010PropOp50
 70
     1
102
RTVSPost2010Prop51ColorIndex
 90
      256
102
RTVSPost2010Prop51ColorRGB
 90
-16777216
102
RTVSPost2010PropOp51
 70
     0
102
RTVSPost2010Prop52
140
1.0
102
RTVSPost2010PropOp52
 70
     0
102
RTVSPost2010Prop53
 90
        2
102
RTVSPost2010PropOp53
 70
     1
102
RTVSPost2010Prop54
  1
strokes_ogs.tif
102
RTVSPost2010PropOp54
 70
     1
102
RTVSPost2010Prop55
280
     0
102
RTVSPost2010PropOp55
 70
     1
102
RTVSPost2010Prop56
140
1.0
102
RTVSPost2010PropOp56
 70
     1
102
RTVSPost2010Prop57
140
1.0
102
RTVSPost2010PropOp57
 70
     1
  0
XRECORD
  5
1B8
102
{ACAD_REACTORS
330
1B7
102
}
330
1B7
100
AcDbXrecord
280
     1
102
RTVSPost2010Prop28
280
     0
102
RTVSPost2010PropOp28
 70
     1
102
RTVSPost2010Prop29
280
     1
102
RTVSPost2010PropOp29
 70
     1
102
RTVSPost2010Prop30
280
     1
102
RTVSPost2010PropOp30
 70
     1
102
RTVSPost2010Prop31
280
     0
102
RTVSPost2010PropOp31
 70
     1
102
RTVSPost2010Prop32
280
     0
102
RTVSPost2010PropOp32
 70
     1
102
RTVSPost2010Prop33
280
     0
102
RTVSPost2010PropOp33
 70
     1
102
RTVSPost2010Prop34
280
     0
102
RTVSPost2010PropOp34
 70
     1
102
RTVSPost2010Prop35
280
     0
102
RTVSPost2010PropOp35
 70
     1
102
RTVSPost2010Prop36
280
     0
102
RTVSPost2010PropOp36
 70
     1
102
RTVSPost2010Prop37
 90
       50
102
RTVSPost2010PropOp37
 70
     1
102
RTVSPost2010Prop38
140
0.0
102
RTVSPost2010PropOp38
 70
     1
102
RTVSPost2010Prop39
140
1.0
102
RTVSPost2010PropOp39
 70
     1
102
RTVSPost2010Prop40
 90
        0
102
RTVSPost2010PropOp40
 70
     1
102
RTVSPost2010Prop41ColorIndex
 90
       18
102
RTVSPost2010Prop41ColorRGB
 90
        0
102
RTVSPost2010PropOp41
 70
     1
102
RTVSPost2010Prop42
 90
       50
102
RTVSPost2010PropOp42
 70
     1
102
RTVSPost2010Prop43
 90
        3
102
RTVSPost2010PropOp43
 70
     1
102
RTVSPost2010Prop44ColorIndex
 90
        5
102
RTVSPost2010Prop44ColorRGB
 90
      255
102
RTVSPost2010PropOp44
 70
     1
102
RTVSPost2010Prop45
280
     0
102
RTVSPost2010PropOp45
 70
     1
102
RTVSPost2010Prop46
 90
       50
102
RTVSPost2010PropOp46
 70
     1
102
RTVSPost2010Prop47
 90
       50
102
RTVSPost2010PropOp47
 70
     1
102
RTVSPost2010Prop48
 90
       50
102
RTVSPost2010PropOp48
 70
     1
102
RTVSPost2010Prop49
280
     0
102
RTVSPost2010PropOp49
 70
     1
102
RTVSPost2010Prop50
 90
       50
102
RTVSPost2010PropOp50
 70
     1
102
RTVSPost2010Prop51ColorIndex
 90
      256
102
RTVSPost2010Prop51ColorRGB
 90
-16777216
102
RTVSPost2010PropOp51
 70
     0
102
RTVSPost2010Prop52
140
1.0
102
RTVSPost2010PropOp52
 70
     0
102
RTVSPost2010Prop53
 90
        2
102
RTVSPost2010PropOp53
 70
     1
102
RTVSPost2010Prop54
  1
strokes_ogs.tif
102
RTVSPost2010PropOp54
 70
     1
102
RTVSPost2010Prop55
280
     0
102
RTVSPost2010PropOp55
 70
     1
102
RTVSPost2010Prop56
140
1.0
102
RTVSPost2010PropOp56
 70
     1
102
RTVSPost2010Prop57
140
1.0
102
RTVSPost2010PropOp57
 70
     1
  0
XRECORD
  5
1D2
102
{ACAD_REACTORS
330
1D1
102
}
330
1D1
100
AcDbXrecord
280
     1
102
RTVSPost2010Prop28
280
     0
102
RTVSPost2010PropOp28
 70
     0
102
RTVSPost2010Prop29
280
     1
102
RTVSPost2010PropOp29
 70
     0
102
RTVSPost2010Prop30
280
     1
102
RTVSPost2010PropOp30
 70
     0
102
RTVSPost2010Prop31
280
     0
102
RTVSPost2010PropOp31
 70
     0
102
RTVSPost2010Prop32
280
     0
102
RTVSPost2010PropOp32
 70
     0
102
RTVSPost2010Prop33
280
     0
102
RTVSPost2010PropOp33
 70
     0
102
RTVSPost2010Prop34
280
     0
102
RTVSPost2010PropOp34
 70
     0
102
RTVSPost2010Prop35
280
     0
102
RTVSPost2010PropOp35
 70
     0
102
RTVSPost2010Prop36
280
     0
102
RTVSPost2010PropOp36
 70
     0
102
RTVSPost2010Prop37
 90
       50
102
RTVSPost2010PropOp37
 70
     0
102
RTVSPost2010Prop38
140
0.0
102
RTVSPost2010PropOp38
 70
     0
102
RTVSPost2010Prop39
140
1.0
102
RTVSPost2010PropOp39
 70
     0
102
RTVSPost2010Prop40
 90
        0
102
RTVSPost2010PropOp40
 70
     0
102
RTVSPost2010Prop41ColorIndex
 90
       18
102
RTVSPost2010Prop41ColorRGB
 90
        0
102
RTVSPost2010PropOp41
 70
     0
102
RTVSPost2010Prop42
 90
       50
102
RTVSPost2010PropOp42
 70
     0
102
RTVSPost2010Prop43
 90
        3
102
RTVSPost2010PropOp43
 70
     0
102
RTVSPost2010Prop44ColorIndex
 90
        5
102
RTVSPost2010Prop44ColorRGB
 90
      255
102
RTVSPost2010PropOp44
 70
     0
102
RTVSPost2010Prop45
280
     0
102
RTVSPost2010PropOp45
 70
     0
102
RTVSPost2010Prop46
 90
       50
102
RTVSPost2010PropOp46
 70
     0
102
RTVSPost2010Prop47
 90
       50
102
RTVSPost2010PropOp47
 70
     0
102
RTVSPost2010Prop48
 90
       50
102
RTVSPost2010PropOp48
 70
     0
102
RTVSPost2010Prop49
280
     0
102
RTVSPost2010PropOp49
 70
     0
102
RTVSPost2010Prop50
 90
       50
102
RTVSPost2010PropOp50
 70
     0
102
RTVSPost2010Prop51ColorIndex
 90
      256
102
RTVSPost2010Prop51ColorRGB
 90
-16777216
102
RTVSPost2010PropOp51
 70
     0
102
RTVSPost2010Prop52
140
1.0
102
RTVSPost2010PropOp52
 70
     0
102
RTVSPost2010Prop53
 90
        2
102
RTVSPost2010PropOp53
 70
     0
102
RTVSPost2010Prop54
  1
strokes_ogs.tif
102
RTVSPost2010PropOp54
 70
     0
102
RTVSPost2010Prop55
280
     0
102
RTVSPost2010PropOp55
 70
     0
102
RTVSPost2010Prop56
140
1.0
102
RTVSPost2010PropOp56
 70
     0
102
RTVSPost2010Prop57
140
1.0
102
RTVSPost2010PropOp57
 70
     0
  0
XRECORD
  5
1C0
102
{ACAD_REACTORS
330
1BF
102
}
330
1BF
100
AcDbXrecord
280
     1
102
RTVSPost2010Prop28
280
     0
102
RTVSPost2010PropOp28
 70
     1
102
RTVSPost2010Prop29
280
     1
102
RTVSPost2010PropOp29
 70
     1
102
RTVSPost2010Prop30
280
     1
102
RTVSPost2010PropOp30
 70
     1
102
RTVSPost2010Prop31
280
     0
102
RTVSPost2010PropOp31
 70
     1
102
RTVSPost2010Prop32
280
     0
102
RTVSPost2010PropOp32
 70
     1
102
RTVSPost2010Prop33
280
     0
102
RTVSPost2010PropOp33
 70
     1
102
RTVSPost2010Prop34
280
     0
102
RTVSPost2010PropOp34
 70
     1
102
RTVSPost2010Prop35
280
     0
102
RTVSPost2010PropOp35
 70
     1
102
RTVSPost2010Prop36
280
     0
102
RTVSPost2010PropOp36
 70
     1
102
RTVSPost2010Prop37
 90
       50
102
RTVSPost2010PropOp37
 70
     1
102
RTVSPost2010Prop38
140
0.0
102
RTVSPost2010PropOp38
 70
     1
102
RTVSPost2010Prop39
140
1.0
102
RTVSPost2010PropOp39
 70
     1
102
RTVSPost2010Prop40
 90
        0
102
RTVSPost2010PropOp40
 70
     1
102
RTVSPost2010Prop41ColorIndex
 90
       18
102
RTVSPost2010Prop41ColorRGB
 90
        0
102
RTVSPost2010PropOp41
 70
     1
102
RTVSPost2010Prop42
 90
       50
102
RTVSPost2010PropOp42
 70
     1
102
RTVSPost2010Prop43
 90
        3
102
RTVSPost2010PropOp43
 70
     1
102
RTVSPost2010Prop44ColorIndex
 90
        5
102
RTVSPost2010Prop44ColorRGB
 90
      255
102
RTVSPost2010PropOp44
 70
     1
102
RTVSPost2010Prop45
280
     0
102
RTVSPost2010PropOp45
 70
     1
102
RTVSPost2010Prop46
 90
       50
102
RTVSPost2010PropOp46
 70
     1
102
RTVSPost2010Prop47
 90
       50
102
RTVSPost2010PropOp47
 70
     1
102
RTVSPost2010Prop48
 90
       50
102
RTVSPost2010PropOp48
 70
     1
102
RTVSPost2010Prop49
280
     0
102
RTVSPost2010PropOp49
 70
     1
102
RTVSPost2010Prop50
 90
       50
102
RTVSPost2010PropOp50
 70
     1
102
RTVSPost2010Prop51ColorIndex
 90
      256
102
RTVSPost2010Prop51ColorRGB
 90
-16777216
102
RTVSPost2010PropOp51
 70
     0
102
RTVSPost2010Prop52
140
1.0
102
RTVSPost2010PropOp52
 70
     0
102
RTVSPost2010Prop53
 90
        2
102
RTVSPost2010PropOp53
 70
     1
102
RTVSPost2010Prop54
  1
strokes_ogs.tif
102
RTVSPost2010PropOp54
 70
     1
102
RTVSPost2010Prop55
280
     0
102
RTVSPost2010PropOp55
 70
     1
102
RTVSPost2010Prop56
140
1.0
102
RTVSPost2010PropOp56
 70
     1
102
RTVSPost2010Prop57
140
1.0
102
RTVSPost2010PropOp57
 70
     1
  0
XRECORD
  5
1A4
102
{ACAD_REACTORS
330
1A3
102
}
330
1A3
100
AcDbXrecord
280
     1
102
RTVSPost2010Prop28
280
     0
102
RTVSPost2010PropOp28
 70
     1
102
RTVSPost2010Prop29
280
     1
102
RTVSPost2010PropOp29
 70
     1
102
RTVSPost2010Prop30
280
     1
102
RTVSPost2010PropOp30
 70
     1
102
RTVSPost2010Prop31
280
     0
102
RTVSPost2010PropOp31
 70
     1
102
RTVSPost2010Prop32
280
     0
102
RTVSPost2010PropOp32
 70
     1
102
RTVSPost2010Prop33
280
     0
102
RTVSPost2010PropOp33
 70
     1
102
RTVSPost2010Prop34
280
     0
102
RTVSPost2010PropOp34
 70
     1
102
RTVSPost2010Prop35
280
     0
102
RTVSPost2010PropOp35
 70
     1
102
RTVSPost2010Prop36
280
     0
102
RTVSPost2010PropOp36
 70
     1
102
RTVSPost2010Prop37
 90
       50
102
RTVSPost2010PropOp37
 70
     1
102
RTVSPost2010Prop38
140
0.0
102
RTVSPost2010PropOp38
 70
     1
102
RTVSPost2010Prop39
140
1.0
102
RTVSPost2010PropOp39
 70
     1
102
RTVSPost2010Prop40
 90
        0
102
RTVSPost2010PropOp40
 70
     1
102
RTVSPost2010Prop41ColorIndex
 90
       18
102
RTVSPost2010Prop41ColorRGB
 90
        0
102
RTVSPost2010PropOp41
 70
     1
102
RTVSPost2010Prop42
 90
       50
102
RTVSPost2010PropOp42
 70
     1
102
RTVSPost2010Prop43
 90
        3
102
RTVSPost2010PropOp43
 70
     1
102
RTVSPost2010Prop44ColorIndex
 90
        5
102
RTVSPost2010Prop44ColorRGB
 90
      255
102
RTVSPost2010PropOp44
 70
     1
102
RTVSPost2010Prop45
280
     0
102
RTVSPost2010PropOp45
 70
     1
102
RTVSPost2010Prop46
 90
       50
102
RTVSPost2010PropOp46
 70
     1
102
RTVSPost2010Prop47
 90
       50
102
RTVSPost2010PropOp47
 70
     1
102
RTVSPost2010Prop48
 90
       50
102
RTVSPost2010PropOp48
 70
     1
102
RTVSPost2010Prop49
280
     0
102
RTVSPost2010PropOp49
 70
     1
102
RTVSPost2010Prop50
 90
       50
102
RTVSPost2010PropOp50
 70
     1
102
RTVSPost2010Prop51ColorIndex
 90
      256
102
RTVSPost2010Prop51ColorRGB
 90
-16777216
102
RTVSPost2010PropOp51
 70
     0
102
RTVSPost2010Prop52
140
1.0
102
RTVSPost2010PropOp52
 70
     0
102
RTVSPost2010Prop53
 90
        2
102
RTVSPost2010PropOp53
 70
     1
102
RTVSPost2010Prop54
  1
strokes_ogs.tif
102
RTVSPost2010PropOp54
 70
     1
102
RTVSPost2010Prop55
280
     0
102
RTVSPost2010PropOp55
 70
     1
102
RTVSPost2010Prop56
140
1.0
102
RTVSPost2010PropOp56
 70
     1
102
RTVSPost2010Prop57
140
1.0
102
RTVSPost2010PropOp57
 70
     1
  0
XRECORD
  5
1A6
102
{ACAD_REACTORS
330
1A5
102
}
330
1A5
100
AcDbXrecord
280
     1
102
RTVSPost2010Prop28
280
     0
102
RTVSPost2010PropOp28
 70
     1
102
RTVSPost2010Prop29
280
     1
102
RTVSPost2010PropOp29
 70
     1
102
RTVSPost2010Prop30
280
     1
102
RTVSPost2010PropOp30
 70
     1
102
RTVSPost2010Prop31
280
     0
102
RTVSPost2010PropOp31
 70
     1
102
RTVSPost2010Prop32
280
     0
102
RTVSPost2010PropOp32
 70
     1
102
RTVSPost2010Prop33
280
     0
102
RTVSPost2010PropOp33
 70
     1
102
RTVSPost2010Prop34
280
     0
102
RTVSPost2010PropOp34
 70
     1
102
RTVSPost2010Prop35
280
     0
102
RTVSPost2010PropOp35
 70
     1
102
RTVSPost2010Prop36
280
     0
102
RTVSPost2010PropOp36
 70
     1
102
RTVSPost2010Prop37
 90
       50
102
RTVSPost2010PropOp37
 70
     1
102
RTVSPost2010Prop38
140
0.0
102
RTVSPost2010PropOp38
 70
     1
102
RTVSPost2010Prop39
140
1.0
102
RTVSPost2010PropOp39
 70
     1
102
RTVSPost2010Prop40
 90
        0
102
RTVSPost2010PropOp40
 70
     1
102
RTVSPost2010Prop41ColorIndex
 90
       18
102
RTVSPost2010Prop41ColorRGB
 90
        0
102
RTVSPost2010PropOp41
 70
     1
102
RTVSPost2010Prop42
 90
       50
102
RTVSPost2010PropOp42
 70
     1
102
RTVSPost2010Prop43
 90
        3
102
RTVSPost2010PropOp43
 70
     1
102
RTVSPost2010Prop44ColorIndex
 90
        5
102
RTVSPost2010Prop44ColorRGB
 90
      255
102
RTVSPost2010PropOp44
 70
     1
102
RTVSPost2010Prop45
280
     0
102
RTVSPost2010PropOp45
 70
     1
102
RTVSPost2010Prop46
 90
       50
102
RTVSPost2010PropOp46
 70
     1
102
RTVSPost2010Prop47
 90
       50
102
RTVSPost2010PropOp47
 70
     1
102
RTVSPost2010Prop48
 90
       50
102
RTVSPost2010PropOp48
 70
     1
102
RTVSPost2010Prop49
280
     0
102
RTVSPost2010PropOp49
 70
     1
102
RTVSPost2010Prop50
 90
       50
102
RTVSPost2010PropOp50
 70
     1
102
RTVSPost2010Prop51ColorIndex
 90
      256
102
RTVSPost2010Prop51ColorRGB
 90
-16777216
102
RTVSPost2010PropOp51
 70
     0
102
RTVSPost2010Prop52
140
1.0
102
RTVSPost2010PropOp52
 70
     0
102
RTVSPost2010Prop53
 90
        2
102
RTVSPost2010PropOp53
 70
     1
102
RTVSPost2010Prop54
  1
strokes_ogs.tif
102
RTVSPost2010PropOp54
 70
     1
102
RTVSPost2010Prop55
280
     0
102
RTVSPost2010PropOp55
 70
     1
102
RTVSPost2010Prop56
140
1.0
102
RTVSPost2010PropOp56
 70
     1
102
RTVSPost2010Prop57
140
1.0
102
RTVSPost2010PropOp57
 70
     1
  0
XRECORD
  5
1A8
102
{ACAD_REACTORS
330
1A7
102
}
330
1A7
100
AcDbXrecord
280
     1
102
RTVSPost2010Prop28
280
     0
102
RTVSPost2010PropOp28
 70
     1
102
RTVSPost2010Prop29
280
     1
102
RTVSPost2010PropOp29
 70
     1
102
RTVSPost2010Prop30
280
     1
102
RTVSPost2010PropOp30
 70
     1
102
RTVSPost2010Prop31
280
     0
102
RTVSPost2010PropOp31
 70
     1
102
RTVSPost2010Prop32
280
     0
102
RTVSPost2010PropOp32
 70
     1
102
RTVSPost2010Prop33
280
     0
102
RTVSPost2010PropOp33
 70
     1
102
RTVSPost2010Prop34
280
     0
102
RTVSPost2010PropOp34
 70
     1
102
RTVSPost2010Prop35
280
     0
102
RTVSPost2010PropOp35
 70
     1
102
RTVSPost2010Prop36
280
     0
102
RTVSPost2010PropOp36
 70
     1
102
RTVSPost2010Prop37
 90
       50
102
RTVSPost2010PropOp37
 70
     1
102
RTVSPost2010Prop38
140
0.0
102
RTVSPost2010PropOp38
 70
     1
102
RTVSPost2010Prop39
140
1.0
102
RTVSPost2010PropOp39
 70
     1
102
RTVSPost2010Prop40
 90
        0
102
RTVSPost2010PropOp40
 70
     1
102
RTVSPost2010Prop41ColorIndex
 90
       18
102
RTVSPost2010Prop41ColorRGB
 90
        0
102
RTVSPost2010PropOp41
 70
     1
102
RTVSPost2010Prop42
 90
       50
102
RTVSPost2010PropOp42
 70
     1
102
RTVSPost2010Prop43
 90
        3
102
RTVSPost2010PropOp43
 70
     1
102
RTVSPost2010Prop44ColorIndex
 90
        5
102
RTVSPost2010Prop44ColorRGB
 90
      255
102
RTVSPost2010PropOp44
 70
     1
102
RTVSPost2010Prop45
280
     0
102
RTVSPost2010PropOp45
 70
     1
102
RTVSPost2010Prop46
 90
       50
102
RTVSPost2010PropOp46
 70
     1
102
RTVSPost2010Prop47
 90
       50
102
RTVSPost2010PropOp47
 70
     1
102
RTVSPost2010Prop48
 90
       50
102
RTVSPost2010PropOp48
 70
     1
102
RTVSPost2010Prop49
280
     0
102
RTVSPost2010PropOp49
 70
     1
102
RTVSPost2010Prop50
 90
       50
102
RTVSPost2010PropOp50
 70
     1
102
RTVSPost2010Prop51ColorIndex
 90
      256
102
RTVSPost2010Prop51ColorRGB
 90
-16777216
102
RTVSPost2010PropOp51
 70
     0
102
RTVSPost2010Prop52
140
1.0
102
RTVSPost2010PropOp52
 70
     0
102
RTVSPost2010Prop53
 90
        2
102
RTVSPost2010PropOp53
 70
     1
102
RTVSPost2010Prop54
  1
strokes_ogs.tif
102
RTVSPost2010PropOp54
 70
     1
102
RTVSPost2010Prop55
280
     0
102
RTVSPost2010PropOp55
 70
     1
102
RTVSPost2010Prop56
140
1.0
102
RTVSPost2010PropOp56
 70
     1
102
RTVSPost2010Prop57
140
1.0
102
RTVSPost2010PropOp57
 70
     1
  0
XRECORD
  5
1AA
102
{ACAD_REACTORS
330
1A9
102
}
330
1A9
100
AcDbXrecord
280
     1
102
RTVSPost2010Prop28
280
     0
102
RTVSPost2010PropOp28
 70
     1
102
RTVSPost2010Prop29
280
     1
102
RTVSPost2010PropOp29
 70
     1
102
RTVSPost2010Prop30
280
     1
102
RTVSPost2010PropOp30
 70
     1
102
RTVSPost2010Prop31
280
     0
102
RTVSPost2010PropOp31
 70
     1
102
RTVSPost2010Prop32
280
     0
102
RTVSPost2010PropOp32
 70
     1
102
RTVSPost2010Prop33
280
     0
102
RTVSPost2010PropOp33
 70
     1
102
RTVSPost2010Prop34
280
     0
102
RTVSPost2010PropOp34
 70
     1
102
RTVSPost2010Prop35
280
     0
102
RTVSPost2010PropOp35
 70
     1
102
RTVSPost2010Prop36
280
     0
102
RTVSPost2010PropOp36
 70
     1
102
RTVSPost2010Prop37
 90
       50
102
RTVSPost2010PropOp37
 70
     1
102
RTVSPost2010Prop38
140
0.0
102
RTVSPost2010PropOp38
 70
     1
102
RTVSPost2010Prop39
140
1.0
102
RTVSPost2010PropOp39
 70
     1
102
RTVSPost2010Prop40
 90
        0
102
RTVSPost2010PropOp40
 70
     1
102
RTVSPost2010Prop41ColorIndex
 90
       18
102
RTVSPost2010Prop41ColorRGB
 90
        0
102
RTVSPost2010PropOp41
 70
     1
102
RTVSPost2010Prop42
 90
       50
102
RTVSPost2010PropOp42
 70
     1
102
RTVSPost2010Prop43
 90
        3
102
RTVSPost2010PropOp43
 70
     1
102
RTVSPost2010Prop44ColorIndex
 90
        5
102
RTVSPost2010Prop44ColorRGB
 90
      255
102
RTVSPost2010PropOp44
 70
     1
102
RTVSPost2010Prop45
280
     0
102
RTVSPost2010PropOp45
 70
     1
102
RTVSPost2010Prop46
 90
       50
102
RTVSPost2010PropOp46
 70
     1
102
RTVSPost2010Prop47
 90
       50
102
RTVSPost2010PropOp47
 70
     1
102
RTVSPost2010Prop48
 90
       50
102
RTVSPost2010PropOp48
 70
     1
102
RTVSPost2010Prop49
280
     0
102
RTVSPost2010PropOp49
 70
     1
102
RTVSPost2010Prop50
 90
       50
102
RTVSPost2010PropOp50
 70
     1
102
RTVSPost2010Prop51ColorIndex
 90
      256
102
RTVSPost2010Prop51ColorRGB
 90
-16777216
102
RTVSPost2010PropOp51
 70
     0
102
RTVSPost2010Prop52
140
1.0
102
RTVSPost2010PropOp52
 70
     0
102
RTVSPost2010Prop53
 90
        2
102
RTVSPost2010PropOp53
 70
     1
102
RTVSPost2010Prop54
  1
strokes_ogs.tif
102
RTVSPost2010PropOp54
 70
     1
102
RTVSPost2010Prop55
280
     0
102
RTVSPost2010PropOp55
 70
     1
102
RTVSPost2010Prop56
140
1.0
102
RTVSPost2010PropOp56
 70
     1
102
RTVSPost2010Prop57
140
1.0
102
RTVSPost2010PropOp57
 70
     1
  0
XRECORD
  5
1B2
102
{ACAD_REACTORS
330
1B1
102
}
330
1B1
100
AcDbXrecord
280
     1
102
RTVSPost2010Prop28
280
     0
102
RTVSPost2010PropOp28
 70
     1
102
RTVSPost2010Prop29
280
     1
102
RTVSPost2010PropOp29
 70
     1
102
RTVSPost2010Prop30
280
     1
102
RTVSPost2010PropOp30
 70
     1
102
RTVSPost2010Prop31
280
     0
102
RTVSPost2010PropOp31
 70
     1
102
RTVSPost2010Prop32
280
     0
102
RTVSPost2010PropOp32
 70
     1
102
RTVSPost2010Prop33
280
     0
102
RTVSPost2010PropOp33
 70
     1
102
RTVSPost2010Prop34
280
     0
102
RTVSPost2010PropOp34
 70
     1
102
RTVSPost2010Prop35
280
     0
102
RTVSPost2010PropOp35
 70
     1
102
RTVSPost2010Prop36
280
     0
102
RTVSPost2010PropOp36
 70
     1
102
RTVSPost2010Prop37
 90
       50
102
RTVSPost2010PropOp37
 70
     1
102
RTVSPost2010Prop38
140
0.0
102
RTVSPost2010PropOp38
 70
     1
102
RTVSPost2010Prop39
140
1.0
102
RTVSPost2010PropOp39
 70
     1
102
RTVSPost2010Prop40
 90
        0
102
RTVSPost2010PropOp40
 70
     1
102
RTVSPost2010Prop41ColorIndex
 90
       18
102
RTVSPost2010Prop41ColorRGB
 90
        0
102
RTVSPost2010PropOp41
 70
     1
102
RTVSPost2010Prop42
 90
       50
102
RTVSPost2010PropOp42
 70
     1
102
RTVSPost2010Prop43
 90
        3
102
RTVSPost2010PropOp43
 70
     1
102
RTVSPost2010Prop44ColorIndex
 90
        5
102
RTVSPost2010Prop44ColorRGB
 90
      255
102
RTVSPost2010PropOp44
 70
     1
102
RTVSPost2010Prop45
280
     0
102
RTVSPost2010PropOp45
 70
     1
102
RTVSPost2010Prop46
 90
       50
102
RTVSPost2010PropOp46
 70
     1
102
RTVSPost2010Prop47
 90
       50
102
RTVSPost2010PropOp47
 70
     1
102
RTVSPost2010Prop48
 90
       50
102
RTVSPost2010PropOp48
 70
     1
102
RTVSPost2010Prop49
280
     0
102
RTVSPost2010PropOp49
 70
     1
102
RTVSPost2010Prop50
 90
       50
102
RTVSPost2010PropOp50
 70
     1
102
RTVSPost2010Prop51ColorIndex
 90
      256
102
RTVSPost2010Prop51ColorRGB
 90
-16777216
102
RTVSPost2010PropOp51
 70
     0
102
RTVSPost2010Prop52
140
1.0
102
RTVSPost2010PropOp52
 70
     0
102
RTVSPost2010Prop53
 90
        2
102
RTVSPost2010PropOp53
 70
     1
102
RTVSPost2010Prop54
  1
strokes_ogs.tif
102
RTVSPost2010PropOp54
 70
     1
102
RTVSPost2010Prop55
280
     0
102
RTVSPost2010PropOp55
 70
     1
102
RTVSPost2010Prop56
140
1.0
102
RTVSPost2010PropOp56
 70
     1
102
RTVSPost2010Prop57
140
1.0
102
RTVSPost2010PropOp57
 70
     1
  0
XRECORD
  5
1CE
102
{ACAD_REACTORS
330
1CD
102
}
330
1CD
100
AcDbXrecord
280
     1
102
RTVSPost2010Prop28
280
     0
102
RTVSPost2010PropOp28
 70
     0
102
RTVSPost2010Prop29
280
     1
102
RTVSPost2010PropOp29
 70
     0
102
RTVSPost2010Prop30
280
     1
102
RTVSPost2010PropOp30
 70
     0
102
RTVSPost2010Prop31
280
     0
102
RTVSPost2010PropOp31
 70
     0
102
RTVSPost2010Prop32
280
     0
102
RTVSPost2010PropOp32
 70
     0
102
RTVSPost2010Prop33
280
     0
102
RTVSPost2010PropOp33
 70
     0
102
RTVSPost2010Prop34
280
     0
102
RTVSPost2010PropOp34
 70
     0
102
RTVSPost2010Prop35
280
     0
102
RTVSPost2010PropOp35
 70
     0
102
RTVSPost2010Prop36
280
     0
102
RTVSPost2010PropOp36
 70
     0
102
RTVSPost2010Prop37
 90
       50
102
RTVSPost2010PropOp37
 70
     0
102
RTVSPost2010Prop38
140
0.0
102
RTVSPost2010PropOp38
 70
     0
102
RTVSPost2010Prop39
140
1.0
102
RTVSPost2010PropOp39
 70
     0
102
RTVSPost2010Prop40
 90
        0
102
RTVSPost2010PropOp40
 70
     0
102
RTVSPost2010Prop41ColorIndex
 90
       18
102
RTVSPost2010Prop41ColorRGB
 90
        0
102
RTVSPost2010PropOp41
 70
     0
102
RTVSPost2010Prop42
 90
       50
102
RTVSPost2010PropOp42
 70
     0
102
RTVSPost2010Prop43
 90
        3
102
RTVSPost2010PropOp43
 70
     0
102
RTVSPost2010Prop44ColorIndex
 90
        5
102
RTVSPost2010Prop44ColorRGB
 90
      255
102
RTVSPost2010PropOp44
 70
     0
102
RTVSPost2010Prop45
280
     0
102
RTVSPost2010PropOp45
 70
     0
102
RTVSPost2010Prop46
 90
       50
102
RTVSPost2010PropOp46
 70
     0
102
RTVSPost2010Prop47
 90
       50
102
RTVSPost2010PropOp47
 70
     0
102
RTVSPost2010Prop48
 90
       50
102
RTVSPost2010PropOp48
 70
     0
102
RTVSPost2010Prop49
280
     0
102
RTVSPost2010PropOp49
 70
     0
102
RTVSPost2010Prop50
 90
       50
102
RTVSPost2010PropOp50
 70
     0
102
RTVSPost2010Prop51ColorIndex
 90
      256
102
RTVSPost2010Prop51ColorRGB
 90
-16777216
102
RTVSPost2010PropOp51
 70
     0
102
RTVSPost2010Prop52
140
1.0
102
RTVSPost2010PropOp52
 70
     0
102
RTVSPost2010Prop53
 90
        2
102
RTVSPost2010PropOp53
 70
     0
102
RTVSPost2010Prop54
  1
strokes_ogs.tif
102
RTVSPost2010PropOp54
 70
     0
102
RTVSPost2010Prop55
280
     0
102
RTVSPost2010PropOp55
 70
     0
102
RTVSPost2010Prop56
140
1.0
102
RTVSPost2010PropOp56
 70
     0
102
RTVSPost2010Prop57
140
1.0
102
RTVSPost2010PropOp57
 70
     0
  0
XRECORD
  5
1BE
102
{ACAD_REACTORS
330
1BD
102
}
330
1BD
100
AcDbXrecord
280
     1
102
RTVSPost2010Prop28
280
     0
102
RTVSPost2010PropOp28
 70
     1
102
RTVSPost2010Prop29
280
     1
102
RTVSPost2010PropOp29
 70
     1
102
RTVSPost2010Prop30
280
     1
102
RTVSPost2010PropOp30
 70
     1
102
RTVSPost2010Prop31
280
     0
102
RTVSPost2010PropOp31
 70
     1
102
RTVSPost2010Prop32
280
     0
102
RTVSPost2010PropOp32
 70
     1
102
RTVSPost2010Prop33
280
     0
102
RTVSPost2010PropOp33
 70
     1
102
RTVSPost2010Prop34
280
     0
102
RTVSPost2010PropOp34
 70
     1
102
RTVSPost2010Prop35
280
     0
102
RTVSPost2010PropOp35
 70
     1
102
RTVSPost2010Prop36
280
     0
102
RTVSPost2010PropOp36
 70
     1
102
RTVSPost2010Prop37
 90
       50
102
RTVSPost2010PropOp37
 70
     1
102
RTVSPost2010Prop38
140
0.0
102
RTVSPost2010PropOp38
 70
     1
102
RTVSPost2010Prop39
140
1.0
102
RTVSPost2010PropOp39
 70
     1
102
RTVSPost2010Prop40
 90
        0
102
RTVSPost2010PropOp40
 70
     1
102
RTVSPost2010Prop41ColorIndex
 90
       18
102
RTVSPost2010Prop41ColorRGB
 90
        0
102
RTVSPost2010PropOp41
 70
     1
102
RTVSPost2010Prop42
 90
       50
102
RTVSPost2010PropOp42
 70
     1
102
RTVSPost2010Prop43
 90
        3
102
RTVSPost2010PropOp43
 70
     1
102
RTVSPost2010Prop44ColorIndex
 90
        5
102
RTVSPost2010Prop44ColorRGB
 90
      255
102
RTVSPost2010PropOp44
 70
     1
102
RTVSPost2010Prop45
280
     0
102
RTVSPost2010PropOp45
 70
     1
102
RTVSPost2010Prop46
 90
       50
102
RTVSPost2010PropOp46
 70
     1
102
RTVSPost2010Prop47
 90
       50
102
RTVSPost2010PropOp47
 70
     1
102
RTVSPost2010Prop48
 90
       50
102
RTVSPost2010PropOp48
 70
     1
102
RTVSPost2010Prop49
280
     0
102
RTVSPost2010PropOp49
 70
     1
102
RTVSPost2010Prop50
 90
       50
102
RTVSPost2010PropOp50
 70
     1
102
RTVSPost2010Prop51ColorIndex
 90
      256
102
RTVSPost2010Prop51ColorRGB
 90
-16777216
102
RTVSPost2010PropOp51
 70
     0
102
RTVSPost2010Prop52
140
1.0
102
RTVSPost2010PropOp52
 70
     0
102
RTVSPost2010Prop53
 90
        2
102
RTVSPost2010PropOp53
 70
     1
102
RTVSPost2010Prop54
  1
strokes_ogs.tif
102
RTVSPost2010PropOp54
 70
     1
102
RTVSPost2010Prop55
280
     0
102
RTVSPost2010PropOp55
 70
     1
102
RTVSPost2010Prop56
140
1.0
102
RTVSPost2010PropOp56
 70
     1
102
RTVSPost2010Prop57
140
1.0
102
RTVSPost2010PropOp57
 70
     1
  0
XRECORD
  5
1D0
102
{ACAD_REACTORS
330
1CF
102
}
330
1CF
100
AcDbXrecord
280
     1
102
RTVSPost2010Prop28
280
     0
102
RTVSPost2010PropOp28
 70
     0
102
RTVSPost2010Prop29
280
     1
102
RTVSPost2010PropOp29
 70
     0
102
RTVSPost2010Prop30
280
     1
102
RTVSPost2010PropOp30
 70
     0
102
RTVSPost2010Prop31
280
     0
102
RTVSPost2010PropOp31
 70
     0
102
RTVSPost2010Prop32
280
     0
102
RTVSPost2010PropOp32
 70
     0
102
RTVSPost2010Prop33
280
     0
102
RTVSPost2010PropOp33
 70
     0
102
RTVSPost2010Prop34
280
     0
102
RTVSPost2010PropOp34
 70
     0
102
RTVSPost2010Prop35
280
     0
102
RTVSPost2010PropOp35
 70
     0
102
RTVSPost2010Prop36
280
     0
102
RTVSPost2010PropOp36
 70
     0
102
RTVSPost2010Prop37
 90
       50
102
RTVSPost2010PropOp37
 70
     0
102
RTVSPost2010Prop38
140
0.0
102
RTVSPost2010PropOp38
 70
     0
102
RTVSPost2010Prop39
140
1.0
102
RTVSPost2010PropOp39
 70
     0
102
RTVSPost2010Prop40
 90
        0
102
RTVSPost2010PropOp40
 70
     0
102
RTVSPost2010Prop41ColorIndex
 90
       18
102
RTVSPost2010Prop41ColorRGB
 90
        0
102
RTVSPost2010PropOp41
 70
     0
102
RTVSPost2010Prop42
 90
       50
102
RTVSPost2010PropOp42
 70
     0
102
RTVSPost2010Prop43
 90
        3
102
RTVSPost2010PropOp43
 70
     0
102
RTVSPost2010Prop44ColorIndex
 90
        5
102
RTVSPost2010Prop44ColorRGB
 90
      255
102
RTVSPost2010PropOp44
 70
     0
102
RTVSPost2010Prop45
280
     0
102
RTVSPost2010PropOp45
 70
     0
102
RTVSPost2010Prop46
 90
       50
102
RTVSPost2010PropOp46
 70
     0
102
RTVSPost2010Prop47
 90
       50
102
RTVSPost2010PropOp47
 70
     0
102
RTVSPost2010Prop48
 90
       50
102
RTVSPost2010PropOp48
 70
     0
102
RTVSPost2010Prop49
280
     0
102
RTVSPost2010PropOp49
 70
     0
102
RTVSPost2010Prop50
 90
       50
102
RTVSPost2010PropOp50
 70
     0
102
RTVSPost2010Prop51ColorIndex
 90
      256
102
RTVSPost2010Prop51ColorRGB
 90
-16777216
102
RTVSPost2010PropOp51
 70
     0
102
RTVSPost2010Prop52
140
1.0
102
RTVSPost2010PropOp52
 70
     0
102
RTVSPost2010Prop53
 90
        2
102
RTVSPost2010PropOp53
 70
     0
102
RTVSPost2010Prop54
  1
strokes_ogs.tif
102
RTVSPost2010PropOp54
 70
     0
102
RTVSPost2010Prop55
280
     0
102
RTVSPost2010PropOp55
 70
     0
102
RTVSPost2010Prop56
140
1.0
102
RTVSPost2010PropOp56
 70
     0
102
RTVSPost2010Prop57
140
1.0
102
RTVSPost2010PropOp57
 70
     0
  0
XRECORD
  5
1B6
102
{ACAD_REACTORS
330
1B5
102
}
330
1B5
100
AcDbXrecord
280
     1
102
RTVSPost2010Prop28
280
     0
102
RTVSPost2010PropOp28
 70
     1
102
RTVSPost2010Prop29
280
     1
102
RTVSPost2010PropOp29
 70
     1
102
RTVSPost2010Prop30
280
     1
102
RTVSPost2010PropOp30
 70
     1
102
RTVSPost2010Prop31
280
     0
102
RTVSPost2010PropOp31
 70
     1
102
RTVSPost2010Prop32
280
     0
102
RTVSPost2010PropOp32
 70
     1
102
RTVSPost2010Prop33
280
     0
102
RTVSPost2010PropOp33
 70
     1
102
RTVSPost2010Prop34
280
     0
102
RTVSPost2010PropOp34
 70
     1
102
RTVSPost2010Prop35
280
     0
102
RTVSPost2010PropOp35
 70
     1
102
RTVSPost2010Prop36
280
     0
102
RTVSPost2010PropOp36
 70
     1
102
RTVSPost2010Prop37
 90
       50
102
RTVSPost2010PropOp37
 70
     1
102
RTVSPost2010Prop38
140
0.0
102
RTVSPost2010PropOp38
 70
     1
102
RTVSPost2010Prop39
140
1.0
102
RTVSPost2010PropOp39
 70
     1
102
RTVSPost2010Prop40
 90
        0
102
RTVSPost2010PropOp40
 70
     1
102
RTVSPost2010Prop41ColorIndex
 90
       18
102
RTVSPost2010Prop41ColorRGB
 90
        0
102
RTVSPost2010PropOp41
 70
     1
102
RTVSPost2010Prop42
 90
       50
102
RTVSPost2010PropOp42
 70
     1
102
RTVSPost2010Prop43
 90
        3
102
RTVSPost2010PropOp43
 70
     1
102
RTVSPost2010Prop44ColorIndex
 90
        5
102
RTVSPost2010Prop44ColorRGB
 90
      255
102
RTVSPost2010PropOp44
 70
     1
102
RTVSPost2010Prop45
280
     0
102
RTVSPost2010PropOp45
 70
     1
102
RTVSPost2010Prop46
 90
       50
102
RTVSPost2010PropOp46
 70
     1
102
RTVSPost2010Prop47
 90
       50
102
RTVSPost2010PropOp47
 70
     1
102
RTVSPost2010Prop48
 90
       50
102
RTVSPost2010PropOp48
 70
     1
102
RTVSPost2010Prop49
280
     0
102
RTVSPost2010PropOp49
 70
     1
102
RTVSPost2010Prop50
 90
       50
102
RTVSPost2010PropOp50
 70
     1
102
RTVSPost2010Prop51ColorIndex
 90
      256
102
RTVSPost2010Prop51ColorRGB
 90
-16777216
102
RTVSPost2010PropOp51
 70
     0
102
RTVSPost2010Prop52
140
1.0
102
RTVSPost2010PropOp52
 70
     0
102
RTVSPost2010Prop53
 90
        2
102
RTVSPost2010PropOp53
 70
     1
102
RTVSPost2010Prop54
  1
strokes_ogs.tif
102
RTVSPost2010PropOp54
 70
     1
102
RTVSPost2010Prop55
280
     0
102
RTVSPost2010PropOp55
 70
     1
102
RTVSPost2010Prop56
140
1.0
102
RTVSPost2010PropOp56
 70
     1
102
RTVSPost2010Prop57
140
1.0
102
RTVSPost2010PropOp57
 70
     1
  0
XRECORD
  5
1CC
102
{ACAD_REACTORS
330
1CB
102
}
330
1CB
100
AcDbXrecord
280
     1
102
RTVSPost2010Prop28
280
     0
102
RTVSPost2010PropOp28
 70
     1
102
RTVSPost2010Prop29
280
     1
102
RTVSPost2010PropOp29
 70
     1
102
RTVSPost2010Prop30
280
     1
102
RTVSPost2010PropOp30
 70
     1
102
RTVSPost2010Prop31
280
     0
102
RTVSPost2010PropOp31
 70
     1
102
RTVSPost2010Prop32
280
     0
102
RTVSPost2010PropOp32
 70
     1
102
RTVSPost2010Prop33
280
     0
102
RTVSPost2010PropOp33
 70
     1
102
RTVSPost2010Prop34
280
     0
102
RTVSPost2010PropOp34
 70
     1
102
RTVSPost2010Prop35
280
     0
102
RTVSPost2010PropOp35
 70
     1
102
RTVSPost2010Prop36
280
     0
102
RTVSPost2010PropOp36
 70
     1
102
RTVSPost2010Prop37
 90
       50
102
RTVSPost2010PropOp37
 70
     1
102
RTVSPost2010Prop38
140
0.0
102
RTVSPost2010PropOp38
 70
     1
102
RTVSPost2010Prop39
140
1.0
102
RTVSPost2010PropOp39
 70
     1
102
RTVSPost2010Prop40
 90
        0
102
RTVSPost2010PropOp40
 70
     1
102
RTVSPost2010Prop41ColorIndex
 90
       18
102
RTVSPost2010Prop41ColorRGB
 90
        0
102
RTVSPost2010PropOp41
 70
     1
102
RTVSPost2010Prop42
 90
       50
102
RTVSPost2010PropOp42
 70
     1
102
RTVSPost2010Prop43
 90
        3
102
RTVSPost2010PropOp43
 70
     1
102
RTVSPost2010Prop44ColorIndex
 90
        5
102
RTVSPost2010Prop44ColorRGB
 90
      255
102
RTVSPost2010PropOp44
 70
     1
102
RTVSPost2010Prop45
280
     0
102
RTVSPost2010PropOp45
 70
     1
102
RTVSPost2010Prop46
 90
       50
102
RTVSPost2010PropOp46
 70
     1
102
RTVSPost2010Prop47
 90
       50
102
RTVSPost2010PropOp47
 70
     1
102
RTVSPost2010Prop48
 90
       50
102
RTVSPost2010PropOp48
 70
     1
102
RTVSPost2010Prop49
280
     0
102
RTVSPost2010PropOp49
 70
     1
102
RTVSPost2010Prop50
 90
       50
102
RTVSPost2010PropOp50
 70
     1
102
RTVSPost2010Prop51ColorIndex
 90
      256
102
RTVSPost2010Prop51ColorRGB
 90
-16777216
102
RTVSPost2010PropOp51
 70
     0
102
RTVSPost2010Prop52
140
1.0
102
RTVSPost2010PropOp52
 70
     0
102
RTVSPost2010Prop53
 90
        2
102
RTVSPost2010PropOp53
 70
     1
102
RTVSPost2010Prop54
  1
strokes_ogs.tif
102
RTVSPost2010PropOp54
 70
     1
102
RTVSPost2010Prop55
280
     0
102
RTVSPost2010PropOp55
 70
     1
102
RTVSPost2010Prop56
140
1.0
102
RTVSPost2010PropOp56
 70
     1
102
RTVSPost2010Prop57
140
1.0
102
RTVSPost2010PropOp57
 70
     1
  0
XRECORD
  5
1CA
102
{ACAD_REACTORS
330
1C9
102
}
330
1C9
100
AcDbXrecord
280
     1
102
RTVSPost2010Prop28
280
     0
102
RTVSPost2010PropOp28
 70
     1
102
RTVSPost2010Prop29
280
     1
102
RTVSPost2010PropOp29
 70
     1
102
RTVSPost2010Prop30
280
     1
102
RTVSPost2010PropOp30
 70
     1
102
RTVSPost2010Prop31
280
     0
102
RTVSPost2010PropOp31
 70
     1
102
RTVSPost2010Prop32
280
     0
102
RTVSPost2010PropOp32
 70
     1
102
RTVSPost2010Prop33
280
     0
102
RTVSPost2010PropOp33
 70
     1
102
RTVSPost2010Prop34
280
     0
102
RTVSPost2010PropOp34
 70
     1
102
RTVSPost2010Prop35
280
     0
102
RTVSPost2010PropOp35
 70
     1
102
RTVSPost2010Prop36
280
     0
102
RTVSPost2010PropOp36
 70
     1
102
RTVSPost2010Prop37
 90
       50
102
RTVSPost2010PropOp37
 70
     1
102
RTVSPost2010Prop38
140
0.0
102
RTVSPost2010PropOp38
 70
     1
102
RTVSPost2010Prop39
140
1.0
102
RTVSPost2010PropOp39
 70
     1
102
RTVSPost2010Prop40
 90
        0
102
RTVSPost2010PropOp40
 70
     1
102
RTVSPost2010Prop41ColorIndex
 90
       18
102
RTVSPost2010Prop41ColorRGB
 90
        0
102
RTVSPost2010PropOp41
 70
     1
102
RTVSPost2010Prop42
 90
       50
102
RTVSPost2010PropOp42
 70
     1
102
RTVSPost2010Prop43
 90
        3
102
RTVSPost2010PropOp43
 70
     1
102
RTVSPost2010Prop44ColorIndex
 90
        5
102
RTVSPost2010Prop44ColorRGB
 90
      255
102
RTVSPost2010PropOp44
 70
     1
102
RTVSPost2010Prop45
280
     0
102
RTVSPost2010PropOp45
 70
     1
102
RTVSPost2010Prop46
 90
       50
102
RTVSPost2010PropOp46
 70
     1
102
RTVSPost2010Prop47
 90
       50
102
RTVSPost2010PropOp47
 70
     1
102
RTVSPost2010Prop48
 90
       50
102
RTVSPost2010PropOp48
 70
     1
102
RTVSPost2010Prop49
280
     0
102
RTVSPost2010PropOp49
 70
     1
102
RTVSPost2010Prop50
 90
       50
102
RTVSPost2010PropOp50
 70
     1
102
RTVSPost2010Prop51ColorIndex
 90
      256
102
RTVSPost2010Prop51ColorRGB
 90
-16777216
102
RTVSPost2010PropOp51
 70
     0
102
RTVSPost2010Prop52
140
1.0
102
RTVSPost2010PropOp52
 70
     0
102
RTVSPost2010Prop53
 90
        2
102
RTVSPost2010PropOp53
 70
     1
102
RTVSPost2010Prop54
  1
strokes_ogs.tif
102
RTVSPost2010PropOp54
 70
     1
102
RTVSPost2010Prop55
280
     0
102
RTVSPost2010PropOp55
 70
     1
102
RTVSPost2010Prop56
140
1.0
102
RTVSPost2010PropOp56
 70
     1
102
RTVSPost2010Prop57
140
1.0
102
RTVSPost2010PropOp57
 70
     1
  0
XRECORD
  5
1C4
102
{ACAD_REACTORS
330
1C3
102
}
330
1C3
100
AcDbXrecord
280
     1
102
RTVSPost2010Prop28
280
     0
102
RTVSPost2010PropOp28
 70
     1
102
RTVSPost2010Prop29
280
     1
102
RTVSPost2010PropOp29
 70
     1
102
RTVSPost2010Prop30
280
     1
102
RTVSPost2010PropOp30
 70
     1
102
RTVSPost2010Prop31
280
     0
102
RTVSPost2010PropOp31
 70
     1
102
RTVSPost2010Prop32
280
     0
102
RTVSPost2010PropOp32
 70
     1
102
RTVSPost2010Prop33
280
     0
102
RTVSPost2010PropOp33
 70
     1
102
RTVSPost2010Prop34
280
     0
102
RTVSPost2010PropOp34
 70
     1
102
RTVSPost2010Prop35
280
     0
102
RTVSPost2010PropOp35
 70
     1
102
RTVSPost2010Prop36
280
     0
102
RTVSPost2010PropOp36
 70
     1
102
RTVSPost2010Prop37
 90
       50
102
RTVSPost2010PropOp37
 70
     1
102
RTVSPost2010Prop38
140
0.0
102
RTVSPost2010PropOp38
 70
     1
102
RTVSPost2010Prop39
140
1.0
102
RTVSPost2010PropOp39
 70
     1
102
RTVSPost2010Prop40
 90
        0
102
RTVSPost2010PropOp40
 70
     1
102
RTVSPost2010Prop41ColorIndex
 90
       18
102
RTVSPost2010Prop41ColorRGB
 90
        0
102
RTVSPost2010PropOp41
 70
     1
102
RTVSPost2010Prop42
 90
       50
102
RTVSPost2010PropOp42
 70
     1
102
RTVSPost2010Prop43
 90
        3
102
RTVSPost2010PropOp43
 70
     1
102
RTVSPost2010Prop44ColorIndex
 90
        5
102
RTVSPost2010Prop44ColorRGB
 90
      255
102
RTVSPost2010PropOp44
 70
     1
102
RTVSPost2010Prop45
280
     0
102
RTVSPost2010PropOp45
 70
     1
102
RTVSPost2010Prop46
 90
       50
102
RTVSPost2010PropOp46
 70
     1
102
RTVSPost2010Prop47
 90
       50
102
RTVSPost2010PropOp47
 70
     1
102
RTVSPost2010Prop48
 90
       50
102
RTVSPost2010PropOp48
 70
     1
102
RTVSPost2010Prop49
280
     0
102
RTVSPost2010PropOp49
 70
     1
102
RTVSPost2010Prop50
 90
       50
102
RTVSPost2010PropOp50
 70
     1
102
RTVSPost2010Prop51ColorIndex
 90
      256
102
RTVSPost2010Prop51ColorRGB
 90
-16777216
102
RTVSPost2010PropOp51
 70
     0
102
RTVSPost2010Prop52
140
1.0
102
RTVSPost2010PropOp52
 70
     0
102
RTVSPost2010Prop53
 90
        2
102
RTVSPost2010PropOp53
 70
     1
102
RTVSPost2010Prop54
  1
strokes_ogs.tif
102
RTVSPost2010PropOp54
 70
     1
102
RTVSPost2010Prop55
280
     0
102
RTVSPost2010PropOp55
 70
     1
102
RTVSPost2010Prop56
140
1.0
102
RTVSPost2010PropOp56
 70
     1
102
RTVSPost2010Prop57
140
1.0
102
RTVSPost2010PropOp57
 70
     1
  0
XRECORD
  5
1C6
102
{ACAD_REACTORS
330
1C5
102
}
330
1C5
100
AcDbXrecord
280
     1
102
RTVSPost2010Prop28
280
     0
102
RTVSPost2010PropOp28
 70
     1
102
RTVSPost2010Prop29
280
     1
102
RTVSPost2010PropOp29
 70
     1
102
RTVSPost2010Prop30
280
     1
102
RTVSPost2010PropOp30
 70
     1
102
RTVSPost2010Prop31
280
     0
102
RTVSPost2010PropOp31
 70
     1
102
RTVSPost2010Prop32
280
     0
102
RTVSPost2010PropOp32
 70
     1
102
RTVSPost2010Prop33
280
     0
102
RTVSPost2010PropOp33
 70
     1
102
RTVSPost2010Prop34
280
     0
102
RTVSPost2010PropOp34
 70
     1
102
RTVSPost2010Prop35
280
     0
102
RTVSPost2010PropOp35
 70
     1
102
RTVSPost2010Prop36
280
     0
102
RTVSPost2010PropOp36
 70
     1
102
RTVSPost2010Prop37
 90
       50
102
RTVSPost2010PropOp37
 70
     1
102
RTVSPost2010Prop38
140
0.0
102
RTVSPost2010PropOp38
 70
     1
102
RTVSPost2010Prop39
140
1.0
102
RTVSPost2010PropOp39
 70
     1
102
RTVSPost2010Prop40
 90
        0
102
RTVSPost2010PropOp40
 70
     1
102
RTVSPost2010Prop41ColorIndex
 90
       18
102
RTVSPost2010Prop41ColorRGB
 90
        0
102
RTVSPost2010PropOp41
 70
     1
102
RTVSPost2010Prop42
 90
       50
102
RTVSPost2010PropOp42
 70
     1
102
RTVSPost2010Prop43
 90
        3
102
RTVSPost2010PropOp43
 70
     1
102
RTVSPost2010Prop44ColorIndex
 90
        5
102
RTVSPost2010Prop44ColorRGB
 90
      255
102
RTVSPost2010PropOp44
 70
     1
102
RTVSPost2010Prop45
280
     0
102
RTVSPost2010PropOp45
 70
     1
102
RTVSPost2010Prop46
 90
       50
102
RTVSPost2010PropOp46
 70
     1
102
RTVSPost2010Prop47
 90
       50
102
RTVSPost2010PropOp47
 70
     1
102
RTVSPost2010Prop48
 90
       50
102
RTVSPost2010PropOp48
 70
     1
102
RTVSPost2010Prop49
280
     0
102
RTVSPost2010PropOp49
 70
     1
102
RTVSPost2010Prop50
 90
       50
102
RTVSPost2010PropOp50
 70
     1
102
RTVSPost2010Prop51ColorIndex
 90
      256
102
RTVSPost2010Prop51ColorRGB
 90
-16777216
102
RTVSPost2010PropOp51
 70
     0
102
RTVSPost2010Prop52
140
1.0
102
RTVSPost2010PropOp52
 70
     0
102
RTVSPost2010Prop53
 90
        2
102
RTVSPost2010PropOp53
 70
     1
102
RTVSPost2010Prop54
  1
strokes_ogs.tif
102
RTVSPost2010PropOp54
 70
     1
102
RTVSPost2010Prop55
280
     0
102
RTVSPost2010PropOp55
 70
     1
102
RTVSPost2010Prop56
140
1.0
102
RTVSPost2010PropOp56
 70
     1
102
RTVSPost2010Prop57
140
1.0
102
RTVSPost2010PropOp57
 70
     1
  0
XRECORD
  5
1BC
102
{ACAD_REACTORS
330
1BB
102
}
330
1BB
100
AcDbXrecord
280
     1
102
RTVSPost2010Prop28
280
     0
102
RTVSPost2010PropOp28
 70
     1
102
RTVSPost2010Prop29
280
     1
102
RTVSPost2010PropOp29
 70
     1
102
RTVSPost2010Prop30
280
     1
102
RTVSPost2010PropOp30
 70
     1
102
RTVSPost2010Prop31
280
     0
102
RTVSPost2010PropOp31
 70
     1
102
RTVSPost2010Prop32
280
     0
102
RTVSPost2010PropOp32
 70
     1
102
RTVSPost2010Prop33
280
     0
102
RTVSPost2010PropOp33
 70
     1
102
RTVSPost2010Prop34
280
     0
102
RTVSPost2010PropOp34
 70
     1
102
RTVSPost2010Prop35
280
     0
102
RTVSPost2010PropOp35
 70
     1
102
RTVSPost2010Prop36
280
     0
102
RTVSPost2010PropOp36
 70
     1
102
RTVSPost2010Prop37
 90
       50
102
RTVSPost2010PropOp37
 70
     1
102
RTVSPost2010Prop38
140
0.0
102
RTVSPost2010PropOp38
 70
     1
102
RTVSPost2010Prop39
140
1.0
102
RTVSPost2010PropOp39
 70
     1
102
RTVSPost2010Prop40
 90
        0
102
RTVSPost2010PropOp40
 70
     1
102
RTVSPost2010Prop41ColorIndex
 90
       18
102
RTVSPost2010Prop41ColorRGB
 90
        0
102
RTVSPost2010PropOp41
 70
     1
102
RTVSPost2010Prop42
 90
       50
102
RTVSPost2010PropOp42
 70
     1
102
RTVSPost2010Prop43
 90
        3
102
RTVSPost2010PropOp43
 70
     1
102
RTVSPost2010Prop44ColorIndex
 90
        5
102
RTVSPost2010Prop44ColorRGB
 90
      255
102
RTVSPost2010PropOp44
 70
     1
102
RTVSPost2010Prop45
280
     0
102
RTVSPost2010PropOp45
 70
     1
102
RTVSPost2010Prop46
 90
       50
102
RTVSPost2010PropOp46
 70
     1
102
RTVSPost2010Prop47
 90
       50
102
RTVSPost2010PropOp47
 70
     1
102
RTVSPost2010Prop48
 90
       50
102
RTVSPost2010PropOp48
 70
     1
102
RTVSPost2010Prop49
280
     0
102
RTVSPost2010PropOp49
 70
     1
102
RTVSPost2010Prop50
 90
       50
102
RTVSPost2010PropOp50
 70
     1
102
RTVSPost2010Prop51ColorIndex
 90
      256
102
RTVSPost2010Prop51ColorRGB
 90
-16777216
102
RTVSPost2010PropOp51
 70
     0
102
RTVSPost2010Prop52
140
1.0
102
RTVSPost2010PropOp52
 70
     0
102
RTVSPost2010Prop53
 90
        2
102
RTVSPost2010PropOp53
 70
     1
102
RTVSPost2010Prop54
  1
strokes_ogs.tif
102
RTVSPost2010PropOp54
 70
     1
102
RTVSPost2010Prop55
280
     0
102
RTVSPost2010PropOp55
 70
     1
102
RTVSPost2010Prop56
140
1.0
102
RTVSPost2010PropOp56
 70
     1
102
RTVSPost2010Prop57
140
1.0
102
RTVSPost2010PropOp57
 70
     1
  0
XRECORD
  5
1B0
102
{ACAD_REACTORS
330
1AF
102
}
330
1AF
100
AcDbXrecord
280
     1
102
RTVSPost2010Prop28
280
     0
102
RTVSPost2010PropOp28
 70
     1
102
RTVSPost2010Prop29
280
     1
102
RTVSPost2010PropOp29
 70
     1
102
RTVSPost2010Prop30
280
     1
102
RTVSPost2010PropOp30
 70
     1
102
RTVSPost2010Prop31
280
     0
102
RTVSPost2010PropOp31
 70
     1
102
RTVSPost2010Prop32
280
     0
102
RTVSPost2010PropOp32
 70
     1
102
RTVSPost2010Prop33
280
     0
102
RTVSPost2010PropOp33
 70
     1
102
RTVSPost2010Prop34
280
     0
102
RTVSPost2010PropOp34
 70
     1
102
RTVSPost2010Prop35
280
     0
102
RTVSPost2010PropOp35
 70
     1
102
RTVSPost2010Prop36
280
     0
102
RTVSPost2010PropOp36
 70
     1
102
RTVSPost2010Prop37
 90
       50
102
RTVSPost2010PropOp37
 70
     1
102
RTVSPost2010Prop38
140
0.0
102
RTVSPost2010PropOp38
 70
     1
102
RTVSPost2010Prop39
140
1.0
102
RTVSPost2010PropOp39
 70
     1
102
RTVSPost2010Prop40
 90
        0
102
RTVSPost2010PropOp40
 70
     1
102
RTVSPost2010Prop41ColorIndex
 90
       18
102
RTVSPost2010Prop41ColorRGB
 90
        0
102
RTVSPost2010PropOp41
 70
     1
102
RTVSPost2010Prop42
 90
       50
102
RTVSPost2010PropOp42
 70
     1
102
RTVSPost2010Prop43
 90
        3
102
RTVSPost2010PropOp43
 70
     1
102
RTVSPost2010Prop44ColorIndex
 90
        5
102
RTVSPost2010Prop44ColorRGB
 90
      255
102
RTVSPost2010PropOp44
 70
     1
102
RTVSPost2010Prop45
280
     0
102
RTVSPost2010PropOp45
 70
     1
102
RTVSPost2010Prop46
 90
       50
102
RTVSPost2010PropOp46
 70
     1
102
RTVSPost2010Prop47
 90
       50
102
RTVSPost2010PropOp47
 70
     1
102
RTVSPost2010Prop48
 90
       50
102
RTVSPost2010PropOp48
 70
     1
102
RTVSPost2010Prop49
280
     0
102
RTVSPost2010PropOp49
 70
     1
102
RTVSPost2010Prop50
 90
       50
102
RTVSPost2010PropOp50
 70
     1
102
RTVSPost2010Prop51ColorIndex
 90
      256
102
RTVSPost2010Prop51ColorRGB
 90
-16777216
102
RTVSPost2010PropOp51
 70
     0
102
RTVSPost2010Prop52
140
1.0
102
RTVSPost2010PropOp52
 70
     0
102
RTVSPost2010Prop53
 90
        2
102
RTVSPost2010PropOp53
 70
     1
102
RTVSPost2010Prop54
  1
strokes_ogs.tif
102
RTVSPost2010PropOp54
 70
     1
102
RTVSPost2010Prop55
280
     0
102
RTVSPost2010PropOp55
 70
     1
102
RTVSPost2010Prop56
140
1.0
102
RTVSPost2010PropOp56
 70
     1
102
RTVSPost2010Prop57
140
1.0
102
RTVSPost2010PropOp57
 70
     1
  0
XRECORD
  5
1C8
102
{ACAD_REACTORS
330
1C7
102
}
330
1C7
100
AcDbXrecord
280
     1
102
RTVSPost2010Prop28
280
     0
102
RTVSPost2010PropOp28
 70
     1
102
RTVSPost2010Prop29
280
     1
102
RTVSPost2010PropOp29
 70
     1
102
RTVSPost2010Prop30
280
     1
102
RTVSPost2010PropOp30
 70
     1
102
RTVSPost2010Prop31
280
     0
102
RTVSPost2010PropOp31
 70
     1
102
RTVSPost2010Prop32
280
     0
102
RTVSPost2010PropOp32
 70
     1
102
RTVSPost2010Prop33
280
     0
102
RTVSPost2010PropOp33
 70
     1
102
RTVSPost2010Prop34
280
     0
102
RTVSPost2010PropOp34
 70
     1
102
RTVSPost2010Prop35
280
     0
102
RTVSPost2010PropOp35
 70
     1
102
RTVSPost2010Prop36
280
     0
102
RTVSPost2010PropOp36
 70
     1
102
RTVSPost2010Prop37
 90
       50
102
RTVSPost2010PropOp37
 70
     1
102
RTVSPost2010Prop38
140
0.0
102
RTVSPost2010PropOp38
 70
     1
102
RTVSPost2010Prop39
140
1.0
102
RTVSPost2010PropOp39
 70
     1
102
RTVSPost2010Prop40
 90
        0
102
RTVSPost2010PropOp40
 70
     1
102
RTVSPost2010Prop41ColorIndex
 90
       18
102
RTVSPost2010Prop41ColorRGB
 90
        0
102
RTVSPost2010PropOp41
 70
     1
102
RTVSPost2010Prop42
 90
       50
102
RTVSPost2010PropOp42
 70
     1
102
RTVSPost2010Prop43
 90
        3
102
RTVSPost2010PropOp43
 70
     1
102
RTVSPost2010Prop44ColorIndex
 90
        5
102
RTVSPost2010Prop44ColorRGB
 90
      255
102
RTVSPost2010PropOp44
 70
     1
102
RTVSPost2010Prop45
280
     0
102
RTVSPost2010PropOp45
 70
     1
102
RTVSPost2010Prop46
 90
       50
102
RTVSPost2010PropOp46
 70
     1
102
RTVSPost2010Prop47
 90
       50
102
RTVSPost2010PropOp47
 70
     1
102
RTVSPost2010Prop48
 90
       50
102
RTVSPost2010PropOp48
 70
     1
102
RTVSPost2010Prop49
280
     0
102
RTVSPost2010PropOp49
 70
     1
102
RTVSPost2010Prop50
 90
       50
102
RTVSPost2010PropOp50
 70
     1
102
RTVSPost2010Prop51ColorIndex
 90
      256
102
RTVSPost2010Prop51ColorRGB
 90
-16777216
102
RTVSPost2010PropOp51
 70
     0
102
RTVSPost2010Prop52
140
1.0
102
RTVSPost2010PropOp52
 70
     0
102
RTVSPost2010Prop53
 90
        2
102
RTVSPost2010PropOp53
 70
     1
102
RTVSPost2010Prop54
  1
strokes_ogs.tif
102
RTVSPost2010PropOp54
 70
     1
102
RTVSPost2010Prop55
280
     0
102
RTVSPost2010PropOp55
 70
     1
102
RTVSPost2010Prop56
140
1.0
102
RTVSPost2010PropOp56
 70
     1
102
RTVSPost2010Prop57
140
1.0
102
RTVSPost2010PropOp57
 70
     1
  0
ENDSEC
  0
EOF
