  0
SECTION
  2
HEADER
  9
$ACADVER
  1
AC1024
  9
$ACADMAINTVER
 70
     6
  9
$DWGCODEPAGE
  3
UNDEFINED
  9
$INSBASE
 10
0.0
 20
0.0
 30
0.0
  9
$EXTMIN
 10
1.000000000000000E+20
 20
1.000000000000000E+20
 30
1.000000000000000E+20
  9
$EXTMAX
 10
-1.000000000000000E+20
 20
-1.000000000000000E+20
 30
-1.000000000000000E+20
  9
$LIMMIN
 10
0.0
 20
0.0
  9
$LIMMAX
 10
12.0
 20
9.0
  9
$ORTHOMODE
 70
     0
  9
$REGENMODE
 70
     1
  9
$FILLMODE
 70
     1
  9
$QTEXTMODE
 70
     0
  9
$MIRRTEXT
 70
     1
  9
$LTSCALE
 40
1.0
  9
$ATTMODE
 70
     1
  9
$TEXTSIZE
 40
0.2
  9
$TRACEWID
 40
0.05
  9
$TEXTSTYLE
  7
Standard
  9
$CLAYER
  8
0
  9
$CELTYPE
  6
ByLayer
  9
$CECOLOR
 62
   256
  9
$CELTSCALE
 40
1.0
  9
$DISPSILH
 70
     0
  9
$DIMSCALE
 40
1.0
  9
$DIMASZ
 40
0.18
  9
$DIMEXO
 40
0.0625
  9
$DIMDLI
 40
0.38
  9
$DIMRND
 40
0.0
  9
$DIMDLE
 40
0.0
  9
$DIMEXE
 40
0.18
  9
$DIMTP
 40
0.0
  9
$DIMTM
 40
0.0
  9
$DIMTXT
 40
0.18
  9
$DIMCEN
 40
0.09
  9
$DIMTSZ
 40
0.0
  9
$DIMTOL
 70
     0
  9
$DIMLIM
 70
     0
  9
$DIMTIH
 70
     1
  9
$DIMTOH
 70
     1
  9
$DIMSE1
 70
     0
  9
$DIMSE2
 70
     0
  9
$DIMTAD
 70
     0
  9
$DIMZIN
 70
     0
  9
$DIMBLK
  1

  9
$DIMASO
 70
     1
  9
$DIMSHO
 70
     1
  9
$DIMPOST
  1

  9
$DIMAPOST
  1

  9
$DIMALT
 70
     0
  9
$DIMALTD
 70
     2
  9
$DIMALTF
 40
25.4
  9
$DIMLFAC
 40
1.0
  9
$DIMTOFL
 70
     0
  9
$DIMTVP
 40
0.0
  9
$DIMTIX
 70
     0
  9
$DIMSOXD
 70
     0
  9
$DIMSAH
 70
     0
  9
$DIMBLK1
  1

  9
$DIMBLK2
  1

  9
$DIMSTYLE
  2
Standard
  9
$DIMCLRD
 70
     0
  9
$DIMCLRE
 70
     0
  9
$DIMCLRT
 70
     0
  9
$DIMTFAC
 40
1.0
  9
$DIMGAP
 40
0.09
  9
$DIMJUST
 70
     0
  9
$DIMSD1
 70
     0
  9
$DIMSD2
 70
     0
  9
$DIMTOLJ
 70
     1
  9
$DIMTZIN
 70
     0
  9
$DIMALTZ
 70
     0
  9
$DIMALTTZ
 70
     0
  9
$DIMUPT
 70
     0
  9
$DIMDEC
 70
     4
  9
$DIMTDEC
 70
     4
  9
$DIMALTU
 70
     2
  9
$DIMALTTD
 70
     2
  9
$DIMTXSTY
  7
Standard
  9
$DIMAUNIT
 70
     0
  9
$DIMADEC
 70
     0
  9
$DIMALTRND
 40
0.0
  9
$DIMAZIN
 70
     0
  9
$DIMDSEP
 70
    46
  9
$DIMATFIT
 70
     3
  9
$DIMFRAC
 70
     0
  9
$DIMLDRBLK
  1

  9
$DIMLUNIT
 70
     2
  9
$DIMLWD
 70
    -2
  9
$DIMLWE
 70
    -2
  9
$DIMTMOVE
 70
     0
  9
$DIMFXL
 40
1.0
  9
$DIMFXLON
 70
     0
  9
$DIMJOGANG
 40
0.7853981633974483
  9
$DIMTFILL
 70
     0
  9
$DIMTFILLCLR
 70
     0
  9
$DIMARCSYM
 70
     0
  9
$DIMLTYPE
  6

  9
$DIMLTEX1
  6

  9
$DIMLTEX2
  6

  9
$DIMTXTDIRECTION
 70
     0
  9
$LUNITS
 70
     2
  9
$LUPREC
 70
     4
  9
$SKETCHINC
 40
0.1
  9
$FILLETRAD
 40
0.5
  9
$AUNITS
 70
     0
  9
$AUPREC
 70
     0
  9
$MENU
  1
.
  9
$ELEVATION
 40
0.0
  9
$PELEVATION
 40
0.0
  9
$THICKNESS
 40
0.0
  9
$LIMCHECK
 70
     0
  9
$CHAMFERA
 40
0.5
  9
$CHAMFERB
 40
0.5
  9
$CHAMFERC
 40
1.0
  9
$CHAMFERD
 40
0.0
  9
$SKPOLY
 70
     0
  9
$TDCREATE
 40
2457917.595462963
  9
$TDUCREATE
 40
2457917.220462963
  9
$TDUPDATE
 40
2457917.595462963
  9
$TDUUPDATE
 40
2457917.220462963
  9
$TDINDWG
 40
0.0000000116
  9
$TDUSRTIMER
 40
0.0000000116
  9
$USRTIMER
 70
     1
  9
$ANGBASE
 50
0.0
  9
$ANGDIR
 70
     0
  9
$PDMODE
 70
     0
  9
$PDSIZE
 40
0.0
  9
$PLINEWID
 40
0.0
  9
$SPLFRAME
 70
     0
  9
$SPLINETYPE
 70
     6
  9
$SPLINESEGS
 70
     8
  9
$HANDSEED
  5
181
  9
$SURFTAB1
 70
     6
  9
$SURFTAB2
 70
     6
  9
$SURFTYPE
 70
     6
  9
$SURFU
 70
     6
  9
$SURFV
 70
     6
  9
$UCSBASE
  2

  9
$UCSNAME
  2

  9
$UCSORG
 10
0.0
 20
0.0
 30
0.0
  9
$UCSXDIR
 10
1.0
 20
0.0
 30
0.0
  9
$UCSYDIR
 10
0.0
 20
1.0
 30
0.0
  9
$UCSORTHOREF
  2

  9
$UCSORTHOVIEW
 70
     0
  9
$UCSORGTOP
 10
0.0
 20
0.0
 30
0.0
  9
$UCSORGBOTTOM
 10
0.0
 20
0.0
 30
0.0
  9
$UCSORGLEFT
 10
0.0
 20
0.0
 30
0.0
  9
$UCSORGRIGHT
 10
0.0
 20
0.0
 30
0.0
  9
$UCSORGFRONT
 10
0.0
 20
0.0
 30
0.0
  9
$UCSORGBACK
 10
0.0
 20
0.0
 30
0.0
  9
$PUCSBASE
  2

  9
$PUCSNAME
  2

  9
$PUCSORG
 10
0.0
 20
0.0
 30
0.0
  9
$PUCSXDIR
 10
1.0
 20
0.0
 30
0.0
  9
$PUCSYDIR
 10
0.0
 20
1.0
 30
0.0
  9
$PUCSORTHOREF
  2

  9
$PUCSORTHOVIEW
 70
     0
  9
$PUCSORGTOP
 10
0.0
 20
0.0
 30
0.0
  9
$PUCSORGBOTTOM
 10
0.0
 20
0.0
 30
0.0
  9
$PUCSORGLEFT
 10
0.0
 20
0.0
 30
0.0
  9
$PUCSORGRIGHT
 10
0.0
 20
0.0
 30
0.0
  9
$PUCSORGFRONT
 10
0.0
 20
0.0
 30
0.0
  9
$PUCSORGBACK
 10
0.0
 20
0.0
 30
0.0
  9
$USERI1
 70
     0
  9
$USERI2
 70
     0
  9
$USERI3
 70
     0
  9
$USERI4
 70
     0
  9
$USERI5
 70
     0
  9
$USERR1
 40
0.0
  9
$USERR2
 40
0.0
  9
$USERR3
 40
0.0
  9
$USERR4
 40
0.0
  9
$USERR5
 40
0.0
  9
$WORLDVIEW
 70
     1
  9
$SHADEDGE
 70
     3
  9
$SHADEDIF
 70
    70
  9
$TILEMODE
 70
     1
  9
$MAXACTVP
 70
    64
  9
$PINSBASE
 10
0.0
 20
0.0
 30
0.0
  9
$PLIMCHECK
 70
     0
  9
$PEXTMIN
 10
1.000000000000000E+20
 20
1.000000000000000E+20
 30
1.000000000000000E+20
  9
$PEXTMAX
 10
-1.000000000000000E+20
 20
-1.000000000000000E+20
 30
-1.000000000000000E+20
  9
$PLIMMIN
 10
0.0
 20
0.0
  9
$PLIMMAX
 10
12.0
 20
9.0
  9
$UNITMODE
 70
     0
  9
$VISRETAIN
 70
     1
  9
$PLINEGEN
 70
     0
  9
$PSLTSCALE
 70
     1
  9
$TREEDEPTH
 70
  3020
  9
$CMLSTYLE
  2
Standard
  9
$CMLJUST
 70
     0
  9
$CMLSCALE
 40
1.0
  9
$PROXYGRAPHICS
 70
     1
  9
$MEASUREMENT
 70
     0
  9
$CELWEIGHT
370
    -1
  9
$ENDCAPS
280
     0
  9
$JOINSTYLE
280
     0
  9
$LWDISPLAY
290
     1
  9
$INSUNITS
 70
     1
  9
$HYPERLINKBASE
  1

  9
$STYLESHEET
  1

  9
$XEDIT
290
     1
  9
$CEPSNTYPE
380
     0
  9
$PSTYLEMODE
290
     1
  9
$FINGERPRINTGUID
  2
{1474B241-975D-E55D-5EC8-5AD4637F69D9}
  9
$VERSIONGUID
  2
{FAEB1C32-E019-11D5-929B-00C0DF256EC4}
  9
$EXTNAMES
290
     1
  9
$PSVPSCALE
 40
0.0
  9
$OLESTARTUP
290
     0
  9
$SORTENTS
280
   127
  9
$INDEXCTL
280
     0
  9
$HIDETEXT
280
     1
  9
$XCLIPFRAME
280
     2
  9
$HALOGAP
280
     0
  9
$OBSCOLOR
 70
   257
  9
$OBSLTYPE
280
     0
  9
$INTERSECTIONDISPLAY
280
     0
  9
$INTERSECTIONCOLOR
 70
   257
  9
$DIMASSOC
280
     2
  9
$PROJECTNAME
  1

  9
$CAMERADISPLAY
290
     0
  9
$LENSLENGTH
 40
50.0
  9
$CAMERAHEIGHT
 40
0.0
  9
$STEPSPERSEC
 40
2.0
  9
$STEPSIZE
 40
6.0
  9
$3DDWFPREC
 40
2.0
  9
$PSOLWIDTH
 40
0.25
  9
$PSOLHEIGHT
 40
4.0
  9
$LOFTANG1
 40
1.570796326794897
  9
$LOFTANG2
 40
1.570796326794897
  9
$LOFTMAG1
 40
0.0
  9
$LOFTMAG2
 40
0.0
  9
$LOFTPARAM
 70
     7
  9
$LOFTNORMALS
280
     1
  9
$LATITUDE
 40
37.795
  9
$LONGITUDE
 40
-122.394
  9
$NORTHDIRECTION
 40
0.0
  9
$TIMEZONE
 70
 -8000
  9
$LIGHTGLYPHDISPLAY
280
     1
  9
$TILEMODELIGHTSYNCH
280
     1
  9
$CMATERIAL
347
3C
  9
$SOLIDHIST
280
     1
  9
$SHOWHIST
280
     1
  9
$DWFFRAME
280
     2
  9
$DGNFRAME
280
     2
  9
$REALWORLDSCALE
290
     1
  9
$INTERFERECOLOR
 62
   256
  9
$CSHADOW
280
     0
  9
$SHADOWPLANELOCATION
 40
0.0
  0
ENDSEC
  0
SECTION
  2
CLASSES
  0
CLASS
  1
ACDBDICTIONARYWDFLT
  2
AcDbDictionaryWithDefault
  3
ObjectDBX Classes
 90
        0
 91
        4
280
     0
281
     0
  0
CLASS
  1
VISUALSTYLE
  2
AcDbVisualStyle
  3
ObjectDBX Classes
 90
     4095
 91
        4
280
     0
281
     0
  0
CLASS
  1
MATERIAL
  2
AcDbMaterial
  3
ObjectDBX Classes
 90
     1153
 91
        4
280
     0
281
     0
  0
CLASS
  1
SUN
  2
AcDbSun
  3
SCENEOE
 90
     1024
 91
        4
280
     0
281
     0
  0
ENDSEC
  0
SECTION
  2
TABLES
  0
TABLE
  2
VPORT
  5
8
330
0
100
AcDbSymbolTable
 70
     1
  0
VPORT
  5
29
330
8
100
AcDbSymbolTableRecord
100
AcDbViewportTableRecord
  2
*Active
 70
     0
 10
0.0
 20
0.0
 11
1.0
 21
1.0
 12
0.0
 22
0.0
 13
0.0
 23
0.0
 14
0.5
 24
0.5
 15
0.5
 25
0.5
 16
0.0
 26
0.0
 36
1.0
 17
91.00082462281999
 27
-128.4993055234307
 37
0.0
 40
256.9986110468615
 41
0.7081814508812795
 42
50.0
 43
0.0
 44
0.0
 50
0.0
 51
0.0
 71
     0
 72
   100
 73
     1
 74
     3
 75
     0
 76
     0
 77
     0
 78
     0
281
     0
 65
     1
110
0.0
120
0.0
130
0.0
111
1.0
121
0.0
131
0.0
112
0.0
122
1.0
132
0.0
 79
     0
146
0.0
 60
     3
 61
     5
292
     1
282
     1
141
0.0
142
0.0
 63
   250
361
3F
  0
ENDTAB
  0
TABLE
  2
LTYPE
  5
5
330
0
100
AcDbSymbolTable
 70
     1
  0
LTYPE
  5
14
330
5
100
AcDbSymbolTableRecord
100
AcDbLinetypeTableRecord
  2
ByBlock
 70
     0
  3

 72
    65
 73
     0
 40
0.0
  0
LTYPE
  5
15
330
5
100
AcDbSymbolTableRecord
100
AcDbLinetypeTableRecord
  2
ByLayer
 70
     0
  3

 72
    65
 73
     0
 40
0.0
  0
LTYPE
  5
16
330
5
100
AcDbSymbolTableRecord
100
AcDbLinetypeTableRecord
  2
Continuous
 70
     0
  3
Solid line
 72
    65
 73
     0
 40
0.0
  0
ENDTAB
  0
TABLE
  2
LAYER
  5
2
330
0
100
AcDbSymbolTable
 70
     2
  0
LAYER
  5
10
330
2
100
AcDbSymbolTableRecord
100
AcDbLayerTableRecord
  2
0
 70
     0
 62
     7
  6
Continuous
370
    -3
390
F
347
3E
  0
LAYER
  5
40
330
2
100
AcDbSymbolTableRecord
100
AcDbLayerTableRecord
  2
_U+30EC_U+30A4_U+30E4_U+30FC 1
 70
     0
 62
     7
  6
Continuous
370
    -3
390
F
347
3E
  0
ENDTAB
  0
TABLE
  2
STYLE
  5
3
330
0
100
AcDbSymbolTable
 70
     1
  0
STYLE
  5
11
330
3
100
AcDbSymbolTableRecord
100
AcDbTextStyleTableRecord
  2
Standard
 70
     0
 40
0.0
 41
1.0
 50
0.0
 71
     0
 42
0.2
  3
txt
  4

  0
ENDTAB
  0
TABLE
  2
VIEW
  5
6
330
0
100
AcDbSymbolTable
 70
     0
  0
ENDTAB
  0
TABLE
  2
UCS
  5
7
330
0
100
AcDbSymbolTable
 70
     0
  0
ENDTAB
  0
TABLE
  2
APPID
  5
9
330
0
100
AcDbSymbolTable
 70
     1
  0
APPID
  5
12
330
9
100
AcDbSymbolTableRecord
100
AcDbRegAppTableRecord
  2
ACAD
 70
     0
  0
ENDTAB
  0
TABLE
  2
DIMSTYLE
  5
A
330
0
100
AcDbSymbolTable
 70
     1
100
AcDbDimStyleTable
  0
DIMSTYLE
105
27
330
A
100
AcDbSymbolTableRecord
100
AcDbDimStyleTableRecord
  2
Standard
 70
     0
178
     0
340
11
  0
ENDTAB
  0
TABLE
  2
BLOCK_RECORD
  5
1
330
0
100
AcDbSymbolTable
 70
    10
  0
BLOCK_RECORD
  5
1F
330
1
100
AcDbSymbolTableRecord
100
AcDbBlockTableRecord
  2
*Model_Space
340
22
 70
     0
280
     1
281
     0
  0
BLOCK_RECORD
  5
1B
330
1
100
AcDbSymbolTableRecord
100
AcDbBlockTableRecord
  2
*Paper_Space
340
1E
 70
     0
280
     1
281
     0
  0
BLOCK_RECORD
  5
23
330
1
100
AcDbSymbolTableRecord
100
AcDbBlockTableRecord
  2
*Paper_Space0
340
26
 70
     0
280
     1
281
     0
  0
BLOCK_RECORD
  5
A6
330
1
100
AcDbSymbolTableRecord
100
AcDbBlockTableRecord
  2
block 2
340
0
102
{BLKREFS
331
A7
102
}
 70
     0
280
     1
281
     0
  0
BLOCK_RECORD
  5
B8
330
1
100
AcDbSymbolTableRecord
100
AcDbBlockTableRecord
  2
block 3
340
0
102
{BLKREFS
331
B9
102
}
 70
     0
280
     1
281
     0
  0
BLOCK_RECORD
  5
CE
330
1
100
AcDbSymbolTableRecord
100
AcDbBlockTableRecord
  2
block 4
340
0
102
{BLKREFS
331
CF
102
}
 70
     0
280
     1
281
     0
  0
BLOCK_RECORD
  5
E0
330
1
100
AcDbSymbolTableRecord
100
AcDbBlockTableRecord
  2
block 5
340
0
102
{BLKREFS
331
E1
102
}
 70
     0
280
     1
281
     0
  0
BLOCK_RECORD
  5
FE
330
1
100
AcDbSymbolTableRecord
100
AcDbBlockTableRecord
  2
block 6
340
0
102
{BLKREFS
331
FF
102
}
 70
     0
280
     1
281
     0
  0
BLOCK_RECORD
  5
11D
330
1
100
AcDbSymbolTableRecord
100
AcDbBlockTableRecord
  2
block 7
340
0
102
{BLKREFS
331
11E
102
}
 70
     0
280
     1
281
     0
  0
BLOCK_RECORD
  5
133
330
1
100
AcDbSymbolTableRecord
100
AcDbBlockTableRecord
  2
block 8
340
0
102
{BLKREFS
331
134
102
}
 70
     0
280
     1
281
     0
  0
BLOCK_RECORD
  5
153
330
1
100
AcDbSymbolTableRecord
100
AcDbBlockTableRecord
  2
block 9
340
0
102
{BLKREFS
331
154
102
}
 70
     0
280
     1
281
     0
  0
BLOCK_RECORD
  5
176
330
1
100
AcDbSymbolTableRecord
100
AcDbBlockTableRecord
  2
block 10
340
0
102
{BLKREFS
331
177
102
}
 70
     0
280
     1
281
     0
  0
ENDTAB
  0
ENDSEC
  0
SECTION
  2
BLOCKS
  0
BLOCK
  5
20
330
1F
100
AcDbEntity
  8
0
100
AcDbBlockBegin
  2
*Model_Space
 70
     0
 10
0.0
 20
0.0
 30
0.0
  3
*Model_Space
  1

  0
ENDBLK
  5
21
330
1F
100
AcDbEntity
  8
0
100
AcDbBlockEnd
  0
BLOCK
  5
1C
330
1B
100
AcDbEntity
 67
     1
  8
0
100
AcDbBlockBegin
  2
*Paper_Space
 70
     0
 10
0.0
 20
0.0
 30
0.0
  3
*Paper_Space
  1

  0
ENDBLK
  5
1D
330
1B
100
AcDbEntity
 67
     1
  8
0
100
AcDbBlockEnd
  0
BLOCK
  5
24
330
23
100
AcDbEntity
  8
0
100
AcDbBlockBegin
  2
*Paper_Space0
 70
     0
 10
0.0
 20
0.0
 30
0.0
  3
*Paper_Space0
  1

  0
ENDBLK
  5
25
330
23
100
AcDbEntity
  8
0
100
AcDbBlockEnd
  0
BLOCK
  5
A8
330
A6
100
AcDbEntity
  8
0
100
AcDbBlockBegin
  2
block 2
 70
     0
 10
0.0
 20
0.0
 30
0.0
  3
block 2
  1

  0
SPLINE
  5
AA
330
A6
100
AcDbEntity
  8
_U+30EC_U+30A4_U+30E4_U+30FC 1
370
     0
100
AcDbSpline
210
0.0
220
0.0
230
1.0
 70
    11
 71
     3
 72
    26
 73
    22
 74
     0
 42
0.0000000001
 43
0.0000000001
 12
1.0
 22
0.0
 32
0.0
 13
1.0
 23
0.0
 33
0.0
 40
0.0
 40
0.0
 40
0.0
 40
0.0
 40
1.0
 40
1.0
 40
1.0
 40
2.0
 40
2.0
 40
2.0
 40
3.0
 40
3.0
 40
3.0
 40
4.0
 40
4.0
 40
4.0
 40
5.0
 40
5.0
 40
5.0
 40
6.0
 40
6.0
 40
6.0
 40
7.0
 40
7.0
 40
7.0
 40
7.0
 10
87.72194957659383
 20
-120.7969332922834
 30
0.0
 10
87.72194957659383
 20
-120.7969332922834
 30
0.0
 10
87.4850992619829
 20
-120.7969332922834
 30
0.0
 10
87.4850992619829
 20
-120.7969332922834
 30
0.0
 10
87.51042071379948
 20
-120.4880804820308
 30
0.0
 10
87.70300155142495
 20
-119.9697658662749
 30
0.0
 10
88.1091783091359
 20
-119.4641981038145
 30
0.0
 10
88.1091783091359
 20
-119.4641981038145
 30
0.0
 10
87.27133108712314
 20
-119.4641981038145
 30
0.0
 10
87.27133108712314
 20
-119.4641981038145
 30
0.0
 10
87.27133108712314
 20
-119.4641981038145
 30
0.0
 10
87.27133108712314
 20
-119.2526692410202
 30
0.0
 10
87.27133108712314
 20
-119.2526692410202
 30
0.0
 10
87.27133108712314
 20
-119.2526692410202
 30
0.0
 10
88.34602862374683
 20
-119.2526692410202
 30
0.0
 10
88.34602862374683
 20
-119.2526692410202
 30
0.0
 10
88.34602862374683
 20
-119.2526692410202
 30
0.0
 10
88.34602862374683
 20
-119.4641981038145
 30
0.0
 10
88.34602862374683
 20
-119.4641981038145
 30
0.0
 10
88.0223619029076
 20
-119.753930634124
 30
0.0
 10
87.75588376712354
 20
-120.3463148028127
 30
0.0
 10
87.72194957659383
 20
-120.7969332922834
 30
0.0
  0
HATCH
  5
AB
330
A6
100
AcDbEntity
  8
_U+30EC_U+30A4_U+30E4_U+30FC 1
 62
     7
420
 16777215
100
AcDbHatch
 10
0.0
 20
0.0
 30
0.0
210
0.0
220
0.0
230
1.0
  2
SOLID
 70
     1
 71
     0
 91
        1
 92
        1
 93
        1
 72
     4
 94
        3
 73
     0
 74
     1
 95
       26
 96
       22
 40
0.0
 40
0.0
 40
0.0
 40
0.0
 40
1.0
 40
1.0
 40
1.0
 40
2.0
 40
2.0
 40
2.0
 40
3.0
 40
3.0
 40
3.0
 40
4.0
 40
4.0
 40
4.0
 40
5.0
 40
5.0
 40
5.0
 40
6.0
 40
6.0
 40
6.0
 40
7.0
 40
7.0
 40
7.0
 40
7.0
 10
87.72194957659383
 20
-120.7969332922834
 10
87.72194957659383
 20
-120.7969332922834
 10
87.4850992619829
 20
-120.7969332922834
 10
87.4850992619829
 20
-120.7969332922834
 10
87.51042071379948
 20
-120.4880804820308
 10
87.70300155142495
 20
-119.9697658662749
 10
88.1091783091359
 20
-119.4641981038145
 10
88.1091783091359
 20
-119.4641981038145
 10
87.27133108712314
 20
-119.4641981038145
 10
87.27133108712314
 20
-119.4641981038145
 10
87.27133108712314
 20
-119.4641981038145
 10
87.27133108712314
 20
-119.2526692410202
 10
87.27133108712314
 20
-119.2526692410202
 10
87.27133108712314
 20
-119.2526692410202
 10
88.34602862374683
 20
-119.2526692410202
 10
88.34602862374683
 20
-119.2526692410202
 10
88.34602862374683
 20
-119.2526692410202
 10
88.34602862374683
 20
-119.4641981038145
 10
88.34602862374683
 20
-119.4641981038145
 10
88.0223619029076
 20
-119.753930634124
 10
87.75588376712354
 20
-120.3463148028127
 10
87.72194957659383
 20
-120.7969332922834
 97
        0
 97
        0
 75
     2
 76
     1
 98
        0
  0
ENDBLK
  5
A9
330
A6
100
AcDbEntity
  8
0
100
AcDbBlockEnd
  0
BLOCK
  5
BA
330
B8
100
AcDbEntity
  8
0
100
AcDbBlockBegin
  2
block 3
 70
     0
 10
0.0
 20
0.0
 30
0.0
  3
block 3
  1

  0
SPLINE
  5
BC
330
B8
100
AcDbEntity
  8
_U+30EC_U+30A4_U+30E4_U+30FC 1
370
     0
100
AcDbSpline
210
0.0
220
0.0
230
1.0
 70
    11
 71
     3
 72
    26
 73
    22
 74
     0
 42
0.0000000001
 43
0.0000000001
 12
1.0
 22
0.0
 32
0.0
 13
1.0
 23
0.0
 33
0.0
 40
0.0
 40
0.0
 40
0.0
 40
0.0
 40
1.0
 40
1.0
 40
1.0
 40
2.0
 40
2.0
 40
2.0
 40
3.0
 40
3.0
 40
3.0
 40
4.0
 40
4.0
 40
4.0
 40
5.0
 40
5.0
 40
5.0
 40
6.0
 40
6.0
 40
6.0
 40
7.0
 40
7.0
 40
7.0
 40
7.0
 10
93.7152099375087
 20
-129.0391519859694
 30
0.0
 10
93.7152099375087
 20
-129.0391519859694
 30
0.0
 10
93.7152099375087
 20
-129.2761745553546
 30
0.0
 10
93.7152099375087
 20
-129.2761745553546
 30
0.0
 10
93.40618487248179
 20
-129.2506808487637
 30
0.0
 10
92.88804251150022
 20
-129.0581000111383
 30
0.0
 10
92.38230249426555
 20
-128.6519232534273
 30
0.0
 10
92.38230249426555
 20
-128.6519232534273
 30
0.0
 10
92.38230249426555
 20
-129.4897704754401
 30
0.0
 10
92.38230249426555
 20
-129.4897704754401
 30
0.0
 10
92.38230249426555
 20
-129.4897704754401
 30
0.0
 10
92.1707736314712
 20
-129.4897704754401
 30
0.0
 10
92.1707736314712
 20
-129.4897704754401
 30
0.0
 10
92.1707736314712
 20
-129.4897704754401
 30
0.0
 10
92.1707736314712
 20
-128.4150729388164
 30
0.0
 10
92.1707736314712
 20
-128.4150729388164
 30
0.0
 10
92.1707736314712
 20
-128.4150729388164
 30
0.0
 10
92.38230249426555
 20
-128.4150729388164
 30
0.0
 10
92.38230249426555
 20
-128.4150729388164
 30
0.0
 10
92.67237953412358
 20
-128.7387396596556
 30
0.0
 10
93.26459144803802
 20
-129.0053900502139
 30
0.0
 10
93.7152099375087
 20
-129.0391519859694
 30
0.0
  0
HATCH
  5
BD
330
B8
100
AcDbEntity
  8
_U+30EC_U+30A4_U+30E4_U+30FC 1
 62
     7
420
 16777215
100
AcDbHatch
 10
0.0
 20
0.0
 30
0.0
210
0.0
220
0.0
230
1.0
  2
SOLID
 70
     1
 71
     0
 91
        1
 92
        1
 93
        1
 72
     4
 94
        3
 73
     0
 74
     1
 95
       26
 96
       22
 40
0.0
 40
0.0
 40
0.0
 40
0.0
 40
1.0
 40
1.0
 40
1.0
 40
2.0
 40
2.0
 40
2.0
 40
3.0
 40
3.0
 40
3.0
 40
4.0
 40
4.0
 40
4.0
 40
5.0
 40
5.0
 40
5.0
 40
6.0
 40
6.0
 40
6.0
 40
7.0
 40
7.0
 40
7.0
 40
7.0
 10
93.7152099375087
 20
-129.0391519859694
 10
93.7152099375087
 20
-129.0391519859694
 10
93.7152099375087
 20
-129.2761745553546
 10
93.7152099375087
 20
-129.2761745553546
 10
93.40618487248179
 20
-129.2506808487637
 10
92.88804251150022
 20
-129.0581000111383
 10
92.38230249426555
 20
-128.6519232534273
 10
92.38230249426555
 20
-128.6519232534273
 10
92.38230249426555
 20
-129.4897704754401
 10
92.38230249426555
 20
-129.4897704754401
 10
92.38230249426555
 20
-129.4897704754401
 10
92.1707736314712
 20
-129.4897704754401
 10
92.1707736314712
 20
-129.4897704754401
 10
92.1707736314712
 20
-129.4897704754401
 10
92.1707736314712
 20
-128.4150729388164
 10
92.1707736314712
 20
-128.4150729388164
 10
92.1707736314712
 20
-128.4150729388164
 10
92.38230249426555
 20
-128.4150729388164
 10
92.38230249426555
 20
-128.4150729388164
 10
92.67237953412358
 20
-128.7387396596556
 10
93.26459144803802
 20
-129.0053900502139
 10
93.7152099375087
 20
-129.0391519859694
 97
        0
 97
        0
 75
     2
 76
     1
 98
        0
  0
ENDBLK
  5
BB
330
B8
100
AcDbEntity
  8
0
100
AcDbBlockEnd
  0
BLOCK
  5
D0
330
CE
100
AcDbEntity
  8
0
100
AcDbBlockBegin
  2
block 4
 70
     0
 10
0.0
 20
0.0
 30
0.0
  3
block 4
  1

  0
SPLINE
  5
D2
330
CE
100
AcDbEntity
  8
_U+30EC_U+30A4_U+30E4_U+30FC 1
370
     0
100
AcDbSpline
210
0.0
220
0.0
230
1.0
 70
    11
 71
     3
 72
    26
 73
    22
 74
     0
 42
0.0000000001
 43
0.0000000001
 12
1.0
 22
0.0
 32
0.0
 13
1.0
 23
0.0
 33
0.0
 40
0.0
 40
0.0
 40
0.0
 40
0.0
 40
1.0
 40
1.0
 40
1.0
 40
2.0
 40
2.0
 40
2.0
 40
3.0
 40
3.0
 40
3.0
 40
4.0
 40
4.0
 40
4.0
 40
5.0
 40
5.0
 40
5.0
 40
6.0
 40
6.0
 40
6.0
 40
7.0
 40
7.0
 40
7.0
 40
7.0
 10
87.26478540570118
 20
-128.7962727542593
 30
0.0
 10
87.26478540570118
 20
-128.7962727542593
 30
0.0
 10
87.26478540570118
 20
-127.6921196512367
 30
0.0
 10
87.26478540570118
 20
-127.6921196512367
 30
0.0
 10
87.26478540570118
 20
-127.6921196512367
 30
0.0
 10
86.93474525821424
 20
-127.6921196512367
 30
0.0
 10
86.93474525821424
 20
-127.6921196512367
 30
0.0
 10
86.93474525821424
 20
-127.6921196512367
 30
0.0
 10
86.93474525821424
 20
-127.543980545371
 30
0.0
 10
86.93474525821424
 20
-127.543980545371
 30
0.0
 10
87.26685246299232
 20
-127.5293388895586
 30
0.0
 10
87.3133612520432
 20
-127.3663858731063
 30
0.0
 10
87.34298907321634
 20
-127.2521809577703
 30
0.0
 10
87.34298907321634
 20
-127.2521809577703
 30
0.0
 10
87.48906112179094
 20
-127.2521809577703
 30
0.0
 10
87.48906112179094
 20
-127.2521809577703
 30
0.0
 10
87.48906112179094
 20
-127.2521809577703
 30
0.0
 10
87.48906112179094
 20
-128.7962727542593
 30
0.0
 10
87.48906112179094
 20
-128.7962727542593
 30
0.0
 10
87.48906112179094
 20
-128.7962727542593
 30
0.0
 10
87.26478540570118
 20
-128.7962727542593
 30
0.0
 10
87.26478540570118
 20
-128.7962727542593
 30
0.0
  0
HATCH
  5
D3
330
CE
100
AcDbEntity
  8
_U+30EC_U+30A4_U+30E4_U+30FC 1
 62
     7
420
 16777215
100
AcDbHatch
 10
0.0
 20
0.0
 30
0.0
210
0.0
220
0.0
230
1.0
  2
SOLID
 70
     1
 71
     0
 91
        1
 92
        1
 93
        1
 72
     4
 94
        3
 73
     0
 74
     1
 95
       26
 96
       22
 40
0.0
 40
0.0
 40
0.0
 40
0.0
 40
1.0
 40
1.0
 40
1.0
 40
2.0
 40
2.0
 40
2.0
 40
3.0
 40
3.0
 40
3.0
 40
4.0
 40
4.0
 40
4.0
 40
5.0
 40
5.0
 40
5.0
 40
6.0
 40
6.0
 40
6.0
 40
7.0
 40
7.0
 40
7.0
 40
7.0
 10
87.26478540570118
 20
-128.7962727542593
 10
87.26478540570118
 20
-128.7962727542593
 10
87.26478540570118
 20
-127.6921196512367
 10
87.26478540570118
 20
-127.6921196512367
 10
87.26478540570118
 20
-127.6921196512367
 10
86.93474525821424
 20
-127.6921196512367
 10
86.93474525821424
 20
-127.6921196512367
 10
86.93474525821424
 20
-127.6921196512367
 10
86.93474525821424
 20
-127.543980545371
 10
86.93474525821424
 20
-127.543980545371
 10
87.26685246299232
 20
-127.5293388895586
 10
87.3133612520432
 20
-127.3663858731063
 10
87.34298907321634
 20
-127.2521809577703
 10
87.34298907321634
 20
-127.2521809577703
 10
87.48906112179094
 20
-127.2521809577703
 10
87.48906112179094
 20
-127.2521809577703
 10
87.48906112179094
 20
-127.2521809577703
 10
87.48906112179094
 20
-128.7962727542593
 10
87.48906112179094
 20
-128.7962727542593
 10
87.48906112179094
 20
-128.7962727542593
 10
87.26478540570118
 20
-128.7962727542593
 10
87.26478540570118
 20
-128.7962727542593
 97
        0
 97
        0
 75
     2
 76
     1
 98
        0
  0
ENDBLK
  5
D1
330
CE
100
AcDbEntity
  8
0
100
AcDbBlockEnd
  0
BLOCK
  5
E2
330
E0
100
AcDbEntity
  8
0
100
AcDbBlockBegin
  2
block 5
 70
     0
 10
0.0
 20
0.0
 30
0.0
  3
block 5
  1

  0
SPLINE
  5
E4
330
E0
100
AcDbEntity
  8
_U+30EC_U+30A4_U+30E4_U+30FC 1
370
     0
100
AcDbSpline
210
0.0
220
0.0
230
1.0
 70
    11
 71
     3
 72
    44
 73
    40
 74
     0
 42
0.0000000001
 43
0.0000000001
 12
1.0
 22
0.0
 32
0.0
 13
1.0
 23
0.0
 33
0.0
 40
0.0
 40
0.0
 40
0.0
 40
0.0
 40
1.0
 40
1.0
 40
1.0
 40
2.0
 40
2.0
 40
2.0
 40
3.0
 40
3.0
 40
3.0
 40
4.0
 40
4.0
 40
4.0
 40
5.0
 40
5.0
 40
5.0
 40
6.0
 40
6.0
 40
6.0
 40
7.0
 40
7.0
 40
7.0
 40
8.0
 40
8.0
 40
8.0
 40
9.0
 40
9.0
 40
9.0
 40
10.0
 40
10.0
 40
10.0
 40
11.0
 40
11.0
 40
11.0
 40
12.0
 40
12.0
 40
12.0
 40
13.0
 40
13.0
 40
13.0
 40
13.0
 10
89.40281166384722
 20
-139.5149983375171
 30
0.0
 10
89.18508162917942
 20
-139.6738172393871
 30
0.0
 10
89.09206405107768
 20
-139.74788679232
 30
0.0
 10
89.04314369518714
 20
-139.8915472740549
 30
0.0
 10
89.04314369518714
 20
-139.8915472740549
 30
0.0
 10
89.8217352748536
 20
-139.8915472740549
 30
0.0
 10
89.8217352748536
 20
-139.8915472740549
 30
0.0
 10
89.8217352748536
 20
-139.8915472740549
 30
0.0
 10
89.8217352748536
 20
-140.0968749649758
 30
0.0
 10
89.8217352748536
 20
-140.0968749649758
 30
0.0
 10
89.8217352748536
 20
-140.0968749649758
 30
0.0
 10
88.79371878205505
 20
-140.0968749649758
 30
0.0
 10
88.79371878205505
 20
-140.0968749649758
 30
0.0
 10
88.82541366051935
 20
-139.7392740536069
 30
0.0
 10
88.89087047473909
 20
-139.6610703860917
 30
0.0
 10
89.27603214999003
 20
-139.3627251170691
 30
0.0
 10
89.53200274454409
 20
-139.1639431075701
 30
0.0
 10
89.59745955876383
 20
-139.0960747265107
 30
0.0
 10
89.59745955876383
 20
-138.9586154166493
 30
0.0
 10
89.59745955876383
 20
-138.8401041319567
 30
0.0
 10
89.52545706312212
 20
-138.7091905035172
 30
0.0
 10
89.32874211091435
 20
-138.7091905035172
 30
0.0
 10
89.06863740177798
 20
-138.7091905035172
 30
0.0
 10
89.06036917261338
 20
-138.9396673914804
 30
0.0
 10
89.05589054848257
 20
-139.0561116188818
 30
0.0
 10
89.05589054848257
 20
-139.0561116188818
 30
0.0
 10
88.8316148323928
 20
-139.0561116188818
 30
0.0
 10
88.8316148323928
 20
-139.0561116188818
 30
0.0
 10
88.84022757110591
 20
-138.9289875954761
 30
0.0
 10
88.8509073671102
 20
-138.8170219922055
 30
0.0
 10
88.93117809191652
 20
-138.6985107075129
 30
0.0
 10
89.04107663789598
 20
-138.5376247483517
 30
0.0
 10
89.227456303648
 20
-138.5038628125963
 30
0.0
 10
89.34355602150092
 20
-138.5038628125963
 30
0.0
 10
89.62088620806354
 20
-138.5038628125963
 30
0.0
 10
89.82828095627558
 20
-138.6878309115086
 30
0.0
 10
89.82828095627558
 20
-138.9606824739404
 30
0.0
 10
89.82828095627558
 20
-139.189436814161
 30
0.0
 10
89.71183672887413
 20
-139.2886555641362
 30
0.0
 10
89.40281166384722
 20
-139.5149983375171
 30
0.0
  0
HATCH
  5
E5
330
E0
100
AcDbEntity
  8
_U+30EC_U+30A4_U+30E4_U+30FC 1
 62
     7
420
 16777215
100
AcDbHatch
 10
0.0
 20
0.0
 30
0.0
210
0.0
220
0.0
230
1.0
  2
SOLID
 70
     1
 71
     0
 91
        1
 92
        1
 93
        1
 72
     4
 94
        3
 73
     0
 74
     1
 95
       44
 96
       40
 40
0.0
 40
0.0
 40
0.0
 40
0.0
 40
1.0
 40
1.0
 40
1.0
 40
2.0
 40
2.0
 40
2.0
 40
3.0
 40
3.0
 40
3.0
 40
4.0
 40
4.0
 40
4.0
 40
5.0
 40
5.0
 40
5.0
 40
6.0
 40
6.0
 40
6.0
 40
7.0
 40
7.0
 40
7.0
 40
8.0
 40
8.0
 40
8.0
 40
9.0
 40
9.0
 40
9.0
 40
10.0
 40
10.0
 40
10.0
 40
11.0
 40
11.0
 40
11.0
 40
12.0
 40
12.0
 40
12.0
 40
13.0
 40
13.0
 40
13.0
 40
13.0
 10
89.40281166384722
 20
-139.5149983375171
 10
89.18508162917942
 20
-139.6738172393871
 10
89.09206405107768
 20
-139.74788679232
 10
89.04314369518714
 20
-139.8915472740549
 10
89.04314369518714
 20
-139.8915472740549
 10
89.8217352748536
 20
-139.8915472740549
 10
89.8217352748536
 20
-139.8915472740549
 10
89.8217352748536
 20
-139.8915472740549
 10
89.8217352748536
 20
-140.0968749649758
 10
89.8217352748536
 20
-140.0968749649758
 10
89.8217352748536
 20
-140.0968749649758
 10
88.79371878205505
 20
-140.0968749649758
 10
88.79371878205505
 20
-140.0968749649758
 10
88.82541366051935
 20
-139.7392740536069
 10
88.89087047473909
 20
-139.6610703860917
 10
89.27603214999003
 20
-139.3627251170691
 10
89.53200274454409
 20
-139.1639431075701
 10
89.59745955876383
 20
-139.0960747265107
 10
89.59745955876383
 20
-138.9586154166493
 10
89.59745955876383
 20
-138.8401041319567
 10
89.52545706312212
 20
-138.7091905035172
 10
89.32874211091435
 20
-138.7091905035172
 10
89.06863740177798
 20
-138.7091905035172
 10
89.06036917261338
 20
-138.9396673914804
 10
89.05589054848257
 20
-139.0561116188818
 10
89.05589054848257
 20
-139.0561116188818
 10
88.8316148323928
 20
-139.0561116188818
 10
88.8316148323928
 20
-139.0561116188818
 10
88.84022757110591
 20
-138.9289875954761
 10
88.8509073671102
 20
-138.8170219922055
 10
88.93117809191652
 20
-138.6985107075129
 10
89.04107663789598
 20
-138.5376247483517
 10
89.227456303648
 20
-138.5038628125963
 10
89.34355602150092
 20
-138.5038628125963
 10
89.62088620806354
 20
-138.5038628125963
 10
89.82828095627558
 20
-138.6878309115086
 10
89.82828095627558
 20
-138.9606824739404
 10
89.82828095627558
 20
-139.189436814161
 10
89.71183672887413
 20
-139.2886555641362
 10
89.40281166384722
 20
-139.5149983375171
 97
        0
 97
        0
 75
     2
 76
     1
 98
        0
  0
SPLINE
  5
E6
330
E0
100
AcDbEntity
  8
_U+30EC_U+30A4_U+30E4_U+30FC 1
370
     0
100
AcDbSpline
210
0.0
220
0.0
230
1.0
 70
    11
 71
     3
 72
    26
 73
    22
 74
     0
 42
0.0000000001
 43
0.0000000001
 12
1.0
 22
0.0
 32
0.0
 13
1.0
 23
0.0
 33
0.0
 40
0.0
 40
0.0
 40
0.0
 40
0.0
 40
1.0
 40
1.0
 40
1.0
 40
2.0
 40
2.0
 40
2.0
 40
3.0
 40
3.0
 40
3.0
 40
4.0
 40
4.0
 40
4.0
 40
5.0
 40
5.0
 40
5.0
 40
6.0
 40
6.0
 40
6.0
 40
7.0
 40
7.0
 40
7.0
 40
7.0
 10
90.4380628571648
 20
-140.0968749649758
 30
0.0
 10
90.4380628571648
 20
-140.0968749649758
 30
0.0
 10
90.4380628571648
 20
-138.9927218619532
 30
0.0
 10
90.4380628571648
 20
-138.9927218619532
 30
0.0
 10
90.4380628571648
 20
-138.9927218619532
 30
0.0
 10
90.10802270967785
 20
-138.9927218619532
 30
0.0
 10
90.10802270967785
 20
-138.9927218619532
 30
0.0
 10
90.10802270967785
 20
-138.9927218619532
 30
0.0
 10
90.10802270967785
 20
-138.8445827560875
 30
0.0
 10
90.10802270967785
 20
-138.8445827560875
 30
0.0
 10
90.44012991445594
 20
-138.8297688455009
 30
0.0
 10
90.48663870350681
 20
-138.6668158290486
 30
0.0
 10
90.51626652467996
 20
-138.5524386589383
 30
0.0
 10
90.51626652467996
 20
-138.5524386589383
 30
0.0
 10
90.66233857325456
 20
-138.5524386589383
 30
0.0
 10
90.66233857325456
 20
-138.5524386589383
 30
0.0
 10
90.66233857325456
 20
-138.5524386589383
 30
0.0
 10
90.66233857325456
 20
-140.0968749649758
 30
0.0
 10
90.66233857325456
 20
-140.0968749649758
 30
0.0
 10
90.66233857325456
 20
-140.0968749649758
 30
0.0
 10
90.4380628571648
 20
-140.0968749649758
 30
0.0
 10
90.4380628571648
 20
-140.0968749649758
 30
0.0
  0
HATCH
  5
E7
330
E0
100
AcDbEntity
  8
_U+30EC_U+30A4_U+30E4_U+30FC 1
 62
     7
420
 16777215
100
AcDbHatch
 10
0.0
 20
0.0
 30
0.0
210
0.0
220
0.0
230
1.0
  2
SOLID
 70
     1
 71
     0
 91
        1
 92
        1
 93
        1
 72
     4
 94
        3
 73
     0
 74
     1
 95
       26
 96
       22
 40
0.0
 40
0.0
 40
0.0
 40
0.0
 40
1.0
 40
1.0
 40
1.0
 40
2.0
 40
2.0
 40
2.0
 40
3.0
 40
3.0
 40
3.0
 40
4.0
 40
4.0
 40
4.0
 40
5.0
 40
5.0
 40
5.0
 40
6.0
 40
6.0
 40
6.0
 40
7.0
 40
7.0
 40
7.0
 40
7.0
 10
90.4380628571648
 20
-140.0968749649758
 10
90.4380628571648
 20
-140.0968749649758
 10
90.4380628571648
 20
-138.9927218619532
 10
90.4380628571648
 20
-138.9927218619532
 10
90.4380628571648
 20
-138.9927218619532
 10
90.10802270967785
 20
-138.9927218619532
 10
90.10802270967785
 20
-138.9927218619532
 10
90.10802270967785
 20
-138.9927218619532
 10
90.10802270967785
 20
-138.8445827560875
 10
90.10802270967785
 20
-138.8445827560875
 10
90.44012991445594
 20
-138.8297688455009
 10
90.48663870350681
 20
-138.6668158290486
 10
90.51626652467996
 20
-138.5524386589383
 10
90.51626652467996
 20
-138.5524386589383
 10
90.66233857325456
 20
-138.5524386589383
 10
90.66233857325456
 20
-138.5524386589383
 10
90.66233857325456
 20
-138.5524386589383
 10
90.66233857325456
 20
-140.0968749649758
 10
90.66233857325456
 20
-140.0968749649758
 10
90.66233857325456
 20
-140.0968749649758
 10
90.4380628571648
 20
-140.0968749649758
 10
90.4380628571648
 20
-140.0968749649758
 97
        0
 97
        0
 75
     2
 76
     1
 98
        0
  0
POLYLINE
  5
E8
330
E0
100
AcDbEntity
  8
_U+30EC_U+30A4_U+30E4_U+30FC 1
370
     0
100
AcDb2dPolyline
 66
     1
 10
0.0
 20
0.0
 30
0.0
  0
VERTEX
  5
E9
330
E8
100
AcDbEntity
  8
_U+30EC_U+30A4_U+30E4_U+30FC 1
370
     0
100
AcDbVertex
100
AcDb2dVertex
 10
91.22354462780176
 20
-140.0968749649758
 30
0.0
  0
VERTEX
  5
EA
330
E8
100
AcDbEntity
  8
_U+30EC_U+30A4_U+30E4_U+30FC 1
370
     0
100
AcDbVertex
100
AcDb2dVertex
 10
91.22354462780176
 20
-139.845038485004
 30
0.0
  0
VERTEX
  5
EB
330
E8
100
AcDbEntity
  8
_U+30EC_U+30A4_U+30E4_U+30FC 1
370
     0
100
AcDbVertex
100
AcDb2dVertex
 10
91.47555336254779
 20
-139.845038485004
 30
0.0
  0
VERTEX
  5
EC
330
E8
100
AcDbEntity
  8
_U+30EC_U+30A4_U+30E4_U+30FC 1
370
     0
100
AcDbVertex
100
AcDb2dVertex
 10
91.47555336254779
 20
-140.0968749649758
 30
0.0
  0
VERTEX
  5
ED
330
E8
100
AcDbEntity
  8
_U+30EC_U+30A4_U+30E4_U+30FC 1
370
     0
100
AcDbVertex
100
AcDb2dVertex
 10
91.22354462780176
 20
-140.0968749649758
 30
0.0
  0
SEQEND
  5
EE
330
E8
100
AcDbEntity
  8
_U+30EC_U+30A4_U+30E4_U+30FC 1
370
     0
  0
HATCH
  5
EF
330
E0
100
AcDbEntity
  8
_U+30EC_U+30A4_U+30E4_U+30FC 1
 62
     7
420
 16777215
100
AcDbHatch
 10
0.0
 20
0.0
 30
0.0
210
0.0
220
0.0
230
1.0
  2
SOLID
 70
     1
 71
     0
 91
        1
 92
        1
 93
        4
 72
     1
 10
91.22354462780176
 20
-140.0968749649758
 11
91.22354462780176
 21
-139.845038485004
 72
     1
 10
91.22354462780176
 20
-139.845038485004
 11
91.47555336254779
 21
-139.845038485004
 72
     1
 10
91.47555336254779
 20
-139.845038485004
 11
91.47555336254779
 21
-140.0968749649758
 72
     1
 10
91.47555336254779
 20
-140.0968749649758
 11
91.22354462780176
 21
-140.0968749649758
 97
        0
 75
     2
 76
     1
 98
        0
  0
SPLINE
  5
F0
330
E0
100
AcDbEntity
  8
_U+30EC_U+30A4_U+30E4_U+30FC 1
370
     0
100
AcDbSpline
210
0.0
220
0.0
230
1.0
 70
    11
 71
     3
 72
    53
 73
    49
 74
     0
 42
0.0000000001
 43
0.0000000001
 12
1.0
 22
0.0
 32
0.0
 13
1.0
 23
0.0
 33
0.0
 40
0.0
 40
0.0
 40
0.0
 40
0.0
 40
1.0
 40
1.0
 40
1.0
 40
2.0
 40
2.0
 40
2.0
 40
3.0
 40
3.0
 40
3.0
 40
4.0
 40
4.0
 40
4.0
 40
5.0
 40
5.0
 40
5.0
 40
6.0
 40
6.0
 40
6.0
 40
7.0
 40
7.0
 40
7.0
 40
8.0
 40
8.0
 40
8.0
 40
9.0
 40
9.0
 40
9.0
 40
10.0
 40
10.0
 40
10.0
 40
11.0
 40
11.0
 40
11.0
 40
12.0
 40
12.0
 40
12.0
 40
13.0
 40
13.0
 40
13.0
 40
14.0
 40
14.0
 40
14.0
 40
15.0
 40
15.0
 40
15.0
 40
16.0
 40
16.0
 40
16.0
 40
16.0
 10
92.1928222425768
 20
-140.147517868609
 30
0.0
 10
92.11461857506163
 20
-140.147517868609
 30
0.0
 10
92.01298825824675
 20
-140.1306369007312
 30
0.0
 10
91.91135794143189
 20
-140.0672471438026
 30
0.0
 10
91.73806963852383
 20
-139.9573485978232
 30
0.0
 10
91.71671004651527
 20
-139.8260904598351
 30
0.0
 10
91.69776202134639
 20
-139.7182589711468
 30
0.0
 10
91.69776202134639
 20
-139.7182589711468
 30
0.0
 10
91.91997068014501
 20
-139.7182589711468
 30
0.0
 10
91.91997068014501
 20
-139.7182589711468
 30
0.0
 10
91.97474769836049
 20
-139.9170409806457
 30
0.0
 10
92.1018717217662
 20
-139.9466688018189
 30
0.0
 10
92.19488929986795
 20
-139.9466688018189
 30
0.0
 10
92.33441566702056
 20
-139.9466688018189
 30
0.0
 10
92.48668888746862
 20
-139.8471055422952
 30
0.0
 10
92.48668888746862
 20
-139.6145615970408
 30
0.0
 10
92.48668888746862
 20
-139.3585910024867
 30
0.0
 10
92.30685490313857
 20
-139.2886555641362
 30
0.0
 10
92.18627656115483
 20
-139.2886555641362
 30
0.0
 10
92.15458168269052
 20
-139.2886555641362
 30
0.0
 10
92.01298825824675
 20
-139.2886555641362
 30
0.0
 10
91.92410479472731
 20
-139.417846644833
 30
0.0
 10
91.92410479472731
 20
-139.417846644833
 30
0.0
 10
91.74840492497957
 20
-139.3988986196642
 30
0.0
 10
91.74840492497957
 20
-139.3988986196642
 30
0.0
 10
91.74840492497957
 20
-139.3988986196642
 30
0.0
 10
91.86898326696331
 20
-138.5524386589383
 30
0.0
 10
91.86898326696331
 20
-138.5524386589383
 30
0.0
 10
91.86898326696331
 20
-138.5524386589383
 30
0.0
 10
92.64757484662978
 20
-138.5524386589383
 30
0.0
 10
92.64757484662978
 20
-138.5524386589383
 30
0.0
 10
92.64757484662978
 20
-138.5524386589383
 30
0.0
 10
92.64757484662978
 20
-138.7470865538549
 30
0.0
 10
92.64757484662978
 20
-138.7470865538549
 30
0.0
 10
92.64757484662978
 20
-138.7470865538549
 30
0.0
 10
92.03193628341563
 20
-138.7470865538549
 30
0.0
 10
92.03193628341563
 20
-138.7470865538549
 30
0.0
 10
92.03193628341563
 20
-138.7470865538549
 30
0.0
 10
91.96647946919589
 20
-139.1701442794436
 30
0.0
 10
91.96647946919589
 20
-139.1701442794436
 30
0.0
 10
92.02780216883333
 20
-139.1363823436881
 30
0.0
 10
92.1101399509308
 20
-139.0960747265107
 30
0.0
 10
92.2286512356234
 20
-139.0960747265107
 30
0.0
 10
92.4825547728863
 20
-139.0960747265107
 30
0.0
 10
92.71957734227149
 20
-139.2824543922627
 30
0.0
 10
92.71957734227149
 20
-139.5956135718719
 30
0.0
 10
92.71957734227149
 20
-139.9129068660635
 30
0.0
 10
92.49530162618173
 20
-140.147517868609
 30
0.0
 10
92.1928222425768
 20
-140.147517868609
 30
0.0
  0
HATCH
  5
F1
330
E0
100
AcDbEntity
  8
_U+30EC_U+30A4_U+30E4_U+30FC 1
 62
     7
420
 16777215
100
AcDbHatch
 10
0.0
 20
0.0
 30
0.0
210
0.0
220
0.0
230
1.0
  2
SOLID
 70
     1
 71
     0
 91
        1
 92
        1
 93
        1
 72
     4
 94
        3
 73
     0
 74
     1
 95
       53
 96
       49
 40
0.0
 40
0.0
 40
0.0
 40
0.0
 40
1.0
 40
1.0
 40
1.0
 40
2.0
 40
2.0
 40
2.0
 40
3.0
 40
3.0
 40
3.0
 40
4.0
 40
4.0
 40
4.0
 40
5.0
 40
5.0
 40
5.0
 40
6.0
 40
6.0
 40
6.0
 40
7.0
 40
7.0
 40
7.0
 40
8.0
 40
8.0
 40
8.0
 40
9.0
 40
9.0
 40
9.0
 40
10.0
 40
10.0
 40
10.0
 40
11.0
 40
11.0
 40
11.0
 40
12.0
 40
12.0
 40
12.0
 40
13.0
 40
13.0
 40
13.0
 40
14.0
 40
14.0
 40
14.0
 40
15.0
 40
15.0
 40
15.0
 40
16.0
 40
16.0
 40
16.0
 40
16.0
 10
92.1928222425768
 20
-140.147517868609
 10
92.11461857506163
 20
-140.147517868609
 10
92.01298825824675
 20
-140.1306369007312
 10
91.91135794143189
 20
-140.0672471438026
 10
91.73806963852383
 20
-139.9573485978232
 10
91.71671004651527
 20
-139.8260904598351
 10
91.69776202134639
 20
-139.7182589711468
 10
91.69776202134639
 20
-139.7182589711468
 10
91.91997068014501
 20
-139.7182589711468
 10
91.91997068014501
 20
-139.7182589711468
 10
91.97474769836049
 20
-139.9170409806457
 10
92.1018717217662
 20
-139.9466688018189
 10
92.19488929986795
 20
-139.9466688018189
 10
92.33441566702056
 20
-139.9466688018189
 10
92.48668888746862
 20
-139.8471055422952
 10
92.48668888746862
 20
-139.6145615970408
 10
92.48668888746862
 20
-139.3585910024867
 10
92.30685490313857
 20
-139.2886555641362
 10
92.18627656115483
 20
-139.2886555641362
 10
92.15458168269052
 20
-139.2886555641362
 10
92.01298825824675
 20
-139.2886555641362
 10
91.92410479472731
 20
-139.417846644833
 10
91.92410479472731
 20
-139.417846644833
 10
91.74840492497957
 20
-139.3988986196642
 10
91.74840492497957
 20
-139.3988986196642
 10
91.74840492497957
 20
-139.3988986196642
 10
91.86898326696331
 20
-138.5524386589383
 10
91.86898326696331
 20
-138.5524386589383
 10
91.86898326696331
 20
-138.5524386589383
 10
92.64757484662978
 20
-138.5524386589383
 10
92.64757484662978
 20
-138.5524386589383
 10
92.64757484662978
 20
-138.5524386589383
 10
92.64757484662978
 20
-138.7470865538549
 10
92.64757484662978
 20
-138.7470865538549
 10
92.64757484662978
 20
-138.7470865538549
 10
92.03193628341563
 20
-138.7470865538549
 10
92.03193628341563
 20
-138.7470865538549
 10
92.03193628341563
 20
-138.7470865538549
 10
91.96647946919589
 20
-139.1701442794436
 10
91.96647946919589
 20
-139.1701442794436
 10
92.02780216883333
 20
-139.1363823436881
 10
92.1101399509308
 20
-139.0960747265107
 10
92.2286512356234
 20
-139.0960747265107
 10
92.4825547728863
 20
-139.0960747265107
 10
92.71957734227149
 20
-139.2824543922627
 10
92.71957734227149
 20
-139.5956135718719
 10
92.71957734227149
 20
-139.9129068660635
 10
92.49530162618173
 20
-140.147517868609
 10
92.1928222425768
 20
-140.147517868609
 97
        0
 97
        0
 75
     2
 76
     1
 98
        0
  0
ENDBLK
  5
E3
330
E0
100
AcDbEntity
  8
0
100
AcDbBlockEnd
  0
BLOCK
  5
100
330
FE
100
AcDbEntity
  8
0
100
AcDbBlockBegin
  2
block 6
 70
     0
 10
0.0
 20
0.0
 30
0.0
  3
block 6
  1

  0
SPLINE
  5
102
330
FE
100
AcDbEntity
  8
_U+30EC_U+30A4_U+30E4_U+30FC 1
370
     0
100
AcDbSpline
210
0.0
220
0.0
230
1.0
 70
    11
 71
     3
 72
    26
 73
    22
 74
     0
 42
0.0000000001
 43
0.0000000001
 12
1.0
 22
0.0
 32
0.0
 13
1.0
 23
0.0
 33
0.0
 40
0.0
 40
0.0
 40
0.0
 40
0.0
 40
1.0
 40
1.0
 40
1.0
 40
2.0
 40
2.0
 40
2.0
 40
3.0
 40
3.0
 40
3.0
 40
4.0
 40
4.0
 40
4.0
 40
5.0
 40
5.0
 40
5.0
 40
6.0
 40
6.0
 40
6.0
 40
7.0
 40
7.0
 40
7.0
 40
7.0
 10
75.41434595553878
 20
-129.9431450412989
 30
0.0
 10
75.41434595553878
 20
-129.9431450412989
 30
0.0
 10
74.31002059774194
 20
-129.9431450412989
 30
0.0
 10
74.31002059774194
 20
-129.9431450412989
 30
0.0
 10
74.31002059774194
 20
-129.9431450412989
 30
0.0
 10
74.31002059774194
 20
-130.2731851887859
 30
0.0
 10
74.31002059774194
 20
-130.2731851887859
 30
0.0
 10
74.31002059774194
 20
-130.2731851887859
 30
0.0
 10
74.1618814918762
 20
-130.2731851887859
 30
0.0
 10
74.1618814918762
 20
-130.2731851887859
 30
0.0
 10
74.14723983606389
 20
-129.9410779840078
 30
0.0
 10
73.98428681961157
 20
-129.8945691949569
 30
0.0
 10
73.87008190427554
 20
-129.8649413737838
 30
0.0
 10
73.87008190427554
 20
-129.8649413737838
 30
0.0
 10
73.87008190427554
 20
-129.7188693252092
 30
0.0
 10
73.87008190427554
 20
-129.7188693252092
 30
0.0
 10
73.87008190427554
 20
-129.7188693252092
 30
0.0
 10
75.41434595553878
 20
-129.7188693252092
 30
0.0
 10
75.41434595553878
 20
-129.7188693252092
 30
0.0
 10
75.41434595553878
 20
-129.7188693252092
 30
0.0
 10
75.41434595553878
 20
-129.9431450412989
 30
0.0
 10
75.41434595553878
 20
-129.9431450412989
 30
0.0
  0
HATCH
  5
103
330
FE
100
AcDbEntity
  8
_U+30EC_U+30A4_U+30E4_U+30FC 1
 62
     7
420
 16777215
100
AcDbHatch
 10
0.0
 20
0.0
 30
0.0
210
0.0
220
0.0
230
1.0
  2
SOLID
 70
     1
 71
     0
 91
        1
 92
        1
 93
        1
 72
     4
 94
        3
 73
     0
 74
     1
 95
       26
 96
       22
 40
0.0
 40
0.0
 40
0.0
 40
0.0
 40
1.0
 40
1.0
 40
1.0
 40
2.0
 40
2.0
 40
2.0
 40
3.0
 40
3.0
 40
3.0
 40
4.0
 40
4.0
 40
4.0
 40
5.0
 40
5.0
 40
5.0
 40
6.0
 40
6.0
 40
6.0
 40
7.0
 40
7.0
 40
7.0
 40
7.0
 10
75.41434595553878
 20
-129.9431450412989
 10
75.41434595553878
 20
-129.9431450412989
 10
74.31002059774194
 20
-129.9431450412989
 10
74.31002059774194
 20
-129.9431450412989
 10
74.31002059774194
 20
-129.9431450412989
 10
74.31002059774194
 20
-130.2731851887859
 10
74.31002059774194
 20
-130.2731851887859
 10
74.31002059774194
 20
-130.2731851887859
 10
74.1618814918762
 20
-130.2731851887859
 10
74.1618814918762
 20
-130.2731851887859
 10
74.14723983606389
 20
-129.9410779840078
 10
73.98428681961157
 20
-129.8945691949569
 10
73.87008190427554
 20
-129.8649413737838
 10
73.87008190427554
 20
-129.8649413737838
 10
73.87008190427554
 20
-129.7188693252092
 10
73.87008190427554
 20
-129.7188693252092
 10
73.87008190427554
 20
-129.7188693252092
 10
75.41434595553878
 20
-129.7188693252092
 10
75.41434595553878
 20
-129.7188693252092
 10
75.41434595553878
 20
-129.7188693252092
 10
75.41434595553878
 20
-129.9431450412989
 10
75.41434595553878
 20
-129.9431450412989
 97
        0
 97
        0
 75
     2
 76
     1
 98
        0
  0
SPLINE
  5
104
330
FE
100
AcDbEntity
  8
_U+30EC_U+30A4_U+30E4_U+30FC 1
370
     0
100
AcDbSpline
210
0.0
220
0.0
230
1.0
 70
    11
 71
     3
 72
    32
 73
    28
 74
     0
 42
0.0000000001
 43
0.0000000001
 12
1.0
 22
0.0
 32
0.0
 13
1.0
 23
0.0
 33
0.0
 40
0.0
 40
0.0
 40
0.0
 40
0.0
 40
1.0
 40
1.0
 40
1.0
 40
2.0
 40
2.0
 40
2.0
 40
3.0
 40
3.0
 40
3.0
 40
4.0
 40
4.0
 40
4.0
 40
5.0
 40
5.0
 40
5.0
 40
6.0
 40
6.0
 40
6.0
 40
7.0
 40
7.0
 40
7.0
 40
8.0
 40
8.0
 40
8.0
 40
9.0
 40
9.0
 40
9.0
 40
9.0
 10
75.46516111394621
 20
-128.7135904626133
 30
0.0
 10
75.46516111394621
 20
-129.2296657663037
 30
0.0
 10
74.91084525036952
 20
-129.2382785050168
 30
0.0
 10
74.69724933028402
 20
-129.2382785050168
 30
0.0
 10
74.46660018754655
 20
-129.2382785050168
 30
0.0
 10
73.8192667458681
 20
-129.2189859702994
 30
0.0
 10
73.8192667458681
 20
-128.675349902727
 30
0.0
 10
73.8192667458681
 20
-128.5020615998189
 30
0.0
 10
73.88902992944442
 20
-128.2564262917206
 30
0.0
 10
74.2211371342225
 20
-128.2185302413829
 30
0.0
 10
74.2211371342225
 20
-128.2185302413829
 30
0.0
 10
74.2211371342225
 20
-128.4321261614684
 30
0.0
 10
74.2211371342225
 20
-128.4321261614684
 30
0.0
 10
74.16412080394161
 20
-128.4428059574726
 30
0.0
 10
74.01598169807586
 20
-128.4745008359369
 30
0.0
 10
74.01598169807586
 20
-128.6774169600181
 30
0.0
 10
74.01598169807586
 20
-128.9695610571673
 30
0.0
 10
74.34395478827166
 20
-129.0095241647962
 30
0.0
 10
74.54911022441829
 20
-129.0222710180917
 30
0.0
 10
74.47090655690312
 20
-128.9292534399899
 30
0.0
 10
74.41165091455682
 20
-128.8613850589305
 30
0.0
 10
74.41165091455682
 20
-128.6794840173093
 30
0.0
 10
74.41165091455682
 20
-128.4996500329792
 30
0.0
 10
74.51948240324514
 20
-128.1971706493743
 30
0.0
 10
74.92565916095609
 20
-128.1971706493743
 30
0.0
 10
75.24501951243874
 20
-128.1971706493743
 30
0.0
 10
75.46516111394621
 20
-128.3962971684218
 30
0.0
 10
75.46516111394621
 20
-128.7135904626133
 30
0.0
  0
SPLINE
  5
105
330
FE
100
AcDbEntity
  8
_U+30EC_U+30A4_U+30E4_U+30FC 1
370
     0
100
AcDbSpline
210
0.0
220
0.0
230
1.0
 70
    11
 71
     3
 72
    17
 73
    13
 74
     0
 42
0.0000000001
 43
0.0000000001
 12
1.0
 22
0.0
 32
0.0
 13
1.0
 23
0.0
 33
0.0
 40
0.0
 40
0.0
 40
0.0
 40
0.0
 40
1.0
 40
1.0
 40
1.0
 40
2.0
 40
2.0
 40
2.0
 40
3.0
 40
3.0
 40
3.0
 40
4.0
 40
4.0
 40
4.0
 40
4.0
 10
74.60629880947343
 20
-128.6967094947356
 30
0.0
 10
74.60629880947343
 20
-128.9588812611631
 30
0.0
 10
74.81782767226777
 20
-128.9967773115008
 30
0.0
 10
74.93409964489496
 20
-128.9967773115008
 30
0.0
 10
75.10962725986843
 20
-128.9967773115008
 30
0.0
 10
75.27258027632075
 20
-128.9016926761079
 30
0.0
 10
75.27258027632075
 20
-128.7177245771956
 30
0.0
 10
75.27258027632075
 20
-128.5971462352118
 30
0.0
 10
75.21332463397445
 20
-128.4214463654641
 30
0.0
 10
74.92772621824724
 20
-128.4214463654641
 30
0.0
 10
74.70345050215748
 20
-128.4214463654641
 30
0.0
 10
74.60629880947343
 20
-128.5609727326167
 30
0.0
 10
74.60629880947343
 20
-128.6967094947356
 30
0.0
  0
HATCH
  5
106
330
FE
100
AcDbEntity
  8
_U+30EC_U+30A4_U+30E4_U+30FC 1
 62
     7
420
 16777215
100
AcDbHatch
 10
0.0
 20
0.0
 30
0.0
210
0.0
220
0.0
230
1.0
  2
SOLID
 70
     1
 71
     0
 91
        2
 92
        1
 93
        1
 72
     4
 94
        3
 73
     0
 74
     1
 95
       32
 96
       28
 40
0.0
 40
0.0
 40
0.0
 40
0.0
 40
1.0
 40
1.0
 40
1.0
 40
2.0
 40
2.0
 40
2.0
 40
3.0
 40
3.0
 40
3.0
 40
4.0
 40
4.0
 40
4.0
 40
5.0
 40
5.0
 40
5.0
 40
6.0
 40
6.0
 40
6.0
 40
7.0
 40
7.0
 40
7.0
 40
8.0
 40
8.0
 40
8.0
 40
9.0
 40
9.0
 40
9.0
 40
9.0
 10
75.46516111394621
 20
-128.7135904626133
 10
75.46516111394621
 20
-129.2296657663037
 10
74.91084525036952
 20
-129.2382785050168
 10
74.69724933028402
 20
-129.2382785050168
 10
74.46660018754655
 20
-129.2382785050168
 10
73.8192667458681
 20
-129.2189859702994
 10
73.8192667458681
 20
-128.675349902727
 10
73.8192667458681
 20
-128.5020615998189
 10
73.88902992944442
 20
-128.2564262917206
 10
74.2211371342225
 20
-128.2185302413829
 10
74.2211371342225
 20
-128.2185302413829
 10
74.2211371342225
 20
-128.4321261614684
 10
74.2211371342225
 20
-128.4321261614684
 10
74.16412080394161
 20
-128.4428059574726
 10
74.01598169807586
 20
-128.4745008359369
 10
74.01598169807586
 20
-128.6774169600181
 10
74.01598169807586
 20
-128.9695610571673
 10
74.34395478827166
 20
-129.0095241647962
 10
74.54911022441829
 20
-129.0222710180917
 10
74.47090655690312
 20
-128.9292534399899
 10
74.41165091455682
 20
-128.8613850589305
 10
74.41165091455682
 20
-128.6794840173093
 10
74.41165091455682
 20
-128.4996500329792
 10
74.51948240324514
 20
-128.1971706493743
 10
74.92565916095609
 20
-128.1971706493743
 10
75.24501951243874
 20
-128.1971706493743
 10
75.46516111394621
 20
-128.3962971684218
 10
75.46516111394621
 20
-128.7135904626133
 97
        0
 97
        0
 92
        1
 93
        1
 72
     4
 94
        3
 73
     0
 74
     1
 95
       17
 96
       13
 40
0.0
 40
0.0
 40
0.0
 40
0.0
 40
1.0
 40
1.0
 40
1.0
 40
2.0
 40
2.0
 40
2.0
 40
3.0
 40
3.0
 40
3.0
 40
4.0
 40
4.0
 40
4.0
 40
4.0
 10
74.60629880947343
 20
-128.6967094947356
 10
74.60629880947343
 20
-128.9588812611631
 10
74.81782767226777
 20
-128.9967773115008
 10
74.93409964489496
 20
-128.9967773115008
 10
75.10962725986843
 20
-128.9967773115008
 10
75.27258027632075
 20
-128.9016926761079
 10
75.27258027632075
 20
-128.7177245771956
 10
75.27258027632075
 20
-128.5971462352118
 10
75.21332463397445
 20
-128.4214463654641
 10
74.92772621824724
 20
-128.4214463654641
 10
74.70345050215748
 20
-128.4214463654641
 10
74.60629880947343
 20
-128.5609727326167
 10
74.60629880947343
 20
-128.6967094947356
 97
        0
 97
        0
 75
     2
 76
     1
 98
        0
  0
POLYLINE
  5
107
330
FE
100
AcDbEntity
  8
_U+30EC_U+30A4_U+30E4_U+30FC 1
370
     0
100
AcDb2dPolyline
 66
     1
 10
0.0
 20
0.0
 30
0.0
  0
VERTEX
  5
108
330
107
100
AcDbEntity
  8
_U+30EC_U+30A4_U+30E4_U+30FC 1
370
     0
100
AcDbVertex
100
AcDb2dVertex
 10
75.41434595553878
 20
-127.9808186529006
 30
0.0
  0
VERTEX
  5
109
330
107
100
AcDbEntity
  8
_U+30EC_U+30A4_U+30E4_U+30FC 1
370
     0
100
AcDbVertex
100
AcDb2dVertex
 10
75.16268173034128
 20
-127.9808186529006
 30
0.0
  0
VERTEX
  5
10A
330
107
100
AcDbEntity
  8
_U+30EC_U+30A4_U+30E4_U+30FC 1
370
     0
100
AcDbVertex
100
AcDb2dVertex
 10
75.16268173034128
 20
-127.7289821729289
 30
0.0
  0
VERTEX
  5
10B
330
107
100
AcDbEntity
  8
_U+30EC_U+30A4_U+30E4_U+30FC 1
370
     0
100
AcDbVertex
100
AcDb2dVertex
 10
75.41434595553878
 20
-127.7289821729289
 30
0.0
  0
VERTEX
  5
10C
330
107
100
AcDbEntity
  8
_U+30EC_U+30A4_U+30E4_U+30FC 1
370
     0
100
AcDbVertex
100
AcDb2dVertex
 10
75.41434595553878
 20
-127.9808186529006
 30
0.0
  0
SEQEND
  5
10D
330
107
100
AcDbEntity
  8
_U+30EC_U+30A4_U+30E4_U+30FC 1
370
     0
  0
HATCH
  5
10E
330
FE
100
AcDbEntity
  8
_U+30EC_U+30A4_U+30E4_U+30FC 1
 62
     7
420
 16777215
100
AcDbHatch
 10
0.0
 20
0.0
 30
0.0
210
0.0
220
0.0
230
1.0
  2
SOLID
 70
     1
 71
     0
 91
        1
 92
        1
 93
        4
 72
     1
 10
75.41434595553878
 20
-127.9808186529006
 11
75.16268173034128
 21
-127.9808186529006
 72
     1
 10
75.16268173034128
 20
-127.9808186529006
 11
75.16268173034128
 21
-127.7289821729289
 72
     1
 10
75.16268173034128
 20
-127.7289821729289
 11
75.41434595553878
 21
-127.7289821729289
 72
     1
 10
75.41434595553878
 20
-127.7289821729289
 11
75.41434595553878
 21
-127.9808186529006
 97
        0
 75
     2
 76
     1
 98
        0
  0
SPLINE
  5
10F
330
FE
100
AcDbEntity
  8
_U+30EC_U+30A4_U+30E4_U+30FC 1
370
     0
100
AcDbSpline
210
0.0
220
0.0
230
1.0
 70
    11
 71
     3
 72
    53
 73
    49
 74
     0
 42
0.0000000001
 43
0.0000000001
 12
1.0
 22
0.0
 32
0.0
 13
1.0
 23
0.0
 33
0.0
 40
0.0
 40
0.0
 40
0.0
 40
0.0
 40
1.0
 40
1.0
 40
1.0
 40
2.0
 40
2.0
 40
2.0
 40
3.0
 40
3.0
 40
3.0
 40
4.0
 40
4.0
 40
4.0
 40
5.0
 40
5.0
 40
5.0
 40
6.0
 40
6.0
 40
6.0
 40
7.0
 40
7.0
 40
7.0
 40
8.0
 40
8.0
 40
8.0
 40
9.0
 40
9.0
 40
9.0
 40
10.0
 40
10.0
 40
10.0
 40
11.0
 40
11.0
 40
11.0
 40
12.0
 40
12.0
 40
12.0
 40
13.0
 40
13.0
 40
13.0
 40
14.0
 40
14.0
 40
14.0
 40
15.0
 40
15.0
 40
15.0
 40
16.0
 40
16.0
 40
16.0
 40
16.0
 10
75.46516111394621
 20
-127.0117132928999
 30
0.0
 10
75.46516111394621
 20
-127.089916960415
 30
0.0
 10
75.44828014606848
 20
-127.1915472772299
 30
0.0
 10
75.38471813436563
 20
-127.2931775940448
 30
0.0
 10
75.2746473336119
 20
-127.4664658969528
 30
0.0
 10
75.14356145039814
 20
-127.4878254889614
 30
0.0
 10
75.03572996170982
 20
-127.5067735141303
 30
0.0
 10
75.03572996170982
 20
-127.5067735141303
 30
0.0
 10
75.03572996170982
 20
-127.2845648553316
 30
0.0
 10
75.03572996170982
 20
-127.2845648553316
 30
0.0
 10
75.23451197120873
 20
-127.2297878371162
 30
0.0
 10
75.26413979238188
 20
-127.1026638137104
 30
0.0
 10
75.26413979238188
 20
-127.0096462356087
 30
0.0
 10
75.26413979238188
 20
-126.8701198684561
 30
0.0
 10
75.16474878763243
 20
-126.717846648008
 30
0.0
 10
74.9320325876038
 20
-126.717846648008
 30
0.0
 10
74.67606199304974
 20
-126.717846648008
 30
0.0
 10
74.60629880947343
 20
-126.8976806323381
 30
0.0
 10
74.60629880947343
 20
-127.0182589743218
 30
0.0
 10
74.60629880947343
 20
-127.0499538527861
 30
0.0
 10
74.60629880947343
 20
-127.1915472772299
 30
0.0
 10
74.73531763539603
 20
-127.2804307407493
 30
0.0
 10
74.73531763539603
 20
-127.2804307407493
 30
0.0
 10
74.7161973554529
 20
-127.4561306104971
 30
0.0
 10
74.7161973554529
 20
-127.4561306104971
 30
0.0
 10
74.7161973554529
 20
-127.4561306104971
 30
0.0
 10
73.87008190427554
 20
-127.3355522685133
 30
0.0
 10
73.87008190427554
 20
-127.3355522685133
 30
0.0
 10
73.87008190427554
 20
-127.3355522685133
 30
0.0
 10
73.87008190427554
 20
-126.5569606888469
 30
0.0
 10
73.87008190427554
 20
-126.5569606888469
 30
0.0
 10
73.87008190427554
 20
-126.5569606888469
 30
0.0
 10
74.06472979919215
 20
-126.5569606888469
 30
0.0
 10
74.06472979919215
 20
-126.5569606888469
 30
0.0
 10
74.06472979919215
 20
-126.5569606888469
 30
0.0
 10
74.06472979919215
 20
-127.172599252061
 30
0.0
 10
74.06472979919215
 20
-127.172599252061
 30
0.0
 10
74.06472979919215
 20
-127.172599252061
 30
0.0
 10
74.48778752478083
 20
-127.2380560662808
 30
0.0
 10
74.48778752478083
 20
-127.2380560662808
 30
0.0
 10
74.45385333425112
 20
-127.1767333666433
 30
0.0
 10
74.41371797184796
 20
-127.0943955845459
 30
0.0
 10
74.41371797184796
 20
-126.9758842998533
 30
0.0
 10
74.41371797184796
 20
-126.7219807625903
 30
0.0
 10
74.59992538282572
 20
-126.4849581932052
 30
0.0
 10
74.91291230766066
 20
-126.4849581932052
 30
0.0
 10
75.23037785662643
 20
-126.4849581932052
 30
0.0
 10
75.46516111394621
 20
-126.7092339092949
 30
0.0
 10
75.46516111394621
 20
-127.0117132928999
 30
0.0
  0
HATCH
  5
110
330
FE
100
AcDbEntity
  8
_U+30EC_U+30A4_U+30E4_U+30FC 1
 62
     7
420
 16777215
100
AcDbHatch
 10
0.0
 20
0.0
 30
0.0
210
0.0
220
0.0
230
1.0
  2
SOLID
 70
     1
 71
     0
 91
        1
 92
        1
 93
        1
 72
     4
 94
        3
 73
     0
 74
     1
 95
       53
 96
       49
 40
0.0
 40
0.0
 40
0.0
 40
0.0
 40
1.0
 40
1.0
 40
1.0
 40
2.0
 40
2.0
 40
2.0
 40
3.0
 40
3.0
 40
3.0
 40
4.0
 40
4.0
 40
4.0
 40
5.0
 40
5.0
 40
5.0
 40
6.0
 40
6.0
 40
6.0
 40
7.0
 40
7.0
 40
7.0
 40
8.0
 40
8.0
 40
8.0
 40
9.0
 40
9.0
 40
9.0
 40
10.0
 40
10.0
 40
10.0
 40
11.0
 40
11.0
 40
11.0
 40
12.0
 40
12.0
 40
12.0
 40
13.0
 40
13.0
 40
13.0
 40
14.0
 40
14.0
 40
14.0
 40
15.0
 40
15.0
 40
15.0
 40
16.0
 40
16.0
 40
16.0
 40
16.0
 10
75.46516111394621
 20
-127.0117132928999
 10
75.46516111394621
 20
-127.089916960415
 10
75.44828014606848
 20
-127.1915472772299
 10
75.38471813436563
 20
-127.2931775940448
 10
75.2746473336119
 20
-127.4664658969528
 10
75.14356145039814
 20
-127.4878254889614
 10
75.03572996170982
 20
-127.5067735141303
 10
75.03572996170982
 20
-127.5067735141303
 10
75.03572996170982
 20
-127.2845648553316
 10
75.03572996170982
 20
-127.2845648553316
 10
75.23451197120873
 20
-127.2297878371162
 10
75.26413979238188
 20
-127.1026638137104
 10
75.26413979238188
 20
-127.0096462356087
 10
75.26413979238188
 20
-126.8701198684561
 10
75.16474878763243
 20
-126.717846648008
 10
74.9320325876038
 20
-126.717846648008
 10
74.67606199304974
 20
-126.717846648008
 10
74.60629880947343
 20
-126.8976806323381
 10
74.60629880947343
 20
-127.0182589743218
 10
74.60629880947343
 20
-127.0499538527861
 10
74.60629880947343
 20
-127.1915472772299
 10
74.73531763539603
 20
-127.2804307407493
 10
74.73531763539603
 20
-127.2804307407493
 10
74.7161973554529
 20
-127.4561306104971
 10
74.7161973554529
 20
-127.4561306104971
 10
74.7161973554529
 20
-127.4561306104971
 10
73.87008190427554
 20
-127.3355522685133
 10
73.87008190427554
 20
-127.3355522685133
 10
73.87008190427554
 20
-127.3355522685133
 10
73.87008190427554
 20
-126.5569606888469
 10
73.87008190427554
 20
-126.5569606888469
 10
73.87008190427554
 20
-126.5569606888469
 10
74.06472979919215
 20
-126.5569606888469
 10
74.06472979919215
 20
-126.5569606888469
 10
74.06472979919215
 20
-126.5569606888469
 10
74.06472979919215
 20
-127.172599252061
 10
74.06472979919215
 20
-127.172599252061
 10
74.06472979919215
 20
-127.172599252061
 10
74.48778752478083
 20
-127.2380560662808
 10
74.48778752478083
 20
-127.2380560662808
 10
74.45385333425112
 20
-127.1767333666433
 10
74.41371797184796
 20
-127.0943955845459
 10
74.41371797184796
 20
-126.9758842998533
 10
74.41371797184796
 20
-126.7219807625903
 10
74.59992538282572
 20
-126.4849581932052
 10
74.91291230766066
 20
-126.4849581932052
 10
75.23037785662643
 20
-126.4849581932052
 10
75.46516111394621
 20
-126.7092339092949
 10
75.46516111394621
 20
-127.0117132928999
 97
        0
 97
        0
 75
     2
 76
     1
 98
        0
  0
ENDBLK
  5
101
330
FE
100
AcDbEntity
  8
0
100
AcDbBlockEnd
  0
BLOCK
  5
11F
330
11D
100
AcDbEntity
  8
0
100
AcDbBlockBegin
  2
block 7
 70
     0
 10
0.0
 20
0.0
 30
0.0
  3
block 7
  1

  0
SPLINE
  5
121
330
11D
100
AcDbEntity
  8
_U+30EC_U+30A4_U+30E4_U+30FC 1
370
     0
100
AcDbSpline
210
0.0
220
0.0
230
1.0
 70
    11
 71
     3
 72
    53
 73
    49
 74
     0
 42
0.0000000001
 43
0.0000000001
 12
1.0
 22
0.0
 32
0.0
 13
1.0
 23
0.0
 33
0.0
 40
0.0
 40
0.0
 40
0.0
 40
0.0
 40
1.0
 40
1.0
 40
1.0
 40
2.0
 40
2.0
 40
2.0
 40
3.0
 40
3.0
 40
3.0
 40
4.0
 40
4.0
 40
4.0
 40
5.0
 40
5.0
 40
5.0
 40
6.0
 40
6.0
 40
6.0
 40
7.0
 40
7.0
 40
7.0
 40
8.0
 40
8.0
 40
8.0
 40
9.0
 40
9.0
 40
9.0
 40
10.0
 40
10.0
 40
10.0
 40
11.0
 40
11.0
 40
11.0
 40
12.0
 40
12.0
 40
12.0
 40
13.0
 40
13.0
 40
13.0
 40
14.0
 40
14.0
 40
14.0
 40
15.0
 40
15.0
 40
15.0
 40
16.0
 40
16.0
 40
16.0
 40
16.0
 10
76.49610593790723
 20
-140.1854139189467
 30
0.0
 10
76.44081215536897
 20
-140.1299478816342
 30
0.0
 10
76.38086749392562
 20
-140.0462320613426
 30
0.0
 10
76.35399574914067
 20
-139.9294433243927
 30
0.0
 10
76.30903725305816
 20
-139.7289387671511
 30
0.0
 10
76.38689641102481
 20
-139.6214517880113
 30
0.0
 10
76.44976940363061
 20
-139.5315347958463
 30
0.0
 10
76.44976940363061
 20
-139.5315347958463
 30
0.0
 10
76.60686575775802
 20
-139.6886311499737
 30
0.0
 10
76.60686575775802
 20
-139.6886311499737
 30
0.0
 10
76.50506318616888
 20
-139.8681206247552
 30
0.0
 10
76.57379284109962
 20
-139.9787081898317
 30
0.0
 10
76.63976641964214
 20
-140.0445095136
 30
0.0
 10
76.73846840529455
 20
-140.1433837540267
 30
0.0
 10
76.91640758710771
 20
-140.1809352948159
 30
0.0
 10
77.0809108965284
 20
-140.0162597306209
 30
0.0
 10
77.26195066427826
 20
-139.8353922176453
 30
0.0
 10
77.18426376108589
 20
-139.658658819252
 30
0.0
 10
77.09899764782595
 20
-139.5735649607663
 30
0.0
 10
77.07643227239757
 20
-139.5511718401122
 30
0.0
 10
76.9761799937768
 20
-139.4509195614914
 30
0.0
 10
76.82218422558613
 20
-139.4791693444705
 30
0.0
 10
76.82218422558613
 20
-139.4791693444705
 30
0.0
 10
76.71142440573534
 20
-139.341710034609
 30
0.0
 10
76.71142440573534
 20
-139.341710034609
 30
0.0
 10
76.71142440573534
 20
-139.341710034609
 30
0.0
 10
77.39510360478317
 20
-138.8283908073068
 30
0.0
 10
77.39510360478317
 20
-138.8283908073068
 30
0.0
 10
77.39510360478317
 20
-138.8283908073068
 30
0.0
 10
77.94562986332609
 20
-139.3789170658497
 30
0.0
 10
77.94562986332609
 20
-139.3789170658497
 30
0.0
 10
77.94562986332609
 20
-139.3789170658497
 30
0.0
 10
77.80799829869036
 20
-139.5167208852597
 30
0.0
 10
77.80799829869036
 20
-139.5167208852597
 30
0.0
 10
77.80799829869036
 20
-139.5167208852597
 30
0.0
 10
77.37271048412904
 20
-139.0812608159241
 30
0.0
 10
77.37271048412904
 20
-139.0812608159241
 30
0.0
 10
77.37271048412904
 20
-139.0812608159241
 30
0.0
 10
77.02716740695848
 20
-139.3341308245415
 30
0.0
 10
77.02716740695848
 20
-139.3341308245415
 30
0.0
 10
77.09451902369513
 20
-139.3534233592589
 30
0.0
 10
77.18116317514915
 20
-139.3833956899805
 30
0.0
 10
77.265051250215
 20
-139.4671115102721
 30
0.0
 10
77.44454072499651
 20
-139.6466009850536
 30
0.0
 10
77.48036971804311
 20
-139.9459797827218
 30
0.0
 10
77.25902233311581
 20
-140.1671549128749
 30
0.0
 10
77.03457436225177
 20
-140.3917751385132
 30
0.0
 10
76.71004636754124
 20
-140.3990098390322
 30
0.0
 10
76.49610593790723
 20
-140.1854139189467
 30
0.0
  0
HATCH
  5
122
330
11D
100
AcDbEntity
  8
_U+30EC_U+30A4_U+30E4_U+30FC 1
 62
     7
420
 16777215
100
AcDbHatch
 10
0.0
 20
0.0
 30
0.0
210
0.0
220
0.0
230
1.0
  2
SOLID
 70
     1
 71
     0
 91
        1
 92
        1
 93
        1
 72
     4
 94
        3
 73
     0
 74
     1
 95
       53
 96
       49
 40
0.0
 40
0.0
 40
0.0
 40
0.0
 40
1.0
 40
1.0
 40
1.0
 40
2.0
 40
2.0
 40
2.0
 40
3.0
 40
3.0
 40
3.0
 40
4.0
 40
4.0
 40
4.0
 40
5.0
 40
5.0
 40
5.0
 40
6.0
 40
6.0
 40
6.0
 40
7.0
 40
7.0
 40
7.0
 40
8.0
 40
8.0
 40
8.0
 40
9.0
 40
9.0
 40
9.0
 40
10.0
 40
10.0
 40
10.0
 40
11.0
 40
11.0
 40
11.0
 40
12.0
 40
12.0
 40
12.0
 40
13.0
 40
13.0
 40
13.0
 40
14.0
 40
14.0
 40
14.0
 40
15.0
 40
15.0
 40
15.0
 40
16.0
 40
16.0
 40
16.0
 40
16.0
 10
76.49610593790723
 20
-140.1854139189467
 10
76.44081215536897
 20
-140.1299478816342
 10
76.38086749392562
 20
-140.0462320613426
 10
76.35399574914067
 20
-139.9294433243927
 10
76.30903725305816
 20
-139.7289387671511
 10
76.38689641102481
 20
-139.6214517880113
 10
76.44976940363061
 20
-139.5315347958463
 10
76.44976940363061
 20
-139.5315347958463
 10
76.60686575775802
 20
-139.6886311499737
 10
76.60686575775802
 20
-139.6886311499737
 10
76.50506318616888
 20
-139.8681206247552
 10
76.57379284109962
 20
-139.9787081898317
 10
76.63976641964214
 20
-140.0445095136
 10
76.73846840529455
 20
-140.1433837540267
 10
76.91640758710771
 20
-140.1809352948159
 10
77.0809108965284
 20
-140.0162597306209
 10
77.26195066427826
 20
-139.8353922176453
 10
77.18426376108589
 20
-139.658658819252
 10
77.09899764782595
 20
-139.5735649607663
 10
77.07643227239757
 20
-139.5511718401122
 10
76.9761799937768
 20
-139.4509195614914
 10
76.82218422558613
 20
-139.4791693444705
 10
76.82218422558613
 20
-139.4791693444705
 10
76.71142440573534
 20
-139.341710034609
 10
76.71142440573534
 20
-139.341710034609
 10
76.71142440573534
 20
-139.341710034609
 10
77.39510360478317
 20
-138.8283908073068
 10
77.39510360478317
 20
-138.8283908073068
 10
77.39510360478317
 20
-138.8283908073068
 10
77.94562986332609
 20
-139.3789170658497
 10
77.94562986332609
 20
-139.3789170658497
 10
77.94562986332609
 20
-139.3789170658497
 10
77.80799829869036
 20
-139.5167208852597
 10
77.80799829869036
 20
-139.5167208852597
 10
77.80799829869036
 20
-139.5167208852597
 10
77.37271048412904
 20
-139.0812608159241
 10
77.37271048412904
 20
-139.0812608159241
 10
77.37271048412904
 20
-139.0812608159241
 10
77.02716740695848
 20
-139.3341308245415
 10
77.02716740695848
 20
-139.3341308245415
 10
77.09451902369513
 20
-139.3534233592589
 10
77.18116317514915
 20
-139.3833956899805
 10
77.265051250215
 20
-139.4671115102721
 10
77.44454072499651
 20
-139.6466009850536
 10
77.48036971804311
 20
-139.9459797827218
 10
77.25902233311581
 20
-140.1671549128749
 10
77.03457436225177
 20
-140.3917751385132
 10
76.71004636754124
 20
-140.3990098390322
 10
76.49610593790723
 20
-140.1854139189467
 97
        0
 97
        0
 75
     2
 76
     1
 98
        0
  0
ENDBLK
  5
120
330
11D
100
AcDbEntity
  8
0
100
AcDbBlockEnd
  0
BLOCK
  5
135
330
133
100
AcDbEntity
  8
0
100
AcDbBlockBegin
  2
block 8
 70
     0
 10
0.0
 20
0.0
 30
0.0
  3
block 8
  1

  0
SPLINE
  5
137
330
133
100
AcDbEntity
  8
_U+30EC_U+30A4_U+30E4_U+30FC 1
370
     0
100
AcDbSpline
210
0.0
220
0.0
230
1.0
 70
    11
 71
     3
 72
    44
 73
    40
 74
     0
 42
0.0000000001
 43
0.0000000001
 12
1.0
 22
0.0
 32
0.0
 13
1.0
 23
0.0
 33
0.0
 40
0.0
 40
0.0
 40
0.0
 40
0.0
 40
1.0
 40
1.0
 40
1.0
 40
2.0
 40
2.0
 40
2.0
 40
3.0
 40
3.0
 40
3.0
 40
4.0
 40
4.0
 40
4.0
 40
5.0
 40
5.0
 40
5.0
 40
6.0
 40
6.0
 40
6.0
 40
7.0
 40
7.0
 40
7.0
 40
8.0
 40
8.0
 40
8.0
 40
9.0
 40
9.0
 40
9.0
 40
10.0
 40
10.0
 40
10.0
 40
11.0
 40
11.0
 40
11.0
 40
12.0
 40
12.0
 40
12.0
 40
13.0
 40
13.0
 40
13.0
 40
13.0
 10
106.9781385366235
 20
-135.4129231432301
 30
0.0
 10
107.1369574384935
 20
-135.6306531778979
 30
0.0
 10
107.2110269914264
 20
-135.7236707559996
 30
0.0
 10
107.3546874731613
 20
-135.7725911118902
 30
0.0
 10
107.3546874731613
 20
-135.7725911118902
 30
0.0
 10
107.3546874731613
 20
-134.9939995322237
 30
0.0
 10
107.3546874731613
 20
-134.9939995322237
 30
0.0
 10
107.3546874731613
 20
-134.9939995322237
 30
0.0
 10
107.5600151640822
 20
-134.9939995322237
 30
0.0
 10
107.5600151640822
 20
-134.9939995322237
 30
0.0
 10
107.5600151640822
 20
-134.9939995322237
 30
0.0
 10
107.5600151640822
 20
-136.0220160250223
 30
0.0
 10
107.5600151640822
 20
-136.0220160250223
 30
0.0
 10
107.2024142527133
 20
-135.990321146558
 30
0.0
 10
107.1242105851981
 20
-135.9248643323382
 30
0.0
 10
106.8258653161755
 20
-135.5397026570873
 30
0.0
 10
106.6270833066766
 20
-135.2837320625332
 30
0.0
 10
106.5592149256171
 20
-135.2182752483135
 30
0.0
 10
106.4217556157557
 20
-135.2182752483135
 30
0.0
 10
106.3032443310631
 20
-135.2182752483135
 30
0.0
 10
106.1723307026236
 20
-135.2902777439552
 30
0.0
 10
106.1723307026236
 20
-135.486992696163
 30
0.0
 10
106.1723307026236
 20
-135.7470974052993
 30
0.0
 10
106.4028075905868
 20
-135.7553656344639
 30
0.0
 10
106.5192518179882
 20
-135.7598442585948
 30
0.0
 10
106.5192518179882
 20
-135.7598442585948
 30
0.0
 10
106.5192518179882
 20
-135.9841199746845
 30
0.0
 10
106.5192518179882
 20
-135.9841199746845
 30
0.0
 10
106.3921277945825
 20
-135.9755072359714
 30
0.0
 10
106.2801621913119
 20
-135.9648274399671
 30
0.0
 10
106.1616509066193
 20
-135.8845567151608
 30
0.0
 10
106.0007649474582
 20
-135.7746581691814
 30
0.0
 10
105.9670030117027
 20
-135.5882785034293
 30
0.0
 10
105.9670030117027
 20
-135.4721787855764
 30
0.0
 10
105.9670030117027
 20
-135.1948485990138
 30
0.0
 10
106.150971110615
 20
-134.9874538508018
 30
0.0
 10
106.4238226730468
 20
-134.9874538508018
 30
0.0
 10
106.6525770132674
 20
-134.9874538508018
 30
0.0
 10
106.7517957632426
 20
-135.1038980782032
 30
0.0
 10
106.9781385366235
 20
-135.4129231432301
 30
0.0
  0
HATCH
  5
138
330
133
100
AcDbEntity
  8
_U+30EC_U+30A4_U+30E4_U+30FC 1
 62
     7
420
 16777215
100
AcDbHatch
 10
0.0
 20
0.0
 30
0.0
210
0.0
220
0.0
230
1.0
  2
SOLID
 70
     1
 71
     0
 91
        1
 92
        1
 93
        1
 72
     4
 94
        3
 73
     0
 74
     1
 95
       44
 96
       40
 40
0.0
 40
0.0
 40
0.0
 40
0.0
 40
1.0
 40
1.0
 40
1.0
 40
2.0
 40
2.0
 40
2.0
 40
3.0
 40
3.0
 40
3.0
 40
4.0
 40
4.0
 40
4.0
 40
5.0
 40
5.0
 40
5.0
 40
6.0
 40
6.0
 40
6.0
 40
7.0
 40
7.0
 40
7.0
 40
8.0
 40
8.0
 40
8.0
 40
9.0
 40
9.0
 40
9.0
 40
10.0
 40
10.0
 40
10.0
 40
11.0
 40
11.0
 40
11.0
 40
12.0
 40
12.0
 40
12.0
 40
13.0
 40
13.0
 40
13.0
 40
13.0
 10
106.9781385366235
 20
-135.4129231432301
 10
107.1369574384935
 20
-135.6306531778979
 10
107.2110269914264
 20
-135.7236707559996
 10
107.3546874731613
 20
-135.7725911118902
 10
107.3546874731613
 20
-135.7725911118902
 10
107.3546874731613
 20
-134.9939995322237
 10
107.3546874731613
 20
-134.9939995322237
 10
107.3546874731613
 20
-134.9939995322237
 10
107.5600151640822
 20
-134.9939995322237
 10
107.5600151640822
 20
-134.9939995322237
 10
107.5600151640822
 20
-134.9939995322237
 10
107.5600151640822
 20
-136.0220160250223
 10
107.5600151640822
 20
-136.0220160250223
 10
107.2024142527133
 20
-135.990321146558
 10
107.1242105851981
 20
-135.9248643323382
 10
106.8258653161755
 20
-135.5397026570873
 10
106.6270833066766
 20
-135.2837320625332
 10
106.5592149256171
 20
-135.2182752483135
 10
106.4217556157557
 20
-135.2182752483135
 10
106.3032443310631
 20
-135.2182752483135
 10
106.1723307026236
 20
-135.2902777439552
 10
106.1723307026236
 20
-135.486992696163
 10
106.1723307026236
 20
-135.7470974052993
 10
106.4028075905868
 20
-135.7553656344639
 10
106.5192518179882
 20
-135.7598442585948
 10
106.5192518179882
 20
-135.7598442585948
 10
106.5192518179882
 20
-135.9841199746845
 10
106.5192518179882
 20
-135.9841199746845
 10
106.3921277945825
 20
-135.9755072359714
 10
106.2801621913119
 20
-135.9648274399671
 10
106.1616509066193
 20
-135.8845567151608
 10
106.0007649474582
 20
-135.7746581691814
 10
105.9670030117027
 20
-135.5882785034293
 10
105.9670030117027
 20
-135.4721787855764
 10
105.9670030117027
 20
-135.1948485990138
 10
106.150971110615
 20
-134.9874538508018
 10
106.4238226730468
 20
-134.9874538508018
 10
106.6525770132674
 20
-134.9874538508018
 10
106.7517957632426
 20
-135.1038980782032
 10
106.9781385366235
 20
-135.4129231432301
 97
        0
 97
        0
 75
     2
 76
     1
 98
        0
  0
POLYLINE
  5
139
330
133
100
AcDbEntity
  8
_U+30EC_U+30A4_U+30E4_U+30FC 1
370
     0
100
AcDb2dPolyline
 66
     1
 10
0.0
 20
0.0
 30
0.0
  0
VERTEX
  5
13A
330
139
100
AcDbEntity
  8
_U+30EC_U+30A4_U+30E4_U+30FC 1
370
     0
100
AcDbVertex
100
AcDb2dVertex
 10
107.5600151640822
 20
-134.7690347970369
 30
0.0
  0
VERTEX
  5
13B
330
139
100
AcDbEntity
  8
_U+30EC_U+30A4_U+30E4_U+30FC 1
370
     0
100
AcDbVertex
100
AcDb2dVertex
 10
107.3081786841105
 20
-134.7690347970369
 30
0.0
  0
VERTEX
  5
13C
330
139
100
AcDbEntity
  8
_U+30EC_U+30A4_U+30E4_U+30FC 1
370
     0
100
AcDbVertex
100
AcDb2dVertex
 10
107.3081786841105
 20
-134.5171983170652
 30
0.0
  0
VERTEX
  5
13D
330
139
100
AcDbEntity
  8
_U+30EC_U+30A4_U+30E4_U+30FC 1
370
     0
100
AcDbVertex
100
AcDb2dVertex
 10
107.5600151640822
 20
-134.5171983170652
 30
0.0
  0
VERTEX
  5
13E
330
139
100
AcDbEntity
  8
_U+30EC_U+30A4_U+30E4_U+30FC 1
370
     0
100
AcDbVertex
100
AcDb2dVertex
 10
107.5600151640822
 20
-134.7690347970369
 30
0.0
  0
SEQEND
  5
13F
330
139
100
AcDbEntity
  8
_U+30EC_U+30A4_U+30E4_U+30FC 1
370
     0
  0
HATCH
  5
140
330
133
100
AcDbEntity
  8
_U+30EC_U+30A4_U+30E4_U+30FC 1
 62
     7
420
 16777215
100
AcDbHatch
 10
0.0
 20
0.0
 30
0.0
210
0.0
220
0.0
230
1.0
  2
SOLID
 70
     1
 71
     0
 91
        1
 92
        1
 93
        4
 72
     1
 10
107.5600151640822
 20
-134.7690347970369
 11
107.3081786841105
 21
-134.7690347970369
 72
     1
 10
107.3081786841105
 20
-134.7690347970369
 11
107.3081786841105
 21
-134.5171983170652
 72
     1
 10
107.3081786841105
 20
-134.5171983170652
 11
107.5600151640822
 21
-134.5171983170652
 72
     1
 10
107.5600151640822
 20
-134.5171983170652
 11
107.5600151640822
 21
-134.7690347970369
 97
        0
 75
     2
 76
     1
 98
        0
  0
SPLINE
  5
141
330
133
100
AcDbEntity
  8
_U+30EC_U+30A4_U+30E4_U+30FC 1
370
     0
100
AcDbSpline
210
0.0
220
0.0
230
1.0
 70
    11
 71
     3
 72
    53
 73
    49
 74
     0
 42
0.0000000001
 43
0.0000000001
 12
1.0
 22
0.0
 32
0.0
 13
1.0
 23
0.0
 33
0.0
 40
0.0
 40
0.0
 40
0.0
 40
0.0
 40
1.0
 40
1.0
 40
1.0
 40
2.0
 40
2.0
 40
2.0
 40
3.0
 40
3.0
 40
3.0
 40
4.0
 40
4.0
 40
4.0
 40
5.0
 40
5.0
 40
5.0
 40
6.0
 40
6.0
 40
6.0
 40
7.0
 40
7.0
 40
7.0
 40
8.0
 40
8.0
 40
8.0
 40
9.0
 40
9.0
 40
9.0
 40
10.0
 40
10.0
 40
10.0
 40
11.0
 40
11.0
 40
11.0
 40
12.0
 40
12.0
 40
12.0
 40
13.0
 40
13.0
 40
13.0
 40
14.0
 40
14.0
 40
14.0
 40
15.0
 40
15.0
 40
15.0
 40
16.0
 40
16.0
 40
16.0
 40
16.0
 10
107.6106580677154
 20
-133.7999294370361
 30
0.0
 10
107.6106580677154
 20
-133.8781331045513
 30
0.0
 10
107.5937770998377
 20
-133.9797634213662
 30
0.0
 10
107.5303873429091
 20
-134.081393738181
 30
0.0
 10
107.4204887969296
 20
-134.2546820410891
 30
0.0
 10
107.2892306589416
 20
-134.2760416330977
 30
0.0
 10
107.1813991702533
 20
-134.2949896582665
 30
0.0
 10
107.1813991702533
 20
-134.2949896582665
 30
0.0
 10
107.1813991702533
 20
-134.0727809994679
 30
0.0
 10
107.1813991702533
 20
-134.0727809994679
 30
0.0
 10
107.3801811797522
 20
-134.0180039812525
 30
0.0
 10
107.4098090009253
 20
-133.8908799578467
 30
0.0
 10
107.4098090009253
 20
-133.797862379745
 30
0.0
 10
107.4098090009253
 20
-133.6583360125924
 30
0.0
 10
107.3102457414016
 20
-133.5060627921443
 30
0.0
 10
107.0777017961473
 20
-133.5060627921443
 30
0.0
 10
106.8217312015932
 20
-133.5060627921443
 30
0.0
 10
106.7517957632426
 20
-133.6858967764744
 30
0.0
 10
106.7517957632426
 20
-133.8064751184581
 30
0.0
 10
106.7517957632426
 20
-133.8381699969224
 30
0.0
 10
106.7517957632426
 20
-133.9797634213662
 30
0.0
 10
106.8809868439395
 20
-134.0686468848856
 30
0.0
 10
106.8809868439395
 20
-134.0686468848856
 30
0.0
 10
106.8620388187706
 20
-134.2443467546334
 30
0.0
 10
106.8620388187706
 20
-134.2443467546334
 30
0.0
 10
106.8620388187706
 20
-134.2443467546334
 30
0.0
 10
106.0155788580447
 20
-134.1237684126496
 30
0.0
 10
106.0155788580447
 20
-134.1237684126496
 30
0.0
 10
106.0155788580447
 20
-134.1237684126496
 30
0.0
 10
106.0155788580447
 20
-133.3451768329832
 30
0.0
 10
106.0155788580447
 20
-133.3451768329832
 30
0.0
 10
106.0155788580447
 20
-133.3451768329832
 30
0.0
 10
106.2102267529613
 20
-133.3451768329832
 30
0.0
 10
106.2102267529613
 20
-133.3451768329832
 30
0.0
 10
106.2102267529613
 20
-133.3451768329832
 30
0.0
 10
106.2102267529613
 20
-133.9608153961973
 30
0.0
 10
106.2102267529613
 20
-133.9608153961973
 30
0.0
 10
106.2102267529613
 20
-133.9608153961973
 30
0.0
 10
106.63328447855
 20
-134.0262722104171
 30
0.0
 10
106.63328447855
 20
-134.0262722104171
 30
0.0
 10
106.5995225427946
 20
-133.9649495107796
 30
0.0
 10
106.5592149256171
 20
-133.8826117286821
 30
0.0
 10
106.5592149256171
 20
-133.7641004439895
 30
0.0
 10
106.5592149256171
 20
-133.5101969067266
 30
0.0
 10
106.7455945913692
 20
-133.2731743373414
 30
0.0
 10
107.0587537709784
 20
-133.2731743373414
 30
0.0
 10
107.3760470651699
 20
-133.2731743373414
 30
0.0
 10
107.6106580677154
 20
-133.4974500534312
 30
0.0
 10
107.6106580677154
 20
-133.7999294370361
 30
0.0
  0
HATCH
  5
142
330
133
100
AcDbEntity
  8
_U+30EC_U+30A4_U+30E4_U+30FC 1
 62
     7
420
 16777215
100
AcDbHatch
 10
0.0
 20
0.0
 30
0.0
210
0.0
220
0.0
230
1.0
  2
SOLID
 70
     1
 71
     0
 91
        1
 92
        1
 93
        1
 72
     4
 94
        3
 73
     0
 74
     1
 95
       53
 96
       49
 40
0.0
 40
0.0
 40
0.0
 40
0.0
 40
1.0
 40
1.0
 40
1.0
 40
2.0
 40
2.0
 40
2.0
 40
3.0
 40
3.0
 40
3.0
 40
4.0
 40
4.0
 40
4.0
 40
5.0
 40
5.0
 40
5.0
 40
6.0
 40
6.0
 40
6.0
 40
7.0
 40
7.0
 40
7.0
 40
8.0
 40
8.0
 40
8.0
 40
9.0
 40
9.0
 40
9.0
 40
10.0
 40
10.0
 40
10.0
 40
11.0
 40
11.0
 40
11.0
 40
12.0
 40
12.0
 40
12.0
 40
13.0
 40
13.0
 40
13.0
 40
14.0
 40
14.0
 40
14.0
 40
15.0
 40
15.0
 40
15.0
 40
16.0
 40
16.0
 40
16.0
 40
16.0
 10
107.6106580677154
 20
-133.7999294370361
 10
107.6106580677154
 20
-133.8781331045513
 10
107.5937770998377
 20
-133.9797634213662
 10
107.5303873429091
 20
-134.081393738181
 10
107.4204887969296
 20
-134.2546820410891
 10
107.2892306589416
 20
-134.2760416330977
 10
107.1813991702533
 20
-134.2949896582665
 10
107.1813991702533
 20
-134.2949896582665
 10
107.1813991702533
 20
-134.0727809994679
 10
107.1813991702533
 20
-134.0727809994679
 10
107.3801811797522
 20
-134.0180039812525
 10
107.4098090009253
 20
-133.8908799578467
 10
107.4098090009253
 20
-133.797862379745
 10
107.4098090009253
 20
-133.6583360125924
 10
107.3102457414016
 20
-133.5060627921443
 10
107.0777017961473
 20
-133.5060627921443
 10
106.8217312015932
 20
-133.5060627921443
 10
106.7517957632426
 20
-133.6858967764744
 10
106.7517957632426
 20
-133.8064751184581
 10
106.7517957632426
 20
-133.8381699969224
 10
106.7517957632426
 20
-133.9797634213662
 10
106.8809868439395
 20
-134.0686468848856
 10
106.8809868439395
 20
-134.0686468848856
 10
106.8620388187706
 20
-134.2443467546334
 10
106.8620388187706
 20
-134.2443467546334
 10
106.8620388187706
 20
-134.2443467546334
 10
106.0155788580447
 20
-134.1237684126496
 10
106.0155788580447
 20
-134.1237684126496
 10
106.0155788580447
 20
-134.1237684126496
 10
106.0155788580447
 20
-133.3451768329832
 10
106.0155788580447
 20
-133.3451768329832
 10
106.0155788580447
 20
-133.3451768329832
 10
106.2102267529613
 20
-133.3451768329832
 10
106.2102267529613
 20
-133.3451768329832
 10
106.2102267529613
 20
-133.3451768329832
 10
106.2102267529613
 20
-133.9608153961973
 10
106.2102267529613
 20
-133.9608153961973
 10
106.2102267529613
 20
-133.9608153961973
 10
106.63328447855
 20
-134.0262722104171
 10
106.63328447855
 20
-134.0262722104171
 10
106.5995225427946
 20
-133.9649495107796
 10
106.5592149256171
 20
-133.8826117286821
 10
106.5592149256171
 20
-133.7641004439895
 10
106.5592149256171
 20
-133.5101969067266
 10
106.7455945913692
 20
-133.2731743373414
 10
107.0587537709784
 20
-133.2731743373414
 10
107.3760470651699
 20
-133.2731743373414
 10
107.6106580677154
 20
-133.4974500534312
 10
107.6106580677154
 20
-133.7999294370361
 97
        0
 97
        0
 75
     2
 76
     1
 98
        0
  0
ENDBLK
  5
136
330
133
100
AcDbEntity
  8
0
100
AcDbBlockEnd
  0
BLOCK
  5
155
330
153
100
AcDbEntity
  8
0
100
AcDbBlockBegin
  2
block 9
 70
     0
 10
0.0
 20
0.0
 30
0.0
  3
block 9
  1

  0
SPLINE
  5
157
330
153
100
AcDbEntity
  8
_U+30EC_U+30A4_U+30E4_U+30FC 1
370
     0
100
AcDbSpline
210
0.0
220
0.0
230
1.0
 70
    11
 71
     3
 72
    29
 73
    25
 74
     0
 42
0.0000000001
 43
0.0000000001
 12
1.0
 22
0.0
 32
0.0
 13
1.0
 23
0.0
 33
0.0
 40
0.0
 40
0.0
 40
0.0
 40
0.0
 40
1.0
 40
1.0
 40
1.0
 40
2.0
 40
2.0
 40
2.0
 40
3.0
 40
3.0
 40
3.0
 40
4.0
 40
4.0
 40
4.0
 40
5.0
 40
5.0
 40
5.0
 40
6.0
 40
6.0
 40
6.0
 40
7.0
 40
7.0
 40
7.0
 40
8.0
 40
8.0
 40
8.0
 40
8.0
 10
83.39404837324871
 20
-115.4186224754856
 30
0.0
 10
83.28587237501186
 20
-115.6280842809888
 30
0.0
 10
83.1125840721038
 20
-115.647204560932
 30
0.0
 10
82.99613984470236
 20
-115.647204560932
 30
0.0
 10
82.83525388554119
 20
-115.647204560932
 30
0.0
 10
82.69366046109742
 20
-115.6006957718811
 30
0.0
 10
82.59857582570453
 20
-115.4186224754856
 30
0.0
 10
82.49487845159851
 20
-115.223974580569
 30
0.0
 10
82.4755859168811
 20
-114.9871242659581
 30
0.0
 10
82.4755859168811
 20
-114.8241712495058
 30
0.0
 10
82.4755859168811
 20
-114.6803385129966
 30
0.0
 10
82.49281139430735
 20
-114.4286742877991
 30
0.0
 10
82.59857582570453
 20
-114.2297200235259
 30
0.0
 10
82.70640731439285
 20
-114.0266316446704
 30
0.0
 10
82.86729327355401
 20
-114.003377250145
 30
0.0
 10
82.99613984470236
 20
-114.003377250145
 30
0.0
 10
83.15495874657238
 20
-114.003377250145
 30
0.0
 10
83.29861922830729
 20
-114.0478189819047
 30
0.0
 10
83.39404837324871
 20
-114.2297200235259
 30
0.0
 10
83.49326712322392
 20
-114.4223008611514
 30
0.0
 10
83.51669377252361
 20
-114.6507106918234
 30
0.0
 10
83.51669377252361
 20
-114.8241712495058
 30
0.0
 10
83.51669377252361
 20
-114.9955647498969
 30
0.0
 10
83.49533418051506
 20
-115.2262138926344
 30
0.0
 10
83.39404837324871
 20
-115.4186224754856
 30
0.0
  0
SPLINE
  5
158
330
153
100
AcDbEntity
  8
_U+30EC_U+30A4_U+30E4_U+30FC 1
370
     0
100
AcDbSpline
210
0.0
220
0.0
230
1.0
 70
    11
 71
     3
 72
    17
 73
    13
 74
     0
 42
0.0000000001
 43
0.0000000001
 12
1.0
 22
0.0
 32
0.0
 13
1.0
 23
0.0
 33
0.0
 40
0.0
 40
0.0
 40
0.0
 40
0.0
 40
1.0
 40
1.0
 40
1.0
 40
2.0
 40
2.0
 40
2.0
 40
3.0
 40
3.0
 40
3.0
 40
4.0
 40
4.0
 40
4.0
 40
4.0
 10
82.99613984470236
 20
-114.1959580877705
 30
0.0
 10
82.74637042202174
 20
-114.1959580877705
 30
0.0
 10
82.69986163297087
 20
-114.4794894462065
 30
0.0
 10
82.69986163297087
 20
-114.8241712495058
 30
0.0
 10
82.69986163297087
 20
-115.1437038557627
 30
0.0
 10
82.736035135566
 20
-115.4525566660153
 30
0.0
 10
82.99613984470236
 20
-115.4525566660153
 30
0.0
 10
83.24384221009183
 20
-115.4525566660153
 30
0.0
 10
83.29241805643385
 20
-115.1710923648704
 30
0.0
 10
83.29241805643385
 20
-114.8241712495058
 30
0.0
 10
83.29241805643385
 20
-114.5048108980231
 30
0.0
 10
83.25417749654757
 20
-114.1959580877705
 30
0.0
 10
82.99613984470236
 20
-114.1959580877705
 30
0.0
  0
HATCH
  5
159
330
153
100
AcDbEntity
  8
_U+30EC_U+30A4_U+30E4_U+30FC 1
 62
     7
420
 16777215
100
AcDbHatch
 10
0.0
 20
0.0
 30
0.0
210
0.0
220
0.0
230
1.0
  2
SOLID
 70
     1
 71
     0
 91
        2
 92
        1
 93
        1
 72
     4
 94
        3
 73
     0
 74
     1
 95
       29
 96
       25
 40
0.0
 40
0.0
 40
0.0
 40
0.0
 40
1.0
 40
1.0
 40
1.0
 40
2.0
 40
2.0
 40
2.0
 40
3.0
 40
3.0
 40
3.0
 40
4.0
 40
4.0
 40
4.0
 40
5.0
 40
5.0
 40
5.0
 40
6.0
 40
6.0
 40
6.0
 40
7.0
 40
7.0
 40
7.0
 40
8.0
 40
8.0
 40
8.0
 40
8.0
 10
83.39404837324871
 20
-115.4186224754856
 10
83.28587237501186
 20
-115.6280842809888
 10
83.1125840721038
 20
-115.647204560932
 10
82.99613984470236
 20
-115.647204560932
 10
82.83525388554119
 20
-115.647204560932
 10
82.69366046109742
 20
-115.6006957718811
 10
82.59857582570453
 20
-115.4186224754856
 10
82.49487845159851
 20
-115.223974580569
 10
82.4755859168811
 20
-114.9871242659581
 10
82.4755859168811
 20
-114.8241712495058
 10
82.4755859168811
 20
-114.6803385129966
 10
82.49281139430735
 20
-114.4286742877991
 10
82.59857582570453
 20
-114.2297200235259
 10
82.70640731439285
 20
-114.0266316446704
 10
82.86729327355401
 20
-114.003377250145
 10
82.99613984470236
 20
-114.003377250145
 10
83.15495874657238
 20
-114.003377250145
 10
83.29861922830729
 20
-114.0478189819047
 10
83.39404837324871
 20
-114.2297200235259
 10
83.49326712322392
 20
-114.4223008611514
 10
83.51669377252361
 20
-114.6507106918234
 10
83.51669377252361
 20
-114.8241712495058
 10
83.51669377252361
 20
-114.9955647498969
 10
83.49533418051506
 20
-115.2262138926344
 10
83.39404837324871
 20
-115.4186224754856
 97
        0
 97
        0
 92
        1
 93
        1
 72
     4
 94
        3
 73
     0
 74
     1
 95
       17
 96
       13
 40
0.0
 40
0.0
 40
0.0
 40
0.0
 40
1.0
 40
1.0
 40
1.0
 40
2.0
 40
2.0
 40
2.0
 40
3.0
 40
3.0
 40
3.0
 40
4.0
 40
4.0
 40
4.0
 40
4.0
 10
82.99613984470236
 20
-114.1959580877705
 10
82.74637042202174
 20
-114.1959580877705
 10
82.69986163297087
 20
-114.4794894462065
 10
82.69986163297087
 20
-114.8241712495058
 10
82.69986163297087
 20
-115.1437038557627
 10
82.736035135566
 20
-115.4525566660153
 10
82.99613984470236
 20
-115.4525566660153
 10
83.24384221009183
 20
-115.4525566660153
 10
83.29241805643385
 20
-115.1710923648704
 10
83.29241805643385
 20
-114.8241712495058
 10
83.29241805643385
 20
-114.5048108980231
 10
83.25417749654757
 20
-114.1959580877705
 10
82.99613984470236
 20
-114.1959580877705
 97
        0
 97
        0
 75
     2
 76
     1
 98
        0
  0
POLYLINE
  5
15A
330
153
100
AcDbEntity
  8
_U+30EC_U+30A4_U+30E4_U+30FC 1
370
     0
100
AcDb2dPolyline
 66
     1
 10
0.0
 20
0.0
 30
0.0
  0
VERTEX
  5
15B
330
15A
100
AcDbEntity
  8
_U+30EC_U+30A4_U+30E4_U+30FC 1
370
     0
100
AcDbVertex
100
AcDb2dVertex
 10
83.7330457689973
 20
-115.5963894025245
 30
0.0
  0
VERTEX
  5
15C
330
15A
100
AcDbEntity
  8
_U+30EC_U+30A4_U+30E4_U+30FC 1
370
     0
100
AcDbVertex
100
AcDb2dVertex
 10
83.7330457689973
 20
-115.344725177327
 30
0.0
  0
VERTEX
  5
15D
330
15A
100
AcDbEntity
  8
_U+30EC_U+30A4_U+30E4_U+30FC 1
370
     0
100
AcDbVertex
100
AcDb2dVertex
 10
83.98488224896906
 20
-115.344725177327
 30
0.0
  0
VERTEX
  5
15E
330
15A
100
AcDbEntity
  8
_U+30EC_U+30A4_U+30E4_U+30FC 1
370
     0
100
AcDbVertex
100
AcDb2dVertex
 10
83.98488224896906
 20
-115.5963894025245
 30
0.0
  0
VERTEX
  5
15F
330
15A
100
AcDbEntity
  8
_U+30EC_U+30A4_U+30E4_U+30FC 1
370
     0
100
AcDbVertex
100
AcDb2dVertex
 10
83.7330457689973
 20
-115.5963894025245
 30
0.0
  0
SEQEND
  5
160
330
15A
100
AcDbEntity
  8
_U+30EC_U+30A4_U+30E4_U+30FC 1
370
     0
  0
HATCH
  5
161
330
153
100
AcDbEntity
  8
_U+30EC_U+30A4_U+30E4_U+30FC 1
 62
     7
420
 16777215
100
AcDbHatch
 10
0.0
 20
0.0
 30
0.0
210
0.0
220
0.0
230
1.0
  2
SOLID
 70
     1
 71
     0
 91
        1
 92
        1
 93
        4
 72
     1
 10
83.7330457689973
 20
-115.5963894025245
 11
83.7330457689973
 21
-115.344725177327
 72
     1
 10
83.7330457689973
 20
-115.344725177327
 11
83.98488224896906
 21
-115.344725177327
 72
     1
 10
83.98488224896906
 20
-115.344725177327
 11
83.98488224896906
 21
-115.5963894025245
 72
     1
 10
83.98488224896906
 20
-115.5963894025245
 11
83.7330457689973
 21
-115.5963894025245
 97
        0
 75
     2
 76
     1
 98
        0
  0
SPLINE
  5
162
330
153
100
AcDbEntity
  8
_U+30EC_U+30A4_U+30E4_U+30FC 1
370
     0
100
AcDbSpline
210
0.0
220
0.0
230
1.0
 70
    11
 71
     3
 72
    29
 73
    25
 74
     0
 42
0.0000000001
 43
0.0000000001
 12
1.0
 22
0.0
 32
0.0
 13
1.0
 23
0.0
 33
0.0
 40
0.0
 40
0.0
 40
0.0
 40
0.0
 40
1.0
 40
1.0
 40
1.0
 40
2.0
 40
2.0
 40
2.0
 40
3.0
 40
3.0
 40
3.0
 40
4.0
 40
4.0
 40
4.0
 40
5.0
 40
5.0
 40
5.0
 40
6.0
 40
6.0
 40
6.0
 40
7.0
 40
7.0
 40
7.0
 40
8.0
 40
8.0
 40
8.0
 40
8.0
 10
84.72109915416695
 20
-115.647204560932
 30
0.0
 10
84.45444876360861
 20
-115.647204560932
 30
0.0
 10
84.20088973589422
 20
-115.5095729962962
 30
0.0
 10
84.20088973589422
 20
-115.1605848236404
 30
0.0
 10
84.20088973589422
 20
-114.9046142290863
 30
0.0
 10
84.34248316033799
 20
-114.8093573389192
 30
0.0
 10
84.44824759173517
 20
-114.7480346392817
 30
0.0
 10
84.32353513516912
 20
-114.6887789969355
 30
0.0
 10
84.2473985249451
 20
-114.5745740815994
 30
0.0
 10
84.2473985249451
 20
-114.4138603772125
 30
0.0
 10
84.2473985249451
 20
-114.1387695027153
 30
0.0
 10
84.44618053444401
 20
-114.003377250145
 30
0.0
 10
84.72109915416695
 20
-114.003377250145
 30
0.0
 10
85.00463051260301
 20
-114.003377250145
 30
0.0
 10
85.19514429293733
 20
-114.1472099866542
 30
0.0
 10
85.19514429293733
 20
-114.4138603772125
 30
0.0
 10
85.19514429293733
 20
-114.5745740815994
 30
0.0
 10
85.11659611587363
 20
-114.6887789969355
 30
0.0
 10
84.99188365930759
 20
-114.7480346392817
 30
0.0
 10
85.08076712282704
 20
-114.7988497976892
 30
0.0
 10
85.23958602469705
 20
-114.8941066878563
 30
0.0
 10
85.23958602469705
 20
-115.1564507090581
 30
0.0
 10
85.23958602469705
 20
-115.5307603335305
 30
0.0
 10
84.9601887808433
 20
-115.647204560932
 30
0.0
 10
84.72109915416695
 20
-115.647204560932
 30
0.0
  0
SPLINE
  5
163
330
153
100
AcDbEntity
  8
_U+30EC_U+30A4_U+30E4_U+30FC 1
370
     0
100
AcDbSpline
210
0.0
220
0.0
230
1.0
 70
    11
 71
     3
 72
    17
 73
    13
 74
     0
 42
0.0000000001
 43
0.0000000001
 12
1.0
 22
0.0
 32
0.0
 13
1.0
 23
0.0
 33
0.0
 40
0.0
 40
0.0
 40
0.0
 40
0.0
 40
1.0
 40
1.0
 40
1.0
 40
2.0
 40
2.0
 40
2.0
 40
3.0
 40
3.0
 40
3.0
 40
4.0
 40
4.0
 40
4.0
 40
4.0
 10
84.72109915416695
 20
-114.8560383827443
 30
0.0
 10
84.57743867243204
 20
-114.8560383827443
 30
0.0
 10
84.42482094243546
 20
-114.9426825341984
 30
0.0
 10
84.42482094243546
 20
-115.1457709130538
 30
0.0
 10
84.42482094243546
 20
-115.3509263492005
 30
0.0
 10
84.55194496584119
 20
-115.4525566660153
 30
0.0
 10
84.72109915416695
 20
-115.4525566660153
 30
0.0
 10
84.90713431037044
 20
-115.4525566660153
 30
0.0
 10
85.01737736589844
 20
-115.3299112667404
 30
0.0
 10
85.01737736589844
 20
-115.1521443397016
 30
0.0
 10
85.01737736589844
 20
-114.9299356809029
 30
0.0
 10
84.85442434944612
 20
-114.8560383827443
 30
0.0
 10
84.72109915416695
 20
-114.8560383827443
 30
0.0
  0
SPLINE
  5
164
330
153
100
AcDbEntity
  8
_U+30EC_U+30A4_U+30E4_U+30FC 1
370
     0
100
AcDbSpline
210
0.0
220
0.0
230
1.0
 70
    11
 71
     3
 72
    17
 73
    13
 74
     0
 42
0.0000000001
 43
0.0000000001
 12
1.0
 22
0.0
 32
0.0
 13
1.0
 23
0.0
 33
0.0
 40
0.0
 40
0.0
 40
0.0
 40
0.0
 40
1.0
 40
1.0
 40
1.0
 40
2.0
 40
2.0
 40
2.0
 40
3.0
 40
3.0
 40
3.0
 40
4.0
 40
4.0
 40
4.0
 40
4.0
 10
84.72109915416695
 20
-114.1959580877705
 30
0.0
 10
84.55607908042349
 20
-114.1959580877705
 30
0.0
 10
84.47167424103486
 20
-114.2910427231634
 30
0.0
 10
84.47167424103486
 20
-114.4264349757337
 30
0.0
 10
84.47167424103486
 20
-114.5492526297828
 30
0.0
 10
84.54333222712806
 20
-114.6677639144754
 30
0.0
 10
84.72109915416695
 20
-114.6677639144754
 30
0.0
 10
84.89886608120584
 20
-114.6677639144754
 30
0.0
 10
84.97086857684756
 20
-114.5492526297828
 30
0.0
 10
84.97086857684756
 20
-114.4264349757337
 30
0.0
 10
84.97086857684756
 20
-114.2910427231634
 30
0.0
 10
84.88405217061927
 20
-114.1959580877705
 30
0.0
 10
84.72109915416695
 20
-114.1959580877705
 30
0.0
  0
HATCH
  5
165
330
153
100
AcDbEntity
  8
_U+30EC_U+30A4_U+30E4_U+30FC 1
 62
     7
420
 16777215
100
AcDbHatch
 10
0.0
 20
0.0
 30
0.0
210
0.0
220
0.0
230
1.0
  2
SOLID
 70
     1
 71
     0
 91
        3
 92
        1
 93
        1
 72
     4
 94
        3
 73
     0
 74
     1
 95
       29
 96
       25
 40
0.0
 40
0.0
 40
0.0
 40
0.0
 40
1.0
 40
1.0
 40
1.0
 40
2.0
 40
2.0
 40
2.0
 40
3.0
 40
3.0
 40
3.0
 40
4.0
 40
4.0
 40
4.0
 40
5.0
 40
5.0
 40
5.0
 40
6.0
 40
6.0
 40
6.0
 40
7.0
 40
7.0
 40
7.0
 40
8.0
 40
8.0
 40
8.0
 40
8.0
 10
84.72109915416695
 20
-115.647204560932
 10
84.45444876360861
 20
-115.647204560932
 10
84.20088973589422
 20
-115.5095729962962
 10
84.20088973589422
 20
-115.1605848236404
 10
84.20088973589422
 20
-114.9046142290863
 10
84.34248316033799
 20
-114.8093573389192
 10
84.44824759173517
 20
-114.7480346392817
 10
84.32353513516912
 20
-114.6887789969355
 10
84.2473985249451
 20
-114.5745740815994
 10
84.2473985249451
 20
-114.4138603772125
 10
84.2473985249451
 20
-114.1387695027153
 10
84.44618053444401
 20
-114.003377250145
 10
84.72109915416695
 20
-114.003377250145
 10
85.00463051260301
 20
-114.003377250145
 10
85.19514429293733
 20
-114.1472099866542
 10
85.19514429293733
 20
-114.4138603772125
 10
85.19514429293733
 20
-114.5745740815994
 10
85.11659611587363
 20
-114.6887789969355
 10
84.99188365930759
 20
-114.7480346392817
 10
85.08076712282704
 20
-114.7988497976892
 10
85.23958602469705
 20
-114.8941066878563
 10
85.23958602469705
 20
-115.1564507090581
 10
85.23958602469705
 20
-115.5307603335305
 10
84.9601887808433
 20
-115.647204560932
 10
84.72109915416695
 20
-115.647204560932
 97
        0
 97
        0
 92
        1
 93
        1
 72
     4
 94
        3
 73
     0
 74
     1
 95
       17
 96
       13
 40
0.0
 40
0.0
 40
0.0
 40
0.0
 40
1.0
 40
1.0
 40
1.0
 40
2.0
 40
2.0
 40
2.0
 40
3.0
 40
3.0
 40
3.0
 40
4.0
 40
4.0
 40
4.0
 40
4.0
 10
84.72109915416695
 20
-114.8560383827443
 10
84.57743867243204
 20
-114.8560383827443
 10
84.42482094243546
 20
-114.9426825341984
 10
84.42482094243546
 20
-115.1457709130538
 10
84.42482094243546
 20
-115.3509263492005
 10
84.55194496584119
 20
-115.4525566660153
 10
84.72109915416695
 20
-115.4525566660153
 10
84.90713431037044
 20
-115.4525566660153
 10
85.01737736589844
 20
-115.3299112667404
 10
85.01737736589844
 20
-115.1521443397016
 10
85.01737736589844
 20
-114.9299356809029
 10
84.85442434944612
 20
-114.8560383827443
 10
84.72109915416695
 20
-114.8560383827443
 97
        0
 97
        0
 92
        1
 93
        1
 72
     4
 94
        3
 73
     0
 74
     1
 95
       17
 96
       13
 40
0.0
 40
0.0
 40
0.0
 40
0.0
 40
1.0
 40
1.0
 40
1.0
 40
2.0
 40
2.0
 40
2.0
 40
3.0
 40
3.0
 40
3.0
 40
4.0
 40
4.0
 40
4.0
 40
4.0
 10
84.72109915416695
 20
-114.1959580877705
 10
84.55607908042349
 20
-114.1959580877705
 10
84.47167424103486
 20
-114.2910427231634
 10
84.47167424103486
 20
-114.4264349757337
 10
84.47167424103486
 20
-114.5492526297828
 10
84.54333222712806
 20
-114.6677639144754
 10
84.72109915416695
 20
-114.6677639144754
 10
84.89886608120584
 20
-114.6677639144754
 10
84.97086857684756
 20
-114.5492526297828
 10
84.97086857684756
 20
-114.4264349757337
 10
84.97086857684756
 20
-114.2910427231634
 10
84.88405217061927
 20
-114.1959580877705
 10
84.72109915416695
 20
-114.1959580877705
 97
        0
 97
        0
 75
     2
 76
     1
 98
        0
  0
ENDBLK
  5
156
330
153
100
AcDbEntity
  8
0
100
AcDbBlockEnd
  0
BLOCK
  5
178
330
176
100
AcDbEntity
  8
0
100
AcDbBlockBegin
  2
block 10
 70
     0
 10
0.0
 20
0.0
 30
0.0
  3
block 10
  1

  0
SPLINE
  5
17A
330
176
100
AcDbEntity
  8
_U+30EC_U+30A4_U+30E4_U+30FC 1
370
     0
100
AcDbSpline
210
0.0
220
0.0
230
1.0
 70
    11
 71
     3
 72
    44
 73
    40
 74
     0
 42
0.0000000001
 43
0.0000000001
 12
1.0
 22
0.0
 32
0.0
 13
1.0
 23
0.0
 33
0.0
 40
0.0
 40
0.0
 40
0.0
 40
0.0
 40
1.0
 40
1.0
 40
1.0
 40
2.0
 40
2.0
 40
2.0
 40
3.0
 40
3.0
 40
3.0
 40
4.0
 40
4.0
 40
4.0
 40
5.0
 40
5.0
 40
5.0
 40
6.0
 40
6.0
 40
6.0
 40
7.0
 40
7.0
 40
7.0
 40
8.0
 40
8.0
 40
8.0
 40
9.0
 40
9.0
 40
9.0
 40
10.0
 40
10.0
 40
10.0
 40
11.0
 40
11.0
 40
11.0
 40
12.0
 40
12.0
 40
12.0
 40
13.0
 40
13.0
 40
13.0
 40
13.0
 10
87.14145098732922
 20
-131.6811957136075
 30
0.0
 10
87.11802433802953
 20
-131.6367539818478
 30
0.0
 10
87.0970092555695
 20
-131.5840440209234
 30
0.0
 10
87.09476994350409
 20
-131.3532226234117
 30
0.0
 10
87.09063582892179
 20
-131.1099988821531
 30
0.0
 10
87.03138018657549
 20
-131.040407953351
 30
0.0
 10
86.8536132595366
 20
-131.040407953351
 30
0.0
 10
86.8536132595366
 20
-131.040407953351
 30
0.0
 10
86.44536944453449
 20
-131.040407953351
 30
0.0
 10
86.44536944453449
 20
-131.040407953351
 30
0.0
 10
86.44536944453449
 20
-131.040407953351
 30
0.0
 10
86.44536944453449
 20
-131.6811957136075
 30
0.0
 10
86.44536944453449
 20
-131.6811957136075
 30
0.0
 10
86.44536944453449
 20
-131.6811957136075
 30
0.0
 10
86.21058618721472
 20
-131.6811957136075
 30
0.0
 10
86.21058618721472
 20
-131.6811957136075
 30
0.0
 10
86.21058618721472
 20
-131.6811957136075
 30
0.0
 10
86.21058618721472
 20
-130.1371039171185
 30
0.0
 10
86.21058618721472
 20
-130.1371039171185
 30
0.0
 10
86.21058618721472
 20
-130.1371039171185
 30
0.0
 10
86.88548039277516
 20
-130.1371039171185
 30
0.0
 10
86.88548039277516
 20
-130.1371039171185
 30
0.0
 10
87.1920938909624
 20
-130.1371039171185
 30
0.0
 10
87.35918102199702
 20
-130.3079806531869
 30
0.0
 10
87.35918102199702
 20
-130.5642957572895
 30
0.0
 10
87.35918102199702
 20
-130.6149386609227
 30
0.0
 10
87.35074053805815
 20
-130.6972764430201
 30
0.0
 10
87.30629880629843
 20
-130.777891677375
 30
0.0
 10
87.2472154187264
 20
-130.881589051481
 30
0.0
 10
87.18158634973238
 20
-130.9005370766499
 30
0.0
 10
87.12026365009494
 20
-130.9174180445276
 30
0.0
 10
87.25772295995641
 20
-130.9597927189962
 30
0.0
 10
87.32541908624157
 20
-131.0087130748867
 30
0.0
 10
87.32972545559812
 20
-131.3235948022385
 30
0.0
 10
87.33385957018042
 20
-131.5943793073792
 30
0.0
 10
87.36986081800129
 20
-131.6260741858435
 30
0.0
 10
87.43755694428644
 20
-131.6811957136075
 30
0.0
 10
87.43755694428644
 20
-131.6811957136075
 30
0.0
 10
87.14145098732922
 20
-131.6811957136075
 30
0.0
 10
87.14145098732922
 20
-131.6811957136075
 30
0.0
  0
SPLINE
  5
17B
330
176
100
AcDbEntity
  8
_U+30EC_U+30A4_U+30E4_U+30FC 1
370
     0
100
AcDbSpline
210
0.0
220
0.0
230
1.0
 70
    11
 71
     3
 72
    20
 73
    16
 74
     0
 42
0.0000000001
 43
0.0000000001
 12
1.0
 22
0.0
 32
0.0
 13
1.0
 23
0.0
 33
0.0
 40
0.0
 40
0.0
 40
0.0
 40
0.0
 40
1.0
 40
1.0
 40
1.0
 40
2.0
 40
2.0
 40
2.0
 40
3.0
 40
3.0
 40
3.0
 40
4.0
 40
4.0
 40
4.0
 40
5.0
 40
5.0
 40
5.0
 40
5.0
 10
86.88961450735746
 20
-130.3486327799129
 30
0.0
 10
86.88961450735746
 20
-130.3486327799129
 30
0.0
 10
86.44536944453449
 20
-130.3486327799129
 30
0.0
 10
86.44536944453449
 20
-130.3486327799129
 30
0.0
 10
86.44536944453449
 20
-130.3486327799129
 30
0.0
 10
86.44536944453449
 20
-130.8288790905567
 30
0.0
 10
86.44536944453449
 20
-130.8288790905567
 30
0.0
 10
86.44536944453449
 20
-130.8288790905567
 30
0.0
 10
86.88754745006631
 20
-130.8288790905567
 30
0.0
 10
86.88754745006631
 20
-130.8288790905567
 30
0.0
 10
86.98693845481577
 20
-130.8288790905567
 30
0.0
 10
87.12233070738608
 20
-130.7523979707841
 30
0.0
 10
87.12233070738608
 20
-130.5811767251672
 30
0.0
 10
87.12233070738608
 20
-130.502973057652
 30
0.0
 10
87.08839651685638
 20
-130.3486327799129
 30
0.0
 10
86.88961450735746
 20
-130.3486327799129
 30
0.0
  0
HATCH
  5
17C
330
176
100
AcDbEntity
  8
_U+30EC_U+30A4_U+30E4_U+30FC 1
 62
   179
420
  2234388
100
AcDbHatch
 10
0.0
 20
0.0
 30
0.0
210
0.0
220
0.0
230
1.0
  2
SOLID
 70
     1
 71
     0
 91
        2
 92
        1
 93
        1
 72
     4
 94
        3
 73
     0
 74
     1
 95
       44
 96
       40
 40
0.0
 40
0.0
 40
0.0
 40
0.0
 40
1.0
 40
1.0
 40
1.0
 40
2.0
 40
2.0
 40
2.0
 40
3.0
 40
3.0
 40
3.0
 40
4.0
 40
4.0
 40
4.0
 40
5.0
 40
5.0
 40
5.0
 40
6.0
 40
6.0
 40
6.0
 40
7.0
 40
7.0
 40
7.0
 40
8.0
 40
8.0
 40
8.0
 40
9.0
 40
9.0
 40
9.0
 40
10.0
 40
10.0
 40
10.0
 40
11.0
 40
11.0
 40
11.0
 40
12.0
 40
12.0
 40
12.0
 40
13.0
 40
13.0
 40
13.0
 40
13.0
 10
87.14145098732922
 20
-131.6811957136075
 10
87.11802433802953
 20
-131.6367539818478
 10
87.0970092555695
 20
-131.5840440209234
 10
87.09476994350409
 20
-131.3532226234117
 10
87.09063582892179
 20
-131.1099988821531
 10
87.03138018657549
 20
-131.040407953351
 10
86.8536132595366
 20
-131.040407953351
 10
86.8536132595366
 20
-131.040407953351
 10
86.44536944453449
 20
-131.040407953351
 10
86.44536944453449
 20
-131.040407953351
 10
86.44536944453449
 20
-131.040407953351
 10
86.44536944453449
 20
-131.6811957136075
 10
86.44536944453449
 20
-131.6811957136075
 10
86.44536944453449
 20
-131.6811957136075
 10
86.21058618721472
 20
-131.6811957136075
 10
86.21058618721472
 20
-131.6811957136075
 10
86.21058618721472
 20
-131.6811957136075
 10
86.21058618721472
 20
-130.1371039171185
 10
86.21058618721472
 20
-130.1371039171185
 10
86.21058618721472
 20
-130.1371039171185
 10
86.88548039277516
 20
-130.1371039171185
 10
86.88548039277516
 20
-130.1371039171185
 10
87.1920938909624
 20
-130.1371039171185
 10
87.35918102199702
 20
-130.3079806531869
 10
87.35918102199702
 20
-130.5642957572895
 10
87.35918102199702
 20
-130.6149386609227
 10
87.35074053805815
 20
-130.6972764430201
 10
87.30629880629843
 20
-130.777891677375
 10
87.2472154187264
 20
-130.881589051481
 10
87.18158634973238
 20
-130.9005370766499
 10
87.12026365009494
 20
-130.9174180445276
 10
87.25772295995641
 20
-130.9597927189962
 10
87.32541908624157
 20
-131.0087130748867
 10
87.32972545559812
 20
-131.3235948022385
 10
87.33385957018042
 20
-131.5943793073792
 10
87.36986081800129
 20
-131.6260741858435
 10
87.43755694428644
 20
-131.6811957136075
 10
87.43755694428644
 20
-131.6811957136075
 10
87.14145098732922
 20
-131.6811957136075
 10
87.14145098732922
 20
-131.6811957136075
 97
        0
 97
        0
 92
        1
 93
        1
 72
     4
 94
        3
 73
     0
 74
     1
 95
       20
 96
       16
 40
0.0
 40
0.0
 40
0.0
 40
0.0
 40
1.0
 40
1.0
 40
1.0
 40
2.0
 40
2.0
 40
2.0
 40
3.0
 40
3.0
 40
3.0
 40
4.0
 40
4.0
 40
4.0
 40
5.0
 40
5.0
 40
5.0
 40
5.0
 10
86.88961450735746
 20
-130.3486327799129
 10
86.88961450735746
 20
-130.3486327799129
 10
86.44536944453449
 20
-130.3486327799129
 10
86.44536944453449
 20
-130.3486327799129
 10
86.44536944453449
 20
-130.3486327799129
 10
86.44536944453449
 20
-130.8288790905567
 10
86.44536944453449
 20
-130.8288790905567
 10
86.44536944453449
 20
-130.8288790905567
 10
86.88754745006631
 20
-130.8288790905567
 10
86.88754745006631
 20
-130.8288790905567
 10
86.98693845481577
 20
-130.8288790905567
 10
87.12233070738608
 20
-130.7523979707841
 10
87.12233070738608
 20
-130.5811767251672
 10
87.12233070738608
 20
-130.502973057652
 10
87.08839651685638
 20
-130.3486327799129
 10
86.88961450735746
 20
-130.3486327799129
 97
        0
 97
        0
 75
     2
 76
     1
 98
        0
  0
SPLINE
  5
17D
330
176
100
AcDbEntity
  8
_U+30EC_U+30A4_U+30E4_U+30FC 1
370
     0
100
AcDbSpline
210
0.0
220
0.0
230
1.0
 70
    11
 71
     3
 72
    26
 73
    22
 74
     0
 42
0.0000000001
 43
0.0000000001
 12
1.0
 22
0.0
 32
0.0
 13
1.0
 23
0.0
 33
0.0
 40
0.0
 40
0.0
 40
0.0
 40
0.0
 40
1.0
 40
1.0
 40
1.0
 40
2.0
 40
2.0
 40
2.0
 40
3.0
 40
3.0
 40
3.0
 40
4.0
 40
4.0
 40
4.0
 40
5.0
 40
5.0
 40
5.0
 40
6.0
 40
6.0
 40
6.0
 40
7.0
 40
7.0
 40
7.0
 40
7.0
 10
88.02856307478106
 20
-131.6811957136075
 30
0.0
 10
88.02856307478106
 20
-131.6811957136075
 30
0.0
 10
88.02856307478106
 20
-130.5766981010364
 30
0.0
 10
88.02856307478106
 20
-130.5766981010364
 30
0.0
 10
88.02856307478106
 20
-130.5766981010364
 30
0.0
 10
87.69852292729412
 20
-130.5766981010364
 30
0.0
 10
87.69852292729412
 20
-130.5766981010364
 30
0.0
 10
87.69852292729412
 20
-130.5766981010364
 30
0.0
 10
87.69852292729412
 20
-130.4289035047192
 30
0.0
 10
87.69852292729412
 20
-130.4289035047192
 30
0.0
 10
88.0306301320722
 20
-130.4140895941326
 30
0.0
 10
88.07713892112308
 20
-130.2511365776803
 30
0.0
 10
88.10676674229623
 20
-130.1371039171185
 30
0.0
 10
88.10676674229623
 20
-130.1371039171185
 30
0.0
 10
88.25283879087083
 20
-130.1371039171185
 30
0.0
 10
88.25283879087083
 20
-130.1371039171185
 30
0.0
 10
88.25283879087083
 20
-130.1371039171185
 30
0.0
 10
88.25283879087083
 20
-131.6811957136075
 30
0.0
 10
88.25283879087083
 20
-131.6811957136075
 30
0.0
 10
88.25283879087083
 20
-131.6811957136075
 30
0.0
 10
88.02856307478106
 20
-131.6811957136075
 30
0.0
 10
88.02856307478106
 20
-131.6811957136075
 30
0.0
  0
HATCH
  5
17E
330
176
100
AcDbEntity
  8
_U+30EC_U+30A4_U+30E4_U+30FC 1
 62
   179
420
  2234388
100
AcDbHatch
 10
0.0
 20
0.0
 30
0.0
210
0.0
220
0.0
230
1.0
  2
SOLID
 70
     1
 71
     0
 91
        1
 92
        1
 93
        1
 72
     4
 94
        3
 73
     0
 74
     1
 95
       26
 96
       22
 40
0.0
 40
0.0
 40
0.0
 40
0.0
 40
1.0
 40
1.0
 40
1.0
 40
2.0
 40
2.0
 40
2.0
 40
3.0
 40
3.0
 40
3.0
 40
4.0
 40
4.0
 40
4.0
 40
5.0
 40
5.0
 40
5.0
 40
6.0
 40
6.0
 40
6.0
 40
7.0
 40
7.0
 40
7.0
 40
7.0
 10
88.02856307478106
 20
-131.6811957136075
 10
88.02856307478106
 20
-131.6811957136075
 10
88.02856307478106
 20
-130.5766981010364
 10
88.02856307478106
 20
-130.5766981010364
 10
88.02856307478106
 20
-130.5766981010364
 10
87.69852292729412
 20
-130.5766981010364
 10
87.69852292729412
 20
-130.5766981010364
 10
87.69852292729412
 20
-130.5766981010364
 10
87.69852292729412
 20
-130.4289035047192
 10
87.69852292729412
 20
-130.4289035047192
 10
88.0306301320722
 20
-130.4140895941326
 10
88.07713892112308
 20
-130.2511365776803
 10
88.10676674229623
 20
-130.1371039171185
 10
88.10676674229623
 20
-130.1371039171185
 10
88.25283879087083
 20
-130.1371039171185
 10
88.25283879087083
 20
-130.1371039171185
 10
88.25283879087083
 20
-130.1371039171185
 10
88.25283879087083
 20
-131.6811957136075
 10
88.25283879087083
 20
-131.6811957136075
 10
88.25283879087083
 20
-131.6811957136075
 10
88.02856307478106
 20
-131.6811957136075
 10
88.02856307478106
 20
-131.6811957136075
 97
        0
 97
        0
 75
     2
 76
     1
 98
        0
  0
ENDBLK
  5
179
330
176
100
AcDbEntity
  8
0
100
AcDbBlockEnd
  0
ENDSEC
  0
SECTION
  2
ENTITIES
  0
POLYLINE
  5
41
330
1F
100
AcDbEntity
  8
_U+30EC_U+30A4_U+30E4_U+30FC 1
 62
     7
420
 16777215
370
    25
100
AcDb2dPolyline
 66
     1
 10
0.0
 20
0.0
 30
0.0
  0
VERTEX
  5
42
330
41
100
AcDbEntity
  8
_U+30EC_U+30A4_U+30E4_U+30FC 1
 62
     7
420
 16777215
370
    25
100
AcDbVertex
100
AcDb2dVertex
 10
80.0109504587506
 20
-120.1930116366184
 30
0.0
  0
VERTEX
  5
43
330
41
100
AcDbEntity
  8
_U+30EC_U+30A4_U+30E4_U+30FC 1
 62
     7
420
 16777215
370
    25
100
AcDbVertex
100
AcDb2dVertex
 10
80.0109504587506
 20
-133.1574185778221
 30
0.0
  0
SEQEND
  5
44
330
41
100
AcDbEntity
  8
_U+30EC_U+30A4_U+30E4_U+30FC 1
 62
     7
420
 16777215
370
    25
  0
POLYLINE
  5
45
330
1F
100
AcDbEntity
  8
_U+30EC_U+30A4_U+30E4_U+30FC 1
 62
     7
420
 16777215
370
    25
100
AcDb2dPolyline
 66
     1
 10
0.0
 20
0.0
 30
0.0
  0
VERTEX
  5
46
330
45
100
AcDbEntity
  8
_U+30EC_U+30A4_U+30E4_U+30FC 1
 62
     7
420
 16777215
370
    25
100
AcDbVertex
100
AcDb2dVertex
 10
83.54631286855599
 20
-136.6931338547156
 30
0.0
  0
VERTEX
  5
47
330
45
100
AcDbEntity
  8
_U+30EC_U+30A4_U+30E4_U+30FC 1
 62
     7
420
 16777215
370
    25
100
AcDbVertex
100
AcDb2dVertex
 10
101.5104271324755
 20
-136.6931338547156
 30
0.0
  0
SEQEND
  5
48
330
45
100
AcDbEntity
  8
_U+30EC_U+30A4_U+30E4_U+30FC 1
 62
     7
420
 16777215
370
    25
  0
POLYLINE
  5
49
330
1F
100
AcDbEntity
  8
_U+30EC_U+30A4_U+30E4_U+30FC 1
 62
     7
420
 16777215
370
    25
100
AcDb2dPolyline
 66
     1
 10
0.0
 20
0.0
 30
0.0
  0
VERTEX
  5
4A
330
49
100
AcDbEntity
  8
_U+30EC_U+30A4_U+30E4_U+30FC 1
 62
     7
420
 16777215
370
    25
100
AcDbVertex
100
AcDb2dVertex
 10
80.0109504587506
 20
-133.1574185778221
 30
0.0
  0
VERTEX
  5
4B
330
49
100
AcDbEntity
  8
_U+30EC_U+30A4_U+30E4_U+30FC 1
 62
     7
420
 16777215
370
    25
100
AcDbVertex
100
AcDb2dVertex
 10
83.54631286855599
 20
-136.6931338547156
 30
0.0
  0
SEQEND
  5
4C
330
49
100
AcDbEntity
  8
_U+30EC_U+30A4_U+30E4_U+30FC 1
 62
     7
420
 16777215
370
    25
  0
POLYLINE
  5
4D
330
1F
100
AcDbEntity
  8
_U+30EC_U+30A4_U+30E4_U+30FC 1
 62
     7
420
 16777215
370
    25
100
AcDb2dPolyline
 66
     1
 10
0.0
 20
0.0
 30
0.0
  0
VERTEX
  5
4E
330
4D
100
AcDbEntity
  8
_U+30EC_U+30A4_U+30E4_U+30FC 1
 62
     7
420
 16777215
370
    25
100
AcDbVertex
100
AcDb2dVertex
 10
94.01114787935359
 20
-135.893174966027
 30
0.0
  0
VERTEX
  5
4F
330
4D
100
AcDbEntity
  8
_U+30EC_U+30A4_U+30E4_U+30FC 1
 62
     7
420
 16777215
370
    25
100
AcDbVertex
100
AcDb2dVertex
 10
101.3016532489128
 20
-135.893174966027
 30
0.0
  0
SEQEND
  5
50
330
4D
100
AcDbEntity
  8
_U+30EC_U+30A4_U+30E4_U+30FC 1
 62
     7
420
 16777215
370
    25
  0
POLYLINE
  5
51
330
1F
100
AcDbEntity
  8
_U+30EC_U+30A4_U+30E4_U+30FC 1
 62
     7
420
 16777215
370
    25
100
AcDb2dPolyline
 66
     1
 10
0.0
 20
0.0
 30
0.0
  0
VERTEX
  5
52
330
51
100
AcDbEntity
  8
_U+30EC_U+30A4_U+30E4_U+30FC 1
 62
     7
420
 16777215
370
    25
100
AcDbVertex
100
AcDb2dVertex
 10
83.96075831234307
 20
-135.6930088549659
 30
0.0
  0
VERTEX
  5
53
330
51
100
AcDbEntity
  8
_U+30EC_U+30A4_U+30E4_U+30FC 1
 62
     7
420
 16777215
370
    25
100
AcDbVertex
100
AcDb2dVertex
 10
93.6645789993064
 20
-135.6930088549659
 30
0.0
  0
SEQEND
  5
54
330
51
100
AcDbEntity
  8
_U+30EC_U+30A4_U+30E4_U+30FC 1
 62
     7
420
 16777215
370
    25
  0
POLYLINE
  5
55
330
1F
100
AcDbEntity
  8
_U+30EC_U+30A4_U+30E4_U+30FC 1
 62
     7
420
 16777215
370
    25
100
AcDb2dPolyline
 66
     1
 10
0.0
 20
0.0
 30
0.0
  0
VERTEX
  5
56
330
55
100
AcDbEntity
  8
_U+30EC_U+30A4_U+30E4_U+30FC 1
 62
     7
420
 16777215
370
    25
100
AcDbVertex
100
AcDb2dVertex
 10
81.01072265546651
 20
-132.7433280223699
 30
0.0
  0
VERTEX
  5
57
330
55
100
AcDbEntity
  8
_U+30EC_U+30A4_U+30E4_U+30FC 1
 62
     7
420
 16777215
370
    25
100
AcDbVertex
100
AcDb2dVertex
 10
82.13245012684885
 20
-133.8647027443119
 30
0.0
  0
SEQEND
  5
58
330
55
100
AcDbEntity
  8
_U+30EC_U+30A4_U+30E4_U+30FC 1
 62
     7
420
 16777215
370
    25
  0
POLYLINE
  5
59
330
1F
100
AcDbEntity
  8
_U+30EC_U+30A4_U+30E4_U+30FC 1
 62
     7
420
 16777215
370
    25
100
AcDb2dPolyline
 66
     1
 10
0.0
 20
0.0
 30
0.0
  0
VERTEX
  5
5A
330
59
100
AcDbEntity
  8
_U+30EC_U+30A4_U+30E4_U+30FC 1
 62
     7
420
 16777215
370
    25
100
AcDbVertex
100
AcDb2dVertex
 10
93.6645789993064
 20
-135.6930088549659
 30
0.0
  0
VERTEX
  5
5B
330
59
100
AcDbEntity
  8
_U+30EC_U+30A4_U+30E4_U+30FC 1
 62
     7
420
 16777215
370
    25
100
AcDbVertex
100
AcDb2dVertex
 10
94.01114787935359
 20
-135.893174966027
 30
0.0
  0
SEQEND
  5
5C
330
59
100
AcDbEntity
  8
_U+30EC_U+30A4_U+30E4_U+30FC 1
 62
     7
420
 16777215
370
    25
  0
POLYLINE
  5
5D
330
1F
100
AcDbEntity
  8
_U+30EC_U+30A4_U+30E4_U+30FC 1
 62
     7
420
 16777215
370
    25
100
AcDb2dPolyline
 66
     1
 10
0.0
 20
0.0
 30
0.0
  0
VERTEX
  5
5E
330
5D
100
AcDbEntity
  8
_U+30EC_U+30A4_U+30E4_U+30FC 1
 62
     7
420
 16777215
370
    25
100
AcDbVertex
100
AcDb2dVertex
 10
81.01072265546651
 20
-128.0392127457681
 30
0.0
  0
VERTEX
  5
5F
330
5D
100
AcDbEntity
  8
_U+30EC_U+30A4_U+30E4_U+30FC 1
 62
     7
420
 16777215
370
    25
100
AcDbVertex
100
AcDb2dVertex
 10
81.01072265546651
 20
-132.7433280223699
 30
0.0
  0
SEQEND
  5
60
330
5D
100
AcDbEntity
  8
_U+30EC_U+30A4_U+30E4_U+30FC 1
 62
     7
420
 16777215
370
    25
  0
POLYLINE
  5
61
330
1F
100
AcDbEntity
  8
_U+30EC_U+30A4_U+30E4_U+30FC 1
 62
     7
420
 16777215
370
    25
100
AcDb2dPolyline
 66
     1
 10
0.0
 20
0.0
 30
0.0
  0
VERTEX
  5
62
330
61
100
AcDbEntity
  8
_U+30EC_U+30A4_U+30E4_U+30FC 1
 62
     7
420
 16777215
370
    25
100
AcDbVertex
100
AcDb2dVertex
 10
80.81090932723083
 20
-120.4014327476774
 30
0.0
  0
VERTEX
  5
63
330
61
100
AcDbEntity
  8
_U+30EC_U+30A4_U+30E4_U+30FC 1
 62
     7
420
 16777215
370
    25
100
AcDbVertex
100
AcDb2dVertex
 10
80.81090932723083
 20
-127.6929966347434
 30
0.0
  0
SEQEND
  5
64
330
61
100
AcDbEntity
  8
_U+30EC_U+30A4_U+30E4_U+30FC 1
 62
     7
420
 16777215
370
    25
  0
POLYLINE
  5
65
330
1F
100
AcDbEntity
  8
_U+30EC_U+30A4_U+30E4_U+30FC 1
 62
     7
420
 16777215
370
    25
100
AcDb2dPolyline
 66
     1
 10
0.0
 20
0.0
 30
0.0
  0
VERTEX
  5
66
330
65
100
AcDbEntity
  8
_U+30EC_U+30A4_U+30E4_U+30FC 1
 62
     7
420
 16777215
370
    25
100
AcDbVertex
100
AcDb2dVertex
 10
80.81090932723083
 20
-127.6929966347434
 30
0.0
  0
VERTEX
  5
67
330
65
100
AcDbEntity
  8
_U+30EC_U+30A4_U+30E4_U+30FC 1
 62
     7
420
 16777215
370
    25
100
AcDbVertex
100
AcDb2dVertex
 10
81.01072265546651
 20
-128.0392127457681
 30
0.0
  0
SEQEND
  5
68
330
65
100
AcDbEntity
  8
_U+30EC_U+30A4_U+30E4_U+30FC 1
 62
     7
420
 16777215
370
    25
  0
POLYLINE
  5
69
330
1F
100
AcDbEntity
  8
_U+30EC_U+30A4_U+30E4_U+30FC 1
 62
     7
420
 16777215
370
    25
100
AcDb2dPolyline
 66
     1
 10
0.0
 20
0.0
 30
0.0
  0
VERTEX
  5
6A
330
69
100
AcDbEntity
  8
_U+30EC_U+30A4_U+30E4_U+30FC 1
 62
     7
420
 16777215
370
    25
100
AcDbVertex
100
AcDb2dVertex
 10
83.31118648566567
 20
-132.6857899668288
 30
0.0
  0
VERTEX
  5
6B
330
69
100
AcDbEntity
  8
_U+30EC_U+30A4_U+30E4_U+30FC 1
 62
     7
420
 16777215
370
    25
100
AcDbVertex
100
AcDb2dVertex
 10
82.13245012684885
 20
-133.8647027443119
 30
0.0
  0
SEQEND
  5
6C
330
69
100
AcDbEntity
  8
_U+30EC_U+30A4_U+30E4_U+30FC 1
 62
     7
420
 16777215
370
    25
  0
POLYLINE
  5
6D
330
1F
100
AcDbEntity
  8
_U+30EC_U+30A4_U+30E4_U+30FC 1
 62
     7
420
 16777215
370
    25
100
AcDb2dPolyline
 66
     1
 10
0.0
 20
0.0
 30
0.0
  0
VERTEX
  5
6E
330
6D
100
AcDbEntity
  8
_U+30EC_U+30A4_U+30E4_U+30FC 1
 62
     7
420
 16777215
370
    25
100
AcDbVertex
100
AcDb2dVertex
 10
84.01811785651924
 20
-133.3927213555408
 30
0.0
  0
VERTEX
  5
6F
330
6D
100
AcDbEntity
  8
_U+30EC_U+30A4_U+30E4_U+30FC 1
 62
     7
420
 16777215
370
    25
100
AcDbVertex
100
AcDb2dVertex
 10
82.83938149770242
 20
-134.5716341330239
 30
0.0
  0
SEQEND
  5
70
330
6D
100
AcDbEntity
  8
_U+30EC_U+30A4_U+30E4_U+30FC 1
 62
     7
420
 16777215
370
    25
  0
POLYLINE
  5
71
330
1F
100
AcDbEntity
  8
_U+30EC_U+30A4_U+30E4_U+30FC 1
 62
     7
420
 16777215
370
    25
100
AcDb2dPolyline
 66
     1
 10
0.0
 20
0.0
 30
0.0
  0
VERTEX
  5
72
330
71
100
AcDbEntity
  8
_U+30EC_U+30A4_U+30E4_U+30FC 1
 62
     7
420
 16777215
370
    25
100
AcDbVertex
100
AcDb2dVertex
 10
82.83938149770242
 20
-134.5716341330239
 30
0.0
  0
VERTEX
  5
73
330
71
100
AcDbEntity
  8
_U+30EC_U+30A4_U+30E4_U+30FC 1
 62
     7
420
 16777215
370
    25
100
AcDbVertex
100
AcDb2dVertex
 10
83.96075831234307
 20
-135.6930088549659
 30
0.0
  0
SEQEND
  5
74
330
71
100
AcDbEntity
  8
_U+30EC_U+30A4_U+30E4_U+30FC 1
 62
     7
420
 16777215
370
    25
  0
POLYLINE
  5
75
330
1F
100
AcDbEntity
  8
_U+30EC_U+30A4_U+30E4_U+30FC 1
 62
     7
420
 16777215
370
    25
100
AcDb2dPolyline
 66
     1
 10
0.0
 20
0.0
 30
0.0
  0
VERTEX
  5
76
330
75
100
AcDbEntity
  8
_U+30EC_U+30A4_U+30E4_U+30FC 1
 62
     7
420
 16777215
370
    25
100
AcDbVertex
100
AcDb2dVertex
 10
84.01811785651924
 20
-133.3927213555408
 30
0.0
  0
VERTEX
  5
77
330
75
100
AcDbEntity
  8
_U+30EC_U+30A4_U+30E4_U+30FC 1
 62
     7
420
 16777215
370
    25
100
AcDbVertex
100
AcDb2dVertex
 10
91.31105739268307
 20
-133.3927213555408
 30
0.0
  0
SEQEND
  5
78
330
75
100
AcDbEntity
  8
_U+30EC_U+30A4_U+30E4_U+30FC 1
 62
     7
420
 16777215
370
    25
  0
POLYLINE
  5
79
330
1F
100
AcDbEntity
  8
_U+30EC_U+30A4_U+30E4_U+30FC 1
 62
     7
420
 16777215
370
    25
100
AcDb2dPolyline
 66
     1
 10
0.0
 20
0.0
 30
0.0
  0
VERTEX
  5
7A
330
79
100
AcDbEntity
  8
_U+30EC_U+30A4_U+30E4_U+30FC 1
 62
     7
420
 16777215
370
    25
100
AcDbVertex
100
AcDb2dVertex
 10
83.31118648566567
 20
-125.3930266353185
 30
0.0
  0
VERTEX
  5
7B
330
79
100
AcDbEntity
  8
_U+30EC_U+30A4_U+30E4_U+30FC 1
 62
     7
420
 16777215
370
    25
100
AcDbVertex
100
AcDb2dVertex
 10
83.31118648566567
 20
-132.6857899668288
 30
0.0
  0
SEQEND
  5
7C
330
79
100
AcDbEntity
  8
_U+30EC_U+30A4_U+30E4_U+30FC 1
 62
     7
420
 16777215
370
    25
  0
POLYLINE
  5
7D
330
1F
100
AcDbEntity
  8
_U+30EC_U+30A4_U+30E4_U+30FC 1
 62
     7
420
 16777215
370
    25
100
AcDb2dPolyline
 66
     1
 10
0.0
 20
0.0
 30
0.0
  0
VERTEX
  5
7E
330
7D
100
AcDbEntity
  8
_U+30EC_U+30A4_U+30E4_U+30FC 1
 62
     7
420
 16777215
370
    25
100
AcDbVertex
100
AcDb2dVertex
 10
84.81119755850831
 20
-132.3929491335683
 30
0.0
  0
VERTEX
  5
7F
330
7D
100
AcDbEntity
  8
_U+30EC_U+30A4_U+30E4_U+30FC 1
 62
     7
420
 16777215
370
    25
100
AcDbVertex
100
AcDb2dVertex
 10
90.96103129050186
 20
-132.3929491335683
 30
0.0
  0
SEQEND
  5
80
330
7D
100
AcDbEntity
  8
_U+30EC_U+30A4_U+30E4_U+30FC 1
 62
     7
420
 16777215
370
    25
  0
POLYLINE
  5
81
330
1F
100
AcDbEntity
  8
_U+30EC_U+30A4_U+30E4_U+30FC 1
 62
     7
420
 16777215
370
    25
100
AcDb2dPolyline
 66
     1
 10
0.0
 20
0.0
 30
0.0
  0
VERTEX
  5
82
330
81
100
AcDbEntity
  8
_U+30EC_U+30A4_U+30E4_U+30FC 1
 62
     7
420
 16777215
370
    25
100
AcDbVertex
100
AcDb2dVertex
 10
84.31095868238158
 20
-125.743052746342
 30
0.0
  0
VERTEX
  5
83
330
81
100
AcDbEntity
  8
_U+30EC_U+30A4_U+30E4_U+30FC 1
 62
     7
420
 16777215
370
    25
100
AcDbVertex
100
AcDb2dVertex
 10
84.31095868238158
 20
-131.8927102448046
 30
0.0
  0
SEQEND
  5
84
330
81
100
AcDbEntity
  8
_U+30EC_U+30A4_U+30E4_U+30FC 1
 62
     7
420
 16777215
370
    25
  0
SPLINE
  5
85
330
1F
100
AcDbEntity
  8
_U+30EC_U+30A4_U+30E4_U+30FC 1
 62
     7
420
 16777215
370
    25
100
AcDbSpline
210
0.0
220
0.0
230
1.0
 70
     8
 71
     3
 72
     8
 73
     4
 74
     0
 42
0.0000000001
 43
0.0000000001
 12
1.0
 22
0.0
 32
0.0
 13
1.0
 23
0.0
 33
0.0
 40
0.0
 40
0.0
 40
0.0
 40
0.0
 40
1.0
 40
1.0
 40
1.0
 40
1.0
 10
84.31095868238158
 20
-131.8927102448046
 30
0.0
 10
84.31095868238158
 20
-132.169005800291
 30
0.0
 10
84.53490201000164
 20
-132.3929491335683
 30
0.0
 10
84.81119755850831
 20
-132.3929491335683
 30
0.0
  0
SPLINE
  5
86
330
1F
100
AcDbEntity
  8
_U+30EC_U+30A4_U+30E4_U+30FC 1
 62
     7
420
 16777215
370
    25
100
AcDbSpline
210
0.0
220
0.0
230
1.0
 70
     8
 71
     3
 72
     8
 73
     4
 74
     0
 42
0.0000000001
 43
0.0000000001
 12
1.0
 22
0.0
 32
0.0
 13
1.0
 23
0.0
 33
0.0
 40
0.0
 40
0.0
 40
0.0
 40
0.0
 40
1.0
 40
1.0
 40
1.0
 40
1.0
 10
84.31095868238158
 20
-125.743052746342
 30
0.0
 10
84.03120591174088
 20
-125.5084555241784
 30
0.0
 10
83.67567647636676
 20
-125.384066079765
 30
0.0
 10
83.31118648566567
 20
-125.3930266353185
 30
0.0
  0
SPLINE
  5
87
330
1F
100
AcDbEntity
  8
_U+30EC_U+30A4_U+30E4_U+30FC 1
 62
     7
420
 16777215
370
    25
100
AcDbSpline
210
0.0
220
0.0
230
1.0
 70
     8
 71
     3
 72
     8
 73
     4
 74
     0
 42
0.0000000001
 43
0.0000000001
 12
1.0
 22
0.0
 32
0.0
 13
1.0
 23
0.0
 33
0.0
 40
0.0
 40
0.0
 40
0.0
 40
0.0
 40
1.0
 40
1.0
 40
1.0
 40
1.0
 10
91.31105739268307
 20
-133.3927213555408
 30
0.0
 10
91.32001794801002
 20
-133.028231355632
 30
0.0
 10
91.19527572897024
 20
-132.672701911276
 30
0.0
 10
90.96103129050186
 20
-132.3929491335683
 30
0.0
  0
SPLINE
  5
88
330
1F
100
AcDbEntity
  8
_U+30EC_U+30A4_U+30E4_U+30FC 1
 62
     7
420
 16777215
370
    25
100
AcDbSpline
210
0.0
220
0.0
230
1.0
 70
     8
 71
     3
 72
     8
 73
     4
 74
     0
 42
0.0000000001
 43
0.0000000001
 12
1.0
 22
0.0
 32
0.0
 13
1.0
 23
0.0
 33
0.0
 40
0.0
 40
0.0
 40
0.0
 40
0.0
 40
1.0
 40
1.0
 40
1.0
 40
1.0
 10
101.5104271324755
 20
-136.6931338547156
 30
0.0
 10
101.5173062989666
 20
-136.412005243675
 30
0.0
 10
101.4449515785903
 20
-136.135004132633
 30
0.0
 10
101.3016532489128
 20
-135.893174966027
 30
0.0
  0
SPLINE
  5
89
330
1F
100
AcDbEntity
  8
_U+30EC_U+30A4_U+30E4_U+30FC 1
 62
     7
420
 16777215
370
    25
100
AcDbSpline
210
0.0
220
0.0
230
1.0
 70
     8
 71
     3
 72
     8
 73
     4
 74
     0
 42
0.0000000001
 43
0.0000000001
 12
1.0
 22
0.0
 32
0.0
 13
1.0
 23
0.0
 33
0.0
 40
0.0
 40
0.0
 40
0.0
 40
0.0
 40
1.0
 40
1.0
 40
1.0
 40
1.0
 10
80.81090932723083
 20
-120.4014327476774
 30
0.0
 10
80.56908016673374
 20
-120.2584519143797
 30
0.0
 10
80.29207906268952
 20
-120.1861324699534
 30
0.0
 10
80.0109504587506
 20
-120.1930116366184
 30
0.0
  0
SPLINE
  5
8A
330
1F
100
AcDbEntity
  8
_U+30EC_U+30A4_U+30E4_U+30FC 1
 62
     7
420
 16777215
370
     9
100
AcDbSpline
210
0.0
220
0.0
230
1.0
 70
    11
 71
     3
 72
    17
 73
    13
 74
     0
 42
0.0000000001
 43
0.0000000001
 12
1.0
 22
0.0
 32
0.0
 13
1.0
 23
0.0
 33
0.0
 40
0.0
 40
0.0
 40
0.0
 40
0.0
 40
1.0
 40
1.0
 40
1.0
 40
2.0
 40
2.0
 40
2.0
 40
3.0
 40
3.0
 40
3.0
 40
4.0
 40
4.0
 40
4.0
 40
4.0
 10
83.41109314978351
 20
-129.3929621898739
 30
0.0
 10
83.41109314978351
 20
-129.337858300999
 30
0.0
 10
83.3663277569363
 20
-129.2930555232323
 30
0.0
 10
83.31118648566567
 20
-129.2930555232323
 30
0.0
 10
83.25572982041382
 20
-129.2930555232323
 30
0.0
 10
83.21092704377905
 20
-129.337858300999
 30
0.0
 10
83.21092704377905
 20
-129.3929621898739
 30
0.0
 10
83.21092704377905
 20
-129.448101356527
 30
0.0
 10
83.25572982041382
 20
-129.4928688565156
 30
0.0
 10
83.31118648566567
 20
-129.4928688565156
 30
0.0
 10
83.3663277569363
 20
-129.4928688565156
 30
0.0
 10
83.41109314978351
 20
-129.448101356527
 30
0.0
 10
83.41109314978351
 20
-129.3929621898739
 30
0.0
  0
SPLINE
  5
8B
330
1F
100
AcDbEntity
  8
_U+30EC_U+30A4_U+30E4_U+30FC 1
 62
     7
420
 16777215
370
     9
100
AcDbSpline
210
0.0
220
0.0
230
1.0
 70
    11
 71
     3
 72
    17
 73
    13
 74
     0
 42
0.0000000001
 43
0.0000000001
 12
1.0
 22
0.0
 32
0.0
 13
1.0
 23
0.0
 33
0.0
 40
0.0
 40
0.0
 40
0.0
 40
0.0
 40
1.0
 40
1.0
 40
1.0
 40
2.0
 40
2.0
 40
2.0
 40
3.0
 40
3.0
 40
3.0
 40
4.0
 40
4.0
 40
4.0
 40
4.0
 10
84.41086534649942
 20
-129.3929621898739
 30
0.0
 10
84.41086534649942
 20
-129.337858300999
 30
0.0
 10
84.36606256986465
 20
-129.2930555232323
 30
0.0
 10
84.31095868238158
 20
-129.2930555232323
 30
0.0
 10
84.25581951712164
 20
-129.2930555232323
 30
0.0
 10
84.21105201826374
 20
-129.337858300999
 30
0.0
 10
84.21105201826374
 20
-129.3929621898739
 30
0.0
 10
84.21105201826374
 20
-129.448101356527
 30
0.0
 10
84.25581951712164
 20
-129.4928688565156
 30
0.0
 10
84.31095868238158
 20
-129.4928688565156
 30
0.0
 10
84.36606256986465
 20
-129.4928688565156
 30
0.0
 10
84.41086534649942
 20
-129.448101356527
 30
0.0
 10
84.41086534649942
 20
-129.3929621898739
 30
0.0
  0
SPLINE
  5
8C
330
1F
100
AcDbEntity
  8
_U+30EC_U+30A4_U+30E4_U+30FC 1
 62
     7
420
 16777215
370
     9
100
AcDbSpline
210
0.0
220
0.0
230
1.0
 70
    11
 71
     3
 72
    17
 73
    13
 74
     0
 42
0.0000000001
 43
0.0000000001
 12
1.0
 22
0.0
 32
0.0
 13
1.0
 23
0.0
 33
0.0
 40
0.0
 40
0.0
 40
0.0
 40
0.0
 40
1.0
 40
1.0
 40
1.0
 40
2.0
 40
2.0
 40
2.0
 40
3.0
 40
3.0
 40
3.0
 40
4.0
 40
4.0
 40
4.0
 40
4.0
 10
76.11078055825222
 20
-120.1930116366184
 30
0.0
 10
76.11078055825222
 20
-120.1375549699657
 30
0.0
 10
76.06597778161746
 20
-120.0931049699768
 30
0.0
 10
76.01087389413438
 20
-120.0931049699768
 30
0.0
 10
75.95573472887443
 20
-120.0931049699768
 30
0.0
 10
75.91096723001655
 20
-120.1375549699657
 30
0.0
 10
75.91096723001655
 20
-120.1930116366184
 30
0.0
 10
75.91096723001655
 20
-120.2484683032711
 30
0.0
 10
75.95573472887443
 20
-120.2932710810378
 30
0.0
 10
76.01087389413438
 20
-120.2932710810378
 30
0.0
 10
76.06597778161746
 20
-120.2932710810378
 30
0.0
 10
76.11078055825222
 20
-120.2484683032711
 30
0.0
 10
76.11078055825222
 20
-120.1930116366184
 30
0.0
  0
SPLINE
  5
8D
330
1F
100
AcDbEntity
  8
_U+30EC_U+30A4_U+30E4_U+30FC 1
 62
     7
420
 16777215
370
     9
100
AcDbSpline
210
0.0
220
0.0
230
1.0
 70
    11
 71
     3
 72
    17
 73
    13
 74
     0
 42
0.0000000001
 43
0.0000000001
 12
1.0
 22
0.0
 32
0.0
 13
1.0
 23
0.0
 33
0.0
 40
0.0
 40
0.0
 40
0.0
 40
0.0
 40
1.0
 40
1.0
 40
1.0
 40
2.0
 40
2.0
 40
2.0
 40
3.0
 40
3.0
 40
3.0
 40
4.0
 40
4.0
 40
4.0
 40
4.0
 10
76.11078055825222
 20
-136.6931338547156
 30
0.0
 10
76.11078055825222
 20
-136.6379946880625
 30
0.0
 10
76.06597778161746
 20
-136.593227188074
 30
0.0
 10
76.01087389413438
 20
-136.593227188074
 30
0.0
 10
75.95573472887443
 20
-136.593227188074
 30
0.0
 10
75.91096723001655
 20
-136.6379946880625
 30
0.0
 10
75.91096723001655
 20
-136.6931338547156
 30
0.0
 10
75.91096723001655
 20
-136.7482377435905
 30
0.0
 10
75.95573472887443
 20
-136.7930405213572
 30
0.0
 10
76.01087389413438
 20
-136.7930405213572
 30
0.0
 10
76.06597778161746
 20
-136.7930405213572
 30
0.0
 10
76.11078055825222
 20
-136.7482377435905
 30
0.0
 10
76.11078055825222
 20
-136.6931338547156
 30
0.0
  0
SPLINE
  5
8E
330
1F
100
AcDbEntity
  8
_U+30EC_U+30A4_U+30E4_U+30FC 1
 62
     7
420
 16777215
370
     9
100
AcDbSpline
210
0.0
220
0.0
230
1.0
 70
    11
 71
     3
 72
    17
 73
    13
 74
     0
 42
0.0000000001
 43
0.0000000001
 12
1.0
 22
0.0
 32
0.0
 13
1.0
 23
0.0
 33
0.0
 40
0.0
 40
0.0
 40
0.0
 40
0.0
 40
1.0
 40
1.0
 40
1.0
 40
2.0
 40
2.0
 40
2.0
 40
3.0
 40
3.0
 40
3.0
 40
4.0
 40
4.0
 40
4.0
 40
4.0
 10
74.45403032274166
 20
-138.8142807986295
 30
0.0
 10
74.45403032274166
 20
-138.7591416319771
 30
0.0
 10
74.40958032387567
 20
-138.7143741319879
 30
0.0
 10
74.35412365862382
 20
-138.7143741319879
 30
0.0
 10
74.29866699337198
 20
-138.7143741319879
 30
0.0
 10
74.25386421673721
 20
-138.7591416319771
 30
0.0
 10
74.25386421673721
 20
-138.8142807986295
 30
0.0
 10
74.25386421673721
 20
-138.8697374652828
 30
0.0
 10
74.29866699337198
 20
-138.9145049652714
 30
0.0
 10
74.35412365862382
 20
-138.9145049652714
 30
0.0
 10
74.40958032387567
 20
-138.9145049652714
 30
0.0
 10
74.45403032274166
 20
-138.8697374652828
 30
0.0
 10
74.45403032274166
 20
-138.8142807986295
 30
0.0
  0
SPLINE
  5
8F
330
1F
100
AcDbEntity
  8
_U+30EC_U+30A4_U+30E4_U+30FC 1
 62
     7
420
 16777215
370
     9
100
AcDbSpline
210
0.0
220
0.0
230
1.0
 70
    11
 71
     3
 72
    17
 73
    13
 74
     0
 42
0.0000000001
 43
0.0000000001
 12
1.0
 22
0.0
 32
0.0
 13
1.0
 23
0.0
 33
0.0
 40
0.0
 40
0.0
 40
0.0
 40
0.0
 40
1.0
 40
1.0
 40
1.0
 40
2.0
 40
2.0
 40
2.0
 40
3.0
 40
3.0
 40
3.0
 40
4.0
 40
4.0
 40
4.0
 40
4.0
 10
77.98971023253895
 20
-142.3499607977455
 30
0.0
 10
77.98971023253895
 20
-142.2948569088706
 30
0.0
 10
77.94494273368106
 20
-142.2500541311039
 30
0.0
 10
77.88980553608309
 20
-142.2500541311039
 30
0.0
 10
77.83434690316926
 20
-142.2500541311039
 30
0.0
 10
77.78957940431138
 20
-142.2948569088706
 30
0.0
 10
77.78957940431138
 20
-142.3499607977455
 30
0.0
 10
77.78957940431138
 20
-142.4050999643986
 30
0.0
 10
77.83434690316926
 20
-142.4498674643878
 30
0.0
 10
77.88980553608309
 20
-142.4498674643878
 30
0.0
 10
77.94494273368106
 20
-142.4498674643878
 30
0.0
 10
77.98971023253895
 20
-142.4050999643986
 30
0.0
 10
77.98971023253895
 20
-142.3499607977455
 30
0.0
  0
SPLINE
  5
90
330
1F
100
AcDbEntity
  8
_U+30EC_U+30A4_U+30E4_U+30FC 1
 62
     7
420
 16777215
370
     9
100
AcDbSpline
210
0.0
220
0.0
230
1.0
 70
    11
 71
     3
 72
    17
 73
    13
 74
     0
 42
0.0000000001
 43
0.0000000001
 12
1.0
 22
0.0
 32
0.0
 13
1.0
 23
0.0
 33
0.0
 40
0.0
 40
0.0
 40
0.0
 40
0.0
 40
1.0
 40
1.0
 40
1.0
 40
2.0
 40
2.0
 40
2.0
 40
3.0
 40
3.0
 40
3.0
 40
4.0
 40
4.0
 40
4.0
 40
4.0
 10
80.11085712286842
 20
-140.6932105203821
 30
0.0
 10
80.11085712286842
 20
-140.6377538537294
 30
0.0
 10
80.06644442442784
 20
-140.5929863537409
 30
0.0
 10
80.0109504587506
 20
-140.5929863537409
 30
0.0
 10
79.95549379349875
 20
-140.5929863537409
 30
0.0
 10
79.91072629464087
 20
-140.6377538537294
 30
0.0
 10
79.91072629464087
 20
-140.6932105203821
 30
0.0
 10
79.91072629464087
 20
-140.7483496870352
 30
0.0
 10
79.95549379349875
 20
-140.7931171870237
 30
0.0
 10
80.0109504587506
 20
-140.7931171870237
 30
0.0
 10
80.06644442442784
 20
-140.7931171870237
 30
0.0
 10
80.11085712286842
 20
-140.7483496870352
 30
0.0
 10
80.11085712286842
 20
-140.6932105203821
 30
0.0
  0
SPLINE
  5
91
330
1F
100
AcDbEntity
  8
_U+30EC_U+30A4_U+30E4_U+30FC 1
 62
     7
420
 16777215
370
     9
100
AcDbSpline
210
0.0
220
0.0
230
1.0
 70
    11
 71
     3
 72
    17
 73
    13
 74
     0
 42
0.0000000001
 43
0.0000000001
 12
1.0
 22
0.0
 32
0.0
 13
1.0
 23
0.0
 33
0.0
 40
0.0
 40
0.0
 40
0.0
 40
0.0
 40
1.0
 40
1.0
 40
1.0
 40
2.0
 40
2.0
 40
2.0
 40
3.0
 40
3.0
 40
3.0
 40
4.0
 40
4.0
 40
4.0
 40
4.0
 10
101.6103337965933
 20
-140.6932105203821
 30
0.0
 10
101.6103337965933
 20
-140.6377538537294
 30
0.0
 10
101.5655310199585
 20
-140.5929863537409
 30
0.0
 10
101.5104271324755
 20
-140.5929863537409
 30
0.0
 10
101.4552879672155
 20
-140.5929863537409
 30
0.0
 10
101.4105204683576
 20
-140.6377538537294
 30
0.0
 10
101.4105204683576
 20
-140.6932105203821
 30
0.0
 10
101.4105204683576
 20
-140.7483496870352
 30
0.0
 10
101.4552879672155
 20
-140.7931171870237
 30
0.0
 10
101.5104271324755
 20
-140.7931171870237
 30
0.0
 10
101.5655310199585
 20
-140.7931171870237
 30
0.0
 10
101.6103337965933
 20
-140.7483496870352
 30
0.0
 10
101.6103337965933
 20
-140.6932105203821
 30
0.0
  0
SPLINE
  5
92
330
1F
100
AcDbEntity
  8
_U+30EC_U+30A4_U+30E4_U+30FC 1
 62
     7
420
 16777215
370
     9
100
AcDbSpline
210
0.0
220
0.0
230
1.0
 70
    11
 71
     3
 72
    17
 73
    13
 74
     0
 42
0.0000000001
 43
0.0000000001
 12
1.0
 22
0.0
 32
0.0
 13
1.0
 23
0.0
 33
0.0
 40
0.0
 40
0.0
 40
0.0
 40
0.0
 40
1.0
 40
1.0
 40
1.0
 40
2.0
 40
2.0
 40
2.0
 40
3.0
 40
3.0
 40
3.0
 40
4.0
 40
4.0
 40
4.0
 40
4.0
 10
104.6103206645017
 20
-135.893174966027
 30
0.0
 10
104.6103206645017
 20
-135.8377182993736
 30
0.0
 10
104.5655531656438
 20
-135.7929155216076
 30
0.0
 10
104.5104166405391
 20
-135.7929155216076
 30
0.0
 10
104.4553101129008
 20
-135.7929155216076
 30
0.0
 10
104.410507336266
 20
-135.8377182993736
 30
0.0
 10
104.410507336266
 20
-135.893174966027
 30
0.0
 10
104.410507336266
 20
-135.9482788549019
 30
0.0
 10
104.4553101129008
 20
-135.9930816326686
 30
0.0
 10
104.5104166405391
 20
-135.9930816326686
 30
0.0
 10
104.5655531656438
 20
-135.9930816326686
 30
0.0
 10
104.6103206645017
 20
-135.9482788549019
 30
0.0
 10
104.6103206645017
 20
-135.893174966027
 30
0.0
  0
SPLINE
  5
93
330
1F
100
AcDbEntity
  8
_U+30EC_U+30A4_U+30E4_U+30FC 1
 62
     7
420
 16777215
370
     9
100
AcDbSpline
210
0.0
220
0.0
230
1.0
 70
    11
 71
     3
 72
    17
 73
    13
 74
     0
 42
0.0000000001
 43
0.0000000001
 12
1.0
 22
0.0
 32
0.0
 13
1.0
 23
0.0
 33
0.0
 40
0.0
 40
0.0
 40
0.0
 40
0.0
 40
1.0
 40
1.0
 40
1.0
 40
2.0
 40
2.0
 40
2.0
 40
3.0
 40
3.0
 40
3.0
 40
4.0
 40
4.0
 40
4.0
 40
4.0
 10
104.6103206645017
 20
-133.3927213555408
 30
0.0
 10
104.6103206645017
 20
-133.3375821888878
 30
0.0
 10
104.5655531656438
 20
-133.2928146888992
 30
0.0
 10
104.5104166405391
 20
-133.2928146888992
 30
0.0
 10
104.4553101129008
 20
-133.2928146888992
 30
0.0
 10
104.410507336266
 20
-133.3375821888878
 30
0.0
 10
104.410507336266
 20
-133.3927213555408
 30
0.0
 10
104.410507336266
 20
-133.4485307999713
 30
0.0
 10
104.4553101129008
 20
-133.493333577738
 30
0.0
 10
104.5104166405391
 20
-133.493333577738
 30
0.0
 10
104.5655531656438
 20
-133.493333577738
 30
0.0
 10
104.6103206645017
 20
-133.4485307999713
 30
0.0
 10
104.6103206645017
 20
-133.3927213555408
 30
0.0
  0
SPLINE
  5
94
330
1F
100
AcDbEntity
  8
_U+30EC_U+30A4_U+30E4_U+30FC 1
 62
     7
420
 16777215
370
     9
100
AcDbSpline
210
0.0
220
0.0
230
1.0
 70
    11
 71
     3
 72
    17
 73
    13
 74
     0
 42
0.0000000001
 43
0.0000000001
 12
1.0
 22
0.0
 32
0.0
 13
1.0
 23
0.0
 33
0.0
 40
0.0
 40
0.0
 40
0.0
 40
0.0
 40
1.0
 40
1.0
 40
1.0
 40
2.0
 40
2.0
 40
2.0
 40
3.0
 40
3.0
 40
3.0
 40
4.0
 40
4.0
 40
4.0
 40
4.0
 10
94.4111273135937
 20
-132.3929491335683
 30
0.0
 10
94.4111273135937
 20
-132.3378452446934
 30
0.0
 10
94.36632453695894
 20
-132.2930424669266
 30
0.0
 10
94.31122064947587
 20
-132.2930424669266
 30
0.0
 10
94.25572870644714
 20
-132.2930424669266
 30
0.0
 10
94.21096120758925
 20
-132.3378452446934
 30
0.0
 10
94.21096120758925
 20
-132.3929491335683
 30
0.0
 10
94.21096120758925
 20
-132.4487585779987
 30
0.0
 10
94.25572870644714
 20
-132.4935613557655
 30
0.0
 10
94.31122064947587
 20
-132.4935613557655
 30
0.0
 10
94.36632453695894
 20
-132.4935613557655
 30
0.0
 10
94.4111273135937
 20
-132.4487585779987
 30
0.0
 10
94.4111273135937
 20
-132.3929491335683
 30
0.0
  0
SPLINE
  5
95
330
1F
100
AcDbEntity
  8
_U+30EC_U+30A4_U+30E4_U+30FC 1
 62
     7
420
 16777215
370
     9
100
AcDbSpline
210
0.0
220
0.0
230
1.0
 70
    11
 71
     3
 72
    17
 73
    13
 74
     0
 42
0.0000000001
 43
0.0000000001
 12
1.0
 22
0.0
 32
0.0
 13
1.0
 23
0.0
 33
0.0
 40
0.0
 40
0.0
 40
0.0
 40
0.0
 40
1.0
 40
1.0
 40
1.0
 40
2.0
 40
2.0
 40
2.0
 40
3.0
 40
3.0
 40
3.0
 40
4.0
 40
4.0
 40
4.0
 40
4.0
 10
94.4111273135937
 20
-125.3930266353185
 30
0.0
 10
94.4111273135937
 20
-125.3375699686655
 30
0.0
 10
94.36632453695894
 20
-125.2927671908991
 30
0.0
 10
94.31122064947587
 20
-125.2927671908991
 30
0.0
 10
94.25572870644714
 20
-125.2927671908991
 30
0.0
 10
94.21096120758925
 20
-125.3375699686655
 30
0.0
 10
94.21096120758925
 20
-125.3930266353185
 30
0.0
 10
94.21096120758925
 20
-125.4481658019712
 30
0.0
 10
94.25572870644714
 20
-125.4929333019601
 30
0.0
 10
94.31122064947587
 20
-125.4929333019601
 30
0.0
 10
94.36632453695894
 20
-125.4929333019601
 30
0.0
 10
94.4111273135937
 20
-125.4481658019712
 30
0.0
 10
94.4111273135937
 20
-125.3930266353185
 30
0.0
  0
SPLINE
  5
96
330
1F
100
AcDbEntity
  8
_U+30EC_U+30A4_U+30E4_U+30FC 1
 62
     7
420
 16777215
370
     9
100
AcDbSpline
210
0.0
220
0.0
230
1.0
 70
    11
 71
     3
 72
    17
 73
    13
 74
     0
 42
0.0000000001
 43
0.0000000001
 12
1.0
 22
0.0
 32
0.0
 13
1.0
 23
0.0
 33
0.0
 40
0.0
 40
0.0
 40
0.0
 40
0.0
 40
1.0
 40
1.0
 40
1.0
 40
2.0
 40
2.0
 40
2.0
 40
3.0
 40
3.0
 40
3.0
 40
4.0
 40
4.0
 40
4.0
 40
4.0
 10
91.41078766791652
 20
-121.3929499696517
 30
0.0
 10
91.41078766791652
 20
-121.3378108029989
 30
0.0
 10
91.36616128016614
 20
-121.2930433030101
 30
0.0
 10
91.31105739268307
 20
-121.2930433030101
 30
0.0
 10
91.25591822742312
 20
-121.2930433030101
 30
0.0
 10
91.21115072856524
 20
-121.3378108029989
 30
0.0
 10
91.21115072856524
 20
-121.3929499696517
 30
0.0
 10
91.21115072856524
 20
-121.4480538585269
 30
0.0
 10
91.25591822742312
 20
-121.4928566362933
 30
0.0
 10
91.31105739268307
 20
-121.4928566362933
 30
0.0
 10
91.36616128016614
 20
-121.4928566362933
 30
0.0
 10
91.41078766791652
 20
-121.4480538585269
 30
0.0
 10
91.41078766791652
 20
-121.3929499696517
 30
0.0
  0
SPLINE
  5
97
330
1F
100
AcDbEntity
  8
_U+30EC_U+30A4_U+30E4_U+30FC 1
 62
     7
420
 16777215
370
     9
100
AcDbSpline
210
0.0
220
0.0
230
1.0
 70
    11
 71
     3
 72
    17
 73
    13
 74
     0
 42
0.0000000001
 43
0.0000000001
 12
1.0
 22
0.0
 32
0.0
 13
1.0
 23
0.0
 33
0.0
 40
0.0
 40
0.0
 40
0.0
 40
0.0
 40
1.0
 40
1.0
 40
1.0
 40
2.0
 40
2.0
 40
2.0
 40
3.0
 40
3.0
 40
3.0
 40
4.0
 40
4.0
 40
4.0
 40
4.0
 10
84.41121812426819
 20
-121.3929499696517
 30
0.0
 10
84.41121812426819
 20
-121.3378108029989
 30
0.0
 10
84.36641534763343
 20
-121.2930433030101
 30
0.0
 10
84.31131146015036
 20
-121.2930433030101
 30
0.0
 10
84.25581951712164
 20
-121.2930433030101
 30
0.0
 10
84.21105201826374
 20
-121.3378108029989
 30
0.0
 10
84.21105201826374
 20
-121.3929499696517
 30
0.0
 10
84.21105201826374
 20
-121.4480538585269
 30
0.0
 10
84.25581951712164
 20
-121.4928566362933
 30
0.0
 10
84.31131146015036
 20
-121.4928566362933
 30
0.0
 10
84.36641534763343
 20
-121.4928566362933
 30
0.0
 10
84.41121812426819
 20
-121.4480538585269
 30
0.0
 10
84.41121812426819
 20
-121.3929499696517
 30
0.0
  0
SPLINE
  5
98
330
1F
100
AcDbEntity
  8
_U+30EC_U+30A4_U+30E4_U+30FC 1
 62
     7
420
 16777215
370
     9
100
AcDbSpline
210
0.0
220
0.0
230
1.0
 70
    11
 71
     3
 72
    17
 73
    13
 74
     0
 42
0.0000000001
 43
0.0000000001
 12
1.0
 22
0.0
 32
0.0
 13
1.0
 23
0.0
 33
0.0
 40
0.0
 40
0.0
 40
0.0
 40
0.0
 40
1.0
 40
1.0
 40
1.0
 40
2.0
 40
2.0
 40
2.0
 40
3.0
 40
3.0
 40
3.0
 40
4.0
 40
4.0
 40
4.0
 40
4.0
 10
80.91081599134867
 20
-116.1925469153963
 30
0.0
 10
80.91081599134867
 20
-116.1370902487437
 30
0.0
 10
80.86604849249078
 20
-116.0926402487547
 30
0.0
 10
80.81090932723083
 20
-116.0926402487547
 30
0.0
 10
80.75580543974776
 20
-116.0926402487547
 30
0.0
 10
80.71100266311299
 20
-116.1370902487437
 30
0.0
 10
80.71100266311299
 20
-116.1925469153963
 30
0.0
 10
80.71100266311299
 20
-116.2480388598269
 30
0.0
 10
80.75580543974776
 20
-116.2928063598157
 30
0.0
 10
80.81090932723083
 20
-116.2928063598157
 30
0.0
 10
80.86604849249078
 20
-116.2928063598157
 30
0.0
 10
80.91081599134867
 20
-116.2480388598269
 30
0.0
 10
80.91081599134867
 20
-116.1925469153963
 30
0.0
  0
SPLINE
  5
99
330
1F
100
AcDbEntity
  8
_U+30EC_U+30A4_U+30E4_U+30FC 1
 62
     7
420
 16777215
370
     9
100
AcDbSpline
210
0.0
220
0.0
230
1.0
 70
    11
 71
     3
 72
    17
 73
    13
 74
     0
 42
0.0000000001
 43
0.0000000001
 12
1.0
 22
0.0
 32
0.0
 13
1.0
 23
0.0
 33
0.0
 40
0.0
 40
0.0
 40
0.0
 40
0.0
 40
1.0
 40
1.0
 40
1.0
 40
2.0
 40
2.0
 40
2.0
 40
3.0
 40
3.0
 40
3.0
 40
4.0
 40
4.0
 40
4.0
 40
4.0
 10
80.11085712286842
 20
-116.1925469153963
 30
0.0
 10
80.11085712286842
 20
-116.1370902487437
 30
0.0
 10
80.06644442442784
 20
-116.0926402487547
 30
0.0
 10
80.0109504587506
 20
-116.0926402487547
 30
0.0
 10
79.95549379349875
 20
-116.0926402487547
 30
0.0
 10
79.91072629464087
 20
-116.1370902487437
 30
0.0
 10
79.91072629464087
 20
-116.1925469153963
 30
0.0
 10
79.91072629464087
 20
-116.2480388598269
 30
0.0
 10
79.95549379349875
 20
-116.2928063598157
 30
0.0
 10
80.0109504587506
 20
-116.2928063598157
 30
0.0
 10
80.06644442442784
 20
-116.2928063598157
 30
0.0
 10
80.11085712286842
 20
-116.2480388598269
 30
0.0
 10
80.11085712286842
 20
-116.1925469153963
 30
0.0
  0
POLYLINE
  5
9A
330
1F
100
AcDbEntity
  8
_U+30EC_U+30A4_U+30E4_U+30FC 1
 62
     7
420
 16777215
370
     9
100
AcDb2dPolyline
 66
     1
 10
0.0
 20
0.0
 30
0.0
  0
VERTEX
  5
9B
330
9A
100
AcDbEntity
  8
_U+30EC_U+30A4_U+30E4_U+30FC 1
 62
     7
420
 16777215
370
     9
100
AcDbVertex
100
AcDb2dVertex
 10
84.31131146015036
 20
-121.3929499696517
 30
0.0
  0
VERTEX
  5
9C
330
9A
100
AcDbEntity
  8
_U+30EC_U+30A4_U+30E4_U+30FC 1
 62
     7
420
 16777215
370
     9
100
AcDbVertex
100
AcDb2dVertex
 10
91.31105739268307
 20
-121.3929499696517
 30
0.0
  0
SEQEND
  5
9D
330
9A
100
AcDbEntity
  8
_U+30EC_U+30A4_U+30E4_U+30FC 1
 62
     7
420
 16777215
370
     9
  0
POLYLINE
  5
9E
330
1F
100
AcDbEntity
  8
_U+30EC_U+30A4_U+30E4_U+30FC 1
 62
     7
420
 16777215
370
     9
100
AcDb2dPolyline
 66
     1
 10
0.0
 20
0.0
 30
0.0
  0
VERTEX
  5
9F
330
9E
100
AcDbEntity
  8
_U+30EC_U+30A4_U+30E4_U+30FC 1
 62
     7
420
 16777215
370
     9
100
AcDbVertex
100
AcDb2dVertex
 10
84.31131146015036
 20
-122.8529560803979
 30
0.0
  0
VERTEX
  5
A0
330
9E
100
AcDbEntity
  8
_U+30EC_U+30A4_U+30E4_U+30FC 1
 62
     7
420
 16777215
370
     9
100
AcDbVertex
100
AcDb2dVertex
 10
84.31131146015036
 20
-120.3931777476795
 30
0.0
  0
SEQEND
  5
A1
330
9E
100
AcDbEntity
  8
_U+30EC_U+30A4_U+30E4_U+30FC 1
 62
     7
420
 16777215
370
     9
  0
POLYLINE
  5
A2
330
1F
100
AcDbEntity
  8
_U+30EC_U+30A4_U+30E4_U+30FC 1
 62
     7
420
 16777215
370
     9
100
AcDb2dPolyline
 66
     1
 10
0.0
 20
0.0
 30
0.0
  0
VERTEX
  5
A3
330
A2
100
AcDbEntity
  8
_U+30EC_U+30A4_U+30E4_U+30FC 1
 62
     7
420
 16777215
370
     9
100
AcDbVertex
100
AcDb2dVertex
 10
91.31105739268307
 20
-130.8530035783976
 30
0.0
  0
VERTEX
  5
A4
330
A2
100
AcDbEntity
  8
_U+30EC_U+30A4_U+30E4_U+30FC 1
 62
     7
420
 16777215
370
     9
100
AcDbVertex
100
AcDb2dVertex
 10
91.31105739268307
 20
-120.3931777476795
 30
0.0
  0
SEQEND
  5
A5
330
A2
100
AcDbEntity
  8
_U+30EC_U+30A4_U+30E4_U+30FC 1
 62
     7
420
 16777215
370
     9
  0
INSERT
  5
A7
330
1F
100
AcDbEntity
  8
_U+30EC_U+30A4_U+30E4_U+30FC 1
100
AcDbBlockReference
  2
block 2
 10
0.0
 20
0.0
 30
0.0
  0
POLYLINE
  5
AC
330
1F
100
AcDbEntity
  8
_U+30EC_U+30A4_U+30E4_U+30FC 1
 62
     7
420
 16777215
370
     9
100
AcDb2dPolyline
 66
     1
 10
0.0
 20
0.0
 30
0.0
  0
VERTEX
  5
AD
330
AC
100
AcDbEntity
  8
_U+30EC_U+30A4_U+30E4_U+30FC 1
 62
     7
420
 16777215
370
     9
100
AcDbVertex
100
AcDb2dVertex
 10
94.31122064947587
 20
-125.3930266353185
 30
0.0
  0
VERTEX
  5
AE
330
AC
100
AcDbEntity
  8
_U+30EC_U+30A4_U+30E4_U+30FC 1
 62
     7
420
 16777215
370
     9
100
AcDbVertex
100
AcDb2dVertex
 10
94.31122064947587
 20
-132.3929491335683
 30
0.0
  0
SEQEND
  5
AF
330
AC
100
AcDbEntity
  8
_U+30EC_U+30A4_U+30E4_U+30FC 1
 62
     7
420
 16777215
370
     9
  0
POLYLINE
  5
B0
330
1F
100
AcDbEntity
  8
_U+30EC_U+30A4_U+30E4_U+30FC 1
 62
     7
420
 16777215
370
     9
100
AcDb2dPolyline
 66
     1
 10
0.0
 20
0.0
 30
0.0
  0
VERTEX
  5
B1
330
B0
100
AcDbEntity
  8
_U+30EC_U+30A4_U+30E4_U+30FC 1
 62
     7
420
 16777215
370
     9
100
AcDbVertex
100
AcDb2dVertex
 10
85.85090419864986
 20
-125.3930266353185
 30
0.0
  0
VERTEX
  5
B2
330
B0
100
AcDbEntity
  8
_U+30EC_U+30A4_U+30E4_U+30FC 1
 62
     7
420
 16777215
370
     9
100
AcDbVertex
100
AcDb2dVertex
 10
95.31099284619177
 20
-125.3930266353185
 30
0.0
  0
SEQEND
  5
B3
330
B0
100
AcDbEntity
  8
_U+30EC_U+30A4_U+30E4_U+30FC 1
 62
     7
420
 16777215
370
     9
  0
POLYLINE
  5
B4
330
1F
100
AcDbEntity
  8
_U+30EC_U+30A4_U+30E4_U+30FC 1
 62
     7
420
 16777215
370
     9
100
AcDb2dPolyline
 66
     1
 10
0.0
 20
0.0
 30
0.0
  0
VERTEX
  5
B5
330
B4
100
AcDbEntity
  8
_U+30EC_U+30A4_U+30E4_U+30FC 1
 62
     7
420
 16777215
370
     9
100
AcDbVertex
100
AcDb2dVertex
 10
92.85117929783573
 20
-133.3927213555408
 30
0.0
  0
VERTEX
  5
B6
330
B4
100
AcDbEntity
  8
_U+30EC_U+30A4_U+30E4_U+30FC 1
 62
     7
420
 16777215
370
     9
100
AcDbVertex
100
AcDb2dVertex
 10
95.31099284619177
 20
-133.3927213555408
 30
0.0
  0
SEQEND
  5
B7
330
B4
100
AcDbEntity
  8
_U+30EC_U+30A4_U+30E4_U+30FC 1
 62
     7
420
 16777215
370
     9
  0
INSERT
  5
B9
330
1F
100
AcDbEntity
  8
_U+30EC_U+30A4_U+30E4_U+30FC 1
100
AcDbBlockReference
  2
block 3
 10
0.0
 20
0.0
 30
0.0
  0
POLYLINE
  5
BE
330
1F
100
AcDbEntity
  8
_U+30EC_U+30A4_U+30E4_U+30FC 1
 62
     7
420
 16777215
370
     9
100
AcDb2dPolyline
 66
     1
 10
0.0
 20
0.0
 30
0.0
  0
VERTEX
  5
BF
330
BE
100
AcDbEntity
  8
_U+30EC_U+30A4_U+30E4_U+30FC 1
 62
     7
420
 16777215
370
     9
100
AcDbVertex
100
AcDb2dVertex
 10
84.31095868238158
 20
-129.3929621898739
 30
0.0
  0
VERTEX
  5
C0
330
BE
100
AcDbEntity
  8
_U+30EC_U+30A4_U+30E4_U+30FC 1
 62
     7
420
 16777215
370
     9
100
AcDbVertex
100
AcDb2dVertex
 10
88.0812710861929
 20
-129.3929621898739
 30
0.0
  0
SEQEND
  5
C1
330
BE
100
AcDbEntity
  8
_U+30EC_U+30A4_U+30E4_U+30FC 1
 62
     7
420
 16777215
370
     9
  0
POLYLINE
  5
C2
330
1F
100
AcDbEntity
  8
_U+30EC_U+30A4_U+30E4_U+30FC 1
 62
     7
420
 16777215
370
     9
100
AcDb2dPolyline
 66
     1
 10
0.0
 20
0.0
 30
0.0
  0
VERTEX
  5
C3
330
C2
100
AcDbEntity
  8
_U+30EC_U+30A4_U+30E4_U+30FC 1
 62
     7
420
 16777215
370
     9
100
AcDbVertex
100
AcDb2dVertex
 10
84.31095868238158
 20
-129.3929621898739
 30
0.0
  0
VERTEX
  5
C4
330
C2
100
AcDbEntity
  8
_U+30EC_U+30A4_U+30E4_U+30FC 1
 62
     7
420
 16777215
370
     9
100
AcDbVertex
100
AcDb2dVertex
 10
82.31109678895787
 20
-129.3929621898739
 30
0.0
  0
SEQEND
  5
C5
330
C2
100
AcDbEntity
  8
_U+30EC_U+30A4_U+30E4_U+30FC 1
 62
     7
420
 16777215
370
     9
  0
POLYLINE
  5
C6
330
1F
100
AcDbEntity
  8
_U+30EC_U+30A4_U+30E4_U+30FC 1
 62
     7
420
 16777215
370
     9
100
AcDb2dPolyline
 66
     1
 10
0.0
 20
0.0
 30
0.0
  0
VERTEX
  5
C7
330
C6
100
AcDbEntity
  8
_U+30EC_U+30A4_U+30E4_U+30FC 1
 62
     7
420
 16777215
370
     9
100
AcDbVertex
100
AcDb2dVertex
 10
84.31095868238158
 20
-131.9326799670171
 30
0.0
  0
VERTEX
  5
C8
330
C6
100
AcDbEntity
  8
_U+30EC_U+30A4_U+30E4_U+30FC 1
 62
     7
420
 16777215
370
     9
100
AcDbVertex
100
AcDb2dVertex
 10
84.31095868238158
 20
-129.3943380232068
 30
0.0
  0
SEQEND
  5
C9
330
C6
100
AcDbEntity
  8
_U+30EC_U+30A4_U+30E4_U+30FC 1
 62
     7
420
 16777215
370
     9
  0
POLYLINE
  5
CA
330
1F
100
AcDbEntity
  8
_U+30EC_U+30A4_U+30E4_U+30FC 1
 62
     7
420
 16777215
370
     9
100
AcDb2dPolyline
 66
     1
 10
0.0
 20
0.0
 30
0.0
  0
VERTEX
  5
CB
330
CA
100
AcDbEntity
  8
_U+30EC_U+30A4_U+30E4_U+30FC 1
 62
     7
420
 16777215
370
     9
100
AcDbVertex
100
AcDb2dVertex
 10
83.31118648566567
 20
-131.9326799670171
 30
0.0
  0
VERTEX
  5
CC
330
CA
100
AcDbEntity
  8
_U+30EC_U+30A4_U+30E4_U+30FC 1
 62
     7
420
 16777215
370
     9
100
AcDbVertex
100
AcDb2dVertex
 10
83.31118648566567
 20
-129.3943380232068
 30
0.0
  0
SEQEND
  5
CD
330
CA
100
AcDbEntity
  8
_U+30EC_U+30A4_U+30E4_U+30FC 1
 62
     7
420
 16777215
370
     9
  0
INSERT
  5
CF
330
1F
100
AcDbEntity
  8
_U+30EC_U+30A4_U+30E4_U+30FC 1
100
AcDbBlockReference
  2
block 4
 10
0.0
 20
0.0
 30
0.0
  0
POLYLINE
  5
D4
330
1F
100
AcDbEntity
  8
_U+30EC_U+30A4_U+30E4_U+30FC 1
 62
     7
420
 16777215
370
     9
100
AcDb2dPolyline
 66
     1
 10
0.0
 20
0.0
 30
0.0
  0
VERTEX
  5
D5
330
D4
100
AcDbEntity
  8
_U+30EC_U+30A4_U+30E4_U+30FC 1
 62
     7
420
 16777215
370
     9
100
AcDbVertex
100
AcDb2dVertex
 10
80.0109504587506
 20
-140.6932105203821
 30
0.0
  0
VERTEX
  5
D6
330
D4
100
AcDbEntity
  8
_U+30EC_U+30A4_U+30E4_U+30FC 1
 62
     7
420
 16777215
370
     9
100
AcDbVertex
100
AcDb2dVertex
 10
101.5104271324755
 20
-140.6932105203821
 30
0.0
  0
SEQEND
  5
D7
330
D4
100
AcDbEntity
  8
_U+30EC_U+30A4_U+30E4_U+30FC 1
 62
     7
420
 16777215
370
     9
  0
POLYLINE
  5
D8
330
1F
100
AcDbEntity
  8
_U+30EC_U+30A4_U+30E4_U+30FC 1
 62
     7
420
 16777215
370
     9
100
AcDb2dPolyline
 66
     1
 10
0.0
 20
0.0
 30
0.0
  0
VERTEX
  5
D9
330
D8
100
AcDbEntity
  8
_U+30EC_U+30A4_U+30E4_U+30FC 1
 62
     7
420
 16777215
370
     9
100
AcDbVertex
100
AcDb2dVertex
 10
80.0109504587506
 20
-135.6974891327424
 30
0.0
  0
VERTEX
  5
DA
330
D8
100
AcDbEntity
  8
_U+30EC_U+30A4_U+30E4_U+30FC 1
 62
     7
420
 16777215
370
     9
100
AcDbVertex
100
AcDb2dVertex
 10
80.0109504587506
 20
-141.6929827423546
 30
0.0
  0
SEQEND
  5
DB
330
D8
100
AcDbEntity
  8
_U+30EC_U+30A4_U+30E4_U+30FC 1
 62
     7
420
 16777215
370
     9
  0
POLYLINE
  5
DC
330
1F
100
AcDbEntity
  8
_U+30EC_U+30A4_U+30E4_U+30FC 1
 62
     7
420
 16777215
370
     9
100
AcDb2dPolyline
 66
     1
 10
0.0
 20
0.0
 30
0.0
  0
VERTEX
  5
DD
330
DC
100
AcDbEntity
  8
_U+30EC_U+30A4_U+30E4_U+30FC 1
 62
     7
420
 16777215
370
     9
100
AcDbVertex
100
AcDb2dVertex
 10
101.5104271324755
 20
-139.2332044096359
 30
0.0
  0
VERTEX
  5
DE
330
DC
100
AcDbEntity
  8
_U+30EC_U+30A4_U+30E4_U+30FC 1
 62
     7
420
 16777215
370
     9
100
AcDbVertex
100
AcDb2dVertex
 10
101.5104271324755
 20
-141.6929827423546
 30
0.0
  0
SEQEND
  5
DF
330
DC
100
AcDbEntity
  8
_U+30EC_U+30A4_U+30E4_U+30FC 1
 62
     7
420
 16777215
370
     9
  0
INSERT
  5
E1
330
1F
100
AcDbEntity
  8
_U+30EC_U+30A4_U+30E4_U+30FC 1
100
AcDbBlockReference
  2
block 5
 10
0.0
 20
0.0
 30
0.0
  0
POLYLINE
  5
F2
330
1F
100
AcDbEntity
  8
_U+30EC_U+30A4_U+30E4_U+30FC 1
 62
     7
420
 16777215
370
     9
100
AcDb2dPolyline
 66
     1
 10
0.0
 20
0.0
 30
0.0
  0
VERTEX
  5
F3
330
F2
100
AcDbEntity
  8
_U+30EC_U+30A4_U+30E4_U+30FC 1
 62
     7
420
 16777215
370
     9
100
AcDbVertex
100
AcDb2dVertex
 10
76.01087389413438
 20
-120.1930116366184
 30
0.0
  0
VERTEX
  5
F4
330
F2
100
AcDbEntity
  8
_U+30EC_U+30A4_U+30E4_U+30FC 1
 62
     7
420
 16777215
370
     9
100
AcDbVertex
100
AcDb2dVertex
 10
76.01087389413438
 20
-136.6931338547156
 30
0.0
  0
SEQEND
  5
F5
330
F2
100
AcDbEntity
  8
_U+30EC_U+30A4_U+30E4_U+30FC 1
 62
     7
420
 16777215
370
     9
  0
POLYLINE
  5
F6
330
1F
100
AcDbEntity
  8
_U+30EC_U+30A4_U+30E4_U+30FC 1
 62
     7
420
 16777215
370
     9
100
AcDb2dPolyline
 66
     1
 10
0.0
 20
0.0
 30
0.0
  0
VERTEX
  5
F7
330
F6
100
AcDbEntity
  8
_U+30EC_U+30A4_U+30E4_U+30FC 1
 62
     7
420
 16777215
370
     9
100
AcDbVertex
100
AcDb2dVertex
 10
77.47087996799763
 20
-120.1930116366184
 30
0.0
  0
VERTEX
  5
F8
330
F6
100
AcDbEntity
  8
_U+30EC_U+30A4_U+30E4_U+30FC 1
 62
     7
420
 16777215
370
     9
100
AcDbVertex
100
AcDb2dVertex
 10
75.01110169741848
 20
-120.1930116366184
 30
0.0
  0
SEQEND
  5
F9
330
F6
100
AcDbEntity
  8
_U+30EC_U+30A4_U+30E4_U+30FC 1
 62
     7
420
 16777215
370
     9
  0
POLYLINE
  5
FA
330
1F
100
AcDbEntity
  8
_U+30EC_U+30A4_U+30E4_U+30FC 1
 62
     7
420
 16777215
370
     9
100
AcDb2dPolyline
 66
     1
 10
0.0
 20
0.0
 30
0.0
  0
VERTEX
  5
FB
330
FA
100
AcDbEntity
  8
_U+30EC_U+30A4_U+30E4_U+30FC 1
 62
     7
420
 16777215
370
     9
100
AcDbVertex
100
AcDb2dVertex
 10
81.00659720197058
 20
-136.6931338547156
 30
0.0
  0
VERTEX
  5
FC
330
FA
100
AcDbEntity
  8
_U+30EC_U+30A4_U+30E4_U+30FC 1
 62
     7
420
 16777215
370
     9
100
AcDbVertex
100
AcDb2dVertex
 10
75.01110169741848
 20
-136.6931338547156
 30
0.0
  0
SEQEND
  5
FD
330
FA
100
AcDbEntity
  8
_U+30EC_U+30A4_U+30E4_U+30FC 1
 62
     7
420
 16777215
370
     9
  0
INSERT
  5
FF
330
1F
100
AcDbEntity
  8
_U+30EC_U+30A4_U+30E4_U+30FC 1
100
AcDbBlockReference
  2
block 6
 10
0.0
 20
0.0
 30
0.0
  0
POLYLINE
  5
111
330
1F
100
AcDbEntity
  8
_U+30EC_U+30A4_U+30E4_U+30FC 1
 62
     7
420
 16777215
370
     9
100
AcDb2dPolyline
 66
     1
 10
0.0
 20
0.0
 30
0.0
  0
VERTEX
  5
112
330
111
100
AcDbEntity
  8
_U+30EC_U+30A4_U+30E4_U+30FC 1
 62
     7
420
 16777215
370
     9
100
AcDbVertex
100
AcDb2dVertex
 10
77.88980553608309
 20
-142.3499607977455
 30
0.0
  0
VERTEX
  5
113
330
111
100
AcDbEntity
  8
_U+30EC_U+30A4_U+30E4_U+30FC 1
 62
     7
420
 16777215
370
     9
100
AcDbVertex
100
AcDb2dVertex
 10
74.35412365862382
 20
-138.8142807986295
 30
0.0
  0
SEQEND
  5
114
330
111
100
AcDbEntity
  8
_U+30EC_U+30A4_U+30E4_U+30FC 1
 62
     7
420
 16777215
370
     9
  0
POLYLINE
  5
115
330
1F
100
AcDbEntity
  8
_U+30EC_U+30A4_U+30E4_U+30FC 1
 62
     7
420
 16777215
370
     9
100
AcDb2dPolyline
 66
     1
 10
0.0
 20
0.0
 30
0.0
  0
VERTEX
  5
116
330
115
100
AcDbEntity
  8
_U+30EC_U+30A4_U+30E4_U+30FC 1
 62
     7
420
 16777215
370
     9
100
AcDbVertex
100
AcDb2dVertex
 10
81.75039180326264
 20
-138.4890549653777
 30
0.0
  0
VERTEX
  5
117
330
115
100
AcDbEntity
  8
_U+30EC_U+30A4_U+30E4_U+30FC 1
 62
     7
420
 16777215
370
     9
100
AcDbVertex
100
AcDb2dVertex
 10
77.18255469757565
 20
-143.0568921864582
 30
0.0
  0
SEQEND
  5
118
330
115
100
AcDbEntity
  8
_U+30EC_U+30A4_U+30E4_U+30FC 1
 62
     7
420
 16777215
370
     9
  0
POLYLINE
  5
119
330
1F
100
AcDbEntity
  8
_U+30EC_U+30A4_U+30E4_U+30FC 1
 62
     7
420
 16777215
370
     9
100
AcDb2dPolyline
 66
     1
 10
0.0
 20
0.0
 30
0.0
  0
VERTEX
  5
11A
330
119
100
AcDbEntity
  8
_U+30EC_U+30A4_U+30E4_U+30FC 1
 62
     7
420
 16777215
370
     9
100
AcDbVertex
100
AcDb2dVertex
 10
78.21502939345724
 20
-134.9536924662613
 30
0.0
  0
VERTEX
  5
11B
330
119
100
AcDbEntity
  8
_U+30EC_U+30A4_U+30E4_U+30FC 1
 62
     7
420
 16777215
370
     9
100
AcDbVertex
100
AcDb2dVertex
 10
73.64683951000148
 20
-139.5215296873418
 30
0.0
  0
SEQEND
  5
11C
330
119
100
AcDbEntity
  8
_U+30EC_U+30A4_U+30E4_U+30FC 1
 62
     7
420
 16777215
370
     9
  0
INSERT
  5
11E
330
1F
100
AcDbEntity
  8
_U+30EC_U+30A4_U+30E4_U+30FC 1
100
AcDbBlockReference
  2
block 7
 10
0.0
 20
0.0
 30
0.0
  0
POLYLINE
  5
123
330
1F
100
AcDbEntity
  8
_U+30EC_U+30A4_U+30E4_U+30FC 1
 62
     7
420
 16777215
370
     9
100
AcDb2dPolyline
 66
     1
 10
0.0
 20
0.0
 30
0.0
  0
VERTEX
  5
124
330
123
100
AcDbEntity
  8
_U+30EC_U+30A4_U+30E4_U+30FC 1
 62
     7
420
 16777215
370
     9
100
AcDbVertex
100
AcDb2dVertex
 10
104.5104166405391
 20
-135.893174966027
 30
0.0
  0
VERTEX
  5
125
330
123
100
AcDbEntity
  8
_U+30EC_U+30A4_U+30E4_U+30FC 1
 62
     7
420
 16777215
370
     9
100
AcDbVertex
100
AcDb2dVertex
 10
104.5104166405391
 20
-141.1507280202681
 30
0.0
  0
SEQEND
  5
126
330
123
100
AcDbEntity
  8
_U+30EC_U+30A4_U+30E4_U+30FC 1
 62
     7
420
 16777215
370
     9
  0
POLYLINE
  5
127
330
1F
100
AcDbEntity
  8
_U+30EC_U+30A4_U+30E4_U+30FC 1
 62
     7
420
 16777215
370
     9
100
AcDb2dPolyline
 66
     1
 10
0.0
 20
0.0
 30
0.0
  0
VERTEX
  5
128
330
127
100
AcDbEntity
  8
_U+30EC_U+30A4_U+30E4_U+30FC 1
 62
     7
420
 16777215
370
     9
100
AcDbVertex
100
AcDb2dVertex
 10
104.5104166405391
 20
-135.893174966027
 30
0.0
  0
VERTEX
  5
129
330
127
100
AcDbEntity
  8
_U+30EC_U+30A4_U+30E4_U+30FC 1
 62
     7
420
 16777215
370
     9
100
AcDbVertex
100
AcDb2dVertex
 10
104.5104166405391
 20
-133.3927213555408
 30
0.0
  0
SEQEND
  5
12A
330
127
100
AcDbEntity
  8
_U+30EC_U+30A4_U+30E4_U+30FC 1
 62
     7
420
 16777215
370
     9
  0
POLYLINE
  5
12B
330
1F
100
AcDbEntity
  8
_U+30EC_U+30A4_U+30E4_U+30FC 1
 62
     7
420
 16777215
370
     9
100
AcDb2dPolyline
 66
     1
 10
0.0
 20
0.0
 30
0.0
  0
VERTEX
  5
12C
330
12B
100
AcDbEntity
  8
_U+30EC_U+30A4_U+30E4_U+30FC 1
 62
     7
420
 16777215
370
     9
100
AcDbVertex
100
AcDb2dVertex
 10
102.8415987651811
 20
-135.893174966027
 30
0.0
  0
VERTEX
  5
12D
330
12B
100
AcDbEntity
  8
_U+30EC_U+30A4_U+30E4_U+30FC 1
 62
     7
420
 16777215
370
     9
100
AcDbVertex
100
AcDb2dVertex
 10
105.5101888625116
 20
-135.893174966027
 30
0.0
  0
SEQEND
  5
12E
330
12B
100
AcDbEntity
  8
_U+30EC_U+30A4_U+30E4_U+30FC 1
 62
     7
420
 16777215
370
     9
  0
POLYLINE
  5
12F
330
1F
100
AcDbEntity
  8
_U+30EC_U+30A4_U+30E4_U+30FC 1
 62
     7
420
 16777215
370
     9
100
AcDb2dPolyline
 66
     1
 10
0.0
 20
0.0
 30
0.0
  0
VERTEX
  5
130
330
12F
100
AcDbEntity
  8
_U+30EC_U+30A4_U+30E4_U+30FC 1
 62
     7
420
 16777215
370
     9
100
AcDbVertex
100
AcDb2dVertex
 10
92.85117929783573
 20
-133.3927213555408
 30
0.0
  0
VERTEX
  5
131
330
12F
100
AcDbEntity
  8
_U+30EC_U+30A4_U+30E4_U+30FC 1
 62
     7
420
 16777215
370
     9
100
AcDbVertex
100
AcDb2dVertex
 10
105.5101888625116
 20
-133.3927213555408
 30
0.0
  0
SEQEND
  5
132
330
12F
100
AcDbEntity
  8
_U+30EC_U+30A4_U+30E4_U+30FC 1
 62
     7
420
 16777215
370
     9
  0
INSERT
  5
134
330
1F
100
AcDbEntity
  8
_U+30EC_U+30A4_U+30E4_U+30FC 1
100
AcDbBlockReference
  2
block 8
 10
0.0
 20
0.0
 30
0.0
  0
POLYLINE
  5
143
330
1F
100
AcDbEntity
  8
_U+30EC_U+30A4_U+30E4_U+30FC 1
 62
     7
420
 16777215
370
     9
100
AcDb2dPolyline
 66
     1
 10
0.0
 20
0.0
 30
0.0
  0
VERTEX
  5
144
330
143
100
AcDbEntity
  8
_U+30EC_U+30A4_U+30E4_U+30FC 1
 62
     7
420
 16777215
370
     9
100
AcDbVertex
100
AcDb2dVertex
 10
80.81090932723083
 20
-116.1925469153963
 30
0.0
  0
VERTEX
  5
145
330
143
100
AcDbEntity
  8
_U+30EC_U+30A4_U+30E4_U+30FC 1
 62
     7
420
 16777215
370
     9
100
AcDbVertex
100
AcDb2dVertex
 10
86.06881502642382
 20
-116.1925469153963
 30
0.0
  0
SEQEND
  5
146
330
143
100
AcDbEntity
  8
_U+30EC_U+30A4_U+30E4_U+30FC 1
 62
     7
420
 16777215
370
     9
  0
POLYLINE
  5
147
330
1F
100
AcDbEntity
  8
_U+30EC_U+30A4_U+30E4_U+30FC 1
 62
     7
420
 16777215
370
     9
100
AcDb2dPolyline
 66
     1
 10
0.0
 20
0.0
 30
0.0
  0
VERTEX
  5
148
330
147
100
AcDbEntity
  8
_U+30EC_U+30A4_U+30E4_U+30FC 1
 62
     7
420
 16777215
370
     9
100
AcDbVertex
100
AcDb2dVertex
 10
79.01086076204278
 20
-116.1925469153963
 30
0.0
  0
VERTEX
  5
149
330
147
100
AcDbEntity
  8
_U+30EC_U+30A4_U+30E4_U+30FC 1
 62
     7
420
 16777215
370
     9
100
AcDbVertex
100
AcDb2dVertex
 10
80.81090932723083
 20
-116.1925469153963
 30
0.0
  0
SEQEND
  5
14A
330
147
100
AcDbEntity
  8
_U+30EC_U+30A4_U+30E4_U+30FC 1
 62
     7
420
 16777215
370
     9
  0
POLYLINE
  5
14B
330
1F
100
AcDbEntity
  8
_U+30EC_U+30A4_U+30E4_U+30FC 1
 62
     7
420
 16777215
370
     9
100
AcDb2dPolyline
 66
     1
 10
0.0
 20
0.0
 30
0.0
  0
VERTEX
  5
14C
330
14B
100
AcDbEntity
  8
_U+30EC_U+30A4_U+30E4_U+30FC 1
 62
     7
420
 16777215
370
     9
100
AcDbVertex
100
AcDb2dVertex
 10
80.0109504587506
 20
-117.6529410816978
 30
0.0
  0
VERTEX
  5
14D
330
14B
100
AcDbEntity
  8
_U+30EC_U+30A4_U+30E4_U+30FC 1
 62
     7
420
 16777215
370
     9
100
AcDbVertex
100
AcDb2dVertex
 10
80.0109504587506
 20
-115.1924571934242
 30
0.0
  0
SEQEND
  5
14E
330
14B
100
AcDbEntity
  8
_U+30EC_U+30A4_U+30E4_U+30FC 1
 62
     7
420
 16777215
370
     9
  0
POLYLINE
  5
14F
330
1F
100
AcDbEntity
  8
_U+30EC_U+30A4_U+30E4_U+30FC 1
 62
     7
420
 16777215
370
     9
100
AcDb2dPolyline
 66
     1
 10
0.0
 20
0.0
 30
0.0
  0
VERTEX
  5
150
330
14F
100
AcDbEntity
  8
_U+30EC_U+30A4_U+30E4_U+30FC 1
 62
     7
420
 16777215
370
     9
100
AcDbVertex
100
AcDb2dVertex
 10
80.81090932723083
 20
-117.8617149705346
 30
0.0
  0
VERTEX
  5
151
330
14F
100
AcDbEntity
  8
_U+30EC_U+30A4_U+30E4_U+30FC 1
 62
     7
420
 16777215
370
     9
100
AcDbVertex
100
AcDb2dVertex
 10
80.81090932723083
 20
-115.1924571934242
 30
0.0
  0
SEQEND
  5
152
330
14F
100
AcDbEntity
  8
_U+30EC_U+30A4_U+30E4_U+30FC 1
 62
     7
420
 16777215
370
     9
  0
INSERT
  5
154
330
1F
100
AcDbEntity
  8
_U+30EC_U+30A4_U+30E4_U+30FC 1
100
AcDbBlockReference
  2
block 9
 10
0.0
 20
0.0
 30
0.0
  0
POLYLINE
  5
166
330
1F
100
AcDbEntity
  8
_U+30EC_U+30A4_U+30E4_U+30FC 1
 62
     7
420
 16777215
370
     9
100
AcDb2dPolyline
 66
     1
 10
0.0
 20
0.0
 30
0.0
  0
VERTEX
  5
167
330
166
100
AcDbEntity
  8
_U+30EC_U+30A4_U+30E4_U+30FC 1
 62
     7
420
 16777215
370
     9
100
AcDbVertex
100
AcDb2dVertex
 10
92.85117929783573
 20
-132.3929491335683
 30
0.0
  0
VERTEX
  5
168
330
166
100
AcDbEntity
  8
_U+30EC_U+30A4_U+30E4_U+30FC 1
 62
     7
420
 16777215
370
     9
100
AcDbVertex
100
AcDb2dVertex
 10
95.31099284619177
 20
-132.3929491335683
 30
0.0
  0
SEQEND
  5
169
330
166
100
AcDbEntity
  8
_U+30EC_U+30A4_U+30E4_U+30FC 1
 62
     7
420
 16777215
370
     9
  0
POLYLINE
  5
16A
330
1F
100
AcDbEntity
  8
_U+30EC_U+30A4_U+30E4_U+30FC 1
 62
   179
420
  2234388
370
     9
100
AcDb2dPolyline
 66
     1
 10
0.0
 20
0.0
 30
0.0
  0
VERTEX
  5
16B
330
16A
100
AcDbEntity
  8
_U+30EC_U+30A4_U+30E4_U+30FC 1
 62
   179
420
  2234388
370
     9
100
AcDbVertex
100
AcDb2dVertex
 10
84.46840553443849
 20
-132.1331988558559
 30
0.0
  0
VERTEX
  5
16C
330
16A
100
AcDbEntity
  8
_U+30EC_U+30A4_U+30E4_U+30FC 1
 62
   179
420
  2234388
370
     9
100
AcDbVertex
100
AcDb2dVertex
 10
84.98998533172484
 20
-131.2298760783037
 30
0.0
  0
SEQEND
  5
16D
330
16A
100
AcDbEntity
  8
_U+30EC_U+30A4_U+30E4_U+30FC 1
 62
   179
420
  2234388
370
     9
  0
POLYLINE
  5
16E
330
1F
100
AcDbEntity
  8
_U+30EC_U+30A4_U+30E4_U+30FC 1
 62
   179
420
  2234388
370
     9
100
AcDb2dPolyline
 66
     1
 10
0.0
 20
0.0
 30
0.0
  0
VERTEX
  5
16F
330
16E
100
AcDbEntity
  8
_U+30EC_U+30A4_U+30E4_U+30FC 1
 62
   179
420
  2234388
370
     9
100
AcDbVertex
100
AcDb2dVertex
 10
84.46840553443849
 20
-132.1331988558559
 30
0.0
  0
VERTEX
  5
170
330
16E
100
AcDbEntity
  8
_U+30EC_U+30A4_U+30E4_U+30FC 1
 62
   179
420
  2234388
370
     9
100
AcDbVertex
100
AcDb2dVertex
 10
85.88639364218889
 20
-130.777897189528
 30
0.0
  0
SEQEND
  5
171
330
16E
100
AcDbEntity
  8
_U+30EC_U+30A4_U+30E4_U+30FC 1
 62
   179
420
  2234388
370
     9
  0
POLYLINE
  5
172
330
1F
100
AcDbEntity
  8
_U+30EC_U+30A4_U+30E4_U+30FC 1
 62
   179
420
  2234388
370
     9
100
AcDb2dPolyline
 66
     1
 10
0.0
 20
0.0
 30
0.0
  0
VERTEX
  5
173
330
172
100
AcDbEntity
  8
_U+30EC_U+30A4_U+30E4_U+30FC 1
 62
   179
420
  2234388
370
     9
100
AcDbVertex
100
AcDb2dVertex
 10
84.46840553443849
 20
-132.1331988558559
 30
0.0
  0
VERTEX
  5
174
330
172
100
AcDbEntity
  8
_U+30EC_U+30A4_U+30E4_U+30FC 1
 62
   179
420
  2234388
370
     9
100
AcDbVertex
100
AcDb2dVertex
 10
85.37102059978159
 20
-131.6116169115415
 30
0.0
  0
SEQEND
  5
175
330
172
100
AcDbEntity
  8
_U+30EC_U+30A4_U+30E4_U+30FC 1
 62
   179
420
  2234388
370
     9
  0
INSERT
  5
177
330
1F
100
AcDbEntity
  8
_U+30EC_U+30A4_U+30E4_U+30FC 1
100
AcDbBlockReference
  2
block 10
 10
0.0
 20
0.0
 30
0.0
  0
ENDSEC
  0
SECTION
  2
OBJECTS
  0
DICTIONARY
  5
C
330
0
100
AcDbDictionary
281
     1
  3
ACAD_GROUP
350
D
  3
ACAD_LAYOUT
350
1A
  3
ACAD_MATERIAL
350
3B
  3
ACAD_MLEADERSTYLE
350
180
  3
ACAD_MLINESTYLE
350
17
  3
ACAD_PLOTSETTINGS
350
19
  3
ACAD_PLOTSTYLENAME
350
E
  3
ACAD_TABLESTYLE
350
17F
  3
ACAD_VISUALSTYLE
350
2A
  0
SUN
  5
3F
330
29
100
AcDbSun
 90
        1
290
     0
 63
     7
421
 16777215
 40
1.0
291
     1
 91
  2455826
 92
 54000000
292
     0
 70
     2
 71
   256
280
     1
  0
DICTIONARY
  5
D
102
{ACAD_REACTORS
330
C
102
}
330
C
100
AcDbDictionary
281
     1
  0
DICTIONARY
  5
1A
102
{ACAD_REACTORS
330
C
102
}
330
C
100
AcDbDictionary
281
     1
  3
Layout1
350
1E
  3
Layout2
350
26
  3
Model
350
22
  0
DICTIONARY
  5
3B
102
{ACAD_REACTORS
330
C
102
}
330
C
100
AcDbDictionary
281
     1
  3
ByBlock
350
3D
  3
ByLayer
350
3C
  3
Global
350
3E
  0
DICTIONARY
  5
180
102
{ACAD_REACTORS
330
C
102
}
330
C
100
AcDbDictionary
281
     1
  0
DICTIONARY
  5
17
102
{ACAD_REACTORS
330
C
102
}
330
C
100
AcDbDictionary
281
     1
  3
Standard
350
18
  0
DICTIONARY
  5
19
102
{ACAD_REACTORS
330
C
102
}
330
C
100
AcDbDictionary
281
     1
  0
ACDBDICTIONARYWDFLT
  5
E
102
{ACAD_REACTORS
330
C
102
}
330
C
100
AcDbDictionary
281
     1
  3
Normal
350
F
100
AcDbDictionaryWithDefault
340
F
  0
DICTIONARY
  5
17F
102
{ACAD_REACTORS
330
C
102
}
330
C
100
AcDbDictionary
281
     1
  0
DICTIONARY
  5
2A
102
{ACAD_REACTORS
330
C
102
}
330
C
100
AcDbDictionary
281
     1
  3
2dWireframe
350
2F
  3
3D Hidden
350
31
  3
3dWireframe
350
30
  3
Basic
350
32
  3
Brighten
350
36
  3
ColorChange
350
3A
  3
Conceptual
350
34
  3
Dim
350
35
  3
Facepattern
350
39
  3
Flat
350
2B
  3
FlatWithEdges
350
2C
  3
Gouraud
350
2D
  3
GouraudWithEdges
350
2E
  3
Linepattern
350
38
  3
Realistic
350
33
  3
Thicken
350
37
  0
LAYOUT
  5
1E
102
{ACAD_REACTORS
330
1A
102
}
330
1A
100
AcDbPlotSettings
  1

  2
none_device
  4

  6

 40
0.0
 41
0.0
 42
0.0
 43
0.0
 44
0.0
 45
0.0
 46
0.0
 47
0.0
 48
0.0
 49
0.0
140
0.0
141
0.0
142
1.0
143
1.0
 70
   688
 72
     0
 73
     0
 74
     5
  7

 75
    16
 76
     0
 77
     2
 78
   300
147
1.0
148
0.0
149
0.0
100
AcDbLayout
  1
Layout1
 70
     1
 71
     1
 10
0.0
 20
0.0
 11
12.0
 21
9.0
 12
0.0
 22
0.0
 32
0.0
 14
1.000000000000000E+20
 24
1.000000000000000E+20
 34
1.000000000000000E+20
 15
-1.000000000000000E+20
 25
-1.000000000000000E+20
 35
-1.000000000000000E+20
146
0.0
 13
0.0
 23
0.0
 33
0.0
 16
1.0
 26
0.0
 36
0.0
 17
0.0
 27
1.0
 37
0.0
 76
     0
330
1B
  0
LAYOUT
  5
26
102
{ACAD_REACTORS
330
1A
102
}
330
1A
100
AcDbPlotSettings
  1

  2
none_device
  4

  6

 40
0.0
 41
0.0
 42
0.0
 43
0.0
 44
0.0
 45
0.0
 46
0.0
 47
0.0
 48
0.0
 49
0.0
140
0.0
141
0.0
142
1.0
143
1.0
 70
   688
 72
     0
 73
     0
 74
     5
  7

 75
    16
 76
     0
 77
     2
 78
   300
147
1.0
148
0.0
149
0.0
100
AcDbLayout
  1
Layout2
 70
     1
 71
     2
 10
0.0
 20
0.0
 11
0.0
 21
0.0
 12
0.0
 22
0.0
 32
0.0
 14
0.0
 24
0.0
 34
0.0
 15
0.0
 25
0.0
 35
0.0
146
0.0
 13
0.0
 23
0.0
 33
0.0
 16
1.0
 26
0.0
 36
0.0
 17
0.0
 27
1.0
 37
0.0
 76
     0
330
23
  0
LAYOUT
  5
22
102
{ACAD_REACTORS
330
1A
102
}
330
1A
100
AcDbPlotSettings
  1

  2
none_device
  4

  6

 40
0.0
 41
0.0
 42
0.0
 43
0.0
 44
0.0
 45
0.0
 46
0.0
 47
0.0
 48
0.0
 49
0.0
140
0.0
141
0.0
142
1.0
143
1.0
 70
  1712
 72
     0
 73
     0
 74
     0
  7

 75
     0
 76
     0
 77
     2
 78
   300
147
1.0
148
0.0
149
0.0
100
AcDbLayout
  1
Model
 70
     1
 71
     0
 10
0.0
 20
0.0
 11
12.0
 21
9.0
 12
0.0
 22
0.0
 32
0.0
 14
1.000000000000000E+20
 24
1.000000000000000E+20
 34
1.000000000000000E+20
 15
-1.000000000000000E+20
 25
-1.000000000000000E+20
 35
-1.000000000000000E+20
146
0.0
 13
0.0
 23
0.0
 33
0.0
 16
1.0
 26
0.0
 36
0.0
 17
0.0
 27
1.0
 37
0.0
 76
     0
330
1F
331
29
  0
MATERIAL
  5
3D
102
{ACAD_REACTORS
330
3B
102
}
330
3B
100
AcDbMaterial
  1
ByBlock
 72
     1
 94
      127
  0
MATERIAL
  5
3C
102
{ACAD_REACTORS
330
3B
102
}
330
3B
100
AcDbMaterial
  1
ByLayer
 72
     1
 94
      127
  0
MATERIAL
  5
3E
102
{ACAD_REACTORS
330
3B
102
}
330
3B
100
AcDbMaterial
  1
Global
 72
     1
 94
      127
  0
MLINESTYLE
  5
18
102
{ACAD_REACTORS
330
17
102
}
330
17
100
AcDbMlineStyle
  2
Standard
 70
     0
  3

 62
   256
 51
90.0
 52
90.0
 71
     2
 49
0.5
 62
   256
  6
BYLAYER
 49
-0.5
 62
   256
  6
BYLAYER
  0
ACDBPLACEHOLDER
  5
F
102
{ACAD_REACTORS
330
E
102
}
330
E
  0
VISUALSTYLE
  5
2F
102
{ACAD_REACTORS
330
2A
102
}
330
2A
100
AcDbVisualStyle
  2
2dWireframe
 70
     4
177
     2
291
     0
 71
     0
176
     1
 72
     2
176
     1
 73
     0
176
     1
 90
        0
176
     1
 40
-0.6
176
     1
 41
-30.0
176
     1
 62
     5
 63
     7
421
 16777215
176
     1
 74
     1
176
     1
 91
        4
176
     1
 64
     7
176
     1
 65
   257
176
     1
 75
     1
176
     1
175
     1
176
     1
 42
1.0
176
     1
 92
        0
176
     1
 66
   257
176
     1
 43
1.0
176
     1
 76
     1
176
     1
 77
     6
176
     1
 78
     2
176
     1
 67
     7
176
     1
 79
     5
176
     1
170
     0
176
     1
171
     0
176
     1
290
     0
176
     1
 93
        1
176
     1
 44
0.0
176
     1
173
     0
176
     1
  0
VISUALSTYLE
  5
31
102
{ACAD_REACTORS
330
2A
102
}
330
2A
100
AcDbVisualStyle
  2
3D Hidden
 70
     6
177
     2
291
     0
 71
     1
176
     1
 72
     2
176
     1
 73
     2
176
     1
 90
        0
176
     1
 40
-0.6
176
     1
 41
-30.0
176
     1
 62
     5
 63
     7
421
 16777215
176
     1
 74
     2
176
     1
 91
        2
176
     1
 64
     7
176
     1
 65
   257
176
     1
 75
     2
176
     1
175
     1
176
     1
 42
40.0
176
     1
 92
        0
176
     1
 66
   257
176
     1
 43
1.0
176
     1
 76
     1
176
     1
 77
     6
176
     1
 78
     2
176
     1
 67
     7
176
     1
 79
     3
176
     1
170
     0
176
     1
171
     0
176
     1
290
     0
176
     1
 93
        1
176
     1
 44
0.0
176
     1
173
     0
176
     1
  0
VISUALSTYLE
  5
30
102
{ACAD_REACTORS
330
2A
102
}
330
2A
100
AcDbVisualStyle
  2
3dWireframe
 70
     5
177
     2
291
     0
 71
     0
176
     1
 72
     2
176
     1
 73
     0
176
     1
 90
        0
176
     1
 40
-0.6
176
     1
 41
-30.0
176
     1
 62
     5
 63
     7
421
 16777215
176
     1
 74
     1
176
     1
 91
        4
176
     1
 64
     7
176
     1
 65
   257
176
     1
 75
     1
176
     1
175
     1
176
     1
 42
1.0
176
     1
 92
        0
176
     1
 66
   257
176
     1
 43
1.0
176
     1
 76
     1
176
     1
 77
     6
176
     1
 78
     2
176
     1
 67
     7
176
     1
 79
     5
176
     1
170
     0
176
     1
171
     0
176
     1
290
     0
176
     1
 93
        1
176
     1
 44
0.0
176
     1
173
     0
176
     1
  0
VISUALSTYLE
  5
32
102
{ACAD_REACTORS
330
2A
102
}
330
2A
100
AcDbVisualStyle
  2
Basic
 70
     7
177
     2
291
     1
 71
     1
176
     1
 72
     0
176
     1
 73
     1
176
     1
 90
        0
176
     1
 40
-0.6
176
     1
 41
-30.0
176
     1
 62
     5
 63
     7
421
 16777215
176
     1
 74
     0
176
     1
 91
        4
176
     1
 64
     7
176
     1
 65
   257
176
     1
 75
     1
176
     1
175
     1
176
     1
 42
1.0
176
     1
 92
        8
176
     1
 66
     7
176
     1
 43
1.0
176
     1
 76
     1
176
     1
 77
     6
176
     1
 78
     2
176
     1
 67
     7
176
     1
 79
     5
176
     1
170
     0
176
     1
171
     0
176
     1
290
     0
176
     1
 93
        1
176
     1
 44
0.0
176
     1
173
     0
176
     1
  0
VISUALSTYLE
  5
36
102
{ACAD_REACTORS
330
2A
102
}
330
2A
100
AcDbVisualStyle
  2
Brighten
 70
    12
177
     2
291
     1
 71
     2
176
     1
 72
     2
176
     1
 73
     0
176
     1
 90
        0
176
     1
 40
-0.6
176
     1
 41
-30.0
176
     1
 62
     5
 63
     7
421
 16777215
176
     1
 74
     1
176
     1
 91
        4
176
     1
 64
     7
176
     1
 65
   257
176
     1
 75
     1
176
     1
175
     1
176
     1
 42
1.0
176
     1
 92
        8
176
     1
 66
     7
176
     1
 43
1.0
176
     1
 76
     1
176
     1
 77
     6
176
     1
 78
     2
176
     1
 67
     7
176
     1
 79
     5
176
     1
170
     0
176
     1
171
     0
176
     1
290
     0
176
     1
 93
        1
176
     1
 44
50.0
176
     1
173
     0
176
     1
  0
VISUALSTYLE
  5
3A
102
{ACAD_REACTORS
330
2A
102
}
330
2A
100
AcDbVisualStyle
  2
ColorChange
 70
    16
177
     2
291
     1
 71
     2
176
     1
 72
     2
176
     1
 73
     3
176
     1
 90
        0
176
     1
 40
-0.6
176
     1
 41
-30.0
176
     1
 62
     5
 63
     8
421
  8421504
176
     1
 74
     1
176
     1
 91
        4
176
     1
 64
     7
176
     1
 65
   257
176
     1
 75
     1
176
     1
175
     1
176
     1
 42
1.0
176
     1
 92
        8
176
     1
 66
     8
424
  8421504
176
     1
 43
1.0
176
     1
 76
     1
176
     1
 77
     6
176
     1
 78
     2
176
     1
 67
     7
176
     1
 79
     5
176
     1
170
     0
176
     1
171
     0
176
     1
290
     0
176
     1
 93
        1
176
     1
 44
0.0
176
     1
173
     0
176
     1
  0
VISUALSTYLE
  5
34
102
{ACAD_REACTORS
330
2A
102
}
330
2A
100
AcDbVisualStyle
  2
Conceptual
 70
     9
177
     2
291
     0
 71
     3
176
     1
 72
     2
176
     1
 73
     0
176
     1
 90
        0
176
     1
 40
-0.6
176
     1
 41
-30.0
176
     1
 62
     5
 63
     7
421
 16777215
176
     1
 74
     2
176
     1
 91
        2
176
     1
 64
     7
176
     1
 65
   257
176
     1
 75
     1
176
     1
175
     1
176
     1
 42
40.0
176
     1
 92
        8
176
     1
 66
     7
176
     1
 43
1.0
176
     1
 76
     1
176
     1
 77
     6
176
     1
 78
     2
176
     1
 67
     7
176
     1
 79
     3
176
     1
170
     0
176
     1
171
     0
176
     1
290
     0
176
     1
 93
        1
176
     1
 44
0.0
176
     1
173
     0
176
     1
  0
VISUALSTYLE
  5
35
102
{ACAD_REACTORS
330
2A
102
}
330
2A
100
AcDbVisualStyle
  2
Dim
 70
    11
177
     2
291
     1
 71
     2
176
     1
 72
     2
176
     1
 73
     0
176
     1
 90
        0
176
     1
 40
-0.6
176
     1
 41
-30.0
176
     1
 62
     5
 63
     7
421
 16777215
176
     1
 74
     1
176
     1
 91
        4
176
     1
 64
     7
176
     1
 65
   257
176
     1
 75
     1
176
     1
175
     1
176
     1
 42
1.0
176
     1
 92
        8
176
     1
 66
     7
176
     1
 43
1.0
176
     1
 76
     1
176
     1
 77
     6
176
     1
 78
     2
176
     1
 67
     7
176
     1
 79
     5
176
     1
170
     0
176
     1
171
     0
176
     1
290
     0
176
     1
 93
        1
176
     1
 44
-50.0
176
     1
173
     0
176
     1
  0
VISUALSTYLE
  5
39
102
{ACAD_REACTORS
330
2A
102
}
330
2A
100
AcDbVisualStyle
  2
Facepattern
 70
    15
177
     2
291
     1
 71
     2
176
     1
 72
     2
176
     1
 73
     0
176
     1
 90
        0
176
     1
 40
-0.6
176
     1
 41
-30.0
176
     1
 62
     5
 63
     7
421
 16777215
176
     1
 74
     1
176
     1
 91
        4
176
     1
 64
     7
176
     1
 65
   257
176
     1
 75
     1
176
     1
175
     1
176
     1
 42
1.0
176
     1
 92
        8
176
     1
 66
     7
176
     1
 43
1.0
176
     1
 76
     1
176
     1
 77
     6
176
     1
 78
     2
176
     1
 67
     7
176
     1
 79
     5
176
     1
170
     0
176
     1
171
     0
176
     1
290
     0
176
     1
 93
        1
176
     1
 44
0.0
176
     1
173
     0
176
     1
  0
VISUALSTYLE
  5
2B
102
{ACAD_REACTORS
330
2A
102
}
330
2A
100
AcDbVisualStyle
  2
Flat
 70
     0
177
     2
291
     1
 71
     2
176
     1
 72
     1
176
     1
 73
     1
176
     1
 90
        2
176
     1
 40
-0.6
176
     1
 41
30.0
176
     1
 62
     5
 63
     7
421
 16777215
176
     1
 74
     0
176
     1
 91
        4
176
     1
 64
     7
176
     1
 65
   257
176
     1
 75
     1
176
     1
175
     1
176
     1
 42
1.0
176
     1
 92
        8
176
     1
 66
     7
176
     1
 43
1.0
176
     1
 76
     1
176
     1
 77
     6
176
     1
 78
     2
176
     1
 67
     7
176
     1
 79
     5
176
     1
170
     0
176
     1
171
     0
176
     1
290
     0
176
     1
 93
       13
176
     1
 44
0.0
176
     1
173
     0
176
     1
  0
VISUALSTYLE
  5
2C
102
{ACAD_REACTORS
330
2A
102
}
330
2A
100
AcDbVisualStyle
  2
FlatWithEdges
 70
     1
177
     2
291
     1
 71
     2
176
     1
 72
     1
176
     1
 73
     1
176
     1
 90
        2
176
     1
 40
-0.6
176
     1
 41
30.0
176
     1
 62
     5
 63
     7
421
 16777215
176
     1
 74
     1
176
     1
 91
        4
176
     1
 64
     7
176
     1
 65
   257
176
     1
 75
     1
176
     1
175
     1
176
     1
 42
1.0
176
     1
 92
        0
176
     1
 66
   257
176
     1
 43
1.0
176
     1
 76
     1
176
     1
 77
     6
176
     1
 78
     2
176
     1
 67
     7
176
     1
 79
     5
176
     1
170
     0
176
     1
171
     0
176
     1
290
     0
176
     1
 93
       13
176
     1
 44
0.0
176
     1
173
     0
176
     1
  0
VISUALSTYLE
  5
2D
102
{ACAD_REACTORS
330
2A
102
}
330
2A
100
AcDbVisualStyle
  2
Gouraud
 70
     2
177
     2
291
     1
 71
     2
176
     1
 72
     2
176
     1
 73
     1
176
     1
 90
        2
176
     1
 40
-0.6
176
     1
 41
30.0
176
     1
 62
     5
 63
     7
421
 16777215
176
     1
 74
     0
176
     1
 91
        4
176
     1
 64
     7
176
     1
 65
   257
176
     1
 75
     1
176
     1
175
     1
176
     1
 42
1.0
176
     1
 92
        0
176
     1
 66
     7
176
     1
 43
1.0
176
     1
 76
     1
176
     1
 77
     6
176
     1
 78
     2
176
     1
 67
     7
176
     1
 79
     5
176
     1
170
     0
176
     1
171
     0
176
     1
290
     0
176
     1
 93
       13
176
     1
 44
0.0
176
     1
173
     0
176
     1
  0
VISUALSTYLE
  5
2E
102
{ACAD_REACTORS
330
2A
102
}
330
2A
100
AcDbVisualStyle
  2
GouraudWithEdges
 70
     3
177
     2
291
     1
 71
     2
176
     1
 72
     2
176
     1
 73
     1
176
     1
 90
        2
176
     1
 40
-0.6
176
     1
 41
30.0
176
     1
 62
     5
 63
     7
421
 16777215
176
     1
 74
     1
176
     1
 91
        4
176
     1
 64
     7
176
     1
 65
   257
176
     1
 75
     1
176
     1
175
     1
176
     1
 42
1.0
176
     1
 92
        0
176
     1
 66
   257
176
     1
 43
1.0
176
     1
 76
     1
176
     1
 77
     6
176
     1
 78
     2
176
     1
 67
     7
176
     1
 79
     5
176
     1
170
     0
176
     1
171
     0
176
     1
290
     0
176
     1
 93
       13
176
     1
 44
0.0
176
     1
173
     0
176
     1
  0
VISUALSTYLE
  5
38
102
{ACAD_REACTORS
330
2A
102
}
330
2A
100
AcDbVisualStyle
  2
Linepattern
 70
    14
177
     2
291
     1
 71
     2
176
     1
 72
     2
176
     1
 73
     0
176
     1
 90
        0
176
     1
 40
-0.6
176
     1
 41
-30.0
176
     1
 62
     5
 63
     7
421
 16777215
176
     1
 74
     1
176
     1
 91
        4
176
     1
 64
     7
176
     1
 65
   257
176
     1
 75
     7
176
     1
175
     7
176
     1
 42
1.0
176
     1
 92
        8
176
     1
 66
     7
176
     1
 43
1.0
176
     1
 76
     1
176
     1
 77
     6
176
     1
 78
     2
176
     1
 67
     7
176
     1
 79
     5
176
     1
170
     0
176
     1
171
     0
176
     1
290
     0
176
     1
 93
        1
176
     1
 44
0.0
176
     1
173
     0
176
     1
  0
VISUALSTYLE
  5
33
102
{ACAD_REACTORS
330
2A
102
}
330
2A
100
AcDbVisualStyle
  2
Realistic
 70
     8
177
     2
291
     0
 71
     2
176
     1
 72
     2
176
     1
 73
     0
176
     1
 90
        0
176
     1
 40
-0.6
176
     1
 41
-30.0
176
     1
 62
     5
 63
     7
421
 16777215
176
     1
 74
     1
176
     1
 91
        0
176
     1
 64
     7
176
     1
 65
   257
176
     1
 75
     1
176
     1
175
     1
176
     1
 42
1.0
176
     1
 92
        8
176
     1
 66
     8
424
  7895160
176
     1
 43
1.0
176
     1
 76
     1
176
     1
 77
     6
176
     1
 78
     2
176
     1
 67
     7
176
     1
 79
     5
176
     1
170
     0
176
     1
171
     0
176
     1
290
     0
176
     1
 93
       13
176
     1
 44
0.0
176
     1
173
     0
176
     1
  0
VISUALSTYLE
  5
37
102
{ACAD_REACTORS
330
2A
102
}
330
2A
100
AcDbVisualStyle
  2
Thicken
 70
    13
177
     2
291
     1
 71
     2
176
     1
 72
     2
176
     1
 73
     0
176
     1
 90
        0
176
     1
 40
-0.6
176
     1
 41
-30.0
176
     1
 62
     5
 63
     7
421
 16777215
176
     1
 74
     1
176
     1
 91
        4
176
     1
 64
     7
176
     1
 65
   257
176
     1
 75
     1
176
     1
175
     1
176
     1
 42
1.0
176
     1
 92
       12
176
     1
 66
     7
176
     1
 43
1.0
176
     1
 76
     1
176
     1
 77
     6
176
     1
 78
     2
176
     1
 67
     7
176
     1
 79
     5
176
     1
170
     0
176
     1
171
     0
176
     1
290
     0
176
     1
 93
        1
176
     1
 44
0.0
176
     1
173
     0
176
     1
  0
ENDSEC
  0
EOF
