  0
SECTION
  2
HEADER
  9
$ACADVER
  1
AC1024
  9
$ACADMAINTVER
 70
     6
  9
$DWGCODEPAGE
  3
UNDEFINED
  9
$INSBASE
 10
0.0
 20
0.0
 30
0.0
  9
$EXTMIN
 10
1.000000000000000E+20
 20
1.000000000000000E+20
 30
1.000000000000000E+20
  9
$EXTMAX
 10
-1.000000000000000E+20
 20
-1.000000000000000E+20
 30
-1.000000000000000E+20
  9
$LIMMIN
 10
0.0
 20
0.0
  9
$LIMMAX
 10
12.0
 20
9.0
  9
$ORTHOMODE
 70
     0
  9
$REGENMODE
 70
     1
  9
$FILLMODE
 70
     1
  9
$QTEXTMODE
 70
     0
  9
$MIRRTEXT
 70
     1
  9
$LTSCALE
 40
1.0
  9
$ATTMODE
 70
     1
  9
$TEXTSIZE
 40
0.2
  9
$TRACEWID
 40
0.05
  9
$TEXTSTYLE
  7
Standard
  9
$CLAYER
  8
0
  9
$CELTYPE
  6
ByLayer
  9
$CECOLOR
 62
   256
  9
$CELTSCALE
 40
1.0
  9
$DISPSILH
 70
     0
  9
$DIMSCALE
 40
1.0
  9
$DIMASZ
 40
0.18
  9
$DIMEXO
 40
0.0625
  9
$DIMDLI
 40
0.38
  9
$DIMRND
 40
0.0
  9
$DIMDLE
 40
0.0
  9
$DIMEXE
 40
0.18
  9
$DIMTP
 40
0.0
  9
$DIMTM
 40
0.0
  9
$DIMTXT
 40
0.18
  9
$DIMCEN
 40
0.09
  9
$DIMTSZ
 40
0.0
  9
$DIMTOL
 70
     0
  9
$DIMLIM
 70
     0
  9
$DIMTIH
 70
     1
  9
$DIMTOH
 70
     1
  9
$DIMSE1
 70
     0
  9
$DIMSE2
 70
     0
  9
$DIMTAD
 70
     0
  9
$DIMZIN
 70
     0
  9
$DIMBLK
  1

  9
$DIMASO
 70
     1
  9
$DIMSHO
 70
     1
  9
$DIMPOST
  1

  9
$DIMAPOST
  1

  9
$DIMALT
 70
     0
  9
$DIMALTD
 70
     2
  9
$DIMALTF
 40
25.4
  9
$DIMLFAC
 40
1.0
  9
$DIMTOFL
 70
     0
  9
$DIMTVP
 40
0.0
  9
$DIMTIX
 70
     0
  9
$DIMSOXD
 70
     0
  9
$DIMSAH
 70
     0
  9
$DIMBLK1
  1

  9
$DIMBLK2
  1

  9
$DIMSTYLE
  2
Standard
  9
$DIMCLRD
 70
     0
  9
$DIMCLRE
 70
     0
  9
$DIMCLRT
 70
     0
  9
$DIMTFAC
 40
1.0
  9
$DIMGAP
 40
0.09
  9
$DIMJUST
 70
     0
  9
$DIMSD1
 70
     0
  9
$DIMSD2
 70
     0
  9
$DIMTOLJ
 70
     1
  9
$DIMTZIN
 70
     0
  9
$DIMALTZ
 70
     0
  9
$DIMALTTZ
 70
     0
  9
$DIMUPT
 70
     0
  9
$DIMDEC
 70
     4
  9
$DIMTDEC
 70
     4
  9
$DIMALTU
 70
     2
  9
$DIMALTTD
 70
     2
  9
$DIMTXSTY
  7
Standard
  9
$DIMAUNIT
 70
     0
  9
$DIMADEC
 70
     0
  9
$DIMALTRND
 40
0.0
  9
$DIMAZIN
 70
     0
  9
$DIMDSEP
 70
    46
  9
$DIMATFIT
 70
     3
  9
$DIMFRAC
 70
     0
  9
$DIMLDRBLK
  1

  9
$DIMLUNIT
 70
     2
  9
$DIMLWD
 70
    -2
  9
$DIMLWE
 70
    -2
  9
$DIMTMOVE
 70
     0
  9
$DIMFXL
 40
1.0
  9
$DIMFXLON
 70
     0
  9
$DIMJOGANG
 40
0.7853981633974483
  9
$DIMTFILL
 70
     0
  9
$DIMTFILLCLR
 70
     0
  9
$DIMARCSYM
 70
     0
  9
$DIMLTYPE
  6

  9
$DIMLTEX1
  6

  9
$DIMLTEX2
  6

  9
$DIMTXTDIRECTION
 70
     0
  9
$LUNITS
 70
     2
  9
$LUPREC
 70
     4
  9
$SKETCHINC
 40
0.1
  9
$FILLETRAD
 40
0.5
  9
$AUNITS
 70
     0
  9
$AUPREC
 70
     0
  9
$MENU
  1
.
  9
$ELEVATION
 40
0.0
  9
$PELEVATION
 40
0.0
  9
$THICKNESS
 40
0.0
  9
$LIMCHECK
 70
     0
  9
$CHAMFERA
 40
0.5
  9
$CHAMFERB
 40
0.5
  9
$CHAMFERC
 40
1.0
  9
$CHAMFERD
 40
0.0
  9
$SKPOLY
 70
     0
  9
$TDCREATE
 40
2457917.595416655
  9
$TDUCREATE
 40
2457917.220416666
  9
$TDUPDATE
 40
2457917.595416655
  9
$TDUUPDATE
 40
2457917.220416666
  9
$TDINDWG
 40
0.0000000116
  9
$TDUSRTIMER
 40
0.0000000116
  9
$USRTIMER
 70
     1
  9
$ANGBASE
 50
0.0
  9
$ANGDIR
 70
     0
  9
$PDMODE
 70
     0
  9
$PDSIZE
 40
0.0
  9
$PLINEWID
 40
0.0
  9
$SPLFRAME
 70
     0
  9
$SPLINETYPE
 70
     6
  9
$SPLINESEGS
 70
     8
  9
$HANDSEED
  5
179
  9
$SURFTAB1
 70
     6
  9
$SURFTAB2
 70
     6
  9
$SURFTYPE
 70
     6
  9
$SURFU
 70
     6
  9
$SURFV
 70
     6
  9
$UCSBASE
  2

  9
$UCSNAME
  2

  9
$UCSORG
 10
0.0
 20
0.0
 30
0.0
  9
$UCSXDIR
 10
1.0
 20
0.0
 30
0.0
  9
$UCSYDIR
 10
0.0
 20
1.0
 30
0.0
  9
$UCSORTHOREF
  2

  9
$UCSORTHOVIEW
 70
     0
  9
$UCSORGTOP
 10
0.0
 20
0.0
 30
0.0
  9
$UCSORGBOTTOM
 10
0.0
 20
0.0
 30
0.0
  9
$UCSORGLEFT
 10
0.0
 20
0.0
 30
0.0
  9
$UCSORGRIGHT
 10
0.0
 20
0.0
 30
0.0
  9
$UCSORGFRONT
 10
0.0
 20
0.0
 30
0.0
  9
$UCSORGBACK
 10
0.0
 20
0.0
 30
0.0
  9
$PUCSBASE
  2

  9
$PUCSNAME
  2

  9
$PUCSORG
 10
0.0
 20
0.0
 30
0.0
  9
$PUCSXDIR
 10
1.0
 20
0.0
 30
0.0
  9
$PUCSYDIR
 10
0.0
 20
1.0
 30
0.0
  9
$PUCSORTHOREF
  2

  9
$PUCSORTHOVIEW
 70
     0
  9
$PUCSORGTOP
 10
0.0
 20
0.0
 30
0.0
  9
$PUCSORGBOTTOM
 10
0.0
 20
0.0
 30
0.0
  9
$PUCSORGLEFT
 10
0.0
 20
0.0
 30
0.0
  9
$PUCSORGRIGHT
 10
0.0
 20
0.0
 30
0.0
  9
$PUCSORGFRONT
 10
0.0
 20
0.0
 30
0.0
  9
$PUCSORGBACK
 10
0.0
 20
0.0
 30
0.0
  9
$USERI1
 70
     0
  9
$USERI2
 70
     0
  9
$USERI3
 70
     0
  9
$USERI4
 70
     0
  9
$USERI5
 70
     0
  9
$USERR1
 40
0.0
  9
$USERR2
 40
0.0
  9
$USERR3
 40
0.0
  9
$USERR4
 40
0.0
  9
$USERR5
 40
0.0
  9
$WORLDVIEW
 70
     1
  9
$SHADEDGE
 70
     3
  9
$SHADEDIF
 70
    70
  9
$TILEMODE
 70
     1
  9
$MAXACTVP
 70
    64
  9
$PINSBASE
 10
0.0
 20
0.0
 30
0.0
  9
$PLIMCHECK
 70
     0
  9
$PEXTMIN
 10
1.000000000000000E+20
 20
1.000000000000000E+20
 30
1.000000000000000E+20
  9
$PEXTMAX
 10
-1.000000000000000E+20
 20
-1.000000000000000E+20
 30
-1.000000000000000E+20
  9
$PLIMMIN
 10
0.0
 20
0.0
  9
$PLIMMAX
 10
12.0
 20
9.0
  9
$UNITMODE
 70
     0
  9
$VISRETAIN
 70
     1
  9
$PLINEGEN
 70
     0
  9
$PSLTSCALE
 70
     1
  9
$TREEDEPTH
 70
  3020
  9
$CMLSTYLE
  2
Standard
  9
$CMLJUST
 70
     0
  9
$CMLSCALE
 40
1.0
  9
$PROXYGRAPHICS
 70
     1
  9
$MEASUREMENT
 70
     0
  9
$CELWEIGHT
370
    -1
  9
$ENDCAPS
280
     0
  9
$JOINSTYLE
280
     0
  9
$LWDISPLAY
290
     1
  9
$INSUNITS
 70
     1
  9
$HYPERLINKBASE
  1

  9
$STYLESHEET
  1

  9
$XEDIT
290
     1
  9
$CEPSNTYPE
380
     0
  9
$PSTYLEMODE
290
     1
  9
$FINGERPRINTGUID
  2
{7F2E36B8-3E54-9ED2-F3A7-BA051D931582}
  9
$VERSIONGUID
  2
{FAEB1C32-E019-11D5-929B-00C0DF256EC4}
  9
$EXTNAMES
290
     1
  9
$PSVPSCALE
 40
0.0
  9
$OLESTARTUP
290
     0
  9
$SORTENTS
280
   127
  9
$INDEXCTL
280
     0
  9
$HIDETEXT
280
     1
  9
$XCLIPFRAME
280
     2
  9
$HALOGAP
280
     0
  9
$OBSCOLOR
 70
   257
  9
$OBSLTYPE
280
     0
  9
$INTERSECTIONDISPLAY
280
     0
  9
$INTERSECTIONCOLOR
 70
   257
  9
$DIMASSOC
280
     2
  9
$PROJECTNAME
  1

  9
$CAMERADISPLAY
290
     0
  9
$LENSLENGTH
 40
50.0
  9
$CAMERAHEIGHT
 40
0.0
  9
$STEPSPERSEC
 40
2.0
  9
$STEPSIZE
 40
6.0
  9
$3DDWFPREC
 40
2.0
  9
$PSOLWIDTH
 40
0.25
  9
$PSOLHEIGHT
 40
4.0
  9
$LOFTANG1
 40
1.570796326794897
  9
$LOFTANG2
 40
1.570796326794897
  9
$LOFTMAG1
 40
0.0
  9
$LOFTMAG2
 40
0.0
  9
$LOFTPARAM
 70
     7
  9
$LOFTNORMALS
280
     1
  9
$LATITUDE
 40
37.795
  9
$LONGITUDE
 40
-122.394
  9
$NORTHDIRECTION
 40
0.0
  9
$TIMEZONE
 70
 -8000
  9
$LIGHTGLYPHDISPLAY
280
     1
  9
$TILEMODELIGHTSYNCH
280
     1
  9
$CMATERIAL
347
3C
  9
$SOLIDHIST
280
     1
  9
$SHOWHIST
280
     1
  9
$DWFFRAME
280
     2
  9
$DGNFRAME
280
     2
  9
$REALWORLDSCALE
290
     1
  9
$INTERFERECOLOR
 62
   256
  9
$CSHADOW
280
     0
  9
$SHADOWPLANELOCATION
 40
0.0
  0
ENDSEC
  0
SECTION
  2
CLASSES
  0
CLASS
  1
ACDBDICTIONARYWDFLT
  2
AcDbDictionaryWithDefault
  3
ObjectDBX Classes
 90
        0
 91
        4
280
     0
281
     0
  0
CLASS
  1
VISUALSTYLE
  2
AcDbVisualStyle
  3
ObjectDBX Classes
 90
     4095
 91
        4
280
     0
281
     0
  0
CLASS
  1
MATERIAL
  2
AcDbMaterial
  3
ObjectDBX Classes
 90
     1153
 91
        4
280
     0
281
     0
  0
CLASS
  1
SUN
  2
AcDbSun
  3
SCENEOE
 90
     1024
 91
        4
280
     0
281
     0
  0
ENDSEC
  0
SECTION
  2
TABLES
  0
TABLE
  2
VPORT
  5
8
330
0
100
AcDbSymbolTable
 70
     1
  0
VPORT
  5
29
330
8
100
AcDbSymbolTableRecord
100
AcDbViewportTableRecord
  2
*Active
 70
     0
 10
0.0
 20
0.0
 11
1.0
 21
1.0
 12
0.0
 22
0.0
 13
0.0
 23
0.0
 14
0.5
 24
0.5
 15
0.5
 25
0.5
 16
0.0
 26
0.0
 36
1.0
 17
91.00082462281999
 27
-128.4993055234307
 37
0.0
 40
256.9986110468615
 41
0.7081814508812795
 42
50.0
 43
0.0
 44
0.0
 50
0.0
 51
0.0
 71
     0
 72
   100
 73
     1
 74
     3
 75
     0
 76
     0
 77
     0
 78
     0
281
     0
 65
     1
110
0.0
120
0.0
130
0.0
111
1.0
121
0.0
131
0.0
112
0.0
122
1.0
132
0.0
 79
     0
146
0.0
 60
     3
 61
     5
292
     1
282
     1
141
0.0
142
0.0
 63
   250
361
3F
  0
ENDTAB
  0
TABLE
  2
LTYPE
  5
5
330
0
100
AcDbSymbolTable
 70
     1
  0
LTYPE
  5
14
330
5
100
AcDbSymbolTableRecord
100
AcDbLinetypeTableRecord
  2
ByBlock
 70
     0
  3

 72
    65
 73
     0
 40
0.0
  0
LTYPE
  5
15
330
5
100
AcDbSymbolTableRecord
100
AcDbLinetypeTableRecord
  2
ByLayer
 70
     0
  3

 72
    65
 73
     0
 40
0.0
  0
LTYPE
  5
16
330
5
100
AcDbSymbolTableRecord
100
AcDbLinetypeTableRecord
  2
Continuous
 70
     0
  3
Solid line
 72
    65
 73
     0
 40
0.0
  0
ENDTAB
  0
TABLE
  2
LAYER
  5
2
330
0
100
AcDbSymbolTable
 70
     2
  0
LAYER
  5
10
330
2
100
AcDbSymbolTableRecord
100
AcDbLayerTableRecord
  2
0
 70
     0
 62
     7
  6
Continuous
370
    -3
390
F
347
3E
  0
LAYER
  5
40
330
2
100
AcDbSymbolTableRecord
100
AcDbLayerTableRecord
  2
_U+30EC_U+30A4_U+30E4_U+30FC 1
 70
     0
 62
     7
  6
Continuous
370
    -3
390
F
347
3E
  0
ENDTAB
  0
TABLE
  2
STYLE
  5
3
330
0
100
AcDbSymbolTable
 70
     1
  0
STYLE
  5
11
330
3
100
AcDbSymbolTableRecord
100
AcDbTextStyleTableRecord
  2
Standard
 70
     0
 40
0.0
 41
1.0
 50
0.0
 71
     0
 42
0.2
  3
txt
  4

  0
ENDTAB
  0
TABLE
  2
VIEW
  5
6
330
0
100
AcDbSymbolTable
 70
     0
  0
ENDTAB
  0
TABLE
  2
UCS
  5
7
330
0
100
AcDbSymbolTable
 70
     0
  0
ENDTAB
  0
TABLE
  2
APPID
  5
9
330
0
100
AcDbSymbolTable
 70
     1
  0
APPID
  5
12
330
9
100
AcDbSymbolTableRecord
100
AcDbRegAppTableRecord
  2
ACAD
 70
     0
  0
ENDTAB
  0
TABLE
  2
DIMSTYLE
  5
A
330
0
100
AcDbSymbolTable
 70
     1
100
AcDbDimStyleTable
  0
DIMSTYLE
105
27
330
A
100
AcDbSymbolTableRecord
100
AcDbDimStyleTableRecord
  2
Standard
 70
     0
178
     0
340
11
  0
ENDTAB
  0
TABLE
  2
BLOCK_RECORD
  5
1
330
0
100
AcDbSymbolTable
 70
    10
  0
BLOCK_RECORD
  5
1F
330
1
100
AcDbSymbolTableRecord
100
AcDbBlockTableRecord
  2
*Model_Space
340
22
 70
     0
280
     1
281
     0
  0
BLOCK_RECORD
  5
1B
330
1
100
AcDbSymbolTableRecord
100
AcDbBlockTableRecord
  2
*Paper_Space
340
1E
 70
     0
280
     1
281
     0
  0
BLOCK_RECORD
  5
23
330
1
100
AcDbSymbolTableRecord
100
AcDbBlockTableRecord
  2
*Paper_Space0
340
26
 70
     0
280
     1
281
     0
  0
BLOCK_RECORD
  5
A5
330
1
100
AcDbSymbolTableRecord
100
AcDbBlockTableRecord
  2
block 2
340
0
102
{BLKREFS
331
A6
102
}
 70
     0
280
     1
281
     0
  0
BLOCK_RECORD
  5
B7
330
1
100
AcDbSymbolTableRecord
100
AcDbBlockTableRecord
  2
block 3
340
0
102
{BLKREFS
331
B8
102
}
 70
     0
280
     1
281
     0
  0
BLOCK_RECORD
  5
CD
330
1
100
AcDbSymbolTableRecord
100
AcDbBlockTableRecord
  2
block 4
340
0
102
{BLKREFS
331
CE
102
}
 70
     0
280
     1
281
     0
  0
BLOCK_RECORD
  5
DF
330
1
100
AcDbSymbolTableRecord
100
AcDbBlockTableRecord
  2
block 5
340
0
102
{BLKREFS
331
E0
102
}
 70
     0
280
     1
281
     0
  0
BLOCK_RECORD
  5
F5
330
1
100
AcDbSymbolTableRecord
100
AcDbBlockTableRecord
  2
block 6
340
0
102
{BLKREFS
331
F6
102
}
 70
     0
280
     1
281
     0
  0
BLOCK_RECORD
  5
114
330
1
100
AcDbSymbolTableRecord
100
AcDbBlockTableRecord
  2
block 7
340
0
102
{BLKREFS
331
115
102
}
 70
     0
280
     1
281
     0
  0
BLOCK_RECORD
  5
129
330
1
100
AcDbSymbolTableRecord
100
AcDbBlockTableRecord
  2
block 8
340
0
102
{BLKREFS
331
12A
102
}
 70
     0
280
     1
281
     0
  0
BLOCK_RECORD
  5
159
330
1
100
AcDbSymbolTableRecord
100
AcDbBlockTableRecord
  2
block 9
340
0
102
{BLKREFS
331
15A
102
}
 70
     0
280
     1
281
     0
  0
BLOCK_RECORD
  5
16E
330
1
100
AcDbSymbolTableRecord
100
AcDbBlockTableRecord
  2
block 10
340
0
102
{BLKREFS
331
16F
102
}
 70
     0
280
     1
281
     0
  0
ENDTAB
  0
ENDSEC
  0
SECTION
  2
BLOCKS
  0
BLOCK
  5
20
330
1F
100
AcDbEntity
  8
0
100
AcDbBlockBegin
  2
*Model_Space
 70
     0
 10
0.0
 20
0.0
 30
0.0
  3
*Model_Space
  1

  0
ENDBLK
  5
21
330
1F
100
AcDbEntity
  8
0
100
AcDbBlockEnd
  0
BLOCK
  5
1C
330
1B
100
AcDbEntity
 67
     1
  8
0
100
AcDbBlockBegin
  2
*Paper_Space
 70
     0
 10
0.0
 20
0.0
 30
0.0
  3
*Paper_Space
  1

  0
ENDBLK
  5
1D
330
1B
100
AcDbEntity
 67
     1
  8
0
100
AcDbBlockEnd
  0
BLOCK
  5
24
330
23
100
AcDbEntity
  8
0
100
AcDbBlockBegin
  2
*Paper_Space0
 70
     0
 10
0.0
 20
0.0
 30
0.0
  3
*Paper_Space0
  1

  0
ENDBLK
  5
25
330
23
100
AcDbEntity
  8
0
100
AcDbBlockEnd
  0
BLOCK
  5
A7
330
A5
100
AcDbEntity
  8
0
100
AcDbBlockBegin
  2
block 2
 70
     0
 10
0.0
 20
0.0
 30
0.0
  3
block 2
  1

  0
SPLINE
  5
A9
330
A5
100
AcDbEntity
  8
_U+30EC_U+30A4_U+30E4_U+30FC 1
370
     0
100
AcDbSpline
210
0.0
220
0.0
230
1.0
 70
    11
 71
     3
 72
    26
 73
    22
 74
     0
 42
0.0000000001
 43
0.0000000001
 12
1.0
 22
0.0
 32
0.0
 13
1.0
 23
0.0
 33
0.0
 40
0.0
 40
0.0
 40
0.0
 40
0.0
 40
1.0
 40
1.0
 40
1.0
 40
2.0
 40
2.0
 40
2.0
 40
3.0
 40
3.0
 40
3.0
 40
4.0
 40
4.0
 40
4.0
 40
5.0
 40
5.0
 40
5.0
 40
6.0
 40
6.0
 40
6.0
 40
7.0
 40
7.0
 40
7.0
 40
7.0
 10
92.39918346214327
 20
-117.0553873405278
 30
0.0
 10
92.39918346214327
 20
-117.0553873405278
 30
0.0
 10
92.16216089275808
 20
-117.0553873405278
 30
0.0
 10
92.16216089275808
 20
-117.0553873405278
 30
0.0
 10
92.18765459934892
 20
-116.7465345302752
 30
0.0
 10
92.38023543697439
 20
-116.2282199145193
 30
0.0
 10
92.78641219468534
 20
-115.7226521520589
 30
0.0
 10
92.78641219468534
 20
-115.7226521520589
 30
0.0
 10
91.94856497267259
 20
-115.7226521520589
 30
0.0
 10
91.94856497267259
 20
-115.7226521520589
 30
0.0
 10
91.94856497267259
 20
-115.7226521520589
 30
0.0
 10
91.94856497267259
 20
-115.5111232892646
 30
0.0
 10
91.94856497267259
 20
-115.5111232892646
 30
0.0
 10
91.94856497267259
 20
-115.5111232892646
 30
0.0
 10
93.02343476407053
 20
-115.5111232892646
 30
0.0
 10
93.02343476407053
 20
-115.5111232892646
 30
0.0
 10
93.02343476407053
 20
-115.5111232892646
 30
0.0
 10
93.02343476407053
 20
-115.7226521520589
 30
0.0
 10
93.02343476407053
 20
-115.7226521520589
 30
0.0
 10
92.69959578845705
 20
-116.0123846823684
 30
0.0
 10
92.4329453978987
 20
-116.6047688510571
 30
0.0
 10
92.39918346214327
 20
-117.0553873405278
 30
0.0
  0
HATCH
  5
AA
330
A5
100
AcDbEntity
  8
_U+30EC_U+30A4_U+30E4_U+30FC 1
 62
     7
420
 16777215
100
AcDbHatch
 10
0.0
 20
0.0
 30
0.0
210
0.0
220
0.0
230
1.0
  2
SOLID
 70
     1
 71
     0
 91
        1
 92
        1
 93
        1
 72
     4
 94
        3
 73
     0
 74
     1
 95
       26
 96
       22
 40
0.0
 40
0.0
 40
0.0
 40
0.0
 40
1.0
 40
1.0
 40
1.0
 40
2.0
 40
2.0
 40
2.0
 40
3.0
 40
3.0
 40
3.0
 40
4.0
 40
4.0
 40
4.0
 40
5.0
 40
5.0
 40
5.0
 40
6.0
 40
6.0
 40
6.0
 40
7.0
 40
7.0
 40
7.0
 40
7.0
 10
92.39918346214327
 20
-117.0553873405278
 10
92.39918346214327
 20
-117.0553873405278
 10
92.16216089275808
 20
-117.0553873405278
 10
92.16216089275808
 20
-117.0553873405278
 10
92.18765459934892
 20
-116.7465345302752
 10
92.38023543697439
 20
-116.2282199145193
 10
92.78641219468534
 20
-115.7226521520589
 10
92.78641219468534
 20
-115.7226521520589
 10
91.94856497267259
 20
-115.7226521520589
 10
91.94856497267259
 20
-115.7226521520589
 10
91.94856497267259
 20
-115.7226521520589
 10
91.94856497267259
 20
-115.5111232892646
 10
91.94856497267259
 20
-115.5111232892646
 10
91.94856497267259
 20
-115.5111232892646
 10
93.02343476407053
 20
-115.5111232892646
 10
93.02343476407053
 20
-115.5111232892646
 10
93.02343476407053
 20
-115.5111232892646
 10
93.02343476407053
 20
-115.7226521520589
 10
93.02343476407053
 20
-115.7226521520589
 10
92.69959578845705
 20
-116.0123846823684
 10
92.4329453978987
 20
-116.6047688510571
 10
92.39918346214327
 20
-117.0553873405278
 97
        0
 97
        0
 75
     2
 76
     1
 98
        0
  0
ENDBLK
  5
A8
330
A5
100
AcDbEntity
  8
0
100
AcDbBlockEnd
  0
BLOCK
  5
B9
330
B7
100
AcDbEntity
  8
0
100
AcDbBlockBegin
  2
block 3
 70
     0
 10
0.0
 20
0.0
 30
0.0
  3
block 3
  1

  0
SPLINE
  5
BB
330
B7
100
AcDbEntity
  8
_U+30EC_U+30A4_U+30E4_U+30FC 1
370
     0
100
AcDbSpline
210
0.0
220
0.0
230
1.0
 70
    11
 71
     3
 72
    26
 73
    22
 74
     0
 42
0.0000000001
 43
0.0000000001
 12
1.0
 22
0.0
 32
0.0
 13
1.0
 23
0.0
 33
0.0
 40
0.0
 40
0.0
 40
0.0
 40
0.0
 40
1.0
 40
1.0
 40
1.0
 40
2.0
 40
2.0
 40
2.0
 40
3.0
 40
3.0
 40
3.0
 40
4.0
 40
4.0
 40
4.0
 40
5.0
 40
5.0
 40
5.0
 40
6.0
 40
6.0
 40
6.0
 40
7.0
 40
7.0
 40
7.0
 40
7.0
 10
99.39238278765191
 20
-125.24127872303
 30
0.0
 10
99.39238278765191
 20
-125.24127872303
 30
0.0
 10
99.39238278765191
 20
-125.4781290376409
 30
0.0
 10
99.39238278765191
 20
-125.4781290376409
 30
0.0
 10
99.083357722625
 20
-125.4528075858243
 30
0.0
 10
98.56521536164342
 20
-125.2602267481988
 30
0.0
 10
98.05947534440875
 20
-124.8540499904879
 30
0.0
 10
98.05947534440875
 20
-124.8540499904879
 30
0.0
 10
98.05947534440875
 20
-125.6918972125006
 30
0.0
 10
98.05947534440875
 20
-125.6918972125006
 30
0.0
 10
98.05947534440875
 20
-125.6918972125006
 30
0.0
 10
97.8479464816144
 20
-125.6918972125006
 30
0.0
 10
97.8479464816144
 20
-125.6918972125006
 30
0.0
 10
97.8479464816144
 20
-125.6918972125006
 30
0.0
 10
97.8479464816144
 20
-124.617199675877
 30
0.0
 10
97.8479464816144
 20
-124.617199675877
 30
0.0
 10
97.8479464816144
 20
-124.617199675877
 30
0.0
 10
98.05947534440875
 20
-124.617199675877
 30
0.0
 10
98.05947534440875
 20
-124.617199675877
 30
0.0
 10
98.34955238426679
 20
-124.9408663967162
 30
0.0
 10
98.94176429818123
 20
-125.2073445325003
 30
0.0
 10
99.39238278765191
 20
-125.24127872303
 30
0.0
  0
HATCH
  5
BC
330
B7
100
AcDbEntity
  8
_U+30EC_U+30A4_U+30E4_U+30FC 1
 62
     7
420
 16777215
100
AcDbHatch
 10
0.0
 20
0.0
 30
0.0
210
0.0
220
0.0
230
1.0
  2
SOLID
 70
     1
 71
     0
 91
        1
 92
        1
 93
        1
 72
     4
 94
        3
 73
     0
 74
     1
 95
       26
 96
       22
 40
0.0
 40
0.0
 40
0.0
 40
0.0
 40
1.0
 40
1.0
 40
1.0
 40
2.0
 40
2.0
 40
2.0
 40
3.0
 40
3.0
 40
3.0
 40
4.0
 40
4.0
 40
4.0
 40
5.0
 40
5.0
 40
5.0
 40
6.0
 40
6.0
 40
6.0
 40
7.0
 40
7.0
 40
7.0
 40
7.0
 10
99.39238278765191
 20
-125.24127872303
 10
99.39238278765191
 20
-125.24127872303
 10
99.39238278765191
 20
-125.4781290376409
 10
99.39238278765191
 20
-125.4781290376409
 10
99.083357722625
 20
-125.4528075858243
 10
98.56521536164342
 20
-125.2602267481988
 10
98.05947534440875
 20
-124.8540499904879
 10
98.05947534440875
 20
-124.8540499904879
 10
98.05947534440875
 20
-125.6918972125006
 10
98.05947534440875
 20
-125.6918972125006
 10
98.05947534440875
 20
-125.6918972125006
 10
97.8479464816144
 20
-125.6918972125006
 10
97.8479464816144
 20
-125.6918972125006
 10
97.8479464816144
 20
-125.6918972125006
 10
97.8479464816144
 20
-124.617199675877
 10
97.8479464816144
 20
-124.617199675877
 10
97.8479464816144
 20
-124.617199675877
 10
98.05947534440875
 20
-124.617199675877
 10
98.05947534440875
 20
-124.617199675877
 10
98.34955238426679
 20
-124.9408663967162
 10
98.94176429818123
 20
-125.2073445325003
 10
99.39238278765191
 20
-125.24127872303
 97
        0
 97
        0
 75
     2
 76
     1
 98
        0
  0
ENDBLK
  5
BA
330
B7
100
AcDbEntity
  8
0
100
AcDbBlockEnd
  0
BLOCK
  5
CF
330
CD
100
AcDbEntity
  8
0
100
AcDbBlockBegin
  2
block 4
 70
     0
 10
0.0
 20
0.0
 30
0.0
  3
block 4
  1

  0
SPLINE
  5
D1
330
CD
100
AcDbEntity
  8
_U+30EC_U+30A4_U+30E4_U+30FC 1
370
     0
100
AcDbSpline
210
0.0
220
0.0
230
1.0
 70
    11
 71
     3
 72
    26
 73
    22
 74
     0
 42
0.0000000001
 43
0.0000000001
 12
1.0
 22
0.0
 32
0.0
 13
1.0
 23
0.0
 33
0.0
 40
0.0
 40
0.0
 40
0.0
 40
0.0
 40
1.0
 40
1.0
 40
1.0
 40
2.0
 40
2.0
 40
2.0
 40
3.0
 40
3.0
 40
3.0
 40
4.0
 40
4.0
 40
4.0
 40
5.0
 40
5.0
 40
5.0
 40
6.0
 40
6.0
 40
6.0
 40
7.0
 40
7.0
 40
7.0
 40
7.0
 10
91.94201929125062
 20
-125.055588076375
 30
0.0
 10
91.94201929125062
 20
-125.055588076375
 30
0.0
 10
91.94201929125062
 20
-123.9512627185782
 30
0.0
 10
91.94201929125062
 20
-123.9512627185782
 30
0.0
 10
91.94201929125062
 20
-123.9512627185782
 30
0.0
 10
91.61197914376368
 20
-123.9512627185782
 30
0.0
 10
91.61197914376368
 20
-123.9512627185782
 30
0.0
 10
91.61197914376368
 20
-123.9512627185782
 30
0.0
 10
91.61197914376368
 20
-123.8032958674867
 30
0.0
 10
91.61197914376368
 20
-123.8032958674867
 30
0.0
 10
91.94408634854176
 20
-123.7884819569001
 30
0.0
 10
91.99059513759263
 20
-123.6255289404478
 30
0.0
 10
92.02022295876579
 20
-123.5113240251118
 30
0.0
 10
92.02022295876579
 20
-123.5113240251118
 30
0.0
 10
92.16629500734038
 20
-123.5113240251118
 30
0.0
 10
92.16629500734038
 20
-123.5113240251118
 30
0.0
 10
92.16629500734038
 20
-123.5113240251118
 30
0.0
 10
92.16629500734038
 20
-125.055588076375
 30
0.0
 10
92.16629500734038
 20
-125.055588076375
 30
0.0
 10
92.16629500734038
 20
-125.055588076375
 30
0.0
 10
91.94201929125062
 20
-125.055588076375
 30
0.0
 10
91.94201929125062
 20
-125.055588076375
 30
0.0
  0
HATCH
  5
D2
330
CD
100
AcDbEntity
  8
_U+30EC_U+30A4_U+30E4_U+30FC 1
 62
     7
420
 16777215
100
AcDbHatch
 10
0.0
 20
0.0
 30
0.0
210
0.0
220
0.0
230
1.0
  2
SOLID
 70
     1
 71
     0
 91
        1
 92
        1
 93
        1
 72
     4
 94
        3
 73
     0
 74
     1
 95
       26
 96
       22
 40
0.0
 40
0.0
 40
0.0
 40
0.0
 40
1.0
 40
1.0
 40
1.0
 40
2.0
 40
2.0
 40
2.0
 40
3.0
 40
3.0
 40
3.0
 40
4.0
 40
4.0
 40
4.0
 40
5.0
 40
5.0
 40
5.0
 40
6.0
 40
6.0
 40
6.0
 40
7.0
 40
7.0
 40
7.0
 40
7.0
 10
91.94201929125062
 20
-125.055588076375
 10
91.94201929125062
 20
-125.055588076375
 10
91.94201929125062
 20
-123.9512627185782
 10
91.94201929125062
 20
-123.9512627185782
 10
91.94201929125062
 20
-123.9512627185782
 10
91.61197914376368
 20
-123.9512627185782
 10
91.61197914376368
 20
-123.9512627185782
 10
91.61197914376368
 20
-123.9512627185782
 10
91.61197914376368
 20
-123.8032958674867
 10
91.61197914376368
 20
-123.8032958674867
 10
91.94408634854176
 20
-123.7884819569001
 10
91.99059513759263
 20
-123.6255289404478
 10
92.02022295876579
 20
-123.5113240251118
 10
92.02022295876579
 20
-123.5113240251118
 10
92.16629500734038
 20
-123.5113240251118
 10
92.16629500734038
 20
-123.5113240251118
 10
92.16629500734038
 20
-123.5113240251118
 10
92.16629500734038
 20
-125.055588076375
 10
92.16629500734038
 20
-125.055588076375
 10
92.16629500734038
 20
-125.055588076375
 10
91.94201929125062
 20
-125.055588076375
 10
91.94201929125062
 20
-125.055588076375
 97
        0
 97
        0
 75
     2
 76
     1
 98
        0
  0
ENDBLK
  5
D0
330
CD
100
AcDbEntity
  8
0
100
AcDbBlockEnd
  0
BLOCK
  5
E1
330
DF
100
AcDbEntity
  8
0
100
AcDbBlockBegin
  2
block 5
 70
     0
 10
0.0
 20
0.0
 30
0.0
  3
block 5
  1

  0
SPLINE
  5
E3
330
DF
100
AcDbEntity
  8
_U+30EC_U+30A4_U+30E4_U+30FC 1
370
     0
100
AcDbSpline
210
0.0
220
0.0
230
1.0
 70
    11
 71
     3
 72
    53
 73
    49
 74
     0
 42
0.0000000001
 43
0.0000000001
 12
1.0
 22
0.0
 32
0.0
 13
1.0
 23
0.0
 33
0.0
 40
0.0
 40
0.0
 40
0.0
 40
0.0
 40
1.0
 40
1.0
 40
1.0
 40
2.0
 40
2.0
 40
2.0
 40
3.0
 40
3.0
 40
3.0
 40
4.0
 40
4.0
 40
4.0
 40
5.0
 40
5.0
 40
5.0
 40
6.0
 40
6.0
 40
6.0
 40
7.0
 40
7.0
 40
7.0
 40
8.0
 40
8.0
 40
8.0
 40
9.0
 40
9.0
 40
9.0
 40
10.0
 40
10.0
 40
10.0
 40
11.0
 40
11.0
 40
11.0
 40
12.0
 40
12.0
 40
12.0
 40
13.0
 40
13.0
 40
13.0
 40
14.0
 40
14.0
 40
14.0
 40
15.0
 40
15.0
 40
15.0
 40
16.0
 40
16.0
 40
16.0
 40
16.0
 10
73.67336695206777
 20
-143.9440130933543
 30
0.0
 10
73.61807316952951
 20
-143.8885470560417
 30
0.0
 10
73.55812850808617
 20
-143.8048312357502
 30
0.0
 10
73.53125676330122
 20
-143.6880424988002
 30
0.0
 10
73.4862982672187
 20
-143.4875379415587
 30
0.0
 10
73.56415742518536
 20
-143.3800509624189
 30
0.0
 10
73.62703041779116
 20
-143.2901339702539
 30
0.0
 10
73.62703041779116
 20
-143.2901339702539
 30
0.0
 10
73.78412677191855
 20
-143.4472303243813
 30
0.0
 10
73.78412677191855
 20
-143.4472303243813
 30
0.0
 10
73.68232420032942
 20
-143.6267197991628
 30
0.0
 10
73.75105385526015
 20
-143.7373073642393
 30
0.0
 10
73.81702743380269
 20
-143.8031086880076
 30
0.0
 10
73.9157294194551
 20
-143.9019829284342
 30
0.0
 10
74.09366860126825
 20
-143.9395344692234
 30
0.0
 10
74.25817191068893
 20
-143.7748589050285
 30
0.0
 10
74.43921167843881
 20
-143.5939913920529
 30
0.0
 10
74.36152477524642
 20
-143.4172579936596
 30
0.0
 10
74.27625866198649
 20
-143.3321641351739
 30
0.0
 10
74.2536932865581
 20
-143.3097710145198
 30
0.0
 10
74.15344100793733
 20
-143.209518735899
 30
0.0
 10
73.99944523974666
 20
-143.2377685188781
 30
0.0
 10
73.99944523974666
 20
-143.2377685188781
 30
0.0
 10
73.88868541989589
 20
-143.1003092090166
 30
0.0
 10
73.88868541989589
 20
-143.1003092090166
 30
0.0
 10
73.88868541989589
 20
-143.1003092090166
 30
0.0
 10
74.57236461894372
 20
-142.5869899817144
 30
0.0
 10
74.57236461894372
 20
-142.5869899817144
 30
0.0
 10
74.57236461894372
 20
-142.5869899817144
 30
0.0
 10
75.12289087748664
 20
-143.1375162402573
 30
0.0
 10
75.12289087748664
 20
-143.1375162402573
 30
0.0
 10
75.12289087748664
 20
-143.1375162402573
 30
0.0
 10
74.98525931285091
 20
-143.2753200596673
 30
0.0
 10
74.98525931285091
 20
-143.2753200596673
 30
0.0
 10
74.98525931285091
 20
-143.2753200596673
 30
0.0
 10
74.5499714982896
 20
-142.8398599903317
 30
0.0
 10
74.5499714982896
 20
-142.8398599903317
 30
0.0
 10
74.5499714982896
 20
-142.8398599903317
 30
0.0
 10
74.20442842111903
 20
-143.092729998949
 30
0.0
 10
74.20442842111903
 20
-143.092729998949
 30
0.0
 10
74.27178003785566
 20
-143.1120225336664
 30
0.0
 10
74.3584241893097
 20
-143.1419948643881
 30
0.0
 10
74.44231226437553
 20
-143.2257106846797
 30
0.0
 10
74.62180173915705
 20
-143.4052001594612
 30
0.0
 10
74.65763073220366
 20
-143.7045789571294
 30
0.0
 10
74.43628334727634
 20
-143.9257540872825
 30
0.0
 10
74.21183537641232
 20
-144.1503743129207
 30
0.0
 10
73.88730738170179
 20
-144.1576090134398
 30
0.0
 10
73.67336695206777
 20
-143.9440130933543
 30
0.0
  0
HATCH
  5
E4
330
DF
100
AcDbEntity
  8
_U+30EC_U+30A4_U+30E4_U+30FC 1
 62
     7
420
 16777215
100
AcDbHatch
 10
0.0
 20
0.0
 30
0.0
210
0.0
220
0.0
230
1.0
  2
SOLID
 70
     1
 71
     0
 91
        1
 92
        1
 93
        1
 72
     4
 94
        3
 73
     0
 74
     1
 95
       53
 96
       49
 40
0.0
 40
0.0
 40
0.0
 40
0.0
 40
1.0
 40
1.0
 40
1.0
 40
2.0
 40
2.0
 40
2.0
 40
3.0
 40
3.0
 40
3.0
 40
4.0
 40
4.0
 40
4.0
 40
5.0
 40
5.0
 40
5.0
 40
6.0
 40
6.0
 40
6.0
 40
7.0
 40
7.0
 40
7.0
 40
8.0
 40
8.0
 40
8.0
 40
9.0
 40
9.0
 40
9.0
 40
10.0
 40
10.0
 40
10.0
 40
11.0
 40
11.0
 40
11.0
 40
12.0
 40
12.0
 40
12.0
 40
13.0
 40
13.0
 40
13.0
 40
14.0
 40
14.0
 40
14.0
 40
15.0
 40
15.0
 40
15.0
 40
16.0
 40
16.0
 40
16.0
 40
16.0
 10
73.67336695206777
 20
-143.9440130933543
 10
73.61807316952951
 20
-143.8885470560417
 10
73.55812850808617
 20
-143.8048312357502
 10
73.53125676330122
 20
-143.6880424988002
 10
73.4862982672187
 20
-143.4875379415587
 10
73.56415742518536
 20
-143.3800509624189
 10
73.62703041779116
 20
-143.2901339702539
 10
73.62703041779116
 20
-143.2901339702539
 10
73.78412677191855
 20
-143.4472303243813
 10
73.78412677191855
 20
-143.4472303243813
 10
73.68232420032942
 20
-143.6267197991628
 10
73.75105385526015
 20
-143.7373073642393
 10
73.81702743380269
 20
-143.8031086880076
 10
73.9157294194551
 20
-143.9019829284342
 10
74.09366860126825
 20
-143.9395344692234
 10
74.25817191068893
 20
-143.7748589050285
 10
74.43921167843881
 20
-143.5939913920529
 10
74.36152477524642
 20
-143.4172579936596
 10
74.27625866198649
 20
-143.3321641351739
 10
74.2536932865581
 20
-143.3097710145198
 10
74.15344100793733
 20
-143.209518735899
 10
73.99944523974666
 20
-143.2377685188781
 10
73.99944523974666
 20
-143.2377685188781
 10
73.88868541989589
 20
-143.1003092090166
 10
73.88868541989589
 20
-143.1003092090166
 10
73.88868541989589
 20
-143.1003092090166
 10
74.57236461894372
 20
-142.5869899817144
 10
74.57236461894372
 20
-142.5869899817144
 10
74.57236461894372
 20
-142.5869899817144
 10
75.12289087748664
 20
-143.1375162402573
 10
75.12289087748664
 20
-143.1375162402573
 10
75.12289087748664
 20
-143.1375162402573
 10
74.98525931285091
 20
-143.2753200596673
 10
74.98525931285091
 20
-143.2753200596673
 10
74.98525931285091
 20
-143.2753200596673
 10
74.5499714982896
 20
-142.8398599903317
 10
74.5499714982896
 20
-142.8398599903317
 10
74.5499714982896
 20
-142.8398599903317
 10
74.20442842111903
 20
-143.092729998949
 10
74.20442842111903
 20
-143.092729998949
 10
74.27178003785566
 20
-143.1120225336664
 10
74.3584241893097
 20
-143.1419948643881
 10
74.44231226437553
 20
-143.2257106846797
 10
74.62180173915705
 20
-143.4052001594612
 10
74.65763073220366
 20
-143.7045789571294
 10
74.43628334727634
 20
-143.9257540872825
 10
74.21183537641232
 20
-144.1503743129207
 10
73.88730738170179
 20
-144.1576090134398
 10
73.67336695206777
 20
-143.9440130933543
 97
        0
 97
        0
 75
     2
 76
     1
 98
        0
  0
ENDBLK
  5
E2
330
DF
100
AcDbEntity
  8
0
100
AcDbBlockEnd
  0
BLOCK
  5
F7
330
F5
100
AcDbEntity
  8
0
100
AcDbBlockBegin
  2
block 6
 70
     0
 10
0.0
 20
0.0
 30
0.0
  3
block 6
  1

  0
SPLINE
  5
F9
330
F5
100
AcDbEntity
  8
_U+30EC_U+30A4_U+30E4_U+30FC 1
370
     0
100
AcDbSpline
210
0.0
220
0.0
230
1.0
 70
    11
 71
     3
 72
    29
 73
    25
 74
     0
 42
0.0000000001
 43
0.0000000001
 12
1.0
 22
0.0
 32
0.0
 13
1.0
 23
0.0
 33
0.0
 40
0.0
 40
0.0
 40
0.0
 40
0.0
 40
1.0
 40
1.0
 40
1.0
 40
2.0
 40
2.0
 40
2.0
 40
3.0
 40
3.0
 40
3.0
 40
4.0
 40
4.0
 40
4.0
 40
5.0
 40
5.0
 40
5.0
 40
6.0
 40
6.0
 40
6.0
 40
7.0
 40
7.0
 40
7.0
 40
8.0
 40
8.0
 40
8.0
 40
8.0
 10
80.57165389695778
 20
-111.67707652373
 30
0.0
 10
80.46382240826946
 20
-111.8865383292332
 30
0.0
 10
80.29018959581288
 20
-111.9056586091764
 30
0.0
 10
80.17408987795996
 20
-111.9056586091764
 30
0.0
 10
80.01320391879878
 20
-111.9056586091764
 30
0.0
 10
79.87143823958075
 20
-111.8591498201255
 30
0.0
 10
79.77618134941359
 20
-111.67707652373
 30
0.0
 10
79.67265623008184
 20
-111.4826008835877
 30
0.0
 10
79.6535359501387
 20
-111.2455783142025
 30
0.0
 10
79.6535359501387
 20
-111.0826252977502
 30
0.0
 10
79.6535359501387
 20
-110.938792561241
 30
0.0
 10
79.67041691801643
 20
-110.6871283360435
 30
0.0
 10
79.77618134941359
 20
-110.4881740717703
 30
0.0
 10
79.88418509287618
 20
-110.2850856929148
 30
0.0
 10
80.04489879726309
 20
-110.2618312983894
 30
0.0
 10
80.17408987795996
 20
-110.2618312983894
 30
0.0
 10
80.33256427028145
 20
-110.2618312983894
 30
0.0
 10
80.47656926156489
 20
-110.3062730301491
 30
0.0
 10
80.57165389695778
 20
-110.4881740717703
 30
0.0
 10
80.6712171564815
 20
-110.6807549093958
 30
0.0
 10
80.69429929623269
 20
-110.9091647400679
 30
0.0
 10
80.69429929623269
 20
-111.0826252977502
 30
0.0
 10
80.69429929623269
 20
-111.2540187981414
 30
0.0
 10
80.67328421377266
 20
-111.4846679408788
 30
0.0
 10
80.57165389695778
 20
-111.67707652373
 30
0.0
  0
SPLINE
  5
FA
330
F5
100
AcDbEntity
  8
_U+30EC_U+30A4_U+30E4_U+30FC 1
370
     0
100
AcDbSpline
210
0.0
220
0.0
230
1.0
 70
    11
 71
     3
 72
    17
 73
    13
 74
     0
 42
0.0000000001
 43
0.0000000001
 12
1.0
 22
0.0
 32
0.0
 13
1.0
 23
0.0
 33
0.0
 40
0.0
 40
0.0
 40
0.0
 40
0.0
 40
1.0
 40
1.0
 40
1.0
 40
2.0
 40
2.0
 40
2.0
 40
3.0
 40
3.0
 40
3.0
 40
4.0
 40
4.0
 40
4.0
 40
4.0
 10
80.17408987795996
 20
-110.4544121360149
 30
0.0
 10
79.92432045527934
 20
-110.4544121360149
 30
0.0
 10
79.87781166622847
 20
-110.7377712396767
 30
0.0
 10
79.87781166622847
 20
-111.0826252977502
 30
0.0
 10
79.87781166622847
 20
-111.4021579040071
 30
0.0
 10
79.91381291404933
 20
-111.7110107142598
 30
0.0
 10
80.17408987795996
 20
-111.7110107142598
 30
0.0
 10
80.42144773380089
 20
-111.7110107142598
 30
0.0
 10
80.47002358014291
 20
-111.4295464131148
 30
0.0
 10
80.47002358014291
 20
-111.0826252977502
 30
0.0
 10
80.47002358014291
 20
-110.7632649462675
 30
0.0
 10
80.43212752980517
 20
-110.4544121360149
 30
0.0
 10
80.17408987795996
 20
-110.4544121360149
 30
0.0
  0
HATCH
  5
FB
330
F5
100
AcDbEntity
  8
_U+30EC_U+30A4_U+30E4_U+30FC 1
 62
     7
420
 16777215
100
AcDbHatch
 10
0.0
 20
0.0
 30
0.0
210
0.0
220
0.0
230
1.0
  2
SOLID
 70
     1
 71
     0
 91
        2
 92
        1
 93
        1
 72
     4
 94
        3
 73
     0
 74
     1
 95
       29
 96
       25
 40
0.0
 40
0.0
 40
0.0
 40
0.0
 40
1.0
 40
1.0
 40
1.0
 40
2.0
 40
2.0
 40
2.0
 40
3.0
 40
3.0
 40
3.0
 40
4.0
 40
4.0
 40
4.0
 40
5.0
 40
5.0
 40
5.0
 40
6.0
 40
6.0
 40
6.0
 40
7.0
 40
7.0
 40
7.0
 40
8.0
 40
8.0
 40
8.0
 40
8.0
 10
80.57165389695778
 20
-111.67707652373
 10
80.46382240826946
 20
-111.8865383292332
 10
80.29018959581288
 20
-111.9056586091764
 10
80.17408987795996
 20
-111.9056586091764
 10
80.01320391879878
 20
-111.9056586091764
 10
79.87143823958075
 20
-111.8591498201255
 10
79.77618134941359
 20
-111.67707652373
 10
79.67265623008184
 20
-111.4826008835877
 10
79.6535359501387
 20
-111.2455783142025
 10
79.6535359501387
 20
-111.0826252977502
 10
79.6535359501387
 20
-110.938792561241
 10
79.67041691801643
 20
-110.6871283360435
 10
79.77618134941359
 20
-110.4881740717703
 10
79.88418509287618
 20
-110.2850856929148
 10
80.04489879726309
 20
-110.2618312983894
 10
80.17408987795996
 20
-110.2618312983894
 10
80.33256427028145
 20
-110.2618312983894
 10
80.47656926156489
 20
-110.3062730301491
 10
80.57165389695778
 20
-110.4881740717703
 10
80.6712171564815
 20
-110.6807549093958
 10
80.69429929623269
 20
-110.9091647400679
 10
80.69429929623269
 20
-111.0826252977502
 10
80.69429929623269
 20
-111.2540187981414
 10
80.67328421377266
 20
-111.4846679408788
 10
80.57165389695778
 20
-111.67707652373
 97
        0
 97
        0
 92
        1
 93
        1
 72
     4
 94
        3
 73
     0
 74
     1
 95
       17
 96
       13
 40
0.0
 40
0.0
 40
0.0
 40
0.0
 40
1.0
 40
1.0
 40
1.0
 40
2.0
 40
2.0
 40
2.0
 40
3.0
 40
3.0
 40
3.0
 40
4.0
 40
4.0
 40
4.0
 40
4.0
 10
80.17408987795996
 20
-110.4544121360149
 10
79.92432045527934
 20
-110.4544121360149
 10
79.87781166622847
 20
-110.7377712396767
 10
79.87781166622847
 20
-111.0826252977502
 10
79.87781166622847
 20
-111.4021579040071
 10
79.91381291404933
 20
-111.7110107142598
 10
80.17408987795996
 20
-111.7110107142598
 10
80.42144773380089
 20
-111.7110107142598
 10
80.47002358014291
 20
-111.4295464131148
 10
80.47002358014291
 20
-111.0826252977502
 10
80.47002358014291
 20
-110.7632649462675
 10
80.43212752980517
 20
-110.4544121360149
 10
80.17408987795996
 20
-110.4544121360149
 97
        0
 97
        0
 75
     2
 76
     1
 98
        0
  0
POLYLINE
  5
FC
330
F5
100
AcDbEntity
  8
_U+30EC_U+30A4_U+30E4_U+30FC 1
370
     0
100
AcDb2dPolyline
 66
     1
 10
0.0
 20
0.0
 30
0.0
  0
VERTEX
  5
FD
330
FC
100
AcDbEntity
  8
_U+30EC_U+30A4_U+30E4_U+30FC 1
370
     0
100
AcDbVertex
100
AcDb2dVertex
 10
80.91099580225489
 20
-111.8548434507689
 30
0.0
  0
VERTEX
  5
FE
330
FC
100
AcDbEntity
  8
_U+30EC_U+30A4_U+30E4_U+30FC 1
370
     0
100
AcDbVertex
100
AcDb2dVertex
 10
80.91099580225489
 20
-111.6031792255714
 30
0.0
  0
VERTEX
  5
FF
330
FC
100
AcDbEntity
  8
_U+30EC_U+30A4_U+30E4_U+30FC 1
370
     0
100
AcDbVertex
100
AcDb2dVertex
 10
81.16283228222666
 20
-111.6031792255714
 30
0.0
  0
VERTEX
  5
100
330
FC
100
AcDbEntity
  8
_U+30EC_U+30A4_U+30E4_U+30FC 1
370
     0
100
AcDbVertex
100
AcDb2dVertex
 10
81.16283228222666
 20
-111.8548434507689
 30
0.0
  0
VERTEX
  5
101
330
FC
100
AcDbEntity
  8
_U+30EC_U+30A4_U+30E4_U+30FC 1
370
     0
100
AcDbVertex
100
AcDb2dVertex
 10
80.91099580225489
 20
-111.8548434507689
 30
0.0
  0
SEQEND
  5
102
330
FC
100
AcDbEntity
  8
_U+30EC_U+30A4_U+30E4_U+30FC 1
370
     0
  0
HATCH
  5
103
330
F5
100
AcDbEntity
  8
_U+30EC_U+30A4_U+30E4_U+30FC 1
 62
     7
420
 16777215
100
AcDbHatch
 10
0.0
 20
0.0
 30
0.0
210
0.0
220
0.0
230
1.0
  2
SOLID
 70
     1
 71
     0
 91
        1
 92
        1
 93
        4
 72
     1
 10
80.91099580225489
 20
-111.8548434507689
 11
80.91099580225489
 21
-111.6031792255714
 72
     1
 10
80.91099580225489
 20
-111.6031792255714
 11
81.16283228222666
 21
-111.6031792255714
 72
     1
 10
81.16283228222666
 20
-111.6031792255714
 11
81.16283228222666
 21
-111.8548434507689
 72
     1
 10
81.16283228222666
 20
-111.8548434507689
 11
80.91099580225489
 21
-111.8548434507689
 97
        0
 75
     2
 76
     1
 98
        0
  0
SPLINE
  5
104
330
F5
100
AcDbEntity
  8
_U+30EC_U+30A4_U+30E4_U+30FC 1
370
     0
100
AcDbSpline
210
0.0
220
0.0
230
1.0
 70
    11
 71
     3
 72
    29
 73
    25
 74
     0
 42
0.0000000001
 43
0.0000000001
 12
1.0
 22
0.0
 32
0.0
 13
1.0
 23
0.0
 33
0.0
 40
0.0
 40
0.0
 40
0.0
 40
0.0
 40
1.0
 40
1.0
 40
1.0
 40
2.0
 40
2.0
 40
2.0
 40
3.0
 40
3.0
 40
3.0
 40
4.0
 40
4.0
 40
4.0
 40
5.0
 40
5.0
 40
5.0
 40
6.0
 40
6.0
 40
6.0
 40
7.0
 40
7.0
 40
7.0
 40
8.0
 40
8.0
 40
8.0
 40
8.0
 10
81.89904918742455
 20
-111.9056586091764
 30
0.0
 10
81.63239879686621
 20
-111.9056586091764
 30
0.0
 10
81.37883976915182
 20
-111.7680270445406
 30
0.0
 10
81.37883976915182
 20
-111.4190388718848
 30
0.0
 10
81.37883976915182
 20
-111.1630682773308
 30
0.0
 10
81.5204331935956
 20
-111.0678113871636
 30
0.0
 10
81.62619762499276
 20
-111.0064886875262
 30
0.0
 10
81.50148516842671
 20
-110.9472330451799
 30
0.0
 10
81.4253485582027
 20
-110.8330281298438
 30
0.0
 10
81.4253485582027
 20
-110.6723144254569
 30
0.0
 10
81.4253485582027
 20
-110.3972235509597
 30
0.0
 10
81.62413056770161
 20
-110.2618312983894
 30
0.0
 10
81.89904918742455
 20
-110.2618312983894
 30
0.0
 10
82.1825805458606
 20
-110.2618312983894
 30
0.0
 10
82.37309432619493
 20
-110.4056640348986
 30
0.0
 10
82.37309432619493
 20
-110.6723144254569
 30
0.0
 10
82.37309432619493
 20
-110.8330281298438
 30
0.0
 10
82.29454614913122
 20
-110.9472330451799
 30
0.0
 10
82.16983369256518
 20
-111.0064886875262
 30
0.0
 10
82.25871715608463
 20
-111.0573038459336
 30
0.0
 10
82.41753605795465
 20
-111.1525607361008
 30
0.0
 10
82.41753605795465
 20
-111.4147325025283
 30
0.0
 10
82.41753605795465
 20
-111.7892143817749
 30
0.0
 10
82.13813881410088
 20
-111.9056586091764
 30
0.0
 10
81.89904918742455
 20
-111.9056586091764
 30
0.0
  0
SPLINE
  5
105
330
F5
100
AcDbEntity
  8
_U+30EC_U+30A4_U+30E4_U+30FC 1
370
     0
100
AcDbSpline
210
0.0
220
0.0
230
1.0
 70
    11
 71
     3
 72
    17
 73
    13
 74
     0
 42
0.0000000001
 43
0.0000000001
 12
1.0
 22
0.0
 32
0.0
 13
1.0
 23
0.0
 33
0.0
 40
0.0
 40
0.0
 40
0.0
 40
0.0
 40
1.0
 40
1.0
 40
1.0
 40
2.0
 40
2.0
 40
2.0
 40
3.0
 40
3.0
 40
3.0
 40
4.0
 40
4.0
 40
4.0
 40
4.0
 10
81.89904918742455
 20
-111.1144924309887
 30
0.0
 10
81.75538870568963
 20
-111.1144924309887
 30
0.0
 10
81.60277097569306
 20
-111.2011365824428
 30
0.0
 10
81.60277097569306
 20
-111.4042249612983
 30
0.0
 10
81.60277097569306
 20
-111.6093803974449
 30
0.0
 10
81.72989499909878
 20
-111.7110107142598
 30
0.0
 10
81.89904918742455
 20
-111.7110107142598
 30
0.0
 10
82.08508434362804
 20
-111.7110107142598
 30
0.0
 10
82.19532739915603
 20
-111.5883653149849
 30
0.0
 10
82.19532739915603
 20
-111.410598387946
 30
0.0
 10
82.19532739915603
 20
-111.1883897291473
 30
0.0
 10
82.03237438270372
 20
-111.1144924309887
 30
0.0
 10
81.89904918742455
 20
-111.1144924309887
 30
0.0
  0
SPLINE
  5
106
330
F5
100
AcDbEntity
  8
_U+30EC_U+30A4_U+30E4_U+30FC 1
370
     0
100
AcDbSpline
210
0.0
220
0.0
230
1.0
 70
    11
 71
     3
 72
    17
 73
    13
 74
     0
 42
0.0000000001
 43
0.0000000001
 12
1.0
 22
0.0
 32
0.0
 13
1.0
 23
0.0
 33
0.0
 40
0.0
 40
0.0
 40
0.0
 40
0.0
 40
1.0
 40
1.0
 40
1.0
 40
2.0
 40
2.0
 40
2.0
 40
3.0
 40
3.0
 40
3.0
 40
4.0
 40
4.0
 40
4.0
 40
4.0
 10
81.89904918742455
 20
-110.4544121360149
 30
0.0
 10
81.73402911368107
 20
-110.4544121360149
 30
0.0
 10
81.64962427429246
 20
-110.5494967714078
 30
0.0
 10
81.64962427429246
 20
-110.6848890239781
 30
0.0
 10
81.64962427429246
 20
-110.8077066780272
 30
0.0
 10
81.72128226038565
 20
-110.9262179627198
 30
0.0
 10
81.89904918742455
 20
-110.9262179627198
 30
0.0
 10
82.07681611446344
 20
-110.9262179627198
 30
0.0
 10
82.14881861010517
 20
-110.8077066780272
 30
0.0
 10
82.14881861010517
 20
-110.6848890239781
 30
0.0
 10
82.14881861010517
 20
-110.5494967714078
 30
0.0
 10
82.06200220387686
 20
-110.4544121360149
 30
0.0
 10
81.89904918742455
 20
-110.4544121360149
 30
0.0
  0
HATCH
  5
107
330
F5
100
AcDbEntity
  8
_U+30EC_U+30A4_U+30E4_U+30FC 1
 62
     7
420
 16777215
100
AcDbHatch
 10
0.0
 20
0.0
 30
0.0
210
0.0
220
0.0
230
1.0
  2
SOLID
 70
     1
 71
     0
 91
        3
 92
        1
 93
        1
 72
     4
 94
        3
 73
     0
 74
     1
 95
       29
 96
       25
 40
0.0
 40
0.0
 40
0.0
 40
0.0
 40
1.0
 40
1.0
 40
1.0
 40
2.0
 40
2.0
 40
2.0
 40
3.0
 40
3.0
 40
3.0
 40
4.0
 40
4.0
 40
4.0
 40
5.0
 40
5.0
 40
5.0
 40
6.0
 40
6.0
 40
6.0
 40
7.0
 40
7.0
 40
7.0
 40
8.0
 40
8.0
 40
8.0
 40
8.0
 10
81.89904918742455
 20
-111.9056586091764
 10
81.63239879686621
 20
-111.9056586091764
 10
81.37883976915182
 20
-111.7680270445406
 10
81.37883976915182
 20
-111.4190388718848
 10
81.37883976915182
 20
-111.1630682773308
 10
81.5204331935956
 20
-111.0678113871636
 10
81.62619762499276
 20
-111.0064886875262
 10
81.50148516842671
 20
-110.9472330451799
 10
81.4253485582027
 20
-110.8330281298438
 10
81.4253485582027
 20
-110.6723144254569
 10
81.4253485582027
 20
-110.3972235509597
 10
81.62413056770161
 20
-110.2618312983894
 10
81.89904918742455
 20
-110.2618312983894
 10
82.1825805458606
 20
-110.2618312983894
 10
82.37309432619493
 20
-110.4056640348986
 10
82.37309432619493
 20
-110.6723144254569
 10
82.37309432619493
 20
-110.8330281298438
 10
82.29454614913122
 20
-110.9472330451799
 10
82.16983369256518
 20
-111.0064886875262
 10
82.25871715608463
 20
-111.0573038459336
 10
82.41753605795465
 20
-111.1525607361008
 10
82.41753605795465
 20
-111.4147325025283
 10
82.41753605795465
 20
-111.7892143817749
 10
82.13813881410088
 20
-111.9056586091764
 10
81.89904918742455
 20
-111.9056586091764
 97
        0
 97
        0
 92
        1
 93
        1
 72
     4
 94
        3
 73
     0
 74
     1
 95
       17
 96
       13
 40
0.0
 40
0.0
 40
0.0
 40
0.0
 40
1.0
 40
1.0
 40
1.0
 40
2.0
 40
2.0
 40
2.0
 40
3.0
 40
3.0
 40
3.0
 40
4.0
 40
4.0
 40
4.0
 40
4.0
 10
81.89904918742455
 20
-111.1144924309887
 10
81.75538870568963
 20
-111.1144924309887
 10
81.60277097569306
 20
-111.2011365824428
 10
81.60277097569306
 20
-111.4042249612983
 10
81.60277097569306
 20
-111.6093803974449
 10
81.72989499909878
 20
-111.7110107142598
 10
81.89904918742455
 20
-111.7110107142598
 10
82.08508434362804
 20
-111.7110107142598
 10
82.19532739915603
 20
-111.5883653149849
 10
82.19532739915603
 20
-111.410598387946
 10
82.19532739915603
 20
-111.1883897291473
 10
82.03237438270372
 20
-111.1144924309887
 10
81.89904918742455
 20
-111.1144924309887
 97
        0
 97
        0
 92
        1
 93
        1
 72
     4
 94
        3
 73
     0
 74
     1
 95
       17
 96
       13
 40
0.0
 40
0.0
 40
0.0
 40
0.0
 40
1.0
 40
1.0
 40
1.0
 40
2.0
 40
2.0
 40
2.0
 40
3.0
 40
3.0
 40
3.0
 40
4.0
 40
4.0
 40
4.0
 40
4.0
 10
81.89904918742455
 20
-110.4544121360149
 10
81.73402911368107
 20
-110.4544121360149
 10
81.64962427429246
 20
-110.5494967714078
 10
81.64962427429246
 20
-110.6848890239781
 10
81.64962427429246
 20
-110.8077066780272
 10
81.72128226038565
 20
-110.9262179627198
 10
81.89904918742455
 20
-110.9262179627198
 10
82.07681611446344
 20
-110.9262179627198
 10
82.14881861010517
 20
-110.8077066780272
 10
82.14881861010517
 20
-110.6848890239781
 10
82.14881861010517
 20
-110.5494967714078
 10
82.06200220387686
 20
-110.4544121360149
 10
81.89904918742455
 20
-110.4544121360149
 97
        0
 97
        0
 75
     2
 76
     1
 98
        0
  0
ENDBLK
  5
F8
330
F5
100
AcDbEntity
  8
0
100
AcDbBlockEnd
  0
BLOCK
  5
116
330
114
100
AcDbEntity
  8
0
100
AcDbBlockBegin
  2
block 7
 70
     0
 10
0.0
 20
0.0
 30
0.0
  3
block 7
  1

  0
SPLINE
  5
118
330
114
100
AcDbEntity
  8
_U+30EC_U+30A4_U+30E4_U+30FC 1
370
     0
100
AcDbSpline
210
0.0
220
0.0
230
1.0
 70
    11
 71
     3
 72
    44
 73
    40
 74
     0
 42
0.0000000001
 43
0.0000000001
 12
1.0
 22
0.0
 32
0.0
 13
1.0
 23
0.0
 33
0.0
 40
0.0
 40
0.0
 40
0.0
 40
0.0
 40
1.0
 40
1.0
 40
1.0
 40
2.0
 40
2.0
 40
2.0
 40
3.0
 40
3.0
 40
3.0
 40
4.0
 40
4.0
 40
4.0
 40
5.0
 40
5.0
 40
5.0
 40
6.0
 40
6.0
 40
6.0
 40
7.0
 40
7.0
 40
7.0
 40
8.0
 40
8.0
 40
8.0
 40
9.0
 40
9.0
 40
9.0
 40
10.0
 40
10.0
 40
10.0
 40
11.0
 40
11.0
 40
11.0
 40
12.0
 40
12.0
 40
12.0
 40
13.0
 40
13.0
 40
13.0
 40
13.0
 10
91.11743568685606
 20
-143.2735975119247
 30
0.0
 10
90.89970565218827
 20
-143.4324164137947
 30
0.0
 10
90.80668807408652
 20
-143.5064859667276
 30
0.0
 10
90.75776771819598
 20
-143.6501464484625
 30
0.0
 10
90.75776771819598
 20
-143.6501464484625
 30
0.0
 10
91.5365315526367
 20
-143.6501464484625
 30
0.0
 10
91.5365315526367
 20
-143.6501464484625
 30
0.0
 10
91.5365315526367
 20
-143.6501464484625
 30
0.0
 10
91.5365315526367
 20
-143.8554741393833
 30
0.0
 10
91.5365315526367
 20
-143.8554741393833
 30
0.0
 10
91.5365315526367
 20
-143.8554741393833
 30
0.0
 10
90.50834280506389
 20
-143.8554741393833
 30
0.0
 10
90.50834280506389
 20
-143.8554741393833
 30
0.0
 10
90.54003768352818
 20
-143.4978732280144
 30
0.0
 10
90.60549449774794
 20
-143.4196695604992
 30
0.0
 10
90.99065617299887
 20
-143.1213242914766
 30
0.0
 10
91.24662676755293
 20
-142.9225422819777
 30
0.0
 10
91.31208358177268
 20
-142.8546739009183
 30
0.0
 10
91.31208358177268
 20
-142.7172145910568
 30
0.0
 10
91.31208358177268
 20
-142.5987033063642
 30
0.0
 10
91.24008108613096
 20
-142.4677896779247
 30
0.0
 10
91.04336613392319
 20
-142.4677896779247
 30
0.0
 10
90.78326142478683
 20
-142.4677896779247
 30
0.0
 10
90.77499319562223
 20
-142.6982665658879
 30
0.0
 10
90.7705145714914
 20
-142.8147107932894
 30
0.0
 10
90.7705145714914
 20
-142.8147107932894
 30
0.0
 10
90.54623885540164
 20
-142.8147107932894
 30
0.0
 10
90.54623885540164
 20
-142.8147107932894
 30
0.0
 10
90.55485159411477
 20
-142.6875867698837
 30
0.0
 10
90.56553139011903
 20
-142.575621166613
 30
0.0
 10
90.64580211492536
 20
-142.4571098819204
 30
0.0
 10
90.75570066090484
 20
-142.2962239227593
 30
0.0
 10
90.94208032665685
 20
-142.2624619870038
 30
0.0
 10
91.05818004450977
 20
-142.2624619870038
 30
0.0
 10
91.33551023107238
 20
-142.2624619870038
 30
0.0
 10
91.54307723405869
 20
-142.4464300859162
 30
0.0
 10
91.54307723405869
 20
-142.719281648348
 30
0.0
 10
91.54307723405869
 20
-142.9480359885686
 30
0.0
 10
91.42663300665724
 20
-143.0472547385438
 30
0.0
 10
91.11743568685606
 20
-143.2735975119247
 30
0.0
  0
HATCH
  5
119
330
114
100
AcDbEntity
  8
_U+30EC_U+30A4_U+30E4_U+30FC 1
 62
     7
420
 16777215
100
AcDbHatch
 10
0.0
 20
0.0
 30
0.0
210
0.0
220
0.0
230
1.0
  2
SOLID
 70
     1
 71
     0
 91
        1
 92
        1
 93
        1
 72
     4
 94
        3
 73
     0
 74
     1
 95
       44
 96
       40
 40
0.0
 40
0.0
 40
0.0
 40
0.0
 40
1.0
 40
1.0
 40
1.0
 40
2.0
 40
2.0
 40
2.0
 40
3.0
 40
3.0
 40
3.0
 40
4.0
 40
4.0
 40
4.0
 40
5.0
 40
5.0
 40
5.0
 40
6.0
 40
6.0
 40
6.0
 40
7.0
 40
7.0
 40
7.0
 40
8.0
 40
8.0
 40
8.0
 40
9.0
 40
9.0
 40
9.0
 40
10.0
 40
10.0
 40
10.0
 40
11.0
 40
11.0
 40
11.0
 40
12.0
 40
12.0
 40
12.0
 40
13.0
 40
13.0
 40
13.0
 40
13.0
 10
91.11743568685606
 20
-143.2735975119247
 10
90.89970565218827
 20
-143.4324164137947
 10
90.80668807408652
 20
-143.5064859667276
 10
90.75776771819598
 20
-143.6501464484625
 10
90.75776771819598
 20
-143.6501464484625
 10
91.5365315526367
 20
-143.6501464484625
 10
91.5365315526367
 20
-143.6501464484625
 10
91.5365315526367
 20
-143.6501464484625
 10
91.5365315526367
 20
-143.8554741393833
 10
91.5365315526367
 20
-143.8554741393833
 10
91.5365315526367
 20
-143.8554741393833
 10
90.50834280506389
 20
-143.8554741393833
 10
90.50834280506389
 20
-143.8554741393833
 10
90.54003768352818
 20
-143.4978732280144
 10
90.60549449774794
 20
-143.4196695604992
 10
90.99065617299887
 20
-143.1213242914766
 10
91.24662676755293
 20
-142.9225422819777
 10
91.31208358177268
 20
-142.8546739009183
 10
91.31208358177268
 20
-142.7172145910568
 10
91.31208358177268
 20
-142.5987033063642
 10
91.24008108613096
 20
-142.4677896779247
 10
91.04336613392319
 20
-142.4677896779247
 10
90.78326142478683
 20
-142.4677896779247
 10
90.77499319562223
 20
-142.6982665658879
 10
90.7705145714914
 20
-142.8147107932894
 10
90.7705145714914
 20
-142.8147107932894
 10
90.54623885540164
 20
-142.8147107932894
 10
90.54623885540164
 20
-142.8147107932894
 10
90.55485159411477
 20
-142.6875867698837
 10
90.56553139011903
 20
-142.575621166613
 10
90.64580211492536
 20
-142.4571098819204
 10
90.75570066090484
 20
-142.2962239227593
 10
90.94208032665685
 20
-142.2624619870038
 10
91.05818004450977
 20
-142.2624619870038
 10
91.33551023107238
 20
-142.2624619870038
 10
91.54307723405869
 20
-142.4464300859162
 10
91.54307723405869
 20
-142.719281648348
 10
91.54307723405869
 20
-142.9480359885686
 10
91.42663300665724
 20
-143.0472547385438
 10
91.11743568685606
 20
-143.2735975119247
 97
        0
 97
        0
 75
     2
 76
     1
 98
        0
  0
SPLINE
  5
11A
330
114
100
AcDbEntity
  8
_U+30EC_U+30A4_U+30E4_U+30FC 1
370
     0
100
AcDbSpline
210
0.0
220
0.0
230
1.0
 70
    11
 71
     3
 72
    32
 73
    28
 74
     0
 42
0.0000000001
 43
0.0000000001
 12
1.0
 22
0.0
 32
0.0
 13
1.0
 23
0.0
 33
0.0
 40
0.0
 40
0.0
 40
0.0
 40
0.0
 40
1.0
 40
1.0
 40
1.0
 40
2.0
 40
2.0
 40
2.0
 40
3.0
 40
3.0
 40
3.0
 40
4.0
 40
4.0
 40
4.0
 40
5.0
 40
5.0
 40
5.0
 40
6.0
 40
6.0
 40
6.0
 40
7.0
 40
7.0
 40
7.0
 40
8.0
 40
8.0
 40
8.0
 40
9.0
 40
9.0
 40
9.0
 40
9.0
 10
92.15906030682135
 20
-143.9061170430165
 30
0.0
 10
91.98577200391328
 20
-143.9061170430165
 30
0.0
 10
91.74013669581497
 20
-143.8365261142145
 30
0.0
 10
91.70224064547722
 20
-143.5044189094364
 30
0.0
 10
91.70224064547722
 20
-143.5044189094364
 30
0.0
 10
91.91583656556271
 20
-143.5044189094364
 30
0.0
 10
91.91583656556271
 20
-143.5044189094364
 30
0.0
 10
91.92651636156698
 20
-143.5636745517827
 30
0.0
 10
91.95821124003129
 20
-143.7114691480999
 30
0.0
 10
92.1611273641125
 20
-143.7114691480999
 30
0.0
 10
92.45327146126169
 20
-143.7114691480999
 30
0.0
 10
92.49116751159943
 20
-143.381429000613
 30
0.0
 10
92.50391436489485
 20
-143.1764458192406
 30
0.0
 10
92.41296384408426
 20
-143.256716544047
 30
0.0
 10
92.34543997257336
 20
-143.3139051291021
 30
0.0
 10
92.16353893095217
 20
-143.3139051291021
 30
0.0
 10
91.98370494662214
 20
-143.3139051291021
 30
0.0
 10
91.6812255630172
 20
-143.2081406977049
 30
0.0
 10
91.6812255630172
 20
-142.801963939994
 30
0.0
 10
91.6812255630172
 20
-142.4826035885113
 30
0.0
 10
91.8800075725161
 20
-142.2624619870038
 30
0.0
 10
92.19730086670762
 20
-142.2624619870038
 30
0.0
 10
92.71130911310689
 20
-142.2624619870038
 30
0.0
 10
92.72198890911118
 20
-142.8167778505805
 30
0.0
 10
92.72198890911118
 20
-143.030373770666
 30
0.0
 10
92.72198890911118
 20
-143.2608506586292
 30
0.0
 10
92.70269637439378
 20
-143.9061170430165
 30
0.0
 10
92.15906030682135
 20
-143.9061170430165
 30
0.0
  0
SPLINE
  5
11B
330
114
100
AcDbEntity
  8
_U+30EC_U+30A4_U+30E4_U+30FC 1
370
     0
100
AcDbSpline
210
0.0
220
0.0
230
1.0
 70
    11
 71
     3
 72
    17
 73
    13
 74
     0
 42
0.0000000001
 43
0.0000000001
 12
1.0
 22
0.0
 32
0.0
 13
1.0
 23
0.0
 33
0.0
 40
0.0
 40
0.0
 40
0.0
 40
0.0
 40
1.0
 40
1.0
 40
1.0
 40
2.0
 40
2.0
 40
2.0
 40
3.0
 40
3.0
 40
3.0
 40
4.0
 40
4.0
 40
4.0
 40
4.0
 10
92.19936792399878
 20
-142.4550428246293
 30
0.0
 10
92.08085663930618
 20
-142.4550428246293
 30
0.0
 10
91.90515676955843
 20
-142.5122314096845
 30
0.0
 10
91.90515676955843
 20
-142.7978298254117
 30
0.0
 10
91.90515676955843
 20
-143.0241725987926
 30
0.0
 10
92.04502764625958
 20
-143.1192572341855
 30
0.0
 10
92.1804198988299
 20
-143.1192572341855
 30
0.0
 10
92.44259166525741
 20
-143.1192572341855
 30
0.0
 10
92.48083222514369
 20
-142.9097954286823
 30
0.0
 10
92.48083222514369
 20
-142.7933512012808
 30
0.0
 10
92.48083222514369
 20
-142.6179958410816
 30
0.0
 10
92.38540308020227
 20
-142.4550428246293
 30
0.0
 10
92.19936792399878
 20
-142.4550428246293
 30
0.0
  0
HATCH
  5
11C
330
114
100
AcDbEntity
  8
_U+30EC_U+30A4_U+30E4_U+30FC 1
 62
     7
420
 16777215
100
AcDbHatch
 10
0.0
 20
0.0
 30
0.0
210
0.0
220
0.0
230
1.0
  2
SOLID
 70
     1
 71
     0
 91
        2
 92
        1
 93
        1
 72
     4
 94
        3
 73
     0
 74
     1
 95
       32
 96
       28
 40
0.0
 40
0.0
 40
0.0
 40
0.0
 40
1.0
 40
1.0
 40
1.0
 40
2.0
 40
2.0
 40
2.0
 40
3.0
 40
3.0
 40
3.0
 40
4.0
 40
4.0
 40
4.0
 40
5.0
 40
5.0
 40
5.0
 40
6.0
 40
6.0
 40
6.0
 40
7.0
 40
7.0
 40
7.0
 40
8.0
 40
8.0
 40
8.0
 40
9.0
 40
9.0
 40
9.0
 40
9.0
 10
92.15906030682135
 20
-143.9061170430165
 10
91.98577200391328
 20
-143.9061170430165
 10
91.74013669581497
 20
-143.8365261142145
 10
91.70224064547722
 20
-143.5044189094364
 10
91.70224064547722
 20
-143.5044189094364
 10
91.91583656556271
 20
-143.5044189094364
 10
91.91583656556271
 20
-143.5044189094364
 10
91.92651636156698
 20
-143.5636745517827
 10
91.95821124003129
 20
-143.7114691480999
 10
92.1611273641125
 20
-143.7114691480999
 10
92.45327146126169
 20
-143.7114691480999
 10
92.49116751159943
 20
-143.381429000613
 10
92.50391436489485
 20
-143.1764458192406
 10
92.41296384408426
 20
-143.256716544047
 10
92.34543997257336
 20
-143.3139051291021
 10
92.16353893095217
 20
-143.3139051291021
 10
91.98370494662214
 20
-143.3139051291021
 10
91.6812255630172
 20
-143.2081406977049
 10
91.6812255630172
 20
-142.801963939994
 10
91.6812255630172
 20
-142.4826035885113
 10
91.8800075725161
 20
-142.2624619870038
 10
92.19730086670762
 20
-142.2624619870038
 10
92.71130911310689
 20
-142.2624619870038
 10
92.72198890911118
 20
-142.8167778505805
 10
92.72198890911118
 20
-143.030373770666
 10
92.72198890911118
 20
-143.2608506586292
 10
92.70269637439378
 20
-143.9061170430165
 10
92.15906030682135
 20
-143.9061170430165
 97
        0
 97
        0
 92
        1
 93
        1
 72
     4
 94
        3
 73
     0
 74
     1
 95
       17
 96
       13
 40
0.0
 40
0.0
 40
0.0
 40
0.0
 40
1.0
 40
1.0
 40
1.0
 40
2.0
 40
2.0
 40
2.0
 40
3.0
 40
3.0
 40
3.0
 40
4.0
 40
4.0
 40
4.0
 40
4.0
 10
92.19936792399878
 20
-142.4550428246293
 10
92.08085663930618
 20
-142.4550428246293
 10
91.90515676955843
 20
-142.5122314096845
 10
91.90515676955843
 20
-142.7978298254117
 10
91.90515676955843
 20
-143.0241725987926
 10
92.04502764625958
 20
-143.1192572341855
 10
92.1804198988299
 20
-143.1192572341855
 10
92.44259166525741
 20
-143.1192572341855
 10
92.48083222514369
 20
-142.9097954286823
 10
92.48083222514369
 20
-142.7933512012808
 10
92.48083222514369
 20
-142.6179958410816
 10
92.38540308020227
 20
-142.4550428246293
 10
92.19936792399878
 20
-142.4550428246293
 97
        0
 97
        0
 75
     2
 76
     1
 98
        0
  0
ENDBLK
  5
117
330
114
100
AcDbEntity
  8
0
100
AcDbBlockEnd
  0
BLOCK
  5
12B
330
129
100
AcDbEntity
  8
0
100
AcDbBlockBegin
  2
block 8
 70
     0
 10
0.0
 20
0.0
 30
0.0
  3
block 8
  1

  0
SPLINE
  5
12D
330
129
100
AcDbEntity
  8
_U+30EC_U+30A4_U+30E4_U+30FC 1
370
     0
100
AcDbSpline
210
0.0
220
0.0
230
1.0
 70
    11
 71
     3
 72
    44
 73
    40
 74
     0
 42
0.0000000001
 43
0.0000000001
 12
1.0
 22
0.0
 32
0.0
 13
1.0
 23
0.0
 33
0.0
 40
0.0
 40
0.0
 40
0.0
 40
0.0
 40
1.0
 40
1.0
 40
1.0
 40
2.0
 40
2.0
 40
2.0
 40
3.0
 40
3.0
 40
3.0
 40
4.0
 40
4.0
 40
4.0
 40
5.0
 40
5.0
 40
5.0
 40
6.0
 40
6.0
 40
6.0
 40
7.0
 40
7.0
 40
7.0
 40
8.0
 40
8.0
 40
8.0
 40
9.0
 40
9.0
 40
9.0
 40
10.0
 40
10.0
 40
10.0
 40
11.0
 40
11.0
 40
11.0
 40
12.0
 40
12.0
 40
12.0
 40
13.0
 40
13.0
 40
13.0
 40
13.0
 10
72.01059161611194
 20
-129.0233045467372
 30
0.0
 10
72.16923826320769
 20
-129.241034581405
 30
0.0
 10
72.24330781614057
 20
-129.3340521595068
 30
0.0
 10
72.38714055264974
 20
-129.3829725153973
 30
0.0
 10
72.38714055264974
 20
-129.3829725153973
 30
0.0
 10
72.38714055264974
 20
-128.6043809357309
 30
0.0
 10
72.38714055264974
 20
-128.6043809357309
 30
0.0
 10
72.38714055264974
 20
-128.6043809357309
 30
0.0
 10
72.59229598879638
 20
-128.6043809357309
 30
0.0
 10
72.59229598879638
 20
-128.6043809357309
 30
0.0
 10
72.59229598879638
 20
-128.6043809357309
 30
0.0
 10
72.59229598879638
 20
-129.6323974285294
 30
0.0
 10
72.59229598879638
 20
-129.6323974285294
 30
0.0
 10
72.23469507742745
 20
-129.6007025500651
 30
0.0
 10
72.15649140991226
 20
-129.5352457358454
 30
0.0
 10
71.85814614088963
 20
-129.1500840605944
 30
0.0
 10
71.65936413139072
 20
-128.8941134660404
 30
0.0
 10
71.59166800510556
 20
-128.8286566518206
 30
0.0
 10
71.45420869524409
 20
-128.8286566518206
 30
0.0
 10
71.33569741055149
 20
-128.8286566518206
 30
0.0
 10
71.20443927256348
 20
-128.9006591474623
 30
0.0
 10
71.20443927256348
 20
-129.0973740996701
 30
0.0
 10
71.20443927256348
 20
-129.3574788088065
 30
0.0
 10
71.43508841530095
 20
-129.3660915475196
 30
0.0
 10
71.5515326427024
 20
-129.3702256621019
 30
0.0
 10
71.5515326427024
 20
-129.3702256621019
 30
0.0
 10
71.5515326427024
 20
-129.5945013781917
 30
0.0
 10
71.5515326427024
 20
-129.5945013781917
 30
0.0
 10
71.42458087407094
 20
-129.5858886394785
 30
0.0
 10
71.31244301602607
 20
-129.5752088434743
 30
0.0
 10
71.19393173133346
 20
-129.4949381186679
 30
0.0
 10
71.03321802694656
 20
-129.3850395726885
 30
0.0
 10
70.99928383641685
 20
-129.1986599069365
 30
0.0
 10
70.99928383641685
 20
-129.0825601890835
 30
0.0
 10
70.99928383641685
 20
-128.8052300025209
 30
0.0
 10
71.18342419010345
 20
-128.5978352543089
 30
0.0
 10
71.45627575253523
 20
-128.5978352543089
 30
0.0
 10
71.6846855832073
 20
-128.5978352543089
 30
0.0
 10
71.78424884273103
 20
-128.7142794817103
 30
0.0
 10
72.01059161611194
 20
-129.0233045467372
 30
0.0
  0
HATCH
  5
12E
330
129
100
AcDbEntity
  8
_U+30EC_U+30A4_U+30E4_U+30FC 1
 62
     7
420
 16777215
100
AcDbHatch
 10
0.0
 20
0.0
 30
0.0
210
0.0
220
0.0
230
1.0
  2
SOLID
 70
     1
 71
     0
 91
        1
 92
        1
 93
        1
 72
     4
 94
        3
 73
     0
 74
     1
 95
       44
 96
       40
 40
0.0
 40
0.0
 40
0.0
 40
0.0
 40
1.0
 40
1.0
 40
1.0
 40
2.0
 40
2.0
 40
2.0
 40
3.0
 40
3.0
 40
3.0
 40
4.0
 40
4.0
 40
4.0
 40
5.0
 40
5.0
 40
5.0
 40
6.0
 40
6.0
 40
6.0
 40
7.0
 40
7.0
 40
7.0
 40
8.0
 40
8.0
 40
8.0
 40
9.0
 40
9.0
 40
9.0
 40
10.0
 40
10.0
 40
10.0
 40
11.0
 40
11.0
 40
11.0
 40
12.0
 40
12.0
 40
12.0
 40
13.0
 40
13.0
 40
13.0
 40
13.0
 10
72.01059161611194
 20
-129.0233045467372
 10
72.16923826320769
 20
-129.241034581405
 10
72.24330781614057
 20
-129.3340521595068
 10
72.38714055264974
 20
-129.3829725153973
 10
72.38714055264974
 20
-129.3829725153973
 10
72.38714055264974
 20
-128.6043809357309
 10
72.38714055264974
 20
-128.6043809357309
 10
72.38714055264974
 20
-128.6043809357309
 10
72.59229598879638
 20
-128.6043809357309
 10
72.59229598879638
 20
-128.6043809357309
 10
72.59229598879638
 20
-128.6043809357309
 10
72.59229598879638
 20
-129.6323974285294
 10
72.59229598879638
 20
-129.6323974285294
 10
72.23469507742745
 20
-129.6007025500651
 10
72.15649140991226
 20
-129.5352457358454
 10
71.85814614088963
 20
-129.1500840605944
 10
71.65936413139072
 20
-128.8941134660404
 10
71.59166800510556
 20
-128.8286566518206
 10
71.45420869524409
 20
-128.8286566518206
 10
71.33569741055149
 20
-128.8286566518206
 10
71.20443927256348
 20
-128.9006591474623
 10
71.20443927256348
 20
-129.0973740996701
 10
71.20443927256348
 20
-129.3574788088065
 10
71.43508841530095
 20
-129.3660915475196
 10
71.5515326427024
 20
-129.3702256621019
 10
71.5515326427024
 20
-129.3702256621019
 10
71.5515326427024
 20
-129.5945013781917
 10
71.5515326427024
 20
-129.5945013781917
 10
71.42458087407094
 20
-129.5858886394785
 10
71.31244301602607
 20
-129.5752088434743
 10
71.19393173133346
 20
-129.4949381186679
 10
71.03321802694656
 20
-129.3850395726885
 10
70.99928383641685
 20
-129.1986599069365
 10
70.99928383641685
 20
-129.0825601890835
 10
70.99928383641685
 20
-128.8052300025209
 10
71.18342419010345
 20
-128.5978352543089
 10
71.45627575253523
 20
-128.5978352543089
 10
71.6846855832073
 20
-128.5978352543089
 10
71.78424884273103
 20
-128.7142794817103
 10
72.01059161611194
 20
-129.0233045467372
 97
        0
 97
        0
 75
     2
 76
     1
 98
        0
  0
POLYLINE
  5
12F
330
129
100
AcDbEntity
  8
_U+30EC_U+30A4_U+30E4_U+30FC 1
370
     0
100
AcDb2dPolyline
 66
     1
 10
0.0
 20
0.0
 30
0.0
  0
VERTEX
  5
130
330
12F
100
AcDbEntity
  8
_U+30EC_U+30A4_U+30E4_U+30FC 1
370
     0
100
AcDbVertex
100
AcDb2dVertex
 10
72.24537487343171
 20
-127.6073703022996
 30
0.0
  0
VERTEX
  5
131
330
12F
100
AcDbEntity
  8
_U+30EC_U+30A4_U+30E4_U+30FC 1
370
     0
100
AcDbVertex
100
AcDb2dVertex
 10
72.59229598879638
 20
-127.6073703022996
 30
0.0
  0
VERTEX
  5
132
330
12F
100
AcDbEntity
  8
_U+30EC_U+30A4_U+30E4_U+30FC 1
370
     0
100
AcDbVertex
100
AcDb2dVertex
 10
72.59229598879638
 20
-127.8251003369673
 30
0.0
  0
VERTEX
  5
133
330
12F
100
AcDbEntity
  8
_U+30EC_U+30A4_U+30E4_U+30FC 1
370
     0
100
AcDbVertex
100
AcDb2dVertex
 10
72.24537487343171
 20
-127.8251003369673
 30
0.0
  0
VERTEX
  5
134
330
12F
100
AcDbEntity
  8
_U+30EC_U+30A4_U+30E4_U+30FC 1
370
     0
100
AcDbVertex
100
AcDb2dVertex
 10
72.24537487343171
 20
-128.4810465173589
 30
0.0
  0
VERTEX
  5
135
330
12F
100
AcDbEntity
  8
_U+30EC_U+30A4_U+30E4_U+30FC 1
370
     0
100
AcDbVertex
100
AcDb2dVertex
 10
72.02109915734195
 20
-128.4810465173589
 30
0.0
  0
VERTEX
  5
136
330
12F
100
AcDbEntity
  8
_U+30EC_U+30A4_U+30E4_U+30FC 1
370
     0
100
AcDbVertex
100
AcDb2dVertex
 10
71.04803193753314
 20
-127.8020181972162
 30
0.0
  0
VERTEX
  5
137
330
12F
100
AcDbEntity
  8
_U+30EC_U+30A4_U+30E4_U+30FC 1
370
     0
100
AcDbVertex
100
AcDb2dVertex
 10
71.04803193753314
 20
-127.6073703022996
 30
0.0
  0
VERTEX
  5
138
330
12F
100
AcDbEntity
  8
_U+30EC_U+30A4_U+30E4_U+30FC 1
370
     0
100
AcDbVertex
100
AcDb2dVertex
 10
72.04642060915853
 20
-127.6073703022996
 30
0.0
  0
VERTEX
  5
139
330
12F
100
AcDbEntity
  8
_U+30EC_U+30A4_U+30E4_U+30FC 1
370
     0
100
AcDbVertex
100
AcDb2dVertex
 10
72.04642060915853
 20
-127.3999755540875
 30
0.0
  0
VERTEX
  5
13A
330
12F
100
AcDbEntity
  8
_U+30EC_U+30A4_U+30E4_U+30FC 1
370
     0
100
AcDbVertex
100
AcDb2dVertex
 10
72.24537487343171
 20
-127.3999755540875
 30
0.0
  0
VERTEX
  5
13B
330
12F
100
AcDbEntity
  8
_U+30EC_U+30A4_U+30E4_U+30FC 1
370
     0
100
AcDbVertex
100
AcDb2dVertex
 10
72.24537487343171
 20
-127.6073703022996
 30
0.0
  0
SEQEND
  5
13C
330
12F
100
AcDbEntity
  8
_U+30EC_U+30A4_U+30E4_U+30FC 1
370
     0
  0
POLYLINE
  5
13D
330
129
100
AcDbEntity
  8
_U+30EC_U+30A4_U+30E4_U+30FC 1
370
     0
100
AcDb2dPolyline
 66
     1
 10
0.0
 20
0.0
 30
0.0
  0
VERTEX
  5
13E
330
13D
100
AcDbEntity
  8
_U+30EC_U+30A4_U+30E4_U+30FC 1
370
     0
100
AcDbVertex
100
AcDb2dVertex
 10
71.39064668354123
 20
-127.8251003369673
 30
0.0
  0
VERTEX
  5
13F
330
13D
100
AcDbEntity
  8
_U+30EC_U+30A4_U+30E4_U+30FC 1
370
     0
100
AcDbVertex
100
AcDb2dVertex
 10
72.04642060915853
 20
-128.28226450786
 30
0.0
  0
VERTEX
  5
140
330
13D
100
AcDbEntity
  8
_U+30EC_U+30A4_U+30E4_U+30FC 1
370
     0
100
AcDbVertex
100
AcDb2dVertex
 10
72.04642060915853
 20
-127.8251003369673
 30
0.0
  0
VERTEX
  5
141
330
13D
100
AcDbEntity
  8
_U+30EC_U+30A4_U+30E4_U+30FC 1
370
     0
100
AcDbVertex
100
AcDb2dVertex
 10
71.39064668354123
 20
-127.8251003369673
 30
0.0
  0
SEQEND
  5
142
330
13D
100
AcDbEntity
  8
_U+30EC_U+30A4_U+30E4_U+30FC 1
370
     0
  0
HATCH
  5
143
330
129
100
AcDbEntity
  8
_U+30EC_U+30A4_U+30E4_U+30FC 1
 62
     7
420
 16777215
100
AcDbHatch
 10
0.0
 20
0.0
 30
0.0
210
0.0
220
0.0
230
1.0
  2
SOLID
 70
     1
 71
     0
 91
        2
 92
        1
 93
       11
 72
     1
 10
72.24537487343171
 20
-127.6073703022996
 11
72.59229598879638
 21
-127.6073703022996
 72
     1
 10
72.59229598879638
 20
-127.6073703022996
 11
72.59229598879638
 21
-127.8251003369673
 72
     1
 10
72.59229598879638
 20
-127.8251003369673
 11
72.24537487343171
 21
-127.8251003369673
 72
     1
 10
72.24537487343171
 20
-127.8251003369673
 11
72.24537487343171
 21
-128.4810465173589
 72
     1
 10
72.24537487343171
 20
-128.4810465173589
 11
72.02109915734195
 21
-128.4810465173589
 72
     1
 10
72.02109915734195
 20
-128.4810465173589
 11
71.04803193753314
 21
-127.8020181972162
 72
     1
 10
71.04803193753314
 20
-127.8020181972162
 11
71.04803193753314
 21
-127.6073703022996
 72
     1
 10
71.04803193753314
 20
-127.6073703022996
 11
72.04642060915853
 21
-127.6073703022996
 72
     1
 10
72.04642060915853
 20
-127.6073703022996
 11
72.04642060915853
 21
-127.3999755540875
 72
     1
 10
72.04642060915853
 20
-127.3999755540875
 11
72.24537487343171
 21
-127.3999755540875
 72
     1
 10
72.24537487343171
 20
-127.3999755540875
 11
72.24537487343171
 21
-127.6073703022996
 97
        0
 92
        1
 93
        3
 72
     1
 10
71.39064668354123
 20
-127.8251003369673
 11
72.04642060915853
 21
-128.28226450786
 72
     1
 10
72.04642060915853
 20
-128.28226450786
 11
72.04642060915853
 21
-127.8251003369673
 72
     1
 10
72.04642060915853
 20
-127.8251003369673
 11
71.39064668354123
 21
-127.8251003369673
 97
        0
 75
     2
 76
     1
 98
        0
  0
ENDBLK
  5
12C
330
129
100
AcDbEntity
  8
0
100
AcDbBlockEnd
  0
BLOCK
  5
15B
330
159
100
AcDbEntity
  8
0
100
AcDbBlockBegin
  2
block 9
 70
     0
 10
0.0
 20
0.0
 30
0.0
  3
block 9
  1

  0
SPLINE
  5
15D
330
159
100
AcDbEntity
  8
_U+30EC_U+30A4_U+30E4_U+30FC 1
370
     0
100
AcDbSpline
210
0.0
220
0.0
230
1.0
 70
    11
 71
     3
 72
    26
 73
    22
 74
     0
 42
0.0000000001
 43
0.0000000001
 12
1.0
 22
0.0
 32
0.0
 13
1.0
 23
0.0
 33
0.0
 40
0.0
 40
0.0
 40
0.0
 40
0.0
 40
1.0
 40
1.0
 40
1.0
 40
2.0
 40
2.0
 40
2.0
 40
3.0
 40
3.0
 40
3.0
 40
4.0
 40
4.0
 40
4.0
 40
5.0
 40
5.0
 40
5.0
 40
6.0
 40
6.0
 40
6.0
 40
7.0
 40
7.0
 40
7.0
 40
7.0
 10
109.5926215003796
 20
-135.3650363159851
 30
0.0
 10
109.5926215003796
 20
-135.3650363159851
 30
0.0
 10
108.4884683973571
 20
-135.3650363159851
 30
0.0
 10
108.4884683973571
 20
-135.3650363159851
 30
0.0
 10
108.4884683973571
 20
-135.3650363159851
 30
0.0
 10
108.4884683973571
 20
-135.6950764634721
 30
0.0
 10
108.4884683973571
 20
-135.6950764634721
 30
0.0
 10
108.4884683973571
 20
-135.6950764634721
 30
0.0
 10
108.3403292914913
 20
-135.6950764634721
 30
0.0
 10
108.3403292914913
 20
-135.6950764634721
 30
0.0
 10
108.3255153809047
 20
-135.362969258694
 30
0.0
 10
108.1625623644524
 20
-135.3164604696431
 30
0.0
 10
108.0481851943421
 20
-135.28683264847
 30
0.0
 10
108.0481851943421
 20
-135.28683264847
 30
0.0
 10
108.0481851943421
 20
-135.1407605998954
 30
0.0
 10
108.0481851943421
 20
-135.1407605998954
 30
0.0
 10
108.0481851943421
 20
-135.1407605998954
 30
0.0
 10
109.5926215003796
 20
-135.1407605998954
 30
0.0
 10
109.5926215003796
 20
-135.1407605998954
 30
0.0
 10
109.5926215003796
 20
-135.1407605998954
 30
0.0
 10
109.5926215003796
 20
-135.3650363159851
 30
0.0
 10
109.5926215003796
 20
-135.3650363159851
 30
0.0
  0
HATCH
  5
15E
330
159
100
AcDbEntity
  8
_U+30EC_U+30A4_U+30E4_U+30FC 1
 62
     7
420
 16777215
100
AcDbHatch
 10
0.0
 20
0.0
 30
0.0
210
0.0
220
0.0
230
1.0
  2
SOLID
 70
     1
 71
     0
 91
        1
 92
        1
 93
        1
 72
     4
 94
        3
 73
     0
 74
     1
 95
       26
 96
       22
 40
0.0
 40
0.0
 40
0.0
 40
0.0
 40
1.0
 40
1.0
 40
1.0
 40
2.0
 40
2.0
 40
2.0
 40
3.0
 40
3.0
 40
3.0
 40
4.0
 40
4.0
 40
4.0
 40
5.0
 40
5.0
 40
5.0
 40
6.0
 40
6.0
 40
6.0
 40
7.0
 40
7.0
 40
7.0
 40
7.0
 10
109.5926215003796
 20
-135.3650363159851
 10
109.5926215003796
 20
-135.3650363159851
 10
108.4884683973571
 20
-135.3650363159851
 10
108.4884683973571
 20
-135.3650363159851
 10
108.4884683973571
 20
-135.3650363159851
 10
108.4884683973571
 20
-135.6950764634721
 10
108.4884683973571
 20
-135.6950764634721
 10
108.4884683973571
 20
-135.6950764634721
 10
108.3403292914913
 20
-135.6950764634721
 10
108.3403292914913
 20
-135.6950764634721
 10
108.3255153809047
 20
-135.362969258694
 10
108.1625623644524
 20
-135.3164604696431
 10
108.0481851943421
 20
-135.28683264847
 10
108.0481851943421
 20
-135.28683264847
 10
108.0481851943421
 20
-135.1407605998954
 10
108.0481851943421
 20
-135.1407605998954
 10
108.0481851943421
 20
-135.1407605998954
 10
109.5926215003796
 20
-135.1407605998954
 10
109.5926215003796
 20
-135.1407605998954
 10
109.5926215003796
 20
-135.1407605998954
 10
109.5926215003796
 20
-135.3650363159851
 10
109.5926215003796
 20
-135.3650363159851
 97
        0
 97
        0
 75
     2
 76
     1
 98
        0
  0
SPLINE
  5
15F
330
159
100
AcDbEntity
  8
_U+30EC_U+30A4_U+30E4_U+30FC 1
370
     0
100
AcDbSpline
210
0.0
220
0.0
230
1.0
 70
    11
 71
     3
 72
    29
 73
    25
 74
     0
 42
0.0000000001
 43
0.0000000001
 12
1.0
 22
0.0
 32
0.0
 13
1.0
 23
0.0
 33
0.0
 40
0.0
 40
0.0
 40
0.0
 40
0.0
 40
1.0
 40
1.0
 40
1.0
 40
2.0
 40
2.0
 40
2.0
 40
3.0
 40
3.0
 40
3.0
 40
4.0
 40
4.0
 40
4.0
 40
5.0
 40
5.0
 40
5.0
 40
6.0
 40
6.0
 40
6.0
 40
7.0
 40
7.0
 40
7.0
 40
8.0
 40
8.0
 40
8.0
 40
8.0
 10
109.4148545733407
 20
-133.7417073233354
 30
0.0
 10
109.6243163788439
 20
-133.8498833215723
 30
0.0
 10
109.6432644040128
 20
-134.0231716244803
 30
0.0
 10
109.6432644040128
 20
-134.1396158518818
 30
0.0
 10
109.6432644040128
 20
-134.3005018110429
 30
0.0
 10
109.5967556149619
 20
-134.4420952354867
 30
0.0
 10
109.4148545733407
 20
-134.5371798708796
 30
0.0
 10
109.2202066784241
 20
-134.6408772449856
 30
0.0
 10
108.9831841090389
 20
-134.6598252701545
 30
0.0
 10
108.8205756021351
 20
-134.6598252701545
 30
0.0
 10
108.6765706108517
 20
-134.6598252701545
 30
0.0
 10
108.4247341308799
 20
-134.6429443022768
 30
0.0
 10
108.225952121381
 20
-134.5371798708796
 30
0.0
 10
108.0230359972998
 20
-134.4293483821913
 30
0.0
 10
107.9996093480001
 20
-134.2684624230301
 30
0.0
 10
107.9996093480001
 20
-134.1396158518818
 30
0.0
 10
107.9996093480001
 20
-133.9807969500118
 30
0.0
 10
108.0440510797598
 20
-133.8371364682768
 30
0.0
 10
108.225952121381
 20
-133.7417073233354
 30
0.0
 10
108.4185329590065
 20
-133.6424885733602
 30
0.0
 10
108.6469427896785
 20
-133.6190619240605
 30
0.0
 10
108.8205756021351
 20
-133.6190619240605
 30
0.0
 10
108.9917968477521
 20
-133.6190619240605
 30
0.0
 10
109.2222737357153
 20
-133.6404215160691
 30
0.0
 10
109.4148545733407
 20
-133.7417073233354
 30
0.0
  0
SPLINE
  5
160
330
159
100
AcDbEntity
  8
_U+30EC_U+30A4_U+30E4_U+30FC 1
370
     0
100
AcDbSpline
210
0.0
220
0.0
230
1.0
 70
    11
 71
     3
 72
    17
 73
    13
 74
     0
 42
0.0000000001
 43
0.0000000001
 12
1.0
 22
0.0
 32
0.0
 13
1.0
 23
0.0
 33
0.0
 40
0.0
 40
0.0
 40
0.0
 40
0.0
 40
1.0
 40
1.0
 40
1.0
 40
2.0
 40
2.0
 40
2.0
 40
3.0
 40
3.0
 40
3.0
 40
4.0
 40
4.0
 40
4.0
 40
4.0
 10
108.1921901856256
 20
-134.1396158518818
 30
0.0
 10
108.1921901856256
 20
-134.3890407650138
 30
0.0
 10
108.4757215440616
 20
-134.4358940636133
 30
0.0
 10
108.8205756021351
 20
-134.4358940636133
 30
0.0
 10
109.1399359536178
 20
-134.4358940636133
 30
0.0
 10
109.4486165090962
 20
-134.3997205610181
 30
0.0
 10
109.4486165090962
 20
-134.1396158518818
 30
0.0
 10
109.4486165090962
 20
-133.8919134864923
 30
0.0
 10
109.1674967174998
 20
-133.8433376401503
 30
0.0
 10
108.8205756021351
 20
-133.8433376401503
 30
0.0
 10
108.500870741104
 20
-133.8433376401503
 30
0.0
 10
108.1921901856256
 20
-133.8815782000366
 30
0.0
 10
108.1921901856256
 20
-134.1396158518818
 30
0.0
  0
HATCH
  5
161
330
159
100
AcDbEntity
  8
_U+30EC_U+30A4_U+30E4_U+30FC 1
 62
     7
420
 16777215
100
AcDbHatch
 10
0.0
 20
0.0
 30
0.0
210
0.0
220
0.0
230
1.0
  2
SOLID
 70
     1
 71
     0
 91
        2
 92
        1
 93
        1
 72
     4
 94
        3
 73
     0
 74
     1
 95
       29
 96
       25
 40
0.0
 40
0.0
 40
0.0
 40
0.0
 40
1.0
 40
1.0
 40
1.0
 40
2.0
 40
2.0
 40
2.0
 40
3.0
 40
3.0
 40
3.0
 40
4.0
 40
4.0
 40
4.0
 40
5.0
 40
5.0
 40
5.0
 40
6.0
 40
6.0
 40
6.0
 40
7.0
 40
7.0
 40
7.0
 40
8.0
 40
8.0
 40
8.0
 40
8.0
 10
109.4148545733407
 20
-133.7417073233354
 10
109.6243163788439
 20
-133.8498833215723
 10
109.6432644040128
 20
-134.0231716244803
 10
109.6432644040128
 20
-134.1396158518818
 10
109.6432644040128
 20
-134.3005018110429
 10
109.5967556149619
 20
-134.4420952354867
 10
109.4148545733407
 20
-134.5371798708796
 10
109.2202066784241
 20
-134.6408772449856
 10
108.9831841090389
 20
-134.6598252701545
 10
108.8205756021351
 20
-134.6598252701545
 10
108.6765706108517
 20
-134.6598252701545
 10
108.4247341308799
 20
-134.6429443022768
 10
108.225952121381
 20
-134.5371798708796
 10
108.0230359972998
 20
-134.4293483821913
 10
107.9996093480001
 20
-134.2684624230301
 10
107.9996093480001
 20
-134.1396158518818
 10
107.9996093480001
 20
-133.9807969500118
 10
108.0440510797598
 20
-133.8371364682768
 10
108.225952121381
 20
-133.7417073233354
 10
108.4185329590065
 20
-133.6424885733602
 10
108.6469427896785
 20
-133.6190619240605
 10
108.8205756021351
 20
-133.6190619240605
 10
108.9917968477521
 20
-133.6190619240605
 10
109.2222737357153
 20
-133.6404215160691
 10
109.4148545733407
 20
-133.7417073233354
 97
        0
 97
        0
 92
        1
 93
        1
 72
     4
 94
        3
 73
     0
 74
     1
 95
       17
 96
       13
 40
0.0
 40
0.0
 40
0.0
 40
0.0
 40
1.0
 40
1.0
 40
1.0
 40
2.0
 40
2.0
 40
2.0
 40
3.0
 40
3.0
 40
3.0
 40
4.0
 40
4.0
 40
4.0
 40
4.0
 10
108.1921901856256
 20
-134.1396158518818
 10
108.1921901856256
 20
-134.3890407650138
 10
108.4757215440616
 20
-134.4358940636133
 10
108.8205756021351
 20
-134.4358940636133
 10
109.1399359536178
 20
-134.4358940636133
 10
109.4486165090962
 20
-134.3997205610181
 10
109.4486165090962
 20
-134.1396158518818
 10
109.4486165090962
 20
-133.8919134864923
 10
109.1674967174998
 20
-133.8433376401503
 10
108.8205756021351
 20
-133.8433376401503
 10
108.500870741104
 20
-133.8433376401503
 10
108.1921901856256
 20
-133.8815782000366
 10
108.1921901856256
 20
-134.1396158518818
 97
        0
 97
        0
 75
     2
 76
     1
 98
        0
  0
ENDBLK
  5
15C
330
159
100
AcDbEntity
  8
0
100
AcDbBlockEnd
  0
BLOCK
  5
170
330
16E
100
AcDbEntity
  8
0
100
AcDbBlockBegin
  2
block 10
 70
     0
 10
0.0
 20
0.0
 30
0.0
  3
block 10
  1

  0
SPLINE
  5
172
330
16E
100
AcDbEntity
  8
_U+30EC_U+30A4_U+30E4_U+30FC 1
370
     0
100
AcDbSpline
210
0.0
220
0.0
230
1.0
 70
    11
 71
     3
 72
    44
 73
    40
 74
     0
 42
0.0000000001
 43
0.0000000001
 12
1.0
 22
0.0
 32
0.0
 13
1.0
 23
0.0
 33
0.0
 40
0.0
 40
0.0
 40
0.0
 40
0.0
 40
1.0
 40
1.0
 40
1.0
 40
2.0
 40
2.0
 40
2.0
 40
3.0
 40
3.0
 40
3.0
 40
4.0
 40
4.0
 40
4.0
 40
5.0
 40
5.0
 40
5.0
 40
6.0
 40
6.0
 40
6.0
 40
7.0
 40
7.0
 40
7.0
 40
8.0
 40
8.0
 40
8.0
 40
9.0
 40
9.0
 40
9.0
 40
10.0
 40
10.0
 40
10.0
 40
11.0
 40
11.0
 40
11.0
 40
12.0
 40
12.0
 40
12.0
 40
13.0
 40
13.0
 40
13.0
 40
13.0
 10
91.81937389197572
 20
-127.9394775070776
 30
0.0
 10
91.79594724267602
 20
-127.8950357753179
 30
0.0
 10
91.77458765066747
 20
-127.8421535596193
 30
0.0
 10
91.77252059337631
 20
-127.6115044168819
 30
0.0
 10
91.76838647879401
 20
-127.3682806756232
 30
0.0
 10
91.70913083644773
 20
-127.2985174920469
 30
0.0
 10
91.53136390940882
 20
-127.2985174920469
 30
0.0
 10
91.53136390940882
 20
-127.2985174920469
 30
0.0
 10
91.12312009440673
 20
-127.2985174920469
 30
0.0
 10
91.12312009440673
 20
-127.2985174920469
 30
0.0
 10
91.12312009440673
 20
-127.2985174920469
 30
0.0
 10
91.12312009440673
 20
-127.9394775070776
 30
0.0
 10
91.12312009440673
 20
-127.9394775070776
 30
0.0
 10
91.12312009440673
 20
-127.9394775070776
 30
0.0
 10
90.88833683708695
 20
-127.9394775070776
 30
0.0
 10
90.88833683708695
 20
-127.9394775070776
 30
0.0
 10
90.88833683708695
 20
-127.9394775070776
 30
0.0
 10
90.88833683708695
 20
-126.3952134558144
 30
0.0
 10
90.88833683708695
 20
-126.3952134558144
 30
0.0
 10
90.88833683708695
 20
-126.3952134558144
 30
0.0
 10
91.56305878787313
 20
-126.3952134558144
 30
0.0
 10
91.56305878787313
 20
-126.3952134558144
 30
0.0
 10
91.86967228606036
 20
-126.3952134558144
 30
0.0
 10
92.03710392664351
 20
-126.5664347014313
 30
0.0
 10
92.03710392664351
 20
-126.8225775507596
 30
0.0
 10
92.03710392664351
 20
-126.8732204543928
 30
0.0
 10
92.02849118793038
 20
-126.9557304912645
 30
0.0
 10
91.98404945617065
 20
-127.0361734708451
 30
0.0
 10
91.92479381382437
 20
-127.1398708449511
 30
0.0
 10
91.85933699960461
 20
-127.15881887012
 30
0.0
 10
91.79801429996716
 20
-127.1756998379978
 30
0.0
 10
91.93547360982863
 20
-127.2180745124663
 30
0.0
 10
92.00334199088806
 20
-127.2668226135826
 30
0.0
 10
92.00747610547036
 20
-127.5818765957087
 30
0.0
 10
92.01161022005266
 20
-127.8526611008493
 30
0.0
 10
92.04743921309925
 20
-127.8845282340879
 30
0.0
 10
92.11530759415868
 20
-127.9394775070776
 30
0.0
 10
92.11530759415868
 20
-127.9394775070776
 30
0.0
 10
91.81937389197572
 20
-127.9394775070776
 30
0.0
 10
91.81937389197572
 20
-127.9394775070776
 30
0.0
  0
SPLINE
  5
173
330
16E
100
AcDbEntity
  8
_U+30EC_U+30A4_U+30E4_U+30FC 1
370
     0
100
AcDbSpline
210
0.0
220
0.0
230
1.0
 70
    11
 71
     3
 72
    20
 73
    16
 74
     0
 42
0.0000000001
 43
0.0000000001
 12
1.0
 22
0.0
 32
0.0
 13
1.0
 23
0.0
 33
0.0
 40
0.0
 40
0.0
 40
0.0
 40
0.0
 40
1.0
 40
1.0
 40
1.0
 40
2.0
 40
2.0
 40
2.0
 40
3.0
 40
3.0
 40
3.0
 40
4.0
 40
4.0
 40
4.0
 40
5.0
 40
5.0
 40
5.0
 40
5.0
 10
91.56719290245543
 20
-126.6067423186087
 30
0.0
 10
91.56719290245543
 20
-126.6067423186087
 30
0.0
 10
91.12312009440673
 20
-126.6067423186087
 30
0.0
 10
91.12312009440673
 20
-126.6067423186087
 30
0.0
 10
91.12312009440673
 20
-126.6067423186087
 30
0.0
 10
91.12312009440673
 20
-127.0869886292526
 30
0.0
 10
91.12312009440673
 20
-127.0869886292526
 30
0.0
 10
91.12312009440673
 20
-127.0869886292526
 30
0.0
 10
91.56512584516427
 20
-127.0869886292526
 30
0.0
 10
91.56512584516427
 20
-127.0869886292526
 30
0.0
 10
91.664689104688
 20
-127.0869886292526
 30
0.0
 10
91.80008135725832
 20
-127.0108520190285
 30
0.0
 10
91.80008135725832
 20
-126.8394585186374
 30
0.0
 10
91.80008135725832
 20
-126.7610825963479
 30
0.0
 10
91.76631942150287
 20
-126.6067423186087
 30
0.0
 10
91.56719290245543
 20
-126.6067423186087
 30
0.0
  0
HATCH
  5
174
330
16E
100
AcDbEntity
  8
_U+30EC_U+30A4_U+30E4_U+30FC 1
 62
   179
420
  2234388
100
AcDbHatch
 10
0.0
 20
0.0
 30
0.0
210
0.0
220
0.0
230
1.0
  2
SOLID
 70
     1
 71
     0
 91
        2
 92
        1
 93
        1
 72
     4
 94
        3
 73
     0
 74
     1
 95
       44
 96
       40
 40
0.0
 40
0.0
 40
0.0
 40
0.0
 40
1.0
 40
1.0
 40
1.0
 40
2.0
 40
2.0
 40
2.0
 40
3.0
 40
3.0
 40
3.0
 40
4.0
 40
4.0
 40
4.0
 40
5.0
 40
5.0
 40
5.0
 40
6.0
 40
6.0
 40
6.0
 40
7.0
 40
7.0
 40
7.0
 40
8.0
 40
8.0
 40
8.0
 40
9.0
 40
9.0
 40
9.0
 40
10.0
 40
10.0
 40
10.0
 40
11.0
 40
11.0
 40
11.0
 40
12.0
 40
12.0
 40
12.0
 40
13.0
 40
13.0
 40
13.0
 40
13.0
 10
91.81937389197572
 20
-127.9394775070776
 10
91.79594724267602
 20
-127.8950357753179
 10
91.77458765066747
 20
-127.8421535596193
 10
91.77252059337631
 20
-127.6115044168819
 10
91.76838647879401
 20
-127.3682806756232
 10
91.70913083644773
 20
-127.2985174920469
 10
91.53136390940882
 20
-127.2985174920469
 10
91.53136390940882
 20
-127.2985174920469
 10
91.12312009440673
 20
-127.2985174920469
 10
91.12312009440673
 20
-127.2985174920469
 10
91.12312009440673
 20
-127.2985174920469
 10
91.12312009440673
 20
-127.9394775070776
 10
91.12312009440673
 20
-127.9394775070776
 10
91.12312009440673
 20
-127.9394775070776
 10
90.88833683708695
 20
-127.9394775070776
 10
90.88833683708695
 20
-127.9394775070776
 10
90.88833683708695
 20
-127.9394775070776
 10
90.88833683708695
 20
-126.3952134558144
 10
90.88833683708695
 20
-126.3952134558144
 10
90.88833683708695
 20
-126.3952134558144
 10
91.56305878787313
 20
-126.3952134558144
 10
91.56305878787313
 20
-126.3952134558144
 10
91.86967228606036
 20
-126.3952134558144
 10
92.03710392664351
 20
-126.5664347014313
 10
92.03710392664351
 20
-126.8225775507596
 10
92.03710392664351
 20
-126.8732204543928
 10
92.02849118793038
 20
-126.9557304912645
 10
91.98404945617065
 20
-127.0361734708451
 10
91.92479381382437
 20
-127.1398708449511
 10
91.85933699960461
 20
-127.15881887012
 10
91.79801429996716
 20
-127.1756998379978
 10
91.93547360982863
 20
-127.2180745124663
 10
92.00334199088806
 20
-127.2668226135826
 10
92.00747610547036
 20
-127.5818765957087
 10
92.01161022005266
 20
-127.8526611008493
 10
92.04743921309925
 20
-127.8845282340879
 10
92.11530759415868
 20
-127.9394775070776
 10
92.11530759415868
 20
-127.9394775070776
 10
91.81937389197572
 20
-127.9394775070776
 10
91.81937389197572
 20
-127.9394775070776
 97
        0
 97
        0
 92
        1
 93
        1
 72
     4
 94
        3
 73
     0
 74
     1
 95
       20
 96
       16
 40
0.0
 40
0.0
 40
0.0
 40
0.0
 40
1.0
 40
1.0
 40
1.0
 40
2.0
 40
2.0
 40
2.0
 40
3.0
 40
3.0
 40
3.0
 40
4.0
 40
4.0
 40
4.0
 40
5.0
 40
5.0
 40
5.0
 40
5.0
 10
91.56719290245543
 20
-126.6067423186087
 10
91.56719290245543
 20
-126.6067423186087
 10
91.12312009440673
 20
-126.6067423186087
 10
91.12312009440673
 20
-126.6067423186087
 10
91.12312009440673
 20
-126.6067423186087
 10
91.12312009440673
 20
-127.0869886292526
 10
91.12312009440673
 20
-127.0869886292526
 10
91.12312009440673
 20
-127.0869886292526
 10
91.56512584516427
 20
-127.0869886292526
 10
91.56512584516427
 20
-127.0869886292526
 10
91.664689104688
 20
-127.0869886292526
 10
91.80008135725832
 20
-127.0108520190285
 10
91.80008135725832
 20
-126.8394585186374
 10
91.80008135725832
 20
-126.7610825963479
 10
91.76631942150287
 20
-126.6067423186087
 10
91.56719290245543
 20
-126.6067423186087
 97
        0
 97
        0
 75
     2
 76
     1
 98
        0
  0
SPLINE
  5
175
330
16E
100
AcDbEntity
  8
_U+30EC_U+30A4_U+30E4_U+30FC 1
370
     0
100
AcDbSpline
210
0.0
220
0.0
230
1.0
 70
    11
 71
     3
 72
    26
 73
    22
 74
     0
 42
0.0000000001
 43
0.0000000001
 12
1.0
 22
0.0
 32
0.0
 13
1.0
 23
0.0
 33
0.0
 40
0.0
 40
0.0
 40
0.0
 40
0.0
 40
1.0
 40
1.0
 40
1.0
 40
2.0
 40
2.0
 40
2.0
 40
3.0
 40
3.0
 40
3.0
 40
4.0
 40
4.0
 40
4.0
 40
5.0
 40
5.0
 40
5.0
 40
6.0
 40
6.0
 40
6.0
 40
7.0
 40
7.0
 40
7.0
 40
7.0
 10
92.70614146987903
 20
-127.9394775070776
 30
0.0
 10
92.70614146987903
 20
-127.9394775070776
 30
0.0
 10
92.70614146987903
 20
-126.8351521492808
 30
0.0
 10
92.70614146987903
 20
-126.8351521492808
 30
0.0
 10
92.70614146987903
 20
-126.8351521492808
 30
0.0
 10
92.37610132239209
 20
-126.8351521492808
 30
0.0
 10
92.37610132239209
 20
-126.8351521492808
 30
0.0
 10
92.37610132239209
 20
-126.8351521492808
 30
0.0
 10
92.37610132239209
 20
-126.6871852981893
 30
0.0
 10
92.37610132239209
 20
-126.6871852981893
 30
0.0
 10
92.70820852717017
 20
-126.6723713876028
 30
0.0
 10
92.75506182576957
 20
-126.5094183711504
 30
0.0
 10
92.78468964694272
 20
-126.3952134558144
 30
0.0
 10
92.78468964694272
 20
-126.3952134558144
 30
0.0
 10
92.93076169551732
 20
-126.3952134558144
 30
0.0
 10
92.93076169551732
 20
-126.3952134558144
 30
0.0
 10
92.93076169551732
 20
-126.3952134558144
 30
0.0
 10
92.93076169551732
 20
-127.9394775070776
 30
0.0
 10
92.93076169551732
 20
-127.9394775070776
 30
0.0
 10
92.93076169551732
 20
-127.9394775070776
 30
0.0
 10
92.70614146987903
 20
-127.9394775070776
 30
0.0
 10
92.70614146987903
 20
-127.9394775070776
 30
0.0
  0
HATCH
  5
176
330
16E
100
AcDbEntity
  8
_U+30EC_U+30A4_U+30E4_U+30FC 1
 62
   179
420
  2234388
100
AcDbHatch
 10
0.0
 20
0.0
 30
0.0
210
0.0
220
0.0
230
1.0
  2
SOLID
 70
     1
 71
     0
 91
        1
 92
        1
 93
        1
 72
     4
 94
        3
 73
     0
 74
     1
 95
       26
 96
       22
 40
0.0
 40
0.0
 40
0.0
 40
0.0
 40
1.0
 40
1.0
 40
1.0
 40
2.0
 40
2.0
 40
2.0
 40
3.0
 40
3.0
 40
3.0
 40
4.0
 40
4.0
 40
4.0
 40
5.0
 40
5.0
 40
5.0
 40
6.0
 40
6.0
 40
6.0
 40
7.0
 40
7.0
 40
7.0
 40
7.0
 10
92.70614146987903
 20
-127.9394775070776
 10
92.70614146987903
 20
-127.9394775070776
 10
92.70614146987903
 20
-126.8351521492808
 10
92.70614146987903
 20
-126.8351521492808
 10
92.70614146987903
 20
-126.8351521492808
 10
92.37610132239209
 20
-126.8351521492808
 10
92.37610132239209
 20
-126.8351521492808
 10
92.37610132239209
 20
-126.8351521492808
 10
92.37610132239209
 20
-126.6871852981893
 10
92.37610132239209
 20
-126.6871852981893
 10
92.70820852717017
 20
-126.6723713876028
 10
92.75506182576957
 20
-126.5094183711504
 10
92.78468964694272
 20
-126.3952134558144
 10
92.78468964694272
 20
-126.3952134558144
 10
92.93076169551732
 20
-126.3952134558144
 10
92.93076169551732
 20
-126.3952134558144
 10
92.93076169551732
 20
-126.3952134558144
 10
92.93076169551732
 20
-127.9394775070776
 10
92.93076169551732
 20
-127.9394775070776
 10
92.93076169551732
 20
-127.9394775070776
 10
92.70614146987903
 20
-127.9394775070776
 10
92.70614146987903
 20
-127.9394775070776
 97
        0
 97
        0
 75
     2
 76
     1
 98
        0
  0
ENDBLK
  5
171
330
16E
100
AcDbEntity
  8
0
100
AcDbBlockEnd
  0
ENDSEC
  0
SECTION
  2
ENTITIES
  0
SPLINE
  5
41
330
1F
100
AcDbEntity
  8
_U+30EC_U+30A4_U+30E4_U+30FC 1
 62
     7
420
 16777215
370
    25
100
AcDbSpline
210
0.0
220
0.0
230
1.0
 70
     8
 71
     3
 72
     8
 73
     4
 74
     0
 42
0.0000000001
 43
0.0000000001
 12
1.0
 22
0.0
 32
0.0
 13
1.0
 23
0.0
 33
0.0
 40
0.0
 40
0.0
 40
0.0
 40
0.0
 40
1.0
 40
1.0
 40
1.0
 40
1.0
 10
88.9881944221974
 20
-128.1513608012957
 30
0.0
 10
88.9881944221974
 20
-128.4276563567821
 30
0.0
 10
89.21213550178659
 20
-128.6515644122815
 30
0.0
 10
89.48843331096111
 20
-128.6515644122815
 30
0.0
  0
POLYLINE
  5
42
330
1F
100
AcDbEntity
  8
_U+30EC_U+30A4_U+30E4_U+30FC 1
 62
     7
420
 16777215
370
    25
100
AcDb2dPolyline
 66
     1
 10
0.0
 20
0.0
 30
0.0
  0
VERTEX
  5
43
330
42
100
AcDbEntity
  8
_U+30EC_U+30A4_U+30E4_U+30FC 1
 62
     7
420
 16777215
370
    25
100
AcDbVertex
100
AcDb2dVertex
 10
77.18841080853736
 20
-116.4518033042202
 30
0.0
  0
VERTEX
  5
44
330
42
100
AcDbEntity
  8
_U+30EC_U+30A4_U+30E4_U+30FC 1
 62
     7
420
 16777215
370
    25
100
AcDbVertex
100
AcDb2dVertex
 10
77.18841080853736
 20
-136.9160188546596
 30
0.0
  0
SEQEND
  5
45
330
42
100
AcDbEntity
  8
_U+30EC_U+30A4_U+30E4_U+30FC 1
 62
     7
420
 16777215
370
    25
  0
POLYLINE
  5
46
330
1F
100
AcDbEntity
  8
_U+30EC_U+30A4_U+30E4_U+30FC 1
 62
     7
420
 16777215
370
    25
100
AcDb2dPolyline
 66
     1
 10
0.0
 20
0.0
 30
0.0
  0
VERTEX
  5
47
330
46
100
AcDbEntity
  8
_U+30EC_U+30A4_U+30E4_U+30FC 1
 62
     7
420
 16777215
370
    25
100
AcDbVertex
100
AcDb2dVertex
 10
80.72373794056587
 20
-140.4517341315538
 30
0.0
  0
VERTEX
  5
48
330
46
100
AcDbEntity
  8
_U+30EC_U+30A4_U+30E4_U+30FC 1
 62
     7
420
 16777215
370
    25
100
AcDbVertex
100
AcDb2dVertex
 10
106.1885072909055
 20
-140.4517341315538
 30
0.0
  0
SEQEND
  5
49
330
46
100
AcDbEntity
  8
_U+30EC_U+30A4_U+30E4_U+30FC 1
 62
     7
420
 16777215
370
    25
  0
POLYLINE
  5
4A
330
1F
100
AcDbEntity
  8
_U+30EC_U+30A4_U+30E4_U+30FC 1
 62
     7
420
 16777215
370
    25
100
AcDb2dPolyline
 66
     1
 10
0.0
 20
0.0
 30
0.0
  0
VERTEX
  5
4B
330
4A
100
AcDbEntity
  8
_U+30EC_U+30A4_U+30E4_U+30FC 1
 62
     7
420
 16777215
370
    25
100
AcDbVertex
100
AcDb2dVertex
 10
77.18841080853736
 20
-136.9160188546596
 30
0.0
  0
VERTEX
  5
4C
330
4A
100
AcDbEntity
  8
_U+30EC_U+30A4_U+30E4_U+30FC 1
 62
     7
420
 16777215
370
    25
100
AcDbVertex
100
AcDb2dVertex
 10
80.72373794056587
 20
-140.4517341315538
 30
0.0
  0
SEQEND
  5
4D
330
4A
100
AcDbEntity
  8
_U+30EC_U+30A4_U+30E4_U+30FC 1
 62
     7
420
 16777215
370
    25
  0
POLYLINE
  5
4E
330
1F
100
AcDbEntity
  8
_U+30EC_U+30A4_U+30E4_U+30FC 1
 62
     7
420
 16777215
370
    25
100
AcDb2dPolyline
 66
     1
 10
0.0
 20
0.0
 30
0.0
  0
VERTEX
  5
4F
330
4E
100
AcDbEntity
  8
_U+30EC_U+30A4_U+30E4_U+30FC 1
 62
     7
420
 16777215
370
    25
100
AcDbVertex
100
AcDb2dVertex
 10
98.68855776002292
 20
-139.6517752428651
 30
0.0
  0
VERTEX
  5
50
330
4E
100
AcDbEntity
  8
_U+30EC_U+30A4_U+30E4_U+30FC 1
 62
     7
420
 16777215
370
    25
100
AcDbVertex
100
AcDb2dVertex
 10
105.9797360846165
 20
-139.6517752428651
 30
0.0
  0
SEQEND
  5
51
330
4E
100
AcDbEntity
  8
_U+30EC_U+30A4_U+30E4_U+30FC 1
 62
     7
420
 16777215
370
    25
  0
POLYLINE
  5
52
330
1F
100
AcDbEntity
  8
_U+30EC_U+30A4_U+30E4_U+30FC 1
 62
     7
420
 16777215
370
    25
100
AcDb2dPolyline
 66
     1
 10
0.0
 20
0.0
 30
0.0
  0
VERTEX
  5
53
330
52
100
AcDbEntity
  8
_U+30EC_U+30A4_U+30E4_U+30FC 1
 62
     7
420
 16777215
370
    25
100
AcDbVertex
100
AcDb2dVertex
 10
81.13818331304864
 20
-139.4516091318035
 30
0.0
  0
VERTEX
  5
54
330
52
100
AcDbEntity
  8
_U+30EC_U+30A4_U+30E4_U+30FC 1
 62
     7
420
 16777215
370
    25
100
AcDbVertex
100
AcDb2dVertex
 10
98.34195360219886
 20
-139.4516091318035
 30
0.0
  0
SEQEND
  5
55
330
52
100
AcDbEntity
  8
_U+30EC_U+30A4_U+30E4_U+30FC 1
 62
     7
420
 16777215
370
    25
  0
POLYLINE
  5
56
330
1F
100
AcDbEntity
  8
_U+30EC_U+30A4_U+30E4_U+30FC 1
 62
     7
420
 16777215
370
    25
100
AcDb2dPolyline
 66
     1
 10
0.0
 20
0.0
 30
0.0
  0
VERTEX
  5
57
330
56
100
AcDbEntity
  8
_U+30EC_U+30A4_U+30E4_U+30FC 1
 62
     7
420
 16777215
370
    25
100
AcDbVertex
100
AcDb2dVertex
 10
78.18850050524517
 20
-136.501928299208
 30
0.0
  0
VERTEX
  5
58
330
56
100
AcDbEntity
  8
_U+30EC_U+30A4_U+30E4_U+30FC 1
 62
     7
420
 16777215
370
    25
100
AcDbVertex
100
AcDb2dVertex
 10
79.30987519885873
 20
-137.62330302115
 30
0.0
  0
SEQEND
  5
59
330
56
100
AcDbEntity
  8
_U+30EC_U+30A4_U+30E4_U+30FC 1
 62
     7
420
 16777215
370
    25
  0
POLYLINE
  5
5A
330
1F
100
AcDbEntity
  8
_U+30EC_U+30A4_U+30E4_U+30FC 1
 62
     7
420
 16777215
370
    25
100
AcDb2dPolyline
 66
     1
 10
0.0
 20
0.0
 30
0.0
  0
VERTEX
  5
5B
330
5A
100
AcDbEntity
  8
_U+30EC_U+30A4_U+30E4_U+30FC 1
 62
     7
420
 16777215
370
    25
100
AcDbVertex
100
AcDb2dVertex
 10
98.34195360219886
 20
-139.4516091318035
 30
0.0
  0
VERTEX
  5
5C
330
5A
100
AcDbEntity
  8
_U+30EC_U+30A4_U+30E4_U+30FC 1
 62
     7
420
 16777215
370
    25
100
AcDbVertex
100
AcDb2dVertex
 10
98.68855776002292
 20
-139.6517752428651
 30
0.0
  0
SEQEND
  5
5D
330
5A
100
AcDbEntity
  8
_U+30EC_U+30A4_U+30E4_U+30FC 1
 62
     7
420
 16777215
370
    25
  0
POLYLINE
  5
5E
330
1F
100
AcDbEntity
  8
_U+30EC_U+30A4_U+30E4_U+30FC 1
 62
     7
420
 16777215
370
    25
100
AcDb2dPolyline
 66
     1
 10
0.0
 20
0.0
 30
0.0
  0
VERTEX
  5
5F
330
5E
100
AcDbEntity
  8
_U+30EC_U+30A4_U+30E4_U+30FC 1
 62
     7
420
 16777215
370
    25
100
AcDbVertex
100
AcDb2dVertex
 10
78.18850050524517
 20
-124.2980044133699
 30
0.0
  0
VERTEX
  5
60
330
5E
100
AcDbEntity
  8
_U+30EC_U+30A4_U+30E4_U+30FC 1
 62
     7
420
 16777215
370
    25
100
AcDbVertex
100
AcDb2dVertex
 10
78.18850050524517
 20
-136.501928299208
 30
0.0
  0
SEQEND
  5
61
330
5E
100
AcDbEntity
  8
_U+30EC_U+30A4_U+30E4_U+30FC 1
 62
     7
420
 16777215
370
    25
  0
POLYLINE
  5
62
330
1F
100
AcDbEntity
  8
_U+30EC_U+30A4_U+30E4_U+30FC 1
 62
     7
420
 16777215
370
    25
100
AcDb2dPolyline
 66
     1
 10
0.0
 20
0.0
 30
0.0
  0
VERTEX
  5
63
330
62
100
AcDbEntity
  8
_U+30EC_U+30A4_U+30E4_U+30FC 1
 62
     7
420
 16777215
370
    25
100
AcDbVertex
100
AcDb2dVertex
 10
77.98833439924071
 20
-116.6599069152796
 30
0.0
  0
VERTEX
  5
64
330
62
100
AcDbEntity
  8
_U+30EC_U+30A4_U+30E4_U+30FC 1
 62
     7
420
 16777215
370
    25
100
AcDbVertex
100
AcDb2dVertex
 10
77.98833439924071
 20
-123.9517883023455
 30
0.0
  0
SEQEND
  5
65
330
62
100
AcDbEntity
  8
_U+30EC_U+30A4_U+30E4_U+30FC 1
 62
     7
420
 16777215
370
    25
  0
POLYLINE
  5
66
330
1F
100
AcDbEntity
  8
_U+30EC_U+30A4_U+30E4_U+30FC 1
 62
     7
420
 16777215
370
    25
100
AcDb2dPolyline
 66
     1
 10
0.0
 20
0.0
 30
0.0
  0
VERTEX
  5
67
330
66
100
AcDbEntity
  8
_U+30EC_U+30A4_U+30E4_U+30FC 1
 62
     7
420
 16777215
370
    25
100
AcDbVertex
100
AcDb2dVertex
 10
77.98833439924071
 20
-123.9517883023455
 30
0.0
  0
VERTEX
  5
68
330
66
100
AcDbEntity
  8
_U+30EC_U+30A4_U+30E4_U+30FC 1
 62
     7
420
 16777215
370
    25
100
AcDbVertex
100
AcDb2dVertex
 10
78.18850050524517
 20
-124.2980044133699
 30
0.0
  0
SEQEND
  5
69
330
66
100
AcDbEntity
  8
_U+30EC_U+30A4_U+30E4_U+30FC 1
 62
     7
420
 16777215
370
    25
  0
POLYLINE
  5
6A
330
1F
100
AcDbEntity
  8
_U+30EC_U+30A4_U+30E4_U+30FC 1
 62
     7
420
 16777215
370
    25
100
AcDb2dPolyline
 66
     1
 10
0.0
 20
0.0
 30
0.0
  0
VERTEX
  5
6B
330
6A
100
AcDbEntity
  8
_U+30EC_U+30A4_U+30E4_U+30FC 1
 62
     7
420
 16777215
370
    25
100
AcDbVertex
100
AcDb2dVertex
 10
87.98842220022517
 20
-128.9444052455414
 30
0.0
  0
VERTEX
  5
6C
330
6A
100
AcDbEntity
  8
_U+30EC_U+30A4_U+30E4_U+30FC 1
 62
     7
420
 16777215
370
    25
100
AcDbVertex
100
AcDb2dVertex
 10
79.30987519885873
 20
-137.62330302115
 30
0.0
  0
SEQEND
  5
6D
330
6A
100
AcDbEntity
  8
_U+30EC_U+30A4_U+30E4_U+30FC 1
 62
     7
420
 16777215
370
    25
  0
POLYLINE
  5
6E
330
1F
100
AcDbEntity
  8
_U+30EC_U+30A4_U+30E4_U+30FC 1
 62
     7
420
 16777215
370
    25
100
AcDb2dPolyline
 66
     1
 10
0.0
 20
0.0
 30
0.0
  0
VERTEX
  5
6F
330
6E
100
AcDbEntity
  8
_U+30EC_U+30A4_U+30E4_U+30FC 1
 62
     7
420
 16777215
370
    25
100
AcDbVertex
100
AcDb2dVertex
 10
88.69535134830419
 20
-129.6516894120318
 30
0.0
  0
VERTEX
  5
70
330
6E
100
AcDbEntity
  8
_U+30EC_U+30A4_U+30E4_U+30FC 1
 62
     7
420
 16777215
370
    25
100
AcDbVertex
100
AcDb2dVertex
 10
80.0168065697123
 20
-138.3302344098621
 30
0.0
  0
SEQEND
  5
71
330
6E
100
AcDbEntity
  8
_U+30EC_U+30A4_U+30E4_U+30FC 1
 62
     7
420
 16777215
370
    25
  0
POLYLINE
  5
72
330
1F
100
AcDbEntity
  8
_U+30EC_U+30A4_U+30E4_U+30FC 1
 62
     7
420
 16777215
370
    25
100
AcDb2dPolyline
 66
     1
 10
0.0
 20
0.0
 30
0.0
  0
VERTEX
  5
73
330
72
100
AcDbEntity
  8
_U+30EC_U+30A4_U+30E4_U+30FC 1
 62
     7
420
 16777215
370
    25
100
AcDbVertex
100
AcDb2dVertex
 10
80.0168065697123
 20
-138.3302344098621
 30
0.0
  0
VERTEX
  5
74
330
72
100
AcDbEntity
  8
_U+30EC_U+30A4_U+30E4_U+30FC 1
 62
     7
420
 16777215
370
    25
100
AcDbVertex
100
AcDb2dVertex
 10
81.13818331304864
 20
-139.4516091318035
 30
0.0
  0
SEQEND
  5
75
330
72
100
AcDbEntity
  8
_U+30EC_U+30A4_U+30E4_U+30FC 1
 62
     7
420
 16777215
370
    25
  0
POLYLINE
  5
76
330
1F
100
AcDbEntity
  8
_U+30EC_U+30A4_U+30E4_U+30FC 1
 62
     7
420
 16777215
370
    25
100
AcDb2dPolyline
 66
     1
 10
0.0
 20
0.0
 30
0.0
  0
VERTEX
  5
77
330
76
100
AcDbEntity
  8
_U+30EC_U+30A4_U+30E4_U+30FC 1
 62
     7
420
 16777215
370
    25
100
AcDbVertex
100
AcDb2dVertex
 10
88.69535134830419
 20
-129.6516894120318
 30
0.0
  0
VERTEX
  5
78
330
76
100
AcDbEntity
  8
_U+30EC_U+30A4_U+30E4_U+30FC 1
 62
     7
420
 16777215
370
    25
100
AcDbVertex
100
AcDb2dVertex
 10
95.98829088446801
 20
-129.6516894120318
 30
0.0
  0
SEQEND
  5
79
330
76
100
AcDbEntity
  8
_U+30EC_U+30A4_U+30E4_U+30FC 1
 62
     7
420
 16777215
370
    25
  0
POLYLINE
  5
7A
330
1F
100
AcDbEntity
  8
_U+30EC_U+30A4_U+30E4_U+30FC 1
 62
     7
420
 16777215
370
    25
100
AcDb2dPolyline
 66
     1
 10
0.0
 20
0.0
 30
0.0
  0
VERTEX
  5
7B
330
7A
100
AcDbEntity
  8
_U+30EC_U+30A4_U+30E4_U+30FC 1
 62
     7
420
 16777215
370
    25
100
AcDbVertex
100
AcDb2dVertex
 10
87.98842220022517
 20
-121.6518183029203
 30
0.0
  0
VERTEX
  5
7C
330
7A
100
AcDbEntity
  8
_U+30EC_U+30A4_U+30E4_U+30FC 1
 62
     7
420
 16777215
370
    25
100
AcDbVertex
100
AcDb2dVertex
 10
87.98842220022517
 20
-128.9444052455414
 30
0.0
  0
SEQEND
  5
7D
330
7A
100
AcDbEntity
  8
_U+30EC_U+30A4_U+30E4_U+30FC 1
 62
     7
420
 16777215
370
    25
  0
POLYLINE
  5
7E
330
1F
100
AcDbEntity
  8
_U+30EC_U+30A4_U+30E4_U+30FC 1
 62
     7
420
 16777215
370
    25
100
AcDb2dPolyline
 66
     1
 10
0.0
 20
0.0
 30
0.0
  0
VERTEX
  5
7F
330
7E
100
AcDbEntity
  8
_U+30EC_U+30A4_U+30E4_U+30FC 1
 62
     7
420
 16777215
370
    25
100
AcDbVertex
100
AcDb2dVertex
 10
89.48843331096111
 20
-128.6515644122815
 30
0.0
  0
VERTEX
  5
80
330
7E
100
AcDbEntity
  8
_U+30EC_U+30A4_U+30E4_U+30FC 1
 62
     7
420
 16777215
370
    25
100
AcDbVertex
100
AcDb2dVertex
 10
95.63826478228681
 20
-128.6515644122815
 30
0.0
  0
SEQEND
  5
81
330
7E
100
AcDbEntity
  8
_U+30EC_U+30A4_U+30E4_U+30FC 1
 62
     7
420
 16777215
370
    25
  0
POLYLINE
  5
82
330
1F
100
AcDbEntity
  8
_U+30EC_U+30A4_U+30E4_U+30FC 1
 62
     7
420
 16777215
370
    25
100
AcDb2dPolyline
 66
     1
 10
0.0
 20
0.0
 30
0.0
  0
VERTEX
  5
83
330
82
100
AcDbEntity
  8
_U+30EC_U+30A4_U+30E4_U+30FC 1
 62
     7
420
 16777215
370
    25
100
AcDbVertex
100
AcDb2dVertex
 10
88.98854719997516
 20
-122.0018444139441
 30
0.0
  0
VERTEX
  5
84
330
82
100
AcDbEntity
  8
_U+30EC_U+30A4_U+30E4_U+30FC 1
 62
     7
420
 16777215
370
    25
100
AcDbVertex
100
AcDb2dVertex
 10
88.98854719997516
 20
-128.1516783012956
 30
0.0
  0
SEQEND
  5
85
330
82
100
AcDbEntity
  8
_U+30EC_U+30A4_U+30E4_U+30FC 1
 62
     7
420
 16777215
370
    25
  0
SPLINE
  5
86
330
1F
100
AcDbEntity
  8
_U+30EC_U+30A4_U+30E4_U+30FC 1
 62
     7
420
 16777215
370
    25
100
AcDbSpline
210
0.0
220
0.0
230
1.0
 70
     8
 71
     3
 72
     8
 73
     4
 74
     0
 42
0.0000000001
 43
0.0000000001
 12
1.0
 22
0.0
 32
0.0
 13
1.0
 23
0.0
 33
0.0
 40
0.0
 40
0.0
 40
0.0
 40
0.0
 40
1.0
 40
1.0
 40
1.0
 40
1.0
 10
88.98854719997516
 20
-122.0018444139441
 30
0.0
 10
88.70879442226712
 20
-121.7672471917805
 30
0.0
 10
88.35326274592047
 20
-121.642893025145
 30
0.0
 10
87.98842220022517
 20
-121.6518183029203
 30
0.0
  0
SPLINE
  5
87
330
1F
100
AcDbEntity
  8
_U+30EC_U+30A4_U+30E4_U+30FC 1
 62
     7
420
 16777215
370
    25
100
AcDbSpline
210
0.0
220
0.0
230
1.0
 70
     8
 71
     3
 72
     8
 73
     4
 74
     0
 42
0.0000000001
 43
0.0000000001
 12
1.0
 22
0.0
 32
0.0
 13
1.0
 23
0.0
 33
0.0
 40
0.0
 40
0.0
 40
0.0
 40
0.0
 40
1.0
 40
1.0
 40
1.0
 40
1.0
 10
95.98829088446801
 20
-129.6516894120318
 30
0.0
 10
95.99725143979497
 20
-129.2868466343452
 30
0.0
 10
95.87286199852396
 20
-128.9313171899892
 30
0.0
 10
95.63826478228681
 20
-128.6515644122815
 30
0.0
  0
SPLINE
  5
88
330
1F
100
AcDbEntity
  8
_U+30EC_U+30A4_U+30E4_U+30FC 1
 62
     7
420
 16777215
370
    25
100
AcDbSpline
210
0.0
220
0.0
230
1.0
 70
     8
 71
     3
 72
     8
 73
     4
 74
     0
 42
0.0000000001
 43
0.0000000001
 12
1.0
 22
0.0
 32
0.0
 13
1.0
 23
0.0
 33
0.0
 40
0.0
 40
0.0
 40
0.0
 40
0.0
 40
1.0
 40
1.0
 40
1.0
 40
1.0
 10
106.1885072909055
 20
-140.4517341315538
 30
0.0
 10
106.1950689574047
 20
-140.1706055205132
 30
0.0
 10
106.1230670147972
 20
-139.8936044094712
 30
0.0
 10
105.9797360846165
 20
-139.6517752428651
 30
0.0
  0
SPLINE
  5
89
330
1F
100
AcDbEntity
  8
_U+30EC_U+30A4_U+30E4_U+30FC 1
 62
     7
420
 16777215
370
    25
100
AcDbSpline
210
0.0
220
0.0
230
1.0
 70
     8
 71
     3
 72
     8
 73
     4
 74
     0
 42
0.0000000001
 43
0.0000000001
 12
1.0
 22
0.0
 32
0.0
 13
1.0
 23
0.0
 33
0.0
 40
0.0
 40
0.0
 40
0.0
 40
0.0
 40
1.0
 40
1.0
 40
1.0
 40
1.0
 10
77.98833439924071
 20
-116.6599069152796
 30
0.0
 10
77.74650523874362
 20
-116.5172788597597
 30
0.0
 10
77.4695041346994
 20
-116.4449241375555
 30
0.0
 10
77.18841080853736
 20
-116.4518033042202
 30
0.0
  0
SPLINE
  5
8A
330
1F
100
AcDbEntity
  8
_U+30EC_U+30A4_U+30E4_U+30FC 1
 62
     7
420
 16777215
370
    25
100
AcDbSpline
210
0.0
220
0.0
230
1.0
 70
    11
 71
     3
 72
    17
 73
    13
 74
     0
 42
0.0000000001
 43
0.0000000001
 12
1.0
 22
0.0
 32
0.0
 13
1.0
 23
0.0
 33
0.0
 40
0.0
 40
0.0
 40
0.0
 40
0.0
 40
1.0
 40
1.0
 40
1.0
 40
2.0
 40
2.0
 40
2.0
 40
3.0
 40
3.0
 40
3.0
 40
4.0
 40
4.0
 40
4.0
 40
4.0
 10
88.08832664156844
 20
-125.6515774685872
 30
0.0
 10
88.08832664156844
 20
-125.5964735797119
 30
0.0
 10
88.04355914271056
 20
-125.5516708019455
 30
0.0
 10
87.98842220022517
 20
-125.5516708019455
 30
0.0
 10
87.93296331219877
 20
-125.5516708019455
 30
0.0
 10
87.888160535564
 20
-125.5964735797119
 30
0.0
 10
87.888160535564
 20
-125.6515774685872
 30
0.0
 10
87.888160535564
 20
-125.7067166352399
 30
0.0
 10
87.93296331219877
 20
-125.7514841352288
 30
0.0
 10
87.98842220022517
 20
-125.7514841352288
 30
0.0
 10
88.04355914271056
 20
-125.7514841352288
 30
0.0
 10
88.08832664156844
 20
-125.7067166352399
 30
0.0
 10
88.08832664156844
 20
-125.6515774685872
 30
0.0
  0
SPLINE
  5
8B
330
1F
100
AcDbEntity
  8
_U+30EC_U+30A4_U+30E4_U+30FC 1
 62
     7
420
 16777215
370
    25
100
AcDbSpline
210
0.0
220
0.0
230
1.0
 70
    11
 71
     3
 72
    17
 73
    13
 74
     0
 42
0.0000000001
 43
0.0000000001
 12
1.0
 22
0.0
 32
0.0
 13
1.0
 23
0.0
 33
0.0
 40
0.0
 40
0.0
 40
0.0
 40
0.0
 40
1.0
 40
1.0
 40
1.0
 40
2.0
 40
2.0
 40
2.0
 40
3.0
 40
3.0
 40
3.0
 40
4.0
 40
4.0
 40
4.0
 40
4.0
 10
89.08845161605313
 20
-125.6515774685872
 30
0.0
 10
89.08845161605313
 20
-125.5964735797119
 30
0.0
 10
89.04364883941837
 20
-125.5516708019455
 30
0.0
 10
88.98854719997516
 20
-125.5516708019455
 30
0.0
 10
88.93308828668346
 20
-125.5516708019455
 30
0.0
 10
88.88828551004869
 20
-125.5964735797119
 30
0.0
 10
88.88828551004869
 20
-125.6515774685872
 30
0.0
 10
88.88828551004869
 20
-125.7067166352399
 30
0.0
 10
88.93308828668346
 20
-125.7514841352288
 30
0.0
 10
88.98854719997516
 20
-125.7514841352288
 30
0.0
 10
89.04364883941837
 20
-125.7514841352288
 30
0.0
 10
89.08845161605313
 20
-125.7067166352399
 30
0.0
 10
89.08845161605313
 20
-125.6515774685872
 30
0.0
  0
SPLINE
  5
8C
330
1F
100
AcDbEntity
  8
_U+30EC_U+30A4_U+30E4_U+30FC 1
 62
     7
420
 16777215
370
     9
100
AcDbSpline
210
0.0
220
0.0
230
1.0
 70
    11
 71
     3
 72
    17
 73
    13
 74
     0
 42
0.0000000001
 43
0.0000000001
 12
1.0
 22
0.0
 32
0.0
 13
1.0
 23
0.0
 33
0.0
 40
0.0
 40
0.0
 40
0.0
 40
0.0
 40
1.0
 40
1.0
 40
1.0
 40
2.0
 40
2.0
 40
2.0
 40
3.0
 40
3.0
 40
3.0
 40
4.0
 40
4.0
 40
4.0
 40
4.0
 10
73.28855840803088
 20
-116.4518033042202
 30
0.0
 10
73.28855840803088
 20
-116.3966994153453
 30
0.0
 10
73.24375563139611
 20
-116.3518966375786
 30
0.0
 10
73.18865174391304
 20
-116.3518966375786
 30
0.0
 10
73.13315980088431
 20
-116.3518966375786
 30
0.0
 10
73.08839230202643
 20
-116.3966994153453
 30
0.0
 10
73.08839230202643
 20
-116.4518033042202
 30
0.0
 10
73.08839230202643
 20
-116.5069424708733
 30
0.0
 10
73.13315980088431
 20
-116.5517099708622
 30
0.0
 10
73.18865174391304
 20
-116.5517099708622
 30
0.0
 10
73.24375563139611
 20
-116.5517099708622
 30
0.0
 10
73.28855840803088
 20
-116.5069424708733
 30
0.0
 10
73.28855840803088
 20
-116.4518033042202
 30
0.0
  0
SPLINE
  5
8D
330
1F
100
AcDbEntity
  8
_U+30EC_U+30A4_U+30E4_U+30FC 1
 62
     7
420
 16777215
370
     9
100
AcDbSpline
210
0.0
220
0.0
230
1.0
 70
    11
 71
     3
 72
    17
 73
    13
 74
     0
 42
0.0000000001
 43
0.0000000001
 12
1.0
 22
0.0
 32
0.0
 13
1.0
 23
0.0
 33
0.0
 40
0.0
 40
0.0
 40
0.0
 40
0.0
 40
1.0
 40
1.0
 40
1.0
 40
2.0
 40
2.0
 40
2.0
 40
3.0
 40
3.0
 40
3.0
 40
4.0
 40
4.0
 40
4.0
 40
4.0
 10
73.28855840803088
 20
-140.4517341315538
 30
0.0
 10
73.28855840803088
 20
-140.3965949649007
 30
0.0
 10
73.24375563139611
 20
-140.3518274649121
 30
0.0
 10
73.18865174391304
 20
-140.3518274649121
 30
0.0
 10
73.13315980088431
 20
-140.3518274649121
 30
0.0
 10
73.08839230202643
 20
-140.3965949649007
 30
0.0
 10
73.08839230202643
 20
-140.4517341315538
 30
0.0
 10
73.08839230202643
 20
-140.5068380204287
 30
0.0
 10
73.13315980088431
 20
-140.5516407981954
 30
0.0
 10
73.18865174391304
 20
-140.5516407981954
 30
0.0
 10
73.24375563139611
 20
-140.5516407981954
 30
0.0
 10
73.28855840803088
 20
-140.5068380204287
 30
0.0
 10
73.28855840803088
 20
-140.4517341315538
 30
0.0
  0
SPLINE
  5
8E
330
1F
100
AcDbEntity
  8
_U+30EC_U+30A4_U+30E4_U+30FC 1
 62
     7
420
 16777215
370
     9
100
AcDbSpline
210
0.0
220
0.0
230
1.0
 70
    11
 71
     3
 72
    17
 73
    13
 74
     0
 42
0.0000000001
 43
0.0000000001
 12
1.0
 22
0.0
 32
0.0
 13
1.0
 23
0.0
 33
0.0
 40
0.0
 40
0.0
 40
0.0
 40
0.0
 40
1.0
 40
1.0
 40
1.0
 40
2.0
 40
2.0
 40
2.0
 40
3.0
 40
3.0
 40
3.0
 40
4.0
 40
4.0
 40
4.0
 40
4.0
 10
71.63145539475154
 20
-142.5728810754677
 30
0.0
 10
71.63145539475154
 20
-142.5177419088153
 30
0.0
 10
71.58700539588556
 20
-142.472974408826
 30
0.0
 10
71.53154873063372
 20
-142.472974408826
 30
0.0
 10
71.47644484315065
 20
-142.472974408826
 30
0.0
 10
71.43164206651588
 20
-142.5177419088153
 30
0.0
 10
71.43164206651588
 20
-142.5728810754677
 30
0.0
 10
71.43164206651588
 20
-142.628337742121
 30
0.0
 10
71.47644484315065
 20
-142.6731052421096
 30
0.0
 10
71.53154873063372
 20
-142.6731052421096
 30
0.0
 10
71.58700539588556
 20
-142.6731052421096
 30
0.0
 10
71.63145539475154
 20
-142.628337742121
 30
0.0
 10
71.63145539475154
 20
-142.5728810754677
 30
0.0
  0
SPLINE
  5
8F
330
1F
100
AcDbEntity
  8
_U+30EC_U+30A4_U+30E4_U+30FC 1
 62
     7
420
 16777215
370
     9
100
AcDbSpline
210
0.0
220
0.0
230
1.0
 70
    11
 71
     3
 72
    17
 73
    13
 74
     0
 42
0.0000000001
 43
0.0000000001
 12
1.0
 22
0.0
 32
0.0
 13
1.0
 23
0.0
 33
0.0
 40
0.0
 40
0.0
 40
0.0
 40
0.0
 40
1.0
 40
1.0
 40
1.0
 40
2.0
 40
2.0
 40
2.0
 40
3.0
 40
3.0
 40
3.0
 40
4.0
 40
4.0
 40
4.0
 40
4.0
 10
75.16717058232571
 20
-146.1085610745837
 30
0.0
 10
75.16717058232571
 20
-146.0534571857088
 30
0.0
 10
75.12236780569096
 20
-146.0086544079421
 30
0.0
 10
75.06726391820789
 20
-146.0086544079421
 30
0.0
 10
75.01177197517916
 20
-146.0086544079421
 30
0.0
 10
74.96700447632126
 20
-146.0534571857088
 30
0.0
 10
74.96700447632126
 20
-146.1085610745837
 30
0.0
 10
74.96700447632126
 20
-146.1637002412368
 30
0.0
 10
75.01177197517916
 20
-146.2084677412253
 30
0.0
 10
75.06726391820789
 20
-146.2084677412253
 30
0.0
 10
75.12236780569096
 20
-146.2084677412253
 30
0.0
 10
75.16717058232571
 20
-146.1637002412368
 30
0.0
 10
75.16717058232571
 20
-146.1085610745837
 30
0.0
  0
SPLINE
  5
90
330
1F
100
AcDbEntity
  8
_U+30EC_U+30A4_U+30E4_U+30FC 1
 62
     7
420
 16777215
370
     9
100
AcDbSpline
210
0.0
220
0.0
230
1.0
 70
    11
 71
     3
 72
    17
 73
    13
 74
     0
 42
0.0000000001
 43
0.0000000001
 12
1.0
 22
0.0
 32
0.0
 13
1.0
 23
0.0
 33
0.0
 40
0.0
 40
0.0
 40
0.0
 40
0.0
 40
1.0
 40
1.0
 40
1.0
 40
2.0
 40
2.0
 40
2.0
 40
3.0
 40
3.0
 40
3.0
 40
4.0
 40
4.0
 40
4.0
 40
4.0
 10
77.28831942512238
 20
-144.4518107972203
 30
0.0
 10
77.28831942512238
 20
-144.3963541305676
 30
0.0
 10
77.24386942513343
 20
-144.3515513528009
 30
0.0
 10
77.18841080853736
 20
-144.3515513528009
 30
0.0
 10
77.13327164327741
 20
-144.3515513528009
 30
0.0
 10
77.08850414441952
 20
-144.3963541305676
 30
0.0
 10
77.08850414441952
 20
-144.4518107972203
 30
0.0
 10
77.08850414441952
 20
-144.5069499638734
 30
0.0
 10
77.13327164327741
 20
-144.5517174638619
 30
0.0
 10
77.18841080853736
 20
-144.5517174638619
 30
0.0
 10
77.24386942513343
 20
-144.5517174638619
 30
0.0
 10
77.28831942512238
 20
-144.5069499638734
 30
0.0
 10
77.28831942512238
 20
-144.4518107972203
 30
0.0
  0
SPLINE
  5
91
330
1F
100
AcDbEntity
  8
_U+30EC_U+30A4_U+30E4_U+30FC 1
 62
     7
420
 16777215
370
     9
100
AcDbSpline
210
0.0
220
0.0
230
1.0
 70
    11
 71
     3
 72
    17
 73
    13
 74
     0
 42
0.0000000001
 43
0.0000000001
 12
1.0
 22
0.0
 32
0.0
 13
1.0
 23
0.0
 33
0.0
 40
0.0
 40
0.0
 40
0.0
 40
0.0
 40
1.0
 40
1.0
 40
1.0
 40
2.0
 40
2.0
 40
2.0
 40
3.0
 40
3.0
 40
3.0
 40
4.0
 40
4.0
 40
4.0
 40
4.0
 10
100.0882741132021
 20
-121.6518183029203
 30
0.0
 10
100.0882741132021
 20
-121.5963616362676
 30
0.0
 10
100.0435066143442
 20
-121.5515941362787
 30
0.0
 10
99.98836744908422
 20
-121.5515941362787
 30
0.0
 10
99.93326356160115
 20
-121.5515941362787
 30
0.0
 10
99.8884607849664
 20
-121.5963616362676
 30
0.0
 10
99.8884607849664
 20
-121.6518183029203
 30
0.0
 10
99.8884607849664
 20
-121.7069574695734
 30
0.0
 10
99.93326356160115
 20
-121.7517249695619
 30
0.0
 10
99.98836744908422
 20
-121.7517249695619
 30
0.0
 10
100.0435066143442
 20
-121.7517249695619
 30
0.0
 10
100.0882741132021
 20
-121.7069574695734
 30
0.0
 10
100.0882741132021
 20
-121.6518183029203
 30
0.0
  0
SPLINE
  5
92
330
1F
100
AcDbEntity
  8
_U+30EC_U+30A4_U+30E4_U+30FC 1
 62
     7
420
 16777215
370
     9
100
AcDbSpline
210
0.0
220
0.0
230
1.0
 70
    11
 71
     3
 72
    17
 73
    13
 74
     0
 42
0.0000000001
 43
0.0000000001
 12
1.0
 22
0.0
 32
0.0
 13
1.0
 23
0.0
 33
0.0
 40
0.0
 40
0.0
 40
0.0
 40
0.0
 40
1.0
 40
1.0
 40
1.0
 40
2.0
 40
2.0
 40
2.0
 40
3.0
 40
3.0
 40
3.0
 40
4.0
 40
4.0
 40
4.0
 40
4.0
 10
96.08855275375579
 20
-117.6517416372538
 30
0.0
 10
96.08855275375579
 20
-117.5962849706008
 30
0.0
 10
96.04374997598907
 20
-117.5514821928344
 30
0.0
 10
95.98829088446801
 20
-117.5514821928344
 30
0.0
 10
95.93315171920807
 20
-117.5514821928344
 30
0.0
 10
95.88838422035018
 20
-117.5962849706008
 30
0.0
 10
95.88838422035018
 20
-117.6517416372538
 30
0.0
 10
95.88838422035018
 20
-117.7068455261287
 30
0.0
 10
95.93315171920807
 20
-117.7516483038955
 30
0.0
 10
95.98829088446801
 20
-117.7516483038955
 30
0.0
 10
96.04374997598907
 20
-117.7516483038955
 30
0.0
 10
96.08855275375579
 20
-117.7068455261287
 30
0.0
 10
96.08855275375579
 20
-117.6517416372538
 30
0.0
  0
SPLINE
  5
93
330
1F
100
AcDbEntity
  8
_U+30EC_U+30A4_U+30E4_U+30FC 1
 62
     7
420
 16777215
370
     9
100
AcDbSpline
210
0.0
220
0.0
230
1.0
 70
    11
 71
     3
 72
    17
 73
    13
 74
     0
 42
0.0000000001
 43
0.0000000001
 12
1.0
 22
0.0
 32
0.0
 13
1.0
 23
0.0
 33
0.0
 40
0.0
 40
0.0
 40
0.0
 40
0.0
 40
1.0
 40
1.0
 40
1.0
 40
2.0
 40
2.0
 40
2.0
 40
3.0
 40
3.0
 40
3.0
 40
4.0
 40
4.0
 40
4.0
 40
4.0
 10
89.08845161605313
 20
-117.6517416372538
 30
0.0
 10
89.08845161605313
 20
-117.5962849706008
 30
0.0
 10
89.04364883941837
 20
-117.5514821928344
 30
0.0
 10
88.98854719997516
 20
-117.5514821928344
 30
0.0
 10
88.93308828668346
 20
-117.5514821928344
 30
0.0
 10
88.88828551004869
 20
-117.5962849706008
 30
0.0
 10
88.88828551004869
 20
-117.6517416372538
 30
0.0
 10
88.88828551004869
 20
-117.7068455261287
 30
0.0
 10
88.93308828668346
 20
-117.7516483038955
 30
0.0
 10
88.98854719997516
 20
-117.7516483038955
 30
0.0
 10
89.04364883941837
 20
-117.7516483038955
 30
0.0
 10
89.08845161605313
 20
-117.7068455261287
 30
0.0
 10
89.08845161605313
 20
-117.6517416372538
 30
0.0
  0
SPLINE
  5
94
330
1F
100
AcDbEntity
  8
_U+30EC_U+30A4_U+30E4_U+30FC 1
 62
     7
420
 16777215
370
     9
100
AcDbSpline
210
0.0
220
0.0
230
1.0
 70
    11
 71
     3
 72
    17
 73
    13
 74
     0
 42
0.0000000001
 43
0.0000000001
 12
1.0
 22
0.0
 32
0.0
 13
1.0
 23
0.0
 33
0.0
 40
0.0
 40
0.0
 40
0.0
 40
0.0
 40
1.0
 40
1.0
 40
1.0
 40
2.0
 40
2.0
 40
2.0
 40
3.0
 40
3.0
 40
3.0
 40
4.0
 40
4.0
 40
4.0
 40
4.0
 10
78.08859384112733
 20
-112.451373860776
 30
0.0
 10
78.08859384112733
 20
-112.3962346941232
 30
0.0
 10
78.04382634226944
 20
-112.3514671941343
 30
0.0
 10
77.98833439924071
 20
-112.3514671941343
 30
0.0
 10
77.93323051175764
 20
-112.3514671941343
 30
0.0
 10
77.88842773512289
 20
-112.3962346941232
 30
0.0
 10
77.88842773512289
 20
-112.451373860776
 30
0.0
 10
77.88842773512289
 20
-112.5064777496512
 30
0.0
 10
77.93323051175764
 20
-112.5512805274176
 30
0.0
 10
77.98833439924071
 20
-112.5512805274176
 30
0.0
 10
78.04382634226944
 20
-112.5512805274176
 30
0.0
 10
78.08859384112733
 20
-112.5064777496512
 30
0.0
 10
78.08859384112733
 20
-112.451373860776
 30
0.0
  0
SPLINE
  5
95
330
1F
100
AcDbEntity
  8
_U+30EC_U+30A4_U+30E4_U+30FC 1
 62
     7
420
 16777215
370
     9
100
AcDbSpline
210
0.0
220
0.0
230
1.0
 70
    11
 71
     3
 72
    17
 73
    13
 74
     0
 42
0.0000000001
 43
0.0000000001
 12
1.0
 22
0.0
 32
0.0
 13
1.0
 23
0.0
 33
0.0
 40
0.0
 40
0.0
 40
0.0
 40
0.0
 40
1.0
 40
1.0
 40
1.0
 40
2.0
 40
2.0
 40
2.0
 40
3.0
 40
3.0
 40
3.0
 40
4.0
 40
4.0
 40
4.0
 40
4.0
 10
77.28831942512238
 20
-112.451373860776
 30
0.0
 10
77.28831942512238
 20
-112.3962346941232
 30
0.0
 10
77.24386942513343
 20
-112.3514671941343
 30
0.0
 10
77.18841080853736
 20
-112.3514671941343
 30
0.0
 10
77.13327164327741
 20
-112.3514671941343
 30
0.0
 10
77.08850414441952
 20
-112.3962346941232
 30
0.0
 10
77.08850414441952
 20
-112.451373860776
 30
0.0
 10
77.08850414441952
 20
-112.5064777496512
 30
0.0
 10
77.13327164327741
 20
-112.5512805274176
 30
0.0
 10
77.18841080853736
 20
-112.5512805274176
 30
0.0
 10
77.24386942513343
 20
-112.5512805274176
 30
0.0
 10
77.28831942512238
 20
-112.5064777496512
 30
0.0
 10
77.28831942512238
 20
-112.451373860776
 30
0.0
  0
SPLINE
  5
96
330
1F
100
AcDbEntity
  8
_U+30EC_U+30A4_U+30E4_U+30FC 1
 62
     7
420
 16777215
370
     9
100
AcDbSpline
210
0.0
220
0.0
230
1.0
 70
    11
 71
     3
 72
    17
 73
    13
 74
     0
 42
0.0000000001
 43
0.0000000001
 12
1.0
 22
0.0
 32
0.0
 13
1.0
 23
0.0
 33
0.0
 40
0.0
 40
0.0
 40
0.0
 40
0.0
 40
1.0
 40
1.0
 40
1.0
 40
2.0
 40
2.0
 40
2.0
 40
3.0
 40
3.0
 40
3.0
 40
4.0
 40
4.0
 40
4.0
 40
4.0
 10
110.2885257974164
 20
-139.6517752428651
 30
0.0
 10
110.2885257974164
 20
-139.5963185762118
 30
0.0
 10
110.2437610835503
 20
-139.5515157984458
 30
0.0
 10
110.1882663555298
 20
-139.5515157984458
 30
0.0
 10
110.1331624680467
 20
-139.5515157984458
 30
0.0
 10
110.088359691412
 20
-139.5963185762118
 30
0.0
 10
110.088359691412
 20
-139.6517752428651
 30
0.0
 10
110.088359691412
 20
-139.7068791317401
 30
0.0
 10
110.1331624680467
 20
-139.7516819095068
 30
0.0
 10
110.1882663555298
 20
-139.7516819095068
 30
0.0
 10
110.2437610835503
 20
-139.7516819095068
 30
0.0
 10
110.2885257974164
 20
-139.7068791317401
 30
0.0
 10
110.2885257974164
 20
-139.6517752428651
 30
0.0
  0
SPLINE
  5
97
330
1F
100
AcDbEntity
  8
_U+30EC_U+30A4_U+30E4_U+30FC 1
 62
     7
420
 16777215
370
     9
100
AcDbSpline
210
0.0
220
0.0
230
1.0
 70
    11
 71
     3
 72
    17
 73
    13
 74
     0
 42
0.0000000001
 43
0.0000000001
 12
1.0
 22
0.0
 32
0.0
 13
1.0
 23
0.0
 33
0.0
 40
0.0
 40
0.0
 40
0.0
 40
0.0
 40
1.0
 40
1.0
 40
1.0
 40
2.0
 40
2.0
 40
2.0
 40
3.0
 40
3.0
 40
3.0
 40
4.0
 40
4.0
 40
4.0
 40
4.0
 10
106.2884166400949
 20
-144.4518107972203
 30
0.0
 10
106.2884166400949
 20
-144.3963541305676
 30
0.0
 10
106.2436464561654
 20
-144.3515513528009
 30
0.0
 10
106.1885072909055
 20
-144.3515513528009
 30
0.0
 10
106.1330506256536
 20
-144.3515513528009
 30
0.0
 10
106.0882831267957
 20
-144.3963541305676
 30
0.0
 10
106.0882831267957
 20
-144.4518107972203
 30
0.0
 10
106.0882831267957
 20
-144.5069499638734
 30
0.0
 10
106.1330506256536
 20
-144.5517174638619
 30
0.0
 10
106.1885072909055
 20
-144.5517174638619
 30
0.0
 10
106.2436464561654
 20
-144.5517174638619
 30
0.0
 10
106.2884166400949
 20
-144.5069499638734
 30
0.0
 10
106.2884166400949
 20
-144.4518107972203
 30
0.0
  0
SPLINE
  5
98
330
1F
100
AcDbEntity
  8
_U+30EC_U+30A4_U+30E4_U+30FC 1
 62
     7
420
 16777215
370
     9
100
AcDbSpline
210
0.0
220
0.0
230
1.0
 70
    11
 71
     3
 72
    17
 73
    13
 74
     0
 42
0.0000000001
 43
0.0000000001
 12
1.0
 22
0.0
 32
0.0
 13
1.0
 23
0.0
 33
0.0
 40
0.0
 40
0.0
 40
0.0
 40
0.0
 40
1.0
 40
1.0
 40
1.0
 40
2.0
 40
2.0
 40
2.0
 40
3.0
 40
3.0
 40
3.0
 40
4.0
 40
4.0
 40
4.0
 40
4.0
 10
110.2885257974164
 20
-129.6516894120318
 30
0.0
 10
110.2885257974164
 20
-129.5962327453785
 30
0.0
 10
110.2437610835503
 20
-129.5514299676124
 30
0.0
 10
110.1882663555298
 20
-129.5514299676124
 30
0.0
 10
110.1331624680467
 20
-129.5514299676124
 30
0.0
 10
110.088359691412
 20
-129.5962327453785
 30
0.0
 10
110.088359691412
 20
-129.6516894120318
 30
0.0
 10
110.088359691412
 20
-129.7068285786843
 30
0.0
 10
110.1331624680467
 20
-129.7515960786735
 30
0.0
 10
110.1882663555298
 20
-129.7515960786735
 30
0.0
 10
110.2437610835503
 20
-129.7515960786735
 30
0.0
 10
110.2885257974164
 20
-129.7068285786843
 30
0.0
 10
110.2885257974164
 20
-129.6516894120318
 30
0.0
  0
POLYLINE
  5
99
330
1F
100
AcDbEntity
  8
_U+30EC_U+30A4_U+30E4_U+30FC 1
 62
     7
420
 16777215
370
     9
100
AcDb2dPolyline
 66
     1
 10
0.0
 20
0.0
 30
0.0
  0
VERTEX
  5
9A
330
99
100
AcDbEntity
  8
_U+30EC_U+30A4_U+30E4_U+30FC 1
 62
     7
420
 16777215
370
     9
100
AcDbVertex
100
AcDb2dVertex
 10
88.9881944221974
 20
-117.6517416372538
 30
0.0
  0
VERTEX
  5
9B
330
99
100
AcDbEntity
  8
_U+30EC_U+30A4_U+30E4_U+30FC 1
 62
     7
420
 16777215
370
     9
100
AcDbVertex
100
AcDb2dVertex
 10
95.98829088446801
 20
-117.6517416372538
 30
0.0
  0
SEQEND
  5
9C
330
99
100
AcDbEntity
  8
_U+30EC_U+30A4_U+30E4_U+30FC 1
 62
     7
420
 16777215
370
     9
  0
POLYLINE
  5
9D
330
1F
100
AcDbEntity
  8
_U+30EC_U+30A4_U+30E4_U+30FC 1
 62
     7
420
 16777215
370
     9
100
AcDb2dPolyline
 66
     1
 10
0.0
 20
0.0
 30
0.0
  0
VERTEX
  5
9E
330
9D
100
AcDbEntity
  8
_U+30EC_U+30A4_U+30E4_U+30FC 1
 62
     7
420
 16777215
370
     9
100
AcDbVertex
100
AcDb2dVertex
 10
88.98854719997516
 20
-119.1114302480001
 30
0.0
  0
VERTEX
  5
9F
330
9D
100
AcDbEntity
  8
_U+30EC_U+30A4_U+30E4_U+30FC 1
 62
     7
420
 16777215
370
     9
100
AcDbVertex
100
AcDb2dVertex
 10
88.98854719997516
 20
-116.6516166375038
 30
0.0
  0
SEQEND
  5
A0
330
9D
100
AcDbEntity
  8
_U+30EC_U+30A4_U+30E4_U+30FC 1
 62
     7
420
 16777215
370
     9
  0
POLYLINE
  5
A1
330
1F
100
AcDbEntity
  8
_U+30EC_U+30A4_U+30E4_U+30FC 1
 62
     7
420
 16777215
370
     9
100
AcDb2dPolyline
 66
     1
 10
0.0
 20
0.0
 30
0.0
  0
VERTEX
  5
A2
330
A1
100
AcDbEntity
  8
_U+30EC_U+30A4_U+30E4_U+30FC 1
 62
     7
420
 16777215
370
     9
100
AcDbVertex
100
AcDb2dVertex
 10
95.98829088446801
 20
-127.1116188571109
 30
0.0
  0
VERTEX
  5
A3
330
A1
100
AcDbEntity
  8
_U+30EC_U+30A4_U+30E4_U+30FC 1
 62
     7
420
 16777215
370
     9
100
AcDbVertex
100
AcDb2dVertex
 10
95.98829088446801
 20
-116.6516166375038
 30
0.0
  0
SEQEND
  5
A4
330
A1
100
AcDbEntity
  8
_U+30EC_U+30A4_U+30E4_U+30FC 1
 62
     7
420
 16777215
370
     9
  0
INSERT
  5
A6
330
1F
100
AcDbEntity
  8
_U+30EC_U+30A4_U+30E4_U+30FC 1
100
AcDbBlockReference
  2
block 2
 10
0.0
 20
0.0
 30
0.0
  0
POLYLINE
  5
AB
330
1F
100
AcDbEntity
  8
_U+30EC_U+30A4_U+30E4_U+30FC 1
 62
     7
420
 16777215
370
     9
100
AcDb2dPolyline
 66
     1
 10
0.0
 20
0.0
 30
0.0
  0
VERTEX
  5
AC
330
AB
100
AcDbEntity
  8
_U+30EC_U+30A4_U+30E4_U+30FC 1
 62
     7
420
 16777215
370
     9
100
AcDbVertex
100
AcDb2dVertex
 10
99.98836744908422
 20
-121.6518183029203
 30
0.0
  0
VERTEX
  5
AD
330
AB
100
AcDbEntity
  8
_U+30EC_U+30A4_U+30E4_U+30FC 1
 62
     7
420
 16777215
370
     9
100
AcDbVertex
100
AcDb2dVertex
 10
99.98836744908422
 20
-128.6519171900593
 30
0.0
  0
SEQEND
  5
AE
330
AB
100
AcDbEntity
  8
_U+30EC_U+30A4_U+30E4_U+30FC 1
 62
     7
420
 16777215
370
     9
  0
POLYLINE
  5
AF
330
1F
100
AcDbEntity
  8
_U+30EC_U+30A4_U+30E4_U+30FC 1
 62
     7
420
 16777215
370
     9
100
AcDb2dPolyline
 66
     1
 10
0.0
 20
0.0
 30
0.0
  0
VERTEX
  5
B0
330
AF
100
AcDbEntity
  8
_U+30EC_U+30A4_U+30E4_U+30FC 1
 62
     7
420
 16777215
370
     9
100
AcDbVertex
100
AcDb2dVertex
 10
90.52849046820357
 20
-121.6518183029203
 30
0.0
  0
VERTEX
  5
B1
330
AF
100
AcDbEntity
  8
_U+30EC_U+30A4_U+30E4_U+30FC 1
 62
     7
420
 16777215
370
     9
100
AcDbVertex
100
AcDb2dVertex
 10
100.9884924235689
 20
-121.6518183029203
 30
0.0
  0
SEQEND
  5
B2
330
AF
100
AcDbEntity
  8
_U+30EC_U+30A4_U+30E4_U+30FC 1
 62
     7
420
 16777215
370
     9
  0
POLYLINE
  5
B3
330
1F
100
AcDbEntity
  8
_U+30EC_U+30A4_U+30E4_U+30FC 1
 62
     7
420
 16777215
370
     9
100
AcDb2dPolyline
 66
     1
 10
0.0
 20
0.0
 30
0.0
  0
VERTEX
  5
B4
330
B3
100
AcDbEntity
  8
_U+30EC_U+30A4_U+30E4_U+30FC 1
 62
     7
420
 16777215
370
     9
100
AcDbVertex
100
AcDb2dVertex
 10
98.52836386425669
 20
-129.6516894120318
 30
0.0
  0
VERTEX
  5
B5
330
B3
100
AcDbEntity
  8
_U+30EC_U+30A4_U+30E4_U+30FC 1
 62
     7
420
 16777215
370
     9
100
AcDbVertex
100
AcDb2dVertex
 10
100.9884924235689
 20
-129.6516894120318
 30
0.0
  0
SEQEND
  5
B6
330
B3
100
AcDbEntity
  8
_U+30EC_U+30A4_U+30E4_U+30FC 1
 62
     7
420
 16777215
370
     9
  0
INSERT
  5
B8
330
1F
100
AcDbEntity
  8
_U+30EC_U+30A4_U+30E4_U+30FC 1
100
AcDbBlockReference
  2
block 3
 10
0.0
 20
0.0
 30
0.0
  0
POLYLINE
  5
BD
330
1F
100
AcDbEntity
  8
_U+30EC_U+30A4_U+30E4_U+30FC 1
 62
     7
420
 16777215
370
     9
100
AcDb2dPolyline
 66
     1
 10
0.0
 20
0.0
 30
0.0
  0
VERTEX
  5
BE
330
BD
100
AcDbEntity
  8
_U+30EC_U+30A4_U+30E4_U+30FC 1
 62
     7
420
 16777215
370
     9
100
AcDbVertex
100
AcDb2dVertex
 10
88.98854719997516
 20
-125.6515774685872
 30
0.0
  0
VERTEX
  5
BF
330
BD
100
AcDbEntity
  8
_U+30EC_U+30A4_U+30E4_U+30FC 1
 62
     7
420
 16777215
370
     9
100
AcDbVertex
100
AcDb2dVertex
 10
92.75885735574661
 20
-125.6515774685872
 30
0.0
  0
SEQEND
  5
C0
330
BD
100
AcDbEntity
  8
_U+30EC_U+30A4_U+30E4_U+30FC 1
 62
     7
420
 16777215
370
     9
  0
POLYLINE
  5
C1
330
1F
100
AcDbEntity
  8
_U+30EC_U+30A4_U+30E4_U+30FC 1
 62
     7
420
 16777215
370
     9
100
AcDb2dPolyline
 66
     1
 10
0.0
 20
0.0
 30
0.0
  0
VERTEX
  5
C2
330
C1
100
AcDbEntity
  8
_U+30EC_U+30A4_U+30E4_U+30FC 1
 62
     7
420
 16777215
370
     9
100
AcDbVertex
100
AcDb2dVertex
 10
88.98854719997516
 20
-125.6515774685872
 30
0.0
  0
VERTEX
  5
C3
330
C1
100
AcDbEntity
  8
_U+30EC_U+30A4_U+30E4_U+30FC 1
 62
     7
420
 16777215
370
     9
100
AcDbVertex
100
AcDb2dVertex
 10
86.9883302807428
 20
-125.6515774685872
 30
0.0
  0
SEQEND
  5
C4
330
C1
100
AcDbEntity
  8
_U+30EC_U+30A4_U+30E4_U+30FC 1
 62
     7
420
 16777215
370
     9
  0
POLYLINE
  5
C5
330
1F
100
AcDbEntity
  8
_U+30EC_U+30A4_U+30E4_U+30FC 1
 62
     7
420
 16777215
370
     9
100
AcDb2dPolyline
 66
     1
 10
0.0
 20
0.0
 30
0.0
  0
VERTEX
  5
C6
330
C5
100
AcDbEntity
  8
_U+30EC_U+30A4_U+30E4_U+30FC 1
 62
     7
420
 16777215
370
     9
100
AcDbVertex
100
AcDb2dVertex
 10
88.98854719997516
 20
-128.1916480235078
 30
0.0
  0
VERTEX
  5
C7
330
C5
100
AcDbEntity
  8
_U+30EC_U+30A4_U+30E4_U+30FC 1
 62
     7
420
 16777215
370
     9
100
AcDbVertex
100
AcDb2dVertex
 10
88.98854719997516
 20
-125.6526358019201
 30
0.0
  0
SEQEND
  5
C8
330
C5
100
AcDbEntity
  8
_U+30EC_U+30A4_U+30E4_U+30FC 1
 62
     7
420
 16777215
370
     9
  0
POLYLINE
  5
C9
330
1F
100
AcDbEntity
  8
_U+30EC_U+30A4_U+30E4_U+30FC 1
 62
     7
420
 16777215
370
     9
100
AcDb2dPolyline
 66
     1
 10
0.0
 20
0.0
 30
0.0
  0
VERTEX
  5
CA
330
C9
100
AcDbEntity
  8
_U+30EC_U+30A4_U+30E4_U+30FC 1
 62
     7
420
 16777215
370
     9
100
AcDbVertex
100
AcDb2dVertex
 10
87.98842220022517
 20
-128.1916480235078
 30
0.0
  0
VERTEX
  5
CB
330
C9
100
AcDbEntity
  8
_U+30EC_U+30A4_U+30E4_U+30FC 1
 62
     7
420
 16777215
370
     9
100
AcDbVertex
100
AcDb2dVertex
 10
87.98842220022517
 20
-125.6526358019201
 30
0.0
  0
SEQEND
  5
CC
330
C9
100
AcDbEntity
  8
_U+30EC_U+30A4_U+30E4_U+30FC 1
 62
     7
420
 16777215
370
     9
  0
INSERT
  5
CE
330
1F
100
AcDbEntity
  8
_U+30EC_U+30A4_U+30E4_U+30FC 1
100
AcDbBlockReference
  2
block 4
 10
0.0
 20
0.0
 30
0.0
  0
POLYLINE
  5
D3
330
1F
100
AcDbEntity
  8
_U+30EC_U+30A4_U+30E4_U+30FC 1
 62
     7
420
 16777215
370
     9
100
AcDb2dPolyline
 66
     1
 10
0.0
 20
0.0
 30
0.0
  0
VERTEX
  5
D4
330
D3
100
AcDbEntity
  8
_U+30EC_U+30A4_U+30E4_U+30FC 1
 62
     7
420
 16777215
370
     9
100
AcDbVertex
100
AcDb2dVertex
 10
75.06726391820789
 20
-146.1085610745837
 30
0.0
  0
VERTEX
  5
D5
330
D3
100
AcDbEntity
  8
_U+30EC_U+30A4_U+30E4_U+30FC 1
 62
     7
420
 16777215
370
     9
100
AcDbVertex
100
AcDb2dVertex
 10
71.53154873063372
 20
-142.5728810754677
 30
0.0
  0
SEQEND
  5
D6
330
D3
100
AcDbEntity
  8
_U+30EC_U+30A4_U+30E4_U+30FC 1
 62
     7
420
 16777215
370
     9
  0
POLYLINE
  5
D7
330
1F
100
AcDbEntity
  8
_U+30EC_U+30A4_U+30E4_U+30FC 1
 62
     7
420
 16777215
370
     9
100
AcDb2dPolyline
 66
     1
 10
0.0
 20
0.0
 30
0.0
  0
VERTEX
  5
D8
330
D7
100
AcDbEntity
  8
_U+30EC_U+30A4_U+30E4_U+30FC 1
 62
     7
420
 16777215
370
     9
100
AcDbVertex
100
AcDb2dVertex
 10
78.92781687527253
 20
-142.2476552422159
 30
0.0
  0
VERTEX
  5
D9
330
D7
100
AcDbEntity
  8
_U+30EC_U+30A4_U+30E4_U+30FC 1
 62
     7
420
 16777215
370
     9
100
AcDbVertex
100
AcDb2dVertex
 10
74.35997976958554
 20
-146.8154924632964
 30
0.0
  0
SEQEND
  5
DA
330
D7
100
AcDbEntity
  8
_U+30EC_U+30A4_U+30E4_U+30FC 1
 62
     7
420
 16777215
370
     9
  0
POLYLINE
  5
DB
330
1F
100
AcDbEntity
  8
_U+30EC_U+30A4_U+30E4_U+30FC 1
 62
     7
420
 16777215
370
     9
100
AcDb2dPolyline
 66
     1
 10
0.0
 20
0.0
 30
0.0
  0
VERTEX
  5
DC
330
DB
100
AcDbEntity
  8
_U+30EC_U+30A4_U+30E4_U+30FC 1
 62
     7
420
 16777215
370
     9
100
AcDbVertex
100
AcDb2dVertex
 10
75.39245446546714
 20
-138.7122927430995
 30
0.0
  0
VERTEX
  5
DD
330
DB
100
AcDbEntity
  8
_U+30EC_U+30A4_U+30E4_U+30FC 1
 62
     7
420
 16777215
370
     9
100
AcDbVertex
100
AcDb2dVertex
 10
70.82461735978015
 20
-143.28012996418
 30
0.0
  0
SEQEND
  5
DE
330
DB
100
AcDbEntity
  8
_U+30EC_U+30A4_U+30E4_U+30FC 1
 62
     7
420
 16777215
370
     9
  0
INSERT
  5
E0
330
1F
100
AcDbEntity
  8
_U+30EC_U+30A4_U+30E4_U+30FC 1
100
AcDbBlockReference
  2
block 5
 10
0.0
 20
0.0
 30
0.0
  0
POLYLINE
  5
E5
330
1F
100
AcDbEntity
  8
_U+30EC_U+30A4_U+30E4_U+30FC 1
 62
     7
420
 16777215
370
     9
100
AcDb2dPolyline
 66
     1
 10
0.0
 20
0.0
 30
0.0
  0
VERTEX
  5
E6
330
E5
100
AcDbEntity
  8
_U+30EC_U+30A4_U+30E4_U+30FC 1
 62
     7
420
 16777215
370
     9
100
AcDbVertex
100
AcDb2dVertex
 10
77.98833439924071
 20
-112.451373860776
 30
0.0
  0
VERTEX
  5
E7
330
E5
100
AcDbEntity
  8
_U+30EC_U+30A4_U+30E4_U+30FC 1
 62
     7
420
 16777215
370
     9
100
AcDbVertex
100
AcDb2dVertex
 10
83.2462400984337
 20
-112.451373860776
 30
0.0
  0
SEQEND
  5
E8
330
E5
100
AcDbEntity
  8
_U+30EC_U+30A4_U+30E4_U+30FC 1
 62
     7
420
 16777215
370
     9
  0
POLYLINE
  5
E9
330
1F
100
AcDbEntity
  8
_U+30EC_U+30A4_U+30E4_U+30FC 1
 62
     7
420
 16777215
370
     9
100
AcDb2dPolyline
 66
     1
 10
0.0
 20
0.0
 30
0.0
  0
VERTEX
  5
EA
330
E9
100
AcDbEntity
  8
_U+30EC_U+30A4_U+30E4_U+30FC 1
 62
     7
420
 16777215
370
     9
100
AcDbVertex
100
AcDb2dVertex
 10
76.18863861182145
 20
-112.451373860776
 30
0.0
  0
VERTEX
  5
EB
330
E9
100
AcDbEntity
  8
_U+30EC_U+30A4_U+30E4_U+30FC 1
 62
     7
420
 16777215
370
     9
100
AcDbVertex
100
AcDb2dVertex
 10
77.98833439924071
 20
-112.451373860776
 30
0.0
  0
SEQEND
  5
EC
330
E9
100
AcDbEntity
  8
_U+30EC_U+30A4_U+30E4_U+30FC 1
 62
     7
420
 16777215
370
     9
  0
POLYLINE
  5
ED
330
1F
100
AcDbEntity
  8
_U+30EC_U+30A4_U+30E4_U+30FC 1
 62
     7
420
 16777215
370
     9
100
AcDb2dPolyline
 66
     1
 10
0.0
 20
0.0
 30
0.0
  0
VERTEX
  5
EE
330
ED
100
AcDbEntity
  8
_U+30EC_U+30A4_U+30E4_U+30FC 1
 62
     7
420
 16777215
370
     9
100
AcDbVertex
100
AcDb2dVertex
 10
77.18841080853736
 20
-113.9117327492999
 30
0.0
  0
VERTEX
  5
EF
330
ED
100
AcDbEntity
  8
_U+30EC_U+30A4_U+30E4_U+30FC 1
 62
     7
420
 16777215
370
     9
100
AcDbVertex
100
AcDb2dVertex
 10
77.18841080853736
 20
-111.451248861026
 30
0.0
  0
SEQEND
  5
F0
330
ED
100
AcDbEntity
  8
_U+30EC_U+30A4_U+30E4_U+30FC 1
 62
     7
420
 16777215
370
     9
  0
POLYLINE
  5
F1
330
1F
100
AcDbEntity
  8
_U+30EC_U+30A4_U+30E4_U+30FC 1
 62
     7
420
 16777215
370
     9
100
AcDb2dPolyline
 66
     1
 10
0.0
 20
0.0
 30
0.0
  0
VERTEX
  5
F2
330
F1
100
AcDbEntity
  8
_U+30EC_U+30A4_U+30E4_U+30FC 1
 62
     7
420
 16777215
370
     9
100
AcDbVertex
100
AcDb2dVertex
 10
77.98833439924071
 20
-114.1201538603589
 30
0.0
  0
VERTEX
  5
F3
330
F1
100
AcDbEntity
  8
_U+30EC_U+30A4_U+30E4_U+30FC 1
 62
     7
420
 16777215
370
     9
100
AcDbVertex
100
AcDb2dVertex
 10
77.98833439924071
 20
-111.451248861026
 30
0.0
  0
SEQEND
  5
F4
330
F1
100
AcDbEntity
  8
_U+30EC_U+30A4_U+30E4_U+30FC 1
 62
     7
420
 16777215
370
     9
  0
INSERT
  5
F6
330
1F
100
AcDbEntity
  8
_U+30EC_U+30A4_U+30E4_U+30FC 1
100
AcDbBlockReference
  2
block 6
 10
0.0
 20
0.0
 30
0.0
  0
POLYLINE
  5
108
330
1F
100
AcDbEntity
  8
_U+30EC_U+30A4_U+30E4_U+30FC 1
 62
     7
420
 16777215
370
     9
100
AcDb2dPolyline
 66
     1
 10
0.0
 20
0.0
 30
0.0
  0
VERTEX
  5
109
330
108
100
AcDbEntity
  8
_U+30EC_U+30A4_U+30E4_U+30FC 1
 62
     7
420
 16777215
370
     9
100
AcDbVertex
100
AcDb2dVertex
 10
106.1885072909055
 20
-144.4518107972203
 30
0.0
  0
VERTEX
  5
10A
330
108
100
AcDbEntity
  8
_U+30EC_U+30A4_U+30E4_U+30FC 1
 62
     7
420
 16777215
370
     9
100
AcDbVertex
100
AcDb2dVertex
 10
77.18841080853736
 20
-144.4518107972203
 30
0.0
  0
SEQEND
  5
10B
330
108
100
AcDbEntity
  8
_U+30EC_U+30A4_U+30E4_U+30FC 1
 62
     7
420
 16777215
370
     9
  0
POLYLINE
  5
10C
330
1F
100
AcDbEntity
  8
_U+30EC_U+30A4_U+30E4_U+30FC 1
 62
     7
420
 16777215
370
     9
100
AcDb2dPolyline
 66
     1
 10
0.0
 20
0.0
 30
0.0
  0
VERTEX
  5
10D
330
10C
100
AcDbEntity
  8
_U+30EC_U+30A4_U+30E4_U+30FC 1
 62
     7
420
 16777215
370
     9
100
AcDbVertex
100
AcDb2dVertex
 10
106.1885072909055
 20
-142.9918046864741
 30
0.0
  0
VERTEX
  5
10E
330
10C
100
AcDbEntity
  8
_U+30EC_U+30A4_U+30E4_U+30FC 1
 62
     7
420
 16777215
370
     9
100
AcDbVertex
100
AcDb2dVertex
 10
106.1885072909055
 20
-145.4515830191928
 30
0.0
  0
SEQEND
  5
10F
330
10C
100
AcDbEntity
  8
_U+30EC_U+30A4_U+30E4_U+30FC 1
 62
     7
420
 16777215
370
     9
  0
POLYLINE
  5
110
330
1F
100
AcDbEntity
  8
_U+30EC_U+30A4_U+30E4_U+30FC 1
 62
     7
420
 16777215
370
     9
100
AcDb2dPolyline
 66
     1
 10
0.0
 20
0.0
 30
0.0
  0
VERTEX
  5
111
330
110
100
AcDbEntity
  8
_U+30EC_U+30A4_U+30E4_U+30FC 1
 62
     7
420
 16777215
370
     9
100
AcDbVertex
100
AcDb2dVertex
 10
77.18841080853736
 20
-139.4560894095805
 30
0.0
  0
VERTEX
  5
112
330
110
100
AcDbEntity
  8
_U+30EC_U+30A4_U+30E4_U+30FC 1
 62
     7
420
 16777215
370
     9
100
AcDbVertex
100
AcDb2dVertex
 10
77.18841080853736
 20
-145.4515830191928
 30
0.0
  0
SEQEND
  5
113
330
110
100
AcDbEntity
  8
_U+30EC_U+30A4_U+30E4_U+30FC 1
 62
     7
420
 16777215
370
     9
  0
INSERT
  5
115
330
1F
100
AcDbEntity
  8
_U+30EC_U+30A4_U+30E4_U+30FC 1
100
AcDbBlockReference
  2
block 7
 10
0.0
 20
0.0
 30
0.0
  0
POLYLINE
  5
11D
330
1F
100
AcDbEntity
  8
_U+30EC_U+30A4_U+30E4_U+30FC 1
 62
     7
420
 16777215
370
     9
100
AcDb2dPolyline
 66
     1
 10
0.0
 20
0.0
 30
0.0
  0
VERTEX
  5
11E
330
11D
100
AcDbEntity
  8
_U+30EC_U+30A4_U+30E4_U+30FC 1
 62
     7
420
 16777215
370
     9
100
AcDbVertex
100
AcDb2dVertex
 10
73.18865174391304
 20
-116.4518033042202
 30
0.0
  0
VERTEX
  5
11F
330
11D
100
AcDbEntity
  8
_U+30EC_U+30A4_U+30E4_U+30FC 1
 62
     7
420
 16777215
370
     9
100
AcDbVertex
100
AcDb2dVertex
 10
73.18865174391304
 20
-140.4517341315538
 30
0.0
  0
SEQEND
  5
120
330
11D
100
AcDbEntity
  8
_U+30EC_U+30A4_U+30E4_U+30FC 1
 62
     7
420
 16777215
370
     9
  0
POLYLINE
  5
121
330
1F
100
AcDbEntity
  8
_U+30EC_U+30A4_U+30E4_U+30FC 1
 62
     7
420
 16777215
370
     9
100
AcDb2dPolyline
 66
     1
 10
0.0
 20
0.0
 30
0.0
  0
VERTEX
  5
122
330
121
100
AcDbEntity
  8
_U+30EC_U+30A4_U+30E4_U+30FC 1
 62
     7
420
 16777215
370
     9
100
AcDbVertex
100
AcDb2dVertex
 10
74.6483403177844
 20
-116.4518033042202
 30
0.0
  0
VERTEX
  5
123
330
121
100
AcDbEntity
  8
_U+30EC_U+30A4_U+30E4_U+30FC 1
 62
     7
420
 16777215
370
     9
100
AcDbVertex
100
AcDb2dVertex
 10
72.18852676942836
 20
-116.4518033042202
 30
0.0
  0
SEQEND
  5
124
330
121
100
AcDbEntity
  8
_U+30EC_U+30A4_U+30E4_U+30FC 1
 62
     7
420
 16777215
370
     9
  0
POLYLINE
  5
125
330
1F
100
AcDbEntity
  8
_U+30EC_U+30A4_U+30E4_U+30FC 1
 62
     7
420
 16777215
370
     9
100
AcDb2dPolyline
 66
     1
 10
0.0
 20
0.0
 30
0.0
  0
VERTEX
  5
126
330
125
100
AcDbEntity
  8
_U+30EC_U+30A4_U+30E4_U+30FC 1
 62
     7
420
 16777215
370
     9
100
AcDbVertex
100
AcDb2dVertex
 10
78.18402220267615
 20
-140.4517341315538
 30
0.0
  0
VERTEX
  5
127
330
125
100
AcDbEntity
  8
_U+30EC_U+30A4_U+30E4_U+30FC 1
 62
     7
420
 16777215
370
     9
100
AcDbVertex
100
AcDb2dVertex
 10
72.18852676942836
 20
-140.4517341315538
 30
0.0
  0
SEQEND
  5
128
330
125
100
AcDbEntity
  8
_U+30EC_U+30A4_U+30E4_U+30FC 1
 62
     7
420
 16777215
370
     9
  0
INSERT
  5
12A
330
1F
100
AcDbEntity
  8
_U+30EC_U+30A4_U+30E4_U+30FC 1
100
AcDbBlockReference
  2
block 8
 10
0.0
 20
0.0
 30
0.0
  0
POLYLINE
  5
144
330
1F
100
AcDbEntity
  8
_U+30EC_U+30A4_U+30E4_U+30FC 1
 62
     7
420
 16777215
370
     9
100
AcDb2dPolyline
 66
     1
 10
0.0
 20
0.0
 30
0.0
  0
VERTEX
  5
145
330
144
100
AcDbEntity
  8
_U+30EC_U+30A4_U+30E4_U+30FC 1
 62
     7
420
 16777215
370
     9
100
AcDbVertex
100
AcDb2dVertex
 10
110.1882663555298
 20
-139.6517752428651
 30
0.0
  0
VERTEX
  5
146
330
144
100
AcDbEntity
  8
_U+30EC_U+30A4_U+30E4_U+30FC 1
 62
     7
420
 16777215
370
     9
100
AcDbVertex
100
AcDb2dVertex
 10
110.1882663555298
 20
-129.6516894120318
 30
0.0
  0
SEQEND
  5
147
330
144
100
AcDbEntity
  8
_U+30EC_U+30A4_U+30E4_U+30FC 1
 62
     7
420
 16777215
370
     9
  0
POLYLINE
  5
148
330
1F
100
AcDbEntity
  8
_U+30EC_U+30A4_U+30E4_U+30FC 1
 62
     7
420
 16777215
370
     9
100
AcDb2dPolyline
 66
     1
 10
0.0
 20
0.0
 30
0.0
  0
VERTEX
  5
149
330
148
100
AcDbEntity
  8
_U+30EC_U+30A4_U+30E4_U+30FC 1
 62
     7
420
 16777215
370
     9
100
AcDbVertex
100
AcDb2dVertex
 10
108.5198038980958
 20
-139.6517752428651
 30
0.0
  0
VERTEX
  5
14A
330
148
100
AcDbEntity
  8
_U+30EC_U+30A4_U+30E4_U+30FC 1
 62
     7
420
 16777215
370
     9
100
AcDbVertex
100
AcDb2dVertex
 10
111.1883913300145
 20
-139.6517752428651
 30
0.0
  0
SEQEND
  5
14B
330
148
100
AcDbEntity
  8
_U+30EC_U+30A4_U+30E4_U+30FC 1
 62
     7
420
 16777215
370
     9
  0
POLYLINE
  5
14C
330
1F
100
AcDbEntity
  8
_U+30EC_U+30A4_U+30E4_U+30FC 1
 62
     7
420
 16777215
370
     9
100
AcDb2dPolyline
 66
     1
 10
0.0
 20
0.0
 30
0.0
  0
VERTEX
  5
14D
330
14C
100
AcDbEntity
  8
_U+30EC_U+30A4_U+30E4_U+30FC 1
 62
     7
420
 16777215
370
     9
100
AcDbVertex
100
AcDb2dVertex
 10
98.52836386425669
 20
-129.6516894120318
 30
0.0
  0
VERTEX
  5
14E
330
14C
100
AcDbEntity
  8
_U+30EC_U+30A4_U+30E4_U+30FC 1
 62
     7
420
 16777215
370
     9
100
AcDbVertex
100
AcDb2dVertex
 10
111.1883913300145
 20
-129.6516894120318
 30
0.0
  0
SEQEND
  5
14F
330
14C
100
AcDbEntity
  8
_U+30EC_U+30A4_U+30E4_U+30FC 1
 62
     7
420
 16777215
370
     9
  0
SPLINE
  5
150
330
1F
100
AcDbEntity
  8
_U+30EC_U+30A4_U+30E4_U+30FC 1
 62
     7
420
 16777215
370
     9
100
AcDbSpline
210
0.0
220
0.0
230
1.0
 70
    11
 71
     3
 72
    17
 73
    13
 74
     0
 42
0.0000000001
 43
0.0000000001
 12
1.0
 22
0.0
 32
0.0
 13
1.0
 23
0.0
 33
0.0
 40
0.0
 40
0.0
 40
0.0
 40
0.0
 40
1.0
 40
1.0
 40
1.0
 40
2.0
 40
2.0
 40
2.0
 40
3.0
 40
3.0
 40
3.0
 40
4.0
 40
4.0
 40
4.0
 40
4.0
 10
100.0882741132021
 20
-128.7518238567009
 30
0.0
 10
100.0882741132021
 20
-128.6963671900482
 30
0.0
 10
100.0435066143442
 20
-128.6515644122815
 30
0.0
 10
99.98836744908422
 20
-128.6515644122815
 30
0.0
 10
99.93326356160115
 20
-128.6515644122815
 30
0.0
 10
99.8884607849664
 20
-128.6963671900482
 30
0.0
 10
99.8884607849664
 20
-128.7518238567009
 30
0.0
 10
99.8884607849664
 20
-128.806963023354
 30
0.0
 10
99.93326356160115
 20
-128.8517305233426
 30
0.0
 10
99.98836744908422
 20
-128.8517305233426
 30
0.0
 10
100.0435066143442
 20
-128.8517305233426
 30
0.0
 10
100.0882741132021
 20
-128.806963023354
 30
0.0
 10
100.0882741132021
 20
-128.7518238567009
 30
0.0
  0
POLYLINE
  5
151
330
1F
100
AcDbEntity
  8
_U+30EC_U+30A4_U+30E4_U+30FC 1
 62
     7
420
 16777215
370
     9
100
AcDb2dPolyline
 66
     1
 10
0.0
 20
0.0
 30
0.0
  0
VERTEX
  5
152
330
151
100
AcDbEntity
  8
_U+30EC_U+30A4_U+30E4_U+30FC 1
 62
     7
420
 16777215
370
     9
100
AcDbVertex
100
AcDb2dVertex
 10
98.52836386425669
 20
-128.7518238567009
 30
0.0
  0
VERTEX
  5
153
330
151
100
AcDbEntity
  8
_U+30EC_U+30A4_U+30E4_U+30FC 1
 62
     7
420
 16777215
370
     9
100
AcDbVertex
100
AcDb2dVertex
 10
100.9884924235689
 20
-128.7518238567009
 30
0.0
  0
SEQEND
  5
154
330
151
100
AcDbEntity
  8
_U+30EC_U+30A4_U+30E4_U+30FC 1
 62
     7
420
 16777215
370
     9
  0
POLYLINE
  5
155
330
1F
100
AcDbEntity
  8
_U+30EC_U+30A4_U+30E4_U+30FC 1
 62
     7
420
 16777215
370
     9
100
AcDb2dPolyline
 66
     1
 10
0.0
 20
0.0
 30
0.0
  0
VERTEX
  5
156
330
155
100
AcDbEntity
  8
_U+30EC_U+30A4_U+30E4_U+30FC 1
 62
     7
420
 16777215
370
     9
100
AcDbVertex
100
AcDb2dVertex
 10
98.52836386425669
 20
-128.7518238567009
 30
0.0
  0
VERTEX
  5
157
330
155
100
AcDbEntity
  8
_U+30EC_U+30A4_U+30E4_U+30FC 1
 62
     7
420
 16777215
370
     9
100
AcDbVertex
100
AcDb2dVertex
 10
100.9881396458001
 20
-128.7518238567009
 30
0.0
  0
SEQEND
  5
158
330
155
100
AcDbEntity
  8
_U+30EC_U+30A4_U+30E4_U+30FC 1
 62
     7
420
 16777215
370
     9
  0
INSERT
  5
15A
330
1F
100
AcDbEntity
  8
_U+30EC_U+30A4_U+30E4_U+30FC 1
100
AcDbBlockReference
  2
block 9
 10
0.0
 20
0.0
 30
0.0
  0
POLYLINE
  5
162
330
1F
100
AcDbEntity
  8
_U+30EC_U+30A4_U+30E4_U+30FC 1
 62
   179
420
  2234388
370
     9
100
AcDb2dPolyline
 66
     1
 10
0.0
 20
0.0
 30
0.0
  0
VERTEX
  5
163
330
162
100
AcDbEntity
  8
_U+30EC_U+30A4_U+30E4_U+30FC 1
 62
   179
420
  2234388
370
     9
100
AcDbVertex
100
AcDb2dVertex
 10
89.145636892372
 20
-128.3914613567911
 30
0.0
  0
VERTEX
  5
164
330
162
100
AcDbEntity
  8
_U+30EC_U+30A4_U+30E4_U+30FC 1
 62
   179
420
  2234388
370
     9
100
AcDbVertex
100
AcDb2dVertex
 10
89.66721882350977
 20
-127.4881738570167
 30
0.0
  0
SEQEND
  5
165
330
162
100
AcDbEntity
  8
_U+30EC_U+30A4_U+30E4_U+30FC 1
 62
   179
420
  2234388
370
     9
  0
POLYLINE
  5
166
330
1F
100
AcDbEntity
  8
_U+30EC_U+30A4_U+30E4_U+30FC 1
 62
   179
420
  2234388
370
     9
100
AcDb2dPolyline
 66
     1
 10
0.0
 20
0.0
 30
0.0
  0
VERTEX
  5
167
330
166
100
AcDbEntity
  8
_U+30EC_U+30A4_U+30E4_U+30FC 1
 62
   179
420
  2234388
370
     9
100
AcDbVertex
100
AcDb2dVertex
 10
89.145636892372
 20
-128.3914613567911
 30
0.0
  0
VERTEX
  5
168
330
166
100
AcDbEntity
  8
_U+30EC_U+30A4_U+30E4_U+30FC 1
 62
   179
420
  2234388
370
     9
100
AcDbVertex
100
AcDb2dVertex
 10
90.56362713397382
 20
-127.0365124682409
 30
0.0
  0
SEQEND
  5
169
330
166
100
AcDbEntity
  8
_U+30EC_U+30A4_U+30E4_U+30FC 1
 62
   179
420
  2234388
370
     9
  0
POLYLINE
  5
16A
330
1F
100
AcDbEntity
  8
_U+30EC_U+30A4_U+30E4_U+30FC 1
 62
   179
420
  2234388
370
     9
100
AcDb2dPolyline
 66
     1
 10
0.0
 20
0.0
 30
0.0
  0
VERTEX
  5
16B
330
16A
100
AcDbEntity
  8
_U+30EC_U+30A4_U+30E4_U+30FC 1
 62
   179
420
  2234388
370
     9
100
AcDbVertex
100
AcDb2dVertex
 10
89.145636892372
 20
-128.3914613567911
 30
0.0
  0
VERTEX
  5
16C
330
16A
100
AcDbEntity
  8
_U+30EC_U+30A4_U+30E4_U+30FC 1
 62
   179
420
  2234388
370
     9
100
AcDbVertex
100
AcDb2dVertex
 10
90.04825409156653
 20
-127.869879412477
 30
0.0
  0
SEQEND
  5
16D
330
16A
100
AcDbEntity
  8
_U+30EC_U+30A4_U+30E4_U+30FC 1
 62
   179
420
  2234388
370
     9
  0
INSERT
  5
16F
330
1F
100
AcDbEntity
  8
_U+30EC_U+30A4_U+30E4_U+30FC 1
100
AcDbBlockReference
  2
block 10
 10
0.0
 20
0.0
 30
0.0
  0
ENDSEC
  0
SECTION
  2
OBJECTS
  0
DICTIONARY
  5
C
330
0
100
AcDbDictionary
281
     1
  3
ACAD_GROUP
350
D
  3
ACAD_LAYOUT
350
1A
  3
ACAD_MATERIAL
350
3B
  3
ACAD_MLEADERSTYLE
350
178
  3
ACAD_MLINESTYLE
350
17
  3
ACAD_PLOTSETTINGS
350
19
  3
ACAD_PLOTSTYLENAME
350
E
  3
ACAD_TABLESTYLE
350
177
  3
ACAD_VISUALSTYLE
350
2A
  0
SUN
  5
3F
330
29
100
AcDbSun
 90
        1
290
     0
 63
     7
421
 16777215
 40
1.0
291
     1
 91
  2455826
 92
 54000000
292
     0
 70
     2
 71
   256
280
     1
  0
DICTIONARY
  5
D
102
{ACAD_REACTORS
330
C
102
}
330
C
100
AcDbDictionary
281
     1
  0
DICTIONARY
  5
1A
102
{ACAD_REACTORS
330
C
102
}
330
C
100
AcDbDictionary
281
     1
  3
Layout1
350
1E
  3
Layout2
350
26
  3
Model
350
22
  0
DICTIONARY
  5
3B
102
{ACAD_REACTORS
330
C
102
}
330
C
100
AcDbDictionary
281
     1
  3
ByBlock
350
3D
  3
ByLayer
350
3C
  3
Global
350
3E
  0
DICTIONARY
  5
178
102
{ACAD_REACTORS
330
C
102
}
330
C
100
AcDbDictionary
281
     1
  0
DICTIONARY
  5
17
102
{ACAD_REACTORS
330
C
102
}
330
C
100
AcDbDictionary
281
     1
  3
Standard
350
18
  0
DICTIONARY
  5
19
102
{ACAD_REACTORS
330
C
102
}
330
C
100
AcDbDictionary
281
     1
  0
ACDBDICTIONARYWDFLT
  5
E
102
{ACAD_REACTORS
330
C
102
}
330
C
100
AcDbDictionary
281
     1
  3
Normal
350
F
100
AcDbDictionaryWithDefault
340
F
  0
DICTIONARY
  5
177
102
{ACAD_REACTORS
330
C
102
}
330
C
100
AcDbDictionary
281
     1
  0
DICTIONARY
  5
2A
102
{ACAD_REACTORS
330
C
102
}
330
C
100
AcDbDictionary
281
     1
  3
2dWireframe
350
2F
  3
3D Hidden
350
31
  3
3dWireframe
350
30
  3
Basic
350
32
  3
Brighten
350
36
  3
ColorChange
350
3A
  3
Conceptual
350
34
  3
Dim
350
35
  3
Facepattern
350
39
  3
Flat
350
2B
  3
FlatWithEdges
350
2C
  3
Gouraud
350
2D
  3
GouraudWithEdges
350
2E
  3
Linepattern
350
38
  3
Realistic
350
33
  3
Thicken
350
37
  0
LAYOUT
  5
1E
102
{ACAD_REACTORS
330
1A
102
}
330
1A
100
AcDbPlotSettings
  1

  2
none_device
  4

  6

 40
0.0
 41
0.0
 42
0.0
 43
0.0
 44
0.0
 45
0.0
 46
0.0
 47
0.0
 48
0.0
 49
0.0
140
0.0
141
0.0
142
1.0
143
1.0
 70
   688
 72
     0
 73
     0
 74
     5
  7

 75
    16
 76
     0
 77
     2
 78
   300
147
1.0
148
0.0
149
0.0
100
AcDbLayout
  1
Layout1
 70
     1
 71
     1
 10
0.0
 20
0.0
 11
12.0
 21
9.0
 12
0.0
 22
0.0
 32
0.0
 14
1.000000000000000E+20
 24
1.000000000000000E+20
 34
1.000000000000000E+20
 15
-1.000000000000000E+20
 25
-1.000000000000000E+20
 35
-1.000000000000000E+20
146
0.0
 13
0.0
 23
0.0
 33
0.0
 16
1.0
 26
0.0
 36
0.0
 17
0.0
 27
1.0
 37
0.0
 76
     0
330
1B
  0
LAYOUT
  5
26
102
{ACAD_REACTORS
330
1A
102
}
330
1A
100
AcDbPlotSettings
  1

  2
none_device
  4

  6

 40
0.0
 41
0.0
 42
0.0
 43
0.0
 44
0.0
 45
0.0
 46
0.0
 47
0.0
 48
0.0
 49
0.0
140
0.0
141
0.0
142
1.0
143
1.0
 70
   688
 72
     0
 73
     0
 74
     5
  7

 75
    16
 76
     0
 77
     2
 78
   300
147
1.0
148
0.0
149
0.0
100
AcDbLayout
  1
Layout2
 70
     1
 71
     2
 10
0.0
 20
0.0
 11
0.0
 21
0.0
 12
0.0
 22
0.0
 32
0.0
 14
0.0
 24
0.0
 34
0.0
 15
0.0
 25
0.0
 35
0.0
146
0.0
 13
0.0
 23
0.0
 33
0.0
 16
1.0
 26
0.0
 36
0.0
 17
0.0
 27
1.0
 37
0.0
 76
     0
330
23
  0
LAYOUT
  5
22
102
{ACAD_REACTORS
330
1A
102
}
330
1A
100
AcDbPlotSettings
  1

  2
none_device
  4

  6

 40
0.0
 41
0.0
 42
0.0
 43
0.0
 44
0.0
 45
0.0
 46
0.0
 47
0.0
 48
0.0
 49
0.0
140
0.0
141
0.0
142
1.0
143
1.0
 70
  1712
 72
     0
 73
     0
 74
     0
  7

 75
     0
 76
     0
 77
     2
 78
   300
147
1.0
148
0.0
149
0.0
100
AcDbLayout
  1
Model
 70
     1
 71
     0
 10
0.0
 20
0.0
 11
12.0
 21
9.0
 12
0.0
 22
0.0
 32
0.0
 14
1.000000000000000E+20
 24
1.000000000000000E+20
 34
1.000000000000000E+20
 15
-1.000000000000000E+20
 25
-1.000000000000000E+20
 35
-1.000000000000000E+20
146
0.0
 13
0.0
 23
0.0
 33
0.0
 16
1.0
 26
0.0
 36
0.0
 17
0.0
 27
1.0
 37
0.0
 76
     0
330
1F
331
29
  0
MATERIAL
  5
3D
102
{ACAD_REACTORS
330
3B
102
}
330
3B
100
AcDbMaterial
  1
ByBlock
 72
     1
 94
      127
  0
MATERIAL
  5
3C
102
{ACAD_REACTORS
330
3B
102
}
330
3B
100
AcDbMaterial
  1
ByLayer
 72
     1
 94
      127
  0
MATERIAL
  5
3E
102
{ACAD_REACTORS
330
3B
102
}
330
3B
100
AcDbMaterial
  1
Global
 72
     1
 94
      127
  0
MLINESTYLE
  5
18
102
{ACAD_REACTORS
330
17
102
}
330
17
100
AcDbMlineStyle
  2
Standard
 70
     0
  3

 62
   256
 51
90.0
 52
90.0
 71
     2
 49
0.5
 62
   256
  6
BYLAYER
 49
-0.5
 62
   256
  6
BYLAYER
  0
ACDBPLACEHOLDER
  5
F
102
{ACAD_REACTORS
330
E
102
}
330
E
  0
VISUALSTYLE
  5
2F
102
{ACAD_REACTORS
330
2A
102
}
330
2A
100
AcDbVisualStyle
  2
2dWireframe
 70
     4
177
     2
291
     0
 71
     0
176
     1
 72
     2
176
     1
 73
     0
176
     1
 90
        0
176
     1
 40
-0.6
176
     1
 41
-30.0
176
     1
 62
     5
 63
     7
421
 16777215
176
     1
 74
     1
176
     1
 91
        4
176
     1
 64
     7
176
     1
 65
   257
176
     1
 75
     1
176
     1
175
     1
176
     1
 42
1.0
176
     1
 92
        0
176
     1
 66
   257
176
     1
 43
1.0
176
     1
 76
     1
176
     1
 77
     6
176
     1
 78
     2
176
     1
 67
     7
176
     1
 79
     5
176
     1
170
     0
176
     1
171
     0
176
     1
290
     0
176
     1
 93
        1
176
     1
 44
0.0
176
     1
173
     0
176
     1
  0
VISUALSTYLE
  5
31
102
{ACAD_REACTORS
330
2A
102
}
330
2A
100
AcDbVisualStyle
  2
3D Hidden
 70
     6
177
     2
291
     0
 71
     1
176
     1
 72
     2
176
     1
 73
     2
176
     1
 90
        0
176
     1
 40
-0.6
176
     1
 41
-30.0
176
     1
 62
     5
 63
     7
421
 16777215
176
     1
 74
     2
176
     1
 91
        2
176
     1
 64
     7
176
     1
 65
   257
176
     1
 75
     2
176
     1
175
     1
176
     1
 42
40.0
176
     1
 92
        0
176
     1
 66
   257
176
     1
 43
1.0
176
     1
 76
     1
176
     1
 77
     6
176
     1
 78
     2
176
     1
 67
     7
176
     1
 79
     3
176
     1
170
     0
176
     1
171
     0
176
     1
290
     0
176
     1
 93
        1
176
     1
 44
0.0
176
     1
173
     0
176
     1
  0
VISUALSTYLE
  5
30
102
{ACAD_REACTORS
330
2A
102
}
330
2A
100
AcDbVisualStyle
  2
3dWireframe
 70
     5
177
     2
291
     0
 71
     0
176
     1
 72
     2
176
     1
 73
     0
176
     1
 90
        0
176
     1
 40
-0.6
176
     1
 41
-30.0
176
     1
 62
     5
 63
     7
421
 16777215
176
     1
 74
     1
176
     1
 91
        4
176
     1
 64
     7
176
     1
 65
   257
176
     1
 75
     1
176
     1
175
     1
176
     1
 42
1.0
176
     1
 92
        0
176
     1
 66
   257
176
     1
 43
1.0
176
     1
 76
     1
176
     1
 77
     6
176
     1
 78
     2
176
     1
 67
     7
176
     1
 79
     5
176
     1
170
     0
176
     1
171
     0
176
     1
290
     0
176
     1
 93
        1
176
     1
 44
0.0
176
     1
173
     0
176
     1
  0
VISUALSTYLE
  5
32
102
{ACAD_REACTORS
330
2A
102
}
330
2A
100
AcDbVisualStyle
  2
Basic
 70
     7
177
     2
291
     1
 71
     1
176
     1
 72
     0
176
     1
 73
     1
176
     1
 90
        0
176
     1
 40
-0.6
176
     1
 41
-30.0
176
     1
 62
     5
 63
     7
421
 16777215
176
     1
 74
     0
176
     1
 91
        4
176
     1
 64
     7
176
     1
 65
   257
176
     1
 75
     1
176
     1
175
     1
176
     1
 42
1.0
176
     1
 92
        8
176
     1
 66
     7
176
     1
 43
1.0
176
     1
 76
     1
176
     1
 77
     6
176
     1
 78
     2
176
     1
 67
     7
176
     1
 79
     5
176
     1
170
     0
176
     1
171
     0
176
     1
290
     0
176
     1
 93
        1
176
     1
 44
0.0
176
     1
173
     0
176
     1
  0
VISUALSTYLE
  5
36
102
{ACAD_REACTORS
330
2A
102
}
330
2A
100
AcDbVisualStyle
  2
Brighten
 70
    12
177
     2
291
     1
 71
     2
176
     1
 72
     2
176
     1
 73
     0
176
     1
 90
        0
176
     1
 40
-0.6
176
     1
 41
-30.0
176
     1
 62
     5
 63
     7
421
 16777215
176
     1
 74
     1
176
     1
 91
        4
176
     1
 64
     7
176
     1
 65
   257
176
     1
 75
     1
176
     1
175
     1
176
     1
 42
1.0
176
     1
 92
        8
176
     1
 66
     7
176
     1
 43
1.0
176
     1
 76
     1
176
     1
 77
     6
176
     1
 78
     2
176
     1
 67
     7
176
     1
 79
     5
176
     1
170
     0
176
     1
171
     0
176
     1
290
     0
176
     1
 93
        1
176
     1
 44
50.0
176
     1
173
     0
176
     1
  0
VISUALSTYLE
  5
3A
102
{ACAD_REACTORS
330
2A
102
}
330
2A
100
AcDbVisualStyle
  2
ColorChange
 70
    16
177
     2
291
     1
 71
     2
176
     1
 72
     2
176
     1
 73
     3
176
     1
 90
        0
176
     1
 40
-0.6
176
     1
 41
-30.0
176
     1
 62
     5
 63
     8
421
  8421504
176
     1
 74
     1
176
     1
 91
        4
176
     1
 64
     7
176
     1
 65
   257
176
     1
 75
     1
176
     1
175
     1
176
     1
 42
1.0
176
     1
 92
        8
176
     1
 66
     8
424
  8421504
176
     1
 43
1.0
176
     1
 76
     1
176
     1
 77
     6
176
     1
 78
     2
176
     1
 67
     7
176
     1
 79
     5
176
     1
170
     0
176
     1
171
     0
176
     1
290
     0
176
     1
 93
        1
176
     1
 44
0.0
176
     1
173
     0
176
     1
  0
VISUALSTYLE
  5
34
102
{ACAD_REACTORS
330
2A
102
}
330
2A
100
AcDbVisualStyle
  2
Conceptual
 70
     9
177
     2
291
     0
 71
     3
176
     1
 72
     2
176
     1
 73
     0
176
     1
 90
        0
176
     1
 40
-0.6
176
     1
 41
-30.0
176
     1
 62
     5
 63
     7
421
 16777215
176
     1
 74
     2
176
     1
 91
        2
176
     1
 64
     7
176
     1
 65
   257
176
     1
 75
     1
176
     1
175
     1
176
     1
 42
40.0
176
     1
 92
        8
176
     1
 66
     7
176
     1
 43
1.0
176
     1
 76
     1
176
     1
 77
     6
176
     1
 78
     2
176
     1
 67
     7
176
     1
 79
     3
176
     1
170
     0
176
     1
171
     0
176
     1
290
     0
176
     1
 93
        1
176
     1
 44
0.0
176
     1
173
     0
176
     1
  0
VISUALSTYLE
  5
35
102
{ACAD_REACTORS
330
2A
102
}
330
2A
100
AcDbVisualStyle
  2
Dim
 70
    11
177
     2
291
     1
 71
     2
176
     1
 72
     2
176
     1
 73
     0
176
     1
 90
        0
176
     1
 40
-0.6
176
     1
 41
-30.0
176
     1
 62
     5
 63
     7
421
 16777215
176
     1
 74
     1
176
     1
 91
        4
176
     1
 64
     7
176
     1
 65
   257
176
     1
 75
     1
176
     1
175
     1
176
     1
 42
1.0
176
     1
 92
        8
176
     1
 66
     7
176
     1
 43
1.0
176
     1
 76
     1
176
     1
 77
     6
176
     1
 78
     2
176
     1
 67
     7
176
     1
 79
     5
176
     1
170
     0
176
     1
171
     0
176
     1
290
     0
176
     1
 93
        1
176
     1
 44
-50.0
176
     1
173
     0
176
     1
  0
VISUALSTYLE
  5
39
102
{ACAD_REACTORS
330
2A
102
}
330
2A
100
AcDbVisualStyle
  2
Facepattern
 70
    15
177
     2
291
     1
 71
     2
176
     1
 72
     2
176
     1
 73
     0
176
     1
 90
        0
176
     1
 40
-0.6
176
     1
 41
-30.0
176
     1
 62
     5
 63
     7
421
 16777215
176
     1
 74
     1
176
     1
 91
        4
176
     1
 64
     7
176
     1
 65
   257
176
     1
 75
     1
176
     1
175
     1
176
     1
 42
1.0
176
     1
 92
        8
176
     1
 66
     7
176
     1
 43
1.0
176
     1
 76
     1
176
     1
 77
     6
176
     1
 78
     2
176
     1
 67
     7
176
     1
 79
     5
176
     1
170
     0
176
     1
171
     0
176
     1
290
     0
176
     1
 93
        1
176
     1
 44
0.0
176
     1
173
     0
176
     1
  0
VISUALSTYLE
  5
2B
102
{ACAD_REACTORS
330
2A
102
}
330
2A
100
AcDbVisualStyle
  2
Flat
 70
     0
177
     2
291
     1
 71
     2
176
     1
 72
     1
176
     1
 73
     1
176
     1
 90
        2
176
     1
 40
-0.6
176
     1
 41
30.0
176
     1
 62
     5
 63
     7
421
 16777215
176
     1
 74
     0
176
     1
 91
        4
176
     1
 64
     7
176
     1
 65
   257
176
     1
 75
     1
176
     1
175
     1
176
     1
 42
1.0
176
     1
 92
        8
176
     1
 66
     7
176
     1
 43
1.0
176
     1
 76
     1
176
     1
 77
     6
176
     1
 78
     2
176
     1
 67
     7
176
     1
 79
     5
176
     1
170
     0
176
     1
171
     0
176
     1
290
     0
176
     1
 93
       13
176
     1
 44
0.0
176
     1
173
     0
176
     1
  0
VISUALSTYLE
  5
2C
102
{ACAD_REACTORS
330
2A
102
}
330
2A
100
AcDbVisualStyle
  2
FlatWithEdges
 70
     1
177
     2
291
     1
 71
     2
176
     1
 72
     1
176
     1
 73
     1
176
     1
 90
        2
176
     1
 40
-0.6
176
     1
 41
30.0
176
     1
 62
     5
 63
     7
421
 16777215
176
     1
 74
     1
176
     1
 91
        4
176
     1
 64
     7
176
     1
 65
   257
176
     1
 75
     1
176
     1
175
     1
176
     1
 42
1.0
176
     1
 92
        0
176
     1
 66
   257
176
     1
 43
1.0
176
     1
 76
     1
176
     1
 77
     6
176
     1
 78
     2
176
     1
 67
     7
176
     1
 79
     5
176
     1
170
     0
176
     1
171
     0
176
     1
290
     0
176
     1
 93
       13
176
     1
 44
0.0
176
     1
173
     0
176
     1
  0
VISUALSTYLE
  5
2D
102
{ACAD_REACTORS
330
2A
102
}
330
2A
100
AcDbVisualStyle
  2
Gouraud
 70
     2
177
     2
291
     1
 71
     2
176
     1
 72
     2
176
     1
 73
     1
176
     1
 90
        2
176
     1
 40
-0.6
176
     1
 41
30.0
176
     1
 62
     5
 63
     7
421
 16777215
176
     1
 74
     0
176
     1
 91
        4
176
     1
 64
     7
176
     1
 65
   257
176
     1
 75
     1
176
     1
175
     1
176
     1
 42
1.0
176
     1
 92
        0
176
     1
 66
     7
176
     1
 43
1.0
176
     1
 76
     1
176
     1
 77
     6
176
     1
 78
     2
176
     1
 67
     7
176
     1
 79
     5
176
     1
170
     0
176
     1
171
     0
176
     1
290
     0
176
     1
 93
       13
176
     1
 44
0.0
176
     1
173
     0
176
     1
  0
VISUALSTYLE
  5
2E
102
{ACAD_REACTORS
330
2A
102
}
330
2A
100
AcDbVisualStyle
  2
GouraudWithEdges
 70
     3
177
     2
291
     1
 71
     2
176
     1
 72
     2
176
     1
 73
     1
176
     1
 90
        2
176
     1
 40
-0.6
176
     1
 41
30.0
176
     1
 62
     5
 63
     7
421
 16777215
176
     1
 74
     1
176
     1
 91
        4
176
     1
 64
     7
176
     1
 65
   257
176
     1
 75
     1
176
     1
175
     1
176
     1
 42
1.0
176
     1
 92
        0
176
     1
 66
   257
176
     1
 43
1.0
176
     1
 76
     1
176
     1
 77
     6
176
     1
 78
     2
176
     1
 67
     7
176
     1
 79
     5
176
     1
170
     0
176
     1
171
     0
176
     1
290
     0
176
     1
 93
       13
176
     1
 44
0.0
176
     1
173
     0
176
     1
  0
VISUALSTYLE
  5
38
102
{ACAD_REACTORS
330
2A
102
}
330
2A
100
AcDbVisualStyle
  2
Linepattern
 70
    14
177
     2
291
     1
 71
     2
176
     1
 72
     2
176
     1
 73
     0
176
     1
 90
        0
176
     1
 40
-0.6
176
     1
 41
-30.0
176
     1
 62
     5
 63
     7
421
 16777215
176
     1
 74
     1
176
     1
 91
        4
176
     1
 64
     7
176
     1
 65
   257
176
     1
 75
     7
176
     1
175
     7
176
     1
 42
1.0
176
     1
 92
        8
176
     1
 66
     7
176
     1
 43
1.0
176
     1
 76
     1
176
     1
 77
     6
176
     1
 78
     2
176
     1
 67
     7
176
     1
 79
     5
176
     1
170
     0
176
     1
171
     0
176
     1
290
     0
176
     1
 93
        1
176
     1
 44
0.0
176
     1
173
     0
176
     1
  0
VISUALSTYLE
  5
33
102
{ACAD_REACTORS
330
2A
102
}
330
2A
100
AcDbVisualStyle
  2
Realistic
 70
     8
177
     2
291
     0
 71
     2
176
     1
 72
     2
176
     1
 73
     0
176
     1
 90
        0
176
     1
 40
-0.6
176
     1
 41
-30.0
176
     1
 62
     5
 63
     7
421
 16777215
176
     1
 74
     1
176
     1
 91
        0
176
     1
 64
     7
176
     1
 65
   257
176
     1
 75
     1
176
     1
175
     1
176
     1
 42
1.0
176
     1
 92
        8
176
     1
 66
     8
424
  7895160
176
     1
 43
1.0
176
     1
 76
     1
176
     1
 77
     6
176
     1
 78
     2
176
     1
 67
     7
176
     1
 79
     5
176
     1
170
     0
176
     1
171
     0
176
     1
290
     0
176
     1
 93
       13
176
     1
 44
0.0
176
     1
173
     0
176
     1
  0
VISUALSTYLE
  5
37
102
{ACAD_REACTORS
330
2A
102
}
330
2A
100
AcDbVisualStyle
  2
Thicken
 70
    13
177
     2
291
     1
 71
     2
176
     1
 72
     2
176
     1
 73
     0
176
     1
 90
        0
176
     1
 40
-0.6
176
     1
 41
-30.0
176
     1
 62
     5
 63
     7
421
 16777215
176
     1
 74
     1
176
     1
 91
        4
176
     1
 64
     7
176
     1
 65
   257
176
     1
 75
     1
176
     1
175
     1
176
     1
 42
1.0
176
     1
 92
       12
176
     1
 66
     7
176
     1
 43
1.0
176
     1
 76
     1
176
     1
 77
     6
176
     1
 78
     2
176
     1
 67
     7
176
     1
 79
     5
176
     1
170
     0
176
     1
171
     0
176
     1
290
     0
176
     1
 93
        1
176
     1
 44
0.0
176
     1
173
     0
176
     1
  0
ENDSEC
  0
EOF
