  0
SECTION
  2
HEADER
  9
$ACADVER
  1
AC1024
  9
$ACADMAINTVER
 70
     6
  9
$DWGCODEPAGE
  3
UNDEFINED
  9
$INSBASE
 10
0.0
 20
0.0
 30
0.0
  9
$EXTMIN
 10
1.000000000000000E+20
 20
1.000000000000000E+20
 30
1.000000000000000E+20
  9
$EXTMAX
 10
-1.000000000000000E+20
 20
-1.000000000000000E+20
 30
-1.000000000000000E+20
  9
$LIMMIN
 10
0.0
 20
0.0
  9
$LIMMAX
 10
12.0
 20
9.0
  9
$ORTHOMODE
 70
     0
  9
$REGENMODE
 70
     1
  9
$FILLMODE
 70
     1
  9
$QTEXTMODE
 70
     0
  9
$MIRRTEXT
 70
     1
  9
$LTSCALE
 40
1.0
  9
$ATTMODE
 70
     1
  9
$TEXTSIZE
 40
0.2
  9
$TRACEWID
 40
0.05
  9
$TEXTSTYLE
  7
Standard
  9
$CLAYER
  8
0
  9
$CELTYPE
  6
ByLayer
  9
$CECOLOR
 62
   256
  9
$CELTSCALE
 40
1.0
  9
$DISPSILH
 70
     0
  9
$DIMSCALE
 40
1.0
  9
$DIMASZ
 40
0.18
  9
$DIMEXO
 40
0.0625
  9
$DIMDLI
 40
0.38
  9
$DIMRND
 40
0.0
  9
$DIMDLE
 40
0.0
  9
$DIMEXE
 40
0.18
  9
$DIMTP
 40
0.0
  9
$DIMTM
 40
0.0
  9
$DIMTXT
 40
0.18
  9
$DIMCEN
 40
0.09
  9
$DIMTSZ
 40
0.0
  9
$DIMTOL
 70
     0
  9
$DIMLIM
 70
     0
  9
$DIMTIH
 70
     1
  9
$DIMTOH
 70
     1
  9
$DIMSE1
 70
     0
  9
$DIMSE2
 70
     0
  9
$DIMTAD
 70
     0
  9
$DIMZIN
 70
     0
  9
$DIMBLK
  1

  9
$DIMASO
 70
     1
  9
$DIMSHO
 70
     1
  9
$DIMPOST
  1

  9
$DIMAPOST
  1

  9
$DIMALT
 70
     0
  9
$DIMALTD
 70
     2
  9
$DIMALTF
 40
25.4
  9
$DIMLFAC
 40
1.0
  9
$DIMTOFL
 70
     0
  9
$DIMTVP
 40
0.0
  9
$DIMTIX
 70
     0
  9
$DIMSOXD
 70
     0
  9
$DIMSAH
 70
     0
  9
$DIMBLK1
  1

  9
$DIMBLK2
  1

  9
$DIMSTYLE
  2
Standard
  9
$DIMCLRD
 70
     0
  9
$DIMCLRE
 70
     0
  9
$DIMCLRT
 70
     0
  9
$DIMTFAC
 40
1.0
  9
$DIMGAP
 40
0.09
  9
$DIMJUST
 70
     0
  9
$DIMSD1
 70
     0
  9
$DIMSD2
 70
     0
  9
$DIMTOLJ
 70
     1
  9
$DIMTZIN
 70
     0
  9
$DIMALTZ
 70
     0
  9
$DIMALTTZ
 70
     0
  9
$DIMUPT
 70
     0
  9
$DIMDEC
 70
     4
  9
$DIMTDEC
 70
     4
  9
$DIMALTU
 70
     2
  9
$DIMALTTD
 70
     2
  9
$DIMTXSTY
  7
Standard
  9
$DIMAUNIT
 70
     0
  9
$DIMADEC
 70
     0
  9
$DIMALTRND
 40
0.0
  9
$DIMAZIN
 70
     0
  9
$DIMDSEP
 70
    46
  9
$DIMATFIT
 70
     3
  9
$DIMFRAC
 70
     0
  9
$DIMLDRBLK
  1

  9
$DIMLUNIT
 70
     2
  9
$DIMLWD
 70
    -2
  9
$DIMLWE
 70
    -2
  9
$DIMTMOVE
 70
     0
  9
$DIMFXL
 40
1.0
  9
$DIMFXLON
 70
     0
  9
$DIMJOGANG
 40
0.7853981633974483
  9
$DIMTFILL
 70
     0
  9
$DIMTFILLCLR
 70
     0
  9
$DIMARCSYM
 70
     0
  9
$DIMLTYPE
  6

  9
$DIMLTEX1
  6

  9
$DIMLTEX2
  6

  9
$DIMTXTDIRECTION
 70
     0
  9
$LUNITS
 70
     2
  9
$LUPREC
 70
     4
  9
$SKETCHINC
 40
0.1
  9
$FILLETRAD
 40
0.5
  9
$AUNITS
 70
     0
  9
$AUPREC
 70
     0
  9
$MENU
  1
.
  9
$ELEVATION
 40
0.0
  9
$PELEVATION
 40
0.0
  9
$THICKNESS
 40
0.0
  9
$LIMCHECK
 70
     0
  9
$CHAMFERA
 40
0.5
  9
$CHAMFERB
 40
0.5
  9
$CHAMFERC
 40
1.0
  9
$CHAMFERD
 40
0.0
  9
$SKPOLY
 70
     0
  9
$TDCREATE
 40
2457917.595405081
  9
$TDUCREATE
 40
2457917.220405092
  9
$TDUPDATE
 40
2457917.595405081
  9
$TDUUPDATE
 40
2457917.220405092
  9
$TDINDWG
 40
0.0000000116
  9
$TDUSRTIMER
 40
0.0000000116
  9
$USRTIMER
 70
     1
  9
$ANGBASE
 50
0.0
  9
$ANGDIR
 70
     0
  9
$PDMODE
 70
     0
  9
$PDSIZE
 40
0.0
  9
$PLINEWID
 40
0.0
  9
$SPLFRAME
 70
     0
  9
$SPLINETYPE
 70
     6
  9
$SPLINESEGS
 70
     8
  9
$HANDSEED
  5
182
  9
$SURFTAB1
 70
     6
  9
$SURFTAB2
 70
     6
  9
$SURFTYPE
 70
     6
  9
$SURFU
 70
     6
  9
$SURFV
 70
     6
  9
$UCSBASE
  2

  9
$UCSNAME
  2

  9
$UCSORG
 10
0.0
 20
0.0
 30
0.0
  9
$UCSXDIR
 10
1.0
 20
0.0
 30
0.0
  9
$UCSYDIR
 10
0.0
 20
1.0
 30
0.0
  9
$UCSORTHOREF
  2

  9
$UCSORTHOVIEW
 70
     0
  9
$UCSORGTOP
 10
0.0
 20
0.0
 30
0.0
  9
$UCSORGBOTTOM
 10
0.0
 20
0.0
 30
0.0
  9
$UCSORGLEFT
 10
0.0
 20
0.0
 30
0.0
  9
$UCSORGRIGHT
 10
0.0
 20
0.0
 30
0.0
  9
$UCSORGFRONT
 10
0.0
 20
0.0
 30
0.0
  9
$UCSORGBACK
 10
0.0
 20
0.0
 30
0.0
  9
$PUCSBASE
  2

  9
$PUCSNAME
  2

  9
$PUCSORG
 10
0.0
 20
0.0
 30
0.0
  9
$PUCSXDIR
 10
1.0
 20
0.0
 30
0.0
  9
$PUCSYDIR
 10
0.0
 20
1.0
 30
0.0
  9
$PUCSORTHOREF
  2

  9
$PUCSORTHOVIEW
 70
     0
  9
$PUCSORGTOP
 10
0.0
 20
0.0
 30
0.0
  9
$PUCSORGBOTTOM
 10
0.0
 20
0.0
 30
0.0
  9
$PUCSORGLEFT
 10
0.0
 20
0.0
 30
0.0
  9
$PUCSORGRIGHT
 10
0.0
 20
0.0
 30
0.0
  9
$PUCSORGFRONT
 10
0.0
 20
0.0
 30
0.0
  9
$PUCSORGBACK
 10
0.0
 20
0.0
 30
0.0
  9
$USERI1
 70
     0
  9
$USERI2
 70
     0
  9
$USERI3
 70
     0
  9
$USERI4
 70
     0
  9
$USERI5
 70
     0
  9
$USERR1
 40
0.0
  9
$USERR2
 40
0.0
  9
$USERR3
 40
0.0
  9
$USERR4
 40
0.0
  9
$USERR5
 40
0.0
  9
$WORLDVIEW
 70
     1
  9
$SHADEDGE
 70
     3
  9
$SHADEDIF
 70
    70
  9
$TILEMODE
 70
     1
  9
$MAXACTVP
 70
    64
  9
$PINSBASE
 10
0.0
 20
0.0
 30
0.0
  9
$PLIMCHECK
 70
     0
  9
$PEXTMIN
 10
1.000000000000000E+20
 20
1.000000000000000E+20
 30
1.000000000000000E+20
  9
$PEXTMAX
 10
-1.000000000000000E+20
 20
-1.000000000000000E+20
 30
-1.000000000000000E+20
  9
$PLIMMIN
 10
0.0
 20
0.0
  9
$PLIMMAX
 10
12.0
 20
9.0
  9
$UNITMODE
 70
     0
  9
$VISRETAIN
 70
     1
  9
$PLINEGEN
 70
     0
  9
$PSLTSCALE
 70
     1
  9
$TREEDEPTH
 70
  3020
  9
$CMLSTYLE
  2
Standard
  9
$CMLJUST
 70
     0
  9
$CMLSCALE
 40
1.0
  9
$PROXYGRAPHICS
 70
     1
  9
$MEASUREMENT
 70
     0
  9
$CELWEIGHT
370
    -1
  9
$ENDCAPS
280
     0
  9
$JOINSTYLE
280
     0
  9
$LWDISPLAY
290
     1
  9
$INSUNITS
 70
     1
  9
$HYPERLINKBASE
  1

  9
$STYLESHEET
  1

  9
$XEDIT
290
     1
  9
$CEPSNTYPE
380
     0
  9
$PSTYLEMODE
290
     1
  9
$FINGERPRINTGUID
  2
{86924771-E52D-03AB-F98D-77087B464F07}
  9
$VERSIONGUID
  2
{FAEB1C32-E019-11D5-929B-00C0DF256EC4}
  9
$EXTNAMES
290
     1
  9
$PSVPSCALE
 40
0.0
  9
$OLESTARTUP
290
     0
  9
$SORTENTS
280
   127
  9
$INDEXCTL
280
     0
  9
$HIDETEXT
280
     1
  9
$XCLIPFRAME
280
     2
  9
$HALOGAP
280
     0
  9
$OBSCOLOR
 70
   257
  9
$OBSLTYPE
280
     0
  9
$INTERSECTIONDISPLAY
280
     0
  9
$INTERSECTIONCOLOR
 70
   257
  9
$DIMASSOC
280
     2
  9
$PROJECTNAME
  1

  9
$CAMERADISPLAY
290
     0
  9
$LENSLENGTH
 40
50.0
  9
$CAMERAHEIGHT
 40
0.0
  9
$STEPSPERSEC
 40
2.0
  9
$STEPSIZE
 40
6.0
  9
$3DDWFPREC
 40
2.0
  9
$PSOLWIDTH
 40
0.25
  9
$PSOLHEIGHT
 40
4.0
  9
$LOFTANG1
 40
1.570796326794897
  9
$LOFTANG2
 40
1.570796326794897
  9
$LOFTMAG1
 40
0.0
  9
$LOFTMAG2
 40
0.0
  9
$LOFTPARAM
 70
     7
  9
$LOFTNORMALS
280
     1
  9
$LATITUDE
 40
37.795
  9
$LONGITUDE
 40
-122.394
  9
$NORTHDIRECTION
 40
0.0
  9
$TIMEZONE
 70
 -8000
  9
$LIGHTGLYPHDISPLAY
280
     1
  9
$TILEMODELIGHTSYNCH
280
     1
  9
$CMATERIAL
347
3C
  9
$SOLIDHIST
280
     1
  9
$SHOWHIST
280
     1
  9
$DWFFRAME
280
     2
  9
$DGNFRAME
280
     2
  9
$REALWORLDSCALE
290
     1
  9
$INTERFERECOLOR
 62
   256
  9
$CSHADOW
280
     0
  9
$SHADOWPLANELOCATION
 40
0.0
  0
ENDSEC
  0
SECTION
  2
CLASSES
  0
CLASS
  1
ACDBDICTIONARYWDFLT
  2
AcDbDictionaryWithDefault
  3
ObjectDBX Classes
 90
        0
 91
        4
280
     0
281
     0
  0
CLASS
  1
VISUALSTYLE
  2
AcDbVisualStyle
  3
ObjectDBX Classes
 90
     4095
 91
        4
280
     0
281
     0
  0
CLASS
  1
MATERIAL
  2
AcDbMaterial
  3
ObjectDBX Classes
 90
     1153
 91
        4
280
     0
281
     0
  0
CLASS
  1
SUN
  2
AcDbSun
  3
SCENEOE
 90
     1024
 91
        4
280
     0
281
     0
  0
ENDSEC
  0
SECTION
  2
TABLES
  0
TABLE
  2
VPORT
  5
8
330
0
100
AcDbSymbolTable
 70
     1
  0
VPORT
  5
29
330
8
100
AcDbSymbolTableRecord
100
AcDbViewportTableRecord
  2
*Active
 70
     0
 10
0.0
 20
0.0
 11
1.0
 21
1.0
 12
0.0
 22
0.0
 13
0.0
 23
0.0
 14
0.5
 24
0.5
 15
0.5
 25
0.5
 16
0.0
 26
0.0
 36
1.0
 17
91.00082462281999
 27
-128.4993055234307
 37
0.0
 40
256.9986110468615
 41
0.7081814508812795
 42
50.0
 43
0.0
 44
0.0
 50
0.0
 51
0.0
 71
     0
 72
   100
 73
     1
 74
     3
 75
     0
 76
     0
 77
     0
 78
     0
281
     0
 65
     1
110
0.0
120
0.0
130
0.0
111
1.0
121
0.0
131
0.0
112
0.0
122
1.0
132
0.0
 79
     0
146
0.0
 60
     3
 61
     5
292
     1
282
     1
141
0.0
142
0.0
 63
   250
361
3F
  0
ENDTAB
  0
TABLE
  2
LTYPE
  5
5
330
0
100
AcDbSymbolTable
 70
     1
  0
LTYPE
  5
14
330
5
100
AcDbSymbolTableRecord
100
AcDbLinetypeTableRecord
  2
ByBlock
 70
     0
  3

 72
    65
 73
     0
 40
0.0
  0
LTYPE
  5
15
330
5
100
AcDbSymbolTableRecord
100
AcDbLinetypeTableRecord
  2
ByLayer
 70
     0
  3

 72
    65
 73
     0
 40
0.0
  0
LTYPE
  5
16
330
5
100
AcDbSymbolTableRecord
100
AcDbLinetypeTableRecord
  2
Continuous
 70
     0
  3
Solid line
 72
    65
 73
     0
 40
0.0
  0
ENDTAB
  0
TABLE
  2
LAYER
  5
2
330
0
100
AcDbSymbolTable
 70
     2
  0
LAYER
  5
10
330
2
100
AcDbSymbolTableRecord
100
AcDbLayerTableRecord
  2
0
 70
     0
 62
     7
  6
Continuous
370
    -3
390
F
347
3E
  0
LAYER
  5
40
330
2
100
AcDbSymbolTableRecord
100
AcDbLayerTableRecord
  2
_U+30EC_U+30A4_U+30E4_U+30FC 1
 70
     0
 62
     7
  6
Continuous
370
    -3
390
F
347
3E
  0
ENDTAB
  0
TABLE
  2
STYLE
  5
3
330
0
100
AcDbSymbolTable
 70
     1
  0
STYLE
  5
11
330
3
100
AcDbSymbolTableRecord
100
AcDbTextStyleTableRecord
  2
Standard
 70
     0
 40
0.0
 41
1.0
 50
0.0
 71
     0
 42
0.2
  3
txt
  4

  0
ENDTAB
  0
TABLE
  2
VIEW
  5
6
330
0
100
AcDbSymbolTable
 70
     0
  0
ENDTAB
  0
TABLE
  2
UCS
  5
7
330
0
100
AcDbSymbolTable
 70
     0
  0
ENDTAB
  0
TABLE
  2
APPID
  5
9
330
0
100
AcDbSymbolTable
 70
     1
  0
APPID
  5
12
330
9
100
AcDbSymbolTableRecord
100
AcDbRegAppTableRecord
  2
ACAD
 70
     0
  0
ENDTAB
  0
TABLE
  2
DIMSTYLE
  5
A
330
0
100
AcDbSymbolTable
 70
     1
100
AcDbDimStyleTable
  0
DIMSTYLE
105
27
330
A
100
AcDbSymbolTableRecord
100
AcDbDimStyleTableRecord
  2
Standard
 70
     0
178
     0
340
11
  0
ENDTAB
  0
TABLE
  2
BLOCK_RECORD
  5
1
330
0
100
AcDbSymbolTable
 70
    10
  0
BLOCK_RECORD
  5
1F
330
1
100
AcDbSymbolTableRecord
100
AcDbBlockTableRecord
  2
*Model_Space
340
22
 70
     0
280
     1
281
     0
  0
BLOCK_RECORD
  5
1B
330
1
100
AcDbSymbolTableRecord
100
AcDbBlockTableRecord
  2
*Paper_Space
340
1E
 70
     0
280
     1
281
     0
  0
BLOCK_RECORD
  5
23
330
1
100
AcDbSymbolTableRecord
100
AcDbBlockTableRecord
  2
*Paper_Space0
340
26
 70
     0
280
     1
281
     0
  0
BLOCK_RECORD
  5
A5
330
1
100
AcDbSymbolTableRecord
100
AcDbBlockTableRecord
  2
block 2
340
0
102
{BLKREFS
331
A6
102
}
 70
     0
280
     1
281
     0
  0
BLOCK_RECORD
  5
B7
330
1
100
AcDbSymbolTableRecord
100
AcDbBlockTableRecord
  2
block 3
340
0
102
{BLKREFS
331
B8
102
}
 70
     0
280
     1
281
     0
  0
BLOCK_RECORD
  5
CD
330
1
100
AcDbSymbolTableRecord
100
AcDbBlockTableRecord
  2
block 4
340
0
102
{BLKREFS
331
CE
102
}
 70
     0
280
     1
281
     0
  0
BLOCK_RECORD
  5
DF
330
1
100
AcDbSymbolTableRecord
100
AcDbBlockTableRecord
  2
block 5
340
0
102
{BLKREFS
331
E0
102
}
 70
     0
280
     1
281
     0
  0
BLOCK_RECORD
  5
F5
330
1
100
AcDbSymbolTableRecord
100
AcDbBlockTableRecord
  2
block 6
340
0
102
{BLKREFS
331
F6
102
}
 70
     0
280
     1
281
     0
  0
BLOCK_RECORD
  5
114
330
1
100
AcDbSymbolTableRecord
100
AcDbBlockTableRecord
  2
block 7
340
0
102
{BLKREFS
331
115
102
}
 70
     0
280
     1
281
     0
  0
BLOCK_RECORD
  5
132
330
1
100
AcDbSymbolTableRecord
100
AcDbBlockTableRecord
  2
block 8
340
0
102
{BLKREFS
331
133
102
}
 70
     0
280
     1
281
     0
  0
BLOCK_RECORD
  5
159
330
1
100
AcDbSymbolTableRecord
100
AcDbBlockTableRecord
  2
block 9
340
0
102
{BLKREFS
331
15A
102
}
 70
     0
280
     1
281
     0
  0
BLOCK_RECORD
  5
177
330
1
100
AcDbSymbolTableRecord
100
AcDbBlockTableRecord
  2
block 10
340
0
102
{BLKREFS
331
178
102
}
 70
     0
280
     1
281
     0
  0
ENDTAB
  0
ENDSEC
  0
SECTION
  2
BLOCKS
  0
BLOCK
  5
20
330
1F
100
AcDbEntity
  8
0
100
AcDbBlockBegin
  2
*Model_Space
 70
     0
 10
0.0
 20
0.0
 30
0.0
  3
*Model_Space
  1

  0
ENDBLK
  5
21
330
1F
100
AcDbEntity
  8
0
100
AcDbBlockEnd
  0
BLOCK
  5
1C
330
1B
100
AcDbEntity
 67
     1
  8
0
100
AcDbBlockBegin
  2
*Paper_Space
 70
     0
 10
0.0
 20
0.0
 30
0.0
  3
*Paper_Space
  1

  0
ENDBLK
  5
1D
330
1B
100
AcDbEntity
 67
     1
  8
0
100
AcDbBlockEnd
  0
BLOCK
  5
24
330
23
100
AcDbEntity
  8
0
100
AcDbBlockBegin
  2
*Paper_Space0
 70
     0
 10
0.0
 20
0.0
 30
0.0
  3
*Paper_Space0
  1

  0
ENDBLK
  5
25
330
23
100
AcDbEntity
  8
0
100
AcDbBlockEnd
  0
BLOCK
  5
A7
330
A5
100
AcDbEntity
  8
0
100
AcDbBlockBegin
  2
block 2
 70
     0
 10
0.0
 20
0.0
 30
0.0
  3
block 2
  1

  0
SPLINE
  5
A9
330
A5
100
AcDbEntity
  8
_U+30EC_U+30A4_U+30E4_U+30FC 1
370
     0
100
AcDbSpline
210
0.0
220
0.0
230
1.0
 70
    11
 71
     3
 72
    26
 73
    22
 74
     0
 42
0.0000000001
 43
0.0000000001
 12
1.0
 22
0.0
 32
0.0
 13
1.0
 23
0.0
 33
0.0
 40
0.0
 40
0.0
 40
0.0
 40
0.0
 40
1.0
 40
1.0
 40
1.0
 40
2.0
 40
2.0
 40
2.0
 40
3.0
 40
3.0
 40
3.0
 40
4.0
 40
4.0
 40
4.0
 40
5.0
 40
5.0
 40
5.0
 40
6.0
 40
6.0
 40
6.0
 40
7.0
 40
7.0
 40
7.0
 40
7.0
 10
91.816273306039
 20
-118.1306016414743
 30
0.0
 10
91.816273306039
 20
-118.1306016414743
 30
0.0
 10
91.5792507366538
 20
-118.1306016414743
 30
0.0
 10
91.5792507366538
 20
-118.1306016414743
 30
0.0
 10
91.60474444324466
 20
-117.8217488312217
 30
0.0
 10
91.79732528087011
 20
-117.3034342154658
 30
0.0
 10
92.20350203858108
 20
-116.7978664530054
 30
0.0
 10
92.20350203858108
 20
-116.7978664530054
 30
0.0
 10
91.36565481656831
 20
-116.7978664530054
 30
0.0
 10
91.36565481656831
 20
-116.7978664530054
 30
0.0
 10
91.36565481656831
 20
-116.7978664530054
 30
0.0
 10
91.36565481656831
 20
-116.5863375902111
 30
0.0
 10
91.36565481656831
 20
-116.5863375902111
 30
0.0
 10
91.36565481656831
 20
-116.5863375902111
 30
0.0
 10
92.44052460796627
 20
-116.5863375902111
 30
0.0
 10
92.44052460796627
 20
-116.5863375902111
 30
0.0
 10
92.44052460796627
 20
-116.5863375902111
 30
0.0
 10
92.44052460796627
 20
-116.7978664530054
 30
0.0
 10
92.44052460796627
 20
-116.7978664530054
 30
0.0
 10
92.11668563235278
 20
-117.0875989833149
 30
0.0
 10
91.85003524179444
 20
-117.6799831520036
 30
0.0
 10
91.816273306039
 20
-118.1306016414743
 30
0.0
  0
HATCH
  5
AA
330
A5
100
AcDbEntity
  8
_U+30EC_U+30A4_U+30E4_U+30FC 1
 62
     7
420
 16777215
100
AcDbHatch
 10
0.0
 20
0.0
 30
0.0
210
0.0
220
0.0
230
1.0
  2
SOLID
 70
     1
 71
     0
 91
        1
 92
        1
 93
        1
 72
     4
 94
        3
 73
     0
 74
     1
 95
       26
 96
       22
 40
0.0
 40
0.0
 40
0.0
 40
0.0
 40
1.0
 40
1.0
 40
1.0
 40
2.0
 40
2.0
 40
2.0
 40
3.0
 40
3.0
 40
3.0
 40
4.0
 40
4.0
 40
4.0
 40
5.0
 40
5.0
 40
5.0
 40
6.0
 40
6.0
 40
6.0
 40
7.0
 40
7.0
 40
7.0
 40
7.0
 10
91.816273306039
 20
-118.1306016414743
 10
91.816273306039
 20
-118.1306016414743
 10
91.5792507366538
 20
-118.1306016414743
 10
91.5792507366538
 20
-118.1306016414743
 10
91.60474444324466
 20
-117.8217488312217
 10
91.79732528087011
 20
-117.3034342154658
 10
92.20350203858108
 20
-116.7978664530054
 10
92.20350203858108
 20
-116.7978664530054
 10
91.36565481656831
 20
-116.7978664530054
 10
91.36565481656831
 20
-116.7978664530054
 10
91.36565481656831
 20
-116.7978664530054
 10
91.36565481656831
 20
-116.5863375902111
 10
91.36565481656831
 20
-116.5863375902111
 10
91.36565481656831
 20
-116.5863375902111
 10
92.44052460796627
 20
-116.5863375902111
 10
92.44052460796627
 20
-116.5863375902111
 10
92.44052460796627
 20
-116.5863375902111
 10
92.44052460796627
 20
-116.7978664530054
 10
92.44052460796627
 20
-116.7978664530054
 10
92.11668563235278
 20
-117.0875989833149
 10
91.85003524179444
 20
-117.6799831520036
 10
91.816273306039
 20
-118.1306016414743
 97
        0
 97
        0
 75
     2
 76
     1
 98
        0
  0
ENDBLK
  5
A8
330
A5
100
AcDbEntity
  8
0
100
AcDbBlockEnd
  0
BLOCK
  5
B9
330
B7
100
AcDbEntity
  8
0
100
AcDbBlockBegin
  2
block 3
 70
     0
 10
0.0
 20
0.0
 30
0.0
  3
block 3
  1

  0
SPLINE
  5
BB
330
B7
100
AcDbEntity
  8
_U+30EC_U+30A4_U+30E4_U+30FC 1
370
     0
100
AcDbSpline
210
0.0
220
0.0
230
1.0
 70
    11
 71
     3
 72
    26
 73
    22
 74
     0
 42
0.0000000001
 43
0.0000000001
 12
1.0
 22
0.0
 32
0.0
 13
1.0
 23
0.0
 33
0.0
 40
0.0
 40
0.0
 40
0.0
 40
0.0
 40
1.0
 40
1.0
 40
1.0
 40
2.0
 40
2.0
 40
2.0
 40
3.0
 40
3.0
 40
3.0
 40
4.0
 40
4.0
 40
4.0
 40
5.0
 40
5.0
 40
5.0
 40
6.0
 40
6.0
 40
6.0
 40
7.0
 40
7.0
 40
7.0
 40
7.0
 10
98.80947263154764
 20
-126.3164930239764
 30
0.0
 10
98.80947263154764
 20
-126.3164930239764
 30
0.0
 10
98.80947263154764
 20
-126.5533433385874
 30
0.0
 10
98.80947263154764
 20
-126.5533433385874
 30
0.0
 10
98.50044756652072
 20
-126.5280218867708
 30
0.0
 10
97.98230520553915
 20
-126.3354410491453
 30
0.0
 10
97.47656518830448
 20
-125.9292642914344
 30
0.0
 10
97.47656518830448
 20
-125.9292642914344
 30
0.0
 10
97.47656518830448
 20
-126.7671115134471
 30
0.0
 10
97.47656518830448
 20
-126.7671115134471
 30
0.0
 10
97.47656518830448
 20
-126.7671115134471
 30
0.0
 10
97.26503632551014
 20
-126.7671115134471
 30
0.0
 10
97.26503632551014
 20
-126.7671115134471
 30
0.0
 10
97.26503632551014
 20
-126.7671115134471
 30
0.0
 10
97.26503632551014
 20
-125.6924139768234
 30
0.0
 10
97.26503632551014
 20
-125.6924139768234
 30
0.0
 10
97.26503632551014
 20
-125.6924139768234
 30
0.0
 10
97.47656518830448
 20
-125.6924139768234
 30
0.0
 10
97.47656518830448
 20
-125.6924139768234
 30
0.0
 10
97.76664222816251
 20
-126.0160806976627
 30
0.0
 10
98.35885414207696
 20
-126.2825588334467
 30
0.0
 10
98.80947263154764
 20
-126.3164930239764
 30
0.0
  0
HATCH
  5
BC
330
B7
100
AcDbEntity
  8
_U+30EC_U+30A4_U+30E4_U+30FC 1
 62
     7
420
 16777215
100
AcDbHatch
 10
0.0
 20
0.0
 30
0.0
210
0.0
220
0.0
230
1.0
  2
SOLID
 70
     1
 71
     0
 91
        1
 92
        1
 93
        1
 72
     4
 94
        3
 73
     0
 74
     1
 95
       26
 96
       22
 40
0.0
 40
0.0
 40
0.0
 40
0.0
 40
1.0
 40
1.0
 40
1.0
 40
2.0
 40
2.0
 40
2.0
 40
3.0
 40
3.0
 40
3.0
 40
4.0
 40
4.0
 40
4.0
 40
5.0
 40
5.0
 40
5.0
 40
6.0
 40
6.0
 40
6.0
 40
7.0
 40
7.0
 40
7.0
 40
7.0
 10
98.80947263154764
 20
-126.3164930239764
 10
98.80947263154764
 20
-126.3164930239764
 10
98.80947263154764
 20
-126.5533433385874
 10
98.80947263154764
 20
-126.5533433385874
 10
98.50044756652072
 20
-126.5280218867708
 10
97.98230520553915
 20
-126.3354410491453
 10
97.47656518830448
 20
-125.9292642914344
 10
97.47656518830448
 20
-125.9292642914344
 10
97.47656518830448
 20
-126.7671115134471
 10
97.47656518830448
 20
-126.7671115134471
 10
97.47656518830448
 20
-126.7671115134471
 10
97.26503632551014
 20
-126.7671115134471
 10
97.26503632551014
 20
-126.7671115134471
 10
97.26503632551014
 20
-126.7671115134471
 10
97.26503632551014
 20
-125.6924139768234
 10
97.26503632551014
 20
-125.6924139768234
 10
97.26503632551014
 20
-125.6924139768234
 10
97.47656518830448
 20
-125.6924139768234
 10
97.47656518830448
 20
-125.6924139768234
 10
97.76664222816251
 20
-126.0160806976627
 10
98.35885414207696
 20
-126.2825588334467
 10
98.80947263154764
 20
-126.3164930239764
 97
        0
 97
        0
 75
     2
 76
     1
 98
        0
  0
ENDBLK
  5
BA
330
B7
100
AcDbEntity
  8
0
100
AcDbBlockEnd
  0
BLOCK
  5
CF
330
CD
100
AcDbEntity
  8
0
100
AcDbBlockBegin
  2
block 4
 70
     0
 10
0.0
 20
0.0
 30
0.0
  3
block 4
  1

  0
SPLINE
  5
D1
330
CD
100
AcDbEntity
  8
_U+30EC_U+30A4_U+30E4_U+30FC 1
370
     0
100
AcDbSpline
210
0.0
220
0.0
230
1.0
 70
    11
 71
     3
 72
    26
 73
    22
 74
     0
 42
0.0000000001
 43
0.0000000001
 12
1.0
 22
0.0
 32
0.0
 13
1.0
 23
0.0
 33
0.0
 40
0.0
 40
0.0
 40
0.0
 40
0.0
 40
1.0
 40
1.0
 40
1.0
 40
2.0
 40
2.0
 40
2.0
 40
3.0
 40
3.0
 40
3.0
 40
4.0
 40
4.0
 40
4.0
 40
5.0
 40
5.0
 40
5.0
 40
6.0
 40
6.0
 40
6.0
 40
7.0
 40
7.0
 40
7.0
 40
7.0
 10
91.35910913514634
 20
-126.1308023773215
 30
0.0
 10
91.35910913514634
 20
-126.1308023773215
 30
0.0
 10
91.35910913514634
 20
-125.0264770195246
 30
0.0
 10
91.35910913514634
 20
-125.0264770195246
 30
0.0
 10
91.35910913514634
 20
-125.0264770195246
 30
0.0
 10
91.0290689876594
 20
-125.0264770195246
 30
0.0
 10
91.0290689876594
 20
-125.0264770195246
 30
0.0
 10
91.0290689876594
 20
-125.0264770195246
 30
0.0
 10
91.0290689876594
 20
-124.8785101684332
 30
0.0
 10
91.0290689876594
 20
-124.8785101684332
 30
0.0
 10
91.36117619243748
 20
-124.8636962578466
 30
0.0
 10
91.40768498148836
 20
-124.7007432413943
 30
0.0
 10
91.43731280266151
 20
-124.5865383260582
 30
0.0
 10
91.43731280266151
 20
-124.5865383260582
 30
0.0
 10
91.5833848512361
 20
-124.5865383260582
 30
0.0
 10
91.5833848512361
 20
-124.5865383260582
 30
0.0
 10
91.5833848512361
 20
-124.5865383260582
 30
0.0
 10
91.5833848512361
 20
-126.1308023773215
 30
0.0
 10
91.5833848512361
 20
-126.1308023773215
 30
0.0
 10
91.5833848512361
 20
-126.1308023773215
 30
0.0
 10
91.35910913514634
 20
-126.1308023773215
 30
0.0
 10
91.35910913514634
 20
-126.1308023773215
 30
0.0
  0
HATCH
  5
D2
330
CD
100
AcDbEntity
  8
_U+30EC_U+30A4_U+30E4_U+30FC 1
 62
     7
420
 16777215
100
AcDbHatch
 10
0.0
 20
0.0
 30
0.0
210
0.0
220
0.0
230
1.0
  2
SOLID
 70
     1
 71
     0
 91
        1
 92
        1
 93
        1
 72
     4
 94
        3
 73
     0
 74
     1
 95
       26
 96
       22
 40
0.0
 40
0.0
 40
0.0
 40
0.0
 40
1.0
 40
1.0
 40
1.0
 40
2.0
 40
2.0
 40
2.0
 40
3.0
 40
3.0
 40
3.0
 40
4.0
 40
4.0
 40
4.0
 40
5.0
 40
5.0
 40
5.0
 40
6.0
 40
6.0
 40
6.0
 40
7.0
 40
7.0
 40
7.0
 40
7.0
 10
91.35910913514634
 20
-126.1308023773215
 10
91.35910913514634
 20
-126.1308023773215
 10
91.35910913514634
 20
-125.0264770195246
 10
91.35910913514634
 20
-125.0264770195246
 10
91.35910913514634
 20
-125.0264770195246
 10
91.0290689876594
 20
-125.0264770195246
 10
91.0290689876594
 20
-125.0264770195246
 10
91.0290689876594
 20
-125.0264770195246
 10
91.0290689876594
 20
-124.8785101684332
 10
91.0290689876594
 20
-124.8785101684332
 10
91.36117619243748
 20
-124.8636962578466
 10
91.40768498148836
 20
-124.7007432413943
 10
91.43731280266151
 20
-124.5865383260582
 10
91.43731280266151
 20
-124.5865383260582
 10
91.5833848512361
 20
-124.5865383260582
 10
91.5833848512361
 20
-124.5865383260582
 10
91.5833848512361
 20
-124.5865383260582
 10
91.5833848512361
 20
-126.1308023773215
 10
91.5833848512361
 20
-126.1308023773215
 10
91.5833848512361
 20
-126.1308023773215
 10
91.35910913514634
 20
-126.1308023773215
 10
91.35910913514634
 20
-126.1308023773215
 97
        0
 97
        0
 75
     2
 76
     1
 98
        0
  0
ENDBLK
  5
D0
330
CD
100
AcDbEntity
  8
0
100
AcDbBlockEnd
  0
BLOCK
  5
E1
330
DF
100
AcDbEntity
  8
0
100
AcDbBlockBegin
  2
block 5
 70
     0
 10
0.0
 20
0.0
 30
0.0
  3
block 5
  1

  0
SPLINE
  5
E3
330
DF
100
AcDbEntity
  8
_U+30EC_U+30A4_U+30E4_U+30FC 1
370
     0
100
AcDbSpline
210
0.0
220
0.0
230
1.0
 70
    11
 71
     3
 72
    53
 73
    49
 74
     0
 42
0.0000000001
 43
0.0000000001
 12
1.0
 22
0.0
 32
0.0
 13
1.0
 23
0.0
 33
0.0
 40
0.0
 40
0.0
 40
0.0
 40
0.0
 40
1.0
 40
1.0
 40
1.0
 40
2.0
 40
2.0
 40
2.0
 40
3.0
 40
3.0
 40
3.0
 40
4.0
 40
4.0
 40
4.0
 40
5.0
 40
5.0
 40
5.0
 40
6.0
 40
6.0
 40
6.0
 40
7.0
 40
7.0
 40
7.0
 40
8.0
 40
8.0
 40
8.0
 40
9.0
 40
9.0
 40
9.0
 40
10.0
 40
10.0
 40
10.0
 40
11.0
 40
11.0
 40
11.0
 40
12.0
 40
12.0
 40
12.0
 40
13.0
 40
13.0
 40
13.0
 40
14.0
 40
14.0
 40
14.0
 40
15.0
 40
15.0
 40
15.0
 40
16.0
 40
16.0
 40
16.0
 40
16.0
 10
74.59027911546701
 20
-143.519232820023
 30
0.0
 10
74.53498533292876
 20
-143.4637667827105
 30
0.0
 10
74.47504067148542
 20
-143.3800509624189
 30
0.0
 10
74.44816892670046
 20
-143.2632622254689
 30
0.0
 10
74.40321043061795
 20
-143.0627576682274
 30
0.0
 10
74.4810695885846
 20
-142.9552706890876
 30
0.0
 10
74.54394258119041
 20
-142.8653536969226
 30
0.0
 10
74.54394258119041
 20
-142.8653536969226
 30
0.0
 10
74.7010389353178
 20
-143.02245005105
 30
0.0
 10
74.7010389353178
 20
-143.02245005105
 30
0.0
 10
74.59923636372866
 20
-143.2019395258315
 30
0.0
 10
74.6679660186594
 20
-143.312527090908
 30
0.0
 10
74.73393959720194
 20
-143.3783284146762
 30
0.0
 10
74.83264158285434
 20
-143.4772026551029
 30
0.0
 10
75.0105807646675
 20
-143.5147541958922
 30
0.0
 10
75.17508407408818
 20
-143.3500786316972
 30
0.0
 10
75.35612384183806
 20
-143.1692111187216
 30
0.0
 10
75.27843693864567
 20
-142.9924777203283
 30
0.0
 10
75.19317082538574
 20
-142.9073838618426
 30
0.0
 10
75.17060544995735
 20
-142.8849907411885
 30
0.0
 10
75.07035317133658
 20
-142.7847384625677
 30
0.0
 10
74.91635740314591
 20
-142.8129882455468
 30
0.0
 10
74.91635740314591
 20
-142.8129882455468
 30
0.0
 10
74.80559758329512
 20
-142.6755289356853
 30
0.0
 10
74.80559758329512
 20
-142.6755289356853
 30
0.0
 10
74.80559758329512
 20
-142.6755289356853
 30
0.0
 10
75.48927678234296
 20
-142.1622097083831
 30
0.0
 10
75.48927678234296
 20
-142.1622097083831
 30
0.0
 10
75.48927678234296
 20
-142.1622097083831
 30
0.0
 10
76.03980304088589
 20
-142.712735966926
 30
0.0
 10
76.03980304088589
 20
-142.712735966926
 30
0.0
 10
76.03980304088589
 20
-142.712735966926
 30
0.0
 10
75.90217147625016
 20
-142.850539786336
 30
0.0
 10
75.90217147625016
 20
-142.850539786336
 30
0.0
 10
75.90217147625016
 20
-142.850539786336
 30
0.0
 10
75.46688366168884
 20
-142.4150797170004
 30
0.0
 10
75.46688366168884
 20
-142.4150797170004
 30
0.0
 10
75.46688366168884
 20
-142.4150797170004
 30
0.0
 10
75.12134058451828
 20
-142.6679497256177
 30
0.0
 10
75.12134058451828
 20
-142.6679497256177
 30
0.0
 10
75.18869220125491
 20
-142.6872422603352
 30
0.0
 10
75.27533635270895
 20
-142.7172145910568
 30
0.0
 10
75.35922442777478
 20
-142.8009304113484
 30
0.0
 10
75.5387139025563
 20
-142.9804198861299
 30
0.0
 10
75.57454289560289
 20
-143.2797986837981
 30
0.0
 10
75.35319551067559
 20
-143.5009738139512
 30
0.0
 10
75.12874753981157
 20
-143.7255940395895
 30
0.0
 10
74.80421954510103
 20
-143.7328287401085
 30
0.0
 10
74.59027911546701
 20
-143.519232820023
 30
0.0
  0
HATCH
  5
E4
330
DF
100
AcDbEntity
  8
_U+30EC_U+30A4_U+30E4_U+30FC 1
 62
     7
420
 16777215
100
AcDbHatch
 10
0.0
 20
0.0
 30
0.0
210
0.0
220
0.0
230
1.0
  2
SOLID
 70
     1
 71
     0
 91
        1
 92
        1
 93
        1
 72
     4
 94
        3
 73
     0
 74
     1
 95
       53
 96
       49
 40
0.0
 40
0.0
 40
0.0
 40
0.0
 40
1.0
 40
1.0
 40
1.0
 40
2.0
 40
2.0
 40
2.0
 40
3.0
 40
3.0
 40
3.0
 40
4.0
 40
4.0
 40
4.0
 40
5.0
 40
5.0
 40
5.0
 40
6.0
 40
6.0
 40
6.0
 40
7.0
 40
7.0
 40
7.0
 40
8.0
 40
8.0
 40
8.0
 40
9.0
 40
9.0
 40
9.0
 40
10.0
 40
10.0
 40
10.0
 40
11.0
 40
11.0
 40
11.0
 40
12.0
 40
12.0
 40
12.0
 40
13.0
 40
13.0
 40
13.0
 40
14.0
 40
14.0
 40
14.0
 40
15.0
 40
15.0
 40
15.0
 40
16.0
 40
16.0
 40
16.0
 40
16.0
 10
74.59027911546701
 20
-143.519232820023
 10
74.53498533292876
 20
-143.4637667827105
 10
74.47504067148542
 20
-143.3800509624189
 10
74.44816892670046
 20
-143.2632622254689
 10
74.40321043061795
 20
-143.0627576682274
 10
74.4810695885846
 20
-142.9552706890876
 10
74.54394258119041
 20
-142.8653536969226
 10
74.54394258119041
 20
-142.8653536969226
 10
74.7010389353178
 20
-143.02245005105
 10
74.7010389353178
 20
-143.02245005105
 10
74.59923636372866
 20
-143.2019395258315
 10
74.6679660186594
 20
-143.312527090908
 10
74.73393959720194
 20
-143.3783284146762
 10
74.83264158285434
 20
-143.4772026551029
 10
75.0105807646675
 20
-143.5147541958922
 10
75.17508407408818
 20
-143.3500786316972
 10
75.35612384183806
 20
-143.1692111187216
 10
75.27843693864567
 20
-142.9924777203283
 10
75.19317082538574
 20
-142.9073838618426
 10
75.17060544995735
 20
-142.8849907411885
 10
75.07035317133658
 20
-142.7847384625677
 10
74.91635740314591
 20
-142.8129882455468
 10
74.91635740314591
 20
-142.8129882455468
 10
74.80559758329512
 20
-142.6755289356853
 10
74.80559758329512
 20
-142.6755289356853
 10
74.80559758329512
 20
-142.6755289356853
 10
75.48927678234296
 20
-142.1622097083831
 10
75.48927678234296
 20
-142.1622097083831
 10
75.48927678234296
 20
-142.1622097083831
 10
76.03980304088589
 20
-142.712735966926
 10
76.03980304088589
 20
-142.712735966926
 10
76.03980304088589
 20
-142.712735966926
 10
75.90217147625016
 20
-142.850539786336
 10
75.90217147625016
 20
-142.850539786336
 10
75.90217147625016
 20
-142.850539786336
 10
75.46688366168884
 20
-142.4150797170004
 10
75.46688366168884
 20
-142.4150797170004
 10
75.46688366168884
 20
-142.4150797170004
 10
75.12134058451828
 20
-142.6679497256177
 10
75.12134058451828
 20
-142.6679497256177
 10
75.18869220125491
 20
-142.6872422603352
 10
75.27533635270895
 20
-142.7172145910568
 10
75.35922442777478
 20
-142.8009304113484
 10
75.5387139025563
 20
-142.9804198861299
 10
75.57454289560289
 20
-143.2797986837981
 10
75.35319551067559
 20
-143.5009738139512
 10
75.12874753981157
 20
-143.7255940395895
 10
74.80421954510103
 20
-143.7328287401085
 10
74.59027911546701
 20
-143.519232820023
 97
        0
 97
        0
 75
     2
 76
     1
 98
        0
  0
ENDBLK
  5
E2
330
DF
100
AcDbEntity
  8
0
100
AcDbBlockEnd
  0
BLOCK
  5
F7
330
F5
100
AcDbEntity
  8
0
100
AcDbBlockBegin
  2
block 6
 70
     0
 10
0.0
 20
0.0
 30
0.0
  3
block 6
  1

  0
SPLINE
  5
F9
330
F5
100
AcDbEntity
  8
_U+30EC_U+30A4_U+30E4_U+30FC 1
370
     0
100
AcDbSpline
210
0.0
220
0.0
230
1.0
 70
    11
 71
     3
 72
    29
 73
    25
 74
     0
 42
0.0000000001
 43
0.0000000001
 12
1.0
 22
0.0
 32
0.0
 13
1.0
 23
0.0
 33
0.0
 40
0.0
 40
0.0
 40
0.0
 40
0.0
 40
1.0
 40
1.0
 40
1.0
 40
2.0
 40
2.0
 40
2.0
 40
3.0
 40
3.0
 40
3.0
 40
4.0
 40
4.0
 40
4.0
 40
5.0
 40
5.0
 40
5.0
 40
6.0
 40
6.0
 40
6.0
 40
7.0
 40
7.0
 40
7.0
 40
8.0
 40
8.0
 40
8.0
 40
8.0
 10
81.48891056990556
 20
-112.7522908246765
 30
0.0
 10
81.38107908121724
 20
-112.9617526301797
 30
0.0
 10
81.20744626876065
 20
-112.9808729101228
 30
0.0
 10
81.09134655090772
 20
-112.9808729101228
 30
0.0
 10
80.93046059174655
 20
-112.9808729101228
 30
0.0
 10
80.78852265775426
 20
-112.934364121072
 30
0.0
 10
80.69343802236136
 20
-112.7522908246765
 30
0.0
 10
80.58991290302961
 20
-112.5578151845342
 30
0.0
 10
80.57079262308648
 20
-112.320792615149
 30
0.0
 10
80.57079262308648
 20
-112.1578395986967
 30
0.0
 10
80.57079262308648
 20
-112.0140068621875
 30
0.0
 10
80.5876735909642
 20
-111.76234263699
 30
0.0
 10
80.69343802236136
 20
-111.5633883727168
 30
0.0
 10
80.80126951104968
 20
-111.3602999938613
 30
0.0
 10
80.96215547021086
 20
-111.3370455993359
 30
0.0
 10
81.09134655090772
 20
-111.3370455993359
 30
0.0
 10
81.24982094322921
 20
-111.3370455993359
 30
0.0
 10
81.39382593451266
 20
-111.3814873310956
 30
0.0
 10
81.48891056990556
 20
-111.5633883727168
 30
0.0
 10
81.58847382942928
 20
-111.7559692103423
 30
0.0
 10
81.61155596918044
 20
-111.9843790410143
 30
0.0
 10
81.61155596918044
 20
-112.1578395986967
 30
0.0
 10
81.61155596918044
 20
-112.3292330990878
 30
0.0
 10
81.59054088672042
 20
-112.5598822418253
 30
0.0
 10
81.48891056990556
 20
-112.7522908246765
 30
0.0
  0
SPLINE
  5
FA
330
F5
100
AcDbEntity
  8
_U+30EC_U+30A4_U+30E4_U+30FC 1
370
     0
100
AcDbSpline
210
0.0
220
0.0
230
1.0
 70
    11
 71
     3
 72
    17
 73
    13
 74
     0
 42
0.0000000001
 43
0.0000000001
 12
1.0
 22
0.0
 32
0.0
 13
1.0
 23
0.0
 33
0.0
 40
0.0
 40
0.0
 40
0.0
 40
0.0
 40
1.0
 40
1.0
 40
1.0
 40
2.0
 40
2.0
 40
2.0
 40
3.0
 40
3.0
 40
3.0
 40
4.0
 40
4.0
 40
4.0
 40
4.0
 10
81.09134655090772
 20
-111.5296264369614
 30
0.0
 10
80.84157712822712
 20
-111.5296264369614
 30
0.0
 10
80.79506833917624
 20
-111.8129855406231
 30
0.0
 10
80.79506833917624
 20
-112.1578395986967
 30
0.0
 10
80.79506833917624
 20
-112.4773722049536
 30
0.0
 10
80.83089733222283
 20
-112.7862250152062
 30
0.0
 10
81.09134655090772
 20
-112.7862250152062
 30
0.0
 10
81.33870440674866
 20
-112.7862250152062
 30
0.0
 10
81.38728025309068
 20
-112.5047607140613
 30
0.0
 10
81.38728025309068
 20
-112.1578395986967
 30
0.0
 10
81.38728025309068
 20
-111.838479247214
 30
0.0
 10
81.34938420275293
 20
-111.5296264369614
 30
0.0
 10
81.09134655090772
 20
-111.5296264369614
 30
0.0
  0
HATCH
  5
FB
330
F5
100
AcDbEntity
  8
_U+30EC_U+30A4_U+30E4_U+30FC 1
 62
     7
420
 16777215
100
AcDbHatch
 10
0.0
 20
0.0
 30
0.0
210
0.0
220
0.0
230
1.0
  2
SOLID
 70
     1
 71
     0
 91
        2
 92
        1
 93
        1
 72
     4
 94
        3
 73
     0
 74
     1
 95
       29
 96
       25
 40
0.0
 40
0.0
 40
0.0
 40
0.0
 40
1.0
 40
1.0
 40
1.0
 40
2.0
 40
2.0
 40
2.0
 40
3.0
 40
3.0
 40
3.0
 40
4.0
 40
4.0
 40
4.0
 40
5.0
 40
5.0
 40
5.0
 40
6.0
 40
6.0
 40
6.0
 40
7.0
 40
7.0
 40
7.0
 40
8.0
 40
8.0
 40
8.0
 40
8.0
 10
81.48891056990556
 20
-112.7522908246765
 10
81.38107908121724
 20
-112.9617526301797
 10
81.20744626876065
 20
-112.9808729101228
 10
81.09134655090772
 20
-112.9808729101228
 10
80.93046059174655
 20
-112.9808729101228
 10
80.78852265775426
 20
-112.934364121072
 10
80.69343802236136
 20
-112.7522908246765
 10
80.58991290302961
 20
-112.5578151845342
 10
80.57079262308648
 20
-112.320792615149
 10
80.57079262308648
 20
-112.1578395986967
 10
80.57079262308648
 20
-112.0140068621875
 10
80.5876735909642
 20
-111.76234263699
 10
80.69343802236136
 20
-111.5633883727168
 10
80.80126951104968
 20
-111.3602999938613
 10
80.96215547021086
 20
-111.3370455993359
 10
81.09134655090772
 20
-111.3370455993359
 10
81.24982094322921
 20
-111.3370455993359
 10
81.39382593451266
 20
-111.3814873310956
 10
81.48891056990556
 20
-111.5633883727168
 10
81.58847382942928
 20
-111.7559692103423
 10
81.61155596918044
 20
-111.9843790410143
 10
81.61155596918044
 20
-112.1578395986967
 10
81.61155596918044
 20
-112.3292330990878
 10
81.59054088672042
 20
-112.5598822418253
 10
81.48891056990556
 20
-112.7522908246765
 97
        0
 97
        0
 92
        1
 93
        1
 72
     4
 94
        3
 73
     0
 74
     1
 95
       17
 96
       13
 40
0.0
 40
0.0
 40
0.0
 40
0.0
 40
1.0
 40
1.0
 40
1.0
 40
2.0
 40
2.0
 40
2.0
 40
3.0
 40
3.0
 40
3.0
 40
4.0
 40
4.0
 40
4.0
 40
4.0
 10
81.09134655090772
 20
-111.5296264369614
 10
80.84157712822712
 20
-111.5296264369614
 10
80.79506833917624
 20
-111.8129855406231
 10
80.79506833917624
 20
-112.1578395986967
 10
80.79506833917624
 20
-112.4773722049536
 10
80.83089733222283
 20
-112.7862250152062
 10
81.09134655090772
 20
-112.7862250152062
 10
81.33870440674866
 20
-112.7862250152062
 10
81.38728025309068
 20
-112.5047607140613
 10
81.38728025309068
 20
-112.1578395986967
 10
81.38728025309068
 20
-111.838479247214
 10
81.34938420275293
 20
-111.5296264369614
 10
81.09134655090772
 20
-111.5296264369614
 97
        0
 97
        0
 75
     2
 76
     1
 98
        0
  0
POLYLINE
  5
FC
330
F5
100
AcDbEntity
  8
_U+30EC_U+30A4_U+30E4_U+30FC 1
370
     0
100
AcDb2dPolyline
 66
     1
 10
0.0
 20
0.0
 30
0.0
  0
VERTEX
  5
FD
330
FC
100
AcDbEntity
  8
_U+30EC_U+30A4_U+30E4_U+30FC 1
370
     0
100
AcDbVertex
100
AcDb2dVertex
 10
81.82825247520266
 20
-112.9300577517154
 30
0.0
  0
VERTEX
  5
FE
330
FC
100
AcDbEntity
  8
_U+30EC_U+30A4_U+30E4_U+30FC 1
370
     0
100
AcDbVertex
100
AcDb2dVertex
 10
81.82825247520266
 20
-112.6783935265179
 30
0.0
  0
VERTEX
  5
FF
330
FC
100
AcDbEntity
  8
_U+30EC_U+30A4_U+30E4_U+30FC 1
370
     0
100
AcDbVertex
100
AcDb2dVertex
 10
82.08008895517443
 20
-112.6783935265179
 30
0.0
  0
VERTEX
  5
100
330
FC
100
AcDbEntity
  8
_U+30EC_U+30A4_U+30E4_U+30FC 1
370
     0
100
AcDbVertex
100
AcDb2dVertex
 10
82.08008895517443
 20
-112.9300577517154
 30
0.0
  0
VERTEX
  5
101
330
FC
100
AcDbEntity
  8
_U+30EC_U+30A4_U+30E4_U+30FC 1
370
     0
100
AcDbVertex
100
AcDb2dVertex
 10
81.82825247520266
 20
-112.9300577517154
 30
0.0
  0
SEQEND
  5
102
330
FC
100
AcDbEntity
  8
_U+30EC_U+30A4_U+30E4_U+30FC 1
370
     0
  0
HATCH
  5
103
330
F5
100
AcDbEntity
  8
_U+30EC_U+30A4_U+30E4_U+30FC 1
 62
     7
420
 16777215
100
AcDbHatch
 10
0.0
 20
0.0
 30
0.0
210
0.0
220
0.0
230
1.0
  2
SOLID
 70
     1
 71
     0
 91
        1
 92
        1
 93
        4
 72
     1
 10
81.82825247520266
 20
-112.9300577517154
 11
81.82825247520266
 21
-112.6783935265179
 72
     1
 10
81.82825247520266
 20
-112.6783935265179
 11
82.08008895517443
 21
-112.6783935265179
 72
     1
 10
82.08008895517443
 20
-112.6783935265179
 11
82.08008895517443
 21
-112.9300577517154
 72
     1
 10
82.08008895517443
 20
-112.9300577517154
 11
81.82825247520266
 21
-112.9300577517154
 97
        0
 75
     2
 76
     1
 98
        0
  0
SPLINE
  5
104
330
F5
100
AcDbEntity
  8
_U+30EC_U+30A4_U+30E4_U+30FC 1
370
     0
100
AcDbSpline
210
0.0
220
0.0
230
1.0
 70
    11
 71
     3
 72
    29
 73
    25
 74
     0
 42
0.0000000001
 43
0.0000000001
 12
1.0
 22
0.0
 32
0.0
 13
1.0
 23
0.0
 33
0.0
 40
0.0
 40
0.0
 40
0.0
 40
0.0
 40
1.0
 40
1.0
 40
1.0
 40
2.0
 40
2.0
 40
2.0
 40
3.0
 40
3.0
 40
3.0
 40
4.0
 40
4.0
 40
4.0
 40
5.0
 40
5.0
 40
5.0
 40
6.0
 40
6.0
 40
6.0
 40
7.0
 40
7.0
 40
7.0
 40
8.0
 40
8.0
 40
8.0
 40
8.0
 10
82.81630586037231
 20
-112.9808729101228
 30
0.0
 10
82.54965546981398
 20
-112.9808729101228
 30
0.0
 10
82.2960964420996
 20
-112.8432413454871
 30
0.0
 10
82.2960964420996
 20
-112.4942531728313
 30
0.0
 10
82.2960964420996
 20
-112.2382825782772
 30
0.0
 10
82.43768986654337
 20
-112.1430256881101
 30
0.0
 10
82.54345429794053
 20
-112.0817029884726
 30
0.0
 10
82.41874184137448
 20
-112.0224473461263
 30
0.0
 10
82.34260523115046
 20
-111.9082424307903
 30
0.0
 10
82.34260523115046
 20
-111.7475287264034
 30
0.0
 10
82.34260523115046
 20
-111.4724378519062
 30
0.0
 10
82.54138724064939
 20
-111.3370455993359
 30
0.0
 10
82.81630586037231
 20
-111.3370455993359
 30
0.0
 10
83.09983721880837
 20
-111.3370455993359
 30
0.0
 10
83.29035099914269
 20
-111.4808783358451
 30
0.0
 10
83.29035099914269
 20
-111.7475287264034
 30
0.0
 10
83.29035099914269
 20
-111.9082424307903
 30
0.0
 10
83.211802822079
 20
-112.0224473461263
 30
0.0
 10
83.08709036551295
 20
-112.0817029884726
 30
0.0
 10
83.1759738290324
 20
-112.1325181468801
 30
0.0
 10
83.33479273090242
 20
-112.2277750370472
 30
0.0
 10
83.33479273090242
 20
-112.4899468034747
 30
0.0
 10
83.33479273090242
 20
-112.8644286827214
 30
0.0
 10
83.05539548704866
 20
-112.9808729101228
 30
0.0
 10
82.81630586037231
 20
-112.9808729101228
 30
0.0
  0
SPLINE
  5
105
330
F5
100
AcDbEntity
  8
_U+30EC_U+30A4_U+30E4_U+30FC 1
370
     0
100
AcDbSpline
210
0.0
220
0.0
230
1.0
 70
    11
 71
     3
 72
    17
 73
    13
 74
     0
 42
0.0000000001
 43
0.0000000001
 12
1.0
 22
0.0
 32
0.0
 13
1.0
 23
0.0
 33
0.0
 40
0.0
 40
0.0
 40
0.0
 40
0.0
 40
1.0
 40
1.0
 40
1.0
 40
2.0
 40
2.0
 40
2.0
 40
3.0
 40
3.0
 40
3.0
 40
4.0
 40
4.0
 40
4.0
 40
4.0
 10
82.81630586037231
 20
-112.1897067319352
 30
0.0
 10
82.6726453786374
 20
-112.1897067319352
 30
0.0
 10
82.52002764864083
 20
-112.2763508833893
 30
0.0
 10
82.52002764864083
 20
-112.4794392622447
 30
0.0
 10
82.52002764864083
 20
-112.6845946983914
 30
0.0
 10
82.64715167204655
 20
-112.7862250152062
 30
0.0
 10
82.81630586037231
 20
-112.7862250152062
 30
0.0
 10
83.00234101657581
 20
-112.7862250152062
 30
0.0
 10
83.1125840721038
 20
-112.6635796159313
 30
0.0
 10
83.1125840721038
 20
-112.4858126888924
 30
0.0
 10
83.1125840721038
 20
-112.2636040300938
 30
0.0
 10
82.94963105565148
 20
-112.1897067319352
 30
0.0
 10
82.81630586037231
 20
-112.1897067319352
 30
0.0
  0
SPLINE
  5
106
330
F5
100
AcDbEntity
  8
_U+30EC_U+30A4_U+30E4_U+30FC 1
370
     0
100
AcDbSpline
210
0.0
220
0.0
230
1.0
 70
    11
 71
     3
 72
    17
 73
    13
 74
     0
 42
0.0000000001
 43
0.0000000001
 12
1.0
 22
0.0
 32
0.0
 13
1.0
 23
0.0
 33
0.0
 40
0.0
 40
0.0
 40
0.0
 40
0.0
 40
1.0
 40
1.0
 40
1.0
 40
2.0
 40
2.0
 40
2.0
 40
3.0
 40
3.0
 40
3.0
 40
4.0
 40
4.0
 40
4.0
 40
4.0
 10
82.81630586037231
 20
-111.5296264369614
 30
0.0
 10
82.65128578662885
 20
-111.5296264369614
 30
0.0
 10
82.56688094724022
 20
-111.6247110723542
 30
0.0
 10
82.56688094724022
 20
-111.7601033249246
 30
0.0
 10
82.56688094724022
 20
-111.8829209789737
 30
0.0
 10
82.63853893333342
 20
-112.0014322636663
 30
0.0
 10
82.81630586037231
 20
-112.0014322636663
 30
0.0
 10
82.99407278741121
 20
-112.0014322636663
 30
0.0
 10
83.06607528305292
 20
-111.8829209789737
 30
0.0
 10
83.06607528305292
 20
-111.7601033249246
 30
0.0
 10
83.06607528305292
 20
-111.6247110723542
 30
0.0
 10
82.97925887682463
 20
-111.5296264369614
 30
0.0
 10
82.81630586037231
 20
-111.5296264369614
 30
0.0
  0
HATCH
  5
107
330
F5
100
AcDbEntity
  8
_U+30EC_U+30A4_U+30E4_U+30FC 1
 62
     7
420
 16777215
100
AcDbHatch
 10
0.0
 20
0.0
 30
0.0
210
0.0
220
0.0
230
1.0
  2
SOLID
 70
     1
 71
     0
 91
        3
 92
        1
 93
        1
 72
     4
 94
        3
 73
     0
 74
     1
 95
       29
 96
       25
 40
0.0
 40
0.0
 40
0.0
 40
0.0
 40
1.0
 40
1.0
 40
1.0
 40
2.0
 40
2.0
 40
2.0
 40
3.0
 40
3.0
 40
3.0
 40
4.0
 40
4.0
 40
4.0
 40
5.0
 40
5.0
 40
5.0
 40
6.0
 40
6.0
 40
6.0
 40
7.0
 40
7.0
 40
7.0
 40
8.0
 40
8.0
 40
8.0
 40
8.0
 10
82.81630586037231
 20
-112.9808729101228
 10
82.54965546981398
 20
-112.9808729101228
 10
82.2960964420996
 20
-112.8432413454871
 10
82.2960964420996
 20
-112.4942531728313
 10
82.2960964420996
 20
-112.2382825782772
 10
82.43768986654337
 20
-112.1430256881101
 10
82.54345429794053
 20
-112.0817029884726
 10
82.41874184137448
 20
-112.0224473461263
 10
82.34260523115046
 20
-111.9082424307903
 10
82.34260523115046
 20
-111.7475287264034
 10
82.34260523115046
 20
-111.4724378519062
 10
82.54138724064939
 20
-111.3370455993359
 10
82.81630586037231
 20
-111.3370455993359
 10
83.09983721880837
 20
-111.3370455993359
 10
83.29035099914269
 20
-111.4808783358451
 10
83.29035099914269
 20
-111.7475287264034
 10
83.29035099914269
 20
-111.9082424307903
 10
83.211802822079
 20
-112.0224473461263
 10
83.08709036551295
 20
-112.0817029884726
 10
83.1759738290324
 20
-112.1325181468801
 10
83.33479273090242
 20
-112.2277750370472
 10
83.33479273090242
 20
-112.4899468034747
 10
83.33479273090242
 20
-112.8644286827214
 10
83.05539548704866
 20
-112.9808729101228
 10
82.81630586037231
 20
-112.9808729101228
 97
        0
 97
        0
 92
        1
 93
        1
 72
     4
 94
        3
 73
     0
 74
     1
 95
       17
 96
       13
 40
0.0
 40
0.0
 40
0.0
 40
0.0
 40
1.0
 40
1.0
 40
1.0
 40
2.0
 40
2.0
 40
2.0
 40
3.0
 40
3.0
 40
3.0
 40
4.0
 40
4.0
 40
4.0
 40
4.0
 10
82.81630586037231
 20
-112.1897067319352
 10
82.6726453786374
 20
-112.1897067319352
 10
82.52002764864083
 20
-112.2763508833893
 10
82.52002764864083
 20
-112.4794392622447
 10
82.52002764864083
 20
-112.6845946983914
 10
82.64715167204655
 20
-112.7862250152062
 10
82.81630586037231
 20
-112.7862250152062
 10
83.00234101657581
 20
-112.7862250152062
 10
83.1125840721038
 20
-112.6635796159313
 10
83.1125840721038
 20
-112.4858126888924
 10
83.1125840721038
 20
-112.2636040300938
 10
82.94963105565148
 20
-112.1897067319352
 10
82.81630586037231
 20
-112.1897067319352
 97
        0
 97
        0
 92
        1
 93
        1
 72
     4
 94
        3
 73
     0
 74
     1
 95
       17
 96
       13
 40
0.0
 40
0.0
 40
0.0
 40
0.0
 40
1.0
 40
1.0
 40
1.0
 40
2.0
 40
2.0
 40
2.0
 40
3.0
 40
3.0
 40
3.0
 40
4.0
 40
4.0
 40
4.0
 40
4.0
 10
82.81630586037231
 20
-111.5296264369614
 10
82.65128578662885
 20
-111.5296264369614
 10
82.56688094724022
 20
-111.6247110723542
 10
82.56688094724022
 20
-111.7601033249246
 10
82.56688094724022
 20
-111.8829209789737
 10
82.63853893333342
 20
-112.0014322636663
 10
82.81630586037231
 20
-112.0014322636663
 10
82.99407278741121
 20
-112.0014322636663
 10
83.06607528305292
 20
-111.8829209789737
 10
83.06607528305292
 20
-111.7601033249246
 10
83.06607528305292
 20
-111.6247110723542
 10
82.97925887682463
 20
-111.5296264369614
 10
82.81630586037231
 20
-111.5296264369614
 97
        0
 97
        0
 75
     2
 76
     1
 98
        0
  0
ENDBLK
  5
F8
330
F5
100
AcDbEntity
  8
0
100
AcDbBlockEnd
  0
BLOCK
  5
116
330
114
100
AcDbEntity
  8
0
100
AcDbBlockBegin
  2
block 7
 70
     0
 10
0.0
 20
0.0
 30
0.0
  3
block 7
  1

  0
SPLINE
  5
118
330
114
100
AcDbEntity
  8
_U+30EC_U+30A4_U+30E4_U+30FC 1
370
     0
100
AcDbSpline
210
0.0
220
0.0
230
1.0
 70
    11
 71
     3
 72
    44
 73
    40
 74
     0
 42
0.0000000001
 43
0.0000000001
 12
1.0
 22
0.0
 32
0.0
 13
1.0
 23
0.0
 33
0.0
 40
0.0
 40
0.0
 40
0.0
 40
0.0
 40
1.0
 40
1.0
 40
1.0
 40
2.0
 40
2.0
 40
2.0
 40
3.0
 40
3.0
 40
3.0
 40
4.0
 40
4.0
 40
4.0
 40
5.0
 40
5.0
 40
5.0
 40
6.0
 40
6.0
 40
6.0
 40
7.0
 40
7.0
 40
7.0
 40
8.0
 40
8.0
 40
8.0
 40
9.0
 40
9.0
 40
9.0
 40
10.0
 40
10.0
 40
10.0
 40
11.0
 40
11.0
 40
11.0
 40
12.0
 40
12.0
 40
12.0
 40
13.0
 40
13.0
 40
13.0
 40
13.0
 10
90.61634654852648
 20
-142.8488172385934
 30
0.0
 10
90.39861651385868
 20
-143.0076361404634
 30
0.0
 10
90.30559893575693
 20
-143.0817056933963
 30
0.0
 10
90.25667857986639
 20
-143.2253661751312
 30
0.0
 10
90.25667857986639
 20
-143.2253661751312
 30
0.0
 10
91.03527015953286
 20
-143.2253661751312
 30
0.0
 10
91.03527015953286
 20
-143.2253661751312
 30
0.0
 10
91.03527015953286
 20
-143.2253661751312
 30
0.0
 10
91.03527015953286
 20
-143.4306938660521
 30
0.0
 10
91.03527015953286
 20
-143.4306938660521
 30
0.0
 10
91.03527015953286
 20
-143.4306938660521
 30
0.0
 10
90.0072536667343
 20
-143.4306938660521
 30
0.0
 10
90.0072536667343
 20
-143.4306938660521
 30
0.0
 10
90.0389485451986
 20
-143.0730929546831
 30
0.0
 10
90.10440535941835
 20
-142.994889287168
 30
0.0
 10
90.48956703466928
 20
-142.6965440181453
 30
0.0
 10
90.74553762922334
 20
-142.4977620086464
 30
0.0
 10
90.8109944434431
 20
-142.429893627587
 30
0.0
 10
90.8109944434431
 20
-142.2924343177255
 30
0.0
 10
90.8109944434431
 20
-142.1739230330329
 30
0.0
 10
90.73899194780137
 20
-142.0430094045934
 30
0.0
 10
90.5422769955936
 20
-142.0430094045934
 30
0.0
 10
90.28217228645724
 20
-142.0430094045934
 30
0.0
 10
90.27355954774411
 20
-142.2734862925566
 30
0.0
 10
90.26942543316181
 20
-142.3899305199581
 30
0.0
 10
90.26942543316181
 20
-142.3899305199581
 30
0.0
 10
90.04514971707205
 20
-142.3899305199581
 30
0.0
 10
90.04514971707205
 20
-142.3899305199581
 30
0.0
 10
90.05376245578518
 20
-142.2628064965524
 30
0.0
 10
90.06444225178944
 20
-142.1508408932818
 30
0.0
 10
90.14471297659577
 20
-142.0323296085892
 30
0.0
 10
90.25461152257525
 20
-141.871443649428
 30
0.0
 10
90.44099118832726
 20
-141.8376817136725
 30
0.0
 10
90.55709090618018
 20
-141.8376817136725
 30
0.0
 10
90.83442109274279
 20
-141.8376817136725
 30
0.0
 10
91.04181584095483
 20
-142.0216498125849
 30
0.0
 10
91.04181584095483
 20
-142.2945013750167
 30
0.0
 10
91.04181584095483
 20
-142.5232557152372
 30
0.0
 10
90.92537161355338
 20
-142.6224744652124
 30
0.0
 10
90.61634654852648
 20
-142.8488172385934
 30
0.0
  0
HATCH
  5
119
330
114
100
AcDbEntity
  8
_U+30EC_U+30A4_U+30E4_U+30FC 1
 62
     7
420
 16777215
100
AcDbHatch
 10
0.0
 20
0.0
 30
0.0
210
0.0
220
0.0
230
1.0
  2
SOLID
 70
     1
 71
     0
 91
        1
 92
        1
 93
        1
 72
     4
 94
        3
 73
     0
 74
     1
 95
       44
 96
       40
 40
0.0
 40
0.0
 40
0.0
 40
0.0
 40
1.0
 40
1.0
 40
1.0
 40
2.0
 40
2.0
 40
2.0
 40
3.0
 40
3.0
 40
3.0
 40
4.0
 40
4.0
 40
4.0
 40
5.0
 40
5.0
 40
5.0
 40
6.0
 40
6.0
 40
6.0
 40
7.0
 40
7.0
 40
7.0
 40
8.0
 40
8.0
 40
8.0
 40
9.0
 40
9.0
 40
9.0
 40
10.0
 40
10.0
 40
10.0
 40
11.0
 40
11.0
 40
11.0
 40
12.0
 40
12.0
 40
12.0
 40
13.0
 40
13.0
 40
13.0
 40
13.0
 10
90.61634654852648
 20
-142.8488172385934
 10
90.39861651385868
 20
-143.0076361404634
 10
90.30559893575693
 20
-143.0817056933963
 10
90.25667857986639
 20
-143.2253661751312
 10
90.25667857986639
 20
-143.2253661751312
 10
91.03527015953286
 20
-143.2253661751312
 10
91.03527015953286
 20
-143.2253661751312
 10
91.03527015953286
 20
-143.2253661751312
 10
91.03527015953286
 20
-143.4306938660521
 10
91.03527015953286
 20
-143.4306938660521
 10
91.03527015953286
 20
-143.4306938660521
 10
90.0072536667343
 20
-143.4306938660521
 10
90.0072536667343
 20
-143.4306938660521
 10
90.0389485451986
 20
-143.0730929546831
 10
90.10440535941835
 20
-142.994889287168
 10
90.48956703466928
 20
-142.6965440181453
 10
90.74553762922334
 20
-142.4977620086464
 10
90.8109944434431
 20
-142.429893627587
 10
90.8109944434431
 20
-142.2924343177255
 10
90.8109944434431
 20
-142.1739230330329
 10
90.73899194780137
 20
-142.0430094045934
 10
90.5422769955936
 20
-142.0430094045934
 10
90.28217228645724
 20
-142.0430094045934
 10
90.27355954774411
 20
-142.2734862925566
 10
90.26942543316181
 20
-142.3899305199581
 10
90.26942543316181
 20
-142.3899305199581
 10
90.04514971707205
 20
-142.3899305199581
 10
90.04514971707205
 20
-142.3899305199581
 10
90.05376245578518
 20
-142.2628064965524
 10
90.06444225178944
 20
-142.1508408932818
 10
90.14471297659577
 20
-142.0323296085892
 10
90.25461152257525
 20
-141.871443649428
 10
90.44099118832726
 20
-141.8376817136725
 10
90.55709090618018
 20
-141.8376817136725
 10
90.83442109274279
 20
-141.8376817136725
 10
91.04181584095483
 20
-142.0216498125849
 10
91.04181584095483
 20
-142.2945013750167
 10
91.04181584095483
 20
-142.5232557152372
 10
90.92537161355338
 20
-142.6224744652124
 10
90.61634654852648
 20
-142.8488172385934
 97
        0
 97
        0
 75
     2
 76
     1
 98
        0
  0
SPLINE
  5
11A
330
114
100
AcDbEntity
  8
_U+30EC_U+30A4_U+30E4_U+30FC 1
370
     0
100
AcDbSpline
210
0.0
220
0.0
230
1.0
 70
    11
 71
     3
 72
    26
 73
    22
 74
     0
 42
0.0000000001
 43
0.0000000001
 12
1.0
 22
0.0
 32
0.0
 13
1.0
 23
0.0
 33
0.0
 40
0.0
 40
0.0
 40
0.0
 40
0.0
 40
1.0
 40
1.0
 40
1.0
 40
2.0
 40
2.0
 40
2.0
 40
3.0
 40
3.0
 40
3.0
 40
4.0
 40
4.0
 40
4.0
 40
5.0
 40
5.0
 40
5.0
 40
6.0
 40
6.0
 40
6.0
 40
7.0
 40
7.0
 40
7.0
 40
7.0
 10
91.61129012466662
 20
-143.4306938660521
 30
0.0
 10
91.61129012466662
 20
-143.4306938660521
 30
0.0
 10
91.37426755528143
 20
-143.4306938660521
 30
0.0
 10
91.37426755528143
 20
-143.4306938660521
 30
0.0
 10
91.39976126187229
 20
-143.1216688010252
 30
0.0
 10
91.59234209949776
 20
-142.6035264400436
 30
0.0
 10
91.99851885720871
 20
-142.0977864228089
 30
0.0
 10
91.99851885720871
 20
-142.0977864228089
 30
0.0
 10
91.16067163519595
 20
-142.0977864228089
 30
0.0
 10
91.16067163519595
 20
-142.0977864228089
 30
0.0
 10
91.16067163519595
 20
-142.0977864228089
 30
0.0
 10
91.16067163519595
 20
-141.8862575600145
 30
0.0
 10
91.16067163519595
 20
-141.8862575600145
 30
0.0
 10
91.16067163519595
 20
-141.8862575600145
 30
0.0
 10
92.2355414265939
 20
-141.8862575600145
 30
0.0
 10
92.2355414265939
 20
-141.8862575600145
 30
0.0
 10
92.2355414265939
 20
-141.8862575600145
 30
0.0
 10
92.2355414265939
 20
-142.0977864228089
 30
0.0
 10
92.2355414265939
 20
-142.0977864228089
 30
0.0
 10
91.91170245098041
 20
-142.3878634626669
 30
0.0
 10
91.64505206042207
 20
-142.9800753765814
 30
0.0
 10
91.61129012466662
 20
-143.4306938660521
 30
0.0
  0
HATCH
  5
11B
330
114
100
AcDbEntity
  8
_U+30EC_U+30A4_U+30E4_U+30FC 1
 62
     7
420
 16777215
100
AcDbHatch
 10
0.0
 20
0.0
 30
0.0
210
0.0
220
0.0
230
1.0
  2
SOLID
 70
     1
 71
     0
 91
        1
 92
        1
 93
        1
 72
     4
 94
        3
 73
     0
 74
     1
 95
       26
 96
       22
 40
0.0
 40
0.0
 40
0.0
 40
0.0
 40
1.0
 40
1.0
 40
1.0
 40
2.0
 40
2.0
 40
2.0
 40
3.0
 40
3.0
 40
3.0
 40
4.0
 40
4.0
 40
4.0
 40
5.0
 40
5.0
 40
5.0
 40
6.0
 40
6.0
 40
6.0
 40
7.0
 40
7.0
 40
7.0
 40
7.0
 10
91.61129012466662
 20
-143.4306938660521
 10
91.61129012466662
 20
-143.4306938660521
 10
91.37426755528143
 20
-143.4306938660521
 10
91.37426755528143
 20
-143.4306938660521
 10
91.39976126187229
 20
-143.1216688010252
 10
91.59234209949776
 20
-142.6035264400436
 10
91.99851885720871
 20
-142.0977864228089
 10
91.99851885720871
 20
-142.0977864228089
 10
91.16067163519595
 20
-142.0977864228089
 10
91.16067163519595
 20
-142.0977864228089
 10
91.16067163519595
 20
-142.0977864228089
 10
91.16067163519595
 20
-141.8862575600145
 10
91.16067163519595
 20
-141.8862575600145
 10
91.16067163519595
 20
-141.8862575600145
 10
92.2355414265939
 20
-141.8862575600145
 10
92.2355414265939
 20
-141.8862575600145
 10
92.2355414265939
 20
-141.8862575600145
 10
92.2355414265939
 20
-142.0977864228089
 10
92.2355414265939
 20
-142.0977864228089
 10
91.91170245098041
 20
-142.3878634626669
 10
91.64505206042207
 20
-142.9800753765814
 10
91.61129012466662
 20
-143.4306938660521
 97
        0
 97
        0
 75
     2
 76
     1
 98
        0
  0
POLYLINE
  5
11C
330
114
100
AcDbEntity
  8
_U+30EC_U+30A4_U+30E4_U+30FC 1
370
     0
100
AcDb2dPolyline
 66
     1
 10
0.0
 20
0.0
 30
0.0
  0
VERTEX
  5
11D
330
11C
100
AcDbEntity
  8
_U+30EC_U+30A4_U+30E4_U+30FC 1
370
     0
100
AcDbVertex
100
AcDb2dVertex
 10
92.437079512481
 20
-143.4306938660521
 30
0.0
  0
VERTEX
  5
11E
330
11C
100
AcDbEntity
  8
_U+30EC_U+30A4_U+30E4_U+30FC 1
370
     0
100
AcDbVertex
100
AcDb2dVertex
 10
92.437079512481
 20
-143.1788573860803
 30
0.0
  0
VERTEX
  5
11F
330
11C
100
AcDbEntity
  8
_U+30EC_U+30A4_U+30E4_U+30FC 1
370
     0
100
AcDbVertex
100
AcDb2dVertex
 10
92.68891599245278
 20
-143.1788573860803
 30
0.0
  0
VERTEX
  5
120
330
11C
100
AcDbEntity
  8
_U+30EC_U+30A4_U+30E4_U+30FC 1
370
     0
100
AcDbVertex
100
AcDb2dVertex
 10
92.68891599245278
 20
-143.4306938660521
 30
0.0
  0
VERTEX
  5
121
330
11C
100
AcDbEntity
  8
_U+30EC_U+30A4_U+30E4_U+30FC 1
370
     0
100
AcDbVertex
100
AcDb2dVertex
 10
92.437079512481
 20
-143.4306938660521
 30
0.0
  0
SEQEND
  5
122
330
11C
100
AcDbEntity
  8
_U+30EC_U+30A4_U+30E4_U+30FC 1
370
     0
  0
HATCH
  5
123
330
114
100
AcDbEntity
  8
_U+30EC_U+30A4_U+30E4_U+30FC 1
 62
     7
420
 16777215
100
AcDbHatch
 10
0.0
 20
0.0
 30
0.0
210
0.0
220
0.0
230
1.0
  2
SOLID
 70
     1
 71
     0
 91
        1
 92
        1
 93
        4
 72
     1
 10
92.437079512481
 20
-143.4306938660521
 11
92.437079512481
 21
-143.1788573860803
 72
     1
 10
92.437079512481
 20
-143.1788573860803
 11
92.68891599245278
 21
-143.1788573860803
 72
     1
 10
92.68891599245278
 20
-143.1788573860803
 11
92.68891599245278
 21
-143.4306938660521
 72
     1
 10
92.68891599245278
 20
-143.4306938660521
 11
92.437079512481
 21
-143.4306938660521
 97
        0
 75
     2
 76
     1
 98
        0
  0
SPLINE
  5
124
330
114
100
AcDbEntity
  8
_U+30EC_U+30A4_U+30E4_U+30FC 1
370
     0
100
AcDbSpline
210
0.0
220
0.0
230
1.0
 70
    11
 71
     3
 72
    53
 73
    49
 74
     0
 42
0.0000000001
 43
0.0000000001
 12
1.0
 22
0.0
 32
0.0
 13
1.0
 23
0.0
 33
0.0
 40
0.0
 40
0.0
 40
0.0
 40
0.0
 40
1.0
 40
1.0
 40
1.0
 40
2.0
 40
2.0
 40
2.0
 40
3.0
 40
3.0
 40
3.0
 40
4.0
 40
4.0
 40
4.0
 40
5.0
 40
5.0
 40
5.0
 40
6.0
 40
6.0
 40
6.0
 40
7.0
 40
7.0
 40
7.0
 40
8.0
 40
8.0
 40
8.0
 40
9.0
 40
9.0
 40
9.0
 40
10.0
 40
10.0
 40
10.0
 40
11.0
 40
11.0
 40
11.0
 40
12.0
 40
12.0
 40
12.0
 40
13.0
 40
13.0
 40
13.0
 40
14.0
 40
14.0
 40
14.0
 40
15.0
 40
15.0
 40
15.0
 40
16.0
 40
16.0
 40
16.0
 40
16.0
 10
93.40618487248179
 20
-143.4813367696852
 30
0.0
 10
93.32798120496662
 20
-143.4813367696852
 30
0.0
 10
93.22635088815176
 20
-143.4644558018075
 30
0.0
 10
93.12472057133688
 20
-143.4010660448789
 30
0.0
 10
92.95143226842882
 20
-143.2911674988994
 30
0.0
 10
92.93007267642027
 20
-143.1599093609114
 30
0.0
 10
92.91112465125138
 20
-143.0520778722231
 30
0.0
 10
92.91112465125138
 20
-143.0520778722231
 30
0.0
 10
93.13333331005
 20
-143.0520778722231
 30
0.0
 10
93.13333331005
 20
-143.0520778722231
 30
0.0
 10
93.18811032826548
 20
-143.250859881722
 30
0.0
 10
93.3152343516712
 20
-143.2804877028952
 30
0.0
 10
93.40825192977294
 20
-143.2804877028952
 30
0.0
 10
93.54777829692556
 20
-143.2804877028952
 30
0.0
 10
93.70005151737361
 20
-143.1809244433715
 30
0.0
 10
93.70005151737361
 20
-142.9483804981171
 30
0.0
 10
93.70005151737361
 20
-142.692409903563
 30
0.0
 10
93.52021753304356
 20
-142.6224744652124
 30
0.0
 10
93.39963919105982
 20
-142.6224744652124
 30
0.0
 10
93.36794431259551
 20
-142.6224744652124
 30
0.0
 10
93.22635088815176
 20
-142.6224744652124
 30
0.0
 10
93.1374674246323
 20
-142.7516655459093
 30
0.0
 10
93.1374674246323
 20
-142.7516655459093
 30
0.0
 10
92.96176755488456
 20
-142.7327175207404
 30
0.0
 10
92.96176755488456
 20
-142.7327175207404
 30
0.0
 10
92.96176755488456
 20
-142.7327175207404
 30
0.0
 10
93.0823458968683
 20
-141.8862575600145
 30
0.0
 10
93.0823458968683
 20
-141.8862575600145
 30
0.0
 10
93.0823458968683
 20
-141.8862575600145
 30
0.0
 10
93.86093747653477
 20
-141.8862575600145
 30
0.0
 10
93.86093747653477
 20
-141.8862575600145
 30
0.0
 10
93.86093747653477
 20
-141.8862575600145
 30
0.0
 10
93.86093747653477
 20
-142.0809054549312
 30
0.0
 10
93.86093747653477
 20
-142.0809054549312
 30
0.0
 10
93.86093747653477
 20
-142.0809054549312
 30
0.0
 10
93.24529891332062
 20
-142.0809054549312
 30
0.0
 10
93.24529891332062
 20
-142.0809054549312
 30
0.0
 10
93.24529891332062
 20
-142.0809054549312
 30
0.0
 10
93.17984209910088
 20
-142.5039631805199
 30
0.0
 10
93.17984209910088
 20
-142.5039631805199
 30
0.0
 10
93.24116479873832
 20
-142.4702012447644
 30
0.0
 10
93.3235025808358
 20
-142.429893627587
 30
0.0
 10
93.4420138655284
 20
-142.429893627587
 30
0.0
 10
93.69591740279131
 20
-142.429893627587
 30
0.0
 10
93.9329399721765
 20
-142.616273293339
 30
0.0
 10
93.9329399721765
 20
-142.9294324729482
 30
0.0
 10
93.9329399721765
 20
-143.2467257671397
 30
0.0
 10
93.70866425608672
 20
-143.4813367696852
 30
0.0
 10
93.40618487248179
 20
-143.4813367696852
 30
0.0
  0
HATCH
  5
125
330
114
100
AcDbEntity
  8
_U+30EC_U+30A4_U+30E4_U+30FC 1
 62
     7
420
 16777215
100
AcDbHatch
 10
0.0
 20
0.0
 30
0.0
210
0.0
220
0.0
230
1.0
  2
SOLID
 70
     1
 71
     0
 91
        1
 92
        1
 93
        1
 72
     4
 94
        3
 73
     0
 74
     1
 95
       53
 96
       49
 40
0.0
 40
0.0
 40
0.0
 40
0.0
 40
1.0
 40
1.0
 40
1.0
 40
2.0
 40
2.0
 40
2.0
 40
3.0
 40
3.0
 40
3.0
 40
4.0
 40
4.0
 40
4.0
 40
5.0
 40
5.0
 40
5.0
 40
6.0
 40
6.0
 40
6.0
 40
7.0
 40
7.0
 40
7.0
 40
8.0
 40
8.0
 40
8.0
 40
9.0
 40
9.0
 40
9.0
 40
10.0
 40
10.0
 40
10.0
 40
11.0
 40
11.0
 40
11.0
 40
12.0
 40
12.0
 40
12.0
 40
13.0
 40
13.0
 40
13.0
 40
14.0
 40
14.0
 40
14.0
 40
15.0
 40
15.0
 40
15.0
 40
16.0
 40
16.0
 40
16.0
 40
16.0
 10
93.40618487248179
 20
-143.4813367696852
 10
93.32798120496662
 20
-143.4813367696852
 10
93.22635088815176
 20
-143.4644558018075
 10
93.12472057133688
 20
-143.4010660448789
 10
92.95143226842882
 20
-143.2911674988994
 10
92.93007267642027
 20
-143.1599093609114
 10
92.91112465125138
 20
-143.0520778722231
 10
92.91112465125138
 20
-143.0520778722231
 10
93.13333331005
 20
-143.0520778722231
 10
93.13333331005
 20
-143.0520778722231
 10
93.18811032826548
 20
-143.250859881722
 10
93.3152343516712
 20
-143.2804877028952
 10
93.40825192977294
 20
-143.2804877028952
 10
93.54777829692556
 20
-143.2804877028952
 10
93.70005151737361
 20
-143.1809244433715
 10
93.70005151737361
 20
-142.9483804981171
 10
93.70005151737361
 20
-142.692409903563
 10
93.52021753304356
 20
-142.6224744652124
 10
93.39963919105982
 20
-142.6224744652124
 10
93.36794431259551
 20
-142.6224744652124
 10
93.22635088815176
 20
-142.6224744652124
 10
93.1374674246323
 20
-142.7516655459093
 10
93.1374674246323
 20
-142.7516655459093
 10
92.96176755488456
 20
-142.7327175207404
 10
92.96176755488456
 20
-142.7327175207404
 10
92.96176755488456
 20
-142.7327175207404
 10
93.0823458968683
 20
-141.8862575600145
 10
93.0823458968683
 20
-141.8862575600145
 10
93.0823458968683
 20
-141.8862575600145
 10
93.86093747653477
 20
-141.8862575600145
 10
93.86093747653477
 20
-141.8862575600145
 10
93.86093747653477
 20
-141.8862575600145
 10
93.86093747653477
 20
-142.0809054549312
 10
93.86093747653477
 20
-142.0809054549312
 10
93.86093747653477
 20
-142.0809054549312
 10
93.24529891332062
 20
-142.0809054549312
 10
93.24529891332062
 20
-142.0809054549312
 10
93.24529891332062
 20
-142.0809054549312
 10
93.17984209910088
 20
-142.5039631805199
 10
93.17984209910088
 20
-142.5039631805199
 10
93.24116479873832
 20
-142.4702012447644
 10
93.3235025808358
 20
-142.429893627587
 10
93.4420138655284
 20
-142.429893627587
 10
93.69591740279131
 20
-142.429893627587
 10
93.9329399721765
 20
-142.616273293339
 10
93.9329399721765
 20
-142.9294324729482
 10
93.9329399721765
 20
-143.2467257671397
 10
93.70866425608672
 20
-143.4813367696852
 10
93.40618487248179
 20
-143.4813367696852
 97
        0
 97
        0
 75
     2
 76
     1
 98
        0
  0
ENDBLK
  5
117
330
114
100
AcDbEntity
  8
0
100
AcDbBlockEnd
  0
BLOCK
  5
134
330
132
100
AcDbEntity
  8
0
100
AcDbBlockBegin
  2
block 8
 70
     0
 10
0.0
 20
0.0
 30
0.0
  3
block 8
  1

  0
SPLINE
  5
136
330
132
100
AcDbEntity
  8
_U+30EC_U+30A4_U+30E4_U+30FC 1
370
     0
100
AcDbSpline
210
0.0
220
0.0
230
1.0
 70
    11
 71
     3
 72
    44
 73
    40
 74
     0
 42
0.0000000001
 43
0.0000000001
 12
1.0
 22
0.0
 32
0.0
 13
1.0
 23
0.0
 33
0.0
 40
0.0
 40
0.0
 40
0.0
 40
0.0
 40
1.0
 40
1.0
 40
1.0
 40
2.0
 40
2.0
 40
2.0
 40
3.0
 40
3.0
 40
3.0
 40
4.0
 40
4.0
 40
4.0
 40
5.0
 40
5.0
 40
5.0
 40
6.0
 40
6.0
 40
6.0
 40
7.0
 40
7.0
 40
7.0
 40
8.0
 40
8.0
 40
8.0
 40
9.0
 40
9.0
 40
9.0
 40
10.0
 40
10.0
 40
10.0
 40
11.0
 40
11.0
 40
11.0
 40
12.0
 40
12.0
 40
12.0
 40
13.0
 40
13.0
 40
13.0
 40
13.0
 10
72.92784828905971
 20
-130.0161810655862
 30
0.0
 10
73.08649493615546
 20
-130.233911100254
 30
0.0
 10
73.16056448908833
 20
-130.3269286783558
 30
0.0
 10
73.30439722559751
 20
-130.3758490342463
 30
0.0
 10
73.30439722559751
 20
-130.3758490342463
 30
0.0
 10
73.30439722559751
 20
-129.5972574545798
 30
0.0
 10
73.30439722559751
 20
-129.5972574545798
 30
0.0
 10
73.30439722559751
 20
-129.5972574545798
 30
0.0
 10
73.50955266174414
 20
-129.5972574545798
 30
0.0
 10
73.50955266174414
 20
-129.5972574545798
 30
0.0
 10
73.50955266174414
 20
-129.5972574545798
 30
0.0
 10
73.50955266174414
 20
-130.6252739473784
 30
0.0
 10
73.50955266174414
 20
-130.6252739473784
 30
0.0
 10
73.1519517503752
 20
-130.5935790689141
 30
0.0
 10
73.07374808286004
 20
-130.5281222546944
 30
0.0
 10
72.7754028138374
 20
-130.1429605794434
 30
0.0
 10
72.57662080433849
 20
-129.8869899848894
 30
0.0
 10
72.50892467805333
 20
-129.8215331706696
 30
0.0
 10
72.37146536819186
 20
-129.8215331706696
 30
0.0
 10
72.25295408349926
 20
-129.8215331706696
 30
0.0
 10
72.12169594551125
 20
-129.8935356663114
 30
0.0
 10
72.12169594551125
 20
-130.0902506185191
 30
0.0
 10
72.12169594551125
 20
-130.3503553276555
 30
0.0
 10
72.35234508824873
 20
-130.3586235568201
 30
0.0
 10
72.46878931565017
 20
-130.3631021809509
 30
0.0
 10
72.46878931565017
 20
-130.3631021809509
 30
0.0
 10
72.46878931565017
 20
-130.5873778970407
 30
0.0
 10
72.46878931565017
 20
-130.5873778970407
 30
0.0
 10
72.34183754701871
 20
-130.5787651583275
 30
0.0
 10
72.22969968897382
 20
-130.5680853623233
 30
0.0
 10
72.11118840428124
 20
-130.4878146375169
 30
0.0
 10
71.95047469989433
 20
-130.3779160915375
 30
0.0
 10
71.91654050936462
 20
-130.1915364257854
 30
0.0
 10
71.91654050936462
 20
-130.0754367079325
 30
0.0
 10
71.91654050936462
 20
-129.7981065213699
 30
0.0
 10
72.10068086305122
 20
-129.5907117731579
 30
0.0
 10
72.373532425483
 20
-129.5907117731579
 30
0.0
 10
72.60194225615507
 20
-129.5907117731579
 30
0.0
 10
72.70150551567879
 20
-129.7071560005593
 30
0.0
 10
72.92784828905971
 20
-130.0161810655862
 30
0.0
  0
HATCH
  5
137
330
132
100
AcDbEntity
  8
_U+30EC_U+30A4_U+30E4_U+30FC 1
 62
     7
420
 16777215
100
AcDbHatch
 10
0.0
 20
0.0
 30
0.0
210
0.0
220
0.0
230
1.0
  2
SOLID
 70
     1
 71
     0
 91
        1
 92
        1
 93
        1
 72
     4
 94
        3
 73
     0
 74
     1
 95
       44
 96
       40
 40
0.0
 40
0.0
 40
0.0
 40
0.0
 40
1.0
 40
1.0
 40
1.0
 40
2.0
 40
2.0
 40
2.0
 40
3.0
 40
3.0
 40
3.0
 40
4.0
 40
4.0
 40
4.0
 40
5.0
 40
5.0
 40
5.0
 40
6.0
 40
6.0
 40
6.0
 40
7.0
 40
7.0
 40
7.0
 40
8.0
 40
8.0
 40
8.0
 40
9.0
 40
9.0
 40
9.0
 40
10.0
 40
10.0
 40
10.0
 40
11.0
 40
11.0
 40
11.0
 40
12.0
 40
12.0
 40
12.0
 40
13.0
 40
13.0
 40
13.0
 40
13.0
 10
72.92784828905971
 20
-130.0161810655862
 10
73.08649493615546
 20
-130.233911100254
 10
73.16056448908833
 20
-130.3269286783558
 10
73.30439722559751
 20
-130.3758490342463
 10
73.30439722559751
 20
-130.3758490342463
 10
73.30439722559751
 20
-129.5972574545798
 10
73.30439722559751
 20
-129.5972574545798
 10
73.30439722559751
 20
-129.5972574545798
 10
73.50955266174414
 20
-129.5972574545798
 10
73.50955266174414
 20
-129.5972574545798
 10
73.50955266174414
 20
-129.5972574545798
 10
73.50955266174414
 20
-130.6252739473784
 10
73.50955266174414
 20
-130.6252739473784
 10
73.1519517503752
 20
-130.5935790689141
 10
73.07374808286004
 20
-130.5281222546944
 10
72.7754028138374
 20
-130.1429605794434
 10
72.57662080433849
 20
-129.8869899848894
 10
72.50892467805333
 20
-129.8215331706696
 10
72.37146536819186
 20
-129.8215331706696
 10
72.25295408349926
 20
-129.8215331706696
 10
72.12169594551125
 20
-129.8935356663114
 10
72.12169594551125
 20
-130.0902506185191
 10
72.12169594551125
 20
-130.3503553276555
 10
72.35234508824873
 20
-130.3586235568201
 10
72.46878931565017
 20
-130.3631021809509
 10
72.46878931565017
 20
-130.3631021809509
 10
72.46878931565017
 20
-130.5873778970407
 10
72.46878931565017
 20
-130.5873778970407
 10
72.34183754701871
 20
-130.5787651583275
 10
72.22969968897382
 20
-130.5680853623233
 10
72.11118840428124
 20
-130.4878146375169
 10
71.95047469989433
 20
-130.3779160915375
 10
71.91654050936462
 20
-130.1915364257854
 10
71.91654050936462
 20
-130.0754367079325
 10
71.91654050936462
 20
-129.7981065213699
 10
72.10068086305122
 20
-129.5907117731579
 10
72.373532425483
 20
-129.5907117731579
 10
72.60194225615507
 20
-129.5907117731579
 10
72.70150551567879
 20
-129.7071560005593
 10
72.92784828905971
 20
-130.0161810655862
 97
        0
 97
        0
 75
     2
 76
     1
 98
        0
  0
SPLINE
  5
138
330
132
100
AcDbEntity
  8
_U+30EC_U+30A4_U+30E4_U+30FC 1
370
     0
100
AcDbSpline
210
0.0
220
0.0
230
1.0
 70
    11
 71
     3
 72
    44
 73
    40
 74
     0
 42
0.0000000001
 43
0.0000000001
 12
1.0
 22
0.0
 32
0.0
 13
1.0
 23
0.0
 33
0.0
 40
0.0
 40
0.0
 40
0.0
 40
0.0
 40
1.0
 40
1.0
 40
1.0
 40
2.0
 40
2.0
 40
2.0
 40
3.0
 40
3.0
 40
3.0
 40
4.0
 40
4.0
 40
4.0
 40
5.0
 40
5.0
 40
5.0
 40
6.0
 40
6.0
 40
6.0
 40
7.0
 40
7.0
 40
7.0
 40
8.0
 40
8.0
 40
8.0
 40
9.0
 40
9.0
 40
9.0
 40
10.0
 40
10.0
 40
10.0
 40
11.0
 40
11.0
 40
11.0
 40
12.0
 40
12.0
 40
12.0
 40
13.0
 40
13.0
 40
13.0
 40
13.0
 10
72.92784828905971
 20
-128.8393364478249
 30
0.0
 10
73.08649493615546
 20
-129.0570664824927
 30
0.0
 10
73.16056448908833
 20
-129.1500840605944
 30
0.0
 10
73.30439722559751
 20
-129.199004416485
 30
0.0
 10
73.30439722559751
 20
-129.199004416485
 30
0.0
 10
73.30439722559751
 20
-128.4204128368185
 30
0.0
 10
73.30439722559751
 20
-128.4204128368185
 30
0.0
 10
73.30439722559751
 20
-128.4204128368185
 30
0.0
 10
73.50955266174414
 20
-128.4204128368185
 30
0.0
 10
73.50955266174414
 20
-128.4204128368185
 30
0.0
 10
73.50955266174414
 20
-128.4204128368185
 30
0.0
 10
73.50955266174414
 20
-129.4484293296171
 30
0.0
 10
73.50955266174414
 20
-129.4484293296171
 30
0.0
 10
73.1519517503752
 20
-129.4167344511528
 30
0.0
 10
73.07374808286004
 20
-129.351277636933
 30
0.0
 10
72.7754028138374
 20
-128.9661159616821
 30
0.0
 10
72.57662080433849
 20
-128.710145367128
 30
0.0
 10
72.50892467805333
 20
-128.6446885529083
 30
0.0
 10
72.37146536819186
 20
-128.6446885529083
 30
0.0
 10
72.25295408349926
 20
-128.6446885529083
 30
0.0
 10
72.12169594551125
 20
-128.71669104855
 30
0.0
 10
72.12169594551125
 20
-128.9134060007578
 30
0.0
 10
72.12169594551125
 20
-129.1735107098941
 30
0.0
 10
72.35234508824873
 20
-129.1817789390587
 30
0.0
 10
72.46878931565017
 20
-129.1862575631895
 30
0.0
 10
72.46878931565017
 20
-129.1862575631895
 30
0.0
 10
72.46878931565017
 20
-129.4105332792793
 30
0.0
 10
72.46878931565017
 20
-129.4105332792793
 30
0.0
 10
72.34183754701871
 20
-129.4019205405662
 30
0.0
 10
72.22969968897382
 20
-129.3912407445619
 30
0.0
 10
72.11118840428124
 20
-129.3109700197556
 30
0.0
 10
71.95047469989433
 20
-129.2010714737761
 30
0.0
 10
71.91654050936462
 20
-129.0146918080241
 30
0.0
 10
71.91654050936462
 20
-128.8985920901712
 30
0.0
 10
71.91654050936462
 20
-128.6212619036086
 30
0.0
 10
72.10068086305122
 20
-128.4138671553965
 30
0.0
 10
72.373532425483
 20
-128.4138671553965
 30
0.0
 10
72.60194225615507
 20
-128.4138671553965
 30
0.0
 10
72.70150551567879
 20
-128.530311382798
 30
0.0
 10
72.92784828905971
 20
-128.8393364478249
 30
0.0
  0
HATCH
  5
139
330
132
100
AcDbEntity
  8
_U+30EC_U+30A4_U+30E4_U+30FC 1
 62
     7
420
 16777215
100
AcDbHatch
 10
0.0
 20
0.0
 30
0.0
210
0.0
220
0.0
230
1.0
  2
SOLID
 70
     1
 71
     0
 91
        1
 92
        1
 93
        1
 72
     4
 94
        3
 73
     0
 74
     1
 95
       44
 96
       40
 40
0.0
 40
0.0
 40
0.0
 40
0.0
 40
1.0
 40
1.0
 40
1.0
 40
2.0
 40
2.0
 40
2.0
 40
3.0
 40
3.0
 40
3.0
 40
4.0
 40
4.0
 40
4.0
 40
5.0
 40
5.0
 40
5.0
 40
6.0
 40
6.0
 40
6.0
 40
7.0
 40
7.0
 40
7.0
 40
8.0
 40
8.0
 40
8.0
 40
9.0
 40
9.0
 40
9.0
 40
10.0
 40
10.0
 40
10.0
 40
11.0
 40
11.0
 40
11.0
 40
12.0
 40
12.0
 40
12.0
 40
13.0
 40
13.0
 40
13.0
 40
13.0
 10
72.92784828905971
 20
-128.8393364478249
 10
73.08649493615546
 20
-129.0570664824927
 10
73.16056448908833
 20
-129.1500840605944
 10
73.30439722559751
 20
-129.199004416485
 10
73.30439722559751
 20
-129.199004416485
 10
73.30439722559751
 20
-128.4204128368185
 10
73.30439722559751
 20
-128.4204128368185
 10
73.30439722559751
 20
-128.4204128368185
 10
73.50955266174414
 20
-128.4204128368185
 10
73.50955266174414
 20
-128.4204128368185
 10
73.50955266174414
 20
-128.4204128368185
 10
73.50955266174414
 20
-129.4484293296171
 10
73.50955266174414
 20
-129.4484293296171
 10
73.1519517503752
 20
-129.4167344511528
 10
73.07374808286004
 20
-129.351277636933
 10
72.7754028138374
 20
-128.9661159616821
 10
72.57662080433849
 20
-128.710145367128
 10
72.50892467805333
 20
-128.6446885529083
 10
72.37146536819186
 20
-128.6446885529083
 10
72.25295408349926
 20
-128.6446885529083
 10
72.12169594551125
 20
-128.71669104855
 10
72.12169594551125
 20
-128.9134060007578
 10
72.12169594551125
 20
-129.1735107098941
 10
72.35234508824873
 20
-129.1817789390587
 10
72.46878931565017
 20
-129.1862575631895
 10
72.46878931565017
 20
-129.1862575631895
 10
72.46878931565017
 20
-129.4105332792793
 10
72.46878931565017
 20
-129.4105332792793
 10
72.34183754701871
 20
-129.4019205405662
 10
72.22969968897382
 20
-129.3912407445619
 10
72.11118840428124
 20
-129.3109700197556
 10
71.95047469989433
 20
-129.2010714737761
 10
71.91654050936462
 20
-129.0146918080241
 10
71.91654050936462
 20
-128.8985920901712
 10
71.91654050936462
 20
-128.6212619036086
 10
72.10068086305122
 20
-128.4138671553965
 10
72.373532425483
 20
-128.4138671553965
 10
72.60194225615507
 20
-128.4138671553965
 10
72.70150551567879
 20
-128.530311382798
 10
72.92784828905971
 20
-128.8393364478249
 97
        0
 97
        0
 75
     2
 76
     1
 98
        0
  0
POLYLINE
  5
13A
330
132
100
AcDbEntity
  8
_U+30EC_U+30A4_U+30E4_U+30FC 1
370
     0
100
AcDb2dPolyline
 66
     1
 10
0.0
 20
0.0
 30
0.0
  0
VERTEX
  5
13B
330
13A
100
AcDbEntity
  8
_U+30EC_U+30A4_U+30E4_U+30FC 1
370
     0
100
AcDbVertex
100
AcDb2dVertex
 10
73.50955266174414
 20
-128.1954481016317
 30
0.0
  0
VERTEX
  5
13C
330
13A
100
AcDbEntity
  8
_U+30EC_U+30A4_U+30E4_U+30FC 1
370
     0
100
AcDbVertex
100
AcDb2dVertex
 10
73.25788843654664
 20
-128.1954481016317
 30
0.0
  0
VERTEX
  5
13D
330
13A
100
AcDbEntity
  8
_U+30EC_U+30A4_U+30E4_U+30FC 1
370
     0
100
AcDbVertex
100
AcDb2dVertex
 10
73.25788843654664
 20
-127.9436116216599
 30
0.0
  0
VERTEX
  5
13E
330
13A
100
AcDbEntity
  8
_U+30EC_U+30A4_U+30E4_U+30FC 1
370
     0
100
AcDbVertex
100
AcDb2dVertex
 10
73.50955266174414
 20
-127.9436116216599
 30
0.0
  0
VERTEX
  5
13F
330
13A
100
AcDbEntity
  8
_U+30EC_U+30A4_U+30E4_U+30FC 1
370
     0
100
AcDbVertex
100
AcDb2dVertex
 10
73.50955266174414
 20
-128.1954481016317
 30
0.0
  0
SEQEND
  5
140
330
13A
100
AcDbEntity
  8
_U+30EC_U+30A4_U+30E4_U+30FC 1
370
     0
  0
HATCH
  5
141
330
132
100
AcDbEntity
  8
_U+30EC_U+30A4_U+30E4_U+30FC 1
 62
     7
420
 16777215
100
AcDbHatch
 10
0.0
 20
0.0
 30
0.0
210
0.0
220
0.0
230
1.0
  2
SOLID
 70
     1
 71
     0
 91
        1
 92
        1
 93
        4
 72
     1
 10
73.50955266174414
 20
-128.1954481016317
 11
73.25788843654664
 21
-128.1954481016317
 72
     1
 10
73.25788843654664
 20
-128.1954481016317
 11
73.25788843654664
 21
-127.9436116216599
 72
     1
 10
73.25788843654664
 20
-127.9436116216599
 11
73.50955266174414
 21
-127.9436116216599
 72
     1
 10
73.50955266174414
 20
-127.9436116216599
 11
73.50955266174414
 21
-128.1954481016317
 97
        0
 75
     2
 76
     1
 98
        0
  0
SPLINE
  5
142
330
132
100
AcDbEntity
  8
_U+30EC_U+30A4_U+30E4_U+30FC 1
370
     0
100
AcDbSpline
210
0.0
220
0.0
230
1.0
 70
    11
 71
     3
 72
    53
 73
    49
 74
     0
 42
0.0000000001
 43
0.0000000001
 12
1.0
 22
0.0
 32
0.0
 13
1.0
 23
0.0
 33
0.0
 40
0.0
 40
0.0
 40
0.0
 40
0.0
 40
1.0
 40
1.0
 40
1.0
 40
2.0
 40
2.0
 40
2.0
 40
3.0
 40
3.0
 40
3.0
 40
4.0
 40
4.0
 40
4.0
 40
5.0
 40
5.0
 40
5.0
 40
6.0
 40
6.0
 40
6.0
 40
7.0
 40
7.0
 40
7.0
 40
8.0
 40
8.0
 40
8.0
 40
9.0
 40
9.0
 40
9.0
 40
10.0
 40
10.0
 40
10.0
 40
11.0
 40
11.0
 40
11.0
 40
12.0
 40
12.0
 40
12.0
 40
13.0
 40
13.0
 40
13.0
 40
14.0
 40
14.0
 40
14.0
 40
15.0
 40
15.0
 40
15.0
 40
16.0
 40
16.0
 40
16.0
 40
16.0
 10
73.56036782015158
 20
-127.2263427416309
 30
0.0
 10
73.56036782015158
 20
-127.3045464091461
 30
0.0
 10
73.54348685227386
 20
-127.406176725961
 30
0.0
 10
73.47992484057099
 20
-127.5078070427758
 30
0.0
 10
73.36985403981726
 20
-127.6810953456839
 30
0.0
 10
73.23876815660351
 20
-127.7024549376925
 30
0.0
 10
73.13093666791518
 20
-127.7214029628613
 30
0.0
 10
73.13093666791518
 20
-127.7214029628613
 30
0.0
 10
73.13093666791518
 20
-127.4991943040627
 30
0.0
 10
73.13093666791518
 20
-127.4991943040627
 30
0.0
 10
73.3297186774141
 20
-127.4444172858472
 30
0.0
 10
73.35934649858724
 20
-127.3172932624415
 30
0.0
 10
73.35934649858724
 20
-127.2242756843398
 30
0.0
 10
73.35934649858724
 20
-127.0847493171871
 30
0.0
 10
73.2599554938378
 20
-126.9324760967391
 30
0.0
 10
73.02723929380916
 20
-126.9324760967391
 30
0.0
 10
72.7712686992551
 20
-126.9324760967391
 30
0.0
 10
72.70150551567879
 20
-127.1123100810692
 30
0.0
 10
72.70150551567879
 20
-127.2328884230529
 30
0.0
 10
72.70150551567879
 20
-127.2645833015172
 30
0.0
 10
72.70150551567879
 20
-127.406176725961
 30
0.0
 10
72.8305243416014
 20
-127.4950601894804
 30
0.0
 10
72.8305243416014
 20
-127.4950601894804
 30
0.0
 10
72.81140406165827
 20
-127.6707600592281
 30
0.0
 10
72.81140406165827
 20
-127.6707600592281
 30
0.0
 10
72.81140406165827
 20
-127.6707600592281
 30
0.0
 10
71.9652886104809
 20
-127.5501817172444
 30
0.0
 10
71.9652886104809
 20
-127.5501817172444
 30
0.0
 10
71.9652886104809
 20
-127.5501817172444
 30
0.0
 10
71.9652886104809
 20
-126.7715901375779
 30
0.0
 10
71.9652886104809
 20
-126.7715901375779
 30
0.0
 10
71.9652886104809
 20
-126.7715901375779
 30
0.0
 10
72.15993650539752
 20
-126.7715901375779
 30
0.0
 10
72.15993650539752
 20
-126.7715901375779
 30
0.0
 10
72.15993650539752
 20
-126.7715901375779
 30
0.0
 10
72.15993650539752
 20
-127.3872287007921
 30
0.0
 10
72.15993650539752
 20
-127.3872287007921
 30
0.0
 10
72.15993650539752
 20
-127.3872287007921
 30
0.0
 10
72.5829942309862
 20
-127.4526855150118
 30
0.0
 10
72.5829942309862
 20
-127.4526855150118
 30
0.0
 10
72.54906004045648
 20
-127.3913628153744
 30
0.0
 10
72.50892467805333
 20
-127.3090250332769
 30
0.0
 10
72.50892467805333
 20
-127.1905137485843
 30
0.0
 10
72.50892467805333
 20
-126.9366102113214
 30
0.0
 10
72.69513208903108
 20
-126.6995876419362
 30
0.0
 10
73.00811901386604
 20
-126.6995876419362
 30
0.0
 10
73.3255845628318
 20
-126.6995876419362
 30
0.0
 10
73.56036782015158
 20
-126.923863358026
 30
0.0
 10
73.56036782015158
 20
-127.2263427416309
 30
0.0
  0
HATCH
  5
143
330
132
100
AcDbEntity
  8
_U+30EC_U+30A4_U+30E4_U+30FC 1
 62
     7
420
 16777215
100
AcDbHatch
 10
0.0
 20
0.0
 30
0.0
210
0.0
220
0.0
230
1.0
  2
SOLID
 70
     1
 71
     0
 91
        1
 92
        1
 93
        1
 72
     4
 94
        3
 73
     0
 74
     1
 95
       53
 96
       49
 40
0.0
 40
0.0
 40
0.0
 40
0.0
 40
1.0
 40
1.0
 40
1.0
 40
2.0
 40
2.0
 40
2.0
 40
3.0
 40
3.0
 40
3.0
 40
4.0
 40
4.0
 40
4.0
 40
5.0
 40
5.0
 40
5.0
 40
6.0
 40
6.0
 40
6.0
 40
7.0
 40
7.0
 40
7.0
 40
8.0
 40
8.0
 40
8.0
 40
9.0
 40
9.0
 40
9.0
 40
10.0
 40
10.0
 40
10.0
 40
11.0
 40
11.0
 40
11.0
 40
12.0
 40
12.0
 40
12.0
 40
13.0
 40
13.0
 40
13.0
 40
14.0
 40
14.0
 40
14.0
 40
15.0
 40
15.0
 40
15.0
 40
16.0
 40
16.0
 40
16.0
 40
16.0
 10
73.56036782015158
 20
-127.2263427416309
 10
73.56036782015158
 20
-127.3045464091461
 10
73.54348685227386
 20
-127.406176725961
 10
73.47992484057099
 20
-127.5078070427758
 10
73.36985403981726
 20
-127.6810953456839
 10
73.23876815660351
 20
-127.7024549376925
 10
73.13093666791518
 20
-127.7214029628613
 10
73.13093666791518
 20
-127.7214029628613
 10
73.13093666791518
 20
-127.4991943040627
 10
73.13093666791518
 20
-127.4991943040627
 10
73.3297186774141
 20
-127.4444172858472
 10
73.35934649858724
 20
-127.3172932624415
 10
73.35934649858724
 20
-127.2242756843398
 10
73.35934649858724
 20
-127.0847493171871
 10
73.2599554938378
 20
-126.9324760967391
 10
73.02723929380916
 20
-126.9324760967391
 10
72.7712686992551
 20
-126.9324760967391
 10
72.70150551567879
 20
-127.1123100810692
 10
72.70150551567879
 20
-127.2328884230529
 10
72.70150551567879
 20
-127.2645833015172
 10
72.70150551567879
 20
-127.406176725961
 10
72.8305243416014
 20
-127.4950601894804
 10
72.8305243416014
 20
-127.4950601894804
 10
72.81140406165827
 20
-127.6707600592281
 10
72.81140406165827
 20
-127.6707600592281
 10
72.81140406165827
 20
-127.6707600592281
 10
71.9652886104809
 20
-127.5501817172444
 10
71.9652886104809
 20
-127.5501817172444
 10
71.9652886104809
 20
-127.5501817172444
 10
71.9652886104809
 20
-126.7715901375779
 10
71.9652886104809
 20
-126.7715901375779
 10
71.9652886104809
 20
-126.7715901375779
 10
72.15993650539752
 20
-126.7715901375779
 10
72.15993650539752
 20
-126.7715901375779
 10
72.15993650539752
 20
-126.7715901375779
 10
72.15993650539752
 20
-127.3872287007921
 10
72.15993650539752
 20
-127.3872287007921
 10
72.15993650539752
 20
-127.3872287007921
 10
72.5829942309862
 20
-127.4526855150118
 10
72.5829942309862
 20
-127.4526855150118
 10
72.54906004045648
 20
-127.3913628153744
 10
72.50892467805333
 20
-127.3090250332769
 10
72.50892467805333
 20
-127.1905137485843
 10
72.50892467805333
 20
-126.9366102113214
 10
72.69513208903108
 20
-126.6995876419362
 10
73.00811901386604
 20
-126.6995876419362
 10
73.3255845628318
 20
-126.6995876419362
 10
73.56036782015158
 20
-126.923863358026
 10
73.56036782015158
 20
-127.2263427416309
 97
        0
 97
        0
 75
     2
 76
     1
 98
        0
  0
ENDBLK
  5
135
330
132
100
AcDbEntity
  8
0
100
AcDbBlockEnd
  0
BLOCK
  5
15B
330
159
100
AcDbEntity
  8
0
100
AcDbBlockBegin
  2
block 9
 70
     0
 10
0.0
 20
0.0
 30
0.0
  3
block 9
  1

  0
SPLINE
  5
15D
330
159
100
AcDbEntity
  8
_U+30EC_U+30A4_U+30E4_U+30FC 1
370
     0
100
AcDbSpline
210
0.0
220
0.0
230
1.0
 70
    11
 71
     3
 72
    29
 73
    25
 74
     0
 42
0.0000000001
 43
0.0000000001
 12
1.0
 22
0.0
 32
0.0
 13
1.0
 23
0.0
 33
0.0
 40
0.0
 40
0.0
 40
0.0
 40
0.0
 40
1.0
 40
1.0
 40
1.0
 40
2.0
 40
2.0
 40
2.0
 40
3.0
 40
3.0
 40
3.0
 40
4.0
 40
4.0
 40
4.0
 40
5.0
 40
5.0
 40
5.0
 40
6.0
 40
6.0
 40
6.0
 40
7.0
 40
7.0
 40
7.0
 40
8.0
 40
8.0
 40
8.0
 40
8.0
 10
109.0603542479085
 20
-135.7918836466076
 30
0.0
 10
109.0603542479085
 20
-136.0585340371659
 30
0.0
 10
108.9228949380471
 20
-136.3124375744288
 30
0.0
 10
108.5739067653913
 20
-136.3124375744288
 30
0.0
 10
108.3179361708372
 20
-136.3124375744288
 30
0.0
 10
108.2228515354443
 20
-136.1704996404366
 30
0.0
 10
108.1615288358068
 20
-136.0647352090394
 30
0.0
 10
108.1022731934605
 20
-136.1894476656054
 30
0.0
 10
107.9878960233503
 20
-136.2655842758294
 30
0.0
 10
107.8270100641891
 20
-136.2655842758294
 30
0.0
 10
107.5520914444661
 20
-136.2655842758294
 30
0.0
 10
107.4166991918958
 20
-136.0668022663305
 30
0.0
 10
107.4166991918958
 20
-135.7918836466076
 30
0.0
 10
107.4166991918958
 20
-135.5083522881715
 30
0.0
 10
107.5607041831793
 20
-135.3178385078372
 30
0.0
 10
107.8270100641891
 20
-135.3178385078372
 30
0.0
 10
107.9878960233503
 20
-135.3178385078372
 30
0.0
 10
108.1022731934605
 20
-135.3963866849009
 30
0.0
 10
108.1615288358068
 20
-135.5210991414669
 30
0.0
 10
108.21217173944
 20
-135.4322156779475
 30
0.0
 10
108.3072563748329
 20
-135.2733967760775
 30
0.0
 10
108.569772650809
 20
-135.2733967760775
 30
0.0
 10
108.9442545300556
 20
-135.2733967760775
 30
0.0
 10
109.0603542479085
 20
-135.5527940199312
 30
0.0
 10
109.0603542479085
 20
-135.7918836466076
 30
0.0
  0
SPLINE
  5
15E
330
159
100
AcDbEntity
  8
_U+30EC_U+30A4_U+30E4_U+30FC 1
370
     0
100
AcDbSpline
210
0.0
220
0.0
230
1.0
 70
    11
 71
     3
 72
    17
 73
    13
 74
     0
 42
0.0000000001
 43
0.0000000001
 12
1.0
 22
0.0
 32
0.0
 13
1.0
 23
0.0
 33
0.0
 40
0.0
 40
0.0
 40
0.0
 40
0.0
 40
1.0
 40
1.0
 40
1.0
 40
2.0
 40
2.0
 40
2.0
 40
3.0
 40
3.0
 40
3.0
 40
4.0
 40
4.0
 40
4.0
 40
4.0
 10
107.6092800295213
 20
-135.7918836466076
 30
0.0
 10
107.6092800295213
 20
-135.9569037203511
 30
0.0
 10
107.7043646649142
 20
-136.0416530692882
 30
0.0
 10
107.8397569174845
 20
-136.0416530692882
 30
0.0
 10
107.9624023167594
 20
-136.0416530692882
 30
0.0
 10
108.080913601452
 20
-135.9696505736465
 30
0.0
 10
108.080913601452
 20
-135.7918836466076
 30
0.0
 10
108.080913601452
 20
-135.6141167195687
 30
0.0
 10
107.9624023167594
 20
-135.542114223927
 30
0.0
 10
107.8397569174845
 20
-135.542114223927
 30
0.0
 10
107.7043646649142
 20
-135.542114223927
 30
0.0
 10
107.6092800295213
 20
-135.6289306301553
 30
0.0
 10
107.6092800295213
 20
-135.7918836466076
 30
0.0
  0
SPLINE
  5
15F
330
159
100
AcDbEntity
  8
_U+30EC_U+30A4_U+30E4_U+30FC 1
370
     0
100
AcDbSpline
210
0.0
220
0.0
230
1.0
 70
    11
 71
     3
 72
    17
 73
    13
 74
     0
 42
0.0000000001
 43
0.0000000001
 12
1.0
 22
0.0
 32
0.0
 13
1.0
 23
0.0
 33
0.0
 40
0.0
 40
0.0
 40
0.0
 40
0.0
 40
1.0
 40
1.0
 40
1.0
 40
2.0
 40
2.0
 40
2.0
 40
3.0
 40
3.0
 40
3.0
 40
4.0
 40
4.0
 40
4.0
 40
4.0
 10
108.2693603244952
 20
-135.7918836466076
 30
0.0
 10
108.2693603244952
 20
-135.9355441283425
 30
0.0
 10
108.3561767307235
 20
-136.0881618583391
 30
0.0
 10
108.5590928548047
 20
-136.0881618583391
 30
0.0
 10
108.7644205457256
 20
-136.0881618583391
 30
0.0
 10
108.8657063529919
 20
-135.9610378349334
 30
0.0
 10
108.8657063529919
 20
-135.7918836466076
 30
0.0
 10
108.8657063529919
 20
-135.6058484904041
 30
0.0
 10
108.743060953717
 20
-135.4956054348761
 30
0.0
 10
108.5652940266781
 20
-135.4956054348761
 30
0.0
 10
108.343429877428
 20
-135.4956054348761
 30
0.0
 10
108.2693603244952
 20
-135.6585584513284
 30
0.0
 10
108.2693603244952
 20
-135.7918836466076
 30
0.0
  0
HATCH
  5
160
330
159
100
AcDbEntity
  8
_U+30EC_U+30A4_U+30E4_U+30FC 1
 62
     7
420
 16777215
100
AcDbHatch
 10
0.0
 20
0.0
 30
0.0
210
0.0
220
0.0
230
1.0
  2
SOLID
 70
     1
 71
     0
 91
        3
 92
        1
 93
        1
 72
     4
 94
        3
 73
     0
 74
     1
 95
       29
 96
       25
 40
0.0
 40
0.0
 40
0.0
 40
0.0
 40
1.0
 40
1.0
 40
1.0
 40
2.0
 40
2.0
 40
2.0
 40
3.0
 40
3.0
 40
3.0
 40
4.0
 40
4.0
 40
4.0
 40
5.0
 40
5.0
 40
5.0
 40
6.0
 40
6.0
 40
6.0
 40
7.0
 40
7.0
 40
7.0
 40
8.0
 40
8.0
 40
8.0
 40
8.0
 10
109.0603542479085
 20
-135.7918836466076
 10
109.0603542479085
 20
-136.0585340371659
 10
108.9228949380471
 20
-136.3124375744288
 10
108.5739067653913
 20
-136.3124375744288
 10
108.3179361708372
 20
-136.3124375744288
 10
108.2228515354443
 20
-136.1704996404366
 10
108.1615288358068
 20
-136.0647352090394
 10
108.1022731934605
 20
-136.1894476656054
 10
107.9878960233503
 20
-136.2655842758294
 10
107.8270100641891
 20
-136.2655842758294
 10
107.5520914444661
 20
-136.2655842758294
 10
107.4166991918958
 20
-136.0668022663305
 10
107.4166991918958
 20
-135.7918836466076
 10
107.4166991918958
 20
-135.5083522881715
 10
107.5607041831793
 20
-135.3178385078372
 10
107.8270100641891
 20
-135.3178385078372
 10
107.9878960233503
 20
-135.3178385078372
 10
108.1022731934605
 20
-135.3963866849009
 10
108.1615288358068
 20
-135.5210991414669
 10
108.21217173944
 20
-135.4322156779475
 10
108.3072563748329
 20
-135.2733967760775
 10
108.569772650809
 20
-135.2733967760775
 10
108.9442545300556
 20
-135.2733967760775
 10
109.0603542479085
 20
-135.5527940199312
 10
109.0603542479085
 20
-135.7918836466076
 97
        0
 97
        0
 92
        1
 93
        1
 72
     4
 94
        3
 73
     0
 74
     1
 95
       17
 96
       13
 40
0.0
 40
0.0
 40
0.0
 40
0.0
 40
1.0
 40
1.0
 40
1.0
 40
2.0
 40
2.0
 40
2.0
 40
3.0
 40
3.0
 40
3.0
 40
4.0
 40
4.0
 40
4.0
 40
4.0
 10
107.6092800295213
 20
-135.7918836466076
 10
107.6092800295213
 20
-135.9569037203511
 10
107.7043646649142
 20
-136.0416530692882
 10
107.8397569174845
 20
-136.0416530692882
 10
107.9624023167594
 20
-136.0416530692882
 10
108.080913601452
 20
-135.9696505736465
 10
108.080913601452
 20
-135.7918836466076
 10
108.080913601452
 20
-135.6141167195687
 10
107.9624023167594
 20
-135.542114223927
 10
107.8397569174845
 20
-135.542114223927
 10
107.7043646649142
 20
-135.542114223927
 10
107.6092800295213
 20
-135.6289306301553
 10
107.6092800295213
 20
-135.7918836466076
 97
        0
 97
        0
 92
        1
 93
        1
 72
     4
 94
        3
 73
     0
 74
     1
 95
       17
 96
       13
 40
0.0
 40
0.0
 40
0.0
 40
0.0
 40
1.0
 40
1.0
 40
1.0
 40
2.0
 40
2.0
 40
2.0
 40
3.0
 40
3.0
 40
3.0
 40
4.0
 40
4.0
 40
4.0
 40
4.0
 10
108.2693603244952
 20
-135.7918836466076
 10
108.2693603244952
 20
-135.9355441283425
 10
108.3561767307235
 20
-136.0881618583391
 10
108.5590928548047
 20
-136.0881618583391
 10
108.7644205457256
 20
-136.0881618583391
 10
108.8657063529919
 20
-135.9610378349334
 10
108.8657063529919
 20
-135.7918836466076
 10
108.8657063529919
 20
-135.6058484904041
 10
108.743060953717
 20
-135.4956054348761
 10
108.5652940266781
 20
-135.4956054348761
 10
108.343429877428
 20
-135.4956054348761
 10
108.2693603244952
 20
-135.6585584513284
 10
108.2693603244952
 20
-135.7918836466076
 97
        0
 97
        0
 75
     2
 76
     1
 98
        0
  0
POLYLINE
  5
161
330
159
100
AcDbEntity
  8
_U+30EC_U+30A4_U+30E4_U+30FC 1
370
     0
100
AcDb2dPolyline
 66
     1
 10
0.0
 20
0.0
 30
0.0
  0
VERTEX
  5
162
330
161
100
AcDbEntity
  8
_U+30EC_U+30A4_U+30E4_U+30FC 1
370
     0
100
AcDbVertex
100
AcDb2dVertex
 10
109.0097113442754
 20
-135.0549777223127
 30
0.0
  0
VERTEX
  5
163
330
161
100
AcDbEntity
  8
_U+30EC_U+30A4_U+30E4_U+30FC 1
370
     0
100
AcDbVertex
100
AcDb2dVertex
 10
108.7578748643036
 20
-135.0549777223127
 30
0.0
  0
VERTEX
  5
164
330
161
100
AcDbEntity
  8
_U+30EC_U+30A4_U+30E4_U+30FC 1
370
     0
100
AcDbVertex
100
AcDb2dVertex
 10
108.7578748643036
 20
-134.8031412423409
 30
0.0
  0
VERTEX
  5
165
330
161
100
AcDbEntity
  8
_U+30EC_U+30A4_U+30E4_U+30FC 1
370
     0
100
AcDbVertex
100
AcDb2dVertex
 10
109.0097113442754
 20
-134.8031412423409
 30
0.0
  0
VERTEX
  5
166
330
161
100
AcDbEntity
  8
_U+30EC_U+30A4_U+30E4_U+30FC 1
370
     0
100
AcDbVertex
100
AcDb2dVertex
 10
109.0097113442754
 20
-135.0549777223127
 30
0.0
  0
SEQEND
  5
167
330
161
100
AcDbEntity
  8
_U+30EC_U+30A4_U+30E4_U+30FC 1
370
     0
  0
HATCH
  5
168
330
159
100
AcDbEntity
  8
_U+30EC_U+30A4_U+30E4_U+30FC 1
 62
     7
420
 16777215
100
AcDbHatch
 10
0.0
 20
0.0
 30
0.0
210
0.0
220
0.0
230
1.0
  2
SOLID
 70
     1
 71
     0
 91
        1
 92
        1
 93
        4
 72
     1
 10
109.0097113442754
 20
-135.0549777223127
 11
108.7578748643036
 21
-135.0549777223127
 72
     1
 10
108.7578748643036
 20
-135.0549777223127
 11
108.7578748643036
 21
-134.8031412423409
 72
     1
 10
108.7578748643036
 20
-134.8031412423409
 11
109.0097113442754
 21
-134.8031412423409
 72
     1
 10
109.0097113442754
 20
-134.8031412423409
 11
109.0097113442754
 21
-135.0549777223127
 97
        0
 75
     2
 76
     1
 98
        0
  0
SPLINE
  5
169
330
159
100
AcDbEntity
  8
_U+30EC_U+30A4_U+30E4_U+30FC 1
370
     0
100
AcDbSpline
210
0.0
220
0.0
230
1.0
 70
    11
 71
     3
 72
    53
 73
    49
 74
     0
 42
0.0000000001
 43
0.0000000001
 12
1.0
 22
0.0
 32
0.0
 13
1.0
 23
0.0
 33
0.0
 40
0.0
 40
0.0
 40
0.0
 40
0.0
 40
1.0
 40
1.0
 40
1.0
 40
2.0
 40
2.0
 40
2.0
 40
3.0
 40
3.0
 40
3.0
 40
4.0
 40
4.0
 40
4.0
 40
5.0
 40
5.0
 40
5.0
 40
6.0
 40
6.0
 40
6.0
 40
7.0
 40
7.0
 40
7.0
 40
8.0
 40
8.0
 40
8.0
 40
9.0
 40
9.0
 40
9.0
 40
10.0
 40
10.0
 40
10.0
 40
11.0
 40
11.0
 40
11.0
 40
12.0
 40
12.0
 40
12.0
 40
13.0
 40
13.0
 40
13.0
 40
14.0
 40
14.0
 40
14.0
 40
15.0
 40
15.0
 40
15.0
 40
16.0
 40
16.0
 40
16.0
 40
16.0
 10
109.0603542479085
 20
-134.0858723623119
 30
0.0
 10
109.0603542479085
 20
-134.164076029827
 30
0.0
 10
109.0434732800308
 20
-134.2657063466419
 30
0.0
 10
108.9800835231022
 20
-134.3673366634568
 30
0.0
 10
108.8701849771227
 20
-134.5406249663648
 30
0.0
 10
108.7389268391347
 20
-134.5619845583734
 30
0.0
 10
108.6310953504464
 20
-134.5809325835423
 30
0.0
 10
108.6310953504464
 20
-134.5809325835423
 30
0.0
 10
108.6310953504464
 20
-134.3587239247437
 30
0.0
 10
108.6310953504464
 20
-134.3587239247437
 30
0.0
 10
108.8298773599453
 20
-134.3039469065282
 30
0.0
 10
108.8595051811185
 20
-134.1768228831225
 30
0.0
 10
108.8595051811185
 20
-134.0838053050207
 30
0.0
 10
108.8595051811185
 20
-133.9442789378681
 30
0.0
 10
108.7599419215947
 20
-133.7920057174201
 30
0.0
 10
108.5273979763404
 20
-133.7920057174201
 30
0.0
 10
108.2714273817863
 20
-133.7920057174201
 30
0.0
 10
108.2014919434357
 20
-133.9718397017501
 30
0.0
 10
108.2014919434357
 20
-134.0924180437339
 30
0.0
 10
108.2014919434357
 20
-134.1241129221982
 30
0.0
 10
108.2014919434357
 20
-134.2657063466419
 30
0.0
 10
108.3306830241326
 20
-134.3545898101614
 30
0.0
 10
108.3306830241326
 20
-134.3545898101614
 30
0.0
 10
108.3117349989637
 20
-134.5302896799091
 30
0.0
 10
108.3117349989637
 20
-134.5302896799091
 30
0.0
 10
108.3117349989637
 20
-134.5302896799091
 30
0.0
 10
107.4652750382378
 20
-134.4097113379254
 30
0.0
 10
107.4652750382378
 20
-134.4097113379254
 30
0.0
 10
107.4652750382378
 20
-134.4097113379254
 30
0.0
 10
107.4652750382378
 20
-133.6311197582589
 30
0.0
 10
107.4652750382378
 20
-133.6311197582589
 30
0.0
 10
107.4652750382378
 20
-133.6311197582589
 30
0.0
 10
107.6599229331545
 20
-133.6311197582589
 30
0.0
 10
107.6599229331545
 20
-133.6311197582589
 30
0.0
 10
107.6599229331545
 20
-133.6311197582589
 30
0.0
 10
107.6599229331545
 20
-134.246758321473
 30
0.0
 10
107.6599229331545
 20
-134.246758321473
 30
0.0
 10
107.6599229331545
 20
-134.246758321473
 30
0.0
 10
108.0829806587432
 20
-134.3122151356928
 30
0.0
 10
108.0829806587432
 20
-134.3122151356928
 30
0.0
 10
108.0492187229877
 20
-134.2508924360554
 30
0.0
 10
108.0089111058103
 20
-134.1685546539579
 30
0.0
 10
108.0089111058103
 20
-134.0500433692653
 30
0.0
 10
108.0089111058103
 20
-133.7961398320024
 30
0.0
 10
108.1952907715623
 20
-133.5591172626172
 30
0.0
 10
108.5084499511715
 20
-133.5591172626172
 30
0.0
 10
108.825743245363
 20
-133.5591172626172
 30
0.0
 10
109.0603542479085
 20
-133.7833929787069
 30
0.0
 10
109.0603542479085
 20
-134.0858723623119
 30
0.0
  0
HATCH
  5
16A
330
159
100
AcDbEntity
  8
_U+30EC_U+30A4_U+30E4_U+30FC 1
 62
     7
420
 16777215
100
AcDbHatch
 10
0.0
 20
0.0
 30
0.0
210
0.0
220
0.0
230
1.0
  2
SOLID
 70
     1
 71
     0
 91
        1
 92
        1
 93
        1
 72
     4
 94
        3
 73
     0
 74
     1
 95
       53
 96
       49
 40
0.0
 40
0.0
 40
0.0
 40
0.0
 40
1.0
 40
1.0
 40
1.0
 40
2.0
 40
2.0
 40
2.0
 40
3.0
 40
3.0
 40
3.0
 40
4.0
 40
4.0
 40
4.0
 40
5.0
 40
5.0
 40
5.0
 40
6.0
 40
6.0
 40
6.0
 40
7.0
 40
7.0
 40
7.0
 40
8.0
 40
8.0
 40
8.0
 40
9.0
 40
9.0
 40
9.0
 40
10.0
 40
10.0
 40
10.0
 40
11.0
 40
11.0
 40
11.0
 40
12.0
 40
12.0
 40
12.0
 40
13.0
 40
13.0
 40
13.0
 40
14.0
 40
14.0
 40
14.0
 40
15.0
 40
15.0
 40
15.0
 40
16.0
 40
16.0
 40
16.0
 40
16.0
 10
109.0603542479085
 20
-134.0858723623119
 10
109.0603542479085
 20
-134.164076029827
 10
109.0434732800308
 20
-134.2657063466419
 10
108.9800835231022
 20
-134.3673366634568
 10
108.8701849771227
 20
-134.5406249663648
 10
108.7389268391347
 20
-134.5619845583734
 10
108.6310953504464
 20
-134.5809325835423
 10
108.6310953504464
 20
-134.5809325835423
 10
108.6310953504464
 20
-134.3587239247437
 10
108.6310953504464
 20
-134.3587239247437
 10
108.8298773599453
 20
-134.3039469065282
 10
108.8595051811185
 20
-134.1768228831225
 10
108.8595051811185
 20
-134.0838053050207
 10
108.8595051811185
 20
-133.9442789378681
 10
108.7599419215947
 20
-133.7920057174201
 10
108.5273979763404
 20
-133.7920057174201
 10
108.2714273817863
 20
-133.7920057174201
 10
108.2014919434357
 20
-133.9718397017501
 10
108.2014919434357
 20
-134.0924180437339
 10
108.2014919434357
 20
-134.1241129221982
 10
108.2014919434357
 20
-134.2657063466419
 10
108.3306830241326
 20
-134.3545898101614
 10
108.3306830241326
 20
-134.3545898101614
 10
108.3117349989637
 20
-134.5302896799091
 10
108.3117349989637
 20
-134.5302896799091
 10
108.3117349989637
 20
-134.5302896799091
 10
107.4652750382378
 20
-134.4097113379254
 10
107.4652750382378
 20
-134.4097113379254
 10
107.4652750382378
 20
-134.4097113379254
 10
107.4652750382378
 20
-133.6311197582589
 10
107.4652750382378
 20
-133.6311197582589
 10
107.4652750382378
 20
-133.6311197582589
 10
107.6599229331545
 20
-133.6311197582589
 10
107.6599229331545
 20
-133.6311197582589
 10
107.6599229331545
 20
-133.6311197582589
 10
107.6599229331545
 20
-134.246758321473
 10
107.6599229331545
 20
-134.246758321473
 10
107.6599229331545
 20
-134.246758321473
 10
108.0829806587432
 20
-134.3122151356928
 10
108.0829806587432
 20
-134.3122151356928
 10
108.0492187229877
 20
-134.2508924360554
 10
108.0089111058103
 20
-134.1685546539579
 10
108.0089111058103
 20
-134.0500433692653
 10
108.0089111058103
 20
-133.7961398320024
 10
108.1952907715623
 20
-133.5591172626172
 10
108.5084499511715
 20
-133.5591172626172
 10
108.825743245363
 20
-133.5591172626172
 10
109.0603542479085
 20
-133.7833929787069
 10
109.0603542479085
 20
-134.0858723623119
 97
        0
 97
        0
 75
     2
 76
     1
 98
        0
  0
ENDBLK
  5
15C
330
159
100
AcDbEntity
  8
0
100
AcDbBlockEnd
  0
BLOCK
  5
179
330
177
100
AcDbEntity
  8
0
100
AcDbBlockBegin
  2
block 10
 70
     0
 10
0.0
 20
0.0
 30
0.0
  3
block 10
  1

  0
SPLINE
  5
17B
330
177
100
AcDbEntity
  8
_U+30EC_U+30A4_U+30E4_U+30FC 1
370
     0
100
AcDbSpline
210
0.0
220
0.0
230
1.0
 70
    11
 71
     3
 72
    44
 73
    40
 74
     0
 42
0.0000000001
 43
0.0000000001
 12
1.0
 22
0.0
 32
0.0
 13
1.0
 23
0.0
 33
0.0
 40
0.0
 40
0.0
 40
0.0
 40
0.0
 40
1.0
 40
1.0
 40
1.0
 40
2.0
 40
2.0
 40
2.0
 40
3.0
 40
3.0
 40
3.0
 40
4.0
 40
4.0
 40
4.0
 40
5.0
 40
5.0
 40
5.0
 40
6.0
 40
6.0
 40
6.0
 40
7.0
 40
7.0
 40
7.0
 40
8.0
 40
8.0
 40
8.0
 40
9.0
 40
9.0
 40
9.0
 40
10.0
 40
10.0
 40
10.0
 40
11.0
 40
11.0
 40
11.0
 40
12.0
 40
12.0
 40
12.0
 40
13.0
 40
13.0
 40
13.0
 40
13.0
 10
91.23629148109718
 20
-129.0146918080241
 30
0.0
 10
91.21286483179749
 20
-128.9702500762644
 30
0.0
 10
91.19184974933746
 20
-128.9175401153401
 30
0.0
 10
91.18961043727205
 20
-128.6867187178283
 30
0.0
 10
91.18547632268975
 20
-128.4434949765697
 30
0.0
 10
91.12622068034345
 20
-128.3737317929934
 30
0.0
 10
90.94845375330456
 20
-128.3737317929934
 30
0.0
 10
90.94845375330456
 20
-128.3737317929934
 30
0.0
 10
90.54020993830245
 20
-128.3737317929934
 30
0.0
 10
90.54020993830245
 20
-128.3737317929934
 30
0.0
 10
90.54020993830245
 20
-128.3737317929934
 30
0.0
 10
90.54020993830245
 20
-129.0146918080241
 30
0.0
 10
90.54020993830245
 20
-129.0146918080241
 30
0.0
 10
90.54020993830245
 20
-129.0146918080241
 30
0.0
 10
90.30542668098268
 20
-129.0146918080241
 30
0.0
 10
90.30542668098268
 20
-129.0146918080241
 30
0.0
 10
90.30542668098268
 20
-129.0146918080241
 30
0.0
 10
90.30542668098268
 20
-127.4704277567609
 30
0.0
 10
90.30542668098268
 20
-127.4704277567609
 30
0.0
 10
90.30542668098268
 20
-127.4704277567609
 30
0.0
 10
90.98032088654311
 20
-127.4704277567609
 30
0.0
 10
90.98032088654311
 20
-127.4704277567609
 30
0.0
 10
91.28693438473036
 20
-127.4704277567609
 30
0.0
 10
91.45419377053923
 20
-127.6416490023778
 30
0.0
 10
91.45419377053923
 20
-127.8977918517061
 30
0.0
 10
91.45419377053923
 20
-127.9484347553393
 30
0.0
 10
91.44558103182611
 20
-128.030944792211
 30
0.0
 10
91.40113930006639
 20
-128.1113877717916
 30
0.0
 10
91.34205591249435
 20
-128.2150851458976
 30
0.0
 10
91.27642684350035
 20
-128.2340331710665
 30
0.0
 10
91.21510414386289
 20
-128.2509141389442
 30
0.0
 10
91.35256345372436
 20
-128.2932888134128
 30
0.0
 10
91.42043183478378
 20
-128.3420369145291
 30
0.0
 10
91.42456594936608
 20
-128.6570908966552
 30
0.0
 10
91.42870006394838
 20
-128.9278754017958
 30
0.0
 10
91.46452905699498
 20
-128.9595702802601
 30
0.0
 10
91.5323974380544
 20
-129.0146918080241
 30
0.0
 10
91.5323974380544
 20
-129.0146918080241
 30
0.0
 10
91.23629148109718
 20
-129.0146918080241
 30
0.0
 10
91.23629148109718
 20
-129.0146918080241
 30
0.0
  0
SPLINE
  5
17C
330
177
100
AcDbEntity
  8
_U+30EC_U+30A4_U+30E4_U+30FC 1
370
     0
100
AcDbSpline
210
0.0
220
0.0
230
1.0
 70
    11
 71
     3
 72
    20
 73
    16
 74
     0
 42
0.0000000001
 43
0.0000000001
 12
1.0
 22
0.0
 32
0.0
 13
1.0
 23
0.0
 33
0.0
 40
0.0
 40
0.0
 40
0.0
 40
0.0
 40
1.0
 40
1.0
 40
1.0
 40
2.0
 40
2.0
 40
2.0
 40
3.0
 40
3.0
 40
3.0
 40
4.0
 40
4.0
 40
4.0
 40
5.0
 40
5.0
 40
5.0
 40
5.0
 10
90.98445500112541
 20
-127.6819566195552
 30
0.0
 10
90.98445500112541
 20
-127.6819566195552
 30
0.0
 10
90.54020993830245
 20
-127.6819566195552
 30
0.0
 10
90.54020993830245
 20
-127.6819566195552
 30
0.0
 10
90.54020993830245
 20
-127.6819566195552
 30
0.0
 10
90.54020993830245
 20
-128.162202930199
 30
0.0
 10
90.54020993830245
 20
-128.162202930199
 30
0.0
 10
90.54020993830245
 20
-128.162202930199
 30
0.0
 10
90.98238794383427
 20
-128.162202930199
 30
0.0
 10
90.98238794383427
 20
-128.162202930199
 30
0.0
 10
91.08177894858373
 20
-128.162202930199
 30
0.0
 10
91.21717120115404
 20
-128.086066319975
 30
0.0
 10
91.21717120115404
 20
-127.9146728195838
 30
0.0
 10
91.21717120115404
 20
-127.8362968972944
 30
0.0
 10
91.18323701062434
 20
-127.6819566195552
 30
0.0
 10
90.98445500112541
 20
-127.6819566195552
 30
0.0
  0
HATCH
  5
17D
330
177
100
AcDbEntity
  8
_U+30EC_U+30A4_U+30E4_U+30FC 1
 62
   179
420
  2234388
100
AcDbHatch
 10
0.0
 20
0.0
 30
0.0
210
0.0
220
0.0
230
1.0
  2
SOLID
 70
     1
 71
     0
 91
        2
 92
        1
 93
        1
 72
     4
 94
        3
 73
     0
 74
     1
 95
       44
 96
       40
 40
0.0
 40
0.0
 40
0.0
 40
0.0
 40
1.0
 40
1.0
 40
1.0
 40
2.0
 40
2.0
 40
2.0
 40
3.0
 40
3.0
 40
3.0
 40
4.0
 40
4.0
 40
4.0
 40
5.0
 40
5.0
 40
5.0
 40
6.0
 40
6.0
 40
6.0
 40
7.0
 40
7.0
 40
7.0
 40
8.0
 40
8.0
 40
8.0
 40
9.0
 40
9.0
 40
9.0
 40
10.0
 40
10.0
 40
10.0
 40
11.0
 40
11.0
 40
11.0
 40
12.0
 40
12.0
 40
12.0
 40
13.0
 40
13.0
 40
13.0
 40
13.0
 10
91.23629148109718
 20
-129.0146918080241
 10
91.21286483179749
 20
-128.9702500762644
 10
91.19184974933746
 20
-128.9175401153401
 10
91.18961043727205
 20
-128.6867187178283
 10
91.18547632268975
 20
-128.4434949765697
 10
91.12622068034345
 20
-128.3737317929934
 10
90.94845375330456
 20
-128.3737317929934
 10
90.94845375330456
 20
-128.3737317929934
 10
90.54020993830245
 20
-128.3737317929934
 10
90.54020993830245
 20
-128.3737317929934
 10
90.54020993830245
 20
-128.3737317929934
 10
90.54020993830245
 20
-129.0146918080241
 10
90.54020993830245
 20
-129.0146918080241
 10
90.54020993830245
 20
-129.0146918080241
 10
90.30542668098268
 20
-129.0146918080241
 10
90.30542668098268
 20
-129.0146918080241
 10
90.30542668098268
 20
-129.0146918080241
 10
90.30542668098268
 20
-127.4704277567609
 10
90.30542668098268
 20
-127.4704277567609
 10
90.30542668098268
 20
-127.4704277567609
 10
90.98032088654311
 20
-127.4704277567609
 10
90.98032088654311
 20
-127.4704277567609
 10
91.28693438473036
 20
-127.4704277567609
 10
91.45419377053923
 20
-127.6416490023778
 10
91.45419377053923
 20
-127.8977918517061
 10
91.45419377053923
 20
-127.9484347553393
 10
91.44558103182611
 20
-128.030944792211
 10
91.40113930006639
 20
-128.1113877717916
 10
91.34205591249435
 20
-128.2150851458976
 10
91.27642684350035
 20
-128.2340331710665
 10
91.21510414386289
 20
-128.2509141389442
 10
91.35256345372436
 20
-128.2932888134128
 10
91.42043183478378
 20
-128.3420369145291
 10
91.42456594936608
 20
-128.6570908966552
 10
91.42870006394838
 20
-128.9278754017958
 10
91.46452905699498
 20
-128.9595702802601
 10
91.5323974380544
 20
-129.0146918080241
 10
91.5323974380544
 20
-129.0146918080241
 10
91.23629148109718
 20
-129.0146918080241
 10
91.23629148109718
 20
-129.0146918080241
 97
        0
 97
        0
 92
        1
 93
        1
 72
     4
 94
        3
 73
     0
 74
     1
 95
       20
 96
       16
 40
0.0
 40
0.0
 40
0.0
 40
0.0
 40
1.0
 40
1.0
 40
1.0
 40
2.0
 40
2.0
 40
2.0
 40
3.0
 40
3.0
 40
3.0
 40
4.0
 40
4.0
 40
4.0
 40
5.0
 40
5.0
 40
5.0
 40
5.0
 10
90.98445500112541
 20
-127.6819566195552
 10
90.98445500112541
 20
-127.6819566195552
 10
90.54020993830245
 20
-127.6819566195552
 10
90.54020993830245
 20
-127.6819566195552
 10
90.54020993830245
 20
-127.6819566195552
 10
90.54020993830245
 20
-128.162202930199
 10
90.54020993830245
 20
-128.162202930199
 10
90.54020993830245
 20
-128.162202930199
 10
90.98238794383427
 20
-128.162202930199
 10
90.98238794383427
 20
-128.162202930199
 10
91.08177894858373
 20
-128.162202930199
 10
91.21717120115404
 20
-128.086066319975
 10
91.21717120115404
 20
-127.9146728195838
 10
91.21717120115404
 20
-127.8362968972944
 10
91.18323701062434
 20
-127.6819566195552
 10
90.98445500112541
 20
-127.6819566195552
 97
        0
 97
        0
 75
     2
 76
     1
 98
        0
  0
SPLINE
  5
17E
330
177
100
AcDbEntity
  8
_U+30EC_U+30A4_U+30E4_U+30FC 1
370
     0
100
AcDbSpline
210
0.0
220
0.0
230
1.0
 70
    11
 71
     3
 72
    26
 73
    22
 74
     0
 42
0.0000000001
 43
0.0000000001
 12
1.0
 22
0.0
 32
0.0
 13
1.0
 23
0.0
 33
0.0
 40
0.0
 40
0.0
 40
0.0
 40
0.0
 40
1.0
 40
1.0
 40
1.0
 40
2.0
 40
2.0
 40
2.0
 40
3.0
 40
3.0
 40
3.0
 40
4.0
 40
4.0
 40
4.0
 40
5.0
 40
5.0
 40
5.0
 40
6.0
 40
6.0
 40
6.0
 40
7.0
 40
7.0
 40
7.0
 40
7.0
 10
92.12323131377475
 20
-129.0146918080241
 30
0.0
 10
92.12323131377475
 20
-129.0146918080241
 30
0.0
 10
92.12323131377475
 20
-127.9103664502273
 30
0.0
 10
92.12323131377475
 20
-127.9103664502273
 30
0.0
 10
92.12323131377475
 20
-127.9103664502273
 30
0.0
 10
91.79319116628781
 20
-127.9103664502273
 30
0.0
 10
91.79319116628781
 20
-127.9103664502273
 30
0.0
 10
91.79319116628781
 20
-127.9103664502273
 30
0.0
 10
91.79319116628781
 20
-127.7623995991358
 30
0.0
 10
91.79319116628781
 20
-127.7623995991358
 30
0.0
 10
92.1252983710659
 20
-127.7475856885492
 30
0.0
 10
92.1721516696653
 20
-127.5846326720969
 30
0.0
 10
92.20177949083845
 20
-127.4704277567609
 30
0.0
 10
92.20177949083845
 20
-127.4704277567609
 30
0.0
 10
92.34785153941304
 20
-127.4704277567609
 30
0.0
 10
92.34785153941304
 20
-127.4704277567609
 30
0.0
 10
92.34785153941304
 20
-127.4704277567609
 30
0.0
 10
92.34785153941304
 20
-129.0146918080241
 30
0.0
 10
92.34785153941304
 20
-129.0146918080241
 30
0.0
 10
92.34785153941304
 20
-129.0146918080241
 30
0.0
 10
92.12323131377475
 20
-129.0146918080241
 30
0.0
 10
92.12323131377475
 20
-129.0146918080241
 30
0.0
  0
HATCH
  5
17F
330
177
100
AcDbEntity
  8
_U+30EC_U+30A4_U+30E4_U+30FC 1
 62
   179
420
  2234388
100
AcDbHatch
 10
0.0
 20
0.0
 30
0.0
210
0.0
220
0.0
230
1.0
  2
SOLID
 70
     1
 71
     0
 91
        1
 92
        1
 93
        1
 72
     4
 94
        3
 73
     0
 74
     1
 95
       26
 96
       22
 40
0.0
 40
0.0
 40
0.0
 40
0.0
 40
1.0
 40
1.0
 40
1.0
 40
2.0
 40
2.0
 40
2.0
 40
3.0
 40
3.0
 40
3.0
 40
4.0
 40
4.0
 40
4.0
 40
5.0
 40
5.0
 40
5.0
 40
6.0
 40
6.0
 40
6.0
 40
7.0
 40
7.0
 40
7.0
 40
7.0
 10
92.12323131377475
 20
-129.0146918080241
 10
92.12323131377475
 20
-129.0146918080241
 10
92.12323131377475
 20
-127.9103664502273
 10
92.12323131377475
 20
-127.9103664502273
 10
92.12323131377475
 20
-127.9103664502273
 10
91.79319116628781
 20
-127.9103664502273
 10
91.79319116628781
 20
-127.9103664502273
 10
91.79319116628781
 20
-127.9103664502273
 10
91.79319116628781
 20
-127.7623995991358
 10
91.79319116628781
 20
-127.7623995991358
 10
92.1252983710659
 20
-127.7475856885492
 10
92.1721516696653
 20
-127.5846326720969
 10
92.20177949083845
 20
-127.4704277567609
 10
92.20177949083845
 20
-127.4704277567609
 10
92.34785153941304
 20
-127.4704277567609
 10
92.34785153941304
 20
-127.4704277567609
 10
92.34785153941304
 20
-127.4704277567609
 10
92.34785153941304
 20
-129.0146918080241
 10
92.34785153941304
 20
-129.0146918080241
 10
92.34785153941304
 20
-129.0146918080241
 10
92.12323131377475
 20
-129.0146918080241
 10
92.12323131377475
 20
-129.0146918080241
 97
        0
 97
        0
 75
     2
 76
     1
 98
        0
  0
ENDBLK
  5
17A
330
177
100
AcDbEntity
  8
0
100
AcDbBlockEnd
  0
ENDSEC
  0
SECTION
  2
ENTITIES
  0
SPLINE
  5
41
330
1F
100
AcDbEntity
  8
_U+30EC_U+30A4_U+30E4_U+30FC 1
 62
     7
420
 16777215
370
    25
100
AcDbSpline
210
0.0
220
0.0
230
1.0
 70
     8
 71
     3
 72
     8
 73
     4
 74
     0
 42
0.0000000001
 43
0.0000000001
 12
1.0
 22
0.0
 32
0.0
 13
1.0
 23
0.0
 33
0.0
 40
0.0
 40
0.0
 40
0.0
 40
0.0
 40
1.0
 40
1.0
 40
1.0
 40
1.0
 10
88.40529746681518
 20
-129.2265569121377
 30
0.0
 10
88.40529746681518
 20
-129.5028524676242
 30
0.0
 10
88.62920551665837
 20
-129.7267958009014
 30
0.0
 10
88.90550106516504
 20
-129.7267958009014
 30
0.0
  0
POLYLINE
  5
42
330
1F
100
AcDbEntity
  8
_U+30EC_U+30A4_U+30E4_U+30FC 1
 62
     7
420
 16777215
370
    25
100
AcDb2dPolyline
 66
     1
 10
0.0
 20
0.0
 30
0.0
  0
VERTEX
  5
43
330
42
100
AcDbEntity
  8
_U+30EC_U+30A4_U+30E4_U+30FC 1
 62
     7
420
 16777215
370
    25
100
AcDbVertex
100
AcDb2dVertex
 10
78.10580939624369
 20
-117.5266819150627
 30
0.0
  0
VERTEX
  5
44
330
42
100
AcDbEntity
  8
_U+30EC_U+30A4_U+30E4_U+30FC 1
 62
     7
420
 16777215
370
    25
100
AcDbVertex
100
AcDb2dVertex
 10
78.10580939624369
 20
-136.4912391325439
 30
0.0
  0
SEQEND
  5
45
330
42
100
AcDbEntity
  8
_U+30EC_U+30A4_U+30E4_U+30FC 1
 62
     7
420
 16777215
370
    25
  0
POLYLINE
  5
46
330
1F
100
AcDbEntity
  8
_U+30EC_U+30A4_U+30E4_U+30FC 1
 62
     7
420
 16777215
370
    25
100
AcDb2dPolyline
 66
     1
 10
0.0
 20
0.0
 30
0.0
  0
VERTEX
  5
47
330
46
100
AcDbEntity
  8
_U+30EC_U+30A4_U+30E4_U+30FC 1
 62
     7
420
 16777215
370
    25
100
AcDbVertex
100
AcDb2dVertex
 10
81.64117180604907
 20
-140.0269544094375
 30
0.0
  0
VERTEX
  5
48
330
46
100
AcDbEntity
  8
_U+30EC_U+30A4_U+30E4_U+30FC 1
 62
     7
420
 16777215
370
    25
100
AcDbVertex
100
AcDb2dVertex
 10
105.6059653613229
 20
-140.0269544094375
 30
0.0
  0
SEQEND
  5
49
330
46
100
AcDbEntity
  8
_U+30EC_U+30A4_U+30E4_U+30FC 1
 62
     7
420
 16777215
370
    25
  0
POLYLINE
  5
4A
330
1F
100
AcDbEntity
  8
_U+30EC_U+30A4_U+30E4_U+30FC 1
 62
     7
420
 16777215
370
    25
100
AcDb2dPolyline
 66
     1
 10
0.0
 20
0.0
 30
0.0
  0
VERTEX
  5
4B
330
4A
100
AcDbEntity
  8
_U+30EC_U+30A4_U+30E4_U+30FC 1
 62
     7
420
 16777215
370
    25
100
AcDbVertex
100
AcDb2dVertex
 10
78.10580939624369
 20
-136.4912391325439
 30
0.0
  0
VERTEX
  5
4C
330
4A
100
AcDbEntity
  8
_U+30EC_U+30A4_U+30E4_U+30FC 1
 62
     7
420
 16777215
370
    25
100
AcDbVertex
100
AcDb2dVertex
 10
81.64117180604907
 20
-140.0269544094375
 30
0.0
  0
SEQEND
  5
4D
330
4A
100
AcDbEntity
  8
_U+30EC_U+30A4_U+30E4_U+30FC 1
 62
     7
420
 16777215
370
    25
  0
POLYLINE
  5
4E
330
1F
100
AcDbEntity
  8
_U+30EC_U+30A4_U+30E4_U+30FC 1
 62
     7
420
 16777215
370
    25
100
AcDb2dPolyline
 66
     1
 10
0.0
 20
0.0
 30
0.0
  0
VERTEX
  5
4F
330
4E
100
AcDbEntity
  8
_U+30EC_U+30A4_U+30E4_U+30FC 1
 62
     7
420
 16777215
370
    25
100
AcDbVertex
100
AcDb2dVertex
 10
98.10598055266347
 20
-139.2269955207488
 30
0.0
  0
VERTEX
  5
50
330
4E
100
AcDbEntity
  8
_U+30EC_U+30A4_U+30E4_U+30FC 1
 62
     7
420
 16777215
370
    25
100
AcDbVertex
100
AcDb2dVertex
 10
105.3971914777603
 20
-139.2269955207488
 30
0.0
  0
SEQEND
  5
51
330
4E
100
AcDbEntity
  8
_U+30EC_U+30A4_U+30E4_U+30FC 1
 62
     7
420
 16777215
370
    25
  0
POLYLINE
  5
52
330
1F
100
AcDbEntity
  8
_U+30EC_U+30A4_U+30E4_U+30FC 1
 62
     7
420
 16777215
370
    25
100
AcDb2dPolyline
 66
     1
 10
0.0
 20
0.0
 30
0.0
  0
VERTEX
  5
53
330
52
100
AcDbEntity
  8
_U+30EC_U+30A4_U+30E4_U+30FC 1
 62
     7
420
 16777215
370
    25
100
AcDbVertex
100
AcDb2dVertex
 10
82.05529762881717
 20
-139.0268294096878
 30
0.0
  0
VERTEX
  5
54
330
52
100
AcDbEntity
  8
_U+30EC_U+30A4_U+30E4_U+30FC 1
 62
     7
420
 16777215
370
    25
100
AcDbVertex
100
AcDb2dVertex
 10
97.7594116726163
 20
-139.0268294096878
 30
0.0
  0
SEQEND
  5
55
330
52
100
AcDbEntity
  8
_U+30EC_U+30A4_U+30E4_U+30FC 1
 62
     7
420
 16777215
370
    25
  0
POLYLINE
  5
56
330
1F
100
AcDbEntity
  8
_U+30EC_U+30A4_U+30E4_U+30FC 1
 62
     7
420
 16777215
370
    25
100
AcDb2dPolyline
 66
     1
 10
0.0
 20
0.0
 30
0.0
  0
VERTEX
  5
57
330
56
100
AcDbEntity
  8
_U+30EC_U+30A4_U+30E4_U+30FC 1
 62
     7
420
 16777215
370
    25
100
AcDbVertex
100
AcDb2dVertex
 10
79.1055815929596
 20
-136.0771485770917
 30
0.0
  0
VERTEX
  5
58
330
56
100
AcDbEntity
  8
_U+30EC_U+30A4_U+30E4_U+30FC 1
 62
     7
420
 16777215
370
    25
100
AcDbVertex
100
AcDb2dVertex
 10
80.22695831327658
 20
-137.1985232990337
 30
0.0
  0
SEQEND
  5
59
330
56
100
AcDbEntity
  8
_U+30EC_U+30A4_U+30E4_U+30FC 1
 62
     7
420
 16777215
370
    25
  0
POLYLINE
  5
5A
330
1F
100
AcDbEntity
  8
_U+30EC_U+30A4_U+30E4_U+30FC 1
 62
     7
420
 16777215
370
    25
100
AcDb2dPolyline
 66
     1
 10
0.0
 20
0.0
 30
0.0
  0
VERTEX
  5
5B
330
5A
100
AcDbEntity
  8
_U+30EC_U+30A4_U+30E4_U+30FC 1
 62
     7
420
 16777215
370
    25
100
AcDbVertex
100
AcDb2dVertex
 10
97.7594116726163
 20
-139.0268294096878
 30
0.0
  0
VERTEX
  5
5C
330
5A
100
AcDbEntity
  8
_U+30EC_U+30A4_U+30E4_U+30FC 1
 62
     7
420
 16777215
370
    25
100
AcDbVertex
100
AcDb2dVertex
 10
98.10598055266347
 20
-139.2269955207488
 30
0.0
  0
SEQEND
  5
5D
330
5A
100
AcDbEntity
  8
_U+30EC_U+30A4_U+30E4_U+30FC 1
 62
     7
420
 16777215
370
    25
  0
POLYLINE
  5
5E
330
1F
100
AcDbEntity
  8
_U+30EC_U+30A4_U+30E4_U+30FC 1
 62
     7
420
 16777215
370
    25
100
AcDb2dPolyline
 66
     1
 10
0.0
 20
0.0
 30
0.0
  0
VERTEX
  5
5F
330
5E
100
AcDbEntity
  8
_U+30EC_U+30A4_U+30E4_U+30FC 1
 62
     7
420
 16777215
370
    25
100
AcDbVertex
100
AcDb2dVertex
 10
79.1055815929596
 20
-125.3732358019902
 30
0.0
  0
VERTEX
  5
60
330
5E
100
AcDbEntity
  8
_U+30EC_U+30A4_U+30E4_U+30FC 1
 62
     7
420
 16777215
370
    25
100
AcDbVertex
100
AcDb2dVertex
 10
79.1055815929596
 20
-136.0771485770917
 30
0.0
  0
SEQEND
  5
61
330
5E
100
AcDbEntity
  8
_U+30EC_U+30A4_U+30E4_U+30FC 1
 62
     7
420
 16777215
370
    25
  0
POLYLINE
  5
62
330
1F
100
AcDbEntity
  8
_U+30EC_U+30A4_U+30E4_U+30FC 1
 62
     7
420
 16777215
370
    25
100
AcDb2dPolyline
 66
     1
 10
0.0
 20
0.0
 30
0.0
  0
VERTEX
  5
63
330
62
100
AcDbEntity
  8
_U+30EC_U+30A4_U+30E4_U+30FC 1
 62
     7
420
 16777215
370
    25
100
AcDbVertex
100
AcDb2dVertex
 10
78.90576826472392
 20
-117.7354558038995
 30
0.0
  0
VERTEX
  5
64
330
62
100
AcDbEntity
  8
_U+30EC_U+30A4_U+30E4_U+30FC 1
 62
     7
420
 16777215
370
    25
100
AcDbVertex
100
AcDb2dVertex
 10
78.90576826472392
 20
-125.0269844131876
 30
0.0
  0
SEQEND
  5
65
330
62
100
AcDbEntity
  8
_U+30EC_U+30A4_U+30E4_U+30FC 1
 62
     7
420
 16777215
370
    25
  0
POLYLINE
  5
66
330
1F
100
AcDbEntity
  8
_U+30EC_U+30A4_U+30E4_U+30FC 1
 62
     7
420
 16777215
370
    25
100
AcDb2dPolyline
 66
     1
 10
0.0
 20
0.0
 30
0.0
  0
VERTEX
  5
67
330
66
100
AcDbEntity
  8
_U+30EC_U+30A4_U+30E4_U+30FC 1
 62
     7
420
 16777215
370
    25
100
AcDbVertex
100
AcDb2dVertex
 10
78.90576826472392
 20
-125.0269844131876
 30
0.0
  0
VERTEX
  5
68
330
66
100
AcDbEntity
  8
_U+30EC_U+30A4_U+30E4_U+30FC 1
 62
     7
420
 16777215
370
    25
100
AcDbVertex
100
AcDb2dVertex
 10
79.1055815929596
 20
-125.3732358019902
 30
0.0
  0
SEQEND
  5
69
330
66
100
AcDbEntity
  8
_U+30EC_U+30A4_U+30E4_U+30FC 1
 62
     7
420
 16777215
370
    25
  0
POLYLINE
  5
6A
330
1F
100
AcDbEntity
  8
_U+30EC_U+30A4_U+30E4_U+30FC 1
 62
     7
420
 16777215
370
    25
100
AcDb2dPolyline
 66
     1
 10
0.0
 20
0.0
 30
0.0
  0
VERTEX
  5
6B
330
6A
100
AcDbEntity
  8
_U+30EC_U+30A4_U+30E4_U+30FC 1
 62
     7
420
 16777215
370
    25
100
AcDbVertex
100
AcDb2dVertex
 10
87.40552527009928
 20
-130.0196366341619
 30
0.0
  0
VERTEX
  5
6C
330
6A
100
AcDbEntity
  8
_U+30EC_U+30A4_U+30E4_U+30FC 1
 62
     7
420
 16777215
370
    25
100
AcDbVertex
100
AcDb2dVertex
 10
80.22695831327658
 20
-137.1985232990337
 30
0.0
  0
SEQEND
  5
6D
330
6A
100
AcDbEntity
  8
_U+30EC_U+30A4_U+30E4_U+30FC 1
 62
     7
420
 16777215
370
    25
  0
POLYLINE
  5
6E
330
1F
100
AcDbEntity
  8
_U+30EC_U+30A4_U+30E4_U+30FC 1
 62
     7
420
 16777215
370
    25
100
AcDb2dPolyline
 66
     1
 10
0.0
 20
0.0
 30
0.0
  0
VERTEX
  5
6F
330
6E
100
AcDbEntity
  8
_U+30EC_U+30A4_U+30E4_U+30FC 1
 62
     7
420
 16777215
370
    25
100
AcDbVertex
100
AcDb2dVertex
 10
88.11312691871352
 20
-130.7269208006518
 30
0.0
  0
VERTEX
  5
70
330
6E
100
AcDbEntity
  8
_U+30EC_U+30A4_U+30E4_U+30FC 1
 62
     7
420
 16777215
370
    25
100
AcDbVertex
100
AcDb2dVertex
 10
80.9342404351955
 20
-137.9054546877458
 30
0.0
  0
SEQEND
  5
71
330
6E
100
AcDbEntity
  8
_U+30EC_U+30A4_U+30E4_U+30FC 1
 62
     7
420
 16777215
370
    25
  0
POLYLINE
  5
72
330
1F
100
AcDbEntity
  8
_U+30EC_U+30A4_U+30E4_U+30FC 1
 62
     7
420
 16777215
370
    25
100
AcDb2dPolyline
 66
     1
 10
0.0
 20
0.0
 30
0.0
  0
VERTEX
  5
73
330
72
100
AcDbEntity
  8
_U+30EC_U+30A4_U+30E4_U+30FC 1
 62
     7
420
 16777215
370
    25
100
AcDbVertex
100
AcDb2dVertex
 10
80.9342404351955
 20
-137.9054546877458
 30
0.0
  0
VERTEX
  5
74
330
72
100
AcDbEntity
  8
_U+30EC_U+30A4_U+30E4_U+30FC 1
 62
     7
420
 16777215
370
    25
100
AcDbVertex
100
AcDb2dVertex
 10
82.05529762881717
 20
-139.0268294096878
 30
0.0
  0
SEQEND
  5
75
330
72
100
AcDbEntity
  8
_U+30EC_U+30A4_U+30E4_U+30FC 1
 62
     7
420
 16777215
370
    25
  0
POLYLINE
  5
76
330
1F
100
AcDbEntity
  8
_U+30EC_U+30A4_U+30E4_U+30FC 1
 62
     7
420
 16777215
370
    25
100
AcDb2dPolyline
 66
     1
 10
0.0
 20
0.0
 30
0.0
  0
VERTEX
  5
77
330
76
100
AcDbEntity
  8
_U+30EC_U+30A4_U+30E4_U+30FC 1
 62
     7
420
 16777215
370
    25
100
AcDbVertex
100
AcDb2dVertex
 10
88.11312691871352
 20
-130.7269208006518
 30
0.0
  0
VERTEX
  5
78
330
76
100
AcDbEntity
  8
_U+30EC_U+30A4_U+30E4_U+30FC 1
 62
     7
420
 16777215
370
    25
100
AcDbVertex
100
AcDb2dVertex
 10
95.40571367710858
 20
-130.7269208006518
 30
0.0
  0
SEQEND
  5
79
330
76
100
AcDbEntity
  8
_U+30EC_U+30A4_U+30E4_U+30FC 1
 62
     7
420
 16777215
370
    25
  0
POLYLINE
  5
7A
330
1F
100
AcDbEntity
  8
_U+30EC_U+30A4_U+30E4_U+30FC 1
 62
     7
420
 16777215
370
    25
100
AcDb2dPolyline
 66
     1
 10
0.0
 20
0.0
 30
0.0
  0
VERTEX
  5
7B
330
7A
100
AcDbEntity
  8
_U+30EC_U+30A4_U+30E4_U+30FC 1
 62
     7
420
 16777215
370
    25
100
AcDbVertex
100
AcDb2dVertex
 10
87.40552527009928
 20
-122.7270496915405
 30
0.0
  0
VERTEX
  5
7C
330
7A
100
AcDbEntity
  8
_U+30EC_U+30A4_U+30E4_U+30FC 1
 62
     7
420
 16777215
370
    25
100
AcDbVertex
100
AcDb2dVertex
 10
87.40552527009928
 20
-130.0196366341619
 30
0.0
  0
SEQEND
  5
7D
330
7A
100
AcDbEntity
  8
_U+30EC_U+30A4_U+30E4_U+30FC 1
 62
     7
420
 16777215
370
    25
  0
POLYLINE
  5
7E
330
1F
100
AcDbEntity
  8
_U+30EC_U+30A4_U+30E4_U+30FC 1
 62
     7
420
 16777215
370
    25
100
AcDb2dPolyline
 66
     1
 10
0.0
 20
0.0
 30
0.0
  0
VERTEX
  5
7F
330
7E
100
AcDbEntity
  8
_U+30EC_U+30A4_U+30E4_U+30FC 1
 62
     7
420
 16777215
370
    25
100
AcDbVertex
100
AcDb2dVertex
 10
88.90550106516504
 20
-129.7267958009014
 30
0.0
  0
VERTEX
  5
80
330
7E
100
AcDbEntity
  8
_U+30EC_U+30A4_U+30E4_U+30FC 1
 62
     7
420
 16777215
370
    25
100
AcDbVertex
100
AcDb2dVertex
 10
95.05568757492738
 20
-129.7267958009014
 30
0.0
  0
SEQEND
  5
81
330
7E
100
AcDbEntity
  8
_U+30EC_U+30A4_U+30E4_U+30FC 1
 62
     7
420
 16777215
370
    25
  0
POLYLINE
  5
82
330
1F
100
AcDbEntity
  8
_U+30EC_U+30A4_U+30E4_U+30FC 1
 62
     7
420
 16777215
370
    25
100
AcDb2dPolyline
 66
     1
 10
0.0
 20
0.0
 30
0.0
  0
VERTEX
  5
83
330
82
100
AcDbEntity
  8
_U+30EC_U+30A4_U+30E4_U+30FC 1
 62
     7
420
 16777215
370
    25
100
AcDbVertex
100
AcDb2dVertex
 10
88.40596774457586
 20
-123.077075802564
 30
0.0
  0
VERTEX
  5
84
330
82
100
AcDbEntity
  8
_U+30EC_U+30A4_U+30E4_U+30FC 1
 62
     7
420
 16777215
370
    25
100
AcDbVertex
100
AcDb2dVertex
 10
88.40596774457586
 20
-129.2269096899155
 30
0.0
  0
SEQEND
  5
85
330
82
100
AcDbEntity
  8
_U+30EC_U+30A4_U+30E4_U+30FC 1
 62
     7
420
 16777215
370
    25
  0
SPLINE
  5
86
330
1F
100
AcDbEntity
  8
_U+30EC_U+30A4_U+30E4_U+30FC 1
 62
     7
420
 16777215
370
    25
100
AcDbSpline
210
0.0
220
0.0
230
1.0
 70
     8
 71
     3
 72
     8
 73
     4
 74
     0
 42
0.0000000001
 43
0.0000000001
 12
1.0
 22
0.0
 32
0.0
 13
1.0
 23
0.0
 33
0.0
 40
0.0
 40
0.0
 40
0.0
 40
0.0
 40
1.0
 40
1.0
 40
1.0
 40
1.0
 10
88.40596774457586
 20
-123.077075802564
 30
0.0
 10
88.12621497393518
 20
-122.8424433026226
 30
0.0
 10
87.77068553856104
 20
-122.7180891359871
 30
0.0
 10
87.40552527009928
 20
-122.7270496915405
 30
0.0
  0
SPLINE
  5
87
330
1F
100
AcDbEntity
  8
_U+30EC_U+30A4_U+30E4_U+30FC 1
 62
     7
420
 16777215
370
    25
100
AcDbSpline
210
0.0
220
0.0
230
1.0
 70
     8
 71
     3
 72
     8
 73
     4
 74
     0
 42
0.0000000001
 43
0.0000000001
 12
1.0
 22
0.0
 32
0.0
 13
1.0
 23
0.0
 33
0.0
 40
0.0
 40
0.0
 40
0.0
 40
0.0
 40
1.0
 40
1.0
 40
1.0
 40
1.0
 10
95.40571367710858
 20
-130.7269208006518
 30
0.0
 10
95.41467423243553
 20
-130.3620780229652
 30
0.0
 10
95.28996729117263
 20
-130.0065485786092
 30
0.0
 10
95.05568757492738
 20
-129.7267958009014
 30
0.0
  0
SPLINE
  5
88
330
1F
100
AcDbEntity
  8
_U+30EC_U+30A4_U+30E4_U+30FC 1
 62
     7
420
 16777215
370
    25
100
AcDbSpline
210
0.0
220
0.0
230
1.0
 70
     8
 71
     3
 72
     8
 73
     4
 74
     0
 42
0.0000000001
 43
0.0000000001
 12
1.0
 22
0.0
 32
0.0
 13
1.0
 23
0.0
 33
0.0
 40
0.0
 40
0.0
 40
0.0
 40
0.0
 40
1.0
 40
1.0
 40
1.0
 40
1.0
 10
105.6059653613229
 20
-140.0269544094375
 30
0.0
 10
105.6121416402635
 20
-139.7458257983969
 30
0.0
 10
105.5404898074378
 20
-139.4688246873549
 30
0.0
 10
105.3971914777603
 20
-139.2269955207488
 30
0.0
  0
SPLINE
  5
89
330
1F
100
AcDbEntity
  8
_U+30EC_U+30A4_U+30E4_U+30FC 1
 62
     7
420
 16777215
370
    25
100
AcDbSpline
210
0.0
220
0.0
230
1.0
 70
     8
 71
     3
 72
     8
 73
     4
 74
     0
 42
0.0000000001
 43
0.0000000001
 12
1.0
 22
0.0
 32
0.0
 13
1.0
 23
0.0
 33
0.0
 40
0.0
 40
0.0
 40
0.0
 40
0.0
 40
1.0
 40
1.0
 40
1.0
 40
1.0
 10
78.90576826472392
 20
-117.7354558038995
 30
0.0
 10
78.66393910422683
 20
-117.5921221928243
 30
0.0
 10
78.38658522241383
 20
-117.5201202483979
 30
0.0
 10
78.10580939624369
 20
-117.5266819150627
 30
0.0
  0
SPLINE
  5
8A
330
1F
100
AcDbEntity
  8
_U+30EC_U+30A4_U+30E4_U+30FC 1
 62
     7
420
 16777215
370
     9
100
AcDbSpline
210
0.0
220
0.0
230
1.0
 70
    11
 71
     3
 72
    17
 73
    13
 74
     0
 42
0.0000000001
 43
0.0000000001
 12
1.0
 22
0.0
 32
0.0
 13
1.0
 23
0.0
 33
0.0
 40
0.0
 40
0.0
 40
0.0
 40
0.0
 40
1.0
 40
1.0
 40
1.0
 40
2.0
 40
2.0
 40
2.0
 40
3.0
 40
3.0
 40
3.0
 40
4.0
 40
4.0
 40
4.0
 40
4.0
 10
87.50543193421711
 20
-126.7268088572071
 30
0.0
 10
87.50543193421711
 20
-126.6716696905544
 30
0.0
 10
87.46062915758235
 20
-126.6269021905655
 30
0.0
 10
87.40552527009928
 20
-126.6269021905655
 30
0.0
 10
87.35038610483933
 20
-126.6269021905655
 30
0.0
 10
87.30561860598144
 20
-126.6716696905544
 30
0.0
 10
87.30561860598144
 20
-126.7268088572071
 30
0.0
 10
87.30561860598144
 20
-126.7819127460823
 30
0.0
 10
87.35038610483933
 20
-126.8267155238487
 30
0.0
 10
87.40552527009928
 20
-126.8267155238487
 30
0.0
 10
87.46062915758235
 20
-126.8267155238487
 30
0.0
 10
87.50543193421711
 20
-126.7819127460823
 30
0.0
 10
87.50543193421711
 20
-126.7268088572071
 30
0.0
  0
SPLINE
  5
8B
330
1F
100
AcDbEntity
  8
_U+30EC_U+30A4_U+30E4_U+30FC 1
 62
     7
420
 16777215
370
     9
100
AcDbSpline
210
0.0
220
0.0
230
1.0
 70
    11
 71
     3
 72
    17
 73
    13
 74
     0
 42
0.0000000001
 43
0.0000000001
 12
1.0
 22
0.0
 32
0.0
 13
1.0
 23
0.0
 33
0.0
 40
0.0
 40
0.0
 40
0.0
 40
0.0
 40
1.0
 40
1.0
 40
1.0
 40
2.0
 40
2.0
 40
2.0
 40
3.0
 40
3.0
 40
3.0
 40
4.0
 40
4.0
 40
4.0
 40
4.0
 10
88.5058744086937
 20
-126.7268088572071
 30
0.0
 10
88.5058744086937
 20
-126.6716696905544
 30
0.0
 10
88.4611069098358
 20
-126.6269021905655
 30
0.0
 10
88.40596774457586
 20
-126.6269021905655
 30
0.0
 10
88.35015830155524
 20
-126.6269021905655
 30
0.0
 10
88.30606108045802
 20
-126.6716696905544
 30
0.0
 10
88.30606108045802
 20
-126.7268088572071
 30
0.0
 10
88.30606108045802
 20
-126.7819127460823
 30
0.0
 10
88.35015830155524
 20
-126.8267155238487
 30
0.0
 10
88.40596774457586
 20
-126.8267155238487
 30
0.0
 10
88.4611069098358
 20
-126.8267155238487
 30
0.0
 10
88.5058744086937
 20
-126.7819127460823
 30
0.0
 10
88.5058744086937
 20
-126.7268088572071
 30
0.0
  0
SPLINE
  5
8C
330
1F
100
AcDbEntity
  8
_U+30EC_U+30A4_U+30E4_U+30FC 1
 62
     7
420
 16777215
370
     9
100
AcDbSpline
210
0.0
220
0.0
230
1.0
 70
    11
 71
     3
 72
    17
 73
    13
 74
     0
 42
0.0000000001
 43
0.0000000001
 12
1.0
 22
0.0
 32
0.0
 13
1.0
 23
0.0
 33
0.0
 40
0.0
 40
0.0
 40
0.0
 40
0.0
 40
1.0
 40
1.0
 40
1.0
 40
2.0
 40
2.0
 40
2.0
 40
3.0
 40
3.0
 40
3.0
 40
4.0
 40
4.0
 40
4.0
 40
4.0
 10
74.2056394957453
 20
-117.5266819150627
 30
0.0
 10
74.2056394957453
 20
-117.47154274841
 30
0.0
 10
74.16083671911055
 20
-117.4267752484211
 30
0.0
 10
74.10573283162748
 20
-117.4267752484211
 30
0.0
 10
74.05027616637562
 20
-117.4267752484211
 30
0.0
 10
74.00547338974086
 20
-117.47154274841
 30
0.0
 10
74.00547338974086
 20
-117.5266819150627
 30
0.0
 10
74.00547338974086
 20
-117.5821385817157
 30
0.0
 10
74.05027616637562
 20
-117.6269413594821
 30
0.0
 10
74.10573283162748
 20
-117.6269413594821
 30
0.0
 10
74.16083671911055
 20
-117.6269413594821
 30
0.0
 10
74.2056394957453
 20
-117.5821385817157
 30
0.0
 10
74.2056394957453
 20
-117.5266819150627
 30
0.0
  0
SPLINE
  5
8D
330
1F
100
AcDbEntity
  8
_U+30EC_U+30A4_U+30E4_U+30FC 1
 62
     7
420
 16777215
370
     9
100
AcDbSpline
210
0.0
220
0.0
230
1.0
 70
    11
 71
     3
 72
    17
 73
    13
 74
     0
 42
0.0000000001
 43
0.0000000001
 12
1.0
 22
0.0
 32
0.0
 13
1.0
 23
0.0
 33
0.0
 40
0.0
 40
0.0
 40
0.0
 40
0.0
 40
1.0
 40
1.0
 40
1.0
 40
2.0
 40
2.0
 40
2.0
 40
3.0
 40
3.0
 40
3.0
 40
4.0
 40
4.0
 40
4.0
 40
4.0
 10
74.2056394957453
 20
-140.0269544094375
 30
0.0
 10
74.2056394957453
 20
-139.971815242785
 30
0.0
 10
74.16083671911055
 20
-139.9270477427958
 30
0.0
 10
74.10573283162748
 20
-139.9270477427958
 30
0.0
 10
74.05027616637562
 20
-139.9270477427958
 30
0.0
 10
74.00547338974086
 20
-139.971815242785
 30
0.0
 10
74.00547338974086
 20
-140.0269544094375
 30
0.0
 10
74.00547338974086
 20
-140.082058298313
 30
0.0
 10
74.05027616637562
 20
-140.1268610760791
 30
0.0
 10
74.10573283162748
 20
-140.1268610760791
 30
0.0
 10
74.16083671911055
 20
-140.1268610760791
 30
0.0
 10
74.2056394957453
 20
-140.082058298313
 30
0.0
 10
74.2056394957453
 20
-140.0269544094375
 30
0.0
  0
SPLINE
  5
8E
330
1F
100
AcDbEntity
  8
_U+30EC_U+30A4_U+30E4_U+30FC 1
 62
     7
420
 16777215
370
     9
100
AcDbSpline
210
0.0
220
0.0
230
1.0
 70
    11
 71
     3
 72
    17
 73
    13
 74
     0
 42
0.0000000001
 43
0.0000000001
 12
1.0
 22
0.0
 32
0.0
 13
1.0
 23
0.0
 33
0.0
 40
0.0
 40
0.0
 40
0.0
 40
0.0
 40
1.0
 40
1.0
 40
1.0
 40
2.0
 40
2.0
 40
2.0
 40
3.0
 40
3.0
 40
3.0
 40
4.0
 40
4.0
 40
4.0
 40
4.0
 10
72.54888926023474
 20
-142.148101353352
 30
0.0
 10
72.54888926023474
 20
-142.0929621866989
 30
0.0
 10
72.50408648359999
 20
-142.0481946867104
 30
0.0
 10
72.4489825961169
 20
-142.0481946867104
 30
0.0
 10
72.39352775967942
 20
-142.0481946867104
 30
0.0
 10
72.3487249819127
 20
-142.0929621866989
 30
0.0
 10
72.3487249819127
 20
-142.148101353352
 30
0.0
 10
72.3487249819127
 20
-142.2035580200047
 30
0.0
 10
72.39352775967942
 20
-142.2483255199932
 30
0.0
 10
72.4489825961169
 20
-142.2483255199932
 30
0.0
 10
72.50408648359999
 20
-142.2483255199932
 30
0.0
 10
72.54888926023474
 20
-142.2035580200047
 30
0.0
 10
72.54888926023474
 20
-142.148101353352
 30
0.0
  0
SPLINE
  5
8F
330
1F
100
AcDbEntity
  8
_U+30EC_U+30A4_U+30E4_U+30FC 1
 62
     7
420
 16777215
370
     9
100
AcDbSpline
210
0.0
220
0.0
230
1.0
 70
    11
 71
     3
 72
    17
 73
    13
 74
     0
 42
0.0000000001
 43
0.0000000001
 12
1.0
 22
0.0
 32
0.0
 13
1.0
 23
0.0
 33
0.0
 40
0.0
 40
0.0
 40
0.0
 40
0.0
 40
1.0
 40
1.0
 40
1.0
 40
2.0
 40
2.0
 40
2.0
 40
3.0
 40
3.0
 40
3.0
 40
4.0
 40
4.0
 40
4.0
 40
4.0
 10
76.08425167004013
 20
-145.683781352468
 30
0.0
 10
76.08425167004013
 20
-145.6286774635931
 30
0.0
 10
76.03944889340538
 20
-145.5838746858264
 30
0.0
 10
75.98434500592231
 20
-145.5838746858264
 30
0.0
 10
75.92920584066235
 20
-145.5838746858264
 30
0.0
 10
75.88443834180447
 20
-145.6286774635931
 30
0.0
 10
75.88443834180447
 20
-145.683781352468
 30
0.0
 10
75.88443834180447
 20
-145.7389205191211
 30
0.0
 10
75.92920584066235
 20
-145.7836880191097
 30
0.0
 10
75.98434500592231
 20
-145.7836880191097
 30
0.0
 10
76.03944889340538
 20
-145.7836880191097
 30
0.0
 10
76.08425167004013
 20
-145.7389205191211
 30
0.0
 10
76.08425167004013
 20
-145.683781352468
 30
0.0
  0
SPLINE
  5
90
330
1F
100
AcDbEntity
  8
_U+30EC_U+30A4_U+30E4_U+30FC 1
 62
     7
420
 16777215
370
     9
100
AcDbSpline
210
0.0
220
0.0
230
1.0
 70
    11
 71
     3
 72
    17
 73
    13
 74
     0
 42
0.0000000001
 43
0.0000000001
 12
1.0
 22
0.0
 32
0.0
 13
1.0
 23
0.0
 33
0.0
 40
0.0
 40
0.0
 40
0.0
 40
0.0
 40
1.0
 40
1.0
 40
1.0
 40
2.0
 40
2.0
 40
2.0
 40
3.0
 40
3.0
 40
3.0
 40
4.0
 40
4.0
 40
4.0
 40
4.0
 10
78.20571606036152
 20
-144.0270310751046
 30
0.0
 10
78.20571606036152
 20
-143.9715744084513
 30
0.0
 10
78.16094856150363
 20
-143.9267716306852
 30
0.0
 10
78.10580939624369
 20
-143.9267716306852
 30
0.0
 10
78.05035273099183
 20
-143.9267716306852
 30
0.0
 10
78.00558523213395
 20
-143.9715744084513
 30
0.0
 10
78.00558523213395
 20
-144.0270310751046
 30
0.0
 10
78.00558523213395
 20
-144.082170241757
 30
0.0
 10
78.05035273099183
 20
-144.1269377417462
 30
0.0
 10
78.10580939624369
 20
-144.1269377417462
 30
0.0
 10
78.16094856150363
 20
-144.1269377417462
 30
0.0
 10
78.20571606036152
 20
-144.082170241757
 30
0.0
 10
78.20571606036152
 20
-144.0270310751046
 30
0.0
  0
SPLINE
  5
91
330
1F
100
AcDbEntity
  8
_U+30EC_U+30A4_U+30E4_U+30FC 1
 62
     7
420
 16777215
370
     9
100
AcDbSpline
210
0.0
220
0.0
230
1.0
 70
    11
 71
     3
 72
    17
 73
    13
 74
     0
 42
0.0000000001
 43
0.0000000001
 12
1.0
 22
0.0
 32
0.0
 13
1.0
 23
0.0
 33
0.0
 40
0.0
 40
0.0
 40
0.0
 40
0.0
 40
1.0
 40
1.0
 40
1.0
 40
2.0
 40
2.0
 40
2.0
 40
3.0
 40
3.0
 40
3.0
 40
4.0
 40
4.0
 40
4.0
 40
4.0
 10
99.50537940585072
 20
-122.7270496915405
 30
0.0
 10
99.50537940585072
 20
-122.6715930248875
 30
0.0
 10
99.46057662921596
 20
-122.6271430248989
 30
0.0
 10
99.4054727417329
 20
-122.6271430248989
 30
0.0
 10
99.35033608627339
 20
-122.6271430248989
 30
0.0
 10
99.30556607761505
 20
-122.6715930248875
 30
0.0
 10
99.30556607761505
 20
-122.7270496915405
 30
0.0
 10
99.30556607761505
 20
-122.7821535804155
 30
0.0
 10
99.35033608627339
 20
-122.8269563581822
 30
0.0
 10
99.4054727417329
 20
-122.8269563581822
 30
0.0
 10
99.46057662921596
 20
-122.8269563581822
 30
0.0
 10
99.50537940585072
 20
-122.7821535804155
 30
0.0
 10
99.50537940585072
 20
-122.7270496915405
 30
0.0
  0
SPLINE
  5
92
330
1F
100
AcDbEntity
  8
_U+30EC_U+30A4_U+30E4_U+30FC 1
 62
     7
420
 16777215
370
     9
100
AcDbSpline
210
0.0
220
0.0
230
1.0
 70
    11
 71
     3
 72
    17
 73
    13
 74
     0
 42
0.0000000001
 43
0.0000000001
 12
1.0
 22
0.0
 32
0.0
 13
1.0
 23
0.0
 33
0.0
 40
0.0
 40
0.0
 40
0.0
 40
0.0
 40
1.0
 40
1.0
 40
1.0
 40
2.0
 40
2.0
 40
2.0
 40
3.0
 40
3.0
 40
3.0
 40
4.0
 40
4.0
 40
4.0
 40
4.0
 10
95.50562034122642
 20
-118.7269377480962
 30
0.0
 10
95.50562034122642
 20
-118.6714810814432
 30
0.0
 10
95.46085284236852
 20
-118.6266783036768
 30
0.0
 10
95.40571367710858
 20
-118.6266783036768
 30
0.0
 10
95.35060978962551
 20
-118.6266783036768
 30
0.0
 10
95.30580701299074
 20
-118.6714810814432
 30
0.0
 10
95.30580701299074
 20
-118.7269377480962
 30
0.0
 10
95.30580701299074
 20
-118.782076914749
 30
0.0
 10
95.35060978962551
 20
-118.8268444147379
 30
0.0
 10
95.40571367710858
 20
-118.8268444147379
 30
0.0
 10
95.46085284236852
 20
-118.8268444147379
 30
0.0
 10
95.50562034122642
 20
-118.782076914749
 30
0.0
 10
95.50562034122642
 20
-118.7269377480962
 30
0.0
  0
SPLINE
  5
93
330
1F
100
AcDbEntity
  8
_U+30EC_U+30A4_U+30E4_U+30FC 1
 62
     7
420
 16777215
370
     9
100
AcDbSpline
210
0.0
220
0.0
230
1.0
 70
    11
 71
     3
 72
    17
 73
    13
 74
     0
 42
0.0000000001
 43
0.0000000001
 12
1.0
 22
0.0
 32
0.0
 13
1.0
 23
0.0
 33
0.0
 40
0.0
 40
0.0
 40
0.0
 40
0.0
 40
1.0
 40
1.0
 40
1.0
 40
2.0
 40
2.0
 40
2.0
 40
3.0
 40
3.0
 40
3.0
 40
4.0
 40
4.0
 40
4.0
 40
4.0
 10
88.50552163092492
 20
-118.7269377480962
 30
0.0
 10
88.50552163092492
 20
-118.6714810814432
 30
0.0
 10
88.46075413206704
 20
-118.6266783036768
 30
0.0
 10
88.40561496680708
 20
-118.6266783036768
 30
0.0
 10
88.35051107932401
 20
-118.6266783036768
 30
0.0
 10
88.30570830268925
 20
-118.6714810814432
 30
0.0
 10
88.30570830268925
 20
-118.7269377480962
 30
0.0
 10
88.30570830268925
 20
-118.782076914749
 30
0.0
 10
88.35051107932401
 20
-118.8268444147379
 30
0.0
 10
88.40561496680708
 20
-118.8268444147379
 30
0.0
 10
88.46075413206704
 20
-118.8268444147379
 30
0.0
 10
88.50552163092492
 20
-118.782076914749
 30
0.0
 10
88.50552163092492
 20
-118.7269377480962
 30
0.0
  0
SPLINE
  5
94
330
1F
100
AcDbEntity
  8
_U+30EC_U+30A4_U+30E4_U+30FC 1
 62
     7
420
 16777215
370
     9
100
AcDbSpline
210
0.0
220
0.0
230
1.0
 70
    11
 71
     3
 72
    17
 73
    13
 74
     0
 42
0.0000000001
 43
0.0000000001
 12
1.0
 22
0.0
 32
0.0
 13
1.0
 23
0.0
 33
0.0
 40
0.0
 40
0.0
 40
0.0
 40
0.0
 40
1.0
 40
1.0
 40
1.0
 40
2.0
 40
2.0
 40
2.0
 40
3.0
 40
3.0
 40
3.0
 40
4.0
 40
4.0
 40
4.0
 40
4.0
 10
79.00567492884176
 20
-113.5262171938406
 30
0.0
 10
79.00567492884176
 20
-113.4711133049657
 30
0.0
 10
78.96090742998388
 20
-113.426310527199
 30
0.0
 10
78.90576826472392
 20
-113.426310527199
 30
0.0
 10
78.85066437724085
 20
-113.426310527199
 30
0.0
 10
78.80586160060608
 20
-113.4711133049657
 30
0.0
 10
78.80586160060608
 20
-113.5262171938406
 30
0.0
 10
78.80586160060608
 20
-113.5817091382712
 30
0.0
 10
78.85066437724085
 20
-113.62647663826
 30
0.0
 10
78.90576826472392
 20
-113.62647663826
 30
0.0
 10
78.96090742998388
 20
-113.62647663826
 30
0.0
 10
79.00567492884176
 20
-113.5817091382712
 30
0.0
 10
79.00567492884176
 20
-113.5262171938406
 30
0.0
  0
SPLINE
  5
95
330
1F
100
AcDbEntity
  8
_U+30EC_U+30A4_U+30E4_U+30FC 1
 62
     7
420
 16777215
370
     9
100
AcDbSpline
210
0.0
220
0.0
230
1.0
 70
    11
 71
     3
 72
    17
 73
    13
 74
     0
 42
0.0000000001
 43
0.0000000001
 12
1.0
 22
0.0
 32
0.0
 13
1.0
 23
0.0
 33
0.0
 40
0.0
 40
0.0
 40
0.0
 40
0.0
 40
1.0
 40
1.0
 40
1.0
 40
2.0
 40
2.0
 40
2.0
 40
3.0
 40
3.0
 40
3.0
 40
4.0
 40
4.0
 40
4.0
 40
4.0
 10
78.20571606036152
 20
-113.5262171938406
 30
0.0
 10
78.20571606036152
 20
-113.4711133049657
 30
0.0
 10
78.16094856150363
 20
-113.426310527199
 30
0.0
 10
78.10580939624369
 20
-113.426310527199
 30
0.0
 10
78.05035273099183
 20
-113.426310527199
 30
0.0
 10
78.00558523213395
 20
-113.4711133049657
 30
0.0
 10
78.00558523213395
 20
-113.5262171938406
 30
0.0
 10
78.00558523213395
 20
-113.5817091382712
 30
0.0
 10
78.05035273099183
 20
-113.62647663826
 30
0.0
 10
78.10580939624369
 20
-113.62647663826
 30
0.0
 10
78.16094856150363
 20
-113.62647663826
 30
0.0
 10
78.20571606036152
 20
-113.5817091382712
 30
0.0
 10
78.20571606036152
 20
-113.5262171938406
 30
0.0
  0
SPLINE
  5
96
330
1F
100
AcDbEntity
  8
_U+30EC_U+30A4_U+30E4_U+30FC 1
 62
     7
420
 16777215
370
     9
100
AcDbSpline
210
0.0
220
0.0
230
1.0
 70
    11
 71
     3
 72
    17
 73
    13
 74
     0
 42
0.0000000001
 43
0.0000000001
 12
1.0
 22
0.0
 32
0.0
 13
1.0
 23
0.0
 33
0.0
 40
0.0
 40
0.0
 40
0.0
 40
0.0
 40
1.0
 40
1.0
 40
1.0
 40
2.0
 40
2.0
 40
2.0
 40
3.0
 40
3.0
 40
3.0
 40
4.0
 40
4.0
 40
4.0
 40
4.0
 10
109.7056310900651
 20
-139.2269955207488
 30
0.0
 10
109.7056310900651
 20
-139.1715388540962
 30
0.0
 10
109.6608283134303
 20
-139.1267360763294
 30
0.0
 10
109.6057244259472
 20
-139.1267360763294
 30
0.0
 10
109.5505852606873
 20
-139.1267360763294
 30
0.0
 10
109.5058177618294
 20
-139.1715388540962
 30
0.0
 10
109.5058177618294
 20
-139.2269955207488
 30
0.0
 10
109.5058177618294
 20
-139.2820994096238
 30
0.0
 10
109.5505852606873
 20
-139.3269021873905
 30
0.0
 10
109.6057244259472
 20
-139.3269021873905
 30
0.0
 10
109.6608283134303
 20
-139.3269021873905
 30
0.0
 10
109.7056310900651
 20
-139.2820994096238
 30
0.0
 10
109.7056310900651
 20
-139.2269955207488
 30
0.0
  0
SPLINE
  5
97
330
1F
100
AcDbEntity
  8
_U+30EC_U+30A4_U+30E4_U+30FC 1
 62
     7
420
 16777215
370
     9
100
AcDbSpline
210
0.0
220
0.0
230
1.0
 70
    11
 71
     3
 72
    17
 73
    13
 74
     0
 42
0.0000000001
 43
0.0000000001
 12
1.0
 22
0.0
 32
0.0
 13
1.0
 23
0.0
 33
0.0
 40
0.0
 40
0.0
 40
0.0
 40
0.0
 40
1.0
 40
1.0
 40
1.0
 40
2.0
 40
2.0
 40
2.0
 40
3.0
 40
3.0
 40
3.0
 40
4.0
 40
4.0
 40
4.0
 40
4.0
 10
109.7056310900651
 20
-130.7269208006518
 30
0.0
 10
109.7056310900651
 20
-130.6714288562209
 30
0.0
 10
109.6608283134303
 20
-130.6266613562323
 30
0.0
 10
109.6057244259472
 20
-130.6266613562323
 30
0.0
 10
109.5505852606873
 20
-130.6266613562323
 30
0.0
 10
109.5058177618294
 20
-130.6714288562209
 30
0.0
 10
109.5058177618294
 20
-130.7269208006518
 30
0.0
 10
109.5058177618294
 20
-130.7823774673044
 30
0.0
 10
109.5505852606873
 20
-130.8268274672934
 30
0.0
 10
109.6057244259472
 20
-130.8268274672934
 30
0.0
 10
109.6608283134303
 20
-130.8268274672934
 30
0.0
 10
109.7056310900651
 20
-130.7823774673044
 30
0.0
 10
109.7056310900651
 20
-130.7269208006518
 30
0.0
  0
SPLINE
  5
98
330
1F
100
AcDbEntity
  8
_U+30EC_U+30A4_U+30E4_U+30FC 1
 62
     7
420
 16777215
370
     9
100
AcDbSpline
210
0.0
220
0.0
230
1.0
 70
    11
 71
     3
 72
    17
 73
    13
 74
     0
 42
0.0000000001
 43
0.0000000001
 12
1.0
 22
0.0
 32
0.0
 13
1.0
 23
0.0
 33
0.0
 40
0.0
 40
0.0
 40
0.0
 40
0.0
 40
1.0
 40
1.0
 40
1.0
 40
2.0
 40
2.0
 40
2.0
 40
3.0
 40
3.0
 40
3.0
 40
4.0
 40
4.0
 40
4.0
 40
4.0
 10
105.7058720254408
 20
-144.0270310751046
 30
0.0
 10
105.7058720254408
 20
-143.9715744084513
 30
0.0
 10
105.661069248806
 20
-143.9267716306852
 30
0.0
 10
105.6059653613229
 20
-143.9267716306852
 30
0.0
 10
105.5501559183023
 20
-143.9267716306852
 30
0.0
 10
105.5053531416675
 20
-143.9715744084513
 30
0.0
 10
105.5053531416675
 20
-144.0270310751046
 30
0.0
 10
105.5053531416675
 20
-144.082170241757
 30
0.0
 10
105.5501559183023
 20
-144.1269377417462
 30
0.0
 10
105.6059653613229
 20
-144.1269377417462
 30
0.0
 10
105.661069248806
 20
-144.1269377417462
 30
0.0
 10
105.7058720254408
 20
-144.082170241757
 30
0.0
 10
105.7058720254408
 20
-144.0270310751046
 30
0.0
  0
POLYLINE
  5
99
330
1F
100
AcDbEntity
  8
_U+30EC_U+30A4_U+30E4_U+30FC 1
 62
     7
420
 16777215
370
     9
100
AcDb2dPolyline
 66
     1
 10
0.0
 20
0.0
 30
0.0
  0
VERTEX
  5
9A
330
99
100
AcDbEntity
  8
_U+30EC_U+30A4_U+30E4_U+30FC 1
 62
     7
420
 16777215
370
     9
100
AcDbVertex
100
AcDb2dVertex
 10
88.40561496680708
 20
-118.7269377480962
 30
0.0
  0
VERTEX
  5
9B
330
99
100
AcDbEntity
  8
_U+30EC_U+30A4_U+30E4_U+30FC 1
 62
     7
420
 16777215
370
     9
100
AcDbVertex
100
AcDb2dVertex
 10
95.40571367710858
 20
-118.7269377480962
 30
0.0
  0
SEQEND
  5
9C
330
99
100
AcDbEntity
  8
_U+30EC_U+30A4_U+30E4_U+30FC 1
 62
     7
420
 16777215
370
     9
  0
POLYLINE
  5
9D
330
1F
100
AcDbEntity
  8
_U+30EC_U+30A4_U+30E4_U+30FC 1
 62
     7
420
 16777215
370
     9
100
AcDb2dPolyline
 66
     1
 10
0.0
 20
0.0
 30
0.0
  0
VERTEX
  5
9E
330
9D
100
AcDbEntity
  8
_U+30EC_U+30A4_U+30E4_U+30FC 1
 62
     7
420
 16777215
370
     9
100
AcDbVertex
100
AcDb2dVertex
 10
88.40561496680708
 20
-120.1869791366199
 30
0.0
  0
VERTEX
  5
9F
330
9D
100
AcDbEntity
  8
_U+30EC_U+30A4_U+30E4_U+30FC 1
 62
     7
420
 16777215
370
     9
100
AcDbVertex
100
AcDb2dVertex
 10
88.40561496680708
 20
-117.7268480261238
 30
0.0
  0
SEQEND
  5
A0
330
9D
100
AcDbEntity
  8
_U+30EC_U+30A4_U+30E4_U+30FC 1
 62
     7
420
 16777215
370
     9
  0
POLYLINE
  5
A1
330
1F
100
AcDbEntity
  8
_U+30EC_U+30A4_U+30E4_U+30FC 1
 62
     7
420
 16777215
370
     9
100
AcDb2dPolyline
 66
     1
 10
0.0
 20
0.0
 30
0.0
  0
VERTEX
  5
A2
330
A1
100
AcDbEntity
  8
_U+30EC_U+30A4_U+30E4_U+30FC 1
 62
     7
420
 16777215
370
     9
100
AcDbVertex
100
AcDb2dVertex
 10
95.40571367710858
 20
-128.1868502457311
 30
0.0
  0
VERTEX
  5
A3
330
A1
100
AcDbEntity
  8
_U+30EC_U+30A4_U+30E4_U+30FC 1
 62
     7
420
 16777215
370
     9
100
AcDbVertex
100
AcDb2dVertex
 10
95.40571367710858
 20
-117.7268480261238
 30
0.0
  0
SEQEND
  5
A4
330
A1
100
AcDbEntity
  8
_U+30EC_U+30A4_U+30E4_U+30FC 1
 62
     7
420
 16777215
370
     9
  0
INSERT
  5
A6
330
1F
100
AcDbEntity
  8
_U+30EC_U+30A4_U+30E4_U+30FC 1
100
AcDbBlockReference
  2
block 2
 10
0.0
 20
0.0
 30
0.0
  0
POLYLINE
  5
AB
330
1F
100
AcDbEntity
  8
_U+30EC_U+30A4_U+30E4_U+30FC 1
 62
     7
420
 16777215
370
     9
100
AcDb2dPolyline
 66
     1
 10
0.0
 20
0.0
 30
0.0
  0
VERTEX
  5
AC
330
AB
100
AcDbEntity
  8
_U+30EC_U+30A4_U+30E4_U+30FC 1
 62
     7
420
 16777215
370
     9
100
AcDbVertex
100
AcDb2dVertex
 10
99.4054727417329
 20
-122.7270496915405
 30
0.0
  0
VERTEX
  5
AD
330
AB
100
AcDbEntity
  8
_U+30EC_U+30A4_U+30E4_U+30FC 1
 62
     7
420
 16777215
370
     9
100
AcDbVertex
100
AcDb2dVertex
 10
99.4054727417329
 20
-129.7271485786792
 30
0.0
  0
SEQEND
  5
AE
330
AB
100
AcDbEntity
  8
_U+30EC_U+30A4_U+30E4_U+30FC 1
 62
     7
420
 16777215
370
     9
  0
POLYLINE
  5
AF
330
1F
100
AcDbEntity
  8
_U+30EC_U+30A4_U+30E4_U+30FC 1
 62
     7
420
 16777215
370
     9
100
AcDb2dPolyline
 66
     1
 10
0.0
 20
0.0
 30
0.0
  0
VERTEX
  5
B0
330
AF
100
AcDbEntity
  8
_U+30EC_U+30A4_U+30E4_U+30FC 1
 62
     7
420
 16777215
370
     9
100
AcDbVertex
100
AcDb2dVertex
 10
89.94591326084414
 20
-122.7270496915405
 30
0.0
  0
VERTEX
  5
B1
330
AF
100
AcDbEntity
  8
_U+30EC_U+30A4_U+30E4_U+30FC 1
 62
     7
420
 16777215
370
     9
100
AcDbVertex
100
AcDb2dVertex
 10
100.4059152162095
 20
-122.7270496915405
 30
0.0
  0
SEQEND
  5
B2
330
AF
100
AcDbEntity
  8
_U+30EC_U+30A4_U+30E4_U+30FC 1
 62
     7
420
 16777215
370
     9
  0
POLYLINE
  5
B3
330
1F
100
AcDbEntity
  8
_U+30EC_U+30A4_U+30E4_U+30FC 1
 62
     7
420
 16777215
370
     9
100
AcDb2dPolyline
 66
     1
 10
0.0
 20
0.0
 30
0.0
  0
VERTEX
  5
B4
330
B3
100
AcDbEntity
  8
_U+30EC_U+30A4_U+30E4_U+30FC 1
 62
     7
420
 16777215
370
     9
100
AcDbVertex
100
AcDb2dVertex
 10
97.94543139009276
 20
-130.7269208006518
 30
0.0
  0
VERTEX
  5
B5
330
B3
100
AcDbEntity
  8
_U+30EC_U+30A4_U+30E4_U+30FC 1
 62
     7
420
 16777215
370
     9
100
AcDbVertex
100
AcDb2dVertex
 10
100.4059152162095
 20
-130.7269208006518
 30
0.0
  0
SEQEND
  5
B6
330
B3
100
AcDbEntity
  8
_U+30EC_U+30A4_U+30E4_U+30FC 1
 62
     7
420
 16777215
370
     9
  0
INSERT
  5
B8
330
1F
100
AcDbEntity
  8
_U+30EC_U+30A4_U+30E4_U+30FC 1
100
AcDbBlockReference
  2
block 3
 10
0.0
 20
0.0
 30
0.0
  0
POLYLINE
  5
BD
330
1F
100
AcDbEntity
  8
_U+30EC_U+30A4_U+30E4_U+30FC 1
 62
     7
420
 16777215
370
     9
100
AcDb2dPolyline
 66
     1
 10
0.0
 20
0.0
 30
0.0
  0
VERTEX
  5
BE
330
BD
100
AcDbEntity
  8
_U+30EC_U+30A4_U+30E4_U+30FC 1
 62
     7
420
 16777215
370
     9
100
AcDbVertex
100
AcDb2dVertex
 10
88.40596774457586
 20
-126.7268088572071
 30
0.0
  0
VERTEX
  5
BF
330
BD
100
AcDbEntity
  8
_U+30EC_U+30A4_U+30E4_U+30FC 1
 62
     7
420
 16777215
370
     9
100
AcDbVertex
100
AcDb2dVertex
 10
92.17628014838718
 20
-126.7268088572071
 30
0.0
  0
SEQEND
  5
C0
330
BD
100
AcDbEntity
  8
_U+30EC_U+30A4_U+30E4_U+30FC 1
 62
     7
420
 16777215
370
     9
  0
POLYLINE
  5
C1
330
1F
100
AcDbEntity
  8
_U+30EC_U+30A4_U+30E4_U+30FC 1
 62
     7
420
 16777215
370
     9
100
AcDb2dPolyline
 66
     1
 10
0.0
 20
0.0
 30
0.0
  0
VERTEX
  5
C2
330
C1
100
AcDbEntity
  8
_U+30EC_U+30A4_U+30E4_U+30FC 1
 62
     7
420
 16777215
370
     9
100
AcDbVertex
100
AcDb2dVertex
 10
88.40596774457586
 20
-126.7268088572071
 30
0.0
  0
VERTEX
  5
C3
330
C1
100
AcDbEntity
  8
_U+30EC_U+30A4_U+30E4_U+30FC 1
 62
     7
420
 16777215
370
     9
100
AcDbVertex
100
AcDb2dVertex
 10
86.40575307338337
 20
-126.7268088572071
 30
0.0
  0
SEQEND
  5
C4
330
C1
100
AcDbEntity
  8
_U+30EC_U+30A4_U+30E4_U+30FC 1
 62
     7
420
 16777215
370
     9
  0
POLYLINE
  5
C5
330
1F
100
AcDbEntity
  8
_U+30EC_U+30A4_U+30E4_U+30FC 1
 62
     7
420
 16777215
370
    25
100
AcDb2dPolyline
 66
     1
 10
0.0
 20
0.0
 30
0.0
  0
VERTEX
  5
C6
330
C5
100
AcDbEntity
  8
_U+30EC_U+30A4_U+30E4_U+30FC 1
 62
     7
420
 16777215
370
    25
100
AcDbVertex
100
AcDb2dVertex
 10
88.40596774457586
 20
-129.266879412128
 30
0.0
  0
VERTEX
  5
C7
330
C5
100
AcDbEntity
  8
_U+30EC_U+30A4_U+30E4_U+30FC 1
 62
     7
420
 16777215
370
    25
100
AcDbVertex
100
AcDb2dVertex
 10
88.40596774457586
 20
-126.7278319127626
 30
0.0
  0
SEQEND
  5
C8
330
C5
100
AcDbEntity
  8
_U+30EC_U+30A4_U+30E4_U+30FC 1
 62
     7
420
 16777215
370
    25
  0
POLYLINE
  5
C9
330
1F
100
AcDbEntity
  8
_U+30EC_U+30A4_U+30E4_U+30FC 1
 62
     7
420
 16777215
370
    25
100
AcDb2dPolyline
 66
     1
 10
0.0
 20
0.0
 30
0.0
  0
VERTEX
  5
CA
330
C9
100
AcDbEntity
  8
_U+30EC_U+30A4_U+30E4_U+30FC 1
 62
     7
420
 16777215
370
    25
100
AcDbVertex
100
AcDb2dVertex
 10
87.40552527009928
 20
-129.266879412128
 30
0.0
  0
VERTEX
  5
CB
330
C9
100
AcDbEntity
  8
_U+30EC_U+30A4_U+30E4_U+30FC 1
 62
     7
420
 16777215
370
    25
100
AcDbVertex
100
AcDb2dVertex
 10
87.40552527009928
 20
-126.7278319127626
 30
0.0
  0
SEQEND
  5
CC
330
C9
100
AcDbEntity
  8
_U+30EC_U+30A4_U+30E4_U+30FC 1
 62
     7
420
 16777215
370
    25
  0
INSERT
  5
CE
330
1F
100
AcDbEntity
  8
_U+30EC_U+30A4_U+30E4_U+30FC 1
100
AcDbBlockReference
  2
block 4
 10
0.0
 20
0.0
 30
0.0
  0
POLYLINE
  5
D3
330
1F
100
AcDbEntity
  8
_U+30EC_U+30A4_U+30E4_U+30FC 1
 62
     7
420
 16777215
370
     9
100
AcDb2dPolyline
 66
     1
 10
0.0
 20
0.0
 30
0.0
  0
VERTEX
  5
D4
330
D3
100
AcDbEntity
  8
_U+30EC_U+30A4_U+30E4_U+30FC 1
 62
     7
420
 16777215
370
     9
100
AcDbVertex
100
AcDb2dVertex
 10
75.98434500592231
 20
-145.683781352468
 30
0.0
  0
VERTEX
  5
D5
330
D3
100
AcDbEntity
  8
_U+30EC_U+30A4_U+30E4_U+30FC 1
 62
     7
420
 16777215
370
     9
100
AcDbVertex
100
AcDb2dVertex
 10
72.4489825961169
 20
-142.148101353352
 30
0.0
  0
SEQEND
  5
D6
330
D3
100
AcDbEntity
  8
_U+30EC_U+30A4_U+30E4_U+30FC 1
 62
     7
420
 16777215
370
     9
  0
POLYLINE
  5
D7
330
1F
100
AcDbEntity
  8
_U+30EC_U+30A4_U+30E4_U+30FC 1
 62
     7
420
 16777215
370
     9
100
AcDb2dPolyline
 66
     1
 10
0.0
 20
0.0
 30
0.0
  0
VERTEX
  5
D8
330
D7
100
AcDbEntity
  8
_U+30EC_U+30A4_U+30E4_U+30FC 1
 62
     7
420
 16777215
370
     9
100
AcDbVertex
100
AcDb2dVertex
 10
79.8448999800389
 20
-141.8228755200996
 30
0.0
  0
VERTEX
  5
D9
330
D7
100
AcDbEntity
  8
_U+30EC_U+30A4_U+30E4_U+30FC 1
 62
     7
420
 16777215
370
     9
100
AcDbVertex
100
AcDb2dVertex
 10
75.27741363506874
 20
-146.3907127411801
 30
0.0
  0
SEQEND
  5
DA
330
D7
100
AcDbEntity
  8
_U+30EC_U+30A4_U+30E4_U+30FC 1
 62
     7
420
 16777215
370
     9
  0
POLYLINE
  5
DB
330
1F
100
AcDbEntity
  8
_U+30EC_U+30A4_U+30E4_U+30FC 1
 62
     7
420
 16777215
370
     9
100
AcDb2dPolyline
 66
     1
 10
0.0
 20
0.0
 30
0.0
  0
VERTEX
  5
DC
330
DB
100
AcDbEntity
  8
_U+30EC_U+30A4_U+30E4_U+30FC 1
 62
     7
420
 16777215
370
     9
100
AcDbVertex
100
AcDb2dVertex
 10
76.30953555318156
 20
-138.2875130209838
 30
0.0
  0
VERTEX
  5
DD
330
DB
100
AcDbEntity
  8
_U+30EC_U+30A4_U+30E4_U+30FC 1
 62
     7
420
 16777215
370
     9
100
AcDbVertex
100
AcDb2dVertex
 10
71.74169844749457
 20
-142.8553502420637
 30
0.0
  0
SEQEND
  5
DE
330
DB
100
AcDbEntity
  8
_U+30EC_U+30A4_U+30E4_U+30FC 1
 62
     7
420
 16777215
370
     9
  0
INSERT
  5
E0
330
1F
100
AcDbEntity
  8
_U+30EC_U+30A4_U+30E4_U+30FC 1
100
AcDbBlockReference
  2
block 5
 10
0.0
 20
0.0
 30
0.0
  0
POLYLINE
  5
E5
330
1F
100
AcDbEntity
  8
_U+30EC_U+30A4_U+30E4_U+30FC 1
 62
     7
420
 16777215
370
     9
100
AcDb2dPolyline
 66
     1
 10
0.0
 20
0.0
 30
0.0
  0
VERTEX
  5
E6
330
E5
100
AcDbEntity
  8
_U+30EC_U+30A4_U+30E4_U+30FC 1
 62
     7
420
 16777215
370
     9
100
AcDbVertex
100
AcDb2dVertex
 10
78.90576826472392
 20
-113.5262171938406
 30
0.0
  0
VERTEX
  5
E7
330
E5
100
AcDbEntity
  8
_U+30EC_U+30A4_U+30E4_U+30FC 1
 62
     7
420
 16777215
370
     9
100
AcDbVertex
100
AcDb2dVertex
 10
84.1636739639169
 20
-113.5262171938406
 30
0.0
  0
SEQEND
  5
E8
330
E5
100
AcDbEntity
  8
_U+30EC_U+30A4_U+30E4_U+30FC 1
 62
     7
420
 16777215
370
     9
  0
POLYLINE
  5
E9
330
1F
100
AcDbEntity
  8
_U+30EC_U+30A4_U+30E4_U+30FC 1
 62
     7
420
 16777215
370
     9
100
AcDb2dPolyline
 66
     1
 10
0.0
 20
0.0
 30
0.0
  0
VERTEX
  5
EA
330
E9
100
AcDbEntity
  8
_U+30EC_U+30A4_U+30E4_U+30FC 1
 62
     7
420
 16777215
370
     9
100
AcDbVertex
100
AcDb2dVertex
 10
77.10571969953587
 20
-113.5262171938406
 30
0.0
  0
VERTEX
  5
EB
330
E9
100
AcDbEntity
  8
_U+30EC_U+30A4_U+30E4_U+30FC 1
 62
     7
420
 16777215
370
     9
100
AcDbVertex
100
AcDb2dVertex
 10
78.90576826472392
 20
-113.5262171938406
 30
0.0
  0
SEQEND
  5
EC
330
E9
100
AcDbEntity
  8
_U+30EC_U+30A4_U+30E4_U+30FC 1
 62
     7
420
 16777215
370
     9
  0
POLYLINE
  5
ED
330
1F
100
AcDbEntity
  8
_U+30EC_U+30A4_U+30E4_U+30FC 1
 62
     7
420
 16777215
370
     9
100
AcDb2dPolyline
 66
     1
 10
0.0
 20
0.0
 30
0.0
  0
VERTEX
  5
EE
330
ED
100
AcDbEntity
  8
_U+30EC_U+30A4_U+30E4_U+30FC 1
 62
     7
420
 16777215
370
     9
100
AcDbVertex
100
AcDb2dVertex
 10
78.10580939624369
 20
-114.9869641379199
 30
0.0
  0
VERTEX
  5
EF
330
ED
100
AcDbEntity
  8
_U+30EC_U+30A4_U+30E4_U+30FC 1
 62
     7
420
 16777215
370
     9
100
AcDbVertex
100
AcDb2dVertex
 10
78.10580939624369
 20
-112.5264802496463
 30
0.0
  0
SEQEND
  5
F0
330
ED
100
AcDbEntity
  8
_U+30EC_U+30A4_U+30E4_U+30FC 1
 62
     7
420
 16777215
370
     9
  0
POLYLINE
  5
F1
330
1F
100
AcDbEntity
  8
_U+30EC_U+30A4_U+30E4_U+30FC 1
 62
     7
420
 16777215
370
     9
100
AcDb2dPolyline
 66
     1
 10
0.0
 20
0.0
 30
0.0
  0
VERTEX
  5
F2
330
F1
100
AcDbEntity
  8
_U+30EC_U+30A4_U+30E4_U+30FC 1
 62
     7
420
 16777215
370
     9
100
AcDbVertex
100
AcDb2dVertex
 10
78.90576826472392
 20
-115.1953852489789
 30
0.0
  0
VERTEX
  5
F3
330
F1
100
AcDbEntity
  8
_U+30EC_U+30A4_U+30E4_U+30FC 1
 62
     7
420
 16777215
370
     9
100
AcDbVertex
100
AcDb2dVertex
 10
78.90576826472392
 20
-112.5264802496463
 30
0.0
  0
SEQEND
  5
F4
330
F1
100
AcDbEntity
  8
_U+30EC_U+30A4_U+30E4_U+30FC 1
 62
     7
420
 16777215
370
     9
  0
INSERT
  5
F6
330
1F
100
AcDbEntity
  8
_U+30EC_U+30A4_U+30E4_U+30FC 1
100
AcDbBlockReference
  2
block 6
 10
0.0
 20
0.0
 30
0.0
  0
POLYLINE
  5
108
330
1F
100
AcDbEntity
  8
_U+30EC_U+30A4_U+30E4_U+30FC 1
 62
     7
420
 16777215
370
     9
100
AcDb2dPolyline
 66
     1
 10
0.0
 20
0.0
 30
0.0
  0
VERTEX
  5
109
330
108
100
AcDbEntity
  8
_U+30EC_U+30A4_U+30E4_U+30FC 1
 62
     7
420
 16777215
370
     9
100
AcDbVertex
100
AcDb2dVertex
 10
78.10580939624369
 20
-144.0270310751046
 30
0.0
  0
VERTEX
  5
10A
330
108
100
AcDbEntity
  8
_U+30EC_U+30A4_U+30E4_U+30FC 1
 62
     7
420
 16777215
370
     9
100
AcDbVertex
100
AcDb2dVertex
 10
105.6059653613229
 20
-144.0270310751046
 30
0.0
  0
SEQEND
  5
10B
330
108
100
AcDbEntity
  8
_U+30EC_U+30A4_U+30E4_U+30FC 1
 62
     7
420
 16777215
370
     9
  0
POLYLINE
  5
10C
330
1F
100
AcDbEntity
  8
_U+30EC_U+30A4_U+30E4_U+30FC 1
 62
     7
420
 16777215
370
     9
100
AcDb2dPolyline
 66
     1
 10
0.0
 20
0.0
 30
0.0
  0
VERTEX
  5
10D
330
10C
100
AcDbEntity
  8
_U+30EC_U+30A4_U+30E4_U+30FC 1
 62
     7
420
 16777215
370
     9
100
AcDbVertex
100
AcDb2dVertex
 10
78.10580939624369
 20
-139.0313096874642
 30
0.0
  0
VERTEX
  5
10E
330
10C
100
AcDbEntity
  8
_U+30EC_U+30A4_U+30E4_U+30FC 1
 62
     7
420
 16777215
370
     9
100
AcDbVertex
100
AcDb2dVertex
 10
78.10580939624369
 20
-145.0268032970765
 30
0.0
  0
SEQEND
  5
10F
330
10C
100
AcDbEntity
  8
_U+30EC_U+30A4_U+30E4_U+30FC 1
 62
     7
420
 16777215
370
     9
  0
POLYLINE
  5
110
330
1F
100
AcDbEntity
  8
_U+30EC_U+30A4_U+30E4_U+30FC 1
 62
     7
420
 16777215
370
     9
100
AcDb2dPolyline
 66
     1
 10
0.0
 20
0.0
 30
0.0
  0
VERTEX
  5
111
330
110
100
AcDbEntity
  8
_U+30EC_U+30A4_U+30E4_U+30FC 1
 62
     7
420
 16777215
370
     9
100
AcDbVertex
100
AcDb2dVertex
 10
105.6059653613229
 20
-142.5670249643584
 30
0.0
  0
VERTEX
  5
112
330
110
100
AcDbEntity
  8
_U+30EC_U+30A4_U+30E4_U+30FC 1
 62
     7
420
 16777215
370
     9
100
AcDbVertex
100
AcDb2dVertex
 10
105.6059653613229
 20
-145.0268032970765
 30
0.0
  0
SEQEND
  5
113
330
110
100
AcDbEntity
  8
_U+30EC_U+30A4_U+30E4_U+30FC 1
 62
     7
420
 16777215
370
     9
  0
INSERT
  5
115
330
1F
100
AcDbEntity
  8
_U+30EC_U+30A4_U+30E4_U+30FC 1
100
AcDbBlockReference
  2
block 7
 10
0.0
 20
0.0
 30
0.0
  0
POLYLINE
  5
126
330
1F
100
AcDbEntity
  8
_U+30EC_U+30A4_U+30E4_U+30FC 1
 62
     7
420
 16777215
370
     9
100
AcDb2dPolyline
 66
     1
 10
0.0
 20
0.0
 30
0.0
  0
VERTEX
  5
127
330
126
100
AcDbEntity
  8
_U+30EC_U+30A4_U+30E4_U+30FC 1
 62
     7
420
 16777215
370
     9
100
AcDbVertex
100
AcDb2dVertex
 10
74.10573283162748
 20
-117.5266819150627
 30
0.0
  0
VERTEX
  5
128
330
126
100
AcDbEntity
  8
_U+30EC_U+30A4_U+30E4_U+30FC 1
 62
     7
420
 16777215
370
     9
100
AcDbVertex
100
AcDb2dVertex
 10
74.10573283162748
 20
-140.0269544094375
 30
0.0
  0
SEQEND
  5
129
330
126
100
AcDbEntity
  8
_U+30EC_U+30A4_U+30E4_U+30FC 1
 62
     7
420
 16777215
370
     9
  0
POLYLINE
  5
12A
330
1F
100
AcDbEntity
  8
_U+30EC_U+30A4_U+30E4_U+30FC 1
 62
     7
420
 16777215
370
     9
100
AcDb2dPolyline
 66
     1
 10
0.0
 20
0.0
 30
0.0
  0
VERTEX
  5
12B
330
12A
100
AcDbEntity
  8
_U+30EC_U+30A4_U+30E4_U+30FC 1
 62
     7
420
 16777215
370
     9
100
AcDbVertex
100
AcDb2dVertex
 10
75.56542140549882
 20
-117.5266819150627
 30
0.0
  0
VERTEX
  5
12C
330
12A
100
AcDbEntity
  8
_U+30EC_U+30A4_U+30E4_U+30FC 1
 62
     7
420
 16777215
370
     9
100
AcDbVertex
100
AcDb2dVertex
 10
73.10560785714279
 20
-117.5266819150627
 30
0.0
  0
SEQEND
  5
12D
330
12A
100
AcDbEntity
  8
_U+30EC_U+30A4_U+30E4_U+30FC 1
 62
     7
420
 16777215
370
     9
  0
POLYLINE
  5
12E
330
1F
100
AcDbEntity
  8
_U+30EC_U+30A4_U+30E4_U+30FC 1
 62
     7
420
 16777215
370
     9
100
AcDb2dPolyline
 66
     1
 10
0.0
 20
0.0
 30
0.0
  0
VERTEX
  5
12F
330
12E
100
AcDbEntity
  8
_U+30EC_U+30A4_U+30E4_U+30FC 1
 62
     7
420
 16777215
370
     9
100
AcDbVertex
100
AcDb2dVertex
 10
79.10110131529612
 20
-140.0269544094375
 30
0.0
  0
VERTEX
  5
130
330
12E
100
AcDbEntity
  8
_U+30EC_U+30A4_U+30E4_U+30FC 1
 62
     7
420
 16777215
370
     9
100
AcDbVertex
100
AcDb2dVertex
 10
73.10560785714279
 20
-140.0269544094375
 30
0.0
  0
SEQEND
  5
131
330
12E
100
AcDbEntity
  8
_U+30EC_U+30A4_U+30E4_U+30FC 1
 62
     7
420
 16777215
370
     9
  0
INSERT
  5
133
330
1F
100
AcDbEntity
  8
_U+30EC_U+30A4_U+30E4_U+30FC 1
100
AcDbBlockReference
  2
block 8
 10
0.0
 20
0.0
 30
0.0
  0
POLYLINE
  5
144
330
1F
100
AcDbEntity
  8
_U+30EC_U+30A4_U+30E4_U+30FC 1
 62
     7
420
 16777215
370
     9
100
AcDb2dPolyline
 66
     1
 10
0.0
 20
0.0
 30
0.0
  0
VERTEX
  5
145
330
144
100
AcDbEntity
  8
_U+30EC_U+30A4_U+30E4_U+30FC 1
 62
     7
420
 16777215
370
     9
100
AcDbVertex
100
AcDb2dVertex
 10
109.6057244259472
 20
-130.7269208006518
 30
0.0
  0
VERTEX
  5
146
330
144
100
AcDbEntity
  8
_U+30EC_U+30A4_U+30E4_U+30FC 1
 62
     7
420
 16777215
370
     9
100
AcDbVertex
100
AcDb2dVertex
 10
109.6057244259472
 20
-139.2269955207488
 30
0.0
  0
SEQEND
  5
147
330
144
100
AcDbEntity
  8
_U+30EC_U+30A4_U+30E4_U+30FC 1
 62
     7
420
 16777215
370
     9
  0
POLYLINE
  5
148
330
1F
100
AcDbEntity
  8
_U+30EC_U+30A4_U+30E4_U+30FC 1
 62
     7
420
 16777215
370
     9
100
AcDb2dPolyline
 66
     1
 10
0.0
 20
0.0
 30
0.0
  0
VERTEX
  5
149
330
148
100
AcDbEntity
  8
_U+30EC_U+30A4_U+30E4_U+30FC 1
 62
     7
420
 16777215
370
     9
100
AcDbVertex
100
AcDb2dVertex
 10
97.94543139009276
 20
-130.7269208006518
 30
0.0
  0
VERTEX
  5
14A
330
148
100
AcDbEntity
  8
_U+30EC_U+30A4_U+30E4_U+30FC 1
 62
     7
420
 16777215
370
     9
100
AcDbVertex
100
AcDb2dVertex
 10
110.6054613448863
 20
-130.7269208006518
 30
0.0
  0
SEQEND
  5
14B
330
148
100
AcDbEntity
  8
_U+30EC_U+30A4_U+30E4_U+30FC 1
 62
     7
420
 16777215
370
     9
  0
SPLINE
  5
14C
330
1F
100
AcDbEntity
  8
_U+30EC_U+30A4_U+30E4_U+30FC 1
 62
     7
420
 16777215
370
     9
100
AcDbSpline
210
0.0
220
0.0
230
1.0
 70
    11
 71
     3
 72
    17
 73
    13
 74
     0
 42
0.0000000001
 43
0.0000000001
 12
1.0
 22
0.0
 32
0.0
 13
1.0
 23
0.0
 33
0.0
 40
0.0
 40
0.0
 40
0.0
 40
0.0
 40
1.0
 40
1.0
 40
1.0
 40
2.0
 40
2.0
 40
2.0
 40
3.0
 40
3.0
 40
3.0
 40
4.0
 40
4.0
 40
4.0
 40
4.0
 10
99.50537940585072
 20
-129.7271485786792
 30
0.0
 10
99.50537940585072
 20
-129.671656634249
 30
0.0
 10
99.46057662921596
 20
-129.6268891342598
 30
0.0
 10
99.4054727417329
 20
-129.6268891342598
 30
0.0
 10
99.35033608627339
 20
-129.6268891342598
 30
0.0
 10
99.30556607761505
 20
-129.671656634249
 30
0.0
 10
99.30556607761505
 20
-129.7271485786792
 30
0.0
 10
99.30556607761505
 20
-129.7826052453319
 30
0.0
 10
99.35033608627339
 20
-129.8270552453208
 30
0.0
 10
99.4054727417329
 20
-129.8270552453208
 30
0.0
 10
99.46057662921596
 20
-129.8270552453208
 30
0.0
 10
99.50537940585072
 20
-129.7826052453319
 30
0.0
 10
99.50537940585072
 20
-129.7271485786792
 30
0.0
  0
POLYLINE
  5
14D
330
1F
100
AcDbEntity
  8
_U+30EC_U+30A4_U+30E4_U+30FC 1
 62
     7
420
 16777215
370
     9
100
AcDb2dPolyline
 66
     1
 10
0.0
 20
0.0
 30
0.0
  0
VERTEX
  5
14E
330
14D
100
AcDbEntity
  8
_U+30EC_U+30A4_U+30E4_U+30FC 1
 62
     7
420
 16777215
370
     9
100
AcDbVertex
100
AcDb2dVertex
 10
97.94543139009276
 20
-129.7271485786792
 30
0.0
  0
VERTEX
  5
14F
330
14D
100
AcDbEntity
  8
_U+30EC_U+30A4_U+30E4_U+30FC 1
 62
     7
420
 16777215
370
     9
100
AcDbVertex
100
AcDb2dVertex
 10
100.4059152162095
 20
-129.7271485786792
 30
0.0
  0
SEQEND
  5
150
330
14D
100
AcDbEntity
  8
_U+30EC_U+30A4_U+30E4_U+30FC 1
 62
     7
420
 16777215
370
     9
  0
POLYLINE
  5
151
330
1F
100
AcDbEntity
  8
_U+30EC_U+30A4_U+30E4_U+30FC 1
 62
     7
420
 16777215
370
     9
100
AcDb2dPolyline
 66
     1
 10
0.0
 20
0.0
 30
0.0
  0
VERTEX
  5
152
330
151
100
AcDbEntity
  8
_U+30EC_U+30A4_U+30E4_U+30FC 1
 62
     7
420
 16777215
370
     9
100
AcDbVertex
100
AcDb2dVertex
 10
97.94543139009276
 20
-129.7271485786792
 30
0.0
  0
VERTEX
  5
153
330
151
100
AcDbEntity
  8
_U+30EC_U+30A4_U+30E4_U+30FC 1
 62
     7
420
 16777215
370
     9
100
AcDbVertex
100
AcDb2dVertex
 10
100.4055977162176
 20
-129.7271485786792
 30
0.0
  0
SEQEND
  5
154
330
151
100
AcDbEntity
  8
_U+30EC_U+30A4_U+30E4_U+30FC 1
 62
     7
420
 16777215
370
     9
  0
POLYLINE
  5
155
330
1F
100
AcDbEntity
  8
_U+30EC_U+30A4_U+30E4_U+30FC 1
 62
     7
420
 16777215
370
     9
100
AcDb2dPolyline
 66
     1
 10
0.0
 20
0.0
 30
0.0
  0
VERTEX
  5
156
330
155
100
AcDbEntity
  8
_U+30EC_U+30A4_U+30E4_U+30FC 1
 62
     7
420
 16777215
370
     9
100
AcDbVertex
100
AcDb2dVertex
 10
107.9369091907445
 20
-139.2269955207488
 30
0.0
  0
VERTEX
  5
157
330
155
100
AcDbEntity
  8
_U+30EC_U+30A4_U+30E4_U+30FC 1
 62
     7
420
 16777215
370
     9
100
AcDbVertex
100
AcDb2dVertex
 10
110.6054613448863
 20
-139.2269955207488
 30
0.0
  0
SEQEND
  5
158
330
155
100
AcDbEntity
  8
_U+30EC_U+30A4_U+30E4_U+30FC 1
 62
     7
420
 16777215
370
     9
  0
INSERT
  5
15A
330
1F
100
AcDbEntity
  8
_U+30EC_U+30A4_U+30E4_U+30FC 1
100
AcDbBlockReference
  2
block 9
 10
0.0
 20
0.0
 30
0.0
  0
POLYLINE
  5
16B
330
1F
100
AcDbEntity
  8
_U+30EC_U+30A4_U+30E4_U+30FC 1
 62
   179
420
  2234388
370
     9
100
AcDb2dPolyline
 66
     1
 10
0.0
 20
0.0
 30
0.0
  0
VERTEX
  5
16C
330
16B
100
AcDbEntity
  8
_U+30EC_U+30A4_U+30E4_U+30FC 1
 62
   179
420
  2234388
370
     9
100
AcDbVertex
100
AcDb2dVertex
 10
88.56270690724378
 20
-129.4666927454113
 30
0.0
  0
VERTEX
  5
16D
330
16B
100
AcDbEntity
  8
_U+30EC_U+30A4_U+30E4_U+30FC 1
 62
   179
420
  2234388
370
     9
100
AcDbVertex
100
AcDb2dVertex
 10
89.08432411615844
 20
-128.563546356748
 30
0.0
  0
SEQEND
  5
16E
330
16B
100
AcDbEntity
  8
_U+30EC_U+30A4_U+30E4_U+30FC 1
 62
   179
420
  2234388
370
     9
  0
POLYLINE
  5
16F
330
1F
100
AcDbEntity
  8
_U+30EC_U+30A4_U+30E4_U+30FC 1
 62
   179
420
  2234388
370
     9
100
AcDb2dPolyline
 66
     1
 10
0.0
 20
0.0
 30
0.0
  0
VERTEX
  5
170
330
16F
100
AcDbEntity
  8
_U+30EC_U+30A4_U+30E4_U+30FC 1
 62
   179
420
  2234388
370
     9
100
AcDbVertex
100
AcDb2dVertex
 10
88.56270690724378
 20
-129.4666927454113
 30
0.0
  0
VERTEX
  5
171
330
16F
100
AcDbEntity
  8
_U+30EC_U+30A4_U+30E4_U+30FC 1
 62
   179
420
  2234388
370
     9
100
AcDbVertex
100
AcDb2dVertex
 10
89.9807324266225
 20
-128.1117438568609
 30
0.0
  0
SEQEND
  5
172
330
16F
100
AcDbEntity
  8
_U+30EC_U+30A4_U+30E4_U+30FC 1
 62
   179
420
  2234388
370
     9
  0
POLYLINE
  5
173
330
1F
100
AcDbEntity
  8
_U+30EC_U+30A4_U+30E4_U+30FC 1
 62
   179
420
  2234388
370
     9
100
AcDb2dPolyline
 66
     1
 10
0.0
 20
0.0
 30
0.0
  0
VERTEX
  5
174
330
173
100
AcDbEntity
  8
_U+30EC_U+30A4_U+30E4_U+30FC 1
 62
   179
420
  2234388
370
     9
100
AcDbVertex
100
AcDb2dVertex
 10
88.56270690724378
 20
-129.4666927454113
 30
0.0
  0
VERTEX
  5
175
330
173
100
AcDbEntity
  8
_U+30EC_U+30A4_U+30E4_U+30FC 1
 62
   179
420
  2234388
370
     9
100
AcDbVertex
100
AcDb2dVertex
 10
89.46532410643832
 20
-128.9451108010969
 30
0.0
  0
SEQEND
  5
176
330
173
100
AcDbEntity
  8
_U+30EC_U+30A4_U+30E4_U+30FC 1
 62
   179
420
  2234388
370
     9
  0
INSERT
  5
178
330
1F
100
AcDbEntity
  8
_U+30EC_U+30A4_U+30E4_U+30FC 1
100
AcDbBlockReference
  2
block 10
 10
0.0
 20
0.0
 30
0.0
  0
ENDSEC
  0
SECTION
  2
OBJECTS
  0
DICTIONARY
  5
C
330
0
100
AcDbDictionary
281
     1
  3
ACAD_GROUP
350
D
  3
ACAD_LAYOUT
350
1A
  3
ACAD_MATERIAL
350
3B
  3
ACAD_MLEADERSTYLE
350
181
  3
ACAD_MLINESTYLE
350
17
  3
ACAD_PLOTSETTINGS
350
19
  3
ACAD_PLOTSTYLENAME
350
E
  3
ACAD_TABLESTYLE
350
180
  3
ACAD_VISUALSTYLE
350
2A
  0
SUN
  5
3F
330
29
100
AcDbSun
 90
        1
290
     0
 63
     7
421
 16777215
 40
1.0
291
     1
 91
  2455826
 92
 54000000
292
     0
 70
     2
 71
   256
280
     1
  0
DICTIONARY
  5
D
102
{ACAD_REACTORS
330
C
102
}
330
C
100
AcDbDictionary
281
     1
  0
DICTIONARY
  5
1A
102
{ACAD_REACTORS
330
C
102
}
330
C
100
AcDbDictionary
281
     1
  3
Layout1
350
1E
  3
Layout2
350
26
  3
Model
350
22
  0
DICTIONARY
  5
3B
102
{ACAD_REACTORS
330
C
102
}
330
C
100
AcDbDictionary
281
     1
  3
ByBlock
350
3D
  3
ByLayer
350
3C
  3
Global
350
3E
  0
DICTIONARY
  5
181
102
{ACAD_REACTORS
330
C
102
}
330
C
100
AcDbDictionary
281
     1
  0
DICTIONARY
  5
17
102
{ACAD_REACTORS
330
C
102
}
330
C
100
AcDbDictionary
281
     1
  3
Standard
350
18
  0
DICTIONARY
  5
19
102
{ACAD_REACTORS
330
C
102
}
330
C
100
AcDbDictionary
281
     1
  0
ACDBDICTIONARYWDFLT
  5
E
102
{ACAD_REACTORS
330
C
102
}
330
C
100
AcDbDictionary
281
     1
  3
Normal
350
F
100
AcDbDictionaryWithDefault
340
F
  0
DICTIONARY
  5
180
102
{ACAD_REACTORS
330
C
102
}
330
C
100
AcDbDictionary
281
     1
  0
DICTIONARY
  5
2A
102
{ACAD_REACTORS
330
C
102
}
330
C
100
AcDbDictionary
281
     1
  3
2dWireframe
350
2F
  3
3D Hidden
350
31
  3
3dWireframe
350
30
  3
Basic
350
32
  3
Brighten
350
36
  3
ColorChange
350
3A
  3
Conceptual
350
34
  3
Dim
350
35
  3
Facepattern
350
39
  3
Flat
350
2B
  3
FlatWithEdges
350
2C
  3
Gouraud
350
2D
  3
GouraudWithEdges
350
2E
  3
Linepattern
350
38
  3
Realistic
350
33
  3
Thicken
350
37
  0
LAYOUT
  5
1E
102
{ACAD_REACTORS
330
1A
102
}
330
1A
100
AcDbPlotSettings
  1

  2
none_device
  4

  6

 40
0.0
 41
0.0
 42
0.0
 43
0.0
 44
0.0
 45
0.0
 46
0.0
 47
0.0
 48
0.0
 49
0.0
140
0.0
141
0.0
142
1.0
143
1.0
 70
   688
 72
     0
 73
     0
 74
     5
  7

 75
    16
 76
     0
 77
     2
 78
   300
147
1.0
148
0.0
149
0.0
100
AcDbLayout
  1
Layout1
 70
     1
 71
     1
 10
0.0
 20
0.0
 11
12.0
 21
9.0
 12
0.0
 22
0.0
 32
0.0
 14
1.000000000000000E+20
 24
1.000000000000000E+20
 34
1.000000000000000E+20
 15
-1.000000000000000E+20
 25
-1.000000000000000E+20
 35
-1.000000000000000E+20
146
0.0
 13
0.0
 23
0.0
 33
0.0
 16
1.0
 26
0.0
 36
0.0
 17
0.0
 27
1.0
 37
0.0
 76
     0
330
1B
  0
LAYOUT
  5
26
102
{ACAD_REACTORS
330
1A
102
}
330
1A
100
AcDbPlotSettings
  1

  2
none_device
  4

  6

 40
0.0
 41
0.0
 42
0.0
 43
0.0
 44
0.0
 45
0.0
 46
0.0
 47
0.0
 48
0.0
 49
0.0
140
0.0
141
0.0
142
1.0
143
1.0
 70
   688
 72
     0
 73
     0
 74
     5
  7

 75
    16
 76
     0
 77
     2
 78
   300
147
1.0
148
0.0
149
0.0
100
AcDbLayout
  1
Layout2
 70
     1
 71
     2
 10
0.0
 20
0.0
 11
0.0
 21
0.0
 12
0.0
 22
0.0
 32
0.0
 14
0.0
 24
0.0
 34
0.0
 15
0.0
 25
0.0
 35
0.0
146
0.0
 13
0.0
 23
0.0
 33
0.0
 16
1.0
 26
0.0
 36
0.0
 17
0.0
 27
1.0
 37
0.0
 76
     0
330
23
  0
LAYOUT
  5
22
102
{ACAD_REACTORS
330
1A
102
}
330
1A
100
AcDbPlotSettings
  1

  2
none_device
  4

  6

 40
0.0
 41
0.0
 42
0.0
 43
0.0
 44
0.0
 45
0.0
 46
0.0
 47
0.0
 48
0.0
 49
0.0
140
0.0
141
0.0
142
1.0
143
1.0
 70
  1712
 72
     0
 73
     0
 74
     0
  7

 75
     0
 76
     0
 77
     2
 78
   300
147
1.0
148
0.0
149
0.0
100
AcDbLayout
  1
Model
 70
     1
 71
     0
 10
0.0
 20
0.0
 11
12.0
 21
9.0
 12
0.0
 22
0.0
 32
0.0
 14
1.000000000000000E+20
 24
1.000000000000000E+20
 34
1.000000000000000E+20
 15
-1.000000000000000E+20
 25
-1.000000000000000E+20
 35
-1.000000000000000E+20
146
0.0
 13
0.0
 23
0.0
 33
0.0
 16
1.0
 26
0.0
 36
0.0
 17
0.0
 27
1.0
 37
0.0
 76
     0
330
1F
331
29
  0
MATERIAL
  5
3D
102
{ACAD_REACTORS
330
3B
102
}
330
3B
100
AcDbMaterial
  1
ByBlock
 72
     1
 94
      127
  0
MATERIAL
  5
3C
102
{ACAD_REACTORS
330
3B
102
}
330
3B
100
AcDbMaterial
  1
ByLayer
 72
     1
 94
      127
  0
MATERIAL
  5
3E
102
{ACAD_REACTORS
330
3B
102
}
330
3B
100
AcDbMaterial
  1
Global
 72
     1
 94
      127
  0
MLINESTYLE
  5
18
102
{ACAD_REACTORS
330
17
102
}
330
17
100
AcDbMlineStyle
  2
Standard
 70
     0
  3

 62
   256
 51
90.0
 52
90.0
 71
     2
 49
0.5
 62
   256
  6
BYLAYER
 49
-0.5
 62
   256
  6
BYLAYER
  0
ACDBPLACEHOLDER
  5
F
102
{ACAD_REACTORS
330
E
102
}
330
E
  0
VISUALSTYLE
  5
2F
102
{ACAD_REACTORS
330
2A
102
}
330
2A
100
AcDbVisualStyle
  2
2dWireframe
 70
     4
177
     2
291
     0
 71
     0
176
     1
 72
     2
176
     1
 73
     0
176
     1
 90
        0
176
     1
 40
-0.6
176
     1
 41
-30.0
176
     1
 62
     5
 63
     7
421
 16777215
176
     1
 74
     1
176
     1
 91
        4
176
     1
 64
     7
176
     1
 65
   257
176
     1
 75
     1
176
     1
175
     1
176
     1
 42
1.0
176
     1
 92
        0
176
     1
 66
   257
176
     1
 43
1.0
176
     1
 76
     1
176
     1
 77
     6
176
     1
 78
     2
176
     1
 67
     7
176
     1
 79
     5
176
     1
170
     0
176
     1
171
     0
176
     1
290
     0
176
     1
 93
        1
176
     1
 44
0.0
176
     1
173
     0
176
     1
  0
VISUALSTYLE
  5
31
102
{ACAD_REACTORS
330
2A
102
}
330
2A
100
AcDbVisualStyle
  2
3D Hidden
 70
     6
177
     2
291
     0
 71
     1
176
     1
 72
     2
176
     1
 73
     2
176
     1
 90
        0
176
     1
 40
-0.6
176
     1
 41
-30.0
176
     1
 62
     5
 63
     7
421
 16777215
176
     1
 74
     2
176
     1
 91
        2
176
     1
 64
     7
176
     1
 65
   257
176
     1
 75
     2
176
     1
175
     1
176
     1
 42
40.0
176
     1
 92
        0
176
     1
 66
   257
176
     1
 43
1.0
176
     1
 76
     1
176
     1
 77
     6
176
     1
 78
     2
176
     1
 67
     7
176
     1
 79
     3
176
     1
170
     0
176
     1
171
     0
176
     1
290
     0
176
     1
 93
        1
176
     1
 44
0.0
176
     1
173
     0
176
     1
  0
VISUALSTYLE
  5
30
102
{ACAD_REACTORS
330
2A
102
}
330
2A
100
AcDbVisualStyle
  2
3dWireframe
 70
     5
177
     2
291
     0
 71
     0
176
     1
 72
     2
176
     1
 73
     0
176
     1
 90
        0
176
     1
 40
-0.6
176
     1
 41
-30.0
176
     1
 62
     5
 63
     7
421
 16777215
176
     1
 74
     1
176
     1
 91
        4
176
     1
 64
     7
176
     1
 65
   257
176
     1
 75
     1
176
     1
175
     1
176
     1
 42
1.0
176
     1
 92
        0
176
     1
 66
   257
176
     1
 43
1.0
176
     1
 76
     1
176
     1
 77
     6
176
     1
 78
     2
176
     1
 67
     7
176
     1
 79
     5
176
     1
170
     0
176
     1
171
     0
176
     1
290
     0
176
     1
 93
        1
176
     1
 44
0.0
176
     1
173
     0
176
     1
  0
VISUALSTYLE
  5
32
102
{ACAD_REACTORS
330
2A
102
}
330
2A
100
AcDbVisualStyle
  2
Basic
 70
     7
177
     2
291
     1
 71
     1
176
     1
 72
     0
176
     1
 73
     1
176
     1
 90
        0
176
     1
 40
-0.6
176
     1
 41
-30.0
176
     1
 62
     5
 63
     7
421
 16777215
176
     1
 74
     0
176
     1
 91
        4
176
     1
 64
     7
176
     1
 65
   257
176
     1
 75
     1
176
     1
175
     1
176
     1
 42
1.0
176
     1
 92
        8
176
     1
 66
     7
176
     1
 43
1.0
176
     1
 76
     1
176
     1
 77
     6
176
     1
 78
     2
176
     1
 67
     7
176
     1
 79
     5
176
     1
170
     0
176
     1
171
     0
176
     1
290
     0
176
     1
 93
        1
176
     1
 44
0.0
176
     1
173
     0
176
     1
  0
VISUALSTYLE
  5
36
102
{ACAD_REACTORS
330
2A
102
}
330
2A
100
AcDbVisualStyle
  2
Brighten
 70
    12
177
     2
291
     1
 71
     2
176
     1
 72
     2
176
     1
 73
     0
176
     1
 90
        0
176
     1
 40
-0.6
176
     1
 41
-30.0
176
     1
 62
     5
 63
     7
421
 16777215
176
     1
 74
     1
176
     1
 91
        4
176
     1
 64
     7
176
     1
 65
   257
176
     1
 75
     1
176
     1
175
     1
176
     1
 42
1.0
176
     1
 92
        8
176
     1
 66
     7
176
     1
 43
1.0
176
     1
 76
     1
176
     1
 77
     6
176
     1
 78
     2
176
     1
 67
     7
176
     1
 79
     5
176
     1
170
     0
176
     1
171
     0
176
     1
290
     0
176
     1
 93
        1
176
     1
 44
50.0
176
     1
173
     0
176
     1
  0
VISUALSTYLE
  5
3A
102
{ACAD_REACTORS
330
2A
102
}
330
2A
100
AcDbVisualStyle
  2
ColorChange
 70
    16
177
     2
291
     1
 71
     2
176
     1
 72
     2
176
     1
 73
     3
176
     1
 90
        0
176
     1
 40
-0.6
176
     1
 41
-30.0
176
     1
 62
     5
 63
     8
421
  8421504
176
     1
 74
     1
176
     1
 91
        4
176
     1
 64
     7
176
     1
 65
   257
176
     1
 75
     1
176
     1
175
     1
176
     1
 42
1.0
176
     1
 92
        8
176
     1
 66
     8
424
  8421504
176
     1
 43
1.0
176
     1
 76
     1
176
     1
 77
     6
176
     1
 78
     2
176
     1
 67
     7
176
     1
 79
     5
176
     1
170
     0
176
     1
171
     0
176
     1
290
     0
176
     1
 93
        1
176
     1
 44
0.0
176
     1
173
     0
176
     1
  0
VISUALSTYLE
  5
34
102
{ACAD_REACTORS
330
2A
102
}
330
2A
100
AcDbVisualStyle
  2
Conceptual
 70
     9
177
     2
291
     0
 71
     3
176
     1
 72
     2
176
     1
 73
     0
176
     1
 90
        0
176
     1
 40
-0.6
176
     1
 41
-30.0
176
     1
 62
     5
 63
     7
421
 16777215
176
     1
 74
     2
176
     1
 91
        2
176
     1
 64
     7
176
     1
 65
   257
176
     1
 75
     1
176
     1
175
     1
176
     1
 42
40.0
176
     1
 92
        8
176
     1
 66
     7
176
     1
 43
1.0
176
     1
 76
     1
176
     1
 77
     6
176
     1
 78
     2
176
     1
 67
     7
176
     1
 79
     3
176
     1
170
     0
176
     1
171
     0
176
     1
290
     0
176
     1
 93
        1
176
     1
 44
0.0
176
     1
173
     0
176
     1
  0
VISUALSTYLE
  5
35
102
{ACAD_REACTORS
330
2A
102
}
330
2A
100
AcDbVisualStyle
  2
Dim
 70
    11
177
     2
291
     1
 71
     2
176
     1
 72
     2
176
     1
 73
     0
176
     1
 90
        0
176
     1
 40
-0.6
176
     1
 41
-30.0
176
     1
 62
     5
 63
     7
421
 16777215
176
     1
 74
     1
176
     1
 91
        4
176
     1
 64
     7
176
     1
 65
   257
176
     1
 75
     1
176
     1
175
     1
176
     1
 42
1.0
176
     1
 92
        8
176
     1
 66
     7
176
     1
 43
1.0
176
     1
 76
     1
176
     1
 77
     6
176
     1
 78
     2
176
     1
 67
     7
176
     1
 79
     5
176
     1
170
     0
176
     1
171
     0
176
     1
290
     0
176
     1
 93
        1
176
     1
 44
-50.0
176
     1
173
     0
176
     1
  0
VISUALSTYLE
  5
39
102
{ACAD_REACTORS
330
2A
102
}
330
2A
100
AcDbVisualStyle
  2
Facepattern
 70
    15
177
     2
291
     1
 71
     2
176
     1
 72
     2
176
     1
 73
     0
176
     1
 90
        0
176
     1
 40
-0.6
176
     1
 41
-30.0
176
     1
 62
     5
 63
     7
421
 16777215
176
     1
 74
     1
176
     1
 91
        4
176
     1
 64
     7
176
     1
 65
   257
176
     1
 75
     1
176
     1
175
     1
176
     1
 42
1.0
176
     1
 92
        8
176
     1
 66
     7
176
     1
 43
1.0
176
     1
 76
     1
176
     1
 77
     6
176
     1
 78
     2
176
     1
 67
     7
176
     1
 79
     5
176
     1
170
     0
176
     1
171
     0
176
     1
290
     0
176
     1
 93
        1
176
     1
 44
0.0
176
     1
173
     0
176
     1
  0
VISUALSTYLE
  5
2B
102
{ACAD_REACTORS
330
2A
102
}
330
2A
100
AcDbVisualStyle
  2
Flat
 70
     0
177
     2
291
     1
 71
     2
176
     1
 72
     1
176
     1
 73
     1
176
     1
 90
        2
176
     1
 40
-0.6
176
     1
 41
30.0
176
     1
 62
     5
 63
     7
421
 16777215
176
     1
 74
     0
176
     1
 91
        4
176
     1
 64
     7
176
     1
 65
   257
176
     1
 75
     1
176
     1
175
     1
176
     1
 42
1.0
176
     1
 92
        8
176
     1
 66
     7
176
     1
 43
1.0
176
     1
 76
     1
176
     1
 77
     6
176
     1
 78
     2
176
     1
 67
     7
176
     1
 79
     5
176
     1
170
     0
176
     1
171
     0
176
     1
290
     0
176
     1
 93
       13
176
     1
 44
0.0
176
     1
173
     0
176
     1
  0
VISUALSTYLE
  5
2C
102
{ACAD_REACTORS
330
2A
102
}
330
2A
100
AcDbVisualStyle
  2
FlatWithEdges
 70
     1
177
     2
291
     1
 71
     2
176
     1
 72
     1
176
     1
 73
     1
176
     1
 90
        2
176
     1
 40
-0.6
176
     1
 41
30.0
176
     1
 62
     5
 63
     7
421
 16777215
176
     1
 74
     1
176
     1
 91
        4
176
     1
 64
     7
176
     1
 65
   257
176
     1
 75
     1
176
     1
175
     1
176
     1
 42
1.0
176
     1
 92
        0
176
     1
 66
   257
176
     1
 43
1.0
176
     1
 76
     1
176
     1
 77
     6
176
     1
 78
     2
176
     1
 67
     7
176
     1
 79
     5
176
     1
170
     0
176
     1
171
     0
176
     1
290
     0
176
     1
 93
       13
176
     1
 44
0.0
176
     1
173
     0
176
     1
  0
VISUALSTYLE
  5
2D
102
{ACAD_REACTORS
330
2A
102
}
330
2A
100
AcDbVisualStyle
  2
Gouraud
 70
     2
177
     2
291
     1
 71
     2
176
     1
 72
     2
176
     1
 73
     1
176
     1
 90
        2
176
     1
 40
-0.6
176
     1
 41
30.0
176
     1
 62
     5
 63
     7
421
 16777215
176
     1
 74
     0
176
     1
 91
        4
176
     1
 64
     7
176
     1
 65
   257
176
     1
 75
     1
176
     1
175
     1
176
     1
 42
1.0
176
     1
 92
        0
176
     1
 66
     7
176
     1
 43
1.0
176
     1
 76
     1
176
     1
 77
     6
176
     1
 78
     2
176
     1
 67
     7
176
     1
 79
     5
176
     1
170
     0
176
     1
171
     0
176
     1
290
     0
176
     1
 93
       13
176
     1
 44
0.0
176
     1
173
     0
176
     1
  0
VISUALSTYLE
  5
2E
102
{ACAD_REACTORS
330
2A
102
}
330
2A
100
AcDbVisualStyle
  2
GouraudWithEdges
 70
     3
177
     2
291
     1
 71
     2
176
     1
 72
     2
176
     1
 73
     1
176
     1
 90
        2
176
     1
 40
-0.6
176
     1
 41
30.0
176
     1
 62
     5
 63
     7
421
 16777215
176
     1
 74
     1
176
     1
 91
        4
176
     1
 64
     7
176
     1
 65
   257
176
     1
 75
     1
176
     1
175
     1
176
     1
 42
1.0
176
     1
 92
        0
176
     1
 66
   257
176
     1
 43
1.0
176
     1
 76
     1
176
     1
 77
     6
176
     1
 78
     2
176
     1
 67
     7
176
     1
 79
     5
176
     1
170
     0
176
     1
171
     0
176
     1
290
     0
176
     1
 93
       13
176
     1
 44
0.0
176
     1
173
     0
176
     1
  0
VISUALSTYLE
  5
38
102
{ACAD_REACTORS
330
2A
102
}
330
2A
100
AcDbVisualStyle
  2
Linepattern
 70
    14
177
     2
291
     1
 71
     2
176
     1
 72
     2
176
     1
 73
     0
176
     1
 90
        0
176
     1
 40
-0.6
176
     1
 41
-30.0
176
     1
 62
     5
 63
     7
421
 16777215
176
     1
 74
     1
176
     1
 91
        4
176
     1
 64
     7
176
     1
 65
   257
176
     1
 75
     7
176
     1
175
     7
176
     1
 42
1.0
176
     1
 92
        8
176
     1
 66
     7
176
     1
 43
1.0
176
     1
 76
     1
176
     1
 77
     6
176
     1
 78
     2
176
     1
 67
     7
176
     1
 79
     5
176
     1
170
     0
176
     1
171
     0
176
     1
290
     0
176
     1
 93
        1
176
     1
 44
0.0
176
     1
173
     0
176
     1
  0
VISUALSTYLE
  5
33
102
{ACAD_REACTORS
330
2A
102
}
330
2A
100
AcDbVisualStyle
  2
Realistic
 70
     8
177
     2
291
     0
 71
     2
176
     1
 72
     2
176
     1
 73
     0
176
     1
 90
        0
176
     1
 40
-0.6
176
     1
 41
-30.0
176
     1
 62
     5
 63
     7
421
 16777215
176
     1
 74
     1
176
     1
 91
        0
176
     1
 64
     7
176
     1
 65
   257
176
     1
 75
     1
176
     1
175
     1
176
     1
 42
1.0
176
     1
 92
        8
176
     1
 66
     8
424
  7895160
176
     1
 43
1.0
176
     1
 76
     1
176
     1
 77
     6
176
     1
 78
     2
176
     1
 67
     7
176
     1
 79
     5
176
     1
170
     0
176
     1
171
     0
176
     1
290
     0
176
     1
 93
       13
176
     1
 44
0.0
176
     1
173
     0
176
     1
  0
VISUALSTYLE
  5
37
102
{ACAD_REACTORS
330
2A
102
}
330
2A
100
AcDbVisualStyle
  2
Thicken
 70
    13
177
     2
291
     1
 71
     2
176
     1
 72
     2
176
     1
 73
     0
176
     1
 90
        0
176
     1
 40
-0.6
176
     1
 41
-30.0
176
     1
 62
     5
 63
     7
421
 16777215
176
     1
 74
     1
176
     1
 91
        4
176
     1
 64
     7
176
     1
 65
   257
176
     1
 75
     1
176
     1
175
     1
176
     1
 42
1.0
176
     1
 92
       12
176
     1
 66
     7
176
     1
 43
1.0
176
     1
 76
     1
176
     1
 77
     6
176
     1
 78
     2
176
     1
 67
     7
176
     1
 79
     5
176
     1
170
     0
176
     1
171
     0
176
     1
290
     0
176
     1
 93
        1
176
     1
 44
0.0
176
     1
173
     0
176
     1
  0
ENDSEC
  0
EOF
