  0
SECTION
  2
HEADER
  9
$ACADVER
  1
AC1024
  9
$ACADMAINTVER
 70
     6
  9
$DWGCODEPAGE
  3
UNDEFINED
  9
$INSBASE
 10
0.0
 20
0.0
 30
0.0
  9
$EXTMIN
 10
1.000000000000000E+20
 20
1.000000000000000E+20
 30
1.000000000000000E+20
  9
$EXTMAX
 10
-1.000000000000000E+20
 20
-1.000000000000000E+20
 30
-1.000000000000000E+20
  9
$LIMMIN
 10
0.0
 20
0.0
  9
$LIMMAX
 10
12.0
 20
9.0
  9
$ORTHOMODE
 70
     0
  9
$REGENMODE
 70
     1
  9
$FILLMODE
 70
     1
  9
$QTEXTMODE
 70
     0
  9
$MIRRTEXT
 70
     1
  9
$LTSCALE
 40
1.0
  9
$ATTMODE
 70
     1
  9
$TEXTSIZE
 40
0.2
  9
$TRACEWID
 40
0.05
  9
$TEXTSTYLE
  7
Standard
  9
$CLAYER
  8
0
  9
$CELTYPE
  6
ByLayer
  9
$CECOLOR
 62
   256
  9
$CELTSCALE
 40
1.0
  9
$DISPSILH
 70
     0
  9
$DIMSCALE
 40
1.0
  9
$DIMASZ
 40
0.18
  9
$DIMEXO
 40
0.0625
  9
$DIMDLI
 40
0.38
  9
$DIMRND
 40
0.0
  9
$DIMDLE
 40
0.0
  9
$DIMEXE
 40
0.18
  9
$DIMTP
 40
0.0
  9
$DIMTM
 40
0.0
  9
$DIMTXT
 40
0.18
  9
$DIMCEN
 40
0.09
  9
$DIMTSZ
 40
0.0
  9
$DIMTOL
 70
     0
  9
$DIMLIM
 70
     0
  9
$DIMTIH
 70
     1
  9
$DIMTOH
 70
     1
  9
$DIMSE1
 70
     0
  9
$DIMSE2
 70
     0
  9
$DIMTAD
 70
     0
  9
$DIMZIN
 70
     0
  9
$DIMBLK
  1

  9
$DIMASO
 70
     1
  9
$DIMSHO
 70
     1
  9
$DIMPOST
  1

  9
$DIMAPOST
  1

  9
$DIMALT
 70
     0
  9
$DIMALTD
 70
     2
  9
$DIMALTF
 40
25.4
  9
$DIMLFAC
 40
1.0
  9
$DIMTOFL
 70
     0
  9
$DIMTVP
 40
0.0
  9
$DIMTIX
 70
     0
  9
$DIMSOXD
 70
     0
  9
$DIMSAH
 70
     0
  9
$DIMBLK1
  1

  9
$DIMBLK2
  1

  9
$DIMSTYLE
  2
Standard
  9
$DIMCLRD
 70
     0
  9
$DIMCLRE
 70
     0
  9
$DIMCLRT
 70
     0
  9
$DIMTFAC
 40
1.0
  9
$DIMGAP
 40
0.09
  9
$DIMJUST
 70
     0
  9
$DIMSD1
 70
     0
  9
$DIMSD2
 70
     0
  9
$DIMTOLJ
 70
     1
  9
$DIMTZIN
 70
     0
  9
$DIMALTZ
 70
     0
  9
$DIMALTTZ
 70
     0
  9
$DIMUPT
 70
     0
  9
$DIMDEC
 70
     4
  9
$DIMTDEC
 70
     4
  9
$DIMALTU
 70
     2
  9
$DIMALTTD
 70
     2
  9
$DIMTXSTY
  7
Standard
  9
$DIMAUNIT
 70
     0
  9
$DIMADEC
 70
     0
  9
$DIMALTRND
 40
0.0
  9
$DIMAZIN
 70
     0
  9
$DIMDSEP
 70
    46
  9
$DIMATFIT
 70
     3
  9
$DIMFRAC
 70
     0
  9
$DIMLDRBLK
  1

  9
$DIMLUNIT
 70
     2
  9
$DIMLWD
 70
    -2
  9
$DIMLWE
 70
    -2
  9
$DIMTMOVE
 70
     0
  9
$DIMFXL
 40
1.0
  9
$DIMFXLON
 70
     0
  9
$DIMJOGANG
 40
0.7853981633974483
  9
$DIMTFILL
 70
     0
  9
$DIMTFILLCLR
 70
     0
  9
$DIMARCSYM
 70
     0
  9
$DIMLTYPE
  6

  9
$DIMLTEX1
  6

  9
$DIMLTEX2
  6

  9
$DIMTXTDIRECTION
 70
     0
  9
$LUNITS
 70
     2
  9
$LUPREC
 70
     4
  9
$SKETCHINC
 40
0.1
  9
$FILLETRAD
 40
0.5
  9
$AUNITS
 70
     0
  9
$AUPREC
 70
     0
  9
$MENU
  1
.
  9
$ELEVATION
 40
0.0
  9
$PELEVATION
 40
0.0
  9
$THICKNESS
 40
0.0
  9
$LIMCHECK
 70
     0
  9
$CHAMFERA
 40
0.5
  9
$CHAMFERB
 40
0.5
  9
$CHAMFERC
 40
1.0
  9
$CHAMFERD
 40
0.0
  9
$SKPOLY
 70
     0
  9
$TDCREATE
 40
2457917.595381933
  9
$TDUCREATE
 40
2457917.220381944
  9
$TDUPDATE
 40
2457917.595381933
  9
$TDUUPDATE
 40
2457917.220381944
  9
$TDINDWG
 40
0.0000000116
  9
$TDUSRTIMER
 40
0.0000000116
  9
$USRTIMER
 70
     1
  9
$ANGBASE
 50
0.0
  9
$ANGDIR
 70
     0
  9
$PDMODE
 70
     0
  9
$PDSIZE
 40
0.0
  9
$PLINEWID
 40
0.0
  9
$SPLFRAME
 70
     0
  9
$SPLINETYPE
 70
     6
  9
$SPLINESEGS
 70
     8
  9
$HANDSEED
  5
181
  9
$SURFTAB1
 70
     6
  9
$SURFTAB2
 70
     6
  9
$SURFTYPE
 70
     6
  9
$SURFU
 70
     6
  9
$SURFV
 70
     6
  9
$UCSBASE
  2

  9
$UCSNAME
  2

  9
$UCSORG
 10
0.0
 20
0.0
 30
0.0
  9
$UCSXDIR
 10
1.0
 20
0.0
 30
0.0
  9
$UCSYDIR
 10
0.0
 20
1.0
 30
0.0
  9
$UCSORTHOREF
  2

  9
$UCSORTHOVIEW
 70
     0
  9
$UCSORGTOP
 10
0.0
 20
0.0
 30
0.0
  9
$UCSORGBOTTOM
 10
0.0
 20
0.0
 30
0.0
  9
$UCSORGLEFT
 10
0.0
 20
0.0
 30
0.0
  9
$UCSORGRIGHT
 10
0.0
 20
0.0
 30
0.0
  9
$UCSORGFRONT
 10
0.0
 20
0.0
 30
0.0
  9
$UCSORGBACK
 10
0.0
 20
0.0
 30
0.0
  9
$PUCSBASE
  2

  9
$PUCSNAME
  2

  9
$PUCSORG
 10
0.0
 20
0.0
 30
0.0
  9
$PUCSXDIR
 10
1.0
 20
0.0
 30
0.0
  9
$PUCSYDIR
 10
0.0
 20
1.0
 30
0.0
  9
$PUCSORTHOREF
  2

  9
$PUCSORTHOVIEW
 70
     0
  9
$PUCSORGTOP
 10
0.0
 20
0.0
 30
0.0
  9
$PUCSORGBOTTOM
 10
0.0
 20
0.0
 30
0.0
  9
$PUCSORGLEFT
 10
0.0
 20
0.0
 30
0.0
  9
$PUCSORGRIGHT
 10
0.0
 20
0.0
 30
0.0
  9
$PUCSORGFRONT
 10
0.0
 20
0.0
 30
0.0
  9
$PUCSORGBACK
 10
0.0
 20
0.0
 30
0.0
  9
$USERI1
 70
     0
  9
$USERI2
 70
     0
  9
$USERI3
 70
     0
  9
$USERI4
 70
     0
  9
$USERI5
 70
     0
  9
$USERR1
 40
0.0
  9
$USERR2
 40
0.0
  9
$USERR3
 40
0.0
  9
$USERR4
 40
0.0
  9
$USERR5
 40
0.0
  9
$WORLDVIEW
 70
     1
  9
$SHADEDGE
 70
     3
  9
$SHADEDIF
 70
    70
  9
$TILEMODE
 70
     1
  9
$MAXACTVP
 70
    64
  9
$PINSBASE
 10
0.0
 20
0.0
 30
0.0
  9
$PLIMCHECK
 70
     0
  9
$PEXTMIN
 10
1.000000000000000E+20
 20
1.000000000000000E+20
 30
1.000000000000000E+20
  9
$PEXTMAX
 10
-1.000000000000000E+20
 20
-1.000000000000000E+20
 30
-1.000000000000000E+20
  9
$PLIMMIN
 10
0.0
 20
0.0
  9
$PLIMMAX
 10
12.0
 20
9.0
  9
$UNITMODE
 70
     0
  9
$VISRETAIN
 70
     1
  9
$PLINEGEN
 70
     0
  9
$PSLTSCALE
 70
     1
  9
$TREEDEPTH
 70
  3020
  9
$CMLSTYLE
  2
Standard
  9
$CMLJUST
 70
     0
  9
$CMLSCALE
 40
1.0
  9
$PROXYGRAPHICS
 70
     1
  9
$MEASUREMENT
 70
     0
  9
$CELWEIGHT
370
    -1
  9
$ENDCAPS
280
     0
  9
$JOINSTYLE
280
     0
  9
$LWDISPLAY
290
     1
  9
$INSUNITS
 70
     1
  9
$HYPERLINKBASE
  1

  9
$STYLESHEET
  1

  9
$XEDIT
290
     1
  9
$CEPSNTYPE
380
     0
  9
$PSTYLEMODE
290
     1
  9
$FINGERPRINTGUID
  2
{18292C89-FA93-9791-923B-E513DDA9B47D}
  9
$VERSIONGUID
  2
{FAEB1C32-E019-11D5-929B-00C0DF256EC4}
  9
$EXTNAMES
290
     1
  9
$PSVPSCALE
 40
0.0
  9
$OLESTARTUP
290
     0
  9
$SORTENTS
280
   127
  9
$INDEXCTL
280
     0
  9
$HIDETEXT
280
     1
  9
$XCLIPFRAME
280
     2
  9
$HALOGAP
280
     0
  9
$OBSCOLOR
 70
   257
  9
$OBSLTYPE
280
     0
  9
$INTERSECTIONDISPLAY
280
     0
  9
$INTERSECTIONCOLOR
 70
   257
  9
$DIMASSOC
280
     2
  9
$PROJECTNAME
  1

  9
$CAMERADISPLAY
290
     0
  9
$LENSLENGTH
 40
50.0
  9
$CAMERAHEIGHT
 40
0.0
  9
$STEPSPERSEC
 40
2.0
  9
$STEPSIZE
 40
6.0
  9
$3DDWFPREC
 40
2.0
  9
$PSOLWIDTH
 40
0.25
  9
$PSOLHEIGHT
 40
4.0
  9
$LOFTANG1
 40
1.570796326794897
  9
$LOFTANG2
 40
1.570796326794897
  9
$LOFTMAG1
 40
0.0
  9
$LOFTMAG2
 40
0.0
  9
$LOFTPARAM
 70
     7
  9
$LOFTNORMALS
280
     1
  9
$LATITUDE
 40
37.795
  9
$LONGITUDE
 40
-122.394
  9
$NORTHDIRECTION
 40
0.0
  9
$TIMEZONE
 70
 -8000
  9
$LIGHTGLYPHDISPLAY
280
     1
  9
$TILEMODELIGHTSYNCH
280
     1
  9
$CMATERIAL
347
3C
  9
$SOLIDHIST
280
     1
  9
$SHOWHIST
280
     1
  9
$DWFFRAME
280
     2
  9
$DGNFRAME
280
     2
  9
$REALWORLDSCALE
290
     1
  9
$INTERFERECOLOR
 62
   256
  9
$CSHADOW
280
     0
  9
$SHADOWPLANELOCATION
 40
0.0
  0
ENDSEC
  0
SECTION
  2
CLASSES
  0
CLASS
  1
ACDBDICTIONARYWDFLT
  2
AcDbDictionaryWithDefault
  3
ObjectDBX Classes
 90
        0
 91
        4
280
     0
281
     0
  0
CLASS
  1
VISUALSTYLE
  2
AcDbVisualStyle
  3
ObjectDBX Classes
 90
     4095
 91
        4
280
     0
281
     0
  0
CLASS
  1
MATERIAL
  2
AcDbMaterial
  3
ObjectDBX Classes
 90
     1153
 91
        4
280
     0
281
     0
  0
CLASS
  1
SUN
  2
AcDbSun
  3
SCENEOE
 90
     1024
 91
        4
280
     0
281
     0
  0
ENDSEC
  0
SECTION
  2
TABLES
  0
TABLE
  2
VPORT
  5
8
330
0
100
AcDbSymbolTable
 70
     1
  0
VPORT
  5
29
330
8
100
AcDbSymbolTableRecord
100
AcDbViewportTableRecord
  2
*Active
 70
     0
 10
0.0
 20
0.0
 11
1.0
 21
1.0
 12
0.0
 22
0.0
 13
0.0
 23
0.0
 14
0.5
 24
0.5
 15
0.5
 25
0.5
 16
0.0
 26
0.0
 36
1.0
 17
91.00082462281999
 27
-128.4993055234307
 37
0.0
 40
256.9986110468615
 41
0.7081814508812795
 42
50.0
 43
0.0
 44
0.0
 50
0.0
 51
0.0
 71
     0
 72
   100
 73
     1
 74
     3
 75
     0
 76
     0
 77
     0
 78
     0
281
     0
 65
     1
110
0.0
120
0.0
130
0.0
111
1.0
121
0.0
131
0.0
112
0.0
122
1.0
132
0.0
 79
     0
146
0.0
 60
     3
 61
     5
292
     1
282
     1
141
0.0
142
0.0
 63
   250
361
3F
  0
ENDTAB
  0
TABLE
  2
LTYPE
  5
5
330
0
100
AcDbSymbolTable
 70
     1
  0
LTYPE
  5
14
330
5
100
AcDbSymbolTableRecord
100
AcDbLinetypeTableRecord
  2
ByBlock
 70
     0
  3

 72
    65
 73
     0
 40
0.0
  0
LTYPE
  5
15
330
5
100
AcDbSymbolTableRecord
100
AcDbLinetypeTableRecord
  2
ByLayer
 70
     0
  3

 72
    65
 73
     0
 40
0.0
  0
LTYPE
  5
16
330
5
100
AcDbSymbolTableRecord
100
AcDbLinetypeTableRecord
  2
Continuous
 70
     0
  3
Solid line
 72
    65
 73
     0
 40
0.0
  0
ENDTAB
  0
TABLE
  2
LAYER
  5
2
330
0
100
AcDbSymbolTable
 70
     2
  0
LAYER
  5
10
330
2
100
AcDbSymbolTableRecord
100
AcDbLayerTableRecord
  2
0
 70
     0
 62
     7
  6
Continuous
370
    -3
390
F
347
3E
  0
LAYER
  5
40
330
2
100
AcDbSymbolTableRecord
100
AcDbLayerTableRecord
  2
_U+30EC_U+30A4_U+30E4_U+30FC 1
 70
     0
 62
     7
  6
Continuous
370
    -3
390
F
347
3E
  0
ENDTAB
  0
TABLE
  2
STYLE
  5
3
330
0
100
AcDbSymbolTable
 70
     1
  0
STYLE
  5
11
330
3
100
AcDbSymbolTableRecord
100
AcDbTextStyleTableRecord
  2
Standard
 70
     0
 40
0.0
 41
1.0
 50
0.0
 71
     0
 42
0.2
  3
txt
  4

  0
ENDTAB
  0
TABLE
  2
VIEW
  5
6
330
0
100
AcDbSymbolTable
 70
     0
  0
ENDTAB
  0
TABLE
  2
UCS
  5
7
330
0
100
AcDbSymbolTable
 70
     0
  0
ENDTAB
  0
TABLE
  2
APPID
  5
9
330
0
100
AcDbSymbolTable
 70
     1
  0
APPID
  5
12
330
9
100
AcDbSymbolTableRecord
100
AcDbRegAppTableRecord
  2
ACAD
 70
     0
  0
ENDTAB
  0
TABLE
  2
DIMSTYLE
  5
A
330
0
100
AcDbSymbolTable
 70
     1
100
AcDbDimStyleTable
  0
DIMSTYLE
105
27
330
A
100
AcDbSymbolTableRecord
100
AcDbDimStyleTableRecord
  2
Standard
 70
     0
178
     0
340
11
  0
ENDTAB
  0
TABLE
  2
BLOCK_RECORD
  5
1
330
0
100
AcDbSymbolTable
 70
    10
  0
BLOCK_RECORD
  5
1F
330
1
100
AcDbSymbolTableRecord
100
AcDbBlockTableRecord
  2
*Model_Space
340
22
 70
     0
280
     1
281
     0
  0
BLOCK_RECORD
  5
1B
330
1
100
AcDbSymbolTableRecord
100
AcDbBlockTableRecord
  2
*Paper_Space
340
1E
 70
     0
280
     1
281
     0
  0
BLOCK_RECORD
  5
23
330
1
100
AcDbSymbolTableRecord
100
AcDbBlockTableRecord
  2
*Paper_Space0
340
26
 70
     0
280
     1
281
     0
  0
BLOCK_RECORD
  5
A4
330
1
100
AcDbSymbolTableRecord
100
AcDbBlockTableRecord
  2
block 2
340
0
102
{BLKREFS
331
A5
102
}
 70
     0
280
     1
281
     0
  0
BLOCK_RECORD
  5
B6
330
1
100
AcDbSymbolTableRecord
100
AcDbBlockTableRecord
  2
block 3
340
0
102
{BLKREFS
331
B7
102
}
 70
     0
280
     1
281
     0
  0
BLOCK_RECORD
  5
CC
330
1
100
AcDbSymbolTableRecord
100
AcDbBlockTableRecord
  2
block 4
340
0
102
{BLKREFS
331
CD
102
}
 70
     0
280
     1
281
     0
  0
BLOCK_RECORD
  5
DE
330
1
100
AcDbSymbolTableRecord
100
AcDbBlockTableRecord
  2
block 5
340
0
102
{BLKREFS
331
DF
102
}
 70
     0
280
     1
281
     0
  0
BLOCK_RECORD
  5
F4
330
1
100
AcDbSymbolTableRecord
100
AcDbBlockTableRecord
  2
block 6
340
0
102
{BLKREFS
331
F5
102
}
 70
     0
280
     1
281
     0
  0
BLOCK_RECORD
  5
113
330
1
100
AcDbSymbolTableRecord
100
AcDbBlockTableRecord
  2
block 7
340
0
102
{BLKREFS
331
114
102
}
 70
     0
280
     1
281
     0
  0
BLOCK_RECORD
  5
132
330
1
100
AcDbSymbolTableRecord
100
AcDbBlockTableRecord
  2
block 8
340
0
102
{BLKREFS
331
133
102
}
 70
     0
280
     1
281
     0
  0
BLOCK_RECORD
  5
159
330
1
100
AcDbSymbolTableRecord
100
AcDbBlockTableRecord
  2
block 9
340
0
102
{BLKREFS
331
15A
102
}
 70
     0
280
     1
281
     0
  0
BLOCK_RECORD
  5
176
330
1
100
AcDbSymbolTableRecord
100
AcDbBlockTableRecord
  2
block 10
340
0
102
{BLKREFS
331
177
102
}
 70
     0
280
     1
281
     0
  0
ENDTAB
  0
ENDSEC
  0
SECTION
  2
BLOCKS
  0
BLOCK
  5
20
330
1F
100
AcDbEntity
  8
0
100
AcDbBlockBegin
  2
*Model_Space
 70
     0
 10
0.0
 20
0.0
 30
0.0
  3
*Model_Space
  1

  0
ENDBLK
  5
21
330
1F
100
AcDbEntity
  8
0
100
AcDbBlockEnd
  0
BLOCK
  5
1C
330
1B
100
AcDbEntity
 67
     1
  8
0
100
AcDbBlockBegin
  2
*Paper_Space
 70
     0
 10
0.0
 20
0.0
 30
0.0
  3
*Paper_Space
  1

  0
ENDBLK
  5
1D
330
1B
100
AcDbEntity
 67
     1
  8
0
100
AcDbBlockEnd
  0
BLOCK
  5
24
330
23
100
AcDbEntity
  8
0
100
AcDbBlockBegin
  2
*Paper_Space0
 70
     0
 10
0.0
 20
0.0
 30
0.0
  3
*Paper_Space0
  1

  0
ENDBLK
  5
25
330
23
100
AcDbEntity
  8
0
100
AcDbBlockEnd
  0
BLOCK
  5
A6
330
A4
100
AcDbEntity
  8
0
100
AcDbBlockBegin
  2
block 2
 70
     0
 10
0.0
 20
0.0
 30
0.0
  3
block 2
  1

  0
SPLINE
  5
A8
330
A4
100
AcDbEntity
  8
_U+30EC_U+30A4_U+30E4_U+30FC 1
370
     0
100
AcDbSpline
210
0.0
220
0.0
230
1.0
 70
    11
 71
     3
 72
    26
 73
    22
 74
     0
 42
0.0000000001
 43
0.0000000001
 12
1.0
 22
0.0
 32
0.0
 13
1.0
 23
0.0
 33
0.0
 40
0.0
 40
0.0
 40
0.0
 40
0.0
 40
1.0
 40
1.0
 40
1.0
 40
2.0
 40
2.0
 40
2.0
 40
3.0
 40
3.0
 40
3.0
 40
4.0
 40
4.0
 40
4.0
 40
5.0
 40
5.0
 40
5.0
 40
6.0
 40
6.0
 40
6.0
 40
7.0
 40
7.0
 40
7.0
 40
7.0
 10
90.62065291788304
 20
-118.8547607124738
 30
0.0
 10
90.62065291788304
 20
-118.8547607124738
 30
0.0
 10
90.38380260327212
 20
-118.8547607124738
 30
0.0
 10
90.38380260327212
 20
-118.8547607124738
 30
0.0
 10
90.4091240550887
 20
-118.5459079022212
 30
0.0
 10
90.60170489271417
 20
-118.0275932864653
 30
0.0
 10
91.00788165042512
 20
-117.5220255240049
 30
0.0
 10
91.00788165042512
 20
-117.5220255240049
 30
0.0
 10
90.17003442841235
 20
-117.5220255240049
 30
0.0
 10
90.17003442841235
 20
-117.5220255240049
 30
0.0
 10
90.17003442841235
 20
-117.5220255240049
 30
0.0
 10
90.17003442841235
 20
-117.3104966612106
 30
0.0
 10
90.17003442841235
 20
-117.3104966612106
 30
0.0
 10
90.17003442841235
 20
-117.3104966612106
 30
0.0
 10
91.24473196503604
 20
-117.3104966612106
 30
0.0
 10
91.24473196503604
 20
-117.3104966612106
 30
0.0
 10
91.24473196503604
 20
-117.3104966612106
 30
0.0
 10
91.24473196503604
 20
-117.5220255240049
 30
0.0
 10
91.24473196503604
 20
-117.5220255240049
 30
0.0
 10
90.92106524419683
 20
-117.8117580543144
 30
0.0
 10
90.65458710841274
 20
-118.4041422230031
 30
0.0
 10
90.62065291788304
 20
-118.8547607124738
 30
0.0
  0
HATCH
  5
A9
330
A4
100
AcDbEntity
  8
_U+30EC_U+30A4_U+30E4_U+30FC 1
 62
     7
420
 16777215
100
AcDbHatch
 10
0.0
 20
0.0
 30
0.0
210
0.0
220
0.0
230
1.0
  2
SOLID
 70
     1
 71
     0
 91
        1
 92
        1
 93
        1
 72
     4
 94
        3
 73
     0
 74
     1
 95
       26
 96
       22
 40
0.0
 40
0.0
 40
0.0
 40
0.0
 40
1.0
 40
1.0
 40
1.0
 40
2.0
 40
2.0
 40
2.0
 40
3.0
 40
3.0
 40
3.0
 40
4.0
 40
4.0
 40
4.0
 40
5.0
 40
5.0
 40
5.0
 40
6.0
 40
6.0
 40
6.0
 40
7.0
 40
7.0
 40
7.0
 40
7.0
 10
90.62065291788304
 20
-118.8547607124738
 10
90.62065291788304
 20
-118.8547607124738
 10
90.38380260327212
 20
-118.8547607124738
 10
90.38380260327212
 20
-118.8547607124738
 10
90.4091240550887
 20
-118.5459079022212
 10
90.60170489271417
 20
-118.0275932864653
 10
91.00788165042512
 20
-117.5220255240049
 10
91.00788165042512
 20
-117.5220255240049
 10
90.17003442841235
 20
-117.5220255240049
 10
90.17003442841235
 20
-117.5220255240049
 10
90.17003442841235
 20
-117.5220255240049
 10
90.17003442841235
 20
-117.3104966612106
 10
90.17003442841235
 20
-117.3104966612106
 10
90.17003442841235
 20
-117.3104966612106
 10
91.24473196503604
 20
-117.3104966612106
 10
91.24473196503604
 20
-117.3104966612106
 10
91.24473196503604
 20
-117.3104966612106
 10
91.24473196503604
 20
-117.5220255240049
 10
91.24473196503604
 20
-117.5220255240049
 10
90.92106524419683
 20
-117.8117580543144
 10
90.65458710841274
 20
-118.4041422230031
 10
90.62065291788304
 20
-118.8547607124738
 97
        0
 97
        0
 75
     2
 76
     1
 98
        0
  0
ENDBLK
  5
A7
330
A4
100
AcDbEntity
  8
0
100
AcDbBlockEnd
  0
BLOCK
  5
B8
330
B6
100
AcDbEntity
  8
0
100
AcDbBlockBegin
  2
block 3
 70
     0
 10
0.0
 20
0.0
 30
0.0
  3
block 3
  1

  0
SPLINE
  5
BA
330
B6
100
AcDbEntity
  8
_U+30EC_U+30A4_U+30E4_U+30FC 1
370
     0
100
AcDbSpline
210
0.0
220
0.0
230
1.0
 70
    11
 71
     3
 72
    26
 73
    22
 74
     0
 42
0.0000000001
 43
0.0000000001
 12
1.0
 22
0.0
 32
0.0
 13
1.0
 23
0.0
 33
0.0
 40
0.0
 40
0.0
 40
0.0
 40
0.0
 40
1.0
 40
1.0
 40
1.0
 40
2.0
 40
2.0
 40
2.0
 40
3.0
 40
3.0
 40
3.0
 40
4.0
 40
4.0
 40
4.0
 40
5.0
 40
5.0
 40
5.0
 40
6.0
 40
6.0
 40
6.0
 40
7.0
 40
7.0
 40
7.0
 40
7.0
 10
97.61264645997184
 20
-127.0403075854274
 30
0.0
 10
97.61264645997184
 20
-127.0403075854274
 30
0.0
 10
97.61264645997184
 20
-127.2771579000384
 30
0.0
 10
97.61264645997184
 20
-127.2771579000384
 30
0.0
 10
97.30362139494493
 20
-127.2518364482218
 30
0.0
 10
96.78547903396336
 20
-127.0592556105963
 30
0.0
 10
96.27973901672868
 20
-126.6530788528853
 30
0.0
 10
96.27973901672868
 20
-126.6530788528853
 30
0.0
 10
96.27973901672868
 20
-127.4909260748981
 30
0.0
 10
96.27973901672868
 20
-127.4909260748981
 30
0.0
 10
96.27973901672868
 20
-127.4909260748981
 30
0.0
 10
96.06821015393434
 20
-127.4909260748981
 30
0.0
 10
96.06821015393434
 20
-127.4909260748981
 30
0.0
 10
96.06821015393434
 20
-127.4909260748981
 30
0.0
 10
96.06821015393434
 20
-126.4162285382744
 30
0.0
 10
96.06821015393434
 20
-126.4162285382744
 30
0.0
 10
96.06821015393434
 20
-126.4162285382744
 30
0.0
 10
96.27973901672868
 20
-126.4162285382744
 30
0.0
 10
96.27973901672868
 20
-126.4162285382744
 30
0.0
 10
96.56981605658672
 20
-126.7398952591136
 30
0.0
 10
97.16202797050117
 20
-127.0063733948977
 30
0.0
 10
97.61264645997184
 20
-127.0403075854274
 30
0.0
  0
HATCH
  5
BB
330
B6
100
AcDbEntity
  8
_U+30EC_U+30A4_U+30E4_U+30FC 1
 62
     7
420
 16777215
100
AcDbHatch
 10
0.0
 20
0.0
 30
0.0
210
0.0
220
0.0
230
1.0
  2
SOLID
 70
     1
 71
     0
 91
        1
 92
        1
 93
        1
 72
     4
 94
        3
 73
     0
 74
     1
 95
       26
 96
       22
 40
0.0
 40
0.0
 40
0.0
 40
0.0
 40
1.0
 40
1.0
 40
1.0
 40
2.0
 40
2.0
 40
2.0
 40
3.0
 40
3.0
 40
3.0
 40
4.0
 40
4.0
 40
4.0
 40
5.0
 40
5.0
 40
5.0
 40
6.0
 40
6.0
 40
6.0
 40
7.0
 40
7.0
 40
7.0
 40
7.0
 10
97.61264645997184
 20
-127.0403075854274
 10
97.61264645997184
 20
-127.0403075854274
 10
97.61264645997184
 20
-127.2771579000384
 10
97.61264645997184
 20
-127.2771579000384
 10
97.30362139494493
 20
-127.2518364482218
 10
96.78547903396336
 20
-127.0592556105963
 10
96.27973901672868
 20
-126.6530788528853
 10
96.27973901672868
 20
-126.6530788528853
 10
96.27973901672868
 20
-127.4909260748981
 10
96.27973901672868
 20
-127.4909260748981
 10
96.27973901672868
 20
-127.4909260748981
 10
96.06821015393434
 20
-127.4909260748981
 10
96.06821015393434
 20
-127.4909260748981
 10
96.06821015393434
 20
-127.4909260748981
 10
96.06821015393434
 20
-126.4162285382744
 10
96.06821015393434
 20
-126.4162285382744
 10
96.06821015393434
 20
-126.4162285382744
 10
96.27973901672868
 20
-126.4162285382744
 10
96.27973901672868
 20
-126.4162285382744
 10
96.56981605658672
 20
-126.7398952591136
 10
97.16202797050117
 20
-127.0063733948977
 10
97.61264645997184
 20
-127.0403075854274
 97
        0
 97
        0
 75
     2
 76
     1
 98
        0
  0
ENDBLK
  5
B9
330
B6
100
AcDbEntity
  8
0
100
AcDbBlockEnd
  0
BLOCK
  5
CE
330
CC
100
AcDbEntity
  8
0
100
AcDbBlockBegin
  2
block 4
 70
     0
 10
0.0
 20
0.0
 30
0.0
  3
block 4
  1

  0
SPLINE
  5
D0
330
CC
100
AcDbEntity
  8
_U+30EC_U+30A4_U+30E4_U+30FC 1
370
     0
100
AcDbSpline
210
0.0
220
0.0
230
1.0
 70
    11
 71
     3
 72
    26
 73
    22
 74
     0
 42
0.0000000001
 43
0.0000000001
 12
1.0
 22
0.0
 32
0.0
 13
1.0
 23
0.0
 33
0.0
 40
0.0
 40
0.0
 40
0.0
 40
0.0
 40
1.0
 40
1.0
 40
1.0
 40
2.0
 40
2.0
 40
2.0
 40
3.0
 40
3.0
 40
3.0
 40
4.0
 40
4.0
 40
4.0
 40
5.0
 40
5.0
 40
5.0
 40
6.0
 40
6.0
 40
6.0
 40
7.0
 40
7.0
 40
7.0
 40
7.0
 10
90.16279972789333
 20
-126.8542724292239
 30
0.0
 10
90.16279972789333
 20
-126.8542724292239
 30
0.0
 10
90.16279972789333
 20
-125.7499470714271
 30
0.0
 10
90.16279972789333
 20
-125.7499470714271
 30
0.0
 10
90.16279972789333
 20
-125.7499470714271
 30
0.0
 10
89.8327595804064
 20
-125.7499470714271
 30
0.0
 10
89.8327595804064
 20
-125.7499470714271
 30
0.0
 10
89.8327595804064
 20
-125.7499470714271
 30
0.0
 10
89.8327595804064
 20
-125.6019802203356
 30
0.0
 10
89.8327595804064
 20
-125.6019802203356
 30
0.0
 10
90.16486678518449
 20
-125.5871663097491
 30
0.0
 10
90.21137557423535
 20
-125.4242132932967
 30
0.0
 10
90.2410033954085
 20
-125.3100083779607
 30
0.0
 10
90.2410033954085
 20
-125.3100083779607
 30
0.0
 10
90.3870754439831
 20
-125.3100083779607
 30
0.0
 10
90.3870754439831
 20
-125.3100083779607
 30
0.0
 10
90.3870754439831
 20
-125.3100083779607
 30
0.0
 10
90.3870754439831
 20
-126.8542724292239
 30
0.0
 10
90.3870754439831
 20
-126.8542724292239
 30
0.0
 10
90.3870754439831
 20
-126.8542724292239
 30
0.0
 10
90.16279972789333
 20
-126.8542724292239
 30
0.0
 10
90.16279972789333
 20
-126.8542724292239
 30
0.0
  0
HATCH
  5
D1
330
CC
100
AcDbEntity
  8
_U+30EC_U+30A4_U+30E4_U+30FC 1
 62
     7
420
 16777215
100
AcDbHatch
 10
0.0
 20
0.0
 30
0.0
210
0.0
220
0.0
230
1.0
  2
SOLID
 70
     1
 71
     0
 91
        1
 92
        1
 93
        1
 72
     4
 94
        3
 73
     0
 74
     1
 95
       26
 96
       22
 40
0.0
 40
0.0
 40
0.0
 40
0.0
 40
1.0
 40
1.0
 40
1.0
 40
2.0
 40
2.0
 40
2.0
 40
3.0
 40
3.0
 40
3.0
 40
4.0
 40
4.0
 40
4.0
 40
5.0
 40
5.0
 40
5.0
 40
6.0
 40
6.0
 40
6.0
 40
7.0
 40
7.0
 40
7.0
 40
7.0
 10
90.16279972789333
 20
-126.8542724292239
 10
90.16279972789333
 20
-126.8542724292239
 10
90.16279972789333
 20
-125.7499470714271
 10
90.16279972789333
 20
-125.7499470714271
 10
90.16279972789333
 20
-125.7499470714271
 10
89.8327595804064
 20
-125.7499470714271
 10
89.8327595804064
 20
-125.7499470714271
 10
89.8327595804064
 20
-125.7499470714271
 10
89.8327595804064
 20
-125.6019802203356
 10
89.8327595804064
 20
-125.6019802203356
 10
90.16486678518449
 20
-125.5871663097491
 10
90.21137557423535
 20
-125.4242132932967
 10
90.2410033954085
 20
-125.3100083779607
 10
90.2410033954085
 20
-125.3100083779607
 10
90.3870754439831
 20
-125.3100083779607
 10
90.3870754439831
 20
-125.3100083779607
 10
90.3870754439831
 20
-125.3100083779607
 10
90.3870754439831
 20
-126.8542724292239
 10
90.3870754439831
 20
-126.8542724292239
 10
90.3870754439831
 20
-126.8542724292239
 10
90.16279972789333
 20
-126.8542724292239
 10
90.16279972789333
 20
-126.8542724292239
 97
        0
 97
        0
 75
     2
 76
     1
 98
        0
  0
ENDBLK
  5
CF
330
CC
100
AcDbEntity
  8
0
100
AcDbBlockEnd
  0
BLOCK
  5
E0
330
DE
100
AcDbEntity
  8
0
100
AcDbBlockBegin
  2
block 5
 70
     0
 10
0.0
 20
0.0
 30
0.0
  3
block 5
  1

  0
SPLINE
  5
E2
330
DE
100
AcDbEntity
  8
_U+30EC_U+30A4_U+30E4_U+30FC 1
370
     0
100
AcDbSpline
210
0.0
220
0.0
230
1.0
 70
    11
 71
     3
 72
    53
 73
    49
 74
     0
 42
0.0000000001
 43
0.0000000001
 12
1.0
 22
0.0
 32
0.0
 13
1.0
 23
0.0
 33
0.0
 40
0.0
 40
0.0
 40
0.0
 40
0.0
 40
1.0
 40
1.0
 40
1.0
 40
2.0
 40
2.0
 40
2.0
 40
3.0
 40
3.0
 40
3.0
 40
4.0
 40
4.0
 40
4.0
 40
5.0
 40
5.0
 40
5.0
 40
6.0
 40
6.0
 40
6.0
 40
7.0
 40
7.0
 40
7.0
 40
8.0
 40
8.0
 40
8.0
 40
9.0
 40
9.0
 40
9.0
 40
10.0
 40
10.0
 40
10.0
 40
11.0
 40
11.0
 40
11.0
 40
12.0
 40
12.0
 40
12.0
 40
13.0
 40
13.0
 40
13.0
 40
14.0
 40
14.0
 40
14.0
 40
15.0
 40
15.0
 40
15.0
 40
16.0
 40
16.0
 40
16.0
 40
16.0
 10
75.3940198921758
 20
-142.2431694522864
 30
0.0
 10
75.33872610963755
 20
-142.1877034149739
 30
0.0
 10
75.2787814481942
 20
-142.1039875946823
 30
0.0
 10
75.25190970340925
 20
-141.9871988577324
 30
0.0
 10
75.20695120732674
 20
-141.7866943004908
 30
0.0
 10
75.28481036529338
 20
-141.679207321351
 30
0.0
 10
75.3476833578992
 20
-141.589290329186
 30
0.0
 10
75.3476833578992
 20
-141.589290329186
 30
0.0
 10
75.50477971202659
 20
-141.7463866833134
 30
0.0
 10
75.50477971202659
 20
-141.7463866833134
 30
0.0
 10
75.40297714043746
 20
-141.9258761580949
 30
0.0
 10
75.47170679536819
 20
-142.0364637231714
 30
0.0
 10
75.53768037391072
 20
-142.1022650469397
 30
0.0
 10
75.63638235956313
 20
-142.2011392873664
 30
0.0
 10
75.81432154137629
 20
-142.2386908281556
 30
0.0
 10
75.97882485079697
 20
-142.0740152639607
 30
0.0
 10
76.15986461854685
 20
-141.8931477509851
 30
0.0
 10
76.08217771535446
 20
-141.7164143525917
 30
0.0
 10
75.99691160209453
 20
-141.6313204941061
 30
0.0
 10
75.97434622666614
 20
-141.6089273734519
 30
0.0
 10
75.87409394804537
 20
-141.5086750948312
 30
0.0
 10
75.7200981798547
 20
-141.5369248778102
 30
0.0
 10
75.7200981798547
 20
-141.5369248778102
 30
0.0
 10
75.60933836000392
 20
-141.3994655679487
 30
0.0
 10
75.60933836000392
 20
-141.3994655679487
 30
0.0
 10
75.60933836000392
 20
-141.3994655679487
 30
0.0
 10
76.29301755905175
 20
-140.8861463406465
 30
0.0
 10
76.29301755905175
 20
-140.8861463406465
 30
0.0
 10
76.29301755905175
 20
-140.8861463406465
 30
0.0
 10
76.84354381759468
 20
-141.4366725991894
 30
0.0
 10
76.84354381759468
 20
-141.4366725991894
 30
0.0
 10
76.84354381759468
 20
-141.4366725991894
 30
0.0
 10
76.70591225295894
 20
-141.5744764185994
 30
0.0
 10
76.70591225295894
 20
-141.5744764185994
 30
0.0
 10
76.70591225295894
 20
-141.5744764185994
 30
0.0
 10
76.27062443839762
 20
-141.1390163492639
 30
0.0
 10
76.27062443839762
 20
-141.1390163492639
 30
0.0
 10
76.27062443839762
 20
-141.1390163492639
 30
0.0
 10
75.92508136122707
 20
-141.3918863578812
 30
0.0
 10
75.92508136122707
 20
-141.3918863578812
 30
0.0
 10
75.9924329779637
 20
-141.4111788925986
 30
0.0
 10
76.07907712941774
 20
-141.4411512233203
 30
0.0
 10
76.16296520448357
 20
-141.5248670436118
 30
0.0
 10
76.34245467926509
 20
-141.7043565183934
 30
0.0
 10
76.37828367231168
 20
-142.0037353160616
 30
0.0
 10
76.15693628738438
 20
-142.2249104462146
 30
0.0
 10
75.93248831652035
 20
-142.4495306718529
 30
0.0
 10
75.60796032180981
 20
-142.4567653723719
 30
0.0
 10
75.3940198921758
 20
-142.2431694522864
 30
0.0
  0
HATCH
  5
E3
330
DE
100
AcDbEntity
  8
_U+30EC_U+30A4_U+30E4_U+30FC 1
 62
     7
420
 16777215
100
AcDbHatch
 10
0.0
 20
0.0
 30
0.0
210
0.0
220
0.0
230
1.0
  2
SOLID
 70
     1
 71
     0
 91
        1
 92
        1
 93
        1
 72
     4
 94
        3
 73
     0
 74
     1
 95
       53
 96
       49
 40
0.0
 40
0.0
 40
0.0
 40
0.0
 40
1.0
 40
1.0
 40
1.0
 40
2.0
 40
2.0
 40
2.0
 40
3.0
 40
3.0
 40
3.0
 40
4.0
 40
4.0
 40
4.0
 40
5.0
 40
5.0
 40
5.0
 40
6.0
 40
6.0
 40
6.0
 40
7.0
 40
7.0
 40
7.0
 40
8.0
 40
8.0
 40
8.0
 40
9.0
 40
9.0
 40
9.0
 40
10.0
 40
10.0
 40
10.0
 40
11.0
 40
11.0
 40
11.0
 40
12.0
 40
12.0
 40
12.0
 40
13.0
 40
13.0
 40
13.0
 40
14.0
 40
14.0
 40
14.0
 40
15.0
 40
15.0
 40
15.0
 40
16.0
 40
16.0
 40
16.0
 40
16.0
 10
75.3940198921758
 20
-142.2431694522864
 10
75.33872610963755
 20
-142.1877034149739
 10
75.2787814481942
 20
-142.1039875946823
 10
75.25190970340925
 20
-141.9871988577324
 10
75.20695120732674
 20
-141.7866943004908
 10
75.28481036529338
 20
-141.679207321351
 10
75.3476833578992
 20
-141.589290329186
 10
75.3476833578992
 20
-141.589290329186
 10
75.50477971202659
 20
-141.7463866833134
 10
75.50477971202659
 20
-141.7463866833134
 10
75.40297714043746
 20
-141.9258761580949
 10
75.47170679536819
 20
-142.0364637231714
 10
75.53768037391072
 20
-142.1022650469397
 10
75.63638235956313
 20
-142.2011392873664
 10
75.81432154137629
 20
-142.2386908281556
 10
75.97882485079697
 20
-142.0740152639607
 10
76.15986461854685
 20
-141.8931477509851
 10
76.08217771535446
 20
-141.7164143525917
 10
75.99691160209453
 20
-141.6313204941061
 10
75.97434622666614
 20
-141.6089273734519
 10
75.87409394804537
 20
-141.5086750948312
 10
75.7200981798547
 20
-141.5369248778102
 10
75.7200981798547
 20
-141.5369248778102
 10
75.60933836000392
 20
-141.3994655679487
 10
75.60933836000392
 20
-141.3994655679487
 10
75.60933836000392
 20
-141.3994655679487
 10
76.29301755905175
 20
-140.8861463406465
 10
76.29301755905175
 20
-140.8861463406465
 10
76.29301755905175
 20
-140.8861463406465
 10
76.84354381759468
 20
-141.4366725991894
 10
76.84354381759468
 20
-141.4366725991894
 10
76.84354381759468
 20
-141.4366725991894
 10
76.70591225295894
 20
-141.5744764185994
 10
76.70591225295894
 20
-141.5744764185994
 10
76.70591225295894
 20
-141.5744764185994
 10
76.27062443839762
 20
-141.1390163492639
 10
76.27062443839762
 20
-141.1390163492639
 10
76.27062443839762
 20
-141.1390163492639
 10
75.92508136122707
 20
-141.3918863578812
 10
75.92508136122707
 20
-141.3918863578812
 10
75.9924329779637
 20
-141.4111788925986
 10
76.07907712941774
 20
-141.4411512233203
 10
76.16296520448357
 20
-141.5248670436118
 10
76.34245467926509
 20
-141.7043565183934
 10
76.37828367231168
 20
-142.0037353160616
 10
76.15693628738438
 20
-142.2249104462146
 10
75.93248831652035
 20
-142.4495306718529
 10
75.60796032180981
 20
-142.4567653723719
 10
75.3940198921758
 20
-142.2431694522864
 97
        0
 97
        0
 75
     2
 76
     1
 98
        0
  0
ENDBLK
  5
E1
330
DE
100
AcDbEntity
  8
0
100
AcDbBlockEnd
  0
BLOCK
  5
F6
330
F4
100
AcDbEntity
  8
0
100
AcDbBlockBegin
  2
block 6
 70
     0
 10
0.0
 20
0.0
 30
0.0
  3
block 6
  1

  0
SPLINE
  5
F8
330
F4
100
AcDbEntity
  8
_U+30EC_U+30A4_U+30E4_U+30FC 1
370
     0
100
AcDbSpline
210
0.0
220
0.0
230
1.0
 70
    11
 71
     3
 72
    29
 73
    25
 74
     0
 42
0.0000000001
 43
0.0000000001
 12
1.0
 22
0.0
 32
0.0
 13
1.0
 23
0.0
 33
0.0
 40
0.0
 40
0.0
 40
0.0
 40
0.0
 40
1.0
 40
1.0
 40
1.0
 40
2.0
 40
2.0
 40
2.0
 40
3.0
 40
3.0
 40
3.0
 40
4.0
 40
4.0
 40
4.0
 40
5.0
 40
5.0
 40
5.0
 40
6.0
 40
6.0
 40
6.0
 40
7.0
 40
7.0
 40
7.0
 40
8.0
 40
8.0
 40
8.0
 40
8.0
 10
82.29265134661433
 20
-113.4762776409018
 30
0.0
 10
82.18447534837749
 20
-113.685739446405
 30
0.0
 10
82.01118704546943
 20
-113.7048597263481
 30
0.0
 10
81.89474281806798
 20
-113.7048597263481
 30
0.0
 10
81.73385685890682
 20
-113.7048597263481
 30
0.0
 10
81.59226343446305
 20
-113.6583509372972
 30
0.0
 10
81.49717879907016
 20
-113.4762776409018
 30
0.0
 10
81.39348142496414
 20
-113.2816297459852
 30
0.0
 10
81.37418889024673
 20
-113.0447794313742
 30
0.0
 10
81.37418889024673
 20
-112.8818264149219
 30
0.0
 10
81.37418889024673
 20
-112.7379936784127
 30
0.0
 10
81.39141436767298
 20
-112.4863294532152
 30
0.0
 10
81.49717879907016
 20
-112.2873751889421
 30
0.0
 10
81.60501028775847
 20
-112.0842868100866
 30
0.0
 10
81.76589624691964
 20
-112.0610324155611
 30
0.0
 10
81.89474281806798
 20
-112.0610324155611
 30
0.0
 10
82.053561719938
 20
-112.0610324155611
 30
0.0
 10
82.19722220167291
 20
-112.1054741473209
 30
0.0
 10
82.29265134661433
 20
-112.2873751889421
 30
0.0
 10
82.39187009658954
 20
-112.4799560265675
 30
0.0
 10
82.41529674588924
 20
-112.7083658572396
 30
0.0
 10
82.41529674588924
 20
-112.8818264149219
 30
0.0
 10
82.41529674588924
 20
-113.0532199153131
 30
0.0
 10
82.39393715388069
 20
-113.2838690580506
 30
0.0
 10
82.29265134661433
 20
-113.4762776409018
 30
0.0
  0
SPLINE
  5
F9
330
F4
100
AcDbEntity
  8
_U+30EC_U+30A4_U+30E4_U+30FC 1
370
     0
100
AcDbSpline
210
0.0
220
0.0
230
1.0
 70
    11
 71
     3
 72
    17
 73
    13
 74
     0
 42
0.0000000001
 43
0.0000000001
 12
1.0
 22
0.0
 32
0.0
 13
1.0
 23
0.0
 33
0.0
 40
0.0
 40
0.0
 40
0.0
 40
0.0
 40
1.0
 40
1.0
 40
1.0
 40
2.0
 40
2.0
 40
2.0
 40
3.0
 40
3.0
 40
3.0
 40
4.0
 40
4.0
 40
4.0
 40
4.0
 10
81.89474281806798
 20
-112.2536132531866
 30
0.0
 10
81.64497339538737
 20
-112.2536132531866
 30
0.0
 10
81.59846460633649
 20
-112.5371446116227
 30
0.0
 10
81.59846460633649
 20
-112.8818264149219
 30
0.0
 10
81.59846460633649
 20
-113.2013590211788
 30
0.0
 10
81.63463810893163
 20
-113.5102118314315
 30
0.0
 10
81.89474281806798
 20
-113.5102118314315
 30
0.0
 10
82.14244518345745
 20
-113.5102118314315
 30
0.0
 10
82.19102102979947
 20
-113.2287475302866
 30
0.0
 10
82.19102102979947
 20
-112.8818264149219
 30
0.0
 10
82.19102102979947
 20
-112.5624660634392
 30
0.0
 10
82.1527804699132
 20
-112.2536132531866
 30
0.0
 10
81.89474281806798
 20
-112.2536132531866
 30
0.0
  0
HATCH
  5
FA
330
F4
100
AcDbEntity
  8
_U+30EC_U+30A4_U+30E4_U+30FC 1
 62
     7
420
 16777215
100
AcDbHatch
 10
0.0
 20
0.0
 30
0.0
210
0.0
220
0.0
230
1.0
  2
SOLID
 70
     1
 71
     0
 91
        2
 92
        1
 93
        1
 72
     4
 94
        3
 73
     0
 74
     1
 95
       29
 96
       25
 40
0.0
 40
0.0
 40
0.0
 40
0.0
 40
1.0
 40
1.0
 40
1.0
 40
2.0
 40
2.0
 40
2.0
 40
3.0
 40
3.0
 40
3.0
 40
4.0
 40
4.0
 40
4.0
 40
5.0
 40
5.0
 40
5.0
 40
6.0
 40
6.0
 40
6.0
 40
7.0
 40
7.0
 40
7.0
 40
8.0
 40
8.0
 40
8.0
 40
8.0
 10
82.29265134661433
 20
-113.4762776409018
 10
82.18447534837749
 20
-113.685739446405
 10
82.01118704546943
 20
-113.7048597263481
 10
81.89474281806798
 20
-113.7048597263481
 10
81.73385685890682
 20
-113.7048597263481
 10
81.59226343446305
 20
-113.6583509372972
 10
81.49717879907016
 20
-113.4762776409018
 10
81.39348142496414
 20
-113.2816297459852
 10
81.37418889024673
 20
-113.0447794313742
 10
81.37418889024673
 20
-112.8818264149219
 10
81.37418889024673
 20
-112.7379936784127
 10
81.39141436767298
 20
-112.4863294532152
 10
81.49717879907016
 20
-112.2873751889421
 10
81.60501028775847
 20
-112.0842868100866
 10
81.76589624691964
 20
-112.0610324155611
 10
81.89474281806798
 20
-112.0610324155611
 10
82.053561719938
 20
-112.0610324155611
 10
82.19722220167291
 20
-112.1054741473209
 10
82.29265134661433
 20
-112.2873751889421
 10
82.39187009658954
 20
-112.4799560265675
 10
82.41529674588924
 20
-112.7083658572396
 10
82.41529674588924
 20
-112.8818264149219
 10
82.41529674588924
 20
-113.0532199153131
 10
82.39393715388069
 20
-113.2838690580506
 10
82.29265134661433
 20
-113.4762776409018
 97
        0
 97
        0
 92
        1
 93
        1
 72
     4
 94
        3
 73
     0
 74
     1
 95
       17
 96
       13
 40
0.0
 40
0.0
 40
0.0
 40
0.0
 40
1.0
 40
1.0
 40
1.0
 40
2.0
 40
2.0
 40
2.0
 40
3.0
 40
3.0
 40
3.0
 40
4.0
 40
4.0
 40
4.0
 40
4.0
 10
81.89474281806798
 20
-112.2536132531866
 10
81.64497339538737
 20
-112.2536132531866
 10
81.59846460633649
 20
-112.5371446116227
 10
81.59846460633649
 20
-112.8818264149219
 10
81.59846460633649
 20
-113.2013590211788
 10
81.63463810893163
 20
-113.5102118314315
 10
81.89474281806798
 20
-113.5102118314315
 10
82.14244518345745
 20
-113.5102118314315
 10
82.19102102979947
 20
-113.2287475302866
 10
82.19102102979947
 20
-112.8818264149219
 10
82.19102102979947
 20
-112.5624660634392
 10
82.1527804699132
 20
-112.2536132531866
 10
81.89474281806798
 20
-112.2536132531866
 97
        0
 97
        0
 75
     2
 76
     1
 98
        0
  0
POLYLINE
  5
FB
330
F4
100
AcDbEntity
  8
_U+30EC_U+30A4_U+30E4_U+30FC 1
370
     0
100
AcDb2dPolyline
 66
     1
 10
0.0
 20
0.0
 30
0.0
  0
VERTEX
  5
FC
330
FB
100
AcDbEntity
  8
_U+30EC_U+30A4_U+30E4_U+30FC 1
370
     0
100
AcDbVertex
100
AcDb2dVertex
 10
82.63164874236293
 20
-113.6540445679407
 30
0.0
  0
VERTEX
  5
FD
330
FB
100
AcDbEntity
  8
_U+30EC_U+30A4_U+30E4_U+30FC 1
370
     0
100
AcDbVertex
100
AcDb2dVertex
 10
82.63164874236293
 20
-113.4023803427432
 30
0.0
  0
VERTEX
  5
FE
330
FB
100
AcDbEntity
  8
_U+30EC_U+30A4_U+30E4_U+30FC 1
370
     0
100
AcDbVertex
100
AcDb2dVertex
 10
82.88348522233468
 20
-113.4023803427432
 30
0.0
  0
VERTEX
  5
FF
330
FB
100
AcDbEntity
  8
_U+30EC_U+30A4_U+30E4_U+30FC 1
370
     0
100
AcDbVertex
100
AcDb2dVertex
 10
82.88348522233468
 20
-113.6540445679407
 30
0.0
  0
VERTEX
  5
100
330
FB
100
AcDbEntity
  8
_U+30EC_U+30A4_U+30E4_U+30FC 1
370
     0
100
AcDbVertex
100
AcDb2dVertex
 10
82.63164874236293
 20
-113.6540445679407
 30
0.0
  0
SEQEND
  5
101
330
FB
100
AcDbEntity
  8
_U+30EC_U+30A4_U+30E4_U+30FC 1
370
     0
  0
HATCH
  5
102
330
F4
100
AcDbEntity
  8
_U+30EC_U+30A4_U+30E4_U+30FC 1
 62
     7
420
 16777215
100
AcDbHatch
 10
0.0
 20
0.0
 30
0.0
210
0.0
220
0.0
230
1.0
  2
SOLID
 70
     1
 71
     0
 91
        1
 92
        1
 93
        4
 72
     1
 10
82.63164874236293
 20
-113.6540445679407
 11
82.63164874236293
 21
-113.4023803427432
 72
     1
 10
82.63164874236293
 20
-113.4023803427432
 11
82.88348522233468
 21
-113.4023803427432
 72
     1
 10
82.88348522233468
 20
-113.4023803427432
 11
82.88348522233468
 21
-113.6540445679407
 72
     1
 10
82.88348522233468
 20
-113.6540445679407
 11
82.63164874236293
 21
-113.6540445679407
 97
        0
 75
     2
 76
     1
 98
        0
  0
SPLINE
  5
103
330
F4
100
AcDbEntity
  8
_U+30EC_U+30A4_U+30E4_U+30FC 1
370
     0
100
AcDbSpline
210
0.0
220
0.0
230
1.0
 70
    11
 71
     3
 72
    29
 73
    25
 74
     0
 42
0.0000000001
 43
0.0000000001
 12
1.0
 22
0.0
 32
0.0
 13
1.0
 23
0.0
 33
0.0
 40
0.0
 40
0.0
 40
0.0
 40
0.0
 40
1.0
 40
1.0
 40
1.0
 40
2.0
 40
2.0
 40
2.0
 40
3.0
 40
3.0
 40
3.0
 40
4.0
 40
4.0
 40
4.0
 40
5.0
 40
5.0
 40
5.0
 40
6.0
 40
6.0
 40
6.0
 40
7.0
 40
7.0
 40
7.0
 40
8.0
 40
8.0
 40
8.0
 40
8.0
 10
83.61970212753258
 20
-113.7048597263481
 30
0.0
 10
83.35305173697424
 20
-113.7048597263481
 30
0.0
 10
83.09949270925985
 20
-113.5672281617124
 30
0.0
 10
83.09949270925985
 20
-113.2182399890566
 30
0.0
 10
83.09949270925985
 20
-112.9622693945025
 30
0.0
 10
83.24108613370362
 20
-112.8670125043353
 30
0.0
 10
83.3468505651008
 20
-112.8056898046979
 30
0.0
 10
83.22213810853475
 20
-112.7464341623516
 30
0.0
 10
83.14600149831072
 20
-112.6322292470156
 30
0.0
 10
83.14600149831072
 20
-112.4715155426287
 30
0.0
 10
83.14600149831072
 20
-112.1964246681315
 30
0.0
 10
83.34478350780964
 20
-112.0610324155611
 30
0.0
 10
83.61970212753258
 20
-112.0610324155611
 30
0.0
 10
83.90323348596864
 20
-112.0610324155611
 30
0.0
 10
84.09374726630296
 20
-112.2048651520703
 30
0.0
 10
84.09374726630296
 20
-112.4715155426287
 30
0.0
 10
84.09374726630296
 20
-112.6322292470156
 30
0.0
 10
84.01519908923926
 20
-112.7464341623516
 30
0.0
 10
83.89048663267322
 20
-112.8056898046979
 30
0.0
 10
83.97937009619267
 20
-112.8565049631053
 30
0.0
 10
84.13818899806267
 20
-112.9517618532725
 30
0.0
 10
84.13818899806267
 20
-113.2141058744743
 30
0.0
 10
84.13818899806267
 20
-113.5884154989466
 30
0.0
 10
83.85879175420892
 20
-113.7048597263481
 30
0.0
 10
83.61970212753258
 20
-113.7048597263481
 30
0.0
  0
SPLINE
  5
104
330
F4
100
AcDbEntity
  8
_U+30EC_U+30A4_U+30E4_U+30FC 1
370
     0
100
AcDbSpline
210
0.0
220
0.0
230
1.0
 70
    11
 71
     3
 72
    17
 73
    13
 74
     0
 42
0.0000000001
 43
0.0000000001
 12
1.0
 22
0.0
 32
0.0
 13
1.0
 23
0.0
 33
0.0
 40
0.0
 40
0.0
 40
0.0
 40
0.0
 40
1.0
 40
1.0
 40
1.0
 40
2.0
 40
2.0
 40
2.0
 40
3.0
 40
3.0
 40
3.0
 40
4.0
 40
4.0
 40
4.0
 40
4.0
 10
83.61970212753258
 20
-112.9136935481605
 30
0.0
 10
83.47604164579766
 20
-112.9136935481605
 30
0.0
 10
83.32342391580109
 20
-113.0003376996145
 30
0.0
 10
83.32342391580109
 20
-113.20342607847
 30
0.0
 10
83.32342391580109
 20
-113.4085815146166
 30
0.0
 10
83.45054793920681
 20
-113.5102118314315
 30
0.0
 10
83.61970212753258
 20
-113.5102118314315
 30
0.0
 10
83.80573728373606
 20
-113.5102118314315
 30
0.0
 10
83.91598033926407
 20
-113.3875664321566
 30
0.0
 10
83.91598033926407
 20
-113.2097995051177
 30
0.0
 10
83.91598033926407
 20
-112.9875908463191
 30
0.0
 10
83.75302732281175
 20
-112.9136935481605
 30
0.0
 10
83.61970212753258
 20
-112.9136935481605
 30
0.0
  0
SPLINE
  5
105
330
F4
100
AcDbEntity
  8
_U+30EC_U+30A4_U+30E4_U+30FC 1
370
     0
100
AcDbSpline
210
0.0
220
0.0
230
1.0
 70
    11
 71
     3
 72
    17
 73
    13
 74
     0
 42
0.0000000001
 43
0.0000000001
 12
1.0
 22
0.0
 32
0.0
 13
1.0
 23
0.0
 33
0.0
 40
0.0
 40
0.0
 40
0.0
 40
0.0
 40
1.0
 40
1.0
 40
1.0
 40
2.0
 40
2.0
 40
2.0
 40
3.0
 40
3.0
 40
3.0
 40
4.0
 40
4.0
 40
4.0
 40
4.0
 10
83.61970212753258
 20
-112.2536132531866
 30
0.0
 10
83.45468205378911
 20
-112.2536132531866
 30
0.0
 10
83.37027721440049
 20
-112.3486978885795
 30
0.0
 10
83.37027721440049
 20
-112.4840901411498
 30
0.0
 10
83.37027721440049
 20
-112.606907795199
 30
0.0
 10
83.44193520049369
 20
-112.7254190798916
 30
0.0
 10
83.61970212753258
 20
-112.7254190798916
 30
0.0
 10
83.79746905457147
 20
-112.7254190798916
 30
0.0
 10
83.86947155021319
 20
-112.606907795199
 30
0.0
 10
83.86947155021319
 20
-112.4840901411498
 30
0.0
 10
83.86947155021319
 20
-112.3486978885795
 30
0.0
 10
83.7826551439849
 20
-112.2536132531866
 30
0.0
 10
83.61970212753258
 20
-112.2536132531866
 30
0.0
  0
HATCH
  5
106
330
F4
100
AcDbEntity
  8
_U+30EC_U+30A4_U+30E4_U+30FC 1
 62
     7
420
 16777215
100
AcDbHatch
 10
0.0
 20
0.0
 30
0.0
210
0.0
220
0.0
230
1.0
  2
SOLID
 70
     1
 71
     0
 91
        3
 92
        1
 93
        1
 72
     4
 94
        3
 73
     0
 74
     1
 95
       29
 96
       25
 40
0.0
 40
0.0
 40
0.0
 40
0.0
 40
1.0
 40
1.0
 40
1.0
 40
2.0
 40
2.0
 40
2.0
 40
3.0
 40
3.0
 40
3.0
 40
4.0
 40
4.0
 40
4.0
 40
5.0
 40
5.0
 40
5.0
 40
6.0
 40
6.0
 40
6.0
 40
7.0
 40
7.0
 40
7.0
 40
8.0
 40
8.0
 40
8.0
 40
8.0
 10
83.61970212753258
 20
-113.7048597263481
 10
83.35305173697424
 20
-113.7048597263481
 10
83.09949270925985
 20
-113.5672281617124
 10
83.09949270925985
 20
-113.2182399890566
 10
83.09949270925985
 20
-112.9622693945025
 10
83.24108613370362
 20
-112.8670125043353
 10
83.3468505651008
 20
-112.8056898046979
 10
83.22213810853475
 20
-112.7464341623516
 10
83.14600149831072
 20
-112.6322292470156
 10
83.14600149831072
 20
-112.4715155426287
 10
83.14600149831072
 20
-112.1964246681315
 10
83.34478350780964
 20
-112.0610324155611
 10
83.61970212753258
 20
-112.0610324155611
 10
83.90323348596864
 20
-112.0610324155611
 10
84.09374726630296
 20
-112.2048651520703
 10
84.09374726630296
 20
-112.4715155426287
 10
84.09374726630296
 20
-112.6322292470156
 10
84.01519908923926
 20
-112.7464341623516
 10
83.89048663267322
 20
-112.8056898046979
 10
83.97937009619267
 20
-112.8565049631053
 10
84.13818899806267
 20
-112.9517618532725
 10
84.13818899806267
 20
-113.2141058744743
 10
84.13818899806267
 20
-113.5884154989466
 10
83.85879175420892
 20
-113.7048597263481
 10
83.61970212753258
 20
-113.7048597263481
 97
        0
 97
        0
 92
        1
 93
        1
 72
     4
 94
        3
 73
     0
 74
     1
 95
       17
 96
       13
 40
0.0
 40
0.0
 40
0.0
 40
0.0
 40
1.0
 40
1.0
 40
1.0
 40
2.0
 40
2.0
 40
2.0
 40
3.0
 40
3.0
 40
3.0
 40
4.0
 40
4.0
 40
4.0
 40
4.0
 10
83.61970212753258
 20
-112.9136935481605
 10
83.47604164579766
 20
-112.9136935481605
 10
83.32342391580109
 20
-113.0003376996145
 10
83.32342391580109
 20
-113.20342607847
 10
83.32342391580109
 20
-113.4085815146166
 10
83.45054793920681
 20
-113.5102118314315
 10
83.61970212753258
 20
-113.5102118314315
 10
83.80573728373606
 20
-113.5102118314315
 10
83.91598033926407
 20
-113.3875664321566
 10
83.91598033926407
 20
-113.2097995051177
 10
83.91598033926407
 20
-112.9875908463191
 10
83.75302732281175
 20
-112.9136935481605
 10
83.61970212753258
 20
-112.9136935481605
 97
        0
 97
        0
 92
        1
 93
        1
 72
     4
 94
        3
 73
     0
 74
     1
 95
       17
 96
       13
 40
0.0
 40
0.0
 40
0.0
 40
0.0
 40
1.0
 40
1.0
 40
1.0
 40
2.0
 40
2.0
 40
2.0
 40
3.0
 40
3.0
 40
3.0
 40
4.0
 40
4.0
 40
4.0
 40
4.0
 10
83.61970212753258
 20
-112.2536132531866
 10
83.45468205378911
 20
-112.2536132531866
 10
83.37027721440049
 20
-112.3486978885795
 10
83.37027721440049
 20
-112.4840901411498
 10
83.37027721440049
 20
-112.606907795199
 10
83.44193520049369
 20
-112.7254190798916
 10
83.61970212753258
 20
-112.7254190798916
 10
83.79746905457147
 20
-112.7254190798916
 10
83.86947155021319
 20
-112.606907795199
 10
83.86947155021319
 20
-112.4840901411498
 10
83.86947155021319
 20
-112.3486978885795
 10
83.7826551439849
 20
-112.2536132531866
 10
83.61970212753258
 20
-112.2536132531866
 97
        0
 97
        0
 75
     2
 76
     1
 98
        0
  0
ENDBLK
  5
F7
330
F4
100
AcDbEntity
  8
0
100
AcDbBlockEnd
  0
BLOCK
  5
115
330
113
100
AcDbEntity
  8
0
100
AcDbBlockBegin
  2
block 7
 70
     0
 10
0.0
 20
0.0
 30
0.0
  3
block 7
  1

  0
SPLINE
  5
117
330
113
100
AcDbEntity
  8
_U+30EC_U+30A4_U+30E4_U+30FC 1
370
     0
100
AcDbSpline
210
0.0
220
0.0
230
1.0
 70
    11
 71
     3
 72
    44
 73
    40
 74
     0
 42
0.0000000001
 43
0.0000000001
 12
1.0
 22
0.0
 32
0.0
 13
1.0
 23
0.0
 33
0.0
 40
0.0
 40
0.0
 40
0.0
 40
0.0
 40
1.0
 40
1.0
 40
1.0
 40
2.0
 40
2.0
 40
2.0
 40
3.0
 40
3.0
 40
3.0
 40
4.0
 40
4.0
 40
4.0
 40
5.0
 40
5.0
 40
5.0
 40
6.0
 40
6.0
 40
6.0
 40
7.0
 40
7.0
 40
7.0
 40
8.0
 40
8.0
 40
8.0
 40
9.0
 40
9.0
 40
9.0
 40
10.0
 40
10.0
 40
10.0
 40
11.0
 40
11.0
 40
11.0
 40
12.0
 40
12.0
 40
12.0
 40
13.0
 40
13.0
 40
13.0
 40
13.0
 10
73.73124455621998
 20
-129.7405734267662
 30
0.0
 10
73.88989120331573
 20
-129.958303461434
 30
0.0
 10
73.9639607562486
 20
-130.0513210395358
 30
0.0
 10
74.10779349275778
 20
-130.1002413954263
 30
0.0
 10
74.10779349275778
 20
-130.1002413954263
 30
0.0
 10
74.10779349275778
 20
-129.3216498157599
 30
0.0
 10
74.10779349275778
 20
-129.3216498157599
 30
0.0
 10
74.10779349275778
 20
-129.3216498157599
 30
0.0
 10
74.3129489289044
 20
-129.3216498157599
 30
0.0
 10
74.3129489289044
 20
-129.3216498157599
 30
0.0
 10
74.3129489289044
 20
-129.3216498157599
 30
0.0
 10
74.3129489289044
 20
-130.3496663085584
 30
0.0
 10
74.3129489289044
 20
-130.3496663085584
 30
0.0
 10
73.95534801753547
 20
-130.3179714300941
 30
0.0
 10
73.8771443500203
 20
-130.2525146158744
 30
0.0
 10
73.57879908099767
 20
-129.8673529406234
 30
0.0
 10
73.38001707149876
 20
-129.6113823460694
 30
0.0
 10
73.31232094521359
 20
-129.5459255318496
 30
0.0
 10
73.17486163535212
 20
-129.5459255318496
 30
0.0
 10
73.05635035065953
 20
-129.5459255318496
 30
0.0
 10
72.9250922126715
 20
-129.6179280274914
 30
0.0
 10
72.9250922126715
 20
-129.8146429796991
 30
0.0
 10
72.9250922126715
 20
-130.0747476888355
 30
0.0
 10
73.15574135540898
 20
-130.0830159180001
 30
0.0
 10
73.27218558281042
 20
-130.0874945421309
 30
0.0
 10
73.27218558281042
 20
-130.0874945421309
 30
0.0
 10
73.27218558281042
 20
-130.3117702582207
 30
0.0
 10
73.27218558281042
 20
-130.3117702582207
 30
0.0
 10
73.14523381417898
 20
-130.3031575195076
 30
0.0
 10
73.03309595613409
 20
-130.2924777235033
 30
0.0
 10
72.9145846714415
 20
-130.212206998697
 30
0.0
 10
72.7538709670546
 20
-130.1023084527175
 30
0.0
 10
72.71993677652488
 20
-129.9159287869655
 30
0.0
 10
72.71993677652488
 20
-129.7998290691125
 30
0.0
 10
72.71993677652488
 20
-129.5224988825499
 30
0.0
 10
72.90407713021149
 20
-129.3151041343379
 30
0.0
 10
73.17692869264327
 20
-129.3151041343379
 30
0.0
 10
73.40533852331534
 20
-129.3151041343379
 30
0.0
 10
73.50490178283906
 20
-129.4315483617393
 30
0.0
 10
73.73124455621998
 20
-129.7405734267662
 30
0.0
  0
HATCH
  5
118
330
113
100
AcDbEntity
  8
_U+30EC_U+30A4_U+30E4_U+30FC 1
 62
     7
420
 16777215
100
AcDbHatch
 10
0.0
 20
0.0
 30
0.0
210
0.0
220
0.0
230
1.0
  2
SOLID
 70
     1
 71
     0
 91
        1
 92
        1
 93
        1
 72
     4
 94
        3
 73
     0
 74
     1
 95
       44
 96
       40
 40
0.0
 40
0.0
 40
0.0
 40
0.0
 40
1.0
 40
1.0
 40
1.0
 40
2.0
 40
2.0
 40
2.0
 40
3.0
 40
3.0
 40
3.0
 40
4.0
 40
4.0
 40
4.0
 40
5.0
 40
5.0
 40
5.0
 40
6.0
 40
6.0
 40
6.0
 40
7.0
 40
7.0
 40
7.0
 40
8.0
 40
8.0
 40
8.0
 40
9.0
 40
9.0
 40
9.0
 40
10.0
 40
10.0
 40
10.0
 40
11.0
 40
11.0
 40
11.0
 40
12.0
 40
12.0
 40
12.0
 40
13.0
 40
13.0
 40
13.0
 40
13.0
 10
73.73124455621998
 20
-129.7405734267662
 10
73.88989120331573
 20
-129.958303461434
 10
73.9639607562486
 20
-130.0513210395358
 10
74.10779349275778
 20
-130.1002413954263
 10
74.10779349275778
 20
-130.1002413954263
 10
74.10779349275778
 20
-129.3216498157599
 10
74.10779349275778
 20
-129.3216498157599
 10
74.10779349275778
 20
-129.3216498157599
 10
74.3129489289044
 20
-129.3216498157599
 10
74.3129489289044
 20
-129.3216498157599
 10
74.3129489289044
 20
-129.3216498157599
 10
74.3129489289044
 20
-130.3496663085584
 10
74.3129489289044
 20
-130.3496663085584
 10
73.95534801753547
 20
-130.3179714300941
 10
73.8771443500203
 20
-130.2525146158744
 10
73.57879908099767
 20
-129.8673529406234
 10
73.38001707149876
 20
-129.6113823460694
 10
73.31232094521359
 20
-129.5459255318496
 10
73.17486163535212
 20
-129.5459255318496
 10
73.05635035065953
 20
-129.5459255318496
 10
72.9250922126715
 20
-129.6179280274914
 10
72.9250922126715
 20
-129.8146429796991
 10
72.9250922126715
 20
-130.0747476888355
 10
73.15574135540898
 20
-130.0830159180001
 10
73.27218558281042
 20
-130.0874945421309
 10
73.27218558281042
 20
-130.0874945421309
 10
73.27218558281042
 20
-130.3117702582207
 10
73.27218558281042
 20
-130.3117702582207
 10
73.14523381417898
 20
-130.3031575195076
 10
73.03309595613409
 20
-130.2924777235033
 10
72.9145846714415
 20
-130.212206998697
 10
72.7538709670546
 20
-130.1023084527175
 10
72.71993677652488
 20
-129.9159287869655
 10
72.71993677652488
 20
-129.7998290691125
 10
72.71993677652488
 20
-129.5224988825499
 10
72.90407713021149
 20
-129.3151041343379
 10
73.17692869264327
 20
-129.3151041343379
 10
73.40533852331534
 20
-129.3151041343379
 10
73.50490178283906
 20
-129.4315483617393
 10
73.73124455621998
 20
-129.7405734267662
 97
        0
 97
        0
 75
     2
 76
     1
 98
        0
  0
SPLINE
  5
119
330
113
100
AcDbEntity
  8
_U+30EC_U+30A4_U+30E4_U+30FC 1
370
     0
100
AcDbSpline
210
0.0
220
0.0
230
1.0
 70
    11
 71
     3
 72
    29
 73
    25
 74
     0
 42
0.0000000001
 43
0.0000000001
 12
1.0
 22
0.0
 32
0.0
 13
1.0
 23
0.0
 33
0.0
 40
0.0
 40
0.0
 40
0.0
 40
0.0
 40
1.0
 40
1.0
 40
1.0
 40
2.0
 40
2.0
 40
2.0
 40
3.0
 40
3.0
 40
3.0
 40
4.0
 40
4.0
 40
4.0
 40
5.0
 40
5.0
 40
5.0
 40
6.0
 40
6.0
 40
6.0
 40
7.0
 40
7.0
 40
7.0
 40
8.0
 40
8.0
 40
8.0
 40
8.0
 10
74.13518200186552
 20
-128.2588378585603
 30
0.0
 10
74.3446438073687
 20
-128.3670138567971
 30
0.0
 10
74.36376408731184
 20
-128.5403021597052
 30
0.0
 10
74.36376408731184
 20
-128.6567463871067
 30
0.0
 10
74.36376408731184
 20
-128.8176323462678
 30
0.0
 10
74.31725529826097
 20
-128.9592257707116
 30
0.0
 10
74.13518200186552
 20
-129.0543104061045
 30
0.0
 10
73.94070636172316
 20
-129.1580077802105
 30
0.0
 10
73.70368379233797
 20
-129.1769558053794
 30
0.0
 10
73.54073077588565
 20
-129.1769558053794
 30
0.0
 10
73.39689803937647
 20
-129.1769558053794
 30
0.0
 10
73.14523381417898
 20
-129.1600748375017
 30
0.0
 10
72.9462795499058
 20
-129.0543104061045
 30
0.0
 10
72.74319117105031
 20
-128.9464789174162
 30
0.0
 10
72.71993677652488
 20
-128.785592958255
 30
0.0
 10
72.71993677652488
 20
-128.6567463871067
 30
0.0
 10
72.71993677652488
 20
-128.4979274852366
 30
0.0
 10
72.76437850828461
 20
-128.3542670035017
 30
0.0
 10
72.9462795499058
 20
-128.2588378585603
 30
0.0
 10
73.13886038753127
 20
-128.1596191085851
 30
0.0
 10
73.36727021820333
 20
-128.1361924592854
 30
0.0
 10
73.54073077588565
 20
-128.1361924592854
 30
0.0
 10
73.71212427627684
 20
-128.1361924592854
 30
0.0
 10
73.94277341901432
 20
-128.1575520512939
 30
0.0
 10
74.13518200186552
 20
-128.2588378585603
 30
0.0
  0
SPLINE
  5
11A
330
113
100
AcDbEntity
  8
_U+30EC_U+30A4_U+30E4_U+30FC 1
370
     0
100
AcDbSpline
210
0.0
220
0.0
230
1.0
 70
    11
 71
     3
 72
    17
 73
    13
 74
     0
 42
0.0000000001
 43
0.0000000001
 12
1.0
 22
0.0
 32
0.0
 13
1.0
 23
0.0
 33
0.0
 40
0.0
 40
0.0
 40
0.0
 40
0.0
 40
1.0
 40
1.0
 40
1.0
 40
2.0
 40
2.0
 40
2.0
 40
3.0
 40
3.0
 40
3.0
 40
4.0
 40
4.0
 40
4.0
 40
4.0
 10
72.91251761415035
 20
-128.6567463871067
 30
0.0
 10
72.91251761415035
 20
-128.9061713002388
 30
0.0
 10
73.19587671781214
 20
-128.9530245988381
 30
0.0
 10
73.54073077588565
 20
-128.9530245988381
 30
0.0
 10
73.86026338214258
 20
-128.9530245988381
 30
0.0
 10
74.16911619239522
 20
-128.916851096243
 30
0.0
 10
74.16911619239522
 20
-128.6567463871067
 30
0.0
 10
74.16911619239522
 20
-128.4090440217172
 30
0.0
 10
73.88765189125031
 20
-128.3604681753752
 30
0.0
 10
73.54073077588565
 20
-128.3604681753752
 30
0.0
 10
73.22137042440299
 20
-128.3604681753752
 30
0.0
 10
72.91251761415035
 20
-128.3987087352614
 30
0.0
 10
72.91251761415035
 20
-128.6567463871067
 30
0.0
  0
HATCH
  5
11B
330
113
100
AcDbEntity
  8
_U+30EC_U+30A4_U+30E4_U+30FC 1
 62
     7
420
 16777215
100
AcDbHatch
 10
0.0
 20
0.0
 30
0.0
210
0.0
220
0.0
230
1.0
  2
SOLID
 70
     1
 71
     0
 91
        2
 92
        1
 93
        1
 72
     4
 94
        3
 73
     0
 74
     1
 95
       29
 96
       25
 40
0.0
 40
0.0
 40
0.0
 40
0.0
 40
1.0
 40
1.0
 40
1.0
 40
2.0
 40
2.0
 40
2.0
 40
3.0
 40
3.0
 40
3.0
 40
4.0
 40
4.0
 40
4.0
 40
5.0
 40
5.0
 40
5.0
 40
6.0
 40
6.0
 40
6.0
 40
7.0
 40
7.0
 40
7.0
 40
8.0
 40
8.0
 40
8.0
 40
8.0
 10
74.13518200186552
 20
-128.2588378585603
 10
74.3446438073687
 20
-128.3670138567971
 10
74.36376408731184
 20
-128.5403021597052
 10
74.36376408731184
 20
-128.6567463871067
 10
74.36376408731184
 20
-128.8176323462678
 10
74.31725529826097
 20
-128.9592257707116
 10
74.13518200186552
 20
-129.0543104061045
 10
73.94070636172316
 20
-129.1580077802105
 10
73.70368379233797
 20
-129.1769558053794
 10
73.54073077588565
 20
-129.1769558053794
 10
73.39689803937647
 20
-129.1769558053794
 10
73.14523381417898
 20
-129.1600748375017
 10
72.9462795499058
 20
-129.0543104061045
 10
72.74319117105031
 20
-128.9464789174162
 10
72.71993677652488
 20
-128.785592958255
 10
72.71993677652488
 20
-128.6567463871067
 10
72.71993677652488
 20
-128.4979274852366
 10
72.76437850828461
 20
-128.3542670035017
 10
72.9462795499058
 20
-128.2588378585603
 10
73.13886038753127
 20
-128.1596191085851
 10
73.36727021820333
 20
-128.1361924592854
 10
73.54073077588565
 20
-128.1361924592854
 10
73.71212427627684
 20
-128.1361924592854
 10
73.94277341901432
 20
-128.1575520512939
 10
74.13518200186552
 20
-128.2588378585603
 97
        0
 97
        0
 92
        1
 93
        1
 72
     4
 94
        3
 73
     0
 74
     1
 95
       17
 96
       13
 40
0.0
 40
0.0
 40
0.0
 40
0.0
 40
1.0
 40
1.0
 40
1.0
 40
2.0
 40
2.0
 40
2.0
 40
3.0
 40
3.0
 40
3.0
 40
4.0
 40
4.0
 40
4.0
 40
4.0
 10
72.91251761415035
 20
-128.6567463871067
 10
72.91251761415035
 20
-128.9061713002388
 10
73.19587671781214
 20
-128.9530245988381
 10
73.54073077588565
 20
-128.9530245988381
 10
73.86026338214258
 20
-128.9530245988381
 10
74.16911619239522
 20
-128.916851096243
 10
74.16911619239522
 20
-128.6567463871067
 10
74.16911619239522
 20
-128.4090440217172
 10
73.88765189125031
 20
-128.3604681753752
 10
73.54073077588565
 20
-128.3604681753752
 10
73.22137042440299
 20
-128.3604681753752
 10
72.91251761415035
 20
-128.3987087352614
 10
72.91251761415035
 20
-128.6567463871067
 97
        0
 97
        0
 75
     2
 76
     1
 98
        0
  0
POLYLINE
  5
11C
330
113
100
AcDbEntity
  8
_U+30EC_U+30A4_U+30E4_U+30FC 1
370
     0
100
AcDb2dPolyline
 66
     1
 10
0.0
 20
0.0
 30
0.0
  0
VERTEX
  5
11D
330
11C
100
AcDbEntity
  8
_U+30EC_U+30A4_U+30E4_U+30FC 1
370
     0
100
AcDbVertex
100
AcDb2dVertex
 10
74.3129489289044
 20
-127.9198404628117
 30
0.0
  0
VERTEX
  5
11E
330
11C
100
AcDbEntity
  8
_U+30EC_U+30A4_U+30E4_U+30FC 1
370
     0
100
AcDbVertex
100
AcDb2dVertex
 10
74.0612847037069
 20
-127.9198404628117
 30
0.0
  0
VERTEX
  5
11F
330
11C
100
AcDbEntity
  8
_U+30EC_U+30A4_U+30E4_U+30FC 1
370
     0
100
AcDbVertex
100
AcDb2dVertex
 10
74.0612847037069
 20
-127.6680039828399
 30
0.0
  0
VERTEX
  5
120
330
11C
100
AcDbEntity
  8
_U+30EC_U+30A4_U+30E4_U+30FC 1
370
     0
100
AcDbVertex
100
AcDb2dVertex
 10
74.3129489289044
 20
-127.6680039828399
 30
0.0
  0
VERTEX
  5
121
330
11C
100
AcDbEntity
  8
_U+30EC_U+30A4_U+30E4_U+30FC 1
370
     0
100
AcDbVertex
100
AcDb2dVertex
 10
74.3129489289044
 20
-127.9198404628117
 30
0.0
  0
SEQEND
  5
122
330
11C
100
AcDbEntity
  8
_U+30EC_U+30A4_U+30E4_U+30FC 1
370
     0
  0
HATCH
  5
123
330
113
100
AcDbEntity
  8
_U+30EC_U+30A4_U+30E4_U+30FC 1
 62
     7
420
 16777215
100
AcDbHatch
 10
0.0
 20
0.0
 30
0.0
210
0.0
220
0.0
230
1.0
  2
SOLID
 70
     1
 71
     0
 91
        1
 92
        1
 93
        4
 72
     1
 10
74.3129489289044
 20
-127.9198404628117
 11
74.0612847037069
 21
-127.9198404628117
 72
     1
 10
74.0612847037069
 20
-127.9198404628117
 11
74.0612847037069
 21
-127.6680039828399
 72
     1
 10
74.0612847037069
 20
-127.6680039828399
 11
74.3129489289044
 21
-127.6680039828399
 72
     1
 10
74.3129489289044
 20
-127.6680039828399
 11
74.3129489289044
 21
-127.9198404628117
 97
        0
 75
     2
 76
     1
 98
        0
  0
SPLINE
  5
124
330
113
100
AcDbEntity
  8
_U+30EC_U+30A4_U+30E4_U+30FC 1
370
     0
100
AcDbSpline
210
0.0
220
0.0
230
1.0
 70
    11
 71
     3
 72
    53
 73
    49
 74
     0
 42
0.0000000001
 43
0.0000000001
 12
1.0
 22
0.0
 32
0.0
 13
1.0
 23
0.0
 33
0.0
 40
0.0
 40
0.0
 40
0.0
 40
0.0
 40
1.0
 40
1.0
 40
1.0
 40
2.0
 40
2.0
 40
2.0
 40
3.0
 40
3.0
 40
3.0
 40
4.0
 40
4.0
 40
4.0
 40
5.0
 40
5.0
 40
5.0
 40
6.0
 40
6.0
 40
6.0
 40
7.0
 40
7.0
 40
7.0
 40
8.0
 40
8.0
 40
8.0
 40
9.0
 40
9.0
 40
9.0
 40
10.0
 40
10.0
 40
10.0
 40
11.0
 40
11.0
 40
11.0
 40
12.0
 40
12.0
 40
12.0
 40
13.0
 40
13.0
 40
13.0
 40
14.0
 40
14.0
 40
14.0
 40
15.0
 40
15.0
 40
15.0
 40
16.0
 40
16.0
 40
16.0
 40
16.0
 10
74.36376408731184
 20
-126.9507351028109
 30
0.0
 10
74.36376408731184
 20
-127.0289387703261
 30
0.0
 10
74.34688311943411
 20
-127.130569087141
 30
0.0
 10
74.28332110773125
 20
-127.2321994039558
 30
0.0
 10
74.17325030697752
 20
-127.4054877068639
 30
0.0
 10
74.04216442376377
 20
-127.4268472988725
 30
0.0
 10
73.93433293507545
 20
-127.4457953240413
 30
0.0
 10
73.93433293507545
 20
-127.4457953240413
 30
0.0
 10
73.93433293507545
 20
-127.2235866652427
 30
0.0
 10
73.93433293507545
 20
-127.2235866652427
 30
0.0
 10
74.13311494457436
 20
-127.1688096470272
 30
0.0
 10
74.16274276574751
 20
-127.0416856236215
 30
0.0
 10
74.16274276574751
 20
-126.9486680455198
 30
0.0
 10
74.16274276574751
 20
-126.8091416783672
 30
0.0
 10
74.06335176099806
 20
-126.6568684579191
 30
0.0
 10
73.83063556096943
 20
-126.6568684579191
 30
0.0
 10
73.57466496641537
 20
-126.6568684579191
 30
0.0
 10
73.50490178283906
 20
-126.8367024422492
 30
0.0
 10
73.50490178283906
 20
-126.9572807842329
 30
0.0
 10
73.50490178283906
 20
-126.9889756626972
 30
0.0
 10
73.50490178283906
 20
-127.130569087141
 30
0.0
 10
73.63392060876166
 20
-127.2194525506604
 30
0.0
 10
73.63392060876166
 20
-127.2194525506604
 30
0.0
 10
73.61480032881853
 20
-127.3951524204082
 30
0.0
 10
73.61480032881853
 20
-127.3951524204082
 30
0.0
 10
73.61480032881853
 20
-127.3951524204082
 30
0.0
 10
72.76868487764116
 20
-127.2745740784244
 30
0.0
 10
72.76868487764116
 20
-127.2745740784244
 30
0.0
 10
72.76868487764116
 20
-127.2745740784244
 30
0.0
 10
72.76868487764116
 20
-126.495982498758
 30
0.0
 10
72.76868487764116
 20
-126.495982498758
 30
0.0
 10
72.76868487764116
 20
-126.495982498758
 30
0.0
 10
72.96333277255778
 20
-126.495982498758
 30
0.0
 10
72.96333277255778
 20
-126.495982498758
 30
0.0
 10
72.96333277255778
 20
-126.495982498758
 30
0.0
 10
72.96333277255778
 20
-127.1116210619721
 30
0.0
 10
72.96333277255778
 20
-127.1116210619721
 30
0.0
 10
72.96333277255778
 20
-127.1116210619721
 30
0.0
 10
73.38639049814645
 20
-127.1770778761918
 30
0.0
 10
73.38639049814645
 20
-127.1770778761918
 30
0.0
 10
73.35245630761675
 20
-127.1157551765544
 30
0.0
 10
73.31232094521359
 20
-127.0334173944569
 30
0.0
 10
73.31232094521359
 20
-126.9149061097643
 30
0.0
 10
73.31232094521359
 20
-126.6610025725014
 30
0.0
 10
73.49852835619134
 20
-126.4239800031162
 30
0.0
 10
73.81151528102629
 20
-126.4239800031162
 30
0.0
 10
74.12898082999206
 20
-126.4239800031162
 30
0.0
 10
74.36376408731184
 20
-126.648255719206
 30
0.0
 10
74.36376408731184
 20
-126.9507351028109
 30
0.0
  0
HATCH
  5
125
330
113
100
AcDbEntity
  8
_U+30EC_U+30A4_U+30E4_U+30FC 1
 62
     7
420
 16777215
100
AcDbHatch
 10
0.0
 20
0.0
 30
0.0
210
0.0
220
0.0
230
1.0
  2
SOLID
 70
     1
 71
     0
 91
        1
 92
        1
 93
        1
 72
     4
 94
        3
 73
     0
 74
     1
 95
       53
 96
       49
 40
0.0
 40
0.0
 40
0.0
 40
0.0
 40
1.0
 40
1.0
 40
1.0
 40
2.0
 40
2.0
 40
2.0
 40
3.0
 40
3.0
 40
3.0
 40
4.0
 40
4.0
 40
4.0
 40
5.0
 40
5.0
 40
5.0
 40
6.0
 40
6.0
 40
6.0
 40
7.0
 40
7.0
 40
7.0
 40
8.0
 40
8.0
 40
8.0
 40
9.0
 40
9.0
 40
9.0
 40
10.0
 40
10.0
 40
10.0
 40
11.0
 40
11.0
 40
11.0
 40
12.0
 40
12.0
 40
12.0
 40
13.0
 40
13.0
 40
13.0
 40
14.0
 40
14.0
 40
14.0
 40
15.0
 40
15.0
 40
15.0
 40
16.0
 40
16.0
 40
16.0
 40
16.0
 10
74.36376408731184
 20
-126.9507351028109
 10
74.36376408731184
 20
-127.0289387703261
 10
74.34688311943411
 20
-127.130569087141
 10
74.28332110773125
 20
-127.2321994039558
 10
74.17325030697752
 20
-127.4054877068639
 10
74.04216442376377
 20
-127.4268472988725
 10
73.93433293507545
 20
-127.4457953240413
 10
73.93433293507545
 20
-127.4457953240413
 10
73.93433293507545
 20
-127.2235866652427
 10
73.93433293507545
 20
-127.2235866652427
 10
74.13311494457436
 20
-127.1688096470272
 10
74.16274276574751
 20
-127.0416856236215
 10
74.16274276574751
 20
-126.9486680455198
 10
74.16274276574751
 20
-126.8091416783672
 10
74.06335176099806
 20
-126.6568684579191
 10
73.83063556096943
 20
-126.6568684579191
 10
73.57466496641537
 20
-126.6568684579191
 10
73.50490178283906
 20
-126.8367024422492
 10
73.50490178283906
 20
-126.9572807842329
 10
73.50490178283906
 20
-126.9889756626972
 10
73.50490178283906
 20
-127.130569087141
 10
73.63392060876166
 20
-127.2194525506604
 10
73.63392060876166
 20
-127.2194525506604
 10
73.61480032881853
 20
-127.3951524204082
 10
73.61480032881853
 20
-127.3951524204082
 10
73.61480032881853
 20
-127.3951524204082
 10
72.76868487764116
 20
-127.2745740784244
 10
72.76868487764116
 20
-127.2745740784244
 10
72.76868487764116
 20
-127.2745740784244
 10
72.76868487764116
 20
-126.495982498758
 10
72.76868487764116
 20
-126.495982498758
 10
72.76868487764116
 20
-126.495982498758
 10
72.96333277255778
 20
-126.495982498758
 10
72.96333277255778
 20
-126.495982498758
 10
72.96333277255778
 20
-126.495982498758
 10
72.96333277255778
 20
-127.1116210619721
 10
72.96333277255778
 20
-127.1116210619721
 10
72.96333277255778
 20
-127.1116210619721
 10
73.38639049814645
 20
-127.1770778761918
 10
73.38639049814645
 20
-127.1770778761918
 10
73.35245630761675
 20
-127.1157551765544
 10
73.31232094521359
 20
-127.0334173944569
 10
73.31232094521359
 20
-126.9149061097643
 10
73.31232094521359
 20
-126.6610025725014
 10
73.49852835619134
 20
-126.4239800031162
 10
73.81151528102629
 20
-126.4239800031162
 10
74.12898082999206
 20
-126.4239800031162
 10
74.36376408731184
 20
-126.648255719206
 10
74.36376408731184
 20
-126.9507351028109
 97
        0
 97
        0
 75
     2
 76
     1
 98
        0
  0
ENDBLK
  5
116
330
113
100
AcDbEntity
  8
0
100
AcDbBlockEnd
  0
BLOCK
  5
134
330
132
100
AcDbEntity
  8
0
100
AcDbBlockBegin
  2
block 8
 70
     0
 10
0.0
 20
0.0
 30
0.0
  3
block 8
  1

  0
SPLINE
  5
136
330
132
100
AcDbEntity
  8
_U+30EC_U+30A4_U+30E4_U+30FC 1
370
     0
100
AcDbSpline
210
0.0
220
0.0
230
1.0
 70
    11
 71
     3
 72
    44
 73
    40
 74
     0
 42
0.0000000001
 43
0.0000000001
 12
1.0
 22
0.0
 32
0.0
 13
1.0
 23
0.0
 33
0.0
 40
0.0
 40
0.0
 40
0.0
 40
0.0
 40
1.0
 40
1.0
 40
1.0
 40
2.0
 40
2.0
 40
2.0
 40
3.0
 40
3.0
 40
3.0
 40
4.0
 40
4.0
 40
4.0
 40
5.0
 40
5.0
 40
5.0
 40
6.0
 40
6.0
 40
6.0
 40
7.0
 40
7.0
 40
7.0
 40
8.0
 40
8.0
 40
8.0
 40
9.0
 40
9.0
 40
9.0
 40
10.0
 40
10.0
 40
10.0
 40
11.0
 40
11.0
 40
11.0
 40
12.0
 40
12.0
 40
12.0
 40
13.0
 40
13.0
 40
13.0
 40
13.0
 10
90.41963159631871
 20
-141.5727538708568
 30
0.0
 10
90.20190156165091
 20
-141.7315727727268
 30
0.0
 10
90.10888398354918
 20
-141.8056423256597
 30
0.0
 10
90.05996362765862
 20
-141.9493028073946
 30
0.0
 10
90.05996362765862
 20
-141.9493028073946
 30
0.0
 10
90.83855520732509
 20
-141.9493028073946
 30
0.0
 10
90.83855520732509
 20
-141.9493028073946
 30
0.0
 10
90.83855520732509
 20
-141.9493028073946
 30
0.0
 10
90.83855520732509
 20
-142.1546304983155
 30
0.0
 10
90.83855520732509
 20
-142.1546304983155
 30
0.0
 10
90.83855520732509
 20
-142.1546304983155
 30
0.0
 10
89.81053871452653
 20
-142.1546304983155
 30
0.0
 10
89.81053871452653
 20
-142.1546304983155
 30
0.0
 10
89.84223359299084
 20
-141.7970295869466
 30
0.0
 10
89.90769040721058
 20
-141.7188259194314
 30
0.0
 10
90.29285208246151
 20
-141.4204806504088
 30
0.0
 10
90.54882267701558
 20
-141.2216986409099
 30
0.0
 10
90.61427949123532
 20
-141.1538302598505
 30
0.0
 10
90.61427949123532
 20
-141.016370949989
 30
0.0
 10
90.61427949123532
 20
-140.8978596652964
 30
0.0
 10
90.5422769955936
 20
-140.7669460368569
 30
0.0
 10
90.34556204338584
 20
-140.7669460368569
 30
0.0
 10
90.08545733424947
 20
-140.7669460368569
 30
0.0
 10
90.07718910508487
 20
-140.9974229248201
 30
0.0
 10
90.07271048095404
 20
-141.1138671522215
 30
0.0
 10
90.07271048095404
 20
-141.1138671522215
 30
0.0
 10
89.84843476486428
 20
-141.1138671522215
 30
0.0
 10
89.84843476486428
 20
-141.1138671522215
 30
0.0
 10
89.8570475035774
 20
-140.9867431288158
 30
0.0
 10
89.86772729958169
 20
-140.8747775255452
 30
0.0
 10
89.947998024388
 20
-140.7562662408526
 30
0.0
 10
90.05789657036748
 20
-140.5953802816914
 30
0.0
 10
90.24427623611949
 20
-140.561618345936
 30
0.0
 10
90.36037595397241
 20
-140.561618345936
 30
0.0
 10
90.63770614053502
 20
-140.561618345936
 30
0.0
 10
90.84510088874707
 20
-140.7455864448483
 30
0.0
 10
90.84510088874707
 20
-141.0184380072801
 30
0.0
 10
90.84510088874707
 20
-141.2471923475007
 30
0.0
 10
90.72865666134562
 20
-141.3464110974759
 30
0.0
 10
90.41963159631871
 20
-141.5727538708568
 30
0.0
  0
HATCH
  5
137
330
132
100
AcDbEntity
  8
_U+30EC_U+30A4_U+30E4_U+30FC 1
 62
     7
420
 16777215
100
AcDbHatch
 10
0.0
 20
0.0
 30
0.0
210
0.0
220
0.0
230
1.0
  2
SOLID
 70
     1
 71
     0
 91
        1
 92
        1
 93
        1
 72
     4
 94
        3
 73
     0
 74
     1
 95
       44
 96
       40
 40
0.0
 40
0.0
 40
0.0
 40
0.0
 40
1.0
 40
1.0
 40
1.0
 40
2.0
 40
2.0
 40
2.0
 40
3.0
 40
3.0
 40
3.0
 40
4.0
 40
4.0
 40
4.0
 40
5.0
 40
5.0
 40
5.0
 40
6.0
 40
6.0
 40
6.0
 40
7.0
 40
7.0
 40
7.0
 40
8.0
 40
8.0
 40
8.0
 40
9.0
 40
9.0
 40
9.0
 40
10.0
 40
10.0
 40
10.0
 40
11.0
 40
11.0
 40
11.0
 40
12.0
 40
12.0
 40
12.0
 40
13.0
 40
13.0
 40
13.0
 40
13.0
 10
90.41963159631871
 20
-141.5727538708568
 10
90.20190156165091
 20
-141.7315727727268
 10
90.10888398354918
 20
-141.8056423256597
 10
90.05996362765862
 20
-141.9493028073946
 10
90.05996362765862
 20
-141.9493028073946
 10
90.83855520732509
 20
-141.9493028073946
 10
90.83855520732509
 20
-141.9493028073946
 10
90.83855520732509
 20
-141.9493028073946
 10
90.83855520732509
 20
-142.1546304983155
 10
90.83855520732509
 20
-142.1546304983155
 10
90.83855520732509
 20
-142.1546304983155
 10
89.81053871452653
 20
-142.1546304983155
 10
89.81053871452653
 20
-142.1546304983155
 10
89.84223359299084
 20
-141.7970295869466
 10
89.90769040721058
 20
-141.7188259194314
 10
90.29285208246151
 20
-141.4204806504088
 10
90.54882267701558
 20
-141.2216986409099
 10
90.61427949123532
 20
-141.1538302598505
 10
90.61427949123532
 20
-141.016370949989
 10
90.61427949123532
 20
-140.8978596652964
 10
90.5422769955936
 20
-140.7669460368569
 10
90.34556204338584
 20
-140.7669460368569
 10
90.08545733424947
 20
-140.7669460368569
 10
90.07718910508487
 20
-140.9974229248201
 10
90.07271048095404
 20
-141.1138671522215
 10
90.07271048095404
 20
-141.1138671522215
 10
89.84843476486428
 20
-141.1138671522215
 10
89.84843476486428
 20
-141.1138671522215
 10
89.8570475035774
 20
-140.9867431288158
 10
89.86772729958169
 20
-140.8747775255452
 10
89.947998024388
 20
-140.7562662408526
 10
90.05789657036748
 20
-140.5953802816914
 10
90.24427623611949
 20
-140.561618345936
 10
90.36037595397241
 20
-140.561618345936
 10
90.63770614053502
 20
-140.561618345936
 10
90.84510088874707
 20
-140.7455864448483
 10
90.84510088874707
 20
-141.0184380072801
 10
90.84510088874707
 20
-141.2471923475007
 10
90.72865666134562
 20
-141.3464110974759
 10
90.41963159631871
 20
-141.5727538708568
 97
        0
 97
        0
 75
     2
 76
     1
 98
        0
  0
SPLINE
  5
138
330
132
100
AcDbEntity
  8
_U+30EC_U+30A4_U+30E4_U+30FC 1
370
     0
100
AcDbSpline
210
0.0
220
0.0
230
1.0
 70
    11
 71
     3
 72
    53
 73
    49
 74
     0
 42
0.0000000001
 43
0.0000000001
 12
1.0
 22
0.0
 32
0.0
 13
1.0
 23
0.0
 33
0.0
 40
0.0
 40
0.0
 40
0.0
 40
0.0
 40
1.0
 40
1.0
 40
1.0
 40
2.0
 40
2.0
 40
2.0
 40
3.0
 40
3.0
 40
3.0
 40
4.0
 40
4.0
 40
4.0
 40
5.0
 40
5.0
 40
5.0
 40
6.0
 40
6.0
 40
6.0
 40
7.0
 40
7.0
 40
7.0
 40
8.0
 40
8.0
 40
8.0
 40
9.0
 40
9.0
 40
9.0
 40
10.0
 40
10.0
 40
10.0
 40
11.0
 40
11.0
 40
11.0
 40
12.0
 40
12.0
 40
12.0
 40
13.0
 40
13.0
 40
13.0
 40
14.0
 40
14.0
 40
14.0
 40
15.0
 40
15.0
 40
15.0
 40
16.0
 40
16.0
 40
16.0
 40
16.0
 10
91.48451061080944
 20
-142.2052734019487
 30
0.0
 10
91.40630694329425
 20
-142.2052734019487
 30
0.0
 10
91.30467662647939
 20
-142.188392434071
 30
0.0
 10
91.20304630966451
 20
-142.1250026771424
 30
0.0
 10
91.02975800675645
 20
-142.0151041311629
 30
0.0
 10
91.0083984147479
 20
-141.8838459931749
 30
0.0
 10
90.98945038957903
 20
-141.7760145044866
 30
0.0
 10
90.98945038957903
 20
-141.7760145044866
 30
0.0
 10
91.21165904837764
 20
-141.7760145044866
 30
0.0
 10
91.21165904837764
 20
-141.7760145044866
 30
0.0
 10
91.26643606659312
 20
-141.9747965139855
 30
0.0
 10
91.39356008999884
 20
-142.0044243351586
 30
0.0
 10
91.48657766810058
 20
-142.0044243351586
 30
0.0
 10
91.6261040352532
 20
-142.0044243351586
 30
0.0
 10
91.77837725570124
 20
-141.9048610756349
 30
0.0
 10
91.77837725570124
 20
-141.6723171303805
 30
0.0
 10
91.77837725570124
 20
-141.4163465358265
 30
0.0
 10
91.5985432713712
 20
-141.3464110974759
 30
0.0
 10
91.47796492938745
 20
-141.3464110974759
 30
0.0
 10
91.44627005092316
 20
-141.3464110974759
 30
0.0
 10
91.30467662647939
 20
-141.3464110974759
 30
0.0
 10
91.21579316295994
 20
-141.4756021781728
 30
0.0
 10
91.21579316295994
 20
-141.4756021781728
 30
0.0
 10
91.04009329321221
 20
-141.4566541530039
 30
0.0
 10
91.04009329321221
 20
-141.4566541530039
 30
0.0
 10
91.04009329321221
 20
-141.4566541530039
 30
0.0
 10
91.16067163519595
 20
-140.610194192278
 30
0.0
 10
91.16067163519595
 20
-140.610194192278
 30
0.0
 10
91.16067163519595
 20
-140.610194192278
 30
0.0
 10
91.93926321486241
 20
-140.610194192278
 30
0.0
 10
91.93926321486241
 20
-140.610194192278
 30
0.0
 10
91.93926321486241
 20
-140.610194192278
 30
0.0
 10
91.93926321486241
 20
-140.8048420871946
 30
0.0
 10
91.93926321486241
 20
-140.8048420871946
 30
0.0
 10
91.93926321486241
 20
-140.8048420871946
 30
0.0
 10
91.32362465164826
 20
-140.8048420871946
 30
0.0
 10
91.32362465164826
 20
-140.8048420871946
 30
0.0
 10
91.32362465164826
 20
-140.8048420871946
 30
0.0
 10
91.25816783742852
 20
-141.2278998127833
 30
0.0
 10
91.25816783742852
 20
-141.2278998127833
 30
0.0
 10
91.31949053706596
 20
-141.1941378770279
 30
0.0
 10
91.40182831916344
 20
-141.1538302598505
 30
0.0
 10
91.52033960385603
 20
-141.1538302598505
 30
0.0
 10
91.77424314111894
 20
-141.1538302598505
 30
0.0
 10
92.01126571050413
 20
-141.3402099256025
 30
0.0
 10
92.01126571050413
 20
-141.6533691052117
 30
0.0
 10
92.01126571050413
 20
-141.9706623994032
 30
0.0
 10
91.78698999441437
 20
-142.2052734019487
 30
0.0
 10
91.48451061080944
 20
-142.2052734019487
 30
0.0
  0
HATCH
  5
139
330
132
100
AcDbEntity
  8
_U+30EC_U+30A4_U+30E4_U+30FC 1
 62
     7
420
 16777215
100
AcDbHatch
 10
0.0
 20
0.0
 30
0.0
210
0.0
220
0.0
230
1.0
  2
SOLID
 70
     1
 71
     0
 91
        1
 92
        1
 93
        1
 72
     4
 94
        3
 73
     0
 74
     1
 95
       53
 96
       49
 40
0.0
 40
0.0
 40
0.0
 40
0.0
 40
1.0
 40
1.0
 40
1.0
 40
2.0
 40
2.0
 40
2.0
 40
3.0
 40
3.0
 40
3.0
 40
4.0
 40
4.0
 40
4.0
 40
5.0
 40
5.0
 40
5.0
 40
6.0
 40
6.0
 40
6.0
 40
7.0
 40
7.0
 40
7.0
 40
8.0
 40
8.0
 40
8.0
 40
9.0
 40
9.0
 40
9.0
 40
10.0
 40
10.0
 40
10.0
 40
11.0
 40
11.0
 40
11.0
 40
12.0
 40
12.0
 40
12.0
 40
13.0
 40
13.0
 40
13.0
 40
14.0
 40
14.0
 40
14.0
 40
15.0
 40
15.0
 40
15.0
 40
16.0
 40
16.0
 40
16.0
 40
16.0
 10
91.48451061080944
 20
-142.2052734019487
 10
91.40630694329425
 20
-142.2052734019487
 10
91.30467662647939
 20
-142.188392434071
 10
91.20304630966451
 20
-142.1250026771424
 10
91.02975800675645
 20
-142.0151041311629
 10
91.0083984147479
 20
-141.8838459931749
 10
90.98945038957903
 20
-141.7760145044866
 10
90.98945038957903
 20
-141.7760145044866
 10
91.21165904837764
 20
-141.7760145044866
 10
91.21165904837764
 20
-141.7760145044866
 10
91.26643606659312
 20
-141.9747965139855
 10
91.39356008999884
 20
-142.0044243351586
 10
91.48657766810058
 20
-142.0044243351586
 10
91.6261040352532
 20
-142.0044243351586
 10
91.77837725570124
 20
-141.9048610756349
 10
91.77837725570124
 20
-141.6723171303805
 10
91.77837725570124
 20
-141.4163465358265
 10
91.5985432713712
 20
-141.3464110974759
 10
91.47796492938745
 20
-141.3464110974759
 10
91.44627005092316
 20
-141.3464110974759
 10
91.30467662647939
 20
-141.3464110974759
 10
91.21579316295994
 20
-141.4756021781728
 10
91.21579316295994
 20
-141.4756021781728
 10
91.04009329321221
 20
-141.4566541530039
 10
91.04009329321221
 20
-141.4566541530039
 10
91.04009329321221
 20
-141.4566541530039
 10
91.16067163519595
 20
-140.610194192278
 10
91.16067163519595
 20
-140.610194192278
 10
91.16067163519595
 20
-140.610194192278
 10
91.93926321486241
 20
-140.610194192278
 10
91.93926321486241
 20
-140.610194192278
 10
91.93926321486241
 20
-140.610194192278
 10
91.93926321486241
 20
-140.8048420871946
 10
91.93926321486241
 20
-140.8048420871946
 10
91.93926321486241
 20
-140.8048420871946
 10
91.32362465164826
 20
-140.8048420871946
 10
91.32362465164826
 20
-140.8048420871946
 10
91.32362465164826
 20
-140.8048420871946
 10
91.25816783742852
 20
-141.2278998127833
 10
91.25816783742852
 20
-141.2278998127833
 10
91.31949053706596
 20
-141.1941378770279
 10
91.40182831916344
 20
-141.1538302598505
 10
91.52033960385603
 20
-141.1538302598505
 10
91.77424314111894
 20
-141.1538302598505
 10
92.01126571050413
 20
-141.3402099256025
 10
92.01126571050413
 20
-141.6533691052117
 10
92.01126571050413
 20
-141.9706623994032
 10
91.78698999441437
 20
-142.2052734019487
 10
91.48451061080944
 20
-142.2052734019487
 97
        0
 97
        0
 75
     2
 76
     1
 98
        0
  0
POLYLINE
  5
13A
330
132
100
AcDbEntity
  8
_U+30EC_U+30A4_U+30E4_U+30FC 1
370
     0
100
AcDb2dPolyline
 66
     1
 10
0.0
 20
0.0
 30
0.0
  0
VERTEX
  5
13B
330
13A
100
AcDbEntity
  8
_U+30EC_U+30A4_U+30E4_U+30FC 1
370
     0
100
AcDbVertex
100
AcDb2dVertex
 10
92.24036456027325
 20
-142.1546304983155
 30
0.0
  0
VERTEX
  5
13C
330
13A
100
AcDbEntity
  8
_U+30EC_U+30A4_U+30E4_U+30FC 1
370
     0
100
AcDbVertex
100
AcDb2dVertex
 10
92.24036456027325
 20
-141.9027940183437
 30
0.0
  0
VERTEX
  5
13D
330
13A
100
AcDbEntity
  8
_U+30EC_U+30A4_U+30E4_U+30FC 1
370
     0
100
AcDbVertex
100
AcDb2dVertex
 10
92.492201040245
 20
-141.9027940183437
 30
0.0
  0
VERTEX
  5
13E
330
13A
100
AcDbEntity
  8
_U+30EC_U+30A4_U+30E4_U+30FC 1
370
     0
100
AcDbVertex
100
AcDb2dVertex
 10
92.492201040245
 20
-142.1546304983155
 30
0.0
  0
VERTEX
  5
13F
330
13A
100
AcDbEntity
  8
_U+30EC_U+30A4_U+30E4_U+30FC 1
370
     0
100
AcDbVertex
100
AcDb2dVertex
 10
92.24036456027325
 20
-142.1546304983155
 30
0.0
  0
SEQEND
  5
140
330
13A
100
AcDbEntity
  8
_U+30EC_U+30A4_U+30E4_U+30FC 1
370
     0
  0
HATCH
  5
141
330
132
100
AcDbEntity
  8
_U+30EC_U+30A4_U+30E4_U+30FC 1
 62
     7
420
 16777215
100
AcDbHatch
 10
0.0
 20
0.0
 30
0.0
210
0.0
220
0.0
230
1.0
  2
SOLID
 70
     1
 71
     0
 91
        1
 92
        1
 93
        4
 72
     1
 10
92.24036456027325
 20
-142.1546304983155
 11
92.24036456027325
 21
-141.9027940183437
 72
     1
 10
92.24036456027325
 20
-141.9027940183437
 11
92.492201040245
 21
-141.9027940183437
 72
     1
 10
92.492201040245
 20
-141.9027940183437
 11
92.492201040245
 21
-142.1546304983155
 72
     1
 10
92.492201040245
 20
-142.1546304983155
 11
92.24036456027325
 21
-142.1546304983155
 97
        0
 75
     2
 76
     1
 98
        0
  0
SPLINE
  5
142
330
132
100
AcDbEntity
  8
_U+30EC_U+30A4_U+30E4_U+30FC 1
370
     0
100
AcDbSpline
210
0.0
220
0.0
230
1.0
 70
    11
 71
     3
 72
    53
 73
    49
 74
     0
 42
0.0000000001
 43
0.0000000001
 12
1.0
 22
0.0
 32
0.0
 13
1.0
 23
0.0
 33
0.0
 40
0.0
 40
0.0
 40
0.0
 40
0.0
 40
1.0
 40
1.0
 40
1.0
 40
2.0
 40
2.0
 40
2.0
 40
3.0
 40
3.0
 40
3.0
 40
4.0
 40
4.0
 40
4.0
 40
5.0
 40
5.0
 40
5.0
 40
6.0
 40
6.0
 40
6.0
 40
7.0
 40
7.0
 40
7.0
 40
8.0
 40
8.0
 40
8.0
 40
9.0
 40
9.0
 40
9.0
 40
10.0
 40
10.0
 40
10.0
 40
11.0
 40
11.0
 40
11.0
 40
12.0
 40
12.0
 40
12.0
 40
13.0
 40
13.0
 40
13.0
 40
14.0
 40
14.0
 40
14.0
 40
15.0
 40
15.0
 40
15.0
 40
16.0
 40
16.0
 40
16.0
 40
16.0
 10
93.20946992027403
 20
-142.2052734019487
 30
0.0
 10
93.13126625275885
 20
-142.2052734019487
 30
0.0
 10
93.02963593594399
 20
-142.188392434071
 30
0.0
 10
92.92800561912911
 20
-142.1250026771424
 30
0.0
 10
92.75471731622105
 20
-142.0151041311629
 30
0.0
 10
92.7333577242125
 20
-141.8838459931749
 30
0.0
 10
92.71440969904363
 20
-141.7760145044866
 30
0.0
 10
92.71440969904363
 20
-141.7760145044866
 30
0.0
 10
92.93661835784224
 20
-141.7760145044866
 30
0.0
 10
92.93661835784224
 20
-141.7760145044866
 30
0.0
 10
92.99139537605771
 20
-141.9747965139855
 30
0.0
 10
93.11851939946342
 20
-142.0044243351586
 30
0.0
 10
93.21153697756517
 20
-142.0044243351586
 30
0.0
 10
93.3510633447178
 20
-142.0044243351586
 30
0.0
 10
93.50333656516584
 20
-141.9048610756349
 30
0.0
 10
93.50333656516584
 20
-141.6723171303805
 30
0.0
 10
93.50333656516584
 20
-141.4163465358265
 30
0.0
 10
93.3235025808358
 20
-141.3464110974759
 30
0.0
 10
93.20292423885205
 20
-141.3464110974759
 30
0.0
 10
93.17122936038776
 20
-141.3464110974759
 30
0.0
 10
93.02963593594399
 20
-141.3464110974759
 30
0.0
 10
92.94075247242453
 20
-141.4756021781728
 30
0.0
 10
92.94075247242453
 20
-141.4756021781728
 30
0.0
 10
92.7650526026768
 20
-141.4566541530039
 30
0.0
 10
92.7650526026768
 20
-141.4566541530039
 30
0.0
 10
92.7650526026768
 20
-141.4566541530039
 30
0.0
 10
92.88563094466055
 20
-140.610194192278
 30
0.0
 10
92.88563094466055
 20
-140.610194192278
 30
0.0
 10
92.88563094466055
 20
-140.610194192278
 30
0.0
 10
93.664222524327
 20
-140.610194192278
 30
0.0
 10
93.664222524327
 20
-140.610194192278
 30
0.0
 10
93.664222524327
 20
-140.610194192278
 30
0.0
 10
93.664222524327
 20
-140.8048420871946
 30
0.0
 10
93.664222524327
 20
-140.8048420871946
 30
0.0
 10
93.664222524327
 20
-140.8048420871946
 30
0.0
 10
93.04858396111285
 20
-140.8048420871946
 30
0.0
 10
93.04858396111285
 20
-140.8048420871946
 30
0.0
 10
93.04858396111285
 20
-140.8048420871946
 30
0.0
 10
92.98312714689311
 20
-141.2278998127833
 30
0.0
 10
92.98312714689311
 20
-141.2278998127833
 30
0.0
 10
93.04444984653055
 20
-141.1941378770279
 30
0.0
 10
93.12678762862802
 20
-141.1538302598505
 30
0.0
 10
93.24529891332062
 20
-141.1538302598505
 30
0.0
 10
93.49920245058354
 20
-141.1538302598505
 30
0.0
 10
93.73622501996873
 20
-141.3402099256025
 30
0.0
 10
93.73622501996873
 20
-141.6533691052117
 30
0.0
 10
93.73622501996873
 20
-141.9706623994032
 30
0.0
 10
93.51194930387896
 20
-142.2052734019487
 30
0.0
 10
93.20946992027403
 20
-142.2052734019487
 30
0.0
  0
HATCH
  5
143
330
132
100
AcDbEntity
  8
_U+30EC_U+30A4_U+30E4_U+30FC 1
 62
     7
420
 16777215
100
AcDbHatch
 10
0.0
 20
0.0
 30
0.0
210
0.0
220
0.0
230
1.0
  2
SOLID
 70
     1
 71
     0
 91
        1
 92
        1
 93
        1
 72
     4
 94
        3
 73
     0
 74
     1
 95
       53
 96
       49
 40
0.0
 40
0.0
 40
0.0
 40
0.0
 40
1.0
 40
1.0
 40
1.0
 40
2.0
 40
2.0
 40
2.0
 40
3.0
 40
3.0
 40
3.0
 40
4.0
 40
4.0
 40
4.0
 40
5.0
 40
5.0
 40
5.0
 40
6.0
 40
6.0
 40
6.0
 40
7.0
 40
7.0
 40
7.0
 40
8.0
 40
8.0
 40
8.0
 40
9.0
 40
9.0
 40
9.0
 40
10.0
 40
10.0
 40
10.0
 40
11.0
 40
11.0
 40
11.0
 40
12.0
 40
12.0
 40
12.0
 40
13.0
 40
13.0
 40
13.0
 40
14.0
 40
14.0
 40
14.0
 40
15.0
 40
15.0
 40
15.0
 40
16.0
 40
16.0
 40
16.0
 40
16.0
 10
93.20946992027403
 20
-142.2052734019487
 10
93.13126625275885
 20
-142.2052734019487
 10
93.02963593594399
 20
-142.188392434071
 10
92.92800561912911
 20
-142.1250026771424
 10
92.75471731622105
 20
-142.0151041311629
 10
92.7333577242125
 20
-141.8838459931749
 10
92.71440969904363
 20
-141.7760145044866
 10
92.71440969904363
 20
-141.7760145044866
 10
92.93661835784224
 20
-141.7760145044866
 10
92.93661835784224
 20
-141.7760145044866
 10
92.99139537605771
 20
-141.9747965139855
 10
93.11851939946342
 20
-142.0044243351586
 10
93.21153697756517
 20
-142.0044243351586
 10
93.3510633447178
 20
-142.0044243351586
 10
93.50333656516584
 20
-141.9048610756349
 10
93.50333656516584
 20
-141.6723171303805
 10
93.50333656516584
 20
-141.4163465358265
 10
93.3235025808358
 20
-141.3464110974759
 10
93.20292423885205
 20
-141.3464110974759
 10
93.17122936038776
 20
-141.3464110974759
 10
93.02963593594399
 20
-141.3464110974759
 10
92.94075247242453
 20
-141.4756021781728
 10
92.94075247242453
 20
-141.4756021781728
 10
92.7650526026768
 20
-141.4566541530039
 10
92.7650526026768
 20
-141.4566541530039
 10
92.7650526026768
 20
-141.4566541530039
 10
92.88563094466055
 20
-140.610194192278
 10
92.88563094466055
 20
-140.610194192278
 10
92.88563094466055
 20
-140.610194192278
 10
93.664222524327
 20
-140.610194192278
 10
93.664222524327
 20
-140.610194192278
 10
93.664222524327
 20
-140.610194192278
 10
93.664222524327
 20
-140.8048420871946
 10
93.664222524327
 20
-140.8048420871946
 10
93.664222524327
 20
-140.8048420871946
 10
93.04858396111285
 20
-140.8048420871946
 10
93.04858396111285
 20
-140.8048420871946
 10
93.04858396111285
 20
-140.8048420871946
 10
92.98312714689311
 20
-141.2278998127833
 10
92.98312714689311
 20
-141.2278998127833
 10
93.04444984653055
 20
-141.1941378770279
 10
93.12678762862802
 20
-141.1538302598505
 10
93.24529891332062
 20
-141.1538302598505
 10
93.49920245058354
 20
-141.1538302598505
 10
93.73622501996873
 20
-141.3402099256025
 10
93.73622501996873
 20
-141.6533691052117
 10
93.73622501996873
 20
-141.9706623994032
 10
93.51194930387896
 20
-142.2052734019487
 10
93.20946992027403
 20
-142.2052734019487
 97
        0
 97
        0
 75
     2
 76
     1
 98
        0
  0
ENDBLK
  5
135
330
132
100
AcDbEntity
  8
0
100
AcDbBlockEnd
  0
BLOCK
  5
15B
330
159
100
AcDbEntity
  8
0
100
AcDbBlockBegin
  2
block 9
 70
     0
 10
0.0
 20
0.0
 30
0.0
  3
block 9
  1

  0
SPLINE
  5
15D
330
159
100
AcDbEntity
  8
_U+30EC_U+30A4_U+30E4_U+30FC 1
370
     0
100
AcDbSpline
210
0.0
220
0.0
230
1.0
 70
    11
 71
     3
 72
    32
 73
    28
 74
     0
 42
0.0000000001
 43
0.0000000001
 12
1.0
 22
0.0
 32
0.0
 13
1.0
 23
0.0
 33
0.0
 40
0.0
 40
0.0
 40
0.0
 40
0.0
 40
1.0
 40
1.0
 40
1.0
 40
2.0
 40
2.0
 40
2.0
 40
3.0
 40
3.0
 40
3.0
 40
4.0
 40
4.0
 40
4.0
 40
5.0
 40
5.0
 40
5.0
 40
6.0
 40
6.0
 40
6.0
 40
7.0
 40
7.0
 40
7.0
 40
8.0
 40
8.0
 40
8.0
 40
9.0
 40
9.0
 40
9.0
 40
9.0
 10
107.8638725858813
 20
-135.5117973836568
 30
0.0
 10
107.8638725858813
 20
-136.0278726873472
 30
0.0
 10
107.3099012318531
 20
-136.0361409165118
 30
0.0
 10
107.0959608022191
 20
-136.0361409165118
 30
0.0
 10
106.8654839142559
 20
-136.0361409165118
 30
0.0
 10
106.2181504725774
 20
-136.0171928913429
 30
0.0
 10
106.2181504725774
 20
-135.4735568237705
 30
0.0
 10
106.2181504725774
 20
-135.3002685208624
 30
0.0
 10
106.288085910928
 20
-135.0546332127641
 30
0.0
 10
106.6201931157061
 20
-135.0167371624264
 30
0.0
 10
106.6201931157061
 20
-135.0167371624264
 30
0.0
 10
106.6201931157061
 20
-135.2303330825119
 30
0.0
 10
106.6201931157061
 20
-135.2303330825119
 30
0.0
 10
106.5630045306509
 20
-135.2410128785161
 30
0.0
 10
106.4148654247852
 20
-135.2727077569805
 30
0.0
 10
106.4148654247852
 20
-135.4756238810617
 30
0.0
 10
106.4148654247852
 20
-135.7677679782109
 30
0.0
 10
106.742838514981
 20
-135.8077310858397
 30
0.0
 10
106.9478216963533
 20
-135.8204779391352
 30
0.0
 10
106.8696180288382
 20
-135.7274603610334
 30
0.0
 10
106.8103623864919
 20
-135.659591979974
 30
0.0
 10
106.8103623864919
 20
-135.4776909383528
 30
0.0
 10
106.8103623864919
 20
-135.2978569540228
 30
0.0
 10
106.9185383847287
 20
-134.9953775704178
 30
0.0
 10
107.3247151424397
 20
-134.9953775704178
 30
0.0
 10
107.6440754939223
 20
-134.9953775704178
 30
0.0
 10
107.8638725858813
 20
-135.1945040894653
 30
0.0
 10
107.8638725858813
 20
-135.5117973836568
 30
0.0
  0
SPLINE
  5
15E
330
159
100
AcDbEntity
  8
_U+30EC_U+30A4_U+30E4_U+30FC 1
370
     0
100
AcDbSpline
210
0.0
220
0.0
230
1.0
 70
    11
 71
     3
 72
    17
 73
    13
 74
     0
 42
0.0000000001
 43
0.0000000001
 12
1.0
 22
0.0
 32
0.0
 13
1.0
 23
0.0
 33
0.0
 40
0.0
 40
0.0
 40
0.0
 40
0.0
 40
1.0
 40
1.0
 40
1.0
 40
2.0
 40
2.0
 40
2.0
 40
3.0
 40
3.0
 40
3.0
 40
4.0
 40
4.0
 40
4.0
 40
4.0
 10
107.0050102814085
 20
-135.4945719062305
 30
0.0
 10
107.0050102814085
 20
-135.7570881822066
 30
0.0
 10
107.2165391442028
 20
-135.7949842325443
 30
0.0
 10
107.3329833716043
 20
-135.7949842325443
 30
0.0
 10
107.508683241352
 20
-135.7949842325443
 30
0.0
 10
107.6716362578043
 20
-135.6998995971514
 30
0.0
 10
107.6716362578043
 20
-135.5159314982391
 30
0.0
 10
107.6716362578043
 20
-135.3953531562553
 30
0.0
 10
107.612380615458
 20
-135.2196532865076
 30
0.0
 10
107.3267821997308
 20
-135.2196532865076
 30
0.0
 10
107.1025064836411
 20
-135.2196532865076
 30
0.0
 10
107.0050102814085
 20
-135.3595241632087
 30
0.0
 10
107.0050102814085
 20
-135.4945719062305
 30
0.0
  0
HATCH
  5
15F
330
159
100
AcDbEntity
  8
_U+30EC_U+30A4_U+30E4_U+30FC 1
 62
     7
420
 16777215
100
AcDbHatch
 10
0.0
 20
0.0
 30
0.0
210
0.0
220
0.0
230
1.0
  2
SOLID
 70
     1
 71
     0
 91
        2
 92
        1
 93
        1
 72
     4
 94
        3
 73
     0
 74
     1
 95
       32
 96
       28
 40
0.0
 40
0.0
 40
0.0
 40
0.0
 40
1.0
 40
1.0
 40
1.0
 40
2.0
 40
2.0
 40
2.0
 40
3.0
 40
3.0
 40
3.0
 40
4.0
 40
4.0
 40
4.0
 40
5.0
 40
5.0
 40
5.0
 40
6.0
 40
6.0
 40
6.0
 40
7.0
 40
7.0
 40
7.0
 40
8.0
 40
8.0
 40
8.0
 40
9.0
 40
9.0
 40
9.0
 40
9.0
 10
107.8638725858813
 20
-135.5117973836568
 10
107.8638725858813
 20
-136.0278726873472
 10
107.3099012318531
 20
-136.0361409165118
 10
107.0959608022191
 20
-136.0361409165118
 10
106.8654839142559
 20
-136.0361409165118
 10
106.2181504725774
 20
-136.0171928913429
 10
106.2181504725774
 20
-135.4735568237705
 10
106.2181504725774
 20
-135.3002685208624
 10
106.288085910928
 20
-135.0546332127641
 10
106.6201931157061
 20
-135.0167371624264
 10
106.6201931157061
 20
-135.0167371624264
 10
106.6201931157061
 20
-135.2303330825119
 10
106.6201931157061
 20
-135.2303330825119
 10
106.5630045306509
 20
-135.2410128785161
 10
106.4148654247852
 20
-135.2727077569805
 10
106.4148654247852
 20
-135.4756238810617
 10
106.4148654247852
 20
-135.7677679782109
 10
106.742838514981
 20
-135.8077310858397
 10
106.9478216963533
 20
-135.8204779391352
 10
106.8696180288382
 20
-135.7274603610334
 10
106.8103623864919
 20
-135.659591979974
 10
106.8103623864919
 20
-135.4776909383528
 10
106.8103623864919
 20
-135.2978569540228
 10
106.9185383847287
 20
-134.9953775704178
 10
107.3247151424397
 20
-134.9953775704178
 10
107.6440754939223
 20
-134.9953775704178
 10
107.8638725858813
 20
-135.1945040894653
 10
107.8638725858813
 20
-135.5117973836568
 97
        0
 97
        0
 92
        1
 93
        1
 72
     4
 94
        3
 73
     0
 74
     1
 95
       17
 96
       13
 40
0.0
 40
0.0
 40
0.0
 40
0.0
 40
1.0
 40
1.0
 40
1.0
 40
2.0
 40
2.0
 40
2.0
 40
3.0
 40
3.0
 40
3.0
 40
4.0
 40
4.0
 40
4.0
 40
4.0
 10
107.0050102814085
 20
-135.4945719062305
 10
107.0050102814085
 20
-135.7570881822066
 10
107.2165391442028
 20
-135.7949842325443
 10
107.3329833716043
 20
-135.7949842325443
 10
107.508683241352
 20
-135.7949842325443
 10
107.6716362578043
 20
-135.6998995971514
 10
107.6716362578043
 20
-135.5159314982391
 10
107.6716362578043
 20
-135.3953531562553
 10
107.612380615458
 20
-135.2196532865076
 10
107.3267821997308
 20
-135.2196532865076
 10
107.1025064836411
 20
-135.2196532865076
 10
107.0050102814085
 20
-135.3595241632087
 10
107.0050102814085
 20
-135.4945719062305
 97
        0
 97
        0
 75
     2
 76
     1
 98
        0
  0
POLYLINE
  5
160
330
159
100
AcDbEntity
  8
_U+30EC_U+30A4_U+30E4_U+30FC 1
370
     0
100
AcDb2dPolyline
 66
     1
 10
0.0
 20
0.0
 30
0.0
  0
VERTEX
  5
161
330
160
100
AcDbEntity
  8
_U+30EC_U+30A4_U+30E4_U+30FC 1
370
     0
100
AcDbVertex
100
AcDb2dVertex
 10
107.8132296822481
 20
-134.7790255739441
 30
0.0
  0
VERTEX
  5
162
330
160
100
AcDbEntity
  8
_U+30EC_U+30A4_U+30E4_U+30FC 1
370
     0
100
AcDbVertex
100
AcDb2dVertex
 10
107.5613932022763
 20
-134.7790255739441
 30
0.0
  0
VERTEX
  5
163
330
160
100
AcDbEntity
  8
_U+30EC_U+30A4_U+30E4_U+30FC 1
370
     0
100
AcDbVertex
100
AcDb2dVertex
 10
107.5613932022763
 20
-134.5271890939724
 30
0.0
  0
VERTEX
  5
164
330
160
100
AcDbEntity
  8
_U+30EC_U+30A4_U+30E4_U+30FC 1
370
     0
100
AcDbVertex
100
AcDb2dVertex
 10
107.8132296822481
 20
-134.5271890939724
 30
0.0
  0
VERTEX
  5
165
330
160
100
AcDbEntity
  8
_U+30EC_U+30A4_U+30E4_U+30FC 1
370
     0
100
AcDbVertex
100
AcDb2dVertex
 10
107.8132296822481
 20
-134.7790255739441
 30
0.0
  0
SEQEND
  5
166
330
160
100
AcDbEntity
  8
_U+30EC_U+30A4_U+30E4_U+30FC 1
370
     0
  0
HATCH
  5
167
330
159
100
AcDbEntity
  8
_U+30EC_U+30A4_U+30E4_U+30FC 1
 62
     7
420
 16777215
100
AcDbHatch
 10
0.0
 20
0.0
 30
0.0
210
0.0
220
0.0
230
1.0
  2
SOLID
 70
     1
 71
     0
 91
        1
 92
        1
 93
        4
 72
     1
 10
107.8132296822481
 20
-134.7790255739441
 11
107.5613932022763
 21
-134.7790255739441
 72
     1
 10
107.5613932022763
 20
-134.7790255739441
 11
107.5613932022763
 21
-134.5271890939724
 72
     1
 10
107.5613932022763
 20
-134.5271890939724
 11
107.8132296822481
 21
-134.5271890939724
 72
     1
 10
107.8132296822481
 20
-134.5271890939724
 11
107.8132296822481
 21
-134.7790255739441
 97
        0
 75
     2
 76
     1
 98
        0
  0
SPLINE
  5
168
330
159
100
AcDbEntity
  8
_U+30EC_U+30A4_U+30E4_U+30FC 1
370
     0
100
AcDbSpline
210
0.0
220
0.0
230
1.0
 70
    11
 71
     3
 72
    53
 73
    49
 74
     0
 42
0.0000000001
 43
0.0000000001
 12
1.0
 22
0.0
 32
0.0
 13
1.0
 23
0.0
 33
0.0
 40
0.0
 40
0.0
 40
0.0
 40
0.0
 40
1.0
 40
1.0
 40
1.0
 40
2.0
 40
2.0
 40
2.0
 40
3.0
 40
3.0
 40
3.0
 40
4.0
 40
4.0
 40
4.0
 40
5.0
 40
5.0
 40
5.0
 40
6.0
 40
6.0
 40
6.0
 40
7.0
 40
7.0
 40
7.0
 40
8.0
 40
8.0
 40
8.0
 40
9.0
 40
9.0
 40
9.0
 40
10.0
 40
10.0
 40
10.0
 40
11.0
 40
11.0
 40
11.0
 40
12.0
 40
12.0
 40
12.0
 40
13.0
 40
13.0
 40
13.0
 40
14.0
 40
14.0
 40
14.0
 40
15.0
 40
15.0
 40
15.0
 40
16.0
 40
16.0
 40
16.0
 40
16.0
 10
107.8638725858813
 20
-133.8099202139434
 30
0.0
 10
107.8638725858813
 20
-133.8881238814585
 30
0.0
 10
107.8469916180035
 20
-133.9897541982734
 30
0.0
 10
107.7836018610749
 20
-134.0913845150883
 30
0.0
 10
107.6737033150955
 20
-134.2646728179963
 30
0.0
 10
107.5424451771075
 20
-134.2860324100049
 30
0.0
 10
107.4346136884191
 20
-134.3049804351738
 30
0.0
 10
107.4346136884191
 20
-134.3049804351738
 30
0.0
 10
107.4346136884191
 20
-134.0827717763752
 30
0.0
 10
107.4346136884191
 20
-134.0827717763752
 30
0.0
 10
107.633395697918
 20
-134.0279947581597
 30
0.0
 10
107.6630235190912
 20
-133.900870734754
 30
0.0
 10
107.6630235190912
 20
-133.8078531566522
 30
0.0
 10
107.6630235190912
 20
-133.6683267894996
 30
0.0
 10
107.5634602595675
 20
-133.5160535690515
 30
0.0
 10
107.3309163143131
 20
-133.5160535690515
 30
0.0
 10
107.074945719759
 20
-133.5160535690515
 30
0.0
 10
107.0050102814085
 20
-133.6958875533816
 30
0.0
 10
107.0050102814085
 20
-133.8164658953653
 30
0.0
 10
107.0050102814085
 20
-133.8481607738296
 30
0.0
 10
107.0050102814085
 20
-133.9897541982734
 30
0.0
 10
107.1342013621053
 20
-134.0786376617928
 30
0.0
 10
107.1342013621053
 20
-134.0786376617928
 30
0.0
 10
107.1152533369365
 20
-134.2543375315406
 30
0.0
 10
107.1152533369365
 20
-134.2543375315406
 30
0.0
 10
107.1152533369365
 20
-134.2543375315406
 30
0.0
 10
106.2687933762106
 20
-134.1337591895569
 30
0.0
 10
106.2687933762106
 20
-134.1337591895569
 30
0.0
 10
106.2687933762106
 20
-134.1337591895569
 30
0.0
 10
106.2687933762106
 20
-133.3551676098904
 30
0.0
 10
106.2687933762106
 20
-133.3551676098904
 30
0.0
 10
106.2687933762106
 20
-133.3551676098904
 30
0.0
 10
106.4634412711272
 20
-133.3551676098904
 30
0.0
 10
106.4634412711272
 20
-133.3551676098904
 30
0.0
 10
106.4634412711272
 20
-133.3551676098904
 30
0.0
 10
106.4634412711272
 20
-133.9708061731045
 30
0.0
 10
106.4634412711272
 20
-133.9708061731045
 30
0.0
 10
106.4634412711272
 20
-133.9708061731045
 30
0.0
 10
106.8864989967159
 20
-134.0362629873243
 30
0.0
 10
106.8864989967159
 20
-134.0362629873243
 30
0.0
 10
106.8527370609604
 20
-133.9749402876868
 30
0.0
 10
106.812429443783
 20
-133.8926025055894
 30
0.0
 10
106.812429443783
 20
-133.7740912208968
 30
0.0
 10
106.812429443783
 20
-133.5201876836338
 30
0.0
 10
106.998809109535
 20
-133.2831651142486
 30
0.0
 10
107.3119682891442
 20
-133.2831651142486
 30
0.0
 10
107.6292615833357
 20
-133.2831651142486
 30
0.0
 10
107.8638725858813
 20
-133.5074408303384
 30
0.0
 10
107.8638725858813
 20
-133.8099202139434
 30
0.0
  0
HATCH
  5
169
330
159
100
AcDbEntity
  8
_U+30EC_U+30A4_U+30E4_U+30FC 1
 62
     7
420
 16777215
100
AcDbHatch
 10
0.0
 20
0.0
 30
0.0
210
0.0
220
0.0
230
1.0
  2
SOLID
 70
     1
 71
     0
 91
        1
 92
        1
 93
        1
 72
     4
 94
        3
 73
     0
 74
     1
 95
       53
 96
       49
 40
0.0
 40
0.0
 40
0.0
 40
0.0
 40
1.0
 40
1.0
 40
1.0
 40
2.0
 40
2.0
 40
2.0
 40
3.0
 40
3.0
 40
3.0
 40
4.0
 40
4.0
 40
4.0
 40
5.0
 40
5.0
 40
5.0
 40
6.0
 40
6.0
 40
6.0
 40
7.0
 40
7.0
 40
7.0
 40
8.0
 40
8.0
 40
8.0
 40
9.0
 40
9.0
 40
9.0
 40
10.0
 40
10.0
 40
10.0
 40
11.0
 40
11.0
 40
11.0
 40
12.0
 40
12.0
 40
12.0
 40
13.0
 40
13.0
 40
13.0
 40
14.0
 40
14.0
 40
14.0
 40
15.0
 40
15.0
 40
15.0
 40
16.0
 40
16.0
 40
16.0
 40
16.0
 10
107.8638725858813
 20
-133.8099202139434
 10
107.8638725858813
 20
-133.8881238814585
 10
107.8469916180035
 20
-133.9897541982734
 10
107.7836018610749
 20
-134.0913845150883
 10
107.6737033150955
 20
-134.2646728179963
 10
107.5424451771075
 20
-134.2860324100049
 10
107.4346136884191
 20
-134.3049804351738
 10
107.4346136884191
 20
-134.3049804351738
 10
107.4346136884191
 20
-134.0827717763752
 10
107.4346136884191
 20
-134.0827717763752
 10
107.633395697918
 20
-134.0279947581597
 10
107.6630235190912
 20
-133.900870734754
 10
107.6630235190912
 20
-133.8078531566522
 10
107.6630235190912
 20
-133.6683267894996
 10
107.5634602595675
 20
-133.5160535690515
 10
107.3309163143131
 20
-133.5160535690515
 10
107.074945719759
 20
-133.5160535690515
 10
107.0050102814085
 20
-133.6958875533816
 10
107.0050102814085
 20
-133.8164658953653
 10
107.0050102814085
 20
-133.8481607738296
 10
107.0050102814085
 20
-133.9897541982734
 10
107.1342013621053
 20
-134.0786376617928
 10
107.1342013621053
 20
-134.0786376617928
 10
107.1152533369365
 20
-134.2543375315406
 10
107.1152533369365
 20
-134.2543375315406
 10
107.1152533369365
 20
-134.2543375315406
 10
106.2687933762106
 20
-134.1337591895569
 10
106.2687933762106
 20
-134.1337591895569
 10
106.2687933762106
 20
-134.1337591895569
 10
106.2687933762106
 20
-133.3551676098904
 10
106.2687933762106
 20
-133.3551676098904
 10
106.2687933762106
 20
-133.3551676098904
 10
106.4634412711272
 20
-133.3551676098904
 10
106.4634412711272
 20
-133.3551676098904
 10
106.4634412711272
 20
-133.3551676098904
 10
106.4634412711272
 20
-133.9708061731045
 10
106.4634412711272
 20
-133.9708061731045
 10
106.4634412711272
 20
-133.9708061731045
 10
106.8864989967159
 20
-134.0362629873243
 10
106.8864989967159
 20
-134.0362629873243
 10
106.8527370609604
 20
-133.9749402876868
 10
106.812429443783
 20
-133.8926025055894
 10
106.812429443783
 20
-133.7740912208968
 10
106.812429443783
 20
-133.5201876836338
 10
106.998809109535
 20
-133.2831651142486
 10
107.3119682891442
 20
-133.2831651142486
 10
107.6292615833357
 20
-133.2831651142486
 10
107.8638725858813
 20
-133.5074408303384
 10
107.8638725858813
 20
-133.8099202139434
 97
        0
 97
        0
 75
     2
 76
     1
 98
        0
  0
ENDBLK
  5
15C
330
159
100
AcDbEntity
  8
0
100
AcDbBlockEnd
  0
BLOCK
  5
178
330
176
100
AcDbEntity
  8
0
100
AcDbBlockBegin
  2
block 10
 70
     0
 10
0.0
 20
0.0
 30
0.0
  3
block 10
  1

  0
SPLINE
  5
17A
330
176
100
AcDbEntity
  8
_U+30EC_U+30A4_U+30E4_U+30FC 1
370
     0
100
AcDbSpline
210
0.0
220
0.0
230
1.0
 70
    11
 71
     3
 72
    44
 73
    40
 74
     0
 42
0.0000000001
 43
0.0000000001
 12
1.0
 22
0.0
 32
0.0
 13
1.0
 23
0.0
 33
0.0
 40
0.0
 40
0.0
 40
0.0
 40
0.0
 40
1.0
 40
1.0
 40
1.0
 40
2.0
 40
2.0
 40
2.0
 40
3.0
 40
3.0
 40
3.0
 40
4.0
 40
4.0
 40
4.0
 40
5.0
 40
5.0
 40
5.0
 40
6.0
 40
6.0
 40
6.0
 40
7.0
 40
7.0
 40
7.0
 40
8.0
 40
8.0
 40
8.0
 40
9.0
 40
9.0
 40
9.0
 40
10.0
 40
10.0
 40
10.0
 40
11.0
 40
11.0
 40
11.0
 40
12.0
 40
12.0
 40
12.0
 40
13.0
 40
13.0
 40
13.0
 40
13.0
 10
90.03998207384417
 20
-129.7388508790236
 30
0.0
 10
90.01655542454448
 20
-129.6944091472639
 30
0.0
 10
89.99554034208445
 20
-129.6416991863396
 30
0.0
 10
89.99330103001904
 20
-129.4108777888278
 30
0.0
 10
89.98916691543674
 20
-129.1676540475692
 30
0.0
 10
89.92991127309044
 20
-129.0980631187672
 30
0.0
 10
89.75214434605155
 20
-129.0980631187672
 30
0.0
 10
89.75214434605155
 20
-129.0980631187672
 30
0.0
 10
89.34390053104944
 20
-129.0980631187672
 30
0.0
 10
89.34390053104944
 20
-129.0980631187672
 30
0.0
 10
89.34390053104944
 20
-129.0980631187672
 30
0.0
 10
89.34390053104944
 20
-129.7388508790236
 30
0.0
 10
89.34390053104944
 20
-129.7388508790236
 30
0.0
 10
89.34390053104944
 20
-129.7388508790236
 30
0.0
 10
89.10911727372967
 20
-129.7388508790236
 30
0.0
 10
89.10911727372967
 20
-129.7388508790236
 30
0.0
 10
89.10911727372967
 20
-129.7388508790236
 30
0.0
 10
89.10911727372967
 20
-128.1945868277604
 30
0.0
 10
89.10911727372967
 20
-128.1945868277604
 30
0.0
 10
89.10911727372967
 20
-128.1945868277604
 30
0.0
 10
89.78401147929011
 20
-128.1945868277604
 30
0.0
 10
89.78401147929011
 20
-128.1945868277604
 30
0.0
 10
90.09062497747735
 20
-128.1945868277604
 30
0.0
 10
90.25771210851197
 20
-128.3658080733773
 30
0.0
 10
90.25771210851197
 20
-128.6219509227056
 30
0.0
 10
90.25771210851197
 20
-128.6725938263388
 30
0.0
 10
90.2492716245731
 20
-128.7551038632105
 30
0.0
 10
90.20482989281338
 20
-128.8355468427911
 30
0.0
 10
90.14574650524135
 20
-128.9392442168972
 30
0.0
 10
90.08011743624733
 20
-128.958192242066
 30
0.0
 10
90.01879473660989
 20
-128.9750732099437
 30
0.0
 10
90.15625404647136
 20
-129.0174478844123
 30
0.0
 10
90.22395017275652
 20
-129.0663682403029
 30
0.0
 10
90.22825654211307
 20
-129.3812499676547
 30
0.0
 10
90.23239065669537
 20
-129.6520344727953
 30
0.0
 10
90.26839190451624
 20
-129.6837293512596
 30
0.0
 10
90.33608803080139
 20
-129.7388508790236
 30
0.0
 10
90.33608803080139
 20
-129.7388508790236
 30
0.0
 10
90.03998207384417
 20
-129.7388508790236
 30
0.0
 10
90.03998207384417
 20
-129.7388508790236
 30
0.0
  0
SPLINE
  5
17B
330
176
100
AcDbEntity
  8
_U+30EC_U+30A4_U+30E4_U+30FC 1
370
     0
100
AcDbSpline
210
0.0
220
0.0
230
1.0
 70
    11
 71
     3
 72
    20
 73
    16
 74
     0
 42
0.0000000001
 43
0.0000000001
 12
1.0
 22
0.0
 32
0.0
 13
1.0
 23
0.0
 33
0.0
 40
0.0
 40
0.0
 40
0.0
 40
0.0
 40
1.0
 40
1.0
 40
1.0
 40
2.0
 40
2.0
 40
2.0
 40
3.0
 40
3.0
 40
3.0
 40
4.0
 40
4.0
 40
4.0
 40
5.0
 40
5.0
 40
5.0
 40
5.0
 10
89.78814559387241
 20
-128.4061156905547
 30
0.0
 10
89.78814559387241
 20
-128.4061156905547
 30
0.0
 10
89.34390053104944
 20
-128.4061156905547
 30
0.0
 10
89.34390053104944
 20
-128.4061156905547
 30
0.0
 10
89.34390053104944
 20
-128.4061156905547
 30
0.0
 10
89.34390053104944
 20
-128.8865342559728
 30
0.0
 10
89.34390053104944
 20
-128.8865342559728
 30
0.0
 10
89.34390053104944
 20
-128.8865342559728
 30
0.0
 10
89.78607853658126
 20
-128.8865342559728
 30
0.0
 10
89.78607853658126
 20
-128.8865342559728
 30
0.0
 10
89.88546954133072
 20
-128.8865342559728
 30
0.0
 10
90.02086179390103
 20
-128.8100531362003
 30
0.0
 10
90.02086179390103
 20
-128.6388318905834
 30
0.0
 10
90.02086179390103
 20
-128.5604559682939
 30
0.0
 10
89.98692760337133
 20
-128.4061156905547
 30
0.0
 10
89.78814559387241
 20
-128.4061156905547
 30
0.0
  0
HATCH
  5
17C
330
176
100
AcDbEntity
  8
_U+30EC_U+30A4_U+30E4_U+30FC 1
 62
   179
420
  2234388
100
AcDbHatch
 10
0.0
 20
0.0
 30
0.0
210
0.0
220
0.0
230
1.0
  2
SOLID
 70
     1
 71
     0
 91
        2
 92
        1
 93
        1
 72
     4
 94
        3
 73
     0
 74
     1
 95
       44
 96
       40
 40
0.0
 40
0.0
 40
0.0
 40
0.0
 40
1.0
 40
1.0
 40
1.0
 40
2.0
 40
2.0
 40
2.0
 40
3.0
 40
3.0
 40
3.0
 40
4.0
 40
4.0
 40
4.0
 40
5.0
 40
5.0
 40
5.0
 40
6.0
 40
6.0
 40
6.0
 40
7.0
 40
7.0
 40
7.0
 40
8.0
 40
8.0
 40
8.0
 40
9.0
 40
9.0
 40
9.0
 40
10.0
 40
10.0
 40
10.0
 40
11.0
 40
11.0
 40
11.0
 40
12.0
 40
12.0
 40
12.0
 40
13.0
 40
13.0
 40
13.0
 40
13.0
 10
90.03998207384417
 20
-129.7388508790236
 10
90.01655542454448
 20
-129.6944091472639
 10
89.99554034208445
 20
-129.6416991863396
 10
89.99330103001904
 20
-129.4108777888278
 10
89.98916691543674
 20
-129.1676540475692
 10
89.92991127309044
 20
-129.0980631187672
 10
89.75214434605155
 20
-129.0980631187672
 10
89.75214434605155
 20
-129.0980631187672
 10
89.34390053104944
 20
-129.0980631187672
 10
89.34390053104944
 20
-129.0980631187672
 10
89.34390053104944
 20
-129.0980631187672
 10
89.34390053104944
 20
-129.7388508790236
 10
89.34390053104944
 20
-129.7388508790236
 10
89.34390053104944
 20
-129.7388508790236
 10
89.10911727372967
 20
-129.7388508790236
 10
89.10911727372967
 20
-129.7388508790236
 10
89.10911727372967
 20
-129.7388508790236
 10
89.10911727372967
 20
-128.1945868277604
 10
89.10911727372967
 20
-128.1945868277604
 10
89.10911727372967
 20
-128.1945868277604
 10
89.78401147929011
 20
-128.1945868277604
 10
89.78401147929011
 20
-128.1945868277604
 10
90.09062497747735
 20
-128.1945868277604
 10
90.25771210851197
 20
-128.3658080733773
 10
90.25771210851197
 20
-128.6219509227056
 10
90.25771210851197
 20
-128.6725938263388
 10
90.2492716245731
 20
-128.7551038632105
 10
90.20482989281338
 20
-128.8355468427911
 10
90.14574650524135
 20
-128.9392442168972
 10
90.08011743624733
 20
-128.958192242066
 10
90.01879473660989
 20
-128.9750732099437
 10
90.15625404647136
 20
-129.0174478844123
 10
90.22395017275652
 20
-129.0663682403029
 10
90.22825654211307
 20
-129.3812499676547
 10
90.23239065669537
 20
-129.6520344727953
 10
90.26839190451624
 20
-129.6837293512596
 10
90.33608803080139
 20
-129.7388508790236
 10
90.33608803080139
 20
-129.7388508790236
 10
90.03998207384417
 20
-129.7388508790236
 10
90.03998207384417
 20
-129.7388508790236
 97
        0
 97
        0
 92
        1
 93
        1
 72
     4
 94
        3
 73
     0
 74
     1
 95
       20
 96
       16
 40
0.0
 40
0.0
 40
0.0
 40
0.0
 40
1.0
 40
1.0
 40
1.0
 40
2.0
 40
2.0
 40
2.0
 40
3.0
 40
3.0
 40
3.0
 40
4.0
 40
4.0
 40
4.0
 40
5.0
 40
5.0
 40
5.0
 40
5.0
 10
89.78814559387241
 20
-128.4061156905547
 10
89.78814559387241
 20
-128.4061156905547
 10
89.34390053104944
 20
-128.4061156905547
 10
89.34390053104944
 20
-128.4061156905547
 10
89.34390053104944
 20
-128.4061156905547
 10
89.34390053104944
 20
-128.8865342559728
 10
89.34390053104944
 20
-128.8865342559728
 10
89.34390053104944
 20
-128.8865342559728
 10
89.78607853658126
 20
-128.8865342559728
 10
89.78607853658126
 20
-128.8865342559728
 10
89.88546954133072
 20
-128.8865342559728
 10
90.02086179390103
 20
-128.8100531362003
 10
90.02086179390103
 20
-128.6388318905834
 10
90.02086179390103
 20
-128.5604559682939
 10
89.98692760337133
 20
-128.4061156905547
 10
89.78814559387241
 20
-128.4061156905547
 97
        0
 97
        0
 75
     2
 76
     1
 98
        0
  0
SPLINE
  5
17D
330
176
100
AcDbEntity
  8
_U+30EC_U+30A4_U+30E4_U+30FC 1
370
     0
100
AcDbSpline
210
0.0
220
0.0
230
1.0
 70
    11
 71
     3
 72
    26
 73
    22
 74
     0
 42
0.0000000001
 43
0.0000000001
 12
1.0
 22
0.0
 32
0.0
 13
1.0
 23
0.0
 33
0.0
 40
0.0
 40
0.0
 40
0.0
 40
0.0
 40
1.0
 40
1.0
 40
1.0
 40
2.0
 40
2.0
 40
2.0
 40
3.0
 40
3.0
 40
3.0
 40
4.0
 40
4.0
 40
4.0
 40
5.0
 40
5.0
 40
5.0
 40
6.0
 40
6.0
 40
6.0
 40
7.0
 40
7.0
 40
7.0
 40
7.0
 10
90.92709416129601
 20
-129.7388508790236
 30
0.0
 10
90.92709416129601
 20
-129.7388508790236
 30
0.0
 10
90.92709416129601
 20
-128.6345255212268
 30
0.0
 10
90.92709416129601
 20
-128.6345255212268
 30
0.0
 10
90.92709416129601
 20
-128.6345255212268
 30
0.0
 10
90.59705401380907
 20
-128.6345255212268
 30
0.0
 10
90.59705401380907
 20
-128.6345255212268
 30
0.0
 10
90.59705401380907
 20
-128.6345255212268
 30
0.0
 10
90.59705401380907
 20
-128.4865586701353
 30
0.0
 10
90.59705401380907
 20
-128.4865586701353
 30
0.0
 10
90.92916121858715
 20
-128.4717447595487
 30
0.0
 10
90.97567000763803
 20
-128.3087917430964
 30
0.0
 10
91.00529782881118
 20
-128.1945868277604
 30
0.0
 10
91.00529782881118
 20
-128.1945868277604
 30
0.0
 10
91.15136987738578
 20
-128.1945868277604
 30
0.0
 10
91.15136987738578
 20
-128.1945868277604
 30
0.0
 10
91.15136987738578
 20
-128.1945868277604
 30
0.0
 10
91.15136987738578
 20
-129.7388508790236
 30
0.0
 10
91.15136987738578
 20
-129.7388508790236
 30
0.0
 10
91.15136987738578
 20
-129.7388508790236
 30
0.0
 10
90.92709416129601
 20
-129.7388508790236
 30
0.0
 10
90.92709416129601
 20
-129.7388508790236
 30
0.0
  0
HATCH
  5
17E
330
176
100
AcDbEntity
  8
_U+30EC_U+30A4_U+30E4_U+30FC 1
 62
   179
420
  2234388
100
AcDbHatch
 10
0.0
 20
0.0
 30
0.0
210
0.0
220
0.0
230
1.0
  2
SOLID
 70
     1
 71
     0
 91
        1
 92
        1
 93
        1
 72
     4
 94
        3
 73
     0
 74
     1
 95
       26
 96
       22
 40
0.0
 40
0.0
 40
0.0
 40
0.0
 40
1.0
 40
1.0
 40
1.0
 40
2.0
 40
2.0
 40
2.0
 40
3.0
 40
3.0
 40
3.0
 40
4.0
 40
4.0
 40
4.0
 40
5.0
 40
5.0
 40
5.0
 40
6.0
 40
6.0
 40
6.0
 40
7.0
 40
7.0
 40
7.0
 40
7.0
 10
90.92709416129601
 20
-129.7388508790236
 10
90.92709416129601
 20
-129.7388508790236
 10
90.92709416129601
 20
-128.6345255212268
 10
90.92709416129601
 20
-128.6345255212268
 10
90.92709416129601
 20
-128.6345255212268
 10
90.59705401380907
 20
-128.6345255212268
 10
90.59705401380907
 20
-128.6345255212268
 10
90.59705401380907
 20
-128.6345255212268
 10
90.59705401380907
 20
-128.4865586701353
 10
90.59705401380907
 20
-128.4865586701353
 10
90.92916121858715
 20
-128.4717447595487
 10
90.97567000763803
 20
-128.3087917430964
 10
91.00529782881118
 20
-128.1945868277604
 10
91.00529782881118
 20
-128.1945868277604
 10
91.15136987738578
 20
-128.1945868277604
 10
91.15136987738578
 20
-128.1945868277604
 10
91.15136987738578
 20
-128.1945868277604
 10
91.15136987738578
 20
-129.7388508790236
 10
91.15136987738578
 20
-129.7388508790236
 10
91.15136987738578
 20
-129.7388508790236
 10
90.92709416129601
 20
-129.7388508790236
 10
90.92709416129601
 20
-129.7388508790236
 97
        0
 97
        0
 75
     2
 76
     1
 98
        0
  0
ENDBLK
  5
179
330
176
100
AcDbEntity
  8
0
100
AcDbBlockEnd
  0
ENDSEC
  0
SECTION
  2
ENTITIES
  0
POLYLINE
  5
41
330
1F
100
AcDbEntity
  8
_U+30EC_U+30A4_U+30E4_U+30FC 1
 62
     7
420
 16777215
370
    25
100
AcDb2dPolyline
 66
     1
 10
0.0
 20
0.0
 30
0.0
  0
VERTEX
  5
42
330
41
100
AcDbEntity
  8
_U+30EC_U+30A4_U+30E4_U+30FC 1
 62
     7
420
 16777215
370
    25
100
AcDbVertex
100
AcDb2dVertex
 10
78.90904909797355
 20
-118.2508288593262
 30
0.0
  0
VERTEX
  5
43
330
41
100
AcDbEntity
  8
_U+30EC_U+30A4_U+30E4_U+30FC 1
 62
     7
420
 16777215
370
    25
100
AcDbVertex
100
AcDb2dVertex
 10
78.90904909797355
 20
-135.2151713550849
 30
0.0
  0
SEQEND
  5
44
330
41
100
AcDbEntity
  8
_U+30EC_U+30A4_U+30E4_U+30FC 1
 62
     7
420
 16777215
370
    25
  0
POLYLINE
  5
45
330
1F
100
AcDbEntity
  8
_U+30EC_U+30A4_U+30E4_U+30FC 1
 62
     7
420
 16777215
370
    25
100
AcDb2dPolyline
 66
     1
 10
0.0
 20
0.0
 30
0.0
  0
VERTEX
  5
46
330
45
100
AcDbEntity
  8
_U+30EC_U+30A4_U+30E4_U+30FC 1
 62
     7
420
 16777215
370
    25
100
AcDbVertex
100
AcDb2dVertex
 10
82.44441150777894
 20
-138.7508866319791
 30
0.0
  0
VERTEX
  5
47
330
45
100
AcDbEntity
  8
_U+30EC_U+30A4_U+30E4_U+30FC 1
 62
     7
420
 16777215
370
    25
100
AcDbVertex
100
AcDb2dVertex
 10
104.4091315029678
 20
-138.7508866319791
 30
0.0
  0
SEQEND
  5
48
330
45
100
AcDbEntity
  8
_U+30EC_U+30A4_U+30E4_U+30FC 1
 62
     7
420
 16777215
370
    25
  0
POLYLINE
  5
49
330
1F
100
AcDbEntity
  8
_U+30EC_U+30A4_U+30E4_U+30FC 1
 62
     7
420
 16777215
370
    25
100
AcDb2dPolyline
 66
     1
 10
0.0
 20
0.0
 30
0.0
  0
VERTEX
  5
4A
330
49
100
AcDbEntity
  8
_U+30EC_U+30A4_U+30E4_U+30FC 1
 62
     7
420
 16777215
370
    25
100
AcDbVertex
100
AcDb2dVertex
 10
78.90904909797355
 20
-135.2151713550849
 30
0.0
  0
VERTEX
  5
4B
330
49
100
AcDbEntity
  8
_U+30EC_U+30A4_U+30E4_U+30FC 1
 62
     7
420
 16777215
370
    25
100
AcDbVertex
100
AcDb2dVertex
 10
82.44441150777894
 20
-138.7508866319791
 30
0.0
  0
SEQEND
  5
4C
330
49
100
AcDbEntity
  8
_U+30EC_U+30A4_U+30E4_U+30FC 1
 62
     7
420
 16777215
370
    25
  0
POLYLINE
  5
4D
330
1F
100
AcDbEntity
  8
_U+30EC_U+30A4_U+30E4_U+30FC 1
 62
     7
420
 16777215
370
    25
100
AcDb2dPolyline
 66
     1
 10
0.0
 20
0.0
 30
0.0
  0
VERTEX
  5
4E
330
4D
100
AcDbEntity
  8
_U+30EC_U+30A4_U+30E4_U+30FC 1
 62
     7
420
 16777215
370
    25
100
AcDbVertex
100
AcDb2dVertex
 10
96.90914669430836
 20
-137.9509277432899
 30
0.0
  0
VERTEX
  5
4F
330
4D
100
AcDbEntity
  8
_U+30EC_U+30A4_U+30E4_U+30FC 1
 62
     7
420
 16777215
370
    25
100
AcDbVertex
100
AcDb2dVertex
 10
104.2003576194052
 20
-137.9509277432899
 30
0.0
  0
SEQEND
  5
50
330
4D
100
AcDbEntity
  8
_U+30EC_U+30A4_U+30E4_U+30FC 1
 62
     7
420
 16777215
370
    25
  0
POLYLINE
  5
51
330
1F
100
AcDbEntity
  8
_U+30EC_U+30A4_U+30E4_U+30FC 1
 62
     7
420
 16777215
370
    25
100
AcDb2dPolyline
 66
     1
 10
0.0
 20
0.0
 30
0.0
  0
VERTEX
  5
52
330
51
100
AcDbEntity
  8
_U+30EC_U+30A4_U+30E4_U+30FC 1
 62
     7
420
 16777215
370
    25
100
AcDbVertex
100
AcDb2dVertex
 10
82.85885483053895
 20
-137.7507616322288
 30
0.0
  0
VERTEX
  5
53
330
51
100
AcDbEntity
  8
_U+30EC_U+30A4_U+30E4_U+30FC 1
 62
     7
420
 16777215
370
    25
100
AcDbVertex
100
AcDb2dVertex
 10
96.56257781426118
 20
-137.7507616322288
 30
0.0
  0
SEQEND
  5
54
330
51
100
AcDbEntity
  8
_U+30EC_U+30A4_U+30E4_U+30FC 1
 62
     7
420
 16777215
370
    25
  0
POLYLINE
  5
55
330
1F
100
AcDbEntity
  8
_U+30EC_U+30A4_U+30E4_U+30FC 1
 62
     7
420
 16777215
370
    25
100
AcDb2dPolyline
 66
     1
 10
0.0
 20
0.0
 30
0.0
  0
VERTEX
  5
56
330
55
100
AcDbEntity
  8
_U+30EC_U+30A4_U+30E4_U+30FC 1
 62
     7
420
 16777215
370
    25
100
AcDbVertex
100
AcDb2dVertex
 10
79.90882129468946
 20
-134.8010807996334
 30
0.0
  0
VERTEX
  5
57
330
55
100
AcDbEntity
  8
_U+30EC_U+30A4_U+30E4_U+30FC 1
 62
     7
420
 16777215
370
    25
100
AcDbVertex
100
AcDb2dVertex
 10
81.0305487660718
 20
-135.9224555215748
 30
0.0
  0
SEQEND
  5
58
330
55
100
AcDbEntity
  8
_U+30EC_U+30A4_U+30E4_U+30FC 1
 62
     7
420
 16777215
370
    25
  0
POLYLINE
  5
59
330
1F
100
AcDbEntity
  8
_U+30EC_U+30A4_U+30E4_U+30FC 1
 62
     7
420
 16777215
370
    25
100
AcDb2dPolyline
 66
     1
 10
0.0
 20
0.0
 30
0.0
  0
VERTEX
  5
5A
330
59
100
AcDbEntity
  8
_U+30EC_U+30A4_U+30E4_U+30FC 1
 62
     7
420
 16777215
370
    25
100
AcDbVertex
100
AcDb2dVertex
 10
96.56257781426118
 20
-137.7507616322288
 30
0.0
  0
VERTEX
  5
5B
330
59
100
AcDbEntity
  8
_U+30EC_U+30A4_U+30E4_U+30FC 1
 62
     7
420
 16777215
370
    25
100
AcDbVertex
100
AcDb2dVertex
 10
96.90914669430836
 20
-137.9509277432899
 30
0.0
  0
SEQEND
  5
5C
330
59
100
AcDbEntity
  8
_U+30EC_U+30A4_U+30E4_U+30FC 1
 62
     7
420
 16777215
370
    25
  0
POLYLINE
  5
5D
330
1F
100
AcDbEntity
  8
_U+30EC_U+30A4_U+30E4_U+30FC 1
 62
     7
420
 16777215
370
    25
100
AcDb2dPolyline
 66
     1
 10
0.0
 20
0.0
 30
0.0
  0
VERTEX
  5
5E
330
5D
100
AcDbEntity
  8
_U+30EC_U+30A4_U+30E4_U+30FC 1
 62
     7
420
 16777215
370
    25
100
AcDbVertex
100
AcDb2dVertex
 10
79.90882129468946
 20
-126.0970299684759
 30
0.0
  0
VERTEX
  5
5F
330
5D
100
AcDbEntity
  8
_U+30EC_U+30A4_U+30E4_U+30FC 1
 62
     7
420
 16777215
370
    25
100
AcDbVertex
100
AcDb2dVertex
 10
79.90882129468946
 20
-134.8010807996334
 30
0.0
  0
SEQEND
  5
60
330
5D
100
AcDbEntity
  8
_U+30EC_U+30A4_U+30E4_U+30FC 1
 62
     7
420
 16777215
370
    25
  0
POLYLINE
  5
61
330
1F
100
AcDbEntity
  8
_U+30EC_U+30A4_U+30E4_U+30FC 1
 62
     7
420
 16777215
370
    25
100
AcDb2dPolyline
 66
     1
 10
0.0
 20
0.0
 30
0.0
  0
VERTEX
  5
62
330
61
100
AcDbEntity
  8
_U+30EC_U+30A4_U+30E4_U+30FC 1
 62
     7
420
 16777215
370
    25
100
AcDbVertex
100
AcDb2dVertex
 10
79.7090079664538
 20
-118.4592499703852
 30
0.0
  0
VERTEX
  5
63
330
61
100
AcDbEntity
  8
_U+30EC_U+30A4_U+30E4_U+30FC 1
 62
     7
420
 16777215
370
    25
100
AcDbVertex
100
AcDb2dVertex
 10
79.7090079664538
 20
-125.7508138574511
 30
0.0
  0
SEQEND
  5
64
330
61
100
AcDbEntity
  8
_U+30EC_U+30A4_U+30E4_U+30FC 1
 62
     7
420
 16777215
370
    25
  0
POLYLINE
  5
65
330
1F
100
AcDbEntity
  8
_U+30EC_U+30A4_U+30E4_U+30FC 1
 62
     7
420
 16777215
370
    25
100
AcDb2dPolyline
 66
     1
 10
0.0
 20
0.0
 30
0.0
  0
VERTEX
  5
66
330
65
100
AcDbEntity
  8
_U+30EC_U+30A4_U+30E4_U+30FC 1
 62
     7
420
 16777215
370
    25
100
AcDbVertex
100
AcDb2dVertex
 10
79.7090079664538
 20
-125.7508138574511
 30
0.0
  0
VERTEX
  5
67
330
65
100
AcDbEntity
  8
_U+30EC_U+30A4_U+30E4_U+30FC 1
 62
     7
420
 16777215
370
    25
100
AcDbVertex
100
AcDb2dVertex
 10
79.90882129468946
 20
-126.0970299684759
 30
0.0
  0
SEQEND
  5
68
330
65
100
AcDbEntity
  8
_U+30EC_U+30A4_U+30E4_U+30FC 1
 62
     7
420
 16777215
370
    25
  0
POLYLINE
  5
69
330
1F
100
AcDbEntity
  8
_U+30EC_U+30A4_U+30E4_U+30FC 1
 62
     7
420
 16777215
370
    25
100
AcDb2dPolyline
 66
     1
 10
0.0
 20
0.0
 30
0.0
  0
VERTEX
  5
6A
330
69
100
AcDbEntity
  8
_U+30EC_U+30A4_U+30E4_U+30FC 1
 62
     7
420
 16777215
370
    25
100
AcDbVertex
100
AcDb2dVertex
 10
86.2093638673364
 20
-130.7437835784254
 30
0.0
  0
VERTEX
  5
6B
330
69
100
AcDbEntity
  8
_U+30EC_U+30A4_U+30E4_U+30FC 1
 62
     7
420
 16777215
370
    25
100
AcDbVertex
100
AcDb2dVertex
 10
81.0305487660718
 20
-135.9224555215748
 30
0.0
  0
SEQEND
  5
6C
330
69
100
AcDbEntity
  8
_U+30EC_U+30A4_U+30E4_U+30FC 1
 62
     7
420
 16777215
370
    25
  0
POLYLINE
  5
6D
330
1F
100
AcDbEntity
  8
_U+30EC_U+30A4_U+30E4_U+30FC 1
 62
     7
420
 16777215
370
    25
100
AcDb2dPolyline
 66
     1
 10
0.0
 20
0.0
 30
0.0
  0
VERTEX
  5
6E
330
6D
100
AcDbEntity
  8
_U+30EC_U+30A4_U+30E4_U+30FC 1
 62
     7
420
 16777215
370
    25
100
AcDbVertex
100
AcDb2dVertex
 10
86.91633053382662
 20
-131.4507149671375
 30
0.0
  0
VERTEX
  5
6F
330
6D
100
AcDbEntity
  8
_U+30EC_U+30A4_U+30E4_U+30FC 1
 62
     7
420
 16777215
370
    25
100
AcDbVertex
100
AcDb2dVertex
 10
81.73748013692537
 20
-136.6293869102868
 30
0.0
  0
SEQEND
  5
70
330
6D
100
AcDbEntity
  8
_U+30EC_U+30A4_U+30E4_U+30FC 1
 62
     7
420
 16777215
370
    25
  0
POLYLINE
  5
71
330
1F
100
AcDbEntity
  8
_U+30EC_U+30A4_U+30E4_U+30FC 1
 62
     7
420
 16777215
370
    25
100
AcDb2dPolyline
 66
     1
 10
0.0
 20
0.0
 30
0.0
  0
VERTEX
  5
72
330
71
100
AcDbEntity
  8
_U+30EC_U+30A4_U+30E4_U+30FC 1
 62
     7
420
 16777215
370
    25
100
AcDbVertex
100
AcDb2dVertex
 10
81.73748013692537
 20
-136.6293869102868
 30
0.0
  0
VERTEX
  5
73
330
71
100
AcDbEntity
  8
_U+30EC_U+30A4_U+30E4_U+30FC 1
 62
     7
420
 16777215
370
    25
100
AcDbVertex
100
AcDb2dVertex
 10
82.85885483053895
 20
-137.7507616322288
 30
0.0
  0
SEQEND
  5
74
330
71
100
AcDbEntity
  8
_U+30EC_U+30A4_U+30E4_U+30FC 1
 62
     7
420
 16777215
370
    25
  0
POLYLINE
  5
75
330
1F
100
AcDbEntity
  8
_U+30EC_U+30A4_U+30E4_U+30FC 1
 62
     7
420
 16777215
370
    25
100
AcDb2dPolyline
 66
     1
 10
0.0
 20
0.0
 30
0.0
  0
VERTEX
  5
76
330
75
100
AcDbEntity
  8
_U+30EC_U+30A4_U+30E4_U+30FC 1
 62
     7
420
 16777215
370
    25
100
AcDbVertex
100
AcDb2dVertex
 10
86.91633053382662
 20
-131.4507149671375
 30
0.0
  0
VERTEX
  5
77
330
75
100
AcDbEntity
  8
_U+30EC_U+30A4_U+30E4_U+30FC 1
 62
     7
420
 16777215
370
    25
100
AcDbVertex
100
AcDb2dVertex
 10
94.20887981875346
 20
-131.4507149671375
 30
0.0
  0
SEQEND
  5
78
330
75
100
AcDbEntity
  8
_U+30EC_U+30A4_U+30E4_U+30FC 1
 62
     7
420
 16777215
370
    25
  0
POLYLINE
  5
79
330
1F
100
AcDbEntity
  8
_U+30EC_U+30A4_U+30E4_U+30FC 1
 62
     7
420
 16777215
370
    25
100
AcDb2dPolyline
 66
     1
 10
0.0
 20
0.0
 30
0.0
  0
VERTEX
  5
7A
330
79
100
AcDbEntity
  8
_U+30EC_U+30A4_U+30E4_U+30FC 1
 62
     7
420
 16777215
370
    25
100
AcDbVertex
100
AcDb2dVertex
 10
86.2093638673364
 20
-123.4508791358041
 30
0.0
  0
VERTEX
  5
7B
330
79
100
AcDbEntity
  8
_U+30EC_U+30A4_U+30E4_U+30FC 1
 62
     7
420
 16777215
370
    25
100
AcDbVertex
100
AcDb2dVertex
 10
86.2093638673364
 20
-130.7437835784254
 30
0.0
  0
SEQEND
  5
7C
330
79
100
AcDbEntity
  8
_U+30EC_U+30A4_U+30E4_U+30FC 1
 62
     7
420
 16777215
370
    25
  0
POLYLINE
  5
7D
330
1F
100
AcDbEntity
  8
_U+30EC_U+30A4_U+30E4_U+30FC 1
 62
     7
420
 16777215
370
    25
100
AcDb2dPolyline
 66
     1
 10
0.0
 20
0.0
 30
0.0
  0
VERTEX
  5
7E
330
7D
100
AcDbEntity
  8
_U+30EC_U+30A4_U+30E4_U+30FC 1
 62
     7
420
 16777215
370
    25
100
AcDbVertex
100
AcDb2dVertex
 10
87.70937497807266
 20
-130.4509427451649
 30
0.0
  0
VERTEX
  5
7F
330
7D
100
AcDbEntity
  8
_U+30EC_U+30A4_U+30E4_U+30FC 1
 62
     7
420
 16777215
370
    25
100
AcDbVertex
100
AcDb2dVertex
 10
93.85885371657226
 20
-130.4509427451649
 30
0.0
  0
SEQEND
  5
80
330
7D
100
AcDbEntity
  8
_U+30EC_U+30A4_U+30E4_U+30FC 1
 62
     7
420
 16777215
370
    25
  0
POLYLINE
  5
81
330
1F
100
AcDbEntity
  8
_U+30EC_U+30A4_U+30E4_U+30FC 1
 62
     7
420
 16777215
370
    25
100
AcDb2dPolyline
 66
     1
 10
0.0
 20
0.0
 30
0.0
  0
VERTEX
  5
82
330
81
100
AcDbEntity
  8
_U+30EC_U+30A4_U+30E4_U+30FC 1
 62
     7
420
 16777215
370
    25
100
AcDbVertex
100
AcDb2dVertex
 10
87.20913608930896
 20
-123.8008699690497
 30
0.0
  0
VERTEX
  5
83
330
81
100
AcDbEntity
  8
_U+30EC_U+30A4_U+30E4_U+30FC 1
 62
     7
420
 16777215
370
    25
100
AcDbVertex
100
AcDb2dVertex
 10
87.20913608930896
 20
-129.9507391341787
 30
0.0
  0
SEQEND
  5
84
330
81
100
AcDbEntity
  8
_U+30EC_U+30A4_U+30E4_U+30FC 1
 62
     7
420
 16777215
370
    25
  0
SPLINE
  5
85
330
1F
100
AcDbEntity
  8
_U+30EC_U+30A4_U+30E4_U+30FC 1
 62
     7
420
 16777215
370
    25
100
AcDbSpline
210
0.0
220
0.0
230
1.0
 70
     8
 71
     3
 72
     8
 73
     4
 74
     0
 42
0.0000000001
 43
0.0000000001
 12
1.0
 22
0.0
 32
0.0
 13
1.0
 23
0.0
 33
0.0
 40
0.0
 40
0.0
 40
0.0
 40
0.0
 40
1.0
 40
1.0
 40
1.0
 40
1.0
 10
87.20913608930896
 20
-129.9507391341787
 30
0.0
 10
87.20913608930896
 20
-130.2270346896652
 30
0.0
 10
87.43307721384082
 20
-130.4509427451649
 30
0.0
 10
87.70937497807266
 20
-130.4509427451649
 30
0.0
  0
SPLINE
  5
86
330
1F
100
AcDbEntity
  8
_U+30EC_U+30A4_U+30E4_U+30FC 1
 62
     7
420
 16777215
370
    25
100
AcDbSpline
210
0.0
220
0.0
230
1.0
 70
     8
 71
     3
 72
     8
 73
     4
 74
     0
 42
0.0000000001
 43
0.0000000001
 12
1.0
 22
0.0
 32
0.0
 13
1.0
 23
0.0
 33
0.0
 40
0.0
 40
0.0
 40
0.0
 40
0.0
 40
1.0
 40
1.0
 40
1.0
 40
1.0
 10
87.20913608930896
 20
-123.8008699690497
 30
0.0
 10
86.92941639335693
 20
-123.5662727468862
 30
0.0
 10
86.57388695798281
 20
-123.4419185802506
 30
0.0
 10
86.2093638673364
 20
-123.4508791358041
 30
0.0
  0
SPLINE
  5
87
330
1F
100
AcDbEntity
  8
_U+30EC_U+30A4_U+30E4_U+30FC 1
 62
     7
420
 16777215
370
    25
100
AcDbSpline
210
0.0
220
0.0
230
1.0
 70
     8
 71
     3
 72
     8
 73
     4
 74
     0
 42
0.0000000001
 43
0.0000000001
 12
1.0
 22
0.0
 32
0.0
 13
1.0
 23
0.0
 33
0.0
 40
0.0
 40
0.0
 40
0.0
 40
0.0
 40
1.0
 40
1.0
 40
1.0
 40
1.0
 10
94.20887981875346
 20
-131.4507149671375
 30
0.0
 10
94.21784037408041
 20
-131.0858721894509
 30
0.0
 10
94.09313343281751
 20
-130.7303427450949
 30
0.0
 10
93.85885371657226
 20
-130.4509427451649
 30
0.0
  0
SPLINE
  5
88
330
1F
100
AcDbEntity
  8
_U+30EC_U+30A4_U+30E4_U+30FC 1
 62
     7
420
 16777215
370
    25
100
AcDbSpline
210
0.0
220
0.0
230
1.0
 70
     8
 71
     3
 72
     8
 73
     4
 74
     0
 42
0.0000000001
 43
0.0000000001
 12
1.0
 22
0.0
 32
0.0
 13
1.0
 23
0.0
 33
0.0
 40
0.0
 40
0.0
 40
0.0
 40
0.0
 40
1.0
 40
1.0
 40
1.0
 40
1.0
 10
104.4091315029678
 20
-138.7508866319791
 30
0.0
 10
104.416010669459
 20
-138.4697580209379
 30
0.0
 10
104.3436559490827
 20
-138.1927569098966
 30
0.0
 10
104.2003576194052
 20
-137.9509277432899
 30
0.0
  0
SPLINE
  5
89
330
1F
100
AcDbEntity
  8
_U+30EC_U+30A4_U+30E4_U+30FC 1
 62
     7
420
 16777215
370
    25
100
AcDbSpline
210
0.0
220
0.0
230
1.0
 70
     8
 71
     3
 72
     8
 73
     4
 74
     0
 42
0.0000000001
 43
0.0000000001
 12
1.0
 22
0.0
 32
0.0
 13
1.0
 23
0.0
 33
0.0
 40
0.0
 40
0.0
 40
0.0
 40
0.0
 40
1.0
 40
1.0
 40
1.0
 40
1.0
 10
79.7090079664538
 20
-118.4592499703852
 30
0.0
 10
79.46714352817982
 20
-118.3163044148653
 30
0.0
 10
79.19017770191248
 20
-118.2439496926611
 30
0.0
 10
78.90904909797355
 20
-118.2508288593262
 30
0.0
  0
SPLINE
  5
8A
330
1F
100
AcDbEntity
  8
_U+30EC_U+30A4_U+30E4_U+30FC 1
 62
     7
420
 16777215
370
     9
100
AcDbSpline
210
0.0
220
0.0
230
1.0
 70
    11
 71
     3
 72
    17
 73
    13
 74
     0
 42
0.0000000001
 43
0.0000000001
 12
1.0
 22
0.0
 32
0.0
 13
1.0
 23
0.0
 33
0.0
 40
0.0
 40
0.0
 40
0.0
 40
0.0
 40
1.0
 40
1.0
 40
1.0
 40
2.0
 40
2.0
 40
2.0
 40
3.0
 40
3.0
 40
3.0
 40
4.0
 40
4.0
 40
4.0
 40
4.0
 10
86.30930363139956
 20
-127.4509558014706
 30
0.0
 10
86.30930363139956
 20
-127.3958519125953
 30
0.0
 10
86.26450085476479
 20
-127.3510491348289
 30
0.0
 10
86.2093638673364
 20
-127.3510491348289
 30
0.0
 10
86.15355224648421
 20
-127.3510491348289
 30
0.0
 10
86.10878474762633
 20
-127.3958519125953
 30
0.0
 10
86.10878474762633
 20
-127.4509558014706
 30
0.0
 10
86.10878474762633
 20
-127.5060949681233
 30
0.0
 10
86.15355224648421
 20
-127.5508624681122
 30
0.0
 10
86.2093638673364
 20
-127.5508624681122
 30
0.0
 10
86.26450085476479
 20
-127.5508624681122
 30
0.0
 10
86.30930363139956
 20
-127.5060949681233
 30
0.0
 10
86.30930363139956
 20
-127.4509558014706
 30
0.0
  0
SPLINE
  5
8B
330
1F
100
AcDbEntity
  8
_U+30EC_U+30A4_U+30E4_U+30FC 1
 62
     7
420
 16777215
370
     9
100
AcDbSpline
210
0.0
220
0.0
230
1.0
 70
    11
 71
     3
 72
    17
 73
    13
 74
     0
 42
0.0000000001
 43
0.0000000001
 12
1.0
 22
0.0
 32
0.0
 13
1.0
 23
0.0
 33
0.0
 40
0.0
 40
0.0
 40
0.0
 40
0.0
 40
1.0
 40
1.0
 40
1.0
 40
2.0
 40
2.0
 40
2.0
 40
3.0
 40
3.0
 40
3.0
 40
4.0
 40
4.0
 40
4.0
 40
4.0
 10
87.30904055033858
 20
-127.4509558014706
 30
0.0
 10
87.30904055033858
 20
-127.3958519125953
 30
0.0
 10
87.2642730514807
 20
-127.3510491348289
 30
0.0
 10
87.20913608930896
 20
-127.3510491348289
 30
0.0
 10
87.15402999873767
 20
-127.3510491348289
 30
0.0
 10
87.10922722210292
 20
-127.3958519125953
 30
0.0
 10
87.10922722210292
 20
-127.4509558014706
 30
0.0
 10
87.10922722210292
 20
-127.5060949681233
 30
0.0
 10
87.15402999873767
 20
-127.5508624681122
 30
0.0
 10
87.20913608930896
 20
-127.5508624681122
 30
0.0
 10
87.2642730514807
 20
-127.5508624681122
 30
0.0
 10
87.30904055033858
 20
-127.5060949681233
 30
0.0
 10
87.30904055033858
 20
-127.4509558014706
 30
0.0
  0
SPLINE
  5
8C
330
1F
100
AcDbEntity
  8
_U+30EC_U+30A4_U+30E4_U+30FC 1
 62
     7
420
 16777215
370
     9
100
AcDbSpline
210
0.0
220
0.0
230
1.0
 70
    11
 71
     3
 72
    17
 73
    13
 74
     0
 42
0.0000000001
 43
0.0000000001
 12
1.0
 22
0.0
 32
0.0
 13
1.0
 23
0.0
 33
0.0
 40
0.0
 40
0.0
 40
0.0
 40
0.0
 40
1.0
 40
1.0
 40
1.0
 40
2.0
 40
2.0
 40
2.0
 40
3.0
 40
3.0
 40
3.0
 40
4.0
 40
4.0
 40
4.0
 40
4.0
 10
75.00919669746708
 20
-118.2508288593262
 30
0.0
 10
75.00919669746708
 20
-118.1953721926735
 30
0.0
 10
74.9644291986092
 20
-118.1505694149068
 30
0.0
 10
74.90929003334924
 20
-118.1505694149068
 30
0.0
 10
74.8538333680974
 20
-118.1505694149068
 30
0.0
 10
74.80903059146263
 20
-118.1953721926735
 30
0.0
 10
74.80903059146263
 20
-118.2508288593262
 30
0.0
 10
74.80903059146263
 20
-118.3062855259789
 30
0.0
 10
74.8538333680974
 20
-118.3507355259678
 30
0.0
 10
74.90929003334924
 20
-118.3507355259678
 30
0.0
 10
74.9644291986092
 20
-118.3507355259678
 30
0.0
 10
75.00919669746708
 20
-118.3062855259789
 30
0.0
 10
75.00919669746708
 20
-118.2508288593262
 30
0.0
  0
SPLINE
  5
8D
330
1F
100
AcDbEntity
  8
_U+30EC_U+30A4_U+30E4_U+30FC 1
 62
     7
420
 16777215
370
     9
100
AcDbSpline
210
0.0
220
0.0
230
1.0
 70
    11
 71
     3
 72
    17
 73
    13
 74
     0
 42
0.0000000001
 43
0.0000000001
 12
1.0
 22
0.0
 32
0.0
 13
1.0
 23
0.0
 33
0.0
 40
0.0
 40
0.0
 40
0.0
 40
0.0
 40
1.0
 40
1.0
 40
1.0
 40
2.0
 40
2.0
 40
2.0
 40
3.0
 40
3.0
 40
3.0
 40
4.0
 40
4.0
 40
4.0
 40
4.0
 10
75.00919669746708
 20
-138.7508866319791
 30
0.0
 10
75.00919669746708
 20
-138.695747465326
 30
0.0
 10
74.9644291986092
 20
-138.6509799653375
 30
0.0
 10
74.90929003334924
 20
-138.6509799653375
 30
0.0
 10
74.8538333680974
 20
-138.6509799653375
 30
0.0
 10
74.80903059146263
 20
-138.695747465326
 30
0.0
 10
74.80903059146263
 20
-138.7508866319791
 30
0.0
 10
74.80903059146263
 20
-138.805990520854
 30
0.0
 10
74.8538333680974
 20
-138.8507932986208
 30
0.0
 10
74.90929003334924
 20
-138.8507932986208
 30
0.0
 10
74.9644291986092
 20
-138.8507932986208
 30
0.0
 10
75.00919669746708
 20
-138.805990520854
 30
0.0
 10
75.00919669746708
 20
-138.7508866319791
 30
0.0
  0
SPLINE
  5
8E
330
1F
100
AcDbEntity
  8
_U+30EC_U+30A4_U+30E4_U+30FC 1
 62
     7
420
 16777215
370
     9
100
AcDbSpline
210
0.0
220
0.0
230
1.0
 70
    11
 71
     3
 72
    17
 73
    13
 74
     0
 42
0.0000000001
 43
0.0000000001
 12
1.0
 22
0.0
 32
0.0
 13
1.0
 23
0.0
 33
0.0
 40
0.0
 40
0.0
 40
0.0
 40
0.0
 40
1.0
 40
1.0
 40
1.0
 40
2.0
 40
2.0
 40
2.0
 40
3.0
 40
3.0
 40
3.0
 40
4.0
 40
4.0
 40
4.0
 40
4.0
 10
73.35209368418774
 20
-140.8720335758931
 30
0.0
 10
73.35209368418774
 20
-140.81689440924
 30
0.0
 10
73.30732618532986
 20
-140.7721269092514
 30
0.0
 10
73.25218887057592
 20
-140.7721269092514
 30
0.0
 10
73.19708313258684
 20
-140.7721269092514
 30
0.0
 10
73.15228035595207
 20
-140.81689440924
 30
0.0
 10
73.15228035595207
 20
-140.8720335758931
 30
0.0
 10
73.15228035595207
 20
-140.9274902425457
 30
0.0
 10
73.19708313258684
 20
-140.9722577425349
 30
0.0
 10
73.25218887057592
 20
-140.9722577425349
 30
0.0
 10
73.30732618532986
 20
-140.9722577425349
 30
0.0
 10
73.35209368418774
 20
-140.9274902425457
 30
0.0
 10
73.35209368418774
 20
-140.8720335758931
 30
0.0
  0
SPLINE
  5
8F
330
1F
100
AcDbEntity
  8
_U+30EC_U+30A4_U+30E4_U+30FC 1
 62
     7
420
 16777215
370
     9
100
AcDbSpline
210
0.0
220
0.0
230
1.0
 70
    11
 71
     3
 72
    17
 73
    13
 74
     0
 42
0.0000000001
 43
0.0000000001
 12
1.0
 22
0.0
 32
0.0
 13
1.0
 23
0.0
 33
0.0
 40
0.0
 40
0.0
 40
0.0
 40
0.0
 40
1.0
 40
1.0
 40
1.0
 40
2.0
 40
2.0
 40
2.0
 40
3.0
 40
3.0
 40
3.0
 40
4.0
 40
4.0
 40
4.0
 40
4.0
 10
79.00895576209139
 20
-142.7509632976456
 30
0.0
 10
79.00895576209139
 20
-142.6955066309929
 30
0.0
 10
78.96415298545662
 20
-142.6507391310037
 30
0.0
 10
78.90904909797355
 20
-142.6507391310037
 30
0.0
 10
78.8539099327136
 20
-142.6507391310037
 30
0.0
 10
78.80914442474207
 20
-142.6955066309929
 30
0.0
 10
78.80914442474207
 20
-142.7509632976456
 30
0.0
 10
78.80914442474207
 20
-142.8061024642987
 30
0.0
 10
78.8539099327136
 20
-142.8508699642873
 30
0.0
 10
78.90904909797355
 20
-142.8508699642873
 30
0.0
 10
78.96415298545662
 20
-142.8508699642873
 30
0.0
 10
79.00895576209139
 20
-142.8061024642987
 30
0.0
 10
79.00895576209139
 20
-142.7509632976456
 30
0.0
  0
SPLINE
  5
90
330
1F
100
AcDbEntity
  8
_U+30EC_U+30A4_U+30E4_U+30FC 1
 62
     7
420
 16777215
370
     9
100
AcDbSpline
210
0.0
220
0.0
230
1.0
 70
    11
 71
     3
 72
    17
 73
    13
 74
     0
 42
0.0000000001
 43
0.0000000001
 12
1.0
 22
0.0
 32
0.0
 13
1.0
 23
0.0
 33
0.0
 40
0.0
 40
0.0
 40
0.0
 40
0.0
 40
1.0
 40
1.0
 40
1.0
 40
2.0
 40
2.0
 40
2.0
 40
3.0
 40
3.0
 40
3.0
 40
4.0
 40
4.0
 40
4.0
 40
4.0
 10
104.5090381670856
 20
-142.7509632976456
 30
0.0
 10
104.5090381670856
 20
-142.6955066309929
 30
0.0
 10
104.4642353904509
 20
-142.6507391310037
 30
0.0
 10
104.4091315029678
 20
-142.6507391310037
 30
0.0
 10
104.3539923377079
 20
-142.6507391310037
 30
0.0
 10
104.30922483885
 20
-142.6955066309929
 30
0.0
 10
104.30922483885
 20
-142.7509632976456
 30
0.0
 10
104.30922483885
 20
-142.8061024642987
 30
0.0
 10
104.3539923377079
 20
-142.8508699642873
 30
0.0
 10
104.4091315029678
 20
-142.8508699642873
 30
0.0
 10
104.4642353904509
 20
-142.8508699642873
 30
0.0
 10
104.5090381670856
 20
-142.8061024642987
 30
0.0
 10
104.5090381670856
 20
-142.7509632976456
 30
0.0
  0
SPLINE
  5
91
330
1F
100
AcDbEntity
  8
_U+30EC_U+30A4_U+30E4_U+30FC 1
 62
     7
420
 16777215
370
     9
100
AcDbSpline
210
0.0
220
0.0
230
1.0
 70
    11
 71
     3
 72
    17
 73
    13
 74
     0
 42
0.0000000001
 43
0.0000000001
 12
1.0
 22
0.0
 32
0.0
 13
1.0
 23
0.0
 33
0.0
 40
0.0
 40
0.0
 40
0.0
 40
0.0
 40
1.0
 40
1.0
 40
1.0
 40
2.0
 40
2.0
 40
2.0
 40
3.0
 40
3.0
 40
3.0
 40
4.0
 40
4.0
 40
4.0
 40
4.0
 10
98.30925110303316
 20
-123.4508791358041
 30
0.0
 10
98.30925110303316
 20
-123.3953871913733
 30
0.0
 10
98.26444832639841
 20
-123.3506196913847
 30
0.0
 10
98.20934443891532
 20
-123.3506196913847
 30
0.0
 10
98.1535349958947
 20
-123.3506196913847
 30
0.0
 10
98.10873221925993
 20
-123.3953871913733
 30
0.0
 10
98.10873221925993
 20
-123.4508791358041
 30
0.0
 10
98.10873221925993
 20
-123.505983024679
 30
0.0
 10
98.1535349958947
 20
-123.5507858024457
 30
0.0
 10
98.20934443891532
 20
-123.5507858024457
 30
0.0
 10
98.26444832639841
 20
-123.5507858024457
 30
0.0
 10
98.30925110303316
 20
-123.505983024679
 30
0.0
 10
98.30925110303316
 20
-123.4508791358041
 30
0.0
  0
SPLINE
  5
92
330
1F
100
AcDbEntity
  8
_U+30EC_U+30A4_U+30E4_U+30FC 1
 62
     7
420
 16777215
370
     9
100
AcDbSpline
210
0.0
220
0.0
230
1.0
 70
    11
 71
     3
 72
    17
 73
    13
 74
     0
 42
0.0000000001
 43
0.0000000001
 12
1.0
 22
0.0
 32
0.0
 13
1.0
 23
0.0
 33
0.0
 40
0.0
 40
0.0
 40
0.0
 40
0.0
 40
1.0
 40
1.0
 40
1.0
 40
2.0
 40
2.0
 40
2.0
 40
3.0
 40
3.0
 40
3.0
 40
4.0
 40
4.0
 40
4.0
 40
4.0
 10
94.30878886531181
 20
-119.4507671923595
 30
0.0
 10
94.30878886531181
 20
-119.3956280257067
 30
0.0
 10
94.26401898401342
 20
-119.3508605257178
 30
0.0
 10
94.20887981875346
 20
-119.3508605257178
 30
0.0
 10
94.15377593127039
 20
-119.3508605257178
 30
0.0
 10
94.10897315463563
 20
-119.3956280257067
 30
0.0
 10
94.10897315463563
 20
-119.4507671923595
 30
0.0
 10
94.10897315463563
 20
-119.5058710812347
 30
0.0
 10
94.15377593127039
 20
-119.5506738590011
 30
0.0
 10
94.20887981875346
 20
-119.5506738590011
 30
0.0
 10
94.26401898401342
 20
-119.5506738590011
 30
0.0
 10
94.30878886531181
 20
-119.5058710812347
 30
0.0
 10
94.30878886531181
 20
-119.4507671923595
 30
0.0
  0
SPLINE
  5
93
330
1F
100
AcDbEntity
  8
_U+30EC_U+30A4_U+30E4_U+30FC 1
 62
     7
420
 16777215
370
     9
100
AcDbSpline
210
0.0
220
0.0
230
1.0
 70
    11
 71
     3
 72
    17
 73
    13
 74
     0
 42
0.0000000001
 43
0.0000000001
 12
1.0
 22
0.0
 32
0.0
 13
1.0
 23
0.0
 33
0.0
 40
0.0
 40
0.0
 40
0.0
 40
0.0
 40
1.0
 40
1.0
 40
1.0
 40
2.0
 40
2.0
 40
2.0
 40
3.0
 40
3.0
 40
3.0
 40
4.0
 40
4.0
 40
4.0
 40
4.0
 10
87.30904055033858
 20
-119.4507671923595
 30
0.0
 10
87.30904055033858
 20
-119.3956280257067
 30
0.0
 10
87.2642730514807
 20
-119.3508605257178
 30
0.0
 10
87.20913608930896
 20
-119.3508605257178
 30
0.0
 10
87.15402999873767
 20
-119.3508605257178
 30
0.0
 10
87.10922722210292
 20
-119.3956280257067
 30
0.0
 10
87.10922722210292
 20
-119.4507671923595
 30
0.0
 10
87.10922722210292
 20
-119.5058710812347
 30
0.0
 10
87.15402999873767
 20
-119.5506738590011
 30
0.0
 10
87.20913608930896
 20
-119.5506738590011
 30
0.0
 10
87.2642730514807
 20
-119.5506738590011
 30
0.0
 10
87.30904055033858
 20
-119.5058710812347
 30
0.0
 10
87.30904055033858
 20
-119.4507671923595
 30
0.0
  0
SPLINE
  5
94
330
1F
100
AcDbEntity
  8
_U+30EC_U+30A4_U+30E4_U+30FC 1
 62
     7
420
 16777215
370
     9
100
AcDbSpline
210
0.0
220
0.0
230
1.0
 70
    11
 71
     3
 72
    17
 73
    13
 74
     0
 42
0.0000000001
 43
0.0000000001
 12
1.0
 22
0.0
 32
0.0
 13
1.0
 23
0.0
 33
0.0
 40
0.0
 40
0.0
 40
0.0
 40
0.0
 40
1.0
 40
1.0
 40
1.0
 40
2.0
 40
2.0
 40
2.0
 40
3.0
 40
3.0
 40
3.0
 40
4.0
 40
4.0
 40
4.0
 40
4.0
 10
79.80891664671428
 20
-114.2503994158819
 30
0.0
 10
79.80891664671428
 20
-114.1949074714514
 30
0.0
 10
79.76411386894789
 20
-114.1501399714626
 30
0.0
 10
79.7090079664538
 20
-114.1501399714626
 30
0.0
 10
79.65386880119384
 20
-114.1501399714626
 30
0.0
 10
79.60910130233596
 20
-114.1949074714514
 30
0.0
 10
79.60910130233596
 20
-114.2503994158819
 30
0.0
 10
79.60910130233596
 20
-114.3058560825346
 30
0.0
 10
79.65386880119384
 20
-114.3503060825236
 30
0.0
 10
79.7090079664538
 20
-114.3503060825236
 30
0.0
 10
79.76411386894789
 20
-114.3503060825236
 30
0.0
 10
79.80891664671428
 20
-114.3058560825346
 30
0.0
 10
79.80891664671428
 20
-114.2503994158819
 30
0.0
  0
SPLINE
  5
95
330
1F
100
AcDbEntity
  8
_U+30EC_U+30A4_U+30E4_U+30FC 1
 62
     7
420
 16777215
370
     9
100
AcDbSpline
210
0.0
220
0.0
230
1.0
 70
    11
 71
     3
 72
    17
 73
    13
 74
     0
 42
0.0000000001
 43
0.0000000001
 12
1.0
 22
0.0
 32
0.0
 13
1.0
 23
0.0
 33
0.0
 40
0.0
 40
0.0
 40
0.0
 40
0.0
 40
1.0
 40
1.0
 40
1.0
 40
2.0
 40
2.0
 40
2.0
 40
3.0
 40
3.0
 40
3.0
 40
4.0
 40
4.0
 40
4.0
 40
4.0
 10
79.00895576209139
 20
-114.2503994158819
 30
0.0
 10
79.00895576209139
 20
-114.1949074714514
 30
0.0
 10
78.96415298545662
 20
-114.1501399714626
 30
0.0
 10
78.90904909797355
 20
-114.1501399714626
 30
0.0
 10
78.8539099327136
 20
-114.1501399714626
 30
0.0
 10
78.80914442474207
 20
-114.1949074714514
 30
0.0
 10
78.80914442474207
 20
-114.2503994158819
 30
0.0
 10
78.80914442474207
 20
-114.3058560825346
 30
0.0
 10
78.8539099327136
 20
-114.3503060825236
 30
0.0
 10
78.90904909797355
 20
-114.3503060825236
 30
0.0
 10
78.96415298545662
 20
-114.3503060825236
 30
0.0
 10
79.00895576209139
 20
-114.3058560825346
 30
0.0
 10
79.00895576209139
 20
-114.2503994158819
 30
0.0
  0
SPLINE
  5
96
330
1F
100
AcDbEntity
  8
_U+30EC_U+30A4_U+30E4_U+30FC 1
 62
     7
420
 16777215
370
     9
100
AcDbSpline
210
0.0
220
0.0
230
1.0
 70
    11
 71
     3
 72
    17
 73
    13
 74
     0
 42
0.0000000001
 43
0.0000000001
 12
1.0
 22
0.0
 32
0.0
 13
1.0
 23
0.0
 33
0.0
 40
0.0
 40
0.0
 40
0.0
 40
0.0
 40
1.0
 40
1.0
 40
1.0
 40
2.0
 40
2.0
 40
2.0
 40
3.0
 40
3.0
 40
3.0
 40
4.0
 40
4.0
 40
4.0
 40
4.0
 10
108.5087999728731
 20
-131.4507149671375
 30
0.0
 10
108.5087999728731
 20
-131.3956110782619
 30
0.0
 10
108.4639971951063
 20
-131.3508083004958
 30
0.0
 10
108.4088905675921
 20
-131.3508083004958
 30
0.0
 10
108.3537514023322
 20
-131.3508083004958
 30
0.0
 10
108.3089839034743
 20
-131.3956110782619
 30
0.0
 10
108.3089839034743
 20
-131.4507149671375
 30
0.0
 10
108.3089839034743
 20
-131.5061716337901
 30
0.0
 10
108.3537514023322
 20
-131.5509744115569
 30
0.0
 10
108.4088905675921
 20
-131.5509744115569
 30
0.0
 10
108.4639971951063
 20
-131.5509744115569
 30
0.0
 10
108.5087999728731
 20
-131.5061716337901
 30
0.0
 10
108.5087999728731
 20
-131.4507149671375
 30
0.0
  0
SPLINE
  5
97
330
1F
100
AcDbEntity
  8
_U+30EC_U+30A4_U+30E4_U+30FC 1
 62
     7
420
 16777215
370
     9
100
AcDbSpline
210
0.0
220
0.0
230
1.0
 70
    11
 71
     3
 72
    17
 73
    13
 74
     0
 42
0.0000000001
 43
0.0000000001
 12
1.0
 22
0.0
 32
0.0
 13
1.0
 23
0.0
 33
0.0
 40
0.0
 40
0.0
 40
0.0
 40
0.0
 40
1.0
 40
1.0
 40
1.0
 40
2.0
 40
2.0
 40
2.0
 40
3.0
 40
3.0
 40
3.0
 40
4.0
 40
4.0
 40
4.0
 40
4.0
 10
108.5087999728731
 20
-137.9509277432899
 30
0.0
 10
108.5087999728731
 20
-137.8954710766372
 30
0.0
 10
108.4639971951063
 20
-137.8506682988705
 30
0.0
 10
108.4088905675921
 20
-137.8506682988705
 30
0.0
 10
108.3537514023322
 20
-137.8506682988705
 30
0.0
 10
108.3089839034743
 20
-137.8954710766372
 30
0.0
 10
108.3089839034743
 20
-137.9509277432899
 30
0.0
 10
108.3089839034743
 20
-138.0060316321654
 30
0.0
 10
108.3537514023322
 20
-138.0508344099315
 30
0.0
 10
108.4088905675921
 20
-138.0508344099315
 30
0.0
 10
108.4639971951063
 20
-138.0508344099315
 30
0.0
 10
108.5087999728731
 20
-138.0060316321654
 30
0.0
 10
108.5087999728731
 20
-137.9509277432899
 30
0.0
  0
POLYLINE
  5
98
330
1F
100
AcDbEntity
  8
_U+30EC_U+30A4_U+30E4_U+30FC 1
 62
     7
420
 16777215
370
     9
100
AcDb2dPolyline
 66
     1
 10
0.0
 20
0.0
 30
0.0
  0
VERTEX
  5
99
330
98
100
AcDbEntity
  8
_U+30EC_U+30A4_U+30E4_U+30FC 1
 62
     7
420
 16777215
370
     9
100
AcDbVertex
100
AcDb2dVertex
 10
87.20913608930896
 20
-119.4507671923595
 30
0.0
  0
VERTEX
  5
9A
330
98
100
AcDbEntity
  8
_U+30EC_U+30A4_U+30E4_U+30FC 1
 62
     7
420
 16777215
370
     9
100
AcDbVertex
100
AcDb2dVertex
 10
94.20887981875346
 20
-119.4507671923595
 30
0.0
  0
SEQEND
  5
9B
330
98
100
AcDbEntity
  8
_U+30EC_U+30A4_U+30E4_U+30FC 1
 62
     7
420
 16777215
370
     9
  0
POLYLINE
  5
9C
330
1F
100
AcDbEntity
  8
_U+30EC_U+30A4_U+30E4_U+30FC 1
 62
     7
420
 16777215
370
     9
100
AcDb2dPolyline
 66
     1
 10
0.0
 20
0.0
 30
0.0
  0
VERTEX
  5
9D
330
9C
100
AcDbEntity
  8
_U+30EC_U+30A4_U+30E4_U+30FC 1
 62
     7
420
 16777215
370
     9
100
AcDbVertex
100
AcDb2dVertex
 10
87.20913608930896
 20
-120.9108085808835
 30
0.0
  0
VERTEX
  5
9E
330
9C
100
AcDbEntity
  8
_U+30EC_U+30A4_U+30E4_U+30FC 1
 62
     7
420
 16777215
370
     9
100
AcDbVertex
100
AcDb2dVertex
 10
87.20913608930896
 20
-118.4509949703872
 30
0.0
  0
SEQEND
  5
9F
330
9C
100
AcDbEntity
  8
_U+30EC_U+30A4_U+30E4_U+30FC 1
 62
     7
420
 16777215
370
     9
  0
POLYLINE
  5
A0
330
1F
100
AcDbEntity
  8
_U+30EC_U+30A4_U+30E4_U+30FC 1
 62
     7
420
 16777215
370
     9
100
AcDb2dPolyline
 66
     1
 10
0.0
 20
0.0
 30
0.0
  0
VERTEX
  5
A1
330
A0
100
AcDbEntity
  8
_U+30EC_U+30A4_U+30E4_U+30FC 1
 62
     7
420
 16777215
370
     9
100
AcDbVertex
100
AcDb2dVertex
 10
94.20887981875346
 20
-128.9109971899943
 30
0.0
  0
VERTEX
  5
A2
330
A0
100
AcDbEntity
  8
_U+30EC_U+30A4_U+30E4_U+30FC 1
 62
     7
420
 16777215
370
     9
100
AcDbVertex
100
AcDb2dVertex
 10
94.20887981875346
 20
-118.4509949703872
 30
0.0
  0
SEQEND
  5
A3
330
A0
100
AcDbEntity
  8
_U+30EC_U+30A4_U+30E4_U+30FC 1
 62
     7
420
 16777215
370
     9
  0
INSERT
  5
A5
330
1F
100
AcDbEntity
  8
_U+30EC_U+30A4_U+30E4_U+30FC 1
100
AcDbBlockReference
  2
block 2
 10
0.0
 20
0.0
 30
0.0
  0
POLYLINE
  5
AA
330
1F
100
AcDbEntity
  8
_U+30EC_U+30A4_U+30E4_U+30FC 1
 62
     7
420
 16777215
370
     9
100
AcDb2dPolyline
 66
     1
 10
0.0
 20
0.0
 30
0.0
  0
VERTEX
  5
AB
330
AA
100
AcDbEntity
  8
_U+30EC_U+30A4_U+30E4_U+30FC 1
 62
     7
420
 16777215
370
     9
100
AcDbVertex
100
AcDb2dVertex
 10
98.20934443891532
 20
-123.4508791358041
 30
0.0
  0
VERTEX
  5
AC
330
AA
100
AcDbEntity
  8
_U+30EC_U+30A4_U+30E4_U+30FC 1
 62
     7
420
 16777215
370
     9
100
AcDbVertex
100
AcDb2dVertex
 10
98.20934443891532
 20
-130.4509427451649
 30
0.0
  0
SEQEND
  5
AD
330
AA
100
AcDbEntity
  8
_U+30EC_U+30A4_U+30E4_U+30FC 1
 62
     7
420
 16777215
370
     9
  0
POLYLINE
  5
AE
330
1F
100
AcDbEntity
  8
_U+30EC_U+30A4_U+30E4_U+30FC 1
 62
     7
420
 16777215
370
     9
100
AcDb2dPolyline
 66
     1
 10
0.0
 20
0.0
 30
0.0
  0
VERTEX
  5
AF
330
AE
100
AcDbEntity
  8
_U+30EC_U+30A4_U+30E4_U+30FC 1
 62
     7
420
 16777215
370
     9
100
AcDbVertex
100
AcDb2dVertex
 10
88.7491146802659
 20
-123.4508791358041
 30
0.0
  0
VERTEX
  5
B0
330
AE
100
AcDbEntity
  8
_U+30EC_U+30A4_U+30E4_U+30FC 1
 62
     7
420
 16777215
370
     9
100
AcDbVertex
100
AcDb2dVertex
 10
99.20911663563123
 20
-123.4508791358041
 30
0.0
  0
SEQEND
  5
B1
330
AE
100
AcDbEntity
  8
_U+30EC_U+30A4_U+30E4_U+30FC 1
 62
     7
420
 16777215
370
     9
  0
POLYLINE
  5
B2
330
1F
100
AcDbEntity
  8
_U+30EC_U+30A4_U+30E4_U+30FC 1
 62
     7
420
 16777215
370
     9
100
AcDb2dPolyline
 66
     1
 10
0.0
 20
0.0
 30
0.0
  0
VERTEX
  5
B3
330
B2
100
AcDbEntity
  8
_U+30EC_U+30A4_U+30E4_U+30FC 1
 62
     7
420
 16777215
370
     9
100
AcDbVertex
100
AcDb2dVertex
 10
96.74930553136824
 20
-131.4507149671375
 30
0.0
  0
VERTEX
  5
B4
330
B2
100
AcDbEntity
  8
_U+30EC_U+30A4_U+30E4_U+30FC 1
 62
     7
420
 16777215
370
     9
100
AcDbVertex
100
AcDb2dVertex
 10
99.20911663563123
 20
-131.4507149671375
 30
0.0
  0
SEQEND
  5
B5
330
B2
100
AcDbEntity
  8
_U+30EC_U+30A4_U+30E4_U+30FC 1
 62
     7
420
 16777215
370
     9
  0
INSERT
  5
B7
330
1F
100
AcDbEntity
  8
_U+30EC_U+30A4_U+30E4_U+30FC 1
100
AcDbBlockReference
  2
block 3
 10
0.0
 20
0.0
 30
0.0
  0
POLYLINE
  5
BC
330
1F
100
AcDbEntity
  8
_U+30EC_U+30A4_U+30E4_U+30FC 1
 62
     7
420
 16777215
370
     9
100
AcDb2dPolyline
 66
     1
 10
0.0
 20
0.0
 30
0.0
  0
VERTEX
  5
BD
330
BC
100
AcDbEntity
  8
_U+30EC_U+30A4_U+30E4_U+30FC 1
 62
     7
420
 16777215
370
     9
100
AcDbVertex
100
AcDb2dVertex
 10
87.20913608930896
 20
-127.4509558014706
 30
0.0
  0
VERTEX
  5
BE
330
BC
100
AcDbEntity
  8
_U+30EC_U+30A4_U+30E4_U+30FC 1
 62
     7
420
 16777215
370
     9
100
AcDbVertex
100
AcDb2dVertex
 10
90.97944629003207
 20
-127.4509558014706
 30
0.0
  0
SEQEND
  5
BF
330
BC
100
AcDbEntity
  8
_U+30EC_U+30A4_U+30E4_U+30FC 1
 62
     7
420
 16777215
370
     9
  0
POLYLINE
  5
C0
330
1F
100
AcDbEntity
  8
_U+30EC_U+30A4_U+30E4_U+30FC 1
 62
     7
420
 16777215
370
     9
100
AcDb2dPolyline
 66
     1
 10
0.0
 20
0.0
 30
0.0
  0
VERTEX
  5
C1
330
C0
100
AcDbEntity
  8
_U+30EC_U+30A4_U+30E4_U+30FC 1
 62
     7
420
 16777215
370
     9
100
AcDbVertex
100
AcDb2dVertex
 10
87.20913608930896
 20
-127.4509558014706
 30
0.0
  0
VERTEX
  5
C2
330
C0
100
AcDbEntity
  8
_U+30EC_U+30A4_U+30E4_U+30FC 1
 62
     7
420
 16777215
370
     9
100
AcDbVertex
100
AcDb2dVertex
 10
85.20891921502826
 20
-127.4509558014706
 30
0.0
  0
SEQEND
  5
C3
330
C0
100
AcDbEntity
  8
_U+30EC_U+30A4_U+30E4_U+30FC 1
 62
     7
420
 16777215
370
     9
  0
POLYLINE
  5
C4
330
1F
100
AcDbEntity
  8
_U+30EC_U+30A4_U+30E4_U+30FC 1
 62
     7
420
 16777215
370
    25
100
AcDb2dPolyline
 66
     1
 10
0.0
 20
0.0
 30
0.0
  0
VERTEX
  5
C5
330
C4
100
AcDbEntity
  8
_U+30EC_U+30A4_U+30E4_U+30FC 1
 62
     7
420
 16777215
370
    25
100
AcDbVertex
100
AcDb2dVertex
 10
87.20913608930896
 20
-129.9906735786138
 30
0.0
  0
VERTEX
  5
C6
330
C4
100
AcDbEntity
  8
_U+30EC_U+30A4_U+30E4_U+30FC 1
 62
     7
420
 16777215
370
    25
100
AcDbVertex
100
AcDb2dVertex
 10
87.20913608930896
 20
-127.4516613570261
 30
0.0
  0
SEQEND
  5
C7
330
C4
100
AcDbEntity
  8
_U+30EC_U+30A4_U+30E4_U+30FC 1
 62
     7
420
 16777215
370
    25
  0
POLYLINE
  5
C8
330
1F
100
AcDbEntity
  8
_U+30EC_U+30A4_U+30E4_U+30FC 1
 62
     7
420
 16777215
370
    25
100
AcDb2dPolyline
 66
     1
 10
0.0
 20
0.0
 30
0.0
  0
VERTEX
  5
C9
330
C8
100
AcDbEntity
  8
_U+30EC_U+30A4_U+30E4_U+30FC 1
 62
     7
420
 16777215
370
    25
100
AcDbVertex
100
AcDb2dVertex
 10
86.2093638673364
 20
-129.9906735786138
 30
0.0
  0
VERTEX
  5
CA
330
C8
100
AcDbEntity
  8
_U+30EC_U+30A4_U+30E4_U+30FC 1
 62
     7
420
 16777215
370
    25
100
AcDbVertex
100
AcDb2dVertex
 10
86.2093638673364
 20
-127.4516613570261
 30
0.0
  0
SEQEND
  5
CB
330
C8
100
AcDbEntity
  8
_U+30EC_U+30A4_U+30E4_U+30FC 1
 62
     7
420
 16777215
370
    25
  0
INSERT
  5
CD
330
1F
100
AcDbEntity
  8
_U+30EC_U+30A4_U+30E4_U+30FC 1
100
AcDbBlockReference
  2
block 4
 10
0.0
 20
0.0
 30
0.0
  0
POLYLINE
  5
D2
330
1F
100
AcDbEntity
  8
_U+30EC_U+30A4_U+30E4_U+30FC 1
 62
     7
420
 16777215
370
     9
100
AcDb2dPolyline
 66
     1
 10
0.0
 20
0.0
 30
0.0
  0
VERTEX
  5
D3
330
D2
100
AcDbEntity
  8
_U+30EC_U+30A4_U+30E4_U+30FC 1
 62
     7
420
 16777215
370
     9
100
AcDbVertex
100
AcDb2dVertex
 10
76.7875494298753
 20
-144.4077135750091
 30
0.0
  0
VERTEX
  5
D4
330
D2
100
AcDbEntity
  8
_U+30EC_U+30A4_U+30E4_U+30FC 1
 62
     7
420
 16777215
370
     9
100
AcDbVertex
100
AcDb2dVertex
 10
73.25218887057592
 20
-140.8720335758931
 30
0.0
  0
SEQEND
  5
D5
330
D2
100
AcDbEntity
  8
_U+30EC_U+30A4_U+30E4_U+30FC 1
 62
     7
420
 16777215
370
     9
  0
POLYLINE
  5
D6
330
1F
100
AcDbEntity
  8
_U+30EC_U+30A4_U+30E4_U+30FC 1
 62
     7
420
 16777215
370
     9
100
AcDb2dPolyline
 66
     1
 10
0.0
 20
0.0
 30
0.0
  0
VERTEX
  5
D7
330
D6
100
AcDbEntity
  8
_U+30EC_U+30A4_U+30E4_U+30FC 1
 62
     7
420
 16777215
370
     9
100
AcDbVertex
100
AcDb2dVertex
 10
80.6484904424856
 20
-140.5468077426412
 30
0.0
  0
VERTEX
  5
D8
330
D6
100
AcDbEntity
  8
_U+30EC_U+30A4_U+30E4_U+30FC 1
 62
     7
420
 16777215
370
     9
100
AcDbVertex
100
AcDb2dVertex
 10
76.08061805902173
 20
-145.1146449637211
 30
0.0
  0
SEQEND
  5
D9
330
D6
100
AcDbEntity
  8
_U+30EC_U+30A4_U+30E4_U+30FC 1
 62
     7
420
 16777215
370
     9
  0
POLYLINE
  5
DA
330
1F
100
AcDbEntity
  8
_U+30EC_U+30A4_U+30E4_U+30FC 1
 62
     7
420
 16777215
370
     9
100
AcDb2dPolyline
 66
     1
 10
0.0
 20
0.0
 30
0.0
  0
VERTEX
  5
DB
330
DA
100
AcDbEntity
  8
_U+30EC_U+30A4_U+30E4_U+30FC 1
 62
     7
420
 16777215
370
     9
100
AcDbVertex
100
AcDb2dVertex
 10
77.11277525491143
 20
-137.0114452435248
 30
0.0
  0
VERTEX
  5
DC
330
DA
100
AcDbEntity
  8
_U+30EC_U+30A4_U+30E4_U+30FC 1
 62
     7
420
 16777215
370
     9
100
AcDbVertex
100
AcDb2dVertex
 10
72.54525564921634
 20
-141.5792824646053
 30
0.0
  0
SEQEND
  5
DD
330
DA
100
AcDbEntity
  8
_U+30EC_U+30A4_U+30E4_U+30FC 1
 62
     7
420
 16777215
370
     9
  0
INSERT
  5
DF
330
1F
100
AcDbEntity
  8
_U+30EC_U+30A4_U+30E4_U+30FC 1
100
AcDbBlockReference
  2
block 5
 10
0.0
 20
0.0
 30
0.0
  0
POLYLINE
  5
E4
330
1F
100
AcDbEntity
  8
_U+30EC_U+30A4_U+30E4_U+30FC 1
 62
     7
420
 16777215
370
     9
100
AcDb2dPolyline
 66
     1
 10
0.0
 20
0.0
 30
0.0
  0
VERTEX
  5
E5
330
E4
100
AcDbEntity
  8
_U+30EC_U+30A4_U+30E4_U+30FC 1
 62
     7
420
 16777215
370
     9
100
AcDbVertex
100
AcDb2dVertex
 10
79.7090079664538
 20
-114.2503994158819
 30
0.0
  0
VERTEX
  5
E6
330
E4
100
AcDbEntity
  8
_U+30EC_U+30A4_U+30E4_U+30FC 1
 62
     7
420
 16777215
370
     9
100
AcDbVertex
100
AcDb2dVertex
 10
84.96709005453117
 20
-114.2503994158819
 30
0.0
  0
SEQEND
  5
E7
330
E4
100
AcDbEntity
  8
_U+30EC_U+30A4_U+30E4_U+30FC 1
 62
     7
420
 16777215
370
     9
  0
POLYLINE
  5
E8
330
1F
100
AcDbEntity
  8
_U+30EC_U+30A4_U+30E4_U+30FC 1
 62
     7
420
 16777215
370
     9
100
AcDb2dPolyline
 66
     1
 10
0.0
 20
0.0
 30
0.0
  0
VERTEX
  5
E9
330
E8
100
AcDbEntity
  8
_U+30EC_U+30A4_U+30E4_U+30FC 1
 62
     7
420
 16777215
370
     9
100
AcDbVertex
100
AcDb2dVertex
 10
77.90927690125764
 20
-114.2503994158819
 30
0.0
  0
VERTEX
  5
EA
330
E8
100
AcDbEntity
  8
_U+30EC_U+30A4_U+30E4_U+30FC 1
 62
     7
420
 16777215
370
     9
100
AcDbVertex
100
AcDb2dVertex
 10
79.7090079664538
 20
-114.2503994158819
 30
0.0
  0
SEQEND
  5
EB
330
E8
100
AcDbEntity
  8
_U+30EC_U+30A4_U+30E4_U+30FC 1
 62
     7
420
 16777215
370
     9
  0
POLYLINE
  5
EC
330
1F
100
AcDbEntity
  8
_U+30EC_U+30A4_U+30E4_U+30FC 1
 62
     7
420
 16777215
370
     9
100
AcDb2dPolyline
 66
     1
 10
0.0
 20
0.0
 30
0.0
  0
VERTEX
  5
ED
330
EC
100
AcDbEntity
  8
_U+30EC_U+30A4_U+30E4_U+30FC 1
 62
     7
420
 16777215
370
     9
100
AcDbVertex
100
AcDb2dVertex
 10
78.90904909797355
 20
-115.7107583044056
 30
0.0
  0
VERTEX
  5
EE
330
EC
100
AcDbEntity
  8
_U+30EC_U+30A4_U+30E4_U+30FC 1
 62
     7
420
 16777215
370
     9
100
AcDbVertex
100
AcDb2dVertex
 10
78.90904909797355
 20
-113.250274416132
 30
0.0
  0
SEQEND
  5
EF
330
EC
100
AcDbEntity
  8
_U+30EC_U+30A4_U+30E4_U+30FC 1
 62
     7
420
 16777215
370
     9
  0
POLYLINE
  5
F0
330
1F
100
AcDbEntity
  8
_U+30EC_U+30A4_U+30E4_U+30FC 1
 62
     7
420
 16777215
370
     9
100
AcDb2dPolyline
 66
     1
 10
0.0
 20
0.0
 30
0.0
  0
VERTEX
  5
F1
330
F0
100
AcDbEntity
  8
_U+30EC_U+30A4_U+30E4_U+30FC 1
 62
     7
420
 16777215
370
     9
100
AcDbVertex
100
AcDb2dVertex
 10
79.7090079664538
 20
-115.9195321932423
 30
0.0
  0
VERTEX
  5
F2
330
F0
100
AcDbEntity
  8
_U+30EC_U+30A4_U+30E4_U+30FC 1
 62
     7
420
 16777215
370
     9
100
AcDbVertex
100
AcDb2dVertex
 10
79.7090079664538
 20
-113.250274416132
 30
0.0
  0
SEQEND
  5
F3
330
F0
100
AcDbEntity
  8
_U+30EC_U+30A4_U+30E4_U+30FC 1
 62
     7
420
 16777215
370
     9
  0
INSERT
  5
F5
330
1F
100
AcDbEntity
  8
_U+30EC_U+30A4_U+30E4_U+30FC 1
100
AcDbBlockReference
  2
block 6
 10
0.0
 20
0.0
 30
0.0
  0
POLYLINE
  5
107
330
1F
100
AcDbEntity
  8
_U+30EC_U+30A4_U+30E4_U+30FC 1
 62
     7
420
 16777215
370
     9
100
AcDb2dPolyline
 66
     1
 10
0.0
 20
0.0
 30
0.0
  0
VERTEX
  5
108
330
107
100
AcDbEntity
  8
_U+30EC_U+30A4_U+30E4_U+30FC 1
 62
     7
420
 16777215
370
     9
100
AcDbVertex
100
AcDb2dVertex
 10
74.90929003334924
 20
-118.2508288593262
 30
0.0
  0
VERTEX
  5
109
330
107
100
AcDbEntity
  8
_U+30EC_U+30A4_U+30E4_U+30FC 1
 62
     7
420
 16777215
370
     9
100
AcDbVertex
100
AcDb2dVertex
 10
74.90929003334924
 20
-138.7508866319791
 30
0.0
  0
SEQEND
  5
10A
330
107
100
AcDbEntity
  8
_U+30EC_U+30A4_U+30E4_U+30FC 1
 62
     7
420
 16777215
370
     9
  0
POLYLINE
  5
10B
330
1F
100
AcDbEntity
  8
_U+30EC_U+30A4_U+30E4_U+30FC 1
 62
     7
420
 16777215
370
     9
100
AcDb2dPolyline
 66
     1
 10
0.0
 20
0.0
 30
0.0
  0
VERTEX
  5
10C
330
10B
100
AcDbEntity
  8
_U+30EC_U+30A4_U+30E4_U+30FC 1
 62
     7
420
 16777215
370
     9
100
AcDbVertex
100
AcDb2dVertex
 10
76.36898053646341
 20
-118.2508288593262
 30
0.0
  0
VERTEX
  5
10D
330
10B
100
AcDbEntity
  8
_U+30EC_U+30A4_U+30E4_U+30FC 1
 62
     7
420
 16777215
370
     9
100
AcDbVertex
100
AcDb2dVertex
 10
73.90884755887265
 20
-118.2508288593262
 30
0.0
  0
SEQEND
  5
10E
330
10B
100
AcDbEntity
  8
_U+30EC_U+30A4_U+30E4_U+30FC 1
 62
     7
420
 16777215
370
     9
  0
POLYLINE
  5
10F
330
1F
100
AcDbEntity
  8
_U+30EC_U+30A4_U+30E4_U+30FC 1
 62
     7
420
 16777215
370
     9
100
AcDb2dPolyline
 66
     1
 10
0.0
 20
0.0
 30
0.0
  0
VERTEX
  5
110
330
10F
100
AcDbEntity
  8
_U+30EC_U+30A4_U+30E4_U+30FC 1
 62
     7
420
 16777215
370
     9
100
AcDbVertex
100
AcDb2dVertex
 10
79.90469379479477
 20
-138.7508866319791
 30
0.0
  0
VERTEX
  5
111
330
10F
100
AcDbEntity
  8
_U+30EC_U+30A4_U+30E4_U+30FC 1
 62
     7
420
 16777215
370
     9
100
AcDbVertex
100
AcDb2dVertex
 10
73.90884755887265
 20
-138.7508866319791
 30
0.0
  0
SEQEND
  5
112
330
10F
100
AcDbEntity
  8
_U+30EC_U+30A4_U+30E4_U+30FC 1
 62
     7
420
 16777215
370
     9
  0
INSERT
  5
114
330
1F
100
AcDbEntity
  8
_U+30EC_U+30A4_U+30E4_U+30FC 1
100
AcDbBlockReference
  2
block 7
 10
0.0
 20
0.0
 30
0.0
  0
POLYLINE
  5
126
330
1F
100
AcDbEntity
  8
_U+30EC_U+30A4_U+30E4_U+30FC 1
 62
     7
420
 16777215
370
     9
100
AcDb2dPolyline
 66
     1
 10
0.0
 20
0.0
 30
0.0
  0
VERTEX
  5
127
330
126
100
AcDbEntity
  8
_U+30EC_U+30A4_U+30E4_U+30FC 1
 62
     7
420
 16777215
370
     9
100
AcDbVertex
100
AcDb2dVertex
 10
78.90904909797355
 20
-142.7509632976456
 30
0.0
  0
VERTEX
  5
128
330
126
100
AcDbEntity
  8
_U+30EC_U+30A4_U+30E4_U+30FC 1
 62
     7
420
 16777215
370
     9
100
AcDbVertex
100
AcDb2dVertex
 10
104.4091315029678
 20
-142.7509632976456
 30
0.0
  0
SEQEND
  5
129
330
126
100
AcDbEntity
  8
_U+30EC_U+30A4_U+30E4_U+30FC 1
 62
     7
420
 16777215
370
     9
  0
POLYLINE
  5
12A
330
1F
100
AcDbEntity
  8
_U+30EC_U+30A4_U+30E4_U+30FC 1
 62
     7
420
 16777215
370
     9
100
AcDb2dPolyline
 66
     1
 10
0.0
 20
0.0
 30
0.0
  0
VERTEX
  5
12B
330
12A
100
AcDbEntity
  8
_U+30EC_U+30A4_U+30E4_U+30FC 1
 62
     7
420
 16777215
370
     9
100
AcDbVertex
100
AcDb2dVertex
 10
78.90904909797355
 20
-137.7552419100059
 30
0.0
  0
VERTEX
  5
12C
330
12A
100
AcDbEntity
  8
_U+30EC_U+30A4_U+30E4_U+30FC 1
 62
     7
420
 16777215
370
     9
100
AcDbVertex
100
AcDb2dVertex
 10
78.90904909797355
 20
-143.7507355196182
 30
0.0
  0
SEQEND
  5
12D
330
12A
100
AcDbEntity
  8
_U+30EC_U+30A4_U+30E4_U+30FC 1
 62
     7
420
 16777215
370
     9
  0
POLYLINE
  5
12E
330
1F
100
AcDbEntity
  8
_U+30EC_U+30A4_U+30E4_U+30FC 1
 62
     7
420
 16777215
370
     9
100
AcDb2dPolyline
 66
     1
 10
0.0
 20
0.0
 30
0.0
  0
VERTEX
  5
12F
330
12E
100
AcDbEntity
  8
_U+30EC_U+30A4_U+30E4_U+30FC 1
 62
     7
420
 16777215
370
     9
100
AcDbVertex
100
AcDb2dVertex
 10
104.4091315029678
 20
-141.2909571868994
 30
0.0
  0
VERTEX
  5
130
330
12E
100
AcDbEntity
  8
_U+30EC_U+30A4_U+30E4_U+30FC 1
 62
     7
420
 16777215
370
     9
100
AcDbVertex
100
AcDb2dVertex
 10
104.4091315029678
 20
-143.7507355196182
 30
0.0
  0
SEQEND
  5
131
330
12E
100
AcDbEntity
  8
_U+30EC_U+30A4_U+30E4_U+30FC 1
 62
     7
420
 16777215
370
     9
  0
INSERT
  5
133
330
1F
100
AcDbEntity
  8
_U+30EC_U+30A4_U+30E4_U+30FC 1
100
AcDbBlockReference
  2
block 8
 10
0.0
 20
0.0
 30
0.0
  0
POLYLINE
  5
144
330
1F
100
AcDbEntity
  8
_U+30EC_U+30A4_U+30E4_U+30FC 1
 62
     7
420
 16777215
370
     9
100
AcDb2dPolyline
 66
     1
 10
0.0
 20
0.0
 30
0.0
  0
VERTEX
  5
145
330
144
100
AcDbEntity
  8
_U+30EC_U+30A4_U+30E4_U+30FC 1
 62
     7
420
 16777215
370
     9
100
AcDbVertex
100
AcDb2dVertex
 10
108.4088905675921
 20
-137.9509277432899
 30
0.0
  0
VERTEX
  5
146
330
144
100
AcDbEntity
  8
_U+30EC_U+30A4_U+30E4_U+30FC 1
 62
     7
420
 16777215
370
     9
100
AcDbVertex
100
AcDb2dVertex
 10
108.4088905675921
 20
-131.4507149671375
 30
0.0
  0
SEQEND
  5
147
330
144
100
AcDbEntity
  8
_U+30EC_U+30A4_U+30E4_U+30FC 1
 62
     7
420
 16777215
370
     9
  0
POLYLINE
  5
148
330
1F
100
AcDbEntity
  8
_U+30EC_U+30A4_U+30E4_U+30FC 1
 62
     7
420
 16777215
370
     9
100
AcDb2dPolyline
 66
     1
 10
0.0
 20
0.0
 30
0.0
  0
VERTEX
  5
149
330
148
100
AcDbEntity
  8
_U+30EC_U+30A4_U+30E4_U+30FC 1
 62
     7
420
 16777215
370
     9
100
AcDbVertex
100
AcDb2dVertex
 10
106.7407808879269
 20
-137.9509277432899
 30
0.0
  0
VERTEX
  5
14A
330
148
100
AcDbEntity
  8
_U+30EC_U+30A4_U+30E4_U+30FC 1
 62
     7
420
 16777215
370
     9
100
AcDbVertex
100
AcDb2dVertex
 10
109.4093330420687
 20
-137.9509277432899
 30
0.0
  0
SEQEND
  5
14B
330
148
100
AcDbEntity
  8
_U+30EC_U+30A4_U+30E4_U+30FC 1
 62
     7
420
 16777215
370
     9
  0
POLYLINE
  5
14C
330
1F
100
AcDbEntity
  8
_U+30EC_U+30A4_U+30E4_U+30FC 1
 62
     7
420
 16777215
370
     9
100
AcDb2dPolyline
 66
     1
 10
0.0
 20
0.0
 30
0.0
  0
VERTEX
  5
14D
330
14C
100
AcDbEntity
  8
_U+30EC_U+30A4_U+30E4_U+30FC 1
 62
     7
420
 16777215
370
     9
100
AcDbVertex
100
AcDb2dVertex
 10
96.74930553136824
 20
-131.4507149671375
 30
0.0
  0
VERTEX
  5
14E
330
14C
100
AcDbEntity
  8
_U+30EC_U+30A4_U+30E4_U+30FC 1
 62
     7
420
 16777215
370
     9
100
AcDbVertex
100
AcDb2dVertex
 10
109.4093330420687
 20
-131.4507149671375
 30
0.0
  0
SEQEND
  5
14F
330
14C
100
AcDbEntity
  8
_U+30EC_U+30A4_U+30E4_U+30FC 1
 62
     7
420
 16777215
370
     9
  0
SPLINE
  5
150
330
1F
100
AcDbEntity
  8
_U+30EC_U+30A4_U+30E4_U+30FC 1
 62
     7
420
 16777215
370
     9
100
AcDbSpline
210
0.0
220
0.0
230
1.0
 70
    11
 71
     3
 72
    17
 73
    13
 74
     0
 42
0.0000000001
 43
0.0000000001
 12
1.0
 22
0.0
 32
0.0
 13
1.0
 23
0.0
 33
0.0
 40
0.0
 40
0.0
 40
0.0
 40
0.0
 40
1.0
 40
1.0
 40
1.0
 40
2.0
 40
2.0
 40
2.0
 40
3.0
 40
3.0
 40
3.0
 40
4.0
 40
4.0
 40
4.0
 40
4.0
 10
98.30925110303316
 20
-130.4506252451653
 30
0.0
 10
98.30925110303316
 20
-130.3954860785122
 30
0.0
 10
98.26444832639841
 20
-130.3506833007455
 30
0.0
 10
98.20934443891532
 20
-130.3506833007455
 30
0.0
 10
98.1535349958947
 20
-130.3506833007455
 30
0.0
 10
98.10873221925993
 20
-130.3954860785122
 30
0.0
 10
98.10873221925993
 20
-130.4506252451653
 30
0.0
 10
98.10873221925993
 20
-130.506081911818
 30
0.0
 10
98.1535349958947
 20
-130.5508494118066
 30
0.0
 10
98.20934443891532
 20
-130.5508494118066
 30
0.0
 10
98.26444832639841
 20
-130.5508494118066
 30
0.0
 10
98.30925110303316
 20
-130.506081911818
 30
0.0
 10
98.30925110303316
 20
-130.4506252451653
 30
0.0
  0
POLYLINE
  5
151
330
1F
100
AcDbEntity
  8
_U+30EC_U+30A4_U+30E4_U+30FC 1
 62
     7
420
 16777215
370
     9
100
AcDb2dPolyline
 66
     1
 10
0.0
 20
0.0
 30
0.0
  0
VERTEX
  5
152
330
151
100
AcDbEntity
  8
_U+30EC_U+30A4_U+30E4_U+30FC 1
 62
     7
420
 16777215
370
     9
100
AcDbVertex
100
AcDb2dVertex
 10
96.74930553136824
 20
-130.4506252451653
 30
0.0
  0
VERTEX
  5
153
330
151
100
AcDbEntity
  8
_U+30EC_U+30A4_U+30E4_U+30FC 1
 62
     7
420
 16777215
370
     9
100
AcDbVertex
100
AcDb2dVertex
 10
99.20911663563123
 20
-130.4506252451653
 30
0.0
  0
SEQEND
  5
154
330
151
100
AcDbEntity
  8
_U+30EC_U+30A4_U+30E4_U+30FC 1
 62
     7
420
 16777215
370
     9
  0
POLYLINE
  5
155
330
1F
100
AcDbEntity
  8
_U+30EC_U+30A4_U+30E4_U+30FC 1
 62
     7
420
 16777215
370
     9
100
AcDb2dPolyline
 66
     1
 10
0.0
 20
0.0
 30
0.0
  0
VERTEX
  5
156
330
155
100
AcDbEntity
  8
_U+30EC_U+30A4_U+30E4_U+30FC 1
 62
     7
420
 16777215
370
     9
100
AcDbVertex
100
AcDb2dVertex
 10
96.74930553136824
 20
-130.4506252451653
 30
0.0
  0
VERTEX
  5
157
330
155
100
AcDbEntity
  8
_U+30EC_U+30A4_U+30E4_U+30FC 1
 62
     7
420
 16777215
370
     9
100
AcDbVertex
100
AcDb2dVertex
 10
99.20911663563123
 20
-130.4506252451653
 30
0.0
  0
SEQEND
  5
158
330
155
100
AcDbEntity
  8
_U+30EC_U+30A4_U+30E4_U+30FC 1
 62
     7
420
 16777215
370
     9
  0
INSERT
  5
15A
330
1F
100
AcDbEntity
  8
_U+30EC_U+30A4_U+30E4_U+30FC 1
100
AcDbBlockReference
  2
block 9
 10
0.0
 20
0.0
 30
0.0
  0
POLYLINE
  5
16A
330
1F
100
AcDbEntity
  8
_U+30EC_U+30A4_U+30E4_U+30FC 1
 62
   179
420
  2234388
370
     9
100
AcDb2dPolyline
 66
     1
 10
0.0
 20
0.0
 30
0.0
  0
VERTEX
  5
16B
330
16A
100
AcDbEntity
  8
_U+30EC_U+30A4_U+30E4_U+30FC 1
 62
   179
420
  2234388
370
     9
100
AcDbVertex
100
AcDb2dVertex
 10
87.36622582665744
 20
-130.1908396896748
 30
0.0
  0
VERTEX
  5
16C
330
16A
100
AcDbEntity
  8
_U+30EC_U+30A4_U+30E4_U+30FC 1
 62
   179
420
  2234388
370
     9
100
AcDbVertex
100
AcDb2dVertex
 10
87.8878430355721
 20
-129.2875521899001
 30
0.0
  0
SEQEND
  5
16D
330
16A
100
AcDbEntity
  8
_U+30EC_U+30A4_U+30E4_U+30FC 1
 62
   179
420
  2234388
370
     9
  0
POLYLINE
  5
16E
330
1F
100
AcDbEntity
  8
_U+30EC_U+30A4_U+30E4_U+30FC 1
 62
   179
420
  2234388
370
     9
100
AcDb2dPolyline
 66
     1
 10
0.0
 20
0.0
 30
0.0
  0
VERTEX
  5
16F
330
16E
100
AcDbEntity
  8
_U+30EC_U+30A4_U+30E4_U+30FC 1
 62
   179
420
  2234388
370
     9
100
AcDbVertex
100
AcDb2dVertex
 10
87.36622582665744
 20
-130.1908396896748
 30
0.0
  0
VERTEX
  5
170
330
16E
100
AcDbEntity
  8
_U+30EC_U+30A4_U+30E4_U+30FC 1
 62
   179
420
  2234388
370
     9
100
AcDbVertex
100
AcDb2dVertex
 10
88.78425134603616
 20
-128.8358908011247
 30
0.0
  0
SEQEND
  5
171
330
16E
100
AcDbEntity
  8
_U+30EC_U+30A4_U+30E4_U+30FC 1
 62
   179
420
  2234388
370
     9
  0
POLYLINE
  5
172
330
1F
100
AcDbEntity
  8
_U+30EC_U+30A4_U+30E4_U+30FC 1
 62
   179
420
  2234388
370
     9
100
AcDb2dPolyline
 66
     1
 10
0.0
 20
0.0
 30
0.0
  0
VERTEX
  5
173
330
172
100
AcDbEntity
  8
_U+30EC_U+30A4_U+30E4_U+30FC 1
 62
   179
420
  2234388
370
     9
100
AcDbVertex
100
AcDb2dVertex
 10
87.36622582665744
 20
-130.1908396896748
 30
0.0
  0
VERTEX
  5
174
330
172
100
AcDbEntity
  8
_U+30EC_U+30A4_U+30E4_U+30FC 1
 62
   179
420
  2234388
370
     9
100
AcDbVertex
100
AcDb2dVertex
 10
88.26884302585198
 20
-129.6692577453604
 30
0.0
  0
SEQEND
  5
175
330
172
100
AcDbEntity
  8
_U+30EC_U+30A4_U+30E4_U+30FC 1
 62
   179
420
  2234388
370
     9
  0
INSERT
  5
177
330
1F
100
AcDbEntity
  8
_U+30EC_U+30A4_U+30E4_U+30FC 1
100
AcDbBlockReference
  2
block 10
 10
0.0
 20
0.0
 30
0.0
  0
ENDSEC
  0
SECTION
  2
OBJECTS
  0
DICTIONARY
  5
C
330
0
100
AcDbDictionary
281
     1
  3
ACAD_GROUP
350
D
  3
ACAD_LAYOUT
350
1A
  3
ACAD_MATERIAL
350
3B
  3
ACAD_MLEADERSTYLE
350
180
  3
ACAD_MLINESTYLE
350
17
  3
ACAD_PLOTSETTINGS
350
19
  3
ACAD_PLOTSTYLENAME
350
E
  3
ACAD_TABLESTYLE
350
17F
  3
ACAD_VISUALSTYLE
350
2A
  0
SUN
  5
3F
330
29
100
AcDbSun
 90
        1
290
     0
 63
     7
421
 16777215
 40
1.0
291
     1
 91
  2455826
 92
 54000000
292
     0
 70
     2
 71
   256
280
     1
  0
DICTIONARY
  5
D
102
{ACAD_REACTORS
330
C
102
}
330
C
100
AcDbDictionary
281
     1
  0
DICTIONARY
  5
1A
102
{ACAD_REACTORS
330
C
102
}
330
C
100
AcDbDictionary
281
     1
  3
Layout1
350
1E
  3
Layout2
350
26
  3
Model
350
22
  0
DICTIONARY
  5
3B
102
{ACAD_REACTORS
330
C
102
}
330
C
100
AcDbDictionary
281
     1
  3
ByBlock
350
3D
  3
ByLayer
350
3C
  3
Global
350
3E
  0
DICTIONARY
  5
180
102
{ACAD_REACTORS
330
C
102
}
330
C
100
AcDbDictionary
281
     1
  0
DICTIONARY
  5
17
102
{ACAD_REACTORS
330
C
102
}
330
C
100
AcDbDictionary
281
     1
  3
Standard
350
18
  0
DICTIONARY
  5
19
102
{ACAD_REACTORS
330
C
102
}
330
C
100
AcDbDictionary
281
     1
  0
ACDBDICTIONARYWDFLT
  5
E
102
{ACAD_REACTORS
330
C
102
}
330
C
100
AcDbDictionary
281
     1
  3
Normal
350
F
100
AcDbDictionaryWithDefault
340
F
  0
DICTIONARY
  5
17F
102
{ACAD_REACTORS
330
C
102
}
330
C
100
AcDbDictionary
281
     1
  0
DICTIONARY
  5
2A
102
{ACAD_REACTORS
330
C
102
}
330
C
100
AcDbDictionary
281
     1
  3
2dWireframe
350
2F
  3
3D Hidden
350
31
  3
3dWireframe
350
30
  3
Basic
350
32
  3
Brighten
350
36
  3
ColorChange
350
3A
  3
Conceptual
350
34
  3
Dim
350
35
  3
Facepattern
350
39
  3
Flat
350
2B
  3
FlatWithEdges
350
2C
  3
Gouraud
350
2D
  3
GouraudWithEdges
350
2E
  3
Linepattern
350
38
  3
Realistic
350
33
  3
Thicken
350
37
  0
LAYOUT
  5
1E
102
{ACAD_REACTORS
330
1A
102
}
330
1A
100
AcDbPlotSettings
  1

  2
none_device
  4

  6

 40
0.0
 41
0.0
 42
0.0
 43
0.0
 44
0.0
 45
0.0
 46
0.0
 47
0.0
 48
0.0
 49
0.0
140
0.0
141
0.0
142
1.0
143
1.0
 70
   688
 72
     0
 73
     0
 74
     5
  7

 75
    16
 76
     0
 77
     2
 78
   300
147
1.0
148
0.0
149
0.0
100
AcDbLayout
  1
Layout1
 70
     1
 71
     1
 10
0.0
 20
0.0
 11
12.0
 21
9.0
 12
0.0
 22
0.0
 32
0.0
 14
1.000000000000000E+20
 24
1.000000000000000E+20
 34
1.000000000000000E+20
 15
-1.000000000000000E+20
 25
-1.000000000000000E+20
 35
-1.000000000000000E+20
146
0.0
 13
0.0
 23
0.0
 33
0.0
 16
1.0
 26
0.0
 36
0.0
 17
0.0
 27
1.0
 37
0.0
 76
     0
330
1B
  0
LAYOUT
  5
26
102
{ACAD_REACTORS
330
1A
102
}
330
1A
100
AcDbPlotSettings
  1

  2
none_device
  4

  6

 40
0.0
 41
0.0
 42
0.0
 43
0.0
 44
0.0
 45
0.0
 46
0.0
 47
0.0
 48
0.0
 49
0.0
140
0.0
141
0.0
142
1.0
143
1.0
 70
   688
 72
     0
 73
     0
 74
     5
  7

 75
    16
 76
     0
 77
     2
 78
   300
147
1.0
148
0.0
149
0.0
100
AcDbLayout
  1
Layout2
 70
     1
 71
     2
 10
0.0
 20
0.0
 11
0.0
 21
0.0
 12
0.0
 22
0.0
 32
0.0
 14
0.0
 24
0.0
 34
0.0
 15
0.0
 25
0.0
 35
0.0
146
0.0
 13
0.0
 23
0.0
 33
0.0
 16
1.0
 26
0.0
 36
0.0
 17
0.0
 27
1.0
 37
0.0
 76
     0
330
23
  0
LAYOUT
  5
22
102
{ACAD_REACTORS
330
1A
102
}
330
1A
100
AcDbPlotSettings
  1

  2
none_device
  4

  6

 40
0.0
 41
0.0
 42
0.0
 43
0.0
 44
0.0
 45
0.0
 46
0.0
 47
0.0
 48
0.0
 49
0.0
140
0.0
141
0.0
142
1.0
143
1.0
 70
  1712
 72
     0
 73
     0
 74
     0
  7

 75
     0
 76
     0
 77
     2
 78
   300
147
1.0
148
0.0
149
0.0
100
AcDbLayout
  1
Model
 70
     1
 71
     0
 10
0.0
 20
0.0
 11
12.0
 21
9.0
 12
0.0
 22
0.0
 32
0.0
 14
1.000000000000000E+20
 24
1.000000000000000E+20
 34
1.000000000000000E+20
 15
-1.000000000000000E+20
 25
-1.000000000000000E+20
 35
-1.000000000000000E+20
146
0.0
 13
0.0
 23
0.0
 33
0.0
 16
1.0
 26
0.0
 36
0.0
 17
0.0
 27
1.0
 37
0.0
 76
     0
330
1F
331
29
  0
MATERIAL
  5
3D
102
{ACAD_REACTORS
330
3B
102
}
330
3B
100
AcDbMaterial
  1
ByBlock
 72
     1
 94
      127
  0
MATERIAL
  5
3C
102
{ACAD_REACTORS
330
3B
102
}
330
3B
100
AcDbMaterial
  1
ByLayer
 72
     1
 94
      127
  0
MATERIAL
  5
3E
102
{ACAD_REACTORS
330
3B
102
}
330
3B
100
AcDbMaterial
  1
Global
 72
     1
 94
      127
  0
MLINESTYLE
  5
18
102
{ACAD_REACTORS
330
17
102
}
330
17
100
AcDbMlineStyle
  2
Standard
 70
     0
  3

 62
   256
 51
90.0
 52
90.0
 71
     2
 49
0.5
 62
   256
  6
BYLAYER
 49
-0.5
 62
   256
  6
BYLAYER
  0
ACDBPLACEHOLDER
  5
F
102
{ACAD_REACTORS
330
E
102
}
330
E
  0
VISUALSTYLE
  5
2F
102
{ACAD_REACTORS
330
2A
102
}
330
2A
100
AcDbVisualStyle
  2
2dWireframe
 70
     4
177
     2
291
     0
 71
     0
176
     1
 72
     2
176
     1
 73
     0
176
     1
 90
        0
176
     1
 40
-0.6
176
     1
 41
-30.0
176
     1
 62
     5
 63
     7
421
 16777215
176
     1
 74
     1
176
     1
 91
        4
176
     1
 64
     7
176
     1
 65
   257
176
     1
 75
     1
176
     1
175
     1
176
     1
 42
1.0
176
     1
 92
        0
176
     1
 66
   257
176
     1
 43
1.0
176
     1
 76
     1
176
     1
 77
     6
176
     1
 78
     2
176
     1
 67
     7
176
     1
 79
     5
176
     1
170
     0
176
     1
171
     0
176
     1
290
     0
176
     1
 93
        1
176
     1
 44
0.0
176
     1
173
     0
176
     1
  0
VISUALSTYLE
  5
31
102
{ACAD_REACTORS
330
2A
102
}
330
2A
100
AcDbVisualStyle
  2
3D Hidden
 70
     6
177
     2
291
     0
 71
     1
176
     1
 72
     2
176
     1
 73
     2
176
     1
 90
        0
176
     1
 40
-0.6
176
     1
 41
-30.0
176
     1
 62
     5
 63
     7
421
 16777215
176
     1
 74
     2
176
     1
 91
        2
176
     1
 64
     7
176
     1
 65
   257
176
     1
 75
     2
176
     1
175
     1
176
     1
 42
40.0
176
     1
 92
        0
176
     1
 66
   257
176
     1
 43
1.0
176
     1
 76
     1
176
     1
 77
     6
176
     1
 78
     2
176
     1
 67
     7
176
     1
 79
     3
176
     1
170
     0
176
     1
171
     0
176
     1
290
     0
176
     1
 93
        1
176
     1
 44
0.0
176
     1
173
     0
176
     1
  0
VISUALSTYLE
  5
30
102
{ACAD_REACTORS
330
2A
102
}
330
2A
100
AcDbVisualStyle
  2
3dWireframe
 70
     5
177
     2
291
     0
 71
     0
176
     1
 72
     2
176
     1
 73
     0
176
     1
 90
        0
176
     1
 40
-0.6
176
     1
 41
-30.0
176
     1
 62
     5
 63
     7
421
 16777215
176
     1
 74
     1
176
     1
 91
        4
176
     1
 64
     7
176
     1
 65
   257
176
     1
 75
     1
176
     1
175
     1
176
     1
 42
1.0
176
     1
 92
        0
176
     1
 66
   257
176
     1
 43
1.0
176
     1
 76
     1
176
     1
 77
     6
176
     1
 78
     2
176
     1
 67
     7
176
     1
 79
     5
176
     1
170
     0
176
     1
171
     0
176
     1
290
     0
176
     1
 93
        1
176
     1
 44
0.0
176
     1
173
     0
176
     1
  0
VISUALSTYLE
  5
32
102
{ACAD_REACTORS
330
2A
102
}
330
2A
100
AcDbVisualStyle
  2
Basic
 70
     7
177
     2
291
     1
 71
     1
176
     1
 72
     0
176
     1
 73
     1
176
     1
 90
        0
176
     1
 40
-0.6
176
     1
 41
-30.0
176
     1
 62
     5
 63
     7
421
 16777215
176
     1
 74
     0
176
     1
 91
        4
176
     1
 64
     7
176
     1
 65
   257
176
     1
 75
     1
176
     1
175
     1
176
     1
 42
1.0
176
     1
 92
        8
176
     1
 66
     7
176
     1
 43
1.0
176
     1
 76
     1
176
     1
 77
     6
176
     1
 78
     2
176
     1
 67
     7
176
     1
 79
     5
176
     1
170
     0
176
     1
171
     0
176
     1
290
     0
176
     1
 93
        1
176
     1
 44
0.0
176
     1
173
     0
176
     1
  0
VISUALSTYLE
  5
36
102
{ACAD_REACTORS
330
2A
102
}
330
2A
100
AcDbVisualStyle
  2
Brighten
 70
    12
177
     2
291
     1
 71
     2
176
     1
 72
     2
176
     1
 73
     0
176
     1
 90
        0
176
     1
 40
-0.6
176
     1
 41
-30.0
176
     1
 62
     5
 63
     7
421
 16777215
176
     1
 74
     1
176
     1
 91
        4
176
     1
 64
     7
176
     1
 65
   257
176
     1
 75
     1
176
     1
175
     1
176
     1
 42
1.0
176
     1
 92
        8
176
     1
 66
     7
176
     1
 43
1.0
176
     1
 76
     1
176
     1
 77
     6
176
     1
 78
     2
176
     1
 67
     7
176
     1
 79
     5
176
     1
170
     0
176
     1
171
     0
176
     1
290
     0
176
     1
 93
        1
176
     1
 44
50.0
176
     1
173
     0
176
     1
  0
VISUALSTYLE
  5
3A
102
{ACAD_REACTORS
330
2A
102
}
330
2A
100
AcDbVisualStyle
  2
ColorChange
 70
    16
177
     2
291
     1
 71
     2
176
     1
 72
     2
176
     1
 73
     3
176
     1
 90
        0
176
     1
 40
-0.6
176
     1
 41
-30.0
176
     1
 62
     5
 63
     8
421
  8421504
176
     1
 74
     1
176
     1
 91
        4
176
     1
 64
     7
176
     1
 65
   257
176
     1
 75
     1
176
     1
175
     1
176
     1
 42
1.0
176
     1
 92
        8
176
     1
 66
     8
424
  8421504
176
     1
 43
1.0
176
     1
 76
     1
176
     1
 77
     6
176
     1
 78
     2
176
     1
 67
     7
176
     1
 79
     5
176
     1
170
     0
176
     1
171
     0
176
     1
290
     0
176
     1
 93
        1
176
     1
 44
0.0
176
     1
173
     0
176
     1
  0
VISUALSTYLE
  5
34
102
{ACAD_REACTORS
330
2A
102
}
330
2A
100
AcDbVisualStyle
  2
Conceptual
 70
     9
177
     2
291
     0
 71
     3
176
     1
 72
     2
176
     1
 73
     0
176
     1
 90
        0
176
     1
 40
-0.6
176
     1
 41
-30.0
176
     1
 62
     5
 63
     7
421
 16777215
176
     1
 74
     2
176
     1
 91
        2
176
     1
 64
     7
176
     1
 65
   257
176
     1
 75
     1
176
     1
175
     1
176
     1
 42
40.0
176
     1
 92
        8
176
     1
 66
     7
176
     1
 43
1.0
176
     1
 76
     1
176
     1
 77
     6
176
     1
 78
     2
176
     1
 67
     7
176
     1
 79
     3
176
     1
170
     0
176
     1
171
     0
176
     1
290
     0
176
     1
 93
        1
176
     1
 44
0.0
176
     1
173
     0
176
     1
  0
VISUALSTYLE
  5
35
102
{ACAD_REACTORS
330
2A
102
}
330
2A
100
AcDbVisualStyle
  2
Dim
 70
    11
177
     2
291
     1
 71
     2
176
     1
 72
     2
176
     1
 73
     0
176
     1
 90
        0
176
     1
 40
-0.6
176
     1
 41
-30.0
176
     1
 62
     5
 63
     7
421
 16777215
176
     1
 74
     1
176
     1
 91
        4
176
     1
 64
     7
176
     1
 65
   257
176
     1
 75
     1
176
     1
175
     1
176
     1
 42
1.0
176
     1
 92
        8
176
     1
 66
     7
176
     1
 43
1.0
176
     1
 76
     1
176
     1
 77
     6
176
     1
 78
     2
176
     1
 67
     7
176
     1
 79
     5
176
     1
170
     0
176
     1
171
     0
176
     1
290
     0
176
     1
 93
        1
176
     1
 44
-50.0
176
     1
173
     0
176
     1
  0
VISUALSTYLE
  5
39
102
{ACAD_REACTORS
330
2A
102
}
330
2A
100
AcDbVisualStyle
  2
Facepattern
 70
    15
177
     2
291
     1
 71
     2
176
     1
 72
     2
176
     1
 73
     0
176
     1
 90
        0
176
     1
 40
-0.6
176
     1
 41
-30.0
176
     1
 62
     5
 63
     7
421
 16777215
176
     1
 74
     1
176
     1
 91
        4
176
     1
 64
     7
176
     1
 65
   257
176
     1
 75
     1
176
     1
175
     1
176
     1
 42
1.0
176
     1
 92
        8
176
     1
 66
     7
176
     1
 43
1.0
176
     1
 76
     1
176
     1
 77
     6
176
     1
 78
     2
176
     1
 67
     7
176
     1
 79
     5
176
     1
170
     0
176
     1
171
     0
176
     1
290
     0
176
     1
 93
        1
176
     1
 44
0.0
176
     1
173
     0
176
     1
  0
VISUALSTYLE
  5
2B
102
{ACAD_REACTORS
330
2A
102
}
330
2A
100
AcDbVisualStyle
  2
Flat
 70
     0
177
     2
291
     1
 71
     2
176
     1
 72
     1
176
     1
 73
     1
176
     1
 90
        2
176
     1
 40
-0.6
176
     1
 41
30.0
176
     1
 62
     5
 63
     7
421
 16777215
176
     1
 74
     0
176
     1
 91
        4
176
     1
 64
     7
176
     1
 65
   257
176
     1
 75
     1
176
     1
175
     1
176
     1
 42
1.0
176
     1
 92
        8
176
     1
 66
     7
176
     1
 43
1.0
176
     1
 76
     1
176
     1
 77
     6
176
     1
 78
     2
176
     1
 67
     7
176
     1
 79
     5
176
     1
170
     0
176
     1
171
     0
176
     1
290
     0
176
     1
 93
       13
176
     1
 44
0.0
176
     1
173
     0
176
     1
  0
VISUALSTYLE
  5
2C
102
{ACAD_REACTORS
330
2A
102
}
330
2A
100
AcDbVisualStyle
  2
FlatWithEdges
 70
     1
177
     2
291
     1
 71
     2
176
     1
 72
     1
176
     1
 73
     1
176
     1
 90
        2
176
     1
 40
-0.6
176
     1
 41
30.0
176
     1
 62
     5
 63
     7
421
 16777215
176
     1
 74
     1
176
     1
 91
        4
176
     1
 64
     7
176
     1
 65
   257
176
     1
 75
     1
176
     1
175
     1
176
     1
 42
1.0
176
     1
 92
        0
176
     1
 66
   257
176
     1
 43
1.0
176
     1
 76
     1
176
     1
 77
     6
176
     1
 78
     2
176
     1
 67
     7
176
     1
 79
     5
176
     1
170
     0
176
     1
171
     0
176
     1
290
     0
176
     1
 93
       13
176
     1
 44
0.0
176
     1
173
     0
176
     1
  0
VISUALSTYLE
  5
2D
102
{ACAD_REACTORS
330
2A
102
}
330
2A
100
AcDbVisualStyle
  2
Gouraud
 70
     2
177
     2
291
     1
 71
     2
176
     1
 72
     2
176
     1
 73
     1
176
     1
 90
        2
176
     1
 40
-0.6
176
     1
 41
30.0
176
     1
 62
     5
 63
     7
421
 16777215
176
     1
 74
     0
176
     1
 91
        4
176
     1
 64
     7
176
     1
 65
   257
176
     1
 75
     1
176
     1
175
     1
176
     1
 42
1.0
176
     1
 92
        0
176
     1
 66
     7
176
     1
 43
1.0
176
     1
 76
     1
176
     1
 77
     6
176
     1
 78
     2
176
     1
 67
     7
176
     1
 79
     5
176
     1
170
     0
176
     1
171
     0
176
     1
290
     0
176
     1
 93
       13
176
     1
 44
0.0
176
     1
173
     0
176
     1
  0
VISUALSTYLE
  5
2E
102
{ACAD_REACTORS
330
2A
102
}
330
2A
100
AcDbVisualStyle
  2
GouraudWithEdges
 70
     3
177
     2
291
     1
 71
     2
176
     1
 72
     2
176
     1
 73
     1
176
     1
 90
        2
176
     1
 40
-0.6
176
     1
 41
30.0
176
     1
 62
     5
 63
     7
421
 16777215
176
     1
 74
     1
176
     1
 91
        4
176
     1
 64
     7
176
     1
 65
   257
176
     1
 75
     1
176
     1
175
     1
176
     1
 42
1.0
176
     1
 92
        0
176
     1
 66
   257
176
     1
 43
1.0
176
     1
 76
     1
176
     1
 77
     6
176
     1
 78
     2
176
     1
 67
     7
176
     1
 79
     5
176
     1
170
     0
176
     1
171
     0
176
     1
290
     0
176
     1
 93
       13
176
     1
 44
0.0
176
     1
173
     0
176
     1
  0
VISUALSTYLE
  5
38
102
{ACAD_REACTORS
330
2A
102
}
330
2A
100
AcDbVisualStyle
  2
Linepattern
 70
    14
177
     2
291
     1
 71
     2
176
     1
 72
     2
176
     1
 73
     0
176
     1
 90
        0
176
     1
 40
-0.6
176
     1
 41
-30.0
176
     1
 62
     5
 63
     7
421
 16777215
176
     1
 74
     1
176
     1
 91
        4
176
     1
 64
     7
176
     1
 65
   257
176
     1
 75
     7
176
     1
175
     7
176
     1
 42
1.0
176
     1
 92
        8
176
     1
 66
     7
176
     1
 43
1.0
176
     1
 76
     1
176
     1
 77
     6
176
     1
 78
     2
176
     1
 67
     7
176
     1
 79
     5
176
     1
170
     0
176
     1
171
     0
176
     1
290
     0
176
     1
 93
        1
176
     1
 44
0.0
176
     1
173
     0
176
     1
  0
VISUALSTYLE
  5
33
102
{ACAD_REACTORS
330
2A
102
}
330
2A
100
AcDbVisualStyle
  2
Realistic
 70
     8
177
     2
291
     0
 71
     2
176
     1
 72
     2
176
     1
 73
     0
176
     1
 90
        0
176
     1
 40
-0.6
176
     1
 41
-30.0
176
     1
 62
     5
 63
     7
421
 16777215
176
     1
 74
     1
176
     1
 91
        0
176
     1
 64
     7
176
     1
 65
   257
176
     1
 75
     1
176
     1
175
     1
176
     1
 42
1.0
176
     1
 92
        8
176
     1
 66
     8
424
  7895160
176
     1
 43
1.0
176
     1
 76
     1
176
     1
 77
     6
176
     1
 78
     2
176
     1
 67
     7
176
     1
 79
     5
176
     1
170
     0
176
     1
171
     0
176
     1
290
     0
176
     1
 93
       13
176
     1
 44
0.0
176
     1
173
     0
176
     1
  0
VISUALSTYLE
  5
37
102
{ACAD_REACTORS
330
2A
102
}
330
2A
100
AcDbVisualStyle
  2
Thicken
 70
    13
177
     2
291
     1
 71
     2
176
     1
 72
     2
176
     1
 73
     0
176
     1
 90
        0
176
     1
 40
-0.6
176
     1
 41
-30.0
176
     1
 62
     5
 63
     7
421
 16777215
176
     1
 74
     1
176
     1
 91
        4
176
     1
 64
     7
176
     1
 65
   257
176
     1
 75
     1
176
     1
175
     1
176
     1
 42
1.0
176
     1
 92
       12
176
     1
 66
     7
176
     1
 43
1.0
176
     1
 76
     1
176
     1
 77
     6
176
     1
 78
     2
176
     1
 67
     7
176
     1
 79
     5
176
     1
170
     0
176
     1
171
     0
176
     1
290
     0
176
     1
 93
        1
176
     1
 44
0.0
176
     1
173
     0
176
     1
  0
ENDSEC
  0
EOF
