  0
SECTION
  2
HEADER
  9
$ACADVER
  1
AC1024
  9
$ACADMAINTVER
 70
     6
  9
$DWGCODEPAGE
  3
UNDEFINED
  9
$INSBASE
 10
0.0
 20
0.0
 30
0.0
  9
$EXTMIN
 10
1.000000000000000E+20
 20
1.000000000000000E+20
 30
1.000000000000000E+20
  9
$EXTMAX
 10
-1.000000000000000E+20
 20
-1.000000000000000E+20
 30
-1.000000000000000E+20
  9
$LIMMIN
 10
0.0
 20
0.0
  9
$LIMMAX
 10
12.0
 20
9.0
  9
$ORTHOMODE
 70
     0
  9
$REGENMODE
 70
     1
  9
$FILLMODE
 70
     1
  9
$QTEXTMODE
 70
     0
  9
$MIRRTEXT
 70
     1
  9
$LTSCALE
 40
1.0
  9
$ATTMODE
 70
     1
  9
$TEXTSIZE
 40
0.2
  9
$TRACEWID
 40
0.05
  9
$TEXTSTYLE
  7
Standard
  9
$CLAYER
  8
0
  9
$CELTYPE
  6
ByLayer
  9
$CECOLOR
 62
   256
  9
$CELTSCALE
 40
1.0
  9
$DISPSILH
 70
     0
  9
$DIMSCALE
 40
1.0
  9
$DIMASZ
 40
0.18
  9
$DIMEXO
 40
0.0625
  9
$DIMDLI
 40
0.38
  9
$DIMRND
 40
0.0
  9
$DIMDLE
 40
0.0
  9
$DIMEXE
 40
0.18
  9
$DIMTP
 40
0.0
  9
$DIMTM
 40
0.0
  9
$DIMTXT
 40
0.18
  9
$DIMCEN
 40
0.09
  9
$DIMTSZ
 40
0.0
  9
$DIMTOL
 70
     0
  9
$DIMLIM
 70
     0
  9
$DIMTIH
 70
     1
  9
$DIMTOH
 70
     1
  9
$DIMSE1
 70
     0
  9
$DIMSE2
 70
     0
  9
$DIMTAD
 70
     0
  9
$DIMZIN
 70
     0
  9
$DIMBLK
  1

  9
$DIMASO
 70
     1
  9
$DIMSHO
 70
     1
  9
$DIMPOST
  1

  9
$DIMAPOST
  1

  9
$DIMALT
 70
     0
  9
$DIMALTD
 70
     2
  9
$DIMALTF
 40
25.4
  9
$DIMLFAC
 40
1.0
  9
$DIMTOFL
 70
     0
  9
$DIMTVP
 40
0.0
  9
$DIMTIX
 70
     0
  9
$DIMSOXD
 70
     0
  9
$DIMSAH
 70
     0
  9
$DIMBLK1
  1

  9
$DIMBLK2
  1

  9
$DIMSTYLE
  2
Standard
  9
$DIMCLRD
 70
     0
  9
$DIMCLRE
 70
     0
  9
$DIMCLRT
 70
     0
  9
$DIMTFAC
 40
1.0
  9
$DIMGAP
 40
0.09
  9
$DIMJUST
 70
     0
  9
$DIMSD1
 70
     0
  9
$DIMSD2
 70
     0
  9
$DIMTOLJ
 70
     1
  9
$DIMTZIN
 70
     0
  9
$DIMALTZ
 70
     0
  9
$DIMALTTZ
 70
     0
  9
$DIMUPT
 70
     0
  9
$DIMDEC
 70
     4
  9
$DIMTDEC
 70
     4
  9
$DIMALTU
 70
     2
  9
$DIMALTTD
 70
     2
  9
$DIMTXSTY
  7
Standard
  9
$DIMAUNIT
 70
     0
  9
$DIMADEC
 70
     0
  9
$DIMALTRND
 40
0.0
  9
$DIMAZIN
 70
     0
  9
$DIMDSEP
 70
    46
  9
$DIMATFIT
 70
     3
  9
$DIMFRAC
 70
     0
  9
$DIMLDRBLK
  1

  9
$DIMLUNIT
 70
     2
  9
$DIMLWD
 70
    -2
  9
$DIMLWE
 70
    -2
  9
$DIMTMOVE
 70
     0
  9
$DIMFXL
 40
1.0
  9
$DIMFXLON
 70
     0
  9
$DIMJOGANG
 40
0.7853981633974483
  9
$DIMTFILL
 70
     0
  9
$DIMTFILLCLR
 70
     0
  9
$DIMARCSYM
 70
     0
  9
$DIMLTYPE
  6

  9
$DIMLTEX1
  6

  9
$DIMLTEX2
  6

  9
$DIMTXTDIRECTION
 70
     0
  9
$LUNITS
 70
     2
  9
$LUPREC
 70
     4
  9
$SKETCHINC
 40
0.1
  9
$FILLETRAD
 40
0.5
  9
$AUNITS
 70
     0
  9
$AUPREC
 70
     0
  9
$MENU
  1
.
  9
$ELEVATION
 40
0.0
  9
$PELEVATION
 40
0.0
  9
$THICKNESS
 40
0.0
  9
$LIMCHECK
 70
     0
  9
$CHAMFERA
 40
0.5
  9
$CHAMFERB
 40
0.5
  9
$CHAMFERC
 40
1.0
  9
$CHAMFERD
 40
0.0
  9
$SKPOLY
 70
     0
  9
$TDCREATE
 40
2457917.595358796
  9
$TDUCREATE
 40
2457917.220358796
  9
$TDUPDATE
 40
2457917.595358796
  9
$TDUUPDATE
 40
2457917.220358796
  9
$TDINDWG
 40
0.0000000116
  9
$TDUSRTIMER
 40
0.0000000116
  9
$USRTIMER
 70
     1
  9
$ANGBASE
 50
0.0
  9
$ANGDIR
 70
     0
  9
$PDMODE
 70
     0
  9
$PDSIZE
 40
0.0
  9
$PLINEWID
 40
0.0
  9
$SPLFRAME
 70
     0
  9
$SPLINETYPE
 70
     6
  9
$SPLINESEGS
 70
     8
  9
$HANDSEED
  5
190
  9
$SURFTAB1
 70
     6
  9
$SURFTAB2
 70
     6
  9
$SURFTYPE
 70
     6
  9
$SURFU
 70
     6
  9
$SURFV
 70
     6
  9
$UCSBASE
  2

  9
$UCSNAME
  2

  9
$UCSORG
 10
0.0
 20
0.0
 30
0.0
  9
$UCSXDIR
 10
1.0
 20
0.0
 30
0.0
  9
$UCSYDIR
 10
0.0
 20
1.0
 30
0.0
  9
$UCSORTHOREF
  2

  9
$UCSORTHOVIEW
 70
     0
  9
$UCSORGTOP
 10
0.0
 20
0.0
 30
0.0
  9
$UCSORGBOTTOM
 10
0.0
 20
0.0
 30
0.0
  9
$UCSORGLEFT
 10
0.0
 20
0.0
 30
0.0
  9
$UCSORGRIGHT
 10
0.0
 20
0.0
 30
0.0
  9
$UCSORGFRONT
 10
0.0
 20
0.0
 30
0.0
  9
$UCSORGBACK
 10
0.0
 20
0.0
 30
0.0
  9
$PUCSBASE
  2

  9
$PUCSNAME
  2

  9
$PUCSORG
 10
0.0
 20
0.0
 30
0.0
  9
$PUCSXDIR
 10
1.0
 20
0.0
 30
0.0
  9
$PUCSYDIR
 10
0.0
 20
1.0
 30
0.0
  9
$PUCSORTHOREF
  2

  9
$PUCSORTHOVIEW
 70
     0
  9
$PUCSORGTOP
 10
0.0
 20
0.0
 30
0.0
  9
$PUCSORGBOTTOM
 10
0.0
 20
0.0
 30
0.0
  9
$PUCSORGLEFT
 10
0.0
 20
0.0
 30
0.0
  9
$PUCSORGRIGHT
 10
0.0
 20
0.0
 30
0.0
  9
$PUCSORGFRONT
 10
0.0
 20
0.0
 30
0.0
  9
$PUCSORGBACK
 10
0.0
 20
0.0
 30
0.0
  9
$USERI1
 70
     0
  9
$USERI2
 70
     0
  9
$USERI3
 70
     0
  9
$USERI4
 70
     0
  9
$USERI5
 70
     0
  9
$USERR1
 40
0.0
  9
$USERR2
 40
0.0
  9
$USERR3
 40
0.0
  9
$USERR4
 40
0.0
  9
$USERR5
 40
0.0
  9
$WORLDVIEW
 70
     1
  9
$SHADEDGE
 70
     3
  9
$SHADEDIF
 70
    70
  9
$TILEMODE
 70
     1
  9
$MAXACTVP
 70
    64
  9
$PINSBASE
 10
0.0
 20
0.0
 30
0.0
  9
$PLIMCHECK
 70
     0
  9
$PEXTMIN
 10
1.000000000000000E+20
 20
1.000000000000000E+20
 30
1.000000000000000E+20
  9
$PEXTMAX
 10
-1.000000000000000E+20
 20
-1.000000000000000E+20
 30
-1.000000000000000E+20
  9
$PLIMMIN
 10
0.0
 20
0.0
  9
$PLIMMAX
 10
12.0
 20
9.0
  9
$UNITMODE
 70
     0
  9
$VISRETAIN
 70
     1
  9
$PLINEGEN
 70
     0
  9
$PSLTSCALE
 70
     1
  9
$TREEDEPTH
 70
  3020
  9
$CMLSTYLE
  2
Standard
  9
$CMLJUST
 70
     0
  9
$CMLSCALE
 40
1.0
  9
$PROXYGRAPHICS
 70
     1
  9
$MEASUREMENT
 70
     0
  9
$CELWEIGHT
370
    -1
  9
$ENDCAPS
280
     0
  9
$JOINSTYLE
280
     0
  9
$LWDISPLAY
290
     1
  9
$INSUNITS
 70
     1
  9
$HYPERLINKBASE
  1

  9
$STYLESHEET
  1

  9
$XEDIT
290
     1
  9
$CEPSNTYPE
380
     0
  9
$PSTYLEMODE
290
     1
  9
$FINGERPRINTGUID
  2
{962A0276-A5C7-CB2A-FDFB-32D36B3B2DED}
  9
$VERSIONGUID
  2
{FAEB1C32-E019-11D5-929B-00C0DF256EC4}
  9
$EXTNAMES
290
     1
  9
$PSVPSCALE
 40
0.0
  9
$OLESTARTUP
290
     0
  9
$SORTENTS
280
   127
  9
$INDEXCTL
280
     0
  9
$HIDETEXT
280
     1
  9
$XCLIPFRAME
280
     2
  9
$HALOGAP
280
     0
  9
$OBSCOLOR
 70
   257
  9
$OBSLTYPE
280
     0
  9
$INTERSECTIONDISPLAY
280
     0
  9
$INTERSECTIONCOLOR
 70
   257
  9
$DIMASSOC
280
     2
  9
$PROJECTNAME
  1

  9
$CAMERADISPLAY
290
     0
  9
$LENSLENGTH
 40
50.0
  9
$CAMERAHEIGHT
 40
0.0
  9
$STEPSPERSEC
 40
2.0
  9
$STEPSIZE
 40
6.0
  9
$3DDWFPREC
 40
2.0
  9
$PSOLWIDTH
 40
0.25
  9
$PSOLHEIGHT
 40
4.0
  9
$LOFTANG1
 40
1.570796326794897
  9
$LOFTANG2
 40
1.570796326794897
  9
$LOFTMAG1
 40
0.0
  9
$LOFTMAG2
 40
0.0
  9
$LOFTPARAM
 70
     7
  9
$LOFTNORMALS
280
     1
  9
$LATITUDE
 40
37.795
  9
$LONGITUDE
 40
-122.394
  9
$NORTHDIRECTION
 40
0.0
  9
$TIMEZONE
 70
 -8000
  9
$LIGHTGLYPHDISPLAY
280
     1
  9
$TILEMODELIGHTSYNCH
280
     1
  9
$CMATERIAL
347
3C
  9
$SOLIDHIST
280
     1
  9
$SHOWHIST
280
     1
  9
$DWFFRAME
280
     2
  9
$DGNFRAME
280
     2
  9
$REALWORLDSCALE
290
     1
  9
$INTERFERECOLOR
 62
   256
  9
$CSHADOW
280
     0
  9
$SHADOWPLANELOCATION
 40
0.0
  0
ENDSEC
  0
SECTION
  2
CLASSES
  0
CLASS
  1
ACDBDICTIONARYWDFLT
  2
AcDbDictionaryWithDefault
  3
ObjectDBX Classes
 90
        0
 91
        4
280
     0
281
     0
  0
CLASS
  1
VISUALSTYLE
  2
AcDbVisualStyle
  3
ObjectDBX Classes
 90
     4095
 91
        4
280
     0
281
     0
  0
CLASS
  1
MATERIAL
  2
AcDbMaterial
  3
ObjectDBX Classes
 90
     1153
 91
        4
280
     0
281
     0
  0
CLASS
  1
SUN
  2
AcDbSun
  3
SCENEOE
 90
     1024
 91
        4
280
     0
281
     0
  0
ENDSEC
  0
SECTION
  2
TABLES
  0
TABLE
  2
VPORT
  5
8
330
0
100
AcDbSymbolTable
 70
     1
  0
VPORT
  5
29
330
8
100
AcDbSymbolTableRecord
100
AcDbViewportTableRecord
  2
*Active
 70
     0
 10
0.0
 20
0.0
 11
1.0
 21
1.0
 12
0.0
 22
0.0
 13
0.0
 23
0.0
 14
0.5
 24
0.5
 15
0.5
 25
0.5
 16
0.0
 26
0.0
 36
1.0
 17
91.00082462281999
 27
-128.4993055234307
 37
0.0
 40
256.9986110468615
 41
0.7081814508812795
 42
50.0
 43
0.0
 44
0.0
 50
0.0
 51
0.0
 71
     0
 72
   100
 73
     1
 74
     3
 75
     0
 76
     0
 77
     0
 78
     0
281
     0
 65
     1
110
0.0
120
0.0
130
0.0
111
1.0
121
0.0
131
0.0
112
0.0
122
1.0
132
0.0
 79
     0
146
0.0
 60
     3
 61
     5
292
     1
282
     1
141
0.0
142
0.0
 63
   250
361
3F
  0
ENDTAB
  0
TABLE
  2
LTYPE
  5
5
330
0
100
AcDbSymbolTable
 70
     1
  0
LTYPE
  5
14
330
5
100
AcDbSymbolTableRecord
100
AcDbLinetypeTableRecord
  2
ByBlock
 70
     0
  3

 72
    65
 73
     0
 40
0.0
  0
LTYPE
  5
15
330
5
100
AcDbSymbolTableRecord
100
AcDbLinetypeTableRecord
  2
ByLayer
 70
     0
  3

 72
    65
 73
     0
 40
0.0
  0
LTYPE
  5
16
330
5
100
AcDbSymbolTableRecord
100
AcDbLinetypeTableRecord
  2
Continuous
 70
     0
  3
Solid line
 72
    65
 73
     0
 40
0.0
  0
ENDTAB
  0
TABLE
  2
LAYER
  5
2
330
0
100
AcDbSymbolTable
 70
     2
  0
LAYER
  5
10
330
2
100
AcDbSymbolTableRecord
100
AcDbLayerTableRecord
  2
0
 70
     0
 62
     7
  6
Continuous
370
    -3
390
F
347
3E
  0
LAYER
  5
40
330
2
100
AcDbSymbolTableRecord
100
AcDbLayerTableRecord
  2
_U+30EC_U+30A4_U+30E4_U+30FC 1
 70
     0
 62
     7
  6
Continuous
370
    -3
390
F
347
3E
  0
ENDTAB
  0
TABLE
  2
STYLE
  5
3
330
0
100
AcDbSymbolTable
 70
     1
  0
STYLE
  5
11
330
3
100
AcDbSymbolTableRecord
100
AcDbTextStyleTableRecord
  2
Standard
 70
     0
 40
0.0
 41
1.0
 50
0.0
 71
     0
 42
0.2
  3
txt
  4

  0
ENDTAB
  0
TABLE
  2
VIEW
  5
6
330
0
100
AcDbSymbolTable
 70
     0
  0
ENDTAB
  0
TABLE
  2
UCS
  5
7
330
0
100
AcDbSymbolTable
 70
     0
  0
ENDTAB
  0
TABLE
  2
APPID
  5
9
330
0
100
AcDbSymbolTable
 70
     1
  0
APPID
  5
12
330
9
100
AcDbSymbolTableRecord
100
AcDbRegAppTableRecord
  2
ACAD
 70
     0
  0
ENDTAB
  0
TABLE
  2
DIMSTYLE
  5
A
330
0
100
AcDbSymbolTable
 70
     1
100
AcDbDimStyleTable
  0
DIMSTYLE
105
27
330
A
100
AcDbSymbolTableRecord
100
AcDbDimStyleTableRecord
  2
Standard
 70
     0
178
     0
340
11
  0
ENDTAB
  0
TABLE
  2
BLOCK_RECORD
  5
1
330
0
100
AcDbSymbolTable
 70
    10
  0
BLOCK_RECORD
  5
1F
330
1
100
AcDbSymbolTableRecord
100
AcDbBlockTableRecord
  2
*Model_Space
340
22
 70
     0
280
     1
281
     0
  0
BLOCK_RECORD
  5
1B
330
1
100
AcDbSymbolTableRecord
100
AcDbBlockTableRecord
  2
*Paper_Space
340
1E
 70
     0
280
     1
281
     0
  0
BLOCK_RECORD
  5
23
330
1
100
AcDbSymbolTableRecord
100
AcDbBlockTableRecord
  2
*Paper_Space0
340
26
 70
     0
280
     1
281
     0
  0
BLOCK_RECORD
  5
A6
330
1
100
AcDbSymbolTableRecord
100
AcDbBlockTableRecord
  2
block 2
340
0
102
{BLKREFS
331
A7
102
}
 70
     0
280
     1
281
     0
  0
BLOCK_RECORD
  5
B8
330
1
100
AcDbSymbolTableRecord
100
AcDbBlockTableRecord
  2
block 3
340
0
102
{BLKREFS
331
B9
102
}
 70
     0
280
     1
281
     0
  0
BLOCK_RECORD
  5
CE
330
1
100
AcDbSymbolTableRecord
100
AcDbBlockTableRecord
  2
block 4
340
0
102
{BLKREFS
331
CF
102
}
 70
     0
280
     1
281
     0
  0
BLOCK_RECORD
  5
E0
330
1
100
AcDbSymbolTableRecord
100
AcDbBlockTableRecord
  2
block 5
340
0
102
{BLKREFS
331
E1
102
}
 70
     0
280
     1
281
     0
  0
BLOCK_RECORD
  5
F6
330
1
100
AcDbSymbolTableRecord
100
AcDbBlockTableRecord
  2
block 6
340
0
102
{BLKREFS
331
F7
102
}
 70
     0
280
     1
281
     0
  0
BLOCK_RECORD
  5
115
330
1
100
AcDbSymbolTableRecord
100
AcDbBlockTableRecord
  2
block 7
340
0
102
{BLKREFS
331
116
102
}
 70
     0
280
     1
281
     0
  0
BLOCK_RECORD
  5
146
330
1
100
AcDbSymbolTableRecord
100
AcDbBlockTableRecord
  2
block 8
340
0
102
{BLKREFS
331
147
102
}
 70
     0
280
     1
281
     0
  0
BLOCK_RECORD
  5
169
330
1
100
AcDbSymbolTableRecord
100
AcDbBlockTableRecord
  2
block 9
340
0
102
{BLKREFS
331
16A
102
}
 70
     0
280
     1
281
     0
  0
BLOCK_RECORD
  5
185
330
1
100
AcDbSymbolTableRecord
100
AcDbBlockTableRecord
  2
block 10
340
0
102
{BLKREFS
331
186
102
}
 70
     0
280
     1
281
     0
  0
ENDTAB
  0
ENDSEC
  0
SECTION
  2
BLOCKS
  0
BLOCK
  5
20
330
1F
100
AcDbEntity
  8
0
100
AcDbBlockBegin
  2
*Model_Space
 70
     0
 10
0.0
 20
0.0
 30
0.0
  3
*Model_Space
  1

  0
ENDBLK
  5
21
330
1F
100
AcDbEntity
  8
0
100
AcDbBlockEnd
  0
BLOCK
  5
1C
330
1B
100
AcDbEntity
 67
     1
  8
0
100
AcDbBlockBegin
  2
*Paper_Space
 70
     0
 10
0.0
 20
0.0
 30
0.0
  3
*Paper_Space
  1

  0
ENDBLK
  5
1D
330
1B
100
AcDbEntity
 67
     1
  8
0
100
AcDbBlockEnd
  0
BLOCK
  5
24
330
23
100
AcDbEntity
  8
0
100
AcDbBlockBegin
  2
*Paper_Space0
 70
     0
 10
0.0
 20
0.0
 30
0.0
  3
*Paper_Space0
  1

  0
ENDBLK
  5
25
330
23
100
AcDbEntity
  8
0
100
AcDbBlockEnd
  0
BLOCK
  5
A8
330
A6
100
AcDbEntity
  8
0
100
AcDbBlockBegin
  2
block 2
 70
     0
 10
0.0
 20
0.0
 30
0.0
  3
block 2
  1

  0
SPLINE
  5
AA
330
A6
100
AcDbEntity
  8
_U+30EC_U+30A4_U+30E4_U+30FC 1
370
     0
100
AcDbSpline
210
0.0
220
0.0
230
1.0
 70
    11
 71
     3
 72
    26
 73
    22
 74
     0
 42
0.0000000001
 43
0.0000000001
 12
1.0
 22
0.0
 32
0.0
 13
1.0
 23
0.0
 33
0.0
 40
0.0
 40
0.0
 40
0.0
 40
0.0
 40
1.0
 40
1.0
 40
1.0
 40
2.0
 40
2.0
 40
2.0
 40
3.0
 40
3.0
 40
3.0
 40
4.0
 40
4.0
 40
4.0
 40
5.0
 40
5.0
 40
5.0
 40
6.0
 40
6.0
 40
6.0
 40
7.0
 40
7.0
 40
7.0
 40
7.0
 10
90.01638316977021
 20
-119.5017496446037
 30
0.0
 10
90.01638316977021
 20
-119.5017496446037
 30
0.0
 10
89.77953285515929
 20
-119.5017496446037
 30
0.0
 10
89.77953285515929
 20
-119.5017496446037
 30
0.0
 10
89.80485430697587
 20
-119.1928968343511
 30
0.0
 10
89.99743514460134
 20
-118.6745822185952
 30
0.0
 10
90.40361190231229
 20
-118.1690144561348
 30
0.0
 10
90.40361190231229
 20
-118.1690144561348
 30
0.0
 10
89.56576468029954
 20
-118.1690144561348
 30
0.0
 10
89.56576468029954
 20
-118.1690144561348
 30
0.0
 10
89.56576468029954
 20
-118.1690144561348
 30
0.0
 10
89.56576468029954
 20
-117.9574855933405
 30
0.0
 10
89.56576468029954
 20
-117.9574855933405
 30
0.0
 10
89.56576468029954
 20
-117.9574855933405
 30
0.0
 10
90.64046221692323
 20
-117.9574855933405
 30
0.0
 10
90.64046221692323
 20
-117.9574855933405
 30
0.0
 10
90.64046221692323
 20
-117.9574855933405
 30
0.0
 10
90.64046221692323
 20
-118.1690144561348
 30
0.0
 10
90.64046221692323
 20
-118.1690144561348
 30
0.0
 10
90.316795496084
 20
-118.4587469864444
 30
0.0
 10
90.05031736029993
 20
-119.051131155133
 30
0.0
 10
90.01638316977021
 20
-119.5017496446037
 30
0.0
  0
HATCH
  5
AB
330
A6
100
AcDbEntity
  8
_U+30EC_U+30A4_U+30E4_U+30FC 1
 62
     7
420
 16777215
100
AcDbHatch
 10
0.0
 20
0.0
 30
0.0
210
0.0
220
0.0
230
1.0
  2
SOLID
 70
     1
 71
     0
 91
        1
 92
        1
 93
        1
 72
     4
 94
        3
 73
     0
 74
     1
 95
       26
 96
       22
 40
0.0
 40
0.0
 40
0.0
 40
0.0
 40
1.0
 40
1.0
 40
1.0
 40
2.0
 40
2.0
 40
2.0
 40
3.0
 40
3.0
 40
3.0
 40
4.0
 40
4.0
 40
4.0
 40
5.0
 40
5.0
 40
5.0
 40
6.0
 40
6.0
 40
6.0
 40
7.0
 40
7.0
 40
7.0
 40
7.0
 10
90.01638316977021
 20
-119.5017496446037
 10
90.01638316977021
 20
-119.5017496446037
 10
89.77953285515929
 20
-119.5017496446037
 10
89.77953285515929
 20
-119.5017496446037
 10
89.80485430697587
 20
-119.1928968343511
 10
89.99743514460134
 20
-118.6745822185952
 10
90.40361190231229
 20
-118.1690144561348
 10
90.40361190231229
 20
-118.1690144561348
 10
89.56576468029954
 20
-118.1690144561348
 10
89.56576468029954
 20
-118.1690144561348
 10
89.56576468029954
 20
-118.1690144561348
 10
89.56576468029954
 20
-117.9574855933405
 10
89.56576468029954
 20
-117.9574855933405
 10
89.56576468029954
 20
-117.9574855933405
 10
90.64046221692323
 20
-117.9574855933405
 10
90.64046221692323
 20
-117.9574855933405
 10
90.64046221692323
 20
-117.9574855933405
 10
90.64046221692323
 20
-118.1690144561348
 10
90.64046221692323
 20
-118.1690144561348
 10
90.316795496084
 20
-118.4587469864444
 10
90.05031736029993
 20
-119.051131155133
 10
90.01638316977021
 20
-119.5017496446037
 97
        0
 97
        0
 75
     2
 76
     1
 98
        0
  0
ENDBLK
  5
A9
330
A6
100
AcDbEntity
  8
0
100
AcDbBlockEnd
  0
BLOCK
  5
BA
330
B8
100
AcDbEntity
  8
0
100
AcDbBlockBegin
  2
block 3
 70
     0
 10
0.0
 20
0.0
 30
0.0
  3
block 3
  1

  0
SPLINE
  5
BC
330
B8
100
AcDbEntity
  8
_U+30EC_U+30A4_U+30E4_U+30FC 1
370
     0
100
AcDbSpline
210
0.0
220
0.0
230
1.0
 70
    11
 71
     3
 72
    26
 73
    22
 74
     0
 42
0.0000000001
 43
0.0000000001
 12
1.0
 22
0.0
 32
0.0
 13
1.0
 23
0.0
 33
0.0
 40
0.0
 40
0.0
 40
0.0
 40
0.0
 40
1.0
 40
1.0
 40
1.0
 40
2.0
 40
2.0
 40
2.0
 40
3.0
 40
3.0
 40
3.0
 40
4.0
 40
4.0
 40
4.0
 40
5.0
 40
5.0
 40
5.0
 40
6.0
 40
6.0
 40
6.0
 40
7.0
 40
7.0
 40
7.0
 40
7.0
 10
97.00975475005312
 20
-127.6876410271059
 30
0.0
 10
97.00975475005312
 20
-127.6876410271059
 30
0.0
 10
97.00975475005312
 20
-127.9244913417168
 30
0.0
 10
97.00975475005312
 20
-127.9244913417168
 30
0.0
 10
96.70072968502622
 20
-127.8991698899002
 30
0.0
 10
96.18258732404463
 20
-127.7065890522748
 30
0.0
 10
95.67684730680996
 20
-127.3004122945638
 30
0.0
 10
95.67684730680996
 20
-127.3004122945638
 30
0.0
 10
95.67684730680996
 20
-128.1382595165765
 30
0.0
 10
95.67684730680996
 20
-128.1382595165765
 30
0.0
 10
95.67684730680996
 20
-128.1382595165765
 30
0.0
 10
95.46531844401562
 20
-128.1382595165765
 30
0.0
 10
95.46531844401562
 20
-128.1382595165765
 30
0.0
 10
95.46531844401562
 20
-128.1382595165765
 30
0.0
 10
95.46531844401562
 20
-127.0635619799529
 30
0.0
 10
95.46531844401562
 20
-127.0635619799529
 30
0.0
 10
95.46531844401562
 20
-127.0635619799529
 30
0.0
 10
95.67684730680996
 20
-127.0635619799529
 30
0.0
 10
95.67684730680996
 20
-127.0635619799529
 30
0.0
 10
95.966924346668
 20
-127.3872287007921
 30
0.0
 10
96.55913626058245
 20
-127.6537068365762
 30
0.0
 10
97.00975475005312
 20
-127.6876410271059
 30
0.0
  0
HATCH
  5
BD
330
B8
100
AcDbEntity
  8
_U+30EC_U+30A4_U+30E4_U+30FC 1
 62
     7
420
 16777215
100
AcDbHatch
 10
0.0
 20
0.0
 30
0.0
210
0.0
220
0.0
230
1.0
  2
SOLID
 70
     1
 71
     0
 91
        1
 92
        1
 93
        1
 72
     4
 94
        3
 73
     0
 74
     1
 95
       26
 96
       22
 40
0.0
 40
0.0
 40
0.0
 40
0.0
 40
1.0
 40
1.0
 40
1.0
 40
2.0
 40
2.0
 40
2.0
 40
3.0
 40
3.0
 40
3.0
 40
4.0
 40
4.0
 40
4.0
 40
5.0
 40
5.0
 40
5.0
 40
6.0
 40
6.0
 40
6.0
 40
7.0
 40
7.0
 40
7.0
 40
7.0
 10
97.00975475005312
 20
-127.6876410271059
 10
97.00975475005312
 20
-127.6876410271059
 10
97.00975475005312
 20
-127.9244913417168
 10
97.00975475005312
 20
-127.9244913417168
 10
96.70072968502622
 20
-127.8991698899002
 10
96.18258732404463
 20
-127.7065890522748
 10
95.67684730680996
 20
-127.3004122945638
 10
95.67684730680996
 20
-127.3004122945638
 10
95.67684730680996
 20
-128.1382595165765
 10
95.67684730680996
 20
-128.1382595165765
 10
95.67684730680996
 20
-128.1382595165765
 10
95.46531844401562
 20
-128.1382595165765
 10
95.46531844401562
 20
-128.1382595165765
 10
95.46531844401562
 20
-128.1382595165765
 10
95.46531844401562
 20
-127.0635619799529
 10
95.46531844401562
 20
-127.0635619799529
 10
95.46531844401562
 20
-127.0635619799529
 10
95.67684730680996
 20
-127.0635619799529
 10
95.67684730680996
 20
-127.0635619799529
 10
95.966924346668
 20
-127.3872287007921
 10
96.55913626058245
 20
-127.6537068365762
 10
97.00975475005312
 20
-127.6876410271059
 97
        0
 97
        0
 75
     2
 76
     1
 98
        0
  0
ENDBLK
  5
BB
330
B8
100
AcDbEntity
  8
0
100
AcDbBlockEnd
  0
BLOCK
  5
D0
330
CE
100
AcDbEntity
  8
0
100
AcDbBlockBegin
  2
block 4
 70
     0
 10
0.0
 20
0.0
 30
0.0
  3
block 4
  1

  0
SPLINE
  5
D2
330
CE
100
AcDbEntity
  8
_U+30EC_U+30A4_U+30E4_U+30FC 1
370
     0
100
AcDbSpline
210
0.0
220
0.0
230
1.0
 70
    11
 71
     3
 72
    26
 73
    22
 74
     0
 42
0.0000000001
 43
0.0000000001
 12
1.0
 22
0.0
 32
0.0
 13
1.0
 23
0.0
 33
0.0
 40
0.0
 40
0.0
 40
0.0
 40
0.0
 40
1.0
 40
1.0
 40
1.0
 40
2.0
 40
2.0
 40
2.0
 40
3.0
 40
3.0
 40
3.0
 40
4.0
 40
4.0
 40
4.0
 40
5.0
 40
5.0
 40
5.0
 40
6.0
 40
6.0
 40
6.0
 40
7.0
 40
7.0
 40
7.0
 40
7.0
 10
89.55921899887755
 20
-127.5019503804509
 30
0.0
 10
89.55921899887755
 20
-127.5019503804509
 30
0.0
 10
89.55921899887755
 20
-126.3976250226541
 30
0.0
 10
89.55921899887755
 20
-126.3976250226541
 30
0.0
 10
89.55921899887755
 20
-126.3976250226541
 30
0.0
 10
89.22917885139063
 20
-126.3976250226541
 30
0.0
 10
89.22917885139063
 20
-126.3976250226541
 30
0.0
 10
89.22917885139063
 20
-126.3976250226541
 30
0.0
 10
89.22917885139063
 20
-126.2496581715626
 30
0.0
 10
89.22917885139063
 20
-126.2496581715626
 30
0.0
 10
89.56128605616871
 20
-126.234844260976
 30
0.0
 10
89.60779484521959
 20
-126.0718912445237
 30
0.0
 10
89.63742266639274
 20
-125.9576863291877
 30
0.0
 10
89.63742266639274
 20
-125.9576863291877
 30
0.0
 10
89.78349471496732
 20
-125.9576863291877
 30
0.0
 10
89.78349471496732
 20
-125.9576863291877
 30
0.0
 10
89.78349471496732
 20
-125.9576863291877
 30
0.0
 10
89.78349471496732
 20
-127.5019503804509
 30
0.0
 10
89.78349471496732
 20
-127.5019503804509
 30
0.0
 10
89.78349471496732
 20
-127.5019503804509
 30
0.0
 10
89.55921899887755
 20
-127.5019503804509
 30
0.0
 10
89.55921899887755
 20
-127.5019503804509
 30
0.0
  0
HATCH
  5
D3
330
CE
100
AcDbEntity
  8
_U+30EC_U+30A4_U+30E4_U+30FC 1
 62
     7
420
 16777215
100
AcDbHatch
 10
0.0
 20
0.0
 30
0.0
210
0.0
220
0.0
230
1.0
  2
SOLID
 70
     1
 71
     0
 91
        1
 92
        1
 93
        1
 72
     4
 94
        3
 73
     0
 74
     1
 95
       26
 96
       22
 40
0.0
 40
0.0
 40
0.0
 40
0.0
 40
1.0
 40
1.0
 40
1.0
 40
2.0
 40
2.0
 40
2.0
 40
3.0
 40
3.0
 40
3.0
 40
4.0
 40
4.0
 40
4.0
 40
5.0
 40
5.0
 40
5.0
 40
6.0
 40
6.0
 40
6.0
 40
7.0
 40
7.0
 40
7.0
 40
7.0
 10
89.55921899887755
 20
-127.5019503804509
 10
89.55921899887755
 20
-127.5019503804509
 10
89.55921899887755
 20
-126.3976250226541
 10
89.55921899887755
 20
-126.3976250226541
 10
89.55921899887755
 20
-126.3976250226541
 10
89.22917885139063
 20
-126.3976250226541
 10
89.22917885139063
 20
-126.3976250226541
 10
89.22917885139063
 20
-126.3976250226541
 10
89.22917885139063
 20
-126.2496581715626
 10
89.22917885139063
 20
-126.2496581715626
 10
89.56128605616871
 20
-126.234844260976
 10
89.60779484521959
 20
-126.0718912445237
 10
89.63742266639274
 20
-125.9576863291877
 10
89.63742266639274
 20
-125.9576863291877
 10
89.78349471496732
 20
-125.9576863291877
 10
89.78349471496732
 20
-125.9576863291877
 10
89.78349471496732
 20
-125.9576863291877
 10
89.78349471496732
 20
-127.5019503804509
 10
89.78349471496732
 20
-127.5019503804509
 10
89.78349471496732
 20
-127.5019503804509
 10
89.55921899887755
 20
-127.5019503804509
 10
89.55921899887755
 20
-127.5019503804509
 97
        0
 97
        0
 75
     2
 76
     1
 98
        0
  0
ENDBLK
  5
D1
330
CE
100
AcDbEntity
  8
0
100
AcDbBlockEnd
  0
BLOCK
  5
E2
330
E0
100
AcDbEntity
  8
0
100
AcDbBlockBegin
  2
block 5
 70
     0
 10
0.0
 20
0.0
 30
0.0
  3
block 5
  1

  0
SPLINE
  5
E4
330
E0
100
AcDbEntity
  8
_U+30EC_U+30A4_U+30E4_U+30FC 1
370
     0
100
AcDbSpline
210
0.0
220
0.0
230
1.0
 70
    11
 71
     3
 72
    53
 73
    49
 74
     0
 42
0.0000000001
 43
0.0000000001
 12
1.0
 22
0.0
 32
0.0
 13
1.0
 23
0.0
 33
0.0
 40
0.0
 40
0.0
 40
0.0
 40
0.0
 40
1.0
 40
1.0
 40
1.0
 40
2.0
 40
2.0
 40
2.0
 40
3.0
 40
3.0
 40
3.0
 40
4.0
 40
4.0
 40
4.0
 40
5.0
 40
5.0
 40
5.0
 40
6.0
 40
6.0
 40
6.0
 40
7.0
 40
7.0
 40
7.0
 40
8.0
 40
8.0
 40
8.0
 40
9.0
 40
9.0
 40
9.0
 40
10.0
 40
10.0
 40
10.0
 40
11.0
 40
11.0
 40
11.0
 40
12.0
 40
12.0
 40
12.0
 40
13.0
 40
13.0
 40
13.0
 40
14.0
 40
14.0
 40
14.0
 40
15.0
 40
15.0
 40
15.0
 40
16.0
 40
16.0
 40
16.0
 40
16.0
 10
75.79072263730232
 20
-141.8903916745969
 30
0.0
 10
75.73542885476407
 20
-141.8349256372843
 30
0.0
 10
75.67548419332071
 20
-141.7512098169928
 30
0.0
 10
75.64861244853577
 20
-141.6344210800428
 30
0.0
 10
75.60365395245326
 20
-141.4339165228012
 30
0.0
 10
75.6815131104199
 20
-141.3264295436614
 30
0.0
 10
75.74438610302572
 20
-141.2365125514964
 30
0.0
 10
75.74438610302572
 20
-141.2365125514964
 30
0.0
 10
75.90148245715311
 20
-141.3936089056238
 30
0.0
 10
75.90148245715311
 20
-141.3936089056238
 30
0.0
 10
75.79967988556398
 20
-141.5730983804054
 30
0.0
 10
75.86840954049471
 20
-141.6836859454819
 30
0.0
 10
75.93438311903724
 20
-141.7494872692501
 30
0.0
 10
76.03308510468965
 20
-141.8483615096768
 30
0.0
 10
76.2110242865028
 20
-141.885913050466
 30
0.0
 10
76.37552759592349
 20
-141.7212374862711
 30
0.0
 10
76.55656736367337
 20
-141.5403699732955
 30
0.0
 10
76.47888046048098
 20
-141.3636365749022
 30
0.0
 10
76.39361434722105
 20
-141.2785427164165
 30
0.0
 10
76.37104897179266
 20
-141.2561495957624
 30
0.0
 10
76.27079669317189
 20
-141.1558973171416
 30
0.0
 10
76.11680092498122
 20
-141.1841471001206
 30
0.0
 10
76.11680092498122
 20
-141.1841471001206
 30
0.0
 10
76.00604110513044
 20
-141.0466877902592
 30
0.0
 10
76.00604110513044
 20
-141.0466877902592
 30
0.0
 10
76.00604110513044
 20
-141.0466877902592
 30
0.0
 10
76.68972030417827
 20
-140.533368562957
 30
0.0
 10
76.68972030417827
 20
-140.533368562957
 30
0.0
 10
76.68972030417827
 20
-140.533368562957
 30
0.0
 10
77.2402465627212
 20
-141.0838948214999
 30
0.0
 10
77.2402465627212
 20
-141.0838948214999
 30
0.0
 10
77.2402465627212
 20
-141.0838948214999
 30
0.0
 10
77.10261499808546
 20
-141.2216986409099
 30
0.0
 10
77.10261499808546
 20
-141.2216986409099
 30
0.0
 10
77.10261499808546
 20
-141.2216986409099
 30
0.0
 10
76.66732718352415
 20
-140.7862385715743
 30
0.0
 10
76.66732718352415
 20
-140.7862385715743
 30
0.0
 10
76.66732718352415
 20
-140.7862385715743
 30
0.0
 10
76.32178410635359
 20
-141.0391085801916
 30
0.0
 10
76.32178410635359
 20
-141.0391085801916
 30
0.0
 10
76.38913572309022
 20
-141.058401114909
 30
0.0
 10
76.47577987454426
 20
-141.0883734456307
 30
0.0
 10
76.55966794961009
 20
-141.1720892659223
 30
0.0
 10
76.7391574243916
 20
-141.3515787407038
 30
0.0
 10
76.7749864174382
 20
-141.650957538372
 30
0.0
 10
76.5536390325109
 20
-141.872132668525
 30
0.0
 10
76.32919106164687
 20
-142.0967528941633
 30
0.0
 10
76.00466306693633
 20
-142.1039875946823
 30
0.0
 10
75.79072263730232
 20
-141.8903916745969
 30
0.0
  0
HATCH
  5
E5
330
E0
100
AcDbEntity
  8
_U+30EC_U+30A4_U+30E4_U+30FC 1
 62
     7
420
 16777215
100
AcDbHatch
 10
0.0
 20
0.0
 30
0.0
210
0.0
220
0.0
230
1.0
  2
SOLID
 70
     1
 71
     0
 91
        1
 92
        1
 93
        1
 72
     4
 94
        3
 73
     0
 74
     1
 95
       53
 96
       49
 40
0.0
 40
0.0
 40
0.0
 40
0.0
 40
1.0
 40
1.0
 40
1.0
 40
2.0
 40
2.0
 40
2.0
 40
3.0
 40
3.0
 40
3.0
 40
4.0
 40
4.0
 40
4.0
 40
5.0
 40
5.0
 40
5.0
 40
6.0
 40
6.0
 40
6.0
 40
7.0
 40
7.0
 40
7.0
 40
8.0
 40
8.0
 40
8.0
 40
9.0
 40
9.0
 40
9.0
 40
10.0
 40
10.0
 40
10.0
 40
11.0
 40
11.0
 40
11.0
 40
12.0
 40
12.0
 40
12.0
 40
13.0
 40
13.0
 40
13.0
 40
14.0
 40
14.0
 40
14.0
 40
15.0
 40
15.0
 40
15.0
 40
16.0
 40
16.0
 40
16.0
 40
16.0
 10
75.79072263730232
 20
-141.8903916745969
 10
75.73542885476407
 20
-141.8349256372843
 10
75.67548419332071
 20
-141.7512098169928
 10
75.64861244853577
 20
-141.6344210800428
 10
75.60365395245326
 20
-141.4339165228012
 10
75.6815131104199
 20
-141.3264295436614
 10
75.74438610302572
 20
-141.2365125514964
 10
75.74438610302572
 20
-141.2365125514964
 10
75.90148245715311
 20
-141.3936089056238
 10
75.90148245715311
 20
-141.3936089056238
 10
75.79967988556398
 20
-141.5730983804054
 10
75.86840954049471
 20
-141.6836859454819
 10
75.93438311903724
 20
-141.7494872692501
 10
76.03308510468965
 20
-141.8483615096768
 10
76.2110242865028
 20
-141.885913050466
 10
76.37552759592349
 20
-141.7212374862711
 10
76.55656736367337
 20
-141.5403699732955
 10
76.47888046048098
 20
-141.3636365749022
 10
76.39361434722105
 20
-141.2785427164165
 10
76.37104897179266
 20
-141.2561495957624
 10
76.27079669317189
 20
-141.1558973171416
 10
76.11680092498122
 20
-141.1841471001206
 10
76.11680092498122
 20
-141.1841471001206
 10
76.00604110513044
 20
-141.0466877902592
 10
76.00604110513044
 20
-141.0466877902592
 10
76.00604110513044
 20
-141.0466877902592
 10
76.68972030417827
 20
-140.533368562957
 10
76.68972030417827
 20
-140.533368562957
 10
76.68972030417827
 20
-140.533368562957
 10
77.2402465627212
 20
-141.0838948214999
 10
77.2402465627212
 20
-141.0838948214999
 10
77.2402465627212
 20
-141.0838948214999
 10
77.10261499808546
 20
-141.2216986409099
 10
77.10261499808546
 20
-141.2216986409099
 10
77.10261499808546
 20
-141.2216986409099
 10
76.66732718352415
 20
-140.7862385715743
 10
76.66732718352415
 20
-140.7862385715743
 10
76.66732718352415
 20
-140.7862385715743
 10
76.32178410635359
 20
-141.0391085801916
 10
76.32178410635359
 20
-141.0391085801916
 10
76.38913572309022
 20
-141.058401114909
 10
76.47577987454426
 20
-141.0883734456307
 10
76.55966794961009
 20
-141.1720892659223
 10
76.7391574243916
 20
-141.3515787407038
 10
76.7749864174382
 20
-141.650957538372
 10
76.5536390325109
 20
-141.872132668525
 10
76.32919106164687
 20
-142.0967528941633
 10
76.00466306693633
 20
-142.1039875946823
 10
75.79072263730232
 20
-141.8903916745969
 97
        0
 97
        0
 75
     2
 76
     1
 98
        0
  0
ENDBLK
  5
E3
330
E0
100
AcDbEntity
  8
0
100
AcDbBlockEnd
  0
BLOCK
  5
F8
330
F6
100
AcDbEntity
  8
0
100
AcDbBlockBegin
  2
block 6
 70
     0
 10
0.0
 20
0.0
 30
0.0
  3
block 6
  1

  0
SPLINE
  5
FA
330
F6
100
AcDbEntity
  8
_U+30EC_U+30A4_U+30E4_U+30FC 1
370
     0
100
AcDbSpline
210
0.0
220
0.0
230
1.0
 70
    11
 71
     3
 72
    29
 73
    25
 74
     0
 42
0.0000000001
 43
0.0000000001
 12
1.0
 22
0.0
 32
0.0
 13
1.0
 23
0.0
 33
0.0
 40
0.0
 40
0.0
 40
0.0
 40
0.0
 40
1.0
 40
1.0
 40
1.0
 40
2.0
 40
2.0
 40
2.0
 40
3.0
 40
3.0
 40
3.0
 40
4.0
 40
4.0
 40
4.0
 40
5.0
 40
5.0
 40
5.0
 40
6.0
 40
6.0
 40
6.0
 40
7.0
 40
7.0
 40
7.0
 40
8.0
 40
8.0
 40
8.0
 40
8.0
 10
82.68900958219234
 20
-114.1236110825802
 30
0.0
 10
82.5808335839555
 20
-114.3330728880834
 30
0.0
 10
82.40754528104742
 20
-114.3521931680265
 30
0.0
 10
82.29110105364597
 20
-114.3521931680265
 30
0.0
 10
82.13021509448481
 20
-114.3521931680265
 30
0.0
 10
81.98862167004104
 20
-114.3056843789757
 30
0.0
 10
81.89353703464815
 20
-114.1236110825802
 30
0.0
 10
81.78983966054213
 20
-113.9289631876636
 30
0.0
 10
81.77054712582473
 20
-113.6921128730527
 30
0.0
 10
81.77054712582473
 20
-113.5291598566004
 30
0.0
 10
81.77054712582473
 20
-113.3853271200912
 30
0.0
 10
81.78777260325097
 20
-113.1336628948937
 30
0.0
 10
81.89353703464815
 20
-112.9347086306205
 30
0.0
 10
82.00136852333647
 20
-112.731620251765
 30
0.0
 10
82.16225448249763
 20
-112.7083658572396
 30
0.0
 10
82.29110105364597
 20
-112.7083658572396
 30
0.0
 10
82.449919955516
 20
-112.7083658572396
 30
0.0
 10
82.59358043725092
 20
-112.7528075889993
 30
0.0
 10
82.68900958219234
 20
-112.9347086306205
 30
0.0
 10
82.78822833216753
 20
-113.127289468246
 30
0.0
 10
82.81165498146723
 20
-113.355699298918
 30
0.0
 10
82.81165498146723
 20
-113.5291598566004
 30
0.0
 10
82.81165498146723
 20
-113.7005533569915
 30
0.0
 10
82.79029538945868
 20
-113.931202499729
 30
0.0
 10
82.68900958219234
 20
-114.1236110825802
 30
0.0
  0
SPLINE
  5
FB
330
F6
100
AcDbEntity
  8
_U+30EC_U+30A4_U+30E4_U+30FC 1
370
     0
100
AcDbSpline
210
0.0
220
0.0
230
1.0
 70
    11
 71
     3
 72
    17
 73
    13
 74
     0
 42
0.0000000001
 43
0.0000000001
 12
1.0
 22
0.0
 32
0.0
 13
1.0
 23
0.0
 33
0.0
 40
0.0
 40
0.0
 40
0.0
 40
0.0
 40
1.0
 40
1.0
 40
1.0
 40
2.0
 40
2.0
 40
2.0
 40
3.0
 40
3.0
 40
3.0
 40
4.0
 40
4.0
 40
4.0
 40
4.0
 10
82.29110105364597
 20
-112.900946694865
 30
0.0
 10
82.04133163096536
 20
-112.900946694865
 30
0.0
 10
81.9948228419145
 20
-113.1844780533011
 30
0.0
 10
81.9948228419145
 20
-113.5291598566004
 30
0.0
 10
81.9948228419145
 20
-113.8486924628573
 30
0.0
 10
82.03099634450962
 20
-114.1575452731099
 30
0.0
 10
82.29110105364597
 20
-114.1575452731099
 30
0.0
 10
82.53880341903545
 20
-114.1575452731099
 30
0.0
 10
82.58737926537746
 20
-113.876080971965
 30
0.0
 10
82.58737926537746
 20
-113.5291598566004
 30
0.0
 10
82.58737926537746
 20
-113.2097995051177
 30
0.0
 10
82.54913870549119
 20
-112.900946694865
 30
0.0
 10
82.29110105364597
 20
-112.900946694865
 30
0.0
  0
HATCH
  5
FC
330
F6
100
AcDbEntity
  8
_U+30EC_U+30A4_U+30E4_U+30FC 1
 62
     7
420
 16777215
100
AcDbHatch
 10
0.0
 20
0.0
 30
0.0
210
0.0
220
0.0
230
1.0
  2
SOLID
 70
     1
 71
     0
 91
        2
 92
        1
 93
        1
 72
     4
 94
        3
 73
     0
 74
     1
 95
       29
 96
       25
 40
0.0
 40
0.0
 40
0.0
 40
0.0
 40
1.0
 40
1.0
 40
1.0
 40
2.0
 40
2.0
 40
2.0
 40
3.0
 40
3.0
 40
3.0
 40
4.0
 40
4.0
 40
4.0
 40
5.0
 40
5.0
 40
5.0
 40
6.0
 40
6.0
 40
6.0
 40
7.0
 40
7.0
 40
7.0
 40
8.0
 40
8.0
 40
8.0
 40
8.0
 10
82.68900958219234
 20
-114.1236110825802
 10
82.5808335839555
 20
-114.3330728880834
 10
82.40754528104742
 20
-114.3521931680265
 10
82.29110105364597
 20
-114.3521931680265
 10
82.13021509448481
 20
-114.3521931680265
 10
81.98862167004104
 20
-114.3056843789757
 10
81.89353703464815
 20
-114.1236110825802
 10
81.78983966054213
 20
-113.9289631876636
 10
81.77054712582473
 20
-113.6921128730527
 10
81.77054712582473
 20
-113.5291598566004
 10
81.77054712582473
 20
-113.3853271200912
 10
81.78777260325097
 20
-113.1336628948937
 10
81.89353703464815
 20
-112.9347086306205
 10
82.00136852333647
 20
-112.731620251765
 10
82.16225448249763
 20
-112.7083658572396
 10
82.29110105364597
 20
-112.7083658572396
 10
82.449919955516
 20
-112.7083658572396
 10
82.59358043725092
 20
-112.7528075889993
 10
82.68900958219234
 20
-112.9347086306205
 10
82.78822833216753
 20
-113.127289468246
 10
82.81165498146723
 20
-113.355699298918
 10
82.81165498146723
 20
-113.5291598566004
 10
82.81165498146723
 20
-113.7005533569915
 10
82.79029538945868
 20
-113.931202499729
 10
82.68900958219234
 20
-114.1236110825802
 97
        0
 97
        0
 92
        1
 93
        1
 72
     4
 94
        3
 73
     0
 74
     1
 95
       17
 96
       13
 40
0.0
 40
0.0
 40
0.0
 40
0.0
 40
1.0
 40
1.0
 40
1.0
 40
2.0
 40
2.0
 40
2.0
 40
3.0
 40
3.0
 40
3.0
 40
4.0
 40
4.0
 40
4.0
 40
4.0
 10
82.29110105364597
 20
-112.900946694865
 10
82.04133163096536
 20
-112.900946694865
 10
81.9948228419145
 20
-113.1844780533011
 10
81.9948228419145
 20
-113.5291598566004
 10
81.9948228419145
 20
-113.8486924628573
 10
82.03099634450962
 20
-114.1575452731099
 10
82.29110105364597
 20
-114.1575452731099
 10
82.53880341903545
 20
-114.1575452731099
 10
82.58737926537746
 20
-113.876080971965
 10
82.58737926537746
 20
-113.5291598566004
 10
82.58737926537746
 20
-113.2097995051177
 10
82.54913870549119
 20
-112.900946694865
 10
82.29110105364597
 20
-112.900946694865
 97
        0
 97
        0
 75
     2
 76
     1
 98
        0
  0
POLYLINE
  5
FD
330
F6
100
AcDbEntity
  8
_U+30EC_U+30A4_U+30E4_U+30FC 1
370
     0
100
AcDb2dPolyline
 66
     1
 10
0.0
 20
0.0
 30
0.0
  0
VERTEX
  5
FE
330
FD
100
AcDbEntity
  8
_U+30EC_U+30A4_U+30E4_U+30FC 1
370
     0
100
AcDbVertex
100
AcDb2dVertex
 10
83.02800697794092
 20
-114.3013780096191
 30
0.0
  0
VERTEX
  5
FF
330
FD
100
AcDbEntity
  8
_U+30EC_U+30A4_U+30E4_U+30FC 1
370
     0
100
AcDbVertex
100
AcDb2dVertex
 10
83.02800697794092
 20
-114.0497137844216
 30
0.0
  0
VERTEX
  5
100
330
FD
100
AcDbEntity
  8
_U+30EC_U+30A4_U+30E4_U+30FC 1
370
     0
100
AcDbVertex
100
AcDb2dVertex
 10
83.27984345791268
 20
-114.0497137844216
 30
0.0
  0
VERTEX
  5
101
330
FD
100
AcDbEntity
  8
_U+30EC_U+30A4_U+30E4_U+30FC 1
370
     0
100
AcDbVertex
100
AcDb2dVertex
 10
83.27984345791268
 20
-114.3013780096191
 30
0.0
  0
VERTEX
  5
102
330
FD
100
AcDbEntity
  8
_U+30EC_U+30A4_U+30E4_U+30FC 1
370
     0
100
AcDbVertex
100
AcDb2dVertex
 10
83.02800697794092
 20
-114.3013780096191
 30
0.0
  0
SEQEND
  5
103
330
FD
100
AcDbEntity
  8
_U+30EC_U+30A4_U+30E4_U+30FC 1
370
     0
  0
HATCH
  5
104
330
F6
100
AcDbEntity
  8
_U+30EC_U+30A4_U+30E4_U+30FC 1
 62
     7
420
 16777215
100
AcDbHatch
 10
0.0
 20
0.0
 30
0.0
210
0.0
220
0.0
230
1.0
  2
SOLID
 70
     1
 71
     0
 91
        1
 92
        1
 93
        4
 72
     1
 10
83.02800697794092
 20
-114.3013780096191
 11
83.02800697794092
 21
-114.0497137844216
 72
     1
 10
83.02800697794092
 20
-114.0497137844216
 11
83.27984345791268
 21
-114.0497137844216
 72
     1
 10
83.27984345791268
 20
-114.0497137844216
 11
83.27984345791268
 21
-114.3013780096191
 72
     1
 10
83.27984345791268
 20
-114.3013780096191
 11
83.02800697794092
 21
-114.3013780096191
 97
        0
 75
     2
 76
     1
 98
        0
  0
SPLINE
  5
105
330
F6
100
AcDbEntity
  8
_U+30EC_U+30A4_U+30E4_U+30FC 1
370
     0
100
AcDbSpline
210
0.0
220
0.0
230
1.0
 70
    11
 71
     3
 72
    29
 73
    25
 74
     0
 42
0.0000000001
 43
0.0000000001
 12
1.0
 22
0.0
 32
0.0
 13
1.0
 23
0.0
 33
0.0
 40
0.0
 40
0.0
 40
0.0
 40
0.0
 40
1.0
 40
1.0
 40
1.0
 40
2.0
 40
2.0
 40
2.0
 40
3.0
 40
3.0
 40
3.0
 40
4.0
 40
4.0
 40
4.0
 40
5.0
 40
5.0
 40
5.0
 40
6.0
 40
6.0
 40
6.0
 40
7.0
 40
7.0
 40
7.0
 40
8.0
 40
8.0
 40
8.0
 40
8.0
 10
84.01606036311057
 20
-114.3521931680265
 30
0.0
 10
83.74940997255223
 20
-114.3521931680265
 30
0.0
 10
83.49585094483784
 20
-114.2145616033908
 30
0.0
 10
83.49585094483784
 20
-113.865573430735
 30
0.0
 10
83.49585094483784
 20
-113.6096028361809
 30
0.0
 10
83.63744436928161
 20
-113.5143459460138
 30
0.0
 10
83.74320880067879
 20
-113.4530232463763
 30
0.0
 10
83.61849634411274
 20
-113.39376760403
 30
0.0
 10
83.54235973388872
 20
-113.279562688694
 30
0.0
 10
83.54235973388872
 20
-113.1188489843071
 30
0.0
 10
83.54235973388872
 20
-112.8437581098099
 30
0.0
 10
83.74114174338763
 20
-112.7083658572396
 30
0.0
 10
84.01606036311057
 20
-112.7083658572396
 30
0.0
 10
84.29959172154663
 20
-112.7083658572396
 30
0.0
 10
84.49010550188095
 20
-112.8521985937488
 30
0.0
 10
84.49010550188095
 20
-113.1188489843071
 30
0.0
 10
84.49010550188095
 20
-113.279562688694
 30
0.0
 10
84.41155732481725
 20
-113.39376760403
 30
0.0
 10
84.28684486825121
 20
-113.4530232463763
 30
0.0
 10
84.37572833177066
 20
-113.5038384047838
 30
0.0
 10
84.53454723364067
 20
-113.5990952949509
 30
0.0
 10
84.53454723364067
 20
-113.8614393161527
 30
0.0
 10
84.53454723364067
 20
-114.2357489406251
 30
0.0
 10
84.25514998978691
 20
-114.3521931680265
 30
0.0
 10
84.01606036311057
 20
-114.3521931680265
 30
0.0
  0
SPLINE
  5
106
330
F6
100
AcDbEntity
  8
_U+30EC_U+30A4_U+30E4_U+30FC 1
370
     0
100
AcDbSpline
210
0.0
220
0.0
230
1.0
 70
    11
 71
     3
 72
    17
 73
    13
 74
     0
 42
0.0000000001
 43
0.0000000001
 12
1.0
 22
0.0
 32
0.0
 13
1.0
 23
0.0
 33
0.0
 40
0.0
 40
0.0
 40
0.0
 40
0.0
 40
1.0
 40
1.0
 40
1.0
 40
2.0
 40
2.0
 40
2.0
 40
3.0
 40
3.0
 40
3.0
 40
4.0
 40
4.0
 40
4.0
 40
4.0
 10
84.01606036311057
 20
-113.5610269898389
 30
0.0
 10
83.87239988137566
 20
-113.5610269898389
 30
0.0
 10
83.71978215137909
 20
-113.6476711412929
 30
0.0
 10
83.71978215137909
 20
-113.8507595201484
 30
0.0
 10
83.71978215137909
 20
-114.0559149562951
 30
0.0
 10
83.8469061747848
 20
-114.1575452731099
 30
0.0
 10
84.01606036311057
 20
-114.1575452731099
 30
0.0
 10
84.20209551931406
 20
-114.1575452731099
 30
0.0
 10
84.31233857484206
 20
-114.034899873835
 30
0.0
 10
84.31233857484206
 20
-113.8571329467961
 30
0.0
 10
84.31233857484206
 20
-113.6349242879975
 30
0.0
 10
84.14938555838974
 20
-113.5610269898389
 30
0.0
 10
84.01606036311057
 20
-113.5610269898389
 30
0.0
  0
SPLINE
  5
107
330
F6
100
AcDbEntity
  8
_U+30EC_U+30A4_U+30E4_U+30FC 1
370
     0
100
AcDbSpline
210
0.0
220
0.0
230
1.0
 70
    11
 71
     3
 72
    17
 73
    13
 74
     0
 42
0.0000000001
 43
0.0000000001
 12
1.0
 22
0.0
 32
0.0
 13
1.0
 23
0.0
 33
0.0
 40
0.0
 40
0.0
 40
0.0
 40
0.0
 40
1.0
 40
1.0
 40
1.0
 40
2.0
 40
2.0
 40
2.0
 40
3.0
 40
3.0
 40
3.0
 40
4.0
 40
4.0
 40
4.0
 40
4.0
 10
84.01606036311057
 20
-112.900946694865
 30
0.0
 10
83.8510402893671
 20
-112.900946694865
 30
0.0
 10
83.76663544997848
 20
-112.9960313302579
 30
0.0
 10
83.76663544997848
 20
-113.1314235828283
 30
0.0
 10
83.76663544997848
 20
-113.2542412368774
 30
0.0
 10
83.83829343607168
 20
-113.37275252157
 30
0.0
 10
84.01606036311057
 20
-113.37275252157
 30
0.0
 10
84.19382729014946
 20
-113.37275252157
 30
0.0
 10
84.26582978579118
 20
-113.2542412368774
 30
0.0
 10
84.26582978579118
 20
-113.1314235828283
 30
0.0
 10
84.26582978579118
 20
-112.9960313302579
 30
0.0
 10
84.17901337956289
 20
-112.900946694865
 30
0.0
 10
84.01606036311057
 20
-112.900946694865
 30
0.0
  0
HATCH
  5
108
330
F6
100
AcDbEntity
  8
_U+30EC_U+30A4_U+30E4_U+30FC 1
 62
     7
420
 16777215
100
AcDbHatch
 10
0.0
 20
0.0
 30
0.0
210
0.0
220
0.0
230
1.0
  2
SOLID
 70
     1
 71
     0
 91
        3
 92
        1
 93
        1
 72
     4
 94
        3
 73
     0
 74
     1
 95
       29
 96
       25
 40
0.0
 40
0.0
 40
0.0
 40
0.0
 40
1.0
 40
1.0
 40
1.0
 40
2.0
 40
2.0
 40
2.0
 40
3.0
 40
3.0
 40
3.0
 40
4.0
 40
4.0
 40
4.0
 40
5.0
 40
5.0
 40
5.0
 40
6.0
 40
6.0
 40
6.0
 40
7.0
 40
7.0
 40
7.0
 40
8.0
 40
8.0
 40
8.0
 40
8.0
 10
84.01606036311057
 20
-114.3521931680265
 10
83.74940997255223
 20
-114.3521931680265
 10
83.49585094483784
 20
-114.2145616033908
 10
83.49585094483784
 20
-113.865573430735
 10
83.49585094483784
 20
-113.6096028361809
 10
83.63744436928161
 20
-113.5143459460138
 10
83.74320880067879
 20
-113.4530232463763
 10
83.61849634411274
 20
-113.39376760403
 10
83.54235973388872
 20
-113.279562688694
 10
83.54235973388872
 20
-113.1188489843071
 10
83.54235973388872
 20
-112.8437581098099
 10
83.74114174338763
 20
-112.7083658572396
 10
84.01606036311057
 20
-112.7083658572396
 10
84.29959172154663
 20
-112.7083658572396
 10
84.49010550188095
 20
-112.8521985937488
 10
84.49010550188095
 20
-113.1188489843071
 10
84.49010550188095
 20
-113.279562688694
 10
84.41155732481725
 20
-113.39376760403
 10
84.28684486825121
 20
-113.4530232463763
 10
84.37572833177066
 20
-113.5038384047838
 10
84.53454723364067
 20
-113.5990952949509
 10
84.53454723364067
 20
-113.8614393161527
 10
84.53454723364067
 20
-114.2357489406251
 10
84.25514998978691
 20
-114.3521931680265
 10
84.01606036311057
 20
-114.3521931680265
 97
        0
 97
        0
 92
        1
 93
        1
 72
     4
 94
        3
 73
     0
 74
     1
 95
       17
 96
       13
 40
0.0
 40
0.0
 40
0.0
 40
0.0
 40
1.0
 40
1.0
 40
1.0
 40
2.0
 40
2.0
 40
2.0
 40
3.0
 40
3.0
 40
3.0
 40
4.0
 40
4.0
 40
4.0
 40
4.0
 10
84.01606036311057
 20
-113.5610269898389
 10
83.87239988137566
 20
-113.5610269898389
 10
83.71978215137909
 20
-113.6476711412929
 10
83.71978215137909
 20
-113.8507595201484
 10
83.71978215137909
 20
-114.0559149562951
 10
83.8469061747848
 20
-114.1575452731099
 10
84.01606036311057
 20
-114.1575452731099
 10
84.20209551931406
 20
-114.1575452731099
 10
84.31233857484206
 20
-114.034899873835
 10
84.31233857484206
 20
-113.8571329467961
 10
84.31233857484206
 20
-113.6349242879975
 10
84.14938555838974
 20
-113.5610269898389
 10
84.01606036311057
 20
-113.5610269898389
 97
        0
 97
        0
 92
        1
 93
        1
 72
     4
 94
        3
 73
     0
 74
     1
 95
       17
 96
       13
 40
0.0
 40
0.0
 40
0.0
 40
0.0
 40
1.0
 40
1.0
 40
1.0
 40
2.0
 40
2.0
 40
2.0
 40
3.0
 40
3.0
 40
3.0
 40
4.0
 40
4.0
 40
4.0
 40
4.0
 10
84.01606036311057
 20
-112.900946694865
 10
83.8510402893671
 20
-112.900946694865
 10
83.76663544997848
 20
-112.9960313302579
 10
83.76663544997848
 20
-113.1314235828283
 10
83.76663544997848
 20
-113.2542412368774
 10
83.83829343607168
 20
-113.37275252157
 10
84.01606036311057
 20
-113.37275252157
 10
84.19382729014946
 20
-113.37275252157
 10
84.26582978579118
 20
-113.2542412368774
 10
84.26582978579118
 20
-113.1314235828283
 10
84.26582978579118
 20
-112.9960313302579
 10
84.17901337956289
 20
-112.900946694865
 10
84.01606036311057
 20
-112.900946694865
 97
        0
 97
        0
 75
     2
 76
     1
 98
        0
  0
ENDBLK
  5
F9
330
F6
100
AcDbEntity
  8
0
100
AcDbBlockEnd
  0
BLOCK
  5
117
330
115
100
AcDbEntity
  8
0
100
AcDbBlockBegin
  2
block 7
 70
     0
 10
0.0
 20
0.0
 30
0.0
  3
block 7
  1

  0
SPLINE
  5
119
330
115
100
AcDbEntity
  8
_U+30EC_U+30A4_U+30E4_U+30FC 1
370
     0
100
AcDbSpline
210
0.0
220
0.0
230
1.0
 70
    11
 71
     3
 72
    44
 73
    40
 74
     0
 42
0.0000000001
 43
0.0000000001
 12
1.0
 22
0.0
 32
0.0
 13
1.0
 23
0.0
 33
0.0
 40
0.0
 40
0.0
 40
0.0
 40
0.0
 40
1.0
 40
1.0
 40
1.0
 40
2.0
 40
2.0
 40
2.0
 40
3.0
 40
3.0
 40
3.0
 40
4.0
 40
4.0
 40
4.0
 40
5.0
 40
5.0
 40
5.0
 40
6.0
 40
6.0
 40
6.0
 40
7.0
 40
7.0
 40
7.0
 40
8.0
 40
8.0
 40
8.0
 40
9.0
 40
9.0
 40
9.0
 40
10.0
 40
10.0
 40
10.0
 40
11.0
 40
11.0
 40
11.0
 40
12.0
 40
12.0
 40
12.0
 40
13.0
 40
13.0
 40
13.0
 40
13.0
 10
90.31610647698695
 20
-141.2199760931672
 30
0.0
 10
90.09837644231916
 20
-141.3787949950373
 30
0.0
 10
90.00535886421741
 20
-141.4528645479701
 30
0.0
 10
89.95643850832687
 20
-141.596525029705
 30
0.0
 10
89.95643850832687
 20
-141.596525029705
 30
0.0
 10
90.73503008799332
 20
-141.596525029705
 30
0.0
 10
90.73503008799332
 20
-141.596525029705
 30
0.0
 10
90.73503008799332
 20
-141.596525029705
 30
0.0
 10
90.73503008799332
 20
-141.8018527206259
 30
0.0
 10
90.73503008799332
 20
-141.8018527206259
 30
0.0
 10
90.73503008799332
 20
-141.8018527206259
 30
0.0
 10
89.70701359519478
 20
-141.8018527206259
 30
0.0
 10
89.70701359519478
 20
-141.8018527206259
 30
0.0
 10
89.73870847365907
 20
-141.444251809257
 30
0.0
 10
89.80416528787882
 20
-141.3660481417418
 30
0.0
 10
90.18932696312976
 20
-141.0677028727192
 30
0.0
 10
90.44529755768382
 20
-140.8689208632203
 30
0.0
 10
90.51075437190356
 20
-140.8010524821609
 30
0.0
 10
90.51075437190356
 20
-140.6635931722994
 30
0.0
 10
90.51075437190356
 20
-140.5450818876068
 30
0.0
 10
90.43875187626185
 20
-140.4141682591673
 30
0.0
 10
90.24203692405408
 20
-140.4141682591673
 30
0.0
 10
89.98193221491772
 20
-140.4141682591673
 30
0.0
 10
89.9733194762046
 20
-140.6446451471305
 30
0.0
 10
89.9691853616223
 20
-140.761089374532
 30
0.0
 10
89.9691853616223
 20
-140.761089374532
 30
0.0
 10
89.74490964553253
 20
-140.761089374532
 30
0.0
 10
89.74490964553253
 20
-140.761089374532
 30
0.0
 10
89.75352238424566
 20
-140.6339653511262
 30
0.0
 10
89.76420218024992
 20
-140.5219997478556
 30
0.0
 10
89.84447290505625
 20
-140.403488463163
 30
0.0
 10
89.95437145103571
 20
-140.2426025040019
 30
0.0
 10
90.14075111678773
 20
-140.2088405682464
 30
0.0
 10
90.25685083464066
 20
-140.2088405682464
 30
0.0
 10
90.53418102120327
 20
-140.2088405682464
 30
0.0
 10
90.7415757694153
 20
-140.3928086671588
 30
0.0
 10
90.7415757694153
 20
-140.6656602295905
 30
0.0
 10
90.7415757694153
 20
-140.8944145698111
 30
0.0
 10
90.62513154201386
 20
-140.9936333197863
 30
0.0
 10
90.31610647698695
 20
-141.2199760931672
 30
0.0
  0
HATCH
  5
11A
330
115
100
AcDbEntity
  8
_U+30EC_U+30A4_U+30E4_U+30FC 1
 62
     7
420
 16777215
100
AcDbHatch
 10
0.0
 20
0.0
 30
0.0
210
0.0
220
0.0
230
1.0
  2
SOLID
 70
     1
 71
     0
 91
        1
 92
        1
 93
        1
 72
     4
 94
        3
 73
     0
 74
     1
 95
       44
 96
       40
 40
0.0
 40
0.0
 40
0.0
 40
0.0
 40
1.0
 40
1.0
 40
1.0
 40
2.0
 40
2.0
 40
2.0
 40
3.0
 40
3.0
 40
3.0
 40
4.0
 40
4.0
 40
4.0
 40
5.0
 40
5.0
 40
5.0
 40
6.0
 40
6.0
 40
6.0
 40
7.0
 40
7.0
 40
7.0
 40
8.0
 40
8.0
 40
8.0
 40
9.0
 40
9.0
 40
9.0
 40
10.0
 40
10.0
 40
10.0
 40
11.0
 40
11.0
 40
11.0
 40
12.0
 40
12.0
 40
12.0
 40
13.0
 40
13.0
 40
13.0
 40
13.0
 10
90.31610647698695
 20
-141.2199760931672
 10
90.09837644231916
 20
-141.3787949950373
 10
90.00535886421741
 20
-141.4528645479701
 10
89.95643850832687
 20
-141.596525029705
 10
89.95643850832687
 20
-141.596525029705
 10
90.73503008799332
 20
-141.596525029705
 10
90.73503008799332
 20
-141.596525029705
 10
90.73503008799332
 20
-141.596525029705
 10
90.73503008799332
 20
-141.8018527206259
 10
90.73503008799332
 20
-141.8018527206259
 10
90.73503008799332
 20
-141.8018527206259
 10
89.70701359519478
 20
-141.8018527206259
 10
89.70701359519478
 20
-141.8018527206259
 10
89.73870847365907
 20
-141.444251809257
 10
89.80416528787882
 20
-141.3660481417418
 10
90.18932696312976
 20
-141.0677028727192
 10
90.44529755768382
 20
-140.8689208632203
 10
90.51075437190356
 20
-140.8010524821609
 10
90.51075437190356
 20
-140.6635931722994
 10
90.51075437190356
 20
-140.5450818876068
 10
90.43875187626185
 20
-140.4141682591673
 10
90.24203692405408
 20
-140.4141682591673
 10
89.98193221491772
 20
-140.4141682591673
 10
89.9733194762046
 20
-140.6446451471305
 10
89.9691853616223
 20
-140.761089374532
 10
89.9691853616223
 20
-140.761089374532
 10
89.74490964553253
 20
-140.761089374532
 10
89.74490964553253
 20
-140.761089374532
 10
89.75352238424566
 20
-140.6339653511262
 10
89.76420218024992
 20
-140.5219997478556
 10
89.84447290505625
 20
-140.403488463163
 10
89.95437145103571
 20
-140.2426025040019
 10
90.14075111678773
 20
-140.2088405682464
 10
90.25685083464066
 20
-140.2088405682464
 10
90.53418102120327
 20
-140.2088405682464
 10
90.7415757694153
 20
-140.3928086671588
 10
90.7415757694153
 20
-140.6656602295905
 10
90.7415757694153
 20
-140.8944145698111
 10
90.62513154201386
 20
-140.9936333197863
 10
90.31610647698695
 20
-141.2199760931672
 97
        0
 97
        0
 75
     2
 76
     1
 98
        0
  0
POLYLINE
  5
11B
330
115
100
AcDbEntity
  8
_U+30EC_U+30A4_U+30E4_U+30FC 1
370
     0
100
AcDb2dPolyline
 66
     1
 10
0.0
 20
0.0
 30
0.0
  0
VERTEX
  5
11C
330
11B
100
AcDbEntity
  8
_U+30EC_U+30A4_U+30E4_U+30FC 1
370
     0
100
AcDbVertex
100
AcDb2dVertex
 10
91.73186846665037
 20
-141.4549316052613
 30
0.0
  0
VERTEX
  5
11D
330
11B
100
AcDbEntity
  8
_U+30EC_U+30A4_U+30E4_U+30FC 1
370
     0
100
AcDbVertex
100
AcDb2dVertex
 10
91.73186846665037
 20
-141.8018527206259
 30
0.0
  0
VERTEX
  5
11E
330
11B
100
AcDbEntity
  8
_U+30EC_U+30A4_U+30E4_U+30FC 1
370
     0
100
AcDbVertex
100
AcDb2dVertex
 10
91.51413843198259
 20
-141.8018527206259
 30
0.0
  0
VERTEX
  5
11F
330
11B
100
AcDbEntity
  8
_U+30EC_U+30A4_U+30E4_U+30FC 1
370
     0
100
AcDbVertex
100
AcDb2dVertex
 10
91.51413843198259
 20
-141.4549316052613
 30
0.0
  0
VERTEX
  5
120
330
11B
100
AcDbEntity
  8
_U+30EC_U+30A4_U+30E4_U+30FC 1
370
     0
100
AcDbVertex
100
AcDb2dVertex
 10
90.85836450636528
 20
-141.4549316052613
 30
0.0
  0
VERTEX
  5
121
330
11B
100
AcDbEntity
  8
_U+30EC_U+30A4_U+30E4_U+30FC 1
370
     0
100
AcDbVertex
100
AcDb2dVertex
 10
90.85836450636528
 20
-141.2306558891715
 30
0.0
  0
VERTEX
  5
122
330
11B
100
AcDbEntity
  8
_U+30EC_U+30A4_U+30E4_U+30FC 1
370
     0
100
AcDbVertex
100
AcDb2dVertex
 10
91.53722057173376
 20
-140.2574164145884
 30
0.0
  0
VERTEX
  5
123
330
11B
100
AcDbEntity
  8
_U+30EC_U+30A4_U+30E4_U+30FC 1
370
     0
100
AcDbVertex
100
AcDb2dVertex
 10
91.73186846665037
 20
-140.2574164145884
 30
0.0
  0
VERTEX
  5
124
330
11B
100
AcDbEntity
  8
_U+30EC_U+30A4_U+30E4_U+30FC 1
370
     0
100
AcDbVertex
100
AcDb2dVertex
 10
91.73186846665037
 20
-141.2561495957624
 30
0.0
  0
VERTEX
  5
125
330
11B
100
AcDbEntity
  8
_U+30EC_U+30A4_U+30E4_U+30FC 1
370
     0
100
AcDbVertex
100
AcDb2dVertex
 10
91.93926321486241
 20
-141.2561495957624
 30
0.0
  0
VERTEX
  5
126
330
11B
100
AcDbEntity
  8
_U+30EC_U+30A4_U+30E4_U+30FC 1
370
     0
100
AcDbVertex
100
AcDb2dVertex
 10
91.93926321486241
 20
-141.4549316052613
 30
0.0
  0
VERTEX
  5
127
330
11B
100
AcDbEntity
  8
_U+30EC_U+30A4_U+30E4_U+30FC 1
370
     0
100
AcDbVertex
100
AcDb2dVertex
 10
91.73186846665037
 20
-141.4549316052613
 30
0.0
  0
SEQEND
  5
128
330
11B
100
AcDbEntity
  8
_U+30EC_U+30A4_U+30E4_U+30FC 1
370
     0
  0
POLYLINE
  5
129
330
115
100
AcDbEntity
  8
_U+30EC_U+30A4_U+30E4_U+30FC 1
370
     0
100
AcDb2dPolyline
 66
     1
 10
0.0
 20
0.0
 30
0.0
  0
VERTEX
  5
12A
330
129
100
AcDbEntity
  8
_U+30EC_U+30A4_U+30E4_U+30FC 1
370
     0
100
AcDbVertex
100
AcDb2dVertex
 10
91.51413843198259
 20
-140.6002034153708
 30
0.0
  0
VERTEX
  5
12B
330
129
100
AcDbEntity
  8
_U+30EC_U+30A4_U+30E4_U+30FC 1
370
     0
100
AcDbVertex
100
AcDb2dVertex
 10
91.05714651586419
 20
-141.2561495957624
 30
0.0
  0
VERTEX
  5
12C
330
129
100
AcDbEntity
  8
_U+30EC_U+30A4_U+30E4_U+30FC 1
370
     0
100
AcDbVertex
100
AcDb2dVertex
 10
91.51413843198259
 20
-141.2561495957624
 30
0.0
  0
VERTEX
  5
12D
330
129
100
AcDbEntity
  8
_U+30EC_U+30A4_U+30E4_U+30FC 1
370
     0
100
AcDbVertex
100
AcDb2dVertex
 10
91.51413843198259
 20
-140.6002034153708
 30
0.0
  0
SEQEND
  5
12E
330
129
100
AcDbEntity
  8
_U+30EC_U+30A4_U+30E4_U+30FC 1
370
     0
  0
HATCH
  5
12F
330
115
100
AcDbEntity
  8
_U+30EC_U+30A4_U+30E4_U+30FC 1
 62
     7
420
 16777215
100
AcDbHatch
 10
0.0
 20
0.0
 30
0.0
210
0.0
220
0.0
230
1.0
  2
SOLID
 70
     1
 71
     0
 91
        2
 92
        1
 93
       11
 72
     1
 10
91.73186846665037
 20
-141.4549316052613
 11
91.73186846665037
 21
-141.8018527206259
 72
     1
 10
91.73186846665037
 20
-141.8018527206259
 11
91.51413843198259
 21
-141.8018527206259
 72
     1
 10
91.51413843198259
 20
-141.8018527206259
 11
91.51413843198259
 21
-141.4549316052613
 72
     1
 10
91.51413843198259
 20
-141.4549316052613
 11
90.85836450636528
 21
-141.4549316052613
 72
     1
 10
90.85836450636528
 20
-141.4549316052613
 11
90.85836450636528
 21
-141.2306558891715
 72
     1
 10
90.85836450636528
 20
-141.2306558891715
 11
91.53722057173376
 21
-140.2574164145884
 72
     1
 10
91.53722057173376
 20
-140.2574164145884
 11
91.73186846665037
 21
-140.2574164145884
 72
     1
 10
91.73186846665037
 20
-140.2574164145884
 11
91.73186846665037
 21
-141.2561495957624
 72
     1
 10
91.73186846665037
 20
-141.2561495957624
 11
91.93926321486241
 21
-141.2561495957624
 72
     1
 10
91.93926321486241
 20
-141.2561495957624
 11
91.93926321486241
 21
-141.4549316052613
 72
     1
 10
91.93926321486241
 20
-141.4549316052613
 11
91.73186846665037
 21
-141.4549316052613
 97
        0
 92
        1
 93
        3
 72
     1
 10
91.51413843198259
 20
-140.6002034153708
 11
91.05714651586419
 21
-141.2561495957624
 72
     1
 10
91.05714651586419
 20
-141.2561495957624
 11
91.51413843198259
 21
-141.2561495957624
 72
     1
 10
91.51413843198259
 20
-141.2561495957624
 11
91.51413843198259
 21
-140.6002034153708
 97
        0
 75
     2
 76
     1
 98
        0
  0
POLYLINE
  5
130
330
115
100
AcDbEntity
  8
_U+30EC_U+30A4_U+30E4_U+30FC 1
370
     0
100
AcDb2dPolyline
 66
     1
 10
0.0
 20
0.0
 30
0.0
  0
VERTEX
  5
131
330
130
100
AcDbEntity
  8
_U+30EC_U+30A4_U+30E4_U+30FC 1
370
     0
100
AcDbVertex
100
AcDb2dVertex
 10
92.13666718616723
 20
-141.8018527206259
 30
0.0
  0
VERTEX
  5
132
330
130
100
AcDbEntity
  8
_U+30EC_U+30A4_U+30E4_U+30FC 1
370
     0
100
AcDbVertex
100
AcDb2dVertex
 10
92.13666718616723
 20
-141.5500162406542
 30
0.0
  0
VERTEX
  5
133
330
130
100
AcDbEntity
  8
_U+30EC_U+30A4_U+30E4_U+30FC 1
370
     0
100
AcDbVertex
100
AcDb2dVertex
 10
92.38850366613899
 20
-141.5500162406542
 30
0.0
  0
VERTEX
  5
134
330
130
100
AcDbEntity
  8
_U+30EC_U+30A4_U+30E4_U+30FC 1
370
     0
100
AcDbVertex
100
AcDb2dVertex
 10
92.38850366613899
 20
-141.8018527206259
 30
0.0
  0
VERTEX
  5
135
330
130
100
AcDbEntity
  8
_U+30EC_U+30A4_U+30E4_U+30FC 1
370
     0
100
AcDbVertex
100
AcDb2dVertex
 10
92.13666718616723
 20
-141.8018527206259
 30
0.0
  0
SEQEND
  5
136
330
130
100
AcDbEntity
  8
_U+30EC_U+30A4_U+30E4_U+30FC 1
370
     0
  0
HATCH
  5
137
330
115
100
AcDbEntity
  8
_U+30EC_U+30A4_U+30E4_U+30FC 1
 62
     7
420
 16777215
100
AcDbHatch
 10
0.0
 20
0.0
 30
0.0
210
0.0
220
0.0
230
1.0
  2
SOLID
 70
     1
 71
     0
 91
        1
 92
        1
 93
        4
 72
     1
 10
92.13666718616723
 20
-141.8018527206259
 11
92.13666718616723
 21
-141.5500162406542
 72
     1
 10
92.13666718616723
 20
-141.5500162406542
 11
92.38850366613899
 21
-141.5500162406542
 72
     1
 10
92.38850366613899
 20
-141.5500162406542
 11
92.38850366613899
 21
-141.8018527206259
 72
     1
 10
92.38850366613899
 20
-141.8018527206259
 11
92.13666718616723
 21
-141.8018527206259
 97
        0
 75
     2
 76
     1
 98
        0
  0
SPLINE
  5
138
330
115
100
AcDbEntity
  8
_U+30EC_U+30A4_U+30E4_U+30FC 1
370
     0
100
AcDbSpline
210
0.0
220
0.0
230
1.0
 70
    11
 71
     3
 72
    53
 73
    49
 74
     0
 42
0.0000000001
 43
0.0000000001
 12
1.0
 22
0.0
 32
0.0
 13
1.0
 23
0.0
 33
0.0
 40
0.0
 40
0.0
 40
0.0
 40
0.0
 40
1.0
 40
1.0
 40
1.0
 40
2.0
 40
2.0
 40
2.0
 40
3.0
 40
3.0
 40
3.0
 40
4.0
 40
4.0
 40
4.0
 40
5.0
 40
5.0
 40
5.0
 40
6.0
 40
6.0
 40
6.0
 40
7.0
 40
7.0
 40
7.0
 40
8.0
 40
8.0
 40
8.0
 40
9.0
 40
9.0
 40
9.0
 40
10.0
 40
10.0
 40
10.0
 40
11.0
 40
11.0
 40
11.0
 40
12.0
 40
12.0
 40
12.0
 40
13.0
 40
13.0
 40
13.0
 40
14.0
 40
14.0
 40
14.0
 40
15.0
 40
15.0
 40
15.0
 40
16.0
 40
16.0
 40
16.0
 40
16.0
 10
93.10577254616801
 20
-141.8524956242591
 30
0.0
 10
93.02756887865283
 20
-141.8524956242591
 30
0.0
 10
92.92593856183797
 20
-141.8356146563814
 30
0.0
 10
92.82430824502309
 20
-141.7722248994528
 30
0.0
 10
92.65101994211503
 20
-141.6623263534733
 30
0.0
 10
92.62966035010648
 20
-141.5310682154853
 30
0.0
 10
92.61071232493761
 20
-141.423236726797
 30
0.0
 10
92.61071232493761
 20
-141.423236726797
 30
0.0
 10
92.83292098373622
 20
-141.423236726797
 30
0.0
 10
92.83292098373622
 20
-141.423236726797
 30
0.0
 10
92.88769800195169
 20
-141.6220187362959
 30
0.0
 10
93.0148220253574
 20
-141.651646557469
 30
0.0
 10
93.10783960345915
 20
-141.651646557469
 30
0.0
 10
93.24736597061177
 20
-141.651646557469
 30
0.0
 10
93.39963919105982
 20
-141.5520832979453
 30
0.0
 10
93.39963919105982
 20
-141.319539352691
 30
0.0
 10
93.39963919105982
 20
-141.0635687581369
 30
0.0
 10
93.21980520672977
 20
-140.9936333197863
 30
0.0
 10
93.09922686474603
 20
-140.9936333197863
 30
0.0
 10
93.06753198628174
 20
-140.9936333197863
 30
0.0
 10
92.92593856183797
 20
-140.9936333197863
 30
0.0
 10
92.83705509831852
 20
-141.1228244004832
 30
0.0
 10
92.83705509831852
 20
-141.1228244004832
 30
0.0
 10
92.66135522857077
 20
-141.1038763753143
 30
0.0
 10
92.66135522857077
 20
-141.1038763753143
 30
0.0
 10
92.66135522857077
 20
-141.1038763753143
 30
0.0
 10
92.78193357055451
 20
-140.2574164145884
 30
0.0
 10
92.78193357055451
 20
-140.2574164145884
 30
0.0
 10
92.78193357055451
 20
-140.2574164145884
 30
0.0
 10
93.56052515022098
 20
-140.2574164145884
 30
0.0
 10
93.56052515022098
 20
-140.2574164145884
 30
0.0
 10
93.56052515022098
 20
-140.2574164145884
 30
0.0
 10
93.56052515022098
 20
-140.452064309505
 30
0.0
 10
93.56052515022098
 20
-140.452064309505
 30
0.0
 10
93.56052515022098
 20
-140.452064309505
 30
0.0
 10
92.94488658700683
 20
-140.452064309505
 30
0.0
 10
92.94488658700683
 20
-140.452064309505
 30
0.0
 10
92.94488658700683
 20
-140.452064309505
 30
0.0
 10
92.87942977278709
 20
-140.8751220350937
 30
0.0
 10
92.87942977278709
 20
-140.8751220350937
 30
0.0
 10
92.94075247242453
 20
-140.8413600993383
 30
0.0
 10
93.023090254522
 20
-140.8010524821609
 30
0.0
 10
93.1416015392146
 20
-140.8010524821609
 30
0.0
 10
93.39550507647752
 20
-140.8010524821609
 30
0.0
 10
93.63252764586271
 20
-140.9874321479129
 30
0.0
 10
93.63252764586271
 20
-141.3005913275221
 30
0.0
 10
93.63252764586271
 20
-141.6178846217136
 30
0.0
 10
93.40825192977294
 20
-141.8524956242591
 30
0.0
 10
93.10577254616801
 20
-141.8524956242591
 30
0.0
  0
HATCH
  5
139
330
115
100
AcDbEntity
  8
_U+30EC_U+30A4_U+30E4_U+30FC 1
 62
     7
420
 16777215
100
AcDbHatch
 10
0.0
 20
0.0
 30
0.0
210
0.0
220
0.0
230
1.0
  2
SOLID
 70
     1
 71
     0
 91
        1
 92
        1
 93
        1
 72
     4
 94
        3
 73
     0
 74
     1
 95
       53
 96
       49
 40
0.0
 40
0.0
 40
0.0
 40
0.0
 40
1.0
 40
1.0
 40
1.0
 40
2.0
 40
2.0
 40
2.0
 40
3.0
 40
3.0
 40
3.0
 40
4.0
 40
4.0
 40
4.0
 40
5.0
 40
5.0
 40
5.0
 40
6.0
 40
6.0
 40
6.0
 40
7.0
 40
7.0
 40
7.0
 40
8.0
 40
8.0
 40
8.0
 40
9.0
 40
9.0
 40
9.0
 40
10.0
 40
10.0
 40
10.0
 40
11.0
 40
11.0
 40
11.0
 40
12.0
 40
12.0
 40
12.0
 40
13.0
 40
13.0
 40
13.0
 40
14.0
 40
14.0
 40
14.0
 40
15.0
 40
15.0
 40
15.0
 40
16.0
 40
16.0
 40
16.0
 40
16.0
 10
93.10577254616801
 20
-141.8524956242591
 10
93.02756887865283
 20
-141.8524956242591
 10
92.92593856183797
 20
-141.8356146563814
 10
92.82430824502309
 20
-141.7722248994528
 10
92.65101994211503
 20
-141.6623263534733
 10
92.62966035010648
 20
-141.5310682154853
 10
92.61071232493761
 20
-141.423236726797
 10
92.61071232493761
 20
-141.423236726797
 10
92.83292098373622
 20
-141.423236726797
 10
92.83292098373622
 20
-141.423236726797
 10
92.88769800195169
 20
-141.6220187362959
 10
93.0148220253574
 20
-141.651646557469
 10
93.10783960345915
 20
-141.651646557469
 10
93.24736597061177
 20
-141.651646557469
 10
93.39963919105982
 20
-141.5520832979453
 10
93.39963919105982
 20
-141.319539352691
 10
93.39963919105982
 20
-141.0635687581369
 10
93.21980520672977
 20
-140.9936333197863
 10
93.09922686474603
 20
-140.9936333197863
 10
93.06753198628174
 20
-140.9936333197863
 10
92.92593856183797
 20
-140.9936333197863
 10
92.83705509831852
 20
-141.1228244004832
 10
92.83705509831852
 20
-141.1228244004832
 10
92.66135522857077
 20
-141.1038763753143
 10
92.66135522857077
 20
-141.1038763753143
 10
92.66135522857077
 20
-141.1038763753143
 10
92.78193357055451
 20
-140.2574164145884
 10
92.78193357055451
 20
-140.2574164145884
 10
92.78193357055451
 20
-140.2574164145884
 10
93.56052515022098
 20
-140.2574164145884
 10
93.56052515022098
 20
-140.2574164145884
 10
93.56052515022098
 20
-140.2574164145884
 10
93.56052515022098
 20
-140.452064309505
 10
93.56052515022098
 20
-140.452064309505
 10
93.56052515022098
 20
-140.452064309505
 10
92.94488658700683
 20
-140.452064309505
 10
92.94488658700683
 20
-140.452064309505
 10
92.94488658700683
 20
-140.452064309505
 10
92.87942977278709
 20
-140.8751220350937
 10
92.87942977278709
 20
-140.8751220350937
 10
92.94075247242453
 20
-140.8413600993383
 10
93.023090254522
 20
-140.8010524821609
 10
93.1416015392146
 20
-140.8010524821609
 10
93.39550507647752
 20
-140.8010524821609
 10
93.63252764586271
 20
-140.9874321479129
 10
93.63252764586271
 20
-141.3005913275221
 10
93.63252764586271
 20
-141.6178846217136
 10
93.40825192977294
 20
-141.8524956242591
 10
93.10577254616801
 20
-141.8524956242591
 97
        0
 97
        0
 75
     2
 76
     1
 98
        0
  0
ENDBLK
  5
118
330
115
100
AcDbEntity
  8
0
100
AcDbBlockEnd
  0
BLOCK
  5
148
330
146
100
AcDbEntity
  8
0
100
AcDbBlockBegin
  2
block 8
 70
     0
 10
0.0
 20
0.0
 30
0.0
  3
block 8
  1

  0
SPLINE
  5
14A
330
146
100
AcDbEntity
  8
_U+30EC_U+30A4_U+30E4_U+30FC 1
370
     0
100
AcDbSpline
210
0.0
220
0.0
230
1.0
 70
    11
 71
     3
 72
    26
 73
    22
 74
     0
 42
0.0000000001
 43
0.0000000001
 12
1.0
 22
0.0
 32
0.0
 13
1.0
 23
0.0
 33
0.0
 40
0.0
 40
0.0
 40
0.0
 40
0.0
 40
1.0
 40
1.0
 40
1.0
 40
2.0
 40
2.0
 40
2.0
 40
3.0
 40
3.0
 40
3.0
 40
4.0
 40
4.0
 40
4.0
 40
5.0
 40
5.0
 40
5.0
 40
6.0
 40
6.0
 40
6.0
 40
7.0
 40
7.0
 40
7.0
 40
7.0
 10
74.7093071644824
 20
-130.0296169379787
 30
0.0
 10
74.7093071644824
 20
-130.0296169379787
 30
0.0
 10
73.60498180668556
 20
-130.0296169379787
 30
0.0
 10
73.60498180668556
 20
-130.0296169379787
 30
0.0
 10
73.60498180668556
 20
-130.0296169379787
 30
0.0
 10
73.60498180668556
 20
-130.3596570854656
 30
0.0
 10
73.60498180668556
 20
-130.3596570854656
 30
0.0
 10
73.60498180668556
 20
-130.3596570854656
 30
0.0
 10
73.45684270081982
 20
-130.3596570854656
 30
0.0
 10
73.45684270081982
 20
-130.3596570854656
 30
0.0
 10
73.44220104500751
 20
-130.0275498806876
 30
0.0
 10
73.27924802855519
 20
-129.9810410916367
 30
0.0
 10
73.16504311321916
 20
-129.9514132704635
 30
0.0
 10
73.16504311321916
 20
-129.9514132704635
 30
0.0
 10
73.16504311321916
 20
-129.8053412218889
 30
0.0
 10
73.16504311321916
 20
-129.8053412218889
 30
0.0
 10
73.16504311321916
 20
-129.8053412218889
 30
0.0
 10
74.7093071644824
 20
-129.8053412218889
 30
0.0
 10
74.7093071644824
 20
-129.8053412218889
 30
0.0
 10
74.7093071644824
 20
-129.8053412218889
 30
0.0
 10
74.7093071644824
 20
-130.0296169379787
 30
0.0
 10
74.7093071644824
 20
-130.0296169379787
 30
0.0
  0
HATCH
  5
14B
330
146
100
AcDbEntity
  8
_U+30EC_U+30A4_U+30E4_U+30FC 1
 62
     7
420
 16777215
100
AcDbHatch
 10
0.0
 20
0.0
 30
0.0
210
0.0
220
0.0
230
1.0
  2
SOLID
 70
     1
 71
     0
 91
        1
 92
        1
 93
        1
 72
     4
 94
        3
 73
     0
 74
     1
 95
       26
 96
       22
 40
0.0
 40
0.0
 40
0.0
 40
0.0
 40
1.0
 40
1.0
 40
1.0
 40
2.0
 40
2.0
 40
2.0
 40
3.0
 40
3.0
 40
3.0
 40
4.0
 40
4.0
 40
4.0
 40
5.0
 40
5.0
 40
5.0
 40
6.0
 40
6.0
 40
6.0
 40
7.0
 40
7.0
 40
7.0
 40
7.0
 10
74.7093071644824
 20
-130.0296169379787
 10
74.7093071644824
 20
-130.0296169379787
 10
73.60498180668556
 20
-130.0296169379787
 10
73.60498180668556
 20
-130.0296169379787
 10
73.60498180668556
 20
-130.0296169379787
 10
73.60498180668556
 20
-130.3596570854656
 10
73.60498180668556
 20
-130.3596570854656
 10
73.60498180668556
 20
-130.3596570854656
 10
73.45684270081982
 20
-130.3596570854656
 10
73.45684270081982
 20
-130.3596570854656
 10
73.44220104500751
 20
-130.0275498806876
 10
73.27924802855519
 20
-129.9810410916367
 10
73.16504311321916
 20
-129.9514132704635
 10
73.16504311321916
 20
-129.9514132704635
 10
73.16504311321916
 20
-129.8053412218889
 10
73.16504311321916
 20
-129.8053412218889
 10
73.16504311321916
 20
-129.8053412218889
 10
74.7093071644824
 20
-129.8053412218889
 10
74.7093071644824
 20
-129.8053412218889
 10
74.7093071644824
 20
-129.8053412218889
 10
74.7093071644824
 20
-130.0296169379787
 10
74.7093071644824
 20
-130.0296169379787
 97
        0
 97
        0
 75
     2
 76
     1
 98
        0
  0
SPLINE
  5
14C
330
146
100
AcDbEntity
  8
_U+30EC_U+30A4_U+30E4_U+30FC 1
370
     0
100
AcDbSpline
210
0.0
220
0.0
230
1.0
 70
    11
 71
     3
 72
    32
 73
    28
 74
     0
 42
0.0000000001
 43
0.0000000001
 12
1.0
 22
0.0
 32
0.0
 13
1.0
 23
0.0
 33
0.0
 40
0.0
 40
0.0
 40
0.0
 40
0.0
 40
1.0
 40
1.0
 40
1.0
 40
2.0
 40
2.0
 40
2.0
 40
3.0
 40
3.0
 40
3.0
 40
4.0
 40
4.0
 40
4.0
 40
5.0
 40
5.0
 40
5.0
 40
6.0
 40
6.0
 40
6.0
 40
7.0
 40
7.0
 40
7.0
 40
8.0
 40
8.0
 40
8.0
 40
9.0
 40
9.0
 40
9.0
 40
9.0
 10
74.76012232288983
 20
-128.8465711483439
 30
0.0
 10
74.76012232288983
 20
-129.019859451252
 30
0.0
 10
74.69018688453926
 20
-129.2654947593503
 30
0.0
 10
74.35807967976118
 20
-129.303390809688
 30
0.0
 10
74.35807967976118
 20
-129.303390809688
 30
0.0
 10
74.35807967976118
 20
-129.0897948896026
 30
0.0
 10
74.35807967976118
 20
-129.0897948896026
 30
0.0
 10
74.41733532210748
 20
-129.0791150935983
 30
0.0
 10
74.56547442797321
 20
-129.047420215134
 30
0.0
 10
74.56547442797321
 20
-128.8445040910528
 30
0.0
 10
74.56547442797321
 20
-128.5523599939036
 30
0.0
 10
74.23543428048629
 20
-128.5144639435658
 30
0.0
 10
74.03027884433966
 20
-128.5017170902704
 30
0.0
 10
74.11054956914597
 20
-128.592667611081
 30
0.0
 10
74.16773815420112
 20
-128.6601914825919
 30
0.0
 10
74.16773815420112
 20
-128.8420925242131
 30
0.0
 10
74.16773815420112
 20
-129.0219265085431
 30
0.0
 10
74.06197372280396
 20
-129.3244058921481
 30
0.0
 10
73.655796965093
 20
-129.3244058921481
 30
0.0
 10
73.33626435883608
 20
-129.3244058921481
 30
0.0
 10
73.11629501210287
 20
-129.1256238826492
 30
0.0
 10
73.11629501210287
 20
-128.8083305884576
 30
0.0
 10
73.11629501210287
 20
-128.2943223420584
 30
0.0
 10
73.67061087567957
 20
-128.2836425460541
 30
0.0
 10
73.88420679576507
 20
-128.2836425460541
 30
0.0
 10
74.11485593850254
 20
-128.2836425460541
 30
0.0
 10
74.76012232288983
 20
-128.3029350807715
 30
0.0
 10
74.76012232288983
 20
-128.8465711483439
 30
0.0
  0
SPLINE
  5
14D
330
146
100
AcDbEntity
  8
_U+30EC_U+30A4_U+30E4_U+30FC 1
370
     0
100
AcDbSpline
210
0.0
220
0.0
230
1.0
 70
    11
 71
     3
 72
    17
 73
    13
 74
     0
 42
0.0000000001
 43
0.0000000001
 12
1.0
 22
0.0
 32
0.0
 13
1.0
 23
0.0
 33
0.0
 40
0.0
 40
0.0
 40
0.0
 40
0.0
 40
1.0
 40
1.0
 40
1.0
 40
2.0
 40
2.0
 40
2.0
 40
3.0
 40
3.0
 40
3.0
 40
4.0
 40
4.0
 40
4.0
 40
4.0
 10
73.30887584972834
 20
-128.8062635311665
 30
0.0
 10
73.30887584972834
 20
-128.9247748158591
 30
0.0
 10
73.36589218000923
 20
-129.1004746856068
 30
0.0
 10
73.65149059573643
 20
-129.1004746856068
 30
0.0
 10
73.87783336911735
 20
-129.1004746856068
 30
0.0
 10
73.9730902592845
 20
-128.9606038089057
 30
0.0
 10
73.9730902592845
 20
-128.8252115563354
 30
0.0
 10
73.9730902592845
 20
-128.5630397899079
 30
0.0
 10
73.76362845378132
 20
-128.5247992300216
 30
0.0
 10
73.64735648115413
 20
-128.5247992300216
 30
0.0
 10
73.47165661140639
 20
-128.5247992300216
 30
0.0
 10
73.30887584972834
 20
-128.620228374963
 30
0.0
 10
73.30887584972834
 20
-128.8062635311665
 30
0.0
  0
HATCH
  5
14E
330
146
100
AcDbEntity
  8
_U+30EC_U+30A4_U+30E4_U+30FC 1
 62
     7
420
 16777215
100
AcDbHatch
 10
0.0
 20
0.0
 30
0.0
210
0.0
220
0.0
230
1.0
  2
SOLID
 70
     1
 71
     0
 91
        2
 92
        1
 93
        1
 72
     4
 94
        3
 73
     0
 74
     1
 95
       32
 96
       28
 40
0.0
 40
0.0
 40
0.0
 40
0.0
 40
1.0
 40
1.0
 40
1.0
 40
2.0
 40
2.0
 40
2.0
 40
3.0
 40
3.0
 40
3.0
 40
4.0
 40
4.0
 40
4.0
 40
5.0
 40
5.0
 40
5.0
 40
6.0
 40
6.0
 40
6.0
 40
7.0
 40
7.0
 40
7.0
 40
8.0
 40
8.0
 40
8.0
 40
9.0
 40
9.0
 40
9.0
 40
9.0
 10
74.76012232288983
 20
-128.8465711483439
 10
74.76012232288983
 20
-129.019859451252
 10
74.69018688453926
 20
-129.2654947593503
 10
74.35807967976118
 20
-129.303390809688
 10
74.35807967976118
 20
-129.303390809688
 10
74.35807967976118
 20
-129.0897948896026
 10
74.35807967976118
 20
-129.0897948896026
 10
74.41733532210748
 20
-129.0791150935983
 10
74.56547442797321
 20
-129.047420215134
 10
74.56547442797321
 20
-128.8445040910528
 10
74.56547442797321
 20
-128.5523599939036
 10
74.23543428048629
 20
-128.5144639435658
 10
74.03027884433966
 20
-128.5017170902704
 10
74.11054956914597
 20
-128.592667611081
 10
74.16773815420112
 20
-128.6601914825919
 10
74.16773815420112
 20
-128.8420925242131
 10
74.16773815420112
 20
-129.0219265085431
 10
74.06197372280396
 20
-129.3244058921481
 10
73.655796965093
 20
-129.3244058921481
 10
73.33626435883608
 20
-129.3244058921481
 10
73.11629501210287
 20
-129.1256238826492
 10
73.11629501210287
 20
-128.8083305884576
 10
73.11629501210287
 20
-128.2943223420584
 10
73.67061087567957
 20
-128.2836425460541
 10
73.88420679576507
 20
-128.2836425460541
 10
74.11485593850254
 20
-128.2836425460541
 10
74.76012232288983
 20
-128.3029350807715
 10
74.76012232288983
 20
-128.8465711483439
 97
        0
 97
        0
 92
        1
 93
        1
 72
     4
 94
        3
 73
     0
 74
     1
 95
       17
 96
       13
 40
0.0
 40
0.0
 40
0.0
 40
0.0
 40
1.0
 40
1.0
 40
1.0
 40
2.0
 40
2.0
 40
2.0
 40
3.0
 40
3.0
 40
3.0
 40
4.0
 40
4.0
 40
4.0
 40
4.0
 10
73.30887584972834
 20
-128.8062635311665
 10
73.30887584972834
 20
-128.9247748158591
 10
73.36589218000923
 20
-129.1004746856068
 10
73.65149059573643
 20
-129.1004746856068
 10
73.87783336911735
 20
-129.1004746856068
 10
73.9730902592845
 20
-128.9606038089057
 10
73.9730902592845
 20
-128.8252115563354
 10
73.9730902592845
 20
-128.5630397899079
 10
73.76362845378132
 20
-128.5247992300216
 10
73.64735648115413
 20
-128.5247992300216
 10
73.47165661140639
 20
-128.5247992300216
 10
73.30887584972834
 20
-128.620228374963
 10
73.30887584972834
 20
-128.8062635311665
 97
        0
 97
        0
 75
     2
 76
     1
 98
        0
  0
POLYLINE
  5
14F
330
146
100
AcDbEntity
  8
_U+30EC_U+30A4_U+30E4_U+30FC 1
370
     0
100
AcDb2dPolyline
 66
     1
 10
0.0
 20
0.0
 30
0.0
  0
VERTEX
  5
150
330
14F
100
AcDbEntity
  8
_U+30EC_U+30A4_U+30E4_U+30FC 1
370
     0
100
AcDbVertex
100
AcDb2dVertex
 10
74.7093071644824
 20
-128.0672905495804
 30
0.0
  0
VERTEX
  5
151
330
14F
100
AcDbEntity
  8
_U+30EC_U+30A4_U+30E4_U+30FC 1
370
     0
100
AcDbVertex
100
AcDb2dVertex
 10
74.4576429392849
 20
-128.0672905495804
 30
0.0
  0
VERTEX
  5
152
330
14F
100
AcDbEntity
  8
_U+30EC_U+30A4_U+30E4_U+30FC 1
370
     0
100
AcDbVertex
100
AcDb2dVertex
 10
74.4576429392849
 20
-127.8154540696086
 30
0.0
  0
VERTEX
  5
153
330
14F
100
AcDbEntity
  8
_U+30EC_U+30A4_U+30E4_U+30FC 1
370
     0
100
AcDbVertex
100
AcDb2dVertex
 10
74.7093071644824
 20
-127.8154540696086
 30
0.0
  0
VERTEX
  5
154
330
14F
100
AcDbEntity
  8
_U+30EC_U+30A4_U+30E4_U+30FC 1
370
     0
100
AcDbVertex
100
AcDb2dVertex
 10
74.7093071644824
 20
-128.0672905495804
 30
0.0
  0
SEQEND
  5
155
330
14F
100
AcDbEntity
  8
_U+30EC_U+30A4_U+30E4_U+30FC 1
370
     0
  0
HATCH
  5
156
330
146
100
AcDbEntity
  8
_U+30EC_U+30A4_U+30E4_U+30FC 1
 62
     7
420
 16777215
100
AcDbHatch
 10
0.0
 20
0.0
 30
0.0
210
0.0
220
0.0
230
1.0
  2
SOLID
 70
     1
 71
     0
 91
        1
 92
        1
 93
        4
 72
     1
 10
74.7093071644824
 20
-128.0672905495804
 11
74.4576429392849
 21
-128.0672905495804
 72
     1
 10
74.4576429392849
 20
-128.0672905495804
 11
74.4576429392849
 21
-127.8154540696086
 72
     1
 10
74.4576429392849
 20
-127.8154540696086
 11
74.7093071644824
 21
-127.8154540696086
 72
     1
 10
74.7093071644824
 20
-127.8154540696086
 11
74.7093071644824
 21
-128.0672905495804
 97
        0
 75
     2
 76
     1
 98
        0
  0
SPLINE
  5
157
330
146
100
AcDbEntity
  8
_U+30EC_U+30A4_U+30E4_U+30FC 1
370
     0
100
AcDbSpline
210
0.0
220
0.0
230
1.0
 70
    11
 71
     3
 72
    53
 73
    49
 74
     0
 42
0.0000000001
 43
0.0000000001
 12
1.0
 22
0.0
 32
0.0
 13
1.0
 23
0.0
 33
0.0
 40
0.0
 40
0.0
 40
0.0
 40
0.0
 40
1.0
 40
1.0
 40
1.0
 40
2.0
 40
2.0
 40
2.0
 40
3.0
 40
3.0
 40
3.0
 40
4.0
 40
4.0
 40
4.0
 40
5.0
 40
5.0
 40
5.0
 40
6.0
 40
6.0
 40
6.0
 40
7.0
 40
7.0
 40
7.0
 40
8.0
 40
8.0
 40
8.0
 40
9.0
 40
9.0
 40
9.0
 40
10.0
 40
10.0
 40
10.0
 40
11.0
 40
11.0
 40
11.0
 40
12.0
 40
12.0
 40
12.0
 40
13.0
 40
13.0
 40
13.0
 40
14.0
 40
14.0
 40
14.0
 40
15.0
 40
15.0
 40
15.0
 40
16.0
 40
16.0
 40
16.0
 40
16.0
 10
74.76012232288983
 20
-127.0981851895796
 30
0.0
 10
74.76012232288983
 20
-127.1763888570948
 30
0.0
 10
74.7432413550121
 20
-127.2780191739097
 30
0.0
 10
74.67967934330925
 20
-127.3796494907245
 30
0.0
 10
74.56960854255551
 20
-127.5529377936326
 30
0.0
 10
74.43852265934176
 20
-127.5742973856412
 30
0.0
 10
74.33069117065344
 20
-127.59324541081
 30
0.0
 10
74.33069117065344
 20
-127.59324541081
 30
0.0
 10
74.33069117065344
 20
-127.3710367520114
 30
0.0
 10
74.33069117065344
 20
-127.3710367520114
 30
0.0
 10
74.52947318015235
 20
-127.3162597337959
 30
0.0
 10
74.5591010013255
 20
-127.1891357103902
 30
0.0
 10
74.5591010013255
 20
-127.0961181322885
 30
0.0
 10
74.5591010013255
 20
-126.9565917651359
 30
0.0
 10
74.45970999657605
 20
-126.8043185446878
 30
0.0
 10
74.22699379654742
 20
-126.8043185446878
 30
0.0
 10
73.97102320199336
 20
-126.8043185446878
 30
0.0
 10
73.90126001841705
 20
-126.9841525290179
 30
0.0
 10
73.90126001841705
 20
-127.1047308710016
 30
0.0
 10
73.90126001841705
 20
-127.1364257494659
 30
0.0
 10
73.90126001841705
 20
-127.2780191739097
 30
0.0
 10
74.03027884433966
 20
-127.3669026374291
 30
0.0
 10
74.03027884433966
 20
-127.3669026374291
 30
0.0
 10
74.01115856439652
 20
-127.5426025071769
 30
0.0
 10
74.01115856439652
 20
-127.5426025071769
 30
0.0
 10
74.01115856439652
 20
-127.5426025071769
 30
0.0
 10
73.16504311321916
 20
-127.4220241651931
 30
0.0
 10
73.16504311321916
 20
-127.4220241651931
 30
0.0
 10
73.16504311321916
 20
-127.4220241651931
 30
0.0
 10
73.16504311321916
 20
-126.6434325855267
 30
0.0
 10
73.16504311321916
 20
-126.6434325855267
 30
0.0
 10
73.16504311321916
 20
-126.6434325855267
 30
0.0
 10
73.35969100813577
 20
-126.6434325855267
 30
0.0
 10
73.35969100813577
 20
-126.6434325855267
 30
0.0
 10
73.35969100813577
 20
-126.6434325855267
 30
0.0
 10
73.35969100813577
 20
-127.2590711487408
 30
0.0
 10
73.35969100813577
 20
-127.2590711487408
 30
0.0
 10
73.35969100813577
 20
-127.2590711487408
 30
0.0
 10
73.78274873372446
 20
-127.3245279629605
 30
0.0
 10
73.78274873372446
 20
-127.3245279629605
 30
0.0
 10
73.74881454319474
 20
-127.2632052633231
 30
0.0
 10
73.70867918079158
 20
-127.1808674812256
 30
0.0
 10
73.70867918079158
 20
-127.062356196533
 30
0.0
 10
73.70867918079158
 20
-126.8084526592701
 30
0.0
 10
73.89488659176934
 20
-126.5714300898849
 30
0.0
 10
74.20787351660428
 20
-126.5714300898849
 30
0.0
 10
74.52533906557005
 20
-126.5714300898849
 30
0.0
 10
74.76012232288983
 20
-126.7957058059747
 30
0.0
 10
74.76012232288983
 20
-127.0981851895796
 30
0.0
  0
HATCH
  5
158
330
146
100
AcDbEntity
  8
_U+30EC_U+30A4_U+30E4_U+30FC 1
 62
     7
420
 16777215
100
AcDbHatch
 10
0.0
 20
0.0
 30
0.0
210
0.0
220
0.0
230
1.0
  2
SOLID
 70
     1
 71
     0
 91
        1
 92
        1
 93
        1
 72
     4
 94
        3
 73
     0
 74
     1
 95
       53
 96
       49
 40
0.0
 40
0.0
 40
0.0
 40
0.0
 40
1.0
 40
1.0
 40
1.0
 40
2.0
 40
2.0
 40
2.0
 40
3.0
 40
3.0
 40
3.0
 40
4.0
 40
4.0
 40
4.0
 40
5.0
 40
5.0
 40
5.0
 40
6.0
 40
6.0
 40
6.0
 40
7.0
 40
7.0
 40
7.0
 40
8.0
 40
8.0
 40
8.0
 40
9.0
 40
9.0
 40
9.0
 40
10.0
 40
10.0
 40
10.0
 40
11.0
 40
11.0
 40
11.0
 40
12.0
 40
12.0
 40
12.0
 40
13.0
 40
13.0
 40
13.0
 40
14.0
 40
14.0
 40
14.0
 40
15.0
 40
15.0
 40
15.0
 40
16.0
 40
16.0
 40
16.0
 40
16.0
 10
74.76012232288983
 20
-127.0981851895796
 10
74.76012232288983
 20
-127.1763888570948
 10
74.7432413550121
 20
-127.2780191739097
 10
74.67967934330925
 20
-127.3796494907245
 10
74.56960854255551
 20
-127.5529377936326
 10
74.43852265934176
 20
-127.5742973856412
 10
74.33069117065344
 20
-127.59324541081
 10
74.33069117065344
 20
-127.59324541081
 10
74.33069117065344
 20
-127.3710367520114
 10
74.33069117065344
 20
-127.3710367520114
 10
74.52947318015235
 20
-127.3162597337959
 10
74.5591010013255
 20
-127.1891357103902
 10
74.5591010013255
 20
-127.0961181322885
 10
74.5591010013255
 20
-126.9565917651359
 10
74.45970999657605
 20
-126.8043185446878
 10
74.22699379654742
 20
-126.8043185446878
 10
73.97102320199336
 20
-126.8043185446878
 10
73.90126001841705
 20
-126.9841525290179
 10
73.90126001841705
 20
-127.1047308710016
 10
73.90126001841705
 20
-127.1364257494659
 10
73.90126001841705
 20
-127.2780191739097
 10
74.03027884433966
 20
-127.3669026374291
 10
74.03027884433966
 20
-127.3669026374291
 10
74.01115856439652
 20
-127.5426025071769
 10
74.01115856439652
 20
-127.5426025071769
 10
74.01115856439652
 20
-127.5426025071769
 10
73.16504311321916
 20
-127.4220241651931
 10
73.16504311321916
 20
-127.4220241651931
 10
73.16504311321916
 20
-127.4220241651931
 10
73.16504311321916
 20
-126.6434325855267
 10
73.16504311321916
 20
-126.6434325855267
 10
73.16504311321916
 20
-126.6434325855267
 10
73.35969100813577
 20
-126.6434325855267
 10
73.35969100813577
 20
-126.6434325855267
 10
73.35969100813577
 20
-126.6434325855267
 10
73.35969100813577
 20
-127.2590711487408
 10
73.35969100813577
 20
-127.2590711487408
 10
73.35969100813577
 20
-127.2590711487408
 10
73.78274873372446
 20
-127.3245279629605
 10
73.78274873372446
 20
-127.3245279629605
 10
73.74881454319474
 20
-127.2632052633231
 10
73.70867918079158
 20
-127.1808674812256
 10
73.70867918079158
 20
-127.062356196533
 10
73.70867918079158
 20
-126.8084526592701
 10
73.89488659176934
 20
-126.5714300898849
 10
74.20787351660428
 20
-126.5714300898849
 10
74.52533906557005
 20
-126.5714300898849
 10
74.76012232288983
 20
-126.7957058059747
 10
74.76012232288983
 20
-127.0981851895796
 97
        0
 97
        0
 75
     2
 76
     1
 98
        0
  0
ENDBLK
  5
149
330
146
100
AcDbEntity
  8
0
100
AcDbBlockEnd
  0
BLOCK
  5
16B
330
169
100
AcDbEntity
  8
0
100
AcDbBlockBegin
  2
block 9
 70
     0
 10
0.0
 20
0.0
 30
0.0
  3
block 9
  1

  0
SPLINE
  5
16D
330
169
100
AcDbEntity
  8
_U+30EC_U+30A4_U+30E4_U+30FC 1
370
     0
100
AcDbSpline
210
0.0
220
0.0
230
1.0
 70
    11
 71
     3
 72
    53
 73
    49
 74
     0
 42
0.0000000001
 43
0.0000000001
 12
1.0
 22
0.0
 32
0.0
 13
1.0
 23
0.0
 33
0.0
 40
0.0
 40
0.0
 40
0.0
 40
0.0
 40
1.0
 40
1.0
 40
1.0
 40
2.0
 40
2.0
 40
2.0
 40
3.0
 40
3.0
 40
3.0
 40
4.0
 40
4.0
 40
4.0
 40
5.0
 40
5.0
 40
5.0
 40
6.0
 40
6.0
 40
6.0
 40
7.0
 40
7.0
 40
7.0
 40
8.0
 40
8.0
 40
8.0
 40
9.0
 40
9.0
 40
9.0
 40
10.0
 40
10.0
 40
10.0
 40
11.0
 40
11.0
 40
11.0
 40
12.0
 40
12.0
 40
12.0
 40
13.0
 40
13.0
 40
13.0
 40
14.0
 40
14.0
 40
14.0
 40
15.0
 40
15.0
 40
15.0
 40
16.0
 40
16.0
 40
16.0
 40
16.0
 10
107.259947347317
 20
-135.6819851006281
 30
0.0
 10
107.259947347317
 20
-135.7601887681433
 30
0.0
 10
107.2430663794392
 20
-135.8618190849582
 30
0.0
 10
107.1796766225106
 20
-135.963449401773
 30
0.0
 10
107.0697780765312
 20
-136.1367377046811
 30
0.0
 10
106.9385199385432
 20
-136.1580972966896
 30
0.0
 10
106.8306884498548
 20
-136.1770453218585
 30
0.0
 10
106.8306884498548
 20
-136.1770453218585
 30
0.0
 10
106.8306884498548
 20
-135.9548366630599
 30
0.0
 10
106.8306884498548
 20
-135.9548366630599
 30
0.0
 10
107.0294704593537
 20
-135.9000596448444
 30
0.0
 10
107.0590982805269
 20
-135.7729356214387
 30
0.0
 10
107.0590982805269
 20
-135.679918043337
 30
0.0
 10
107.0590982805269
 20
-135.5403916761844
 30
0.0
 10
106.9595350210032
 20
-135.3881184557363
 30
0.0
 10
106.7269910757488
 20
-135.3881184557363
 30
0.0
 10
106.4710204811948
 20
-135.3881184557363
 30
0.0
 10
106.4010850428442
 20
-135.5679524400664
 30
0.0
 10
106.4010850428442
 20
-135.6885307820501
 30
0.0
 10
106.4010850428442
 20
-135.7202256605144
 30
0.0
 10
106.4010850428442
 20
-135.8618190849582
 30
0.0
 10
106.530276123541
 20
-135.9507025484776
 30
0.0
 10
106.530276123541
 20
-135.9507025484776
 30
0.0
 10
106.5113280983722
 20
-136.1264024182254
 30
0.0
 10
106.5113280983722
 20
-136.1264024182254
 30
0.0
 10
106.5113280983722
 20
-136.1264024182254
 30
0.0
 10
105.6648681376463
 20
-136.0058240762416
 30
0.0
 10
105.6648681376463
 20
-136.0058240762416
 30
0.0
 10
105.6648681376463
 20
-136.0058240762416
 30
0.0
 10
105.6648681376463
 20
-135.2272324965751
 30
0.0
 10
105.6648681376463
 20
-135.2272324965751
 30
0.0
 10
105.6648681376463
 20
-135.2272324965751
 30
0.0
 10
105.8595160325629
 20
-135.2272324965751
 30
0.0
 10
105.8595160325629
 20
-135.2272324965751
 30
0.0
 10
105.8595160325629
 20
-135.2272324965751
 30
0.0
 10
105.8595160325629
 20
-135.8428710597893
 30
0.0
 10
105.8595160325629
 20
-135.8428710597893
 30
0.0
 10
105.8595160325629
 20
-135.8428710597893
 30
0.0
 10
106.2825737581516
 20
-135.908327874009
 30
0.0
 10
106.2825737581516
 20
-135.908327874009
 30
0.0
 10
106.2488118223961
 20
-135.8470051743716
 30
0.0
 10
106.2085042052187
 20
-135.7646673922741
 30
0.0
 10
106.2085042052187
 20
-135.6461561075815
 30
0.0
 10
106.2085042052187
 20
-135.3922525703186
 30
0.0
 10
106.3948838709707
 20
-135.1552300009334
 30
0.0
 10
106.7080430505799
 20
-135.1552300009334
 30
0.0
 10
107.0253363447714
 20
-135.1552300009334
 30
0.0
 10
107.259947347317
 20
-135.3795057170232
 30
0.0
 10
107.259947347317
 20
-135.6819851006281
 30
0.0
  0
HATCH
  5
16E
330
169
100
AcDbEntity
  8
_U+30EC_U+30A4_U+30E4_U+30FC 1
 62
     7
420
 16777215
100
AcDbHatch
 10
0.0
 20
0.0
 30
0.0
210
0.0
220
0.0
230
1.0
  2
SOLID
 70
     1
 71
     0
 91
        1
 92
        1
 93
        1
 72
     4
 94
        3
 73
     0
 74
     1
 95
       53
 96
       49
 40
0.0
 40
0.0
 40
0.0
 40
0.0
 40
1.0
 40
1.0
 40
1.0
 40
2.0
 40
2.0
 40
2.0
 40
3.0
 40
3.0
 40
3.0
 40
4.0
 40
4.0
 40
4.0
 40
5.0
 40
5.0
 40
5.0
 40
6.0
 40
6.0
 40
6.0
 40
7.0
 40
7.0
 40
7.0
 40
8.0
 40
8.0
 40
8.0
 40
9.0
 40
9.0
 40
9.0
 40
10.0
 40
10.0
 40
10.0
 40
11.0
 40
11.0
 40
11.0
 40
12.0
 40
12.0
 40
12.0
 40
13.0
 40
13.0
 40
13.0
 40
14.0
 40
14.0
 40
14.0
 40
15.0
 40
15.0
 40
15.0
 40
16.0
 40
16.0
 40
16.0
 40
16.0
 10
107.259947347317
 20
-135.6819851006281
 10
107.259947347317
 20
-135.7601887681433
 10
107.2430663794392
 20
-135.8618190849582
 10
107.1796766225106
 20
-135.963449401773
 10
107.0697780765312
 20
-136.1367377046811
 10
106.9385199385432
 20
-136.1580972966896
 10
106.8306884498548
 20
-136.1770453218585
 10
106.8306884498548
 20
-136.1770453218585
 10
106.8306884498548
 20
-135.9548366630599
 10
106.8306884498548
 20
-135.9548366630599
 10
107.0294704593537
 20
-135.9000596448444
 10
107.0590982805269
 20
-135.7729356214387
 10
107.0590982805269
 20
-135.679918043337
 10
107.0590982805269
 20
-135.5403916761844
 10
106.9595350210032
 20
-135.3881184557363
 10
106.7269910757488
 20
-135.3881184557363
 10
106.4710204811948
 20
-135.3881184557363
 10
106.4010850428442
 20
-135.5679524400664
 10
106.4010850428442
 20
-135.6885307820501
 10
106.4010850428442
 20
-135.7202256605144
 10
106.4010850428442
 20
-135.8618190849582
 10
106.530276123541
 20
-135.9507025484776
 10
106.530276123541
 20
-135.9507025484776
 10
106.5113280983722
 20
-136.1264024182254
 10
106.5113280983722
 20
-136.1264024182254
 10
106.5113280983722
 20
-136.1264024182254
 10
105.6648681376463
 20
-136.0058240762416
 10
105.6648681376463
 20
-136.0058240762416
 10
105.6648681376463
 20
-136.0058240762416
 10
105.6648681376463
 20
-135.2272324965751
 10
105.6648681376463
 20
-135.2272324965751
 10
105.6648681376463
 20
-135.2272324965751
 10
105.8595160325629
 20
-135.2272324965751
 10
105.8595160325629
 20
-135.2272324965751
 10
105.8595160325629
 20
-135.2272324965751
 10
105.8595160325629
 20
-135.8428710597893
 10
105.8595160325629
 20
-135.8428710597893
 10
105.8595160325629
 20
-135.8428710597893
 10
106.2825737581516
 20
-135.908327874009
 10
106.2825737581516
 20
-135.908327874009
 10
106.2488118223961
 20
-135.8470051743716
 10
106.2085042052187
 20
-135.7646673922741
 10
106.2085042052187
 20
-135.6461561075815
 10
106.2085042052187
 20
-135.3922525703186
 10
106.3948838709707
 20
-135.1552300009334
 10
106.7080430505799
 20
-135.1552300009334
 10
107.0253363447714
 20
-135.1552300009334
 10
107.259947347317
 20
-135.3795057170232
 10
107.259947347317
 20
-135.6819851006281
 97
        0
 97
        0
 75
     2
 76
     1
 98
        0
  0
POLYLINE
  5
16F
330
169
100
AcDbEntity
  8
_U+30EC_U+30A4_U+30E4_U+30FC 1
370
     0
100
AcDb2dPolyline
 66
     1
 10
0.0
 20
0.0
 30
0.0
  0
VERTEX
  5
170
330
16F
100
AcDbEntity
  8
_U+30EC_U+30A4_U+30E4_U+30FC 1
370
     0
100
AcDbVertex
100
AcDb2dVertex
 10
107.2093044436838
 20
-134.9261311511643
 30
0.0
  0
VERTEX
  5
171
330
16F
100
AcDbEntity
  8
_U+30EC_U+30A4_U+30E4_U+30FC 1
370
     0
100
AcDbVertex
100
AcDb2dVertex
 10
106.957467963712
 20
-134.9261311511643
 30
0.0
  0
VERTEX
  5
172
330
16F
100
AcDbEntity
  8
_U+30EC_U+30A4_U+30E4_U+30FC 1
370
     0
100
AcDbVertex
100
AcDb2dVertex
 10
106.957467963712
 20
-134.6742946711925
 30
0.0
  0
VERTEX
  5
173
330
16F
100
AcDbEntity
  8
_U+30EC_U+30A4_U+30E4_U+30FC 1
370
     0
100
AcDbVertex
100
AcDb2dVertex
 10
107.2093044436838
 20
-134.6742946711925
 30
0.0
  0
VERTEX
  5
174
330
16F
100
AcDbEntity
  8
_U+30EC_U+30A4_U+30E4_U+30FC 1
370
     0
100
AcDbVertex
100
AcDb2dVertex
 10
107.2093044436838
 20
-134.9261311511643
 30
0.0
  0
SEQEND
  5
175
330
16F
100
AcDbEntity
  8
_U+30EC_U+30A4_U+30E4_U+30FC 1
370
     0
  0
HATCH
  5
176
330
169
100
AcDbEntity
  8
_U+30EC_U+30A4_U+30E4_U+30FC 1
 62
     7
420
 16777215
100
AcDbHatch
 10
0.0
 20
0.0
 30
0.0
210
0.0
220
0.0
230
1.0
  2
SOLID
 70
     1
 71
     0
 91
        1
 92
        1
 93
        4
 72
     1
 10
107.2093044436838
 20
-134.9261311511643
 11
106.957467963712
 21
-134.9261311511643
 72
     1
 10
106.957467963712
 20
-134.9261311511643
 11
106.957467963712
 21
-134.6742946711925
 72
     1
 10
106.957467963712
 20
-134.6742946711925
 11
107.2093044436838
 21
-134.6742946711925
 72
     1
 10
107.2093044436838
 20
-134.6742946711925
 11
107.2093044436838
 21
-134.9261311511643
 97
        0
 75
     2
 76
     1
 98
        0
  0
SPLINE
  5
177
330
169
100
AcDbEntity
  8
_U+30EC_U+30A4_U+30E4_U+30FC 1
370
     0
100
AcDbSpline
210
0.0
220
0.0
230
1.0
 70
    11
 71
     3
 72
    53
 73
    49
 74
     0
 42
0.0000000001
 43
0.0000000001
 12
1.0
 22
0.0
 32
0.0
 13
1.0
 23
0.0
 33
0.0
 40
0.0
 40
0.0
 40
0.0
 40
0.0
 40
1.0
 40
1.0
 40
1.0
 40
2.0
 40
2.0
 40
2.0
 40
3.0
 40
3.0
 40
3.0
 40
4.0
 40
4.0
 40
4.0
 40
5.0
 40
5.0
 40
5.0
 40
6.0
 40
6.0
 40
6.0
 40
7.0
 40
7.0
 40
7.0
 40
8.0
 40
8.0
 40
8.0
 40
9.0
 40
9.0
 40
9.0
 40
10.0
 40
10.0
 40
10.0
 40
11.0
 40
11.0
 40
11.0
 40
12.0
 40
12.0
 40
12.0
 40
13.0
 40
13.0
 40
13.0
 40
14.0
 40
14.0
 40
14.0
 40
15.0
 40
15.0
 40
15.0
 40
16.0
 40
16.0
 40
16.0
 40
16.0
 10
107.259947347317
 20
-133.9570257911635
 30
0.0
 10
107.259947347317
 20
-134.0352294586787
 30
0.0
 10
107.2430663794392
 20
-134.1368597754936
 30
0.0
 10
107.1796766225106
 20
-134.2384900923084
 30
0.0
 10
107.0697780765312
 20
-134.4117783952165
 30
0.0
 10
106.9385199385432
 20
-134.4331379872251
 30
0.0
 10
106.8306884498548
 20
-134.4520860123939
 30
0.0
 10
106.8306884498548
 20
-134.4520860123939
 30
0.0
 10
106.8306884498548
 20
-134.2298773535953
 30
0.0
 10
106.8306884498548
 20
-134.2298773535953
 30
0.0
 10
107.0294704593537
 20
-134.1751003353799
 30
0.0
 10
107.0590982805269
 20
-134.0479763119741
 30
0.0
 10
107.0590982805269
 20
-133.9549587338724
 30
0.0
 10
107.0590982805269
 20
-133.8154323667198
 30
0.0
 10
106.9595350210032
 20
-133.6631591462717
 30
0.0
 10
106.7269910757488
 20
-133.6631591462717
 30
0.0
 10
106.4710204811948
 20
-133.6631591462717
 30
0.0
 10
106.4010850428442
 20
-133.8429931306018
 30
0.0
 10
106.4010850428442
 20
-133.9635714725855
 30
0.0
 10
106.4010850428442
 20
-133.9952663510498
 30
0.0
 10
106.4010850428442
 20
-134.1368597754936
 30
0.0
 10
106.530276123541
 20
-134.225743239013
 30
0.0
 10
106.530276123541
 20
-134.225743239013
 30
0.0
 10
106.5113280983722
 20
-134.4014431087608
 30
0.0
 10
106.5113280983722
 20
-134.4014431087608
 30
0.0
 10
106.5113280983722
 20
-134.4014431087608
 30
0.0
 10
105.6648681376463
 20
-134.280864766777
 30
0.0
 10
105.6648681376463
 20
-134.280864766777
 30
0.0
 10
105.6648681376463
 20
-134.280864766777
 30
0.0
 10
105.6648681376463
 20
-133.5022731871105
 30
0.0
 10
105.6648681376463
 20
-133.5022731871105
 30
0.0
 10
105.6648681376463
 20
-133.5022731871105
 30
0.0
 10
105.8595160325629
 20
-133.5022731871105
 30
0.0
 10
105.8595160325629
 20
-133.5022731871105
 30
0.0
 10
105.8595160325629
 20
-133.5022731871105
 30
0.0
 10
105.8595160325629
 20
-134.1179117503247
 30
0.0
 10
105.8595160325629
 20
-134.1179117503247
 30
0.0
 10
105.8595160325629
 20
-134.1179117503247
 30
0.0
 10
106.2825737581516
 20
-134.1833685645445
 30
0.0
 10
106.2825737581516
 20
-134.1833685645445
 30
0.0
 10
106.2488118223961
 20
-134.122045864907
 30
0.0
 10
106.2085042052187
 20
-134.0397080828095
 30
0.0
 10
106.2085042052187
 20
-133.9211967981169
 30
0.0
 10
106.2085042052187
 20
-133.667293260854
 30
0.0
 10
106.3948838709707
 20
-133.4302706914688
 30
0.0
 10
106.7080430505799
 20
-133.4302706914688
 30
0.0
 10
107.0253363447714
 20
-133.4302706914688
 30
0.0
 10
107.259947347317
 20
-133.6545464075586
 30
0.0
 10
107.259947347317
 20
-133.9570257911635
 30
0.0
  0
HATCH
  5
178
330
169
100
AcDbEntity
  8
_U+30EC_U+30A4_U+30E4_U+30FC 1
 62
     7
420
 16777215
100
AcDbHatch
 10
0.0
 20
0.0
 30
0.0
210
0.0
220
0.0
230
1.0
  2
SOLID
 70
     1
 71
     0
 91
        1
 92
        1
 93
        1
 72
     4
 94
        3
 73
     0
 74
     1
 95
       53
 96
       49
 40
0.0
 40
0.0
 40
0.0
 40
0.0
 40
1.0
 40
1.0
 40
1.0
 40
2.0
 40
2.0
 40
2.0
 40
3.0
 40
3.0
 40
3.0
 40
4.0
 40
4.0
 40
4.0
 40
5.0
 40
5.0
 40
5.0
 40
6.0
 40
6.0
 40
6.0
 40
7.0
 40
7.0
 40
7.0
 40
8.0
 40
8.0
 40
8.0
 40
9.0
 40
9.0
 40
9.0
 40
10.0
 40
10.0
 40
10.0
 40
11.0
 40
11.0
 40
11.0
 40
12.0
 40
12.0
 40
12.0
 40
13.0
 40
13.0
 40
13.0
 40
14.0
 40
14.0
 40
14.0
 40
15.0
 40
15.0
 40
15.0
 40
16.0
 40
16.0
 40
16.0
 40
16.0
 10
107.259947347317
 20
-133.9570257911635
 10
107.259947347317
 20
-134.0352294586787
 10
107.2430663794392
 20
-134.1368597754936
 10
107.1796766225106
 20
-134.2384900923084
 10
107.0697780765312
 20
-134.4117783952165
 10
106.9385199385432
 20
-134.4331379872251
 10
106.8306884498548
 20
-134.4520860123939
 10
106.8306884498548
 20
-134.4520860123939
 10
106.8306884498548
 20
-134.2298773535953
 10
106.8306884498548
 20
-134.2298773535953
 10
107.0294704593537
 20
-134.1751003353799
 10
107.0590982805269
 20
-134.0479763119741
 10
107.0590982805269
 20
-133.9549587338724
 10
107.0590982805269
 20
-133.8154323667198
 10
106.9595350210032
 20
-133.6631591462717
 10
106.7269910757488
 20
-133.6631591462717
 10
106.4710204811948
 20
-133.6631591462717
 10
106.4010850428442
 20
-133.8429931306018
 10
106.4010850428442
 20
-133.9635714725855
 10
106.4010850428442
 20
-133.9952663510498
 10
106.4010850428442
 20
-134.1368597754936
 10
106.530276123541
 20
-134.225743239013
 10
106.530276123541
 20
-134.225743239013
 10
106.5113280983722
 20
-134.4014431087608
 10
106.5113280983722
 20
-134.4014431087608
 10
106.5113280983722
 20
-134.4014431087608
 10
105.6648681376463
 20
-134.280864766777
 10
105.6648681376463
 20
-134.280864766777
 10
105.6648681376463
 20
-134.280864766777
 10
105.6648681376463
 20
-133.5022731871105
 10
105.6648681376463
 20
-133.5022731871105
 10
105.6648681376463
 20
-133.5022731871105
 10
105.8595160325629
 20
-133.5022731871105
 10
105.8595160325629
 20
-133.5022731871105
 10
105.8595160325629
 20
-133.5022731871105
 10
105.8595160325629
 20
-134.1179117503247
 10
105.8595160325629
 20
-134.1179117503247
 10
105.8595160325629
 20
-134.1179117503247
 10
106.2825737581516
 20
-134.1833685645445
 10
106.2825737581516
 20
-134.1833685645445
 10
106.2488118223961
 20
-134.122045864907
 10
106.2085042052187
 20
-134.0397080828095
 10
106.2085042052187
 20
-133.9211967981169
 10
106.2085042052187
 20
-133.667293260854
 10
106.3948838709707
 20
-133.4302706914688
 10
106.7080430505799
 20
-133.4302706914688
 10
107.0253363447714
 20
-133.4302706914688
 10
107.259947347317
 20
-133.6545464075586
 10
107.259947347317
 20
-133.9570257911635
 97
        0
 97
        0
 75
     2
 76
     1
 98
        0
  0
ENDBLK
  5
16C
330
169
100
AcDbEntity
  8
0
100
AcDbBlockEnd
  0
BLOCK
  5
187
330
185
100
AcDbEntity
  8
0
100
AcDbBlockBegin
  2
block 10
 70
     0
 10
0.0
 20
0.0
 30
0.0
  3
block 10
  1

  0
SPLINE
  5
189
330
185
100
AcDbEntity
  8
_U+30EC_U+30A4_U+30E4_U+30FC 1
370
     0
100
AcDbSpline
210
0.0
220
0.0
230
1.0
 70
    11
 71
     3
 72
    44
 73
    40
 74
     0
 42
0.0000000001
 43
0.0000000001
 12
1.0
 22
0.0
 32
0.0
 13
1.0
 23
0.0
 33
0.0
 40
0.0
 40
0.0
 40
0.0
 40
0.0
 40
1.0
 40
1.0
 40
1.0
 40
2.0
 40
2.0
 40
2.0
 40
3.0
 40
3.0
 40
3.0
 40
4.0
 40
4.0
 40
4.0
 40
5.0
 40
5.0
 40
5.0
 40
6.0
 40
6.0
 40
6.0
 40
7.0
 40
7.0
 40
7.0
 40
8.0
 40
8.0
 40
8.0
 40
9.0
 40
9.0
 40
9.0
 40
10.0
 40
10.0
 40
10.0
 40
11.0
 40
11.0
 40
11.0
 40
12.0
 40
12.0
 40
12.0
 40
13.0
 40
13.0
 40
13.0
 40
13.0
 10
89.43622909005414
 20
-130.3858398111535
 30
0.0
 10
89.41280244075445
 20
-130.3413980793938
 30
0.0
 10
89.39178735829442
 20
-130.2886881184695
 30
0.0
 10
89.38954804622901
 20
-130.0578667209577
 30
0.0
 10
89.38541393164671
 20
-129.8146429796991
 30
0.0
 10
89.32615828930041
 20
-129.7450520508971
 30
0.0
 10
89.14839136226152
 20
-129.7450520508971
 30
0.0
 10
89.14839136226152
 20
-129.7450520508971
 30
0.0
 10
88.74014754725941
 20
-129.7450520508971
 30
0.0
 10
88.74014754725941
 20
-129.7450520508971
 30
0.0
 10
88.74014754725941
 20
-129.7450520508971
 30
0.0
 10
88.74014754725941
 20
-130.3858398111535
 30
0.0
 10
88.74014754725941
 20
-130.3858398111535
 30
0.0
 10
88.74014754725941
 20
-130.3858398111535
 30
0.0
 10
88.50536428993964
 20
-130.3858398111535
 30
0.0
 10
88.50536428993964
 20
-130.3858398111535
 30
0.0
 10
88.50536428993964
 20
-130.3858398111535
 30
0.0
 10
88.50536428993964
 20
-128.8417480146646
 30
0.0
 10
88.50536428993964
 20
-128.8417480146646
 30
0.0
 10
88.50536428993964
 20
-128.8417480146646
 30
0.0
 10
89.18025849550008
 20
-128.8417480146646
 30
0.0
 10
89.18025849550008
 20
-128.8417480146646
 30
0.0
 10
89.48687199368732
 20
-128.8417480146646
 30
0.0
 10
89.65395912472194
 20
-129.012624750733
 30
0.0
 10
89.65395912472194
 20
-129.2689398548355
 30
0.0
 10
89.65395912472194
 20
-129.3195827584687
 30
0.0
 10
89.64551864078307
 20
-129.4019205405662
 30
0.0
 10
89.60107690902335
 20
-129.482535774921
 30
0.0
 10
89.54199352145132
 20
-129.5862331490271
 30
0.0
 10
89.4763644524573
 20
-129.6051811741959
 30
0.0
 10
89.41504175281986
 20
-129.6220621420736
 30
0.0
 10
89.55250106268133
 20
-129.6644368165422
 30
0.0
 10
89.62019718896649
 20
-129.7133571724328
 30
0.0
 10
89.62450355832304
 20
-130.0282388997846
 30
0.0
 10
89.62863767290534
 20
-130.2990234049252
 30
0.0
 10
89.6646389207262
 20
-130.3307182833896
 30
0.0
 10
89.73233504701136
 20
-130.3858398111535
 30
0.0
 10
89.73233504701136
 20
-130.3858398111535
 30
0.0
 10
89.43622909005414
 20
-130.3858398111535
 30
0.0
 10
89.43622909005414
 20
-130.3858398111535
 30
0.0
  0
SPLINE
  5
18A
330
185
100
AcDbEntity
  8
_U+30EC_U+30A4_U+30E4_U+30FC 1
370
     0
100
AcDbSpline
210
0.0
220
0.0
230
1.0
 70
    11
 71
     3
 72
    20
 73
    16
 74
     0
 42
0.0000000001
 43
0.0000000001
 12
1.0
 22
0.0
 32
0.0
 13
1.0
 23
0.0
 33
0.0
 40
0.0
 40
0.0
 40
0.0
 40
0.0
 40
1.0
 40
1.0
 40
1.0
 40
2.0
 40
2.0
 40
2.0
 40
3.0
 40
3.0
 40
3.0
 40
4.0
 40
4.0
 40
4.0
 40
5.0
 40
5.0
 40
5.0
 40
5.0
 10
89.18439261008238
 20
-129.0532768774589
 30
0.0
 10
89.18439261008238
 20
-129.0532768774589
 30
0.0
 10
88.74014754725941
 20
-129.0532768774589
 30
0.0
 10
88.74014754725941
 20
-129.0532768774589
 30
0.0
 10
88.74014754725941
 20
-129.0532768774589
 30
0.0
 10
88.74014754725941
 20
-129.5335231881027
 30
0.0
 10
88.74014754725941
 20
-129.5335231881027
 30
0.0
 10
88.74014754725941
 20
-129.5335231881027
 30
0.0
 10
89.18232555279123
 20
-129.5335231881027
 30
0.0
 10
89.18232555279123
 20
-129.5335231881027
 30
0.0
 10
89.28171655754069
 20
-129.5335231881027
 30
0.0
 10
89.417108810111
 20
-129.4570420683302
 30
0.0
 10
89.417108810111
 20
-129.2858208227133
 30
0.0
 10
89.417108810111
 20
-129.2076171551981
 30
0.0
 10
89.3831746195813
 20
-129.0532768774589
 30
0.0
 10
89.18439261008238
 20
-129.0532768774589
 30
0.0
  0
HATCH
  5
18B
330
185
100
AcDbEntity
  8
_U+30EC_U+30A4_U+30E4_U+30FC 1
 62
   179
420
  2234388
100
AcDbHatch
 10
0.0
 20
0.0
 30
0.0
210
0.0
220
0.0
230
1.0
  2
SOLID
 70
     1
 71
     0
 91
        2
 92
        1
 93
        1
 72
     4
 94
        3
 73
     0
 74
     1
 95
       44
 96
       40
 40
0.0
 40
0.0
 40
0.0
 40
0.0
 40
1.0
 40
1.0
 40
1.0
 40
2.0
 40
2.0
 40
2.0
 40
3.0
 40
3.0
 40
3.0
 40
4.0
 40
4.0
 40
4.0
 40
5.0
 40
5.0
 40
5.0
 40
6.0
 40
6.0
 40
6.0
 40
7.0
 40
7.0
 40
7.0
 40
8.0
 40
8.0
 40
8.0
 40
9.0
 40
9.0
 40
9.0
 40
10.0
 40
10.0
 40
10.0
 40
11.0
 40
11.0
 40
11.0
 40
12.0
 40
12.0
 40
12.0
 40
13.0
 40
13.0
 40
13.0
 40
13.0
 10
89.43622909005414
 20
-130.3858398111535
 10
89.41280244075445
 20
-130.3413980793938
 10
89.39178735829442
 20
-130.2886881184695
 10
89.38954804622901
 20
-130.0578667209577
 10
89.38541393164671
 20
-129.8146429796991
 10
89.32615828930041
 20
-129.7450520508971
 10
89.14839136226152
 20
-129.7450520508971
 10
89.14839136226152
 20
-129.7450520508971
 10
88.74014754725941
 20
-129.7450520508971
 10
88.74014754725941
 20
-129.7450520508971
 10
88.74014754725941
 20
-129.7450520508971
 10
88.74014754725941
 20
-130.3858398111535
 10
88.74014754725941
 20
-130.3858398111535
 10
88.74014754725941
 20
-130.3858398111535
 10
88.50536428993964
 20
-130.3858398111535
 10
88.50536428993964
 20
-130.3858398111535
 10
88.50536428993964
 20
-130.3858398111535
 10
88.50536428993964
 20
-128.8417480146646
 10
88.50536428993964
 20
-128.8417480146646
 10
88.50536428993964
 20
-128.8417480146646
 10
89.18025849550008
 20
-128.8417480146646
 10
89.18025849550008
 20
-128.8417480146646
 10
89.48687199368732
 20
-128.8417480146646
 10
89.65395912472194
 20
-129.012624750733
 10
89.65395912472194
 20
-129.2689398548355
 10
89.65395912472194
 20
-129.3195827584687
 10
89.64551864078307
 20
-129.4019205405662
 10
89.60107690902335
 20
-129.482535774921
 10
89.54199352145132
 20
-129.5862331490271
 10
89.4763644524573
 20
-129.6051811741959
 10
89.41504175281986
 20
-129.6220621420736
 10
89.55250106268133
 20
-129.6644368165422
 10
89.62019718896649
 20
-129.7133571724328
 10
89.62450355832304
 20
-130.0282388997846
 10
89.62863767290534
 20
-130.2990234049252
 10
89.6646389207262
 20
-130.3307182833896
 10
89.73233504701136
 20
-130.3858398111535
 10
89.73233504701136
 20
-130.3858398111535
 10
89.43622909005414
 20
-130.3858398111535
 10
89.43622909005414
 20
-130.3858398111535
 97
        0
 97
        0
 92
        1
 93
        1
 72
     4
 94
        3
 73
     0
 74
     1
 95
       20
 96
       16
 40
0.0
 40
0.0
 40
0.0
 40
0.0
 40
1.0
 40
1.0
 40
1.0
 40
2.0
 40
2.0
 40
2.0
 40
3.0
 40
3.0
 40
3.0
 40
4.0
 40
4.0
 40
4.0
 40
5.0
 40
5.0
 40
5.0
 40
5.0
 10
89.18439261008238
 20
-129.0532768774589
 10
89.18439261008238
 20
-129.0532768774589
 10
88.74014754725941
 20
-129.0532768774589
 10
88.74014754725941
 20
-129.0532768774589
 10
88.74014754725941
 20
-129.0532768774589
 10
88.74014754725941
 20
-129.5335231881027
 10
88.74014754725941
 20
-129.5335231881027
 10
88.74014754725941
 20
-129.5335231881027
 10
89.18232555279123
 20
-129.5335231881027
 10
89.18232555279123
 20
-129.5335231881027
 10
89.28171655754069
 20
-129.5335231881027
 10
89.417108810111
 20
-129.4570420683302
 10
89.417108810111
 20
-129.2858208227133
 10
89.417108810111
 20
-129.2076171551981
 10
89.3831746195813
 20
-129.0532768774589
 10
89.18439261008238
 20
-129.0532768774589
 97
        0
 97
        0
 75
     2
 76
     1
 98
        0
  0
SPLINE
  5
18C
330
185
100
AcDbEntity
  8
_U+30EC_U+30A4_U+30E4_U+30FC 1
370
     0
100
AcDbSpline
210
0.0
220
0.0
230
1.0
 70
    11
 71
     3
 72
    26
 73
    22
 74
     0
 42
0.0000000001
 43
0.0000000001
 12
1.0
 22
0.0
 32
0.0
 13
1.0
 23
0.0
 33
0.0
 40
0.0
 40
0.0
 40
0.0
 40
0.0
 40
1.0
 40
1.0
 40
1.0
 40
2.0
 40
2.0
 40
2.0
 40
3.0
 40
3.0
 40
3.0
 40
4.0
 40
4.0
 40
4.0
 40
5.0
 40
5.0
 40
5.0
 40
6.0
 40
6.0
 40
6.0
 40
7.0
 40
7.0
 40
7.0
 40
7.0
 10
90.32334117750598
 20
-130.3858398111535
 30
0.0
 10
90.32334117750598
 20
-130.3858398111535
 30
0.0
 10
90.32334117750598
 20
-129.2813421985825
 30
0.0
 10
90.32334117750598
 20
-129.2813421985825
 30
0.0
 10
90.32334117750598
 20
-129.2813421985825
 30
0.0
 10
89.99330103001904
 20
-129.2813421985825
 30
0.0
 10
89.99330103001904
 20
-129.2813421985825
 30
0.0
 10
89.99330103001904
 20
-129.2813421985825
 30
0.0
 10
89.99330103001904
 20
-129.1335476022652
 30
0.0
 10
89.99330103001904
 20
-129.1335476022652
 30
0.0
 10
90.32540823479712
 20
-129.1187336916786
 30
0.0
 10
90.371917023848
 20
-128.9557806752264
 30
0.0
 10
90.40154484502115
 20
-128.8417480146646
 30
0.0
 10
90.40154484502115
 20
-128.8417480146646
 30
0.0
 10
90.54761689359574
 20
-128.8417480146646
 30
0.0
 10
90.54761689359574
 20
-128.8417480146646
 30
0.0
 10
90.54761689359574
 20
-128.8417480146646
 30
0.0
 10
90.54761689359574
 20
-130.3858398111535
 30
0.0
 10
90.54761689359574
 20
-130.3858398111535
 30
0.0
 10
90.54761689359574
 20
-130.3858398111535
 30
0.0
 10
90.32334117750598
 20
-130.3858398111535
 30
0.0
 10
90.32334117750598
 20
-130.3858398111535
 30
0.0
  0
HATCH
  5
18D
330
185
100
AcDbEntity
  8
_U+30EC_U+30A4_U+30E4_U+30FC 1
 62
   179
420
  2234388
100
AcDbHatch
 10
0.0
 20
0.0
 30
0.0
210
0.0
220
0.0
230
1.0
  2
SOLID
 70
     1
 71
     0
 91
        1
 92
        1
 93
        1
 72
     4
 94
        3
 73
     0
 74
     1
 95
       26
 96
       22
 40
0.0
 40
0.0
 40
0.0
 40
0.0
 40
1.0
 40
1.0
 40
1.0
 40
2.0
 40
2.0
 40
2.0
 40
3.0
 40
3.0
 40
3.0
 40
4.0
 40
4.0
 40
4.0
 40
5.0
 40
5.0
 40
5.0
 40
6.0
 40
6.0
 40
6.0
 40
7.0
 40
7.0
 40
7.0
 40
7.0
 10
90.32334117750598
 20
-130.3858398111535
 10
90.32334117750598
 20
-130.3858398111535
 10
90.32334117750598
 20
-129.2813421985825
 10
90.32334117750598
 20
-129.2813421985825
 10
90.32334117750598
 20
-129.2813421985825
 10
89.99330103001904
 20
-129.2813421985825
 10
89.99330103001904
 20
-129.2813421985825
 10
89.99330103001904
 20
-129.2813421985825
 10
89.99330103001904
 20
-129.1335476022652
 10
89.99330103001904
 20
-129.1335476022652
 10
90.32540823479712
 20
-129.1187336916786
 10
90.371917023848
 20
-128.9557806752264
 10
90.40154484502115
 20
-128.8417480146646
 10
90.40154484502115
 20
-128.8417480146646
 10
90.54761689359574
 20
-128.8417480146646
 10
90.54761689359574
 20
-128.8417480146646
 10
90.54761689359574
 20
-128.8417480146646
 10
90.54761689359574
 20
-130.3858398111535
 10
90.54761689359574
 20
-130.3858398111535
 10
90.54761689359574
 20
-130.3858398111535
 10
90.32334117750598
 20
-130.3858398111535
 10
90.32334117750598
 20
-130.3858398111535
 97
        0
 97
        0
 75
     2
 76
     1
 98
        0
  0
ENDBLK
  5
188
330
185
100
AcDbEntity
  8
0
100
AcDbBlockEnd
  0
ENDSEC
  0
SECTION
  2
ENTITIES
  0
SPLINE
  5
41
330
1F
100
AcDbEntity
  8
_U+30EC_U+30A4_U+30E4_U+30FC 1
 62
     7
420
 16777215
370
    25
100
AcDbSpline
210
0.0
220
0.0
230
1.0
 70
     8
 71
     3
 72
     8
 73
     4
 74
     0
 42
0.0000000001
 43
0.0000000001
 12
1.0
 22
0.0
 32
0.0
 13
1.0
 23
0.0
 33
0.0
 40
0.0
 40
0.0
 40
0.0
 40
0.0
 40
1.0
 40
1.0
 40
1.0
 40
1.0
 10
86.60521362385026
 20
-130.5976983006842
 30
0.0
 10
86.60521362385026
 20
-130.8739938561706
 30
0.0
 10
86.82915695147032
 20
-131.0979371894479
 30
0.0
 10
87.10545249997699
 20
-131.0979371894479
 30
0.0
  0
POLYLINE
  5
42
330
1F
100
AcDbEntity
  8
_U+30EC_U+30A4_U+30E4_U+30FC 1
 62
     7
420
 16777215
370
    25
100
AcDb2dPolyline
 66
     1
 10
0.0
 20
0.0
 30
0.0
  0
VERTEX
  5
43
330
42
100
AcDbEntity
  8
_U+30EC_U+30A4_U+30E4_U+30FC 1
 62
     7
420
 16777215
370
    25
100
AcDbVertex
100
AcDb2dVertex
 10
79.30539492119526
 20
-118.8981760813866
 30
0.0
  0
VERTEX
  5
44
330
42
100
AcDbEntity
  8
_U+30EC_U+30A4_U+30E4_U+30FC 1
 62
     7
420
 16777215
370
    25
100
AcDbVertex
100
AcDb2dVertex
 10
79.30539492119526
 20
-134.8623935773954
 30
0.0
  0
SEQEND
  5
45
330
42
100
AcDbEntity
  8
_U+30EC_U+30A4_U+30E4_U+30FC 1
 62
     7
420
 16777215
370
    25
  0
POLYLINE
  5
46
330
1F
100
AcDbEntity
  8
_U+30EC_U+30A4_U+30E4_U+30FC 1
 62
     7
420
 16777215
370
    25
100
AcDb2dPolyline
 66
     1
 10
0.0
 20
0.0
 30
0.0
  0
VERTEX
  5
47
330
46
100
AcDbEntity
  8
_U+30EC_U+30A4_U+30E4_U+30FC 1
 62
     7
420
 16777215
370
    25
100
AcDbVertex
100
AcDb2dVertex
 10
82.84075733100065
 20
-138.3981088542895
 30
0.0
  0
VERTEX
  5
48
330
46
100
AcDbEntity
  8
_U+30EC_U+30A4_U+30E4_U+30FC 1
 62
     7
420
 16777215
370
    25
100
AcDbVertex
100
AcDb2dVertex
 10
103.8055666407154
 20
-138.3981088542895
 30
0.0
  0
SEQEND
  5
49
330
46
100
AcDbEntity
  8
_U+30EC_U+30A4_U+30E4_U+30FC 1
 62
     7
420
 16777215
370
    25
  0
POLYLINE
  5
4A
330
1F
100
AcDbEntity
  8
_U+30EC_U+30A4_U+30E4_U+30FC 1
 62
     7
420
 16777215
370
    25
100
AcDb2dPolyline
 66
     1
 10
0.0
 20
0.0
 30
0.0
  0
VERTEX
  5
4B
330
4A
100
AcDbEntity
  8
_U+30EC_U+30A4_U+30E4_U+30FC 1
 62
     7
420
 16777215
370
    25
100
AcDbVertex
100
AcDb2dVertex
 10
79.30539492119526
 20
-134.8623935773954
 30
0.0
  0
VERTEX
  5
4C
330
4A
100
AcDbEntity
  8
_U+30EC_U+30A4_U+30E4_U+30FC 1
 62
     7
420
 16777215
370
    25
100
AcDbVertex
100
AcDb2dVertex
 10
82.84075733100065
 20
-138.3981088542895
 30
0.0
  0
SEQEND
  5
4D
330
4A
100
AcDbEntity
  8
_U+30EC_U+30A4_U+30E4_U+30FC 1
 62
     7
420
 16777215
370
    25
  0
POLYLINE
  5
4E
330
1F
100
AcDbEntity
  8
_U+30EC_U+30A4_U+30E4_U+30FC 1
 62
     7
420
 16777215
370
    25
100
AcDb2dPolyline
 66
     1
 10
0.0
 20
0.0
 30
0.0
  0
VERTEX
  5
4F
330
4E
100
AcDbEntity
  8
_U+30EC_U+30A4_U+30E4_U+30FC 1
 62
     7
420
 16777215
370
    25
100
AcDbVertex
100
AcDb2dVertex
 10
96.30557920970665
 20
-137.5981499656003
 30
0.0
  0
VERTEX
  5
50
330
4E
100
AcDbEntity
  8
_U+30EC_U+30A4_U+30E4_U+30FC 1
 62
     7
420
 16777215
370
    25
100
AcDbVertex
100
AcDb2dVertex
 10
103.5967901348035
 20
-137.5981499656003
 30
0.0
  0
SEQEND
  5
51
330
4E
100
AcDbEntity
  8
_U+30EC_U+30A4_U+30E4_U+30FC 1
 62
     7
420
 16777215
370
    25
  0
POLYLINE
  5
52
330
1F
100
AcDbEntity
  8
_U+30EC_U+30A4_U+30E4_U+30FC 1
 62
     7
420
 16777215
370
    25
100
AcDb2dPolyline
 66
     1
 10
0.0
 20
0.0
 30
0.0
  0
VERTEX
  5
53
330
52
100
AcDbEntity
  8
_U+30EC_U+30A4_U+30E4_U+30FC 1
 62
     7
420
 16777215
370
    25
100
AcDbVertex
100
AcDb2dVertex
 10
83.25520275696391
 20
-137.3979838545392
 30
0.0
  0
VERTEX
  5
54
330
52
100
AcDbEntity
  8
_U+30EC_U+30A4_U+30E4_U+30FC 1
 62
     7
420
 16777215
370
    25
100
AcDbVertex
100
AcDb2dVertex
 10
95.95901032965946
 20
-137.3979838545392
 30
0.0
  0
SEQEND
  5
55
330
52
100
AcDbEntity
  8
_U+30EC_U+30A4_U+30E4_U+30FC 1
 62
     7
420
 16777215
370
    25
  0
POLYLINE
  5
56
330
1F
100
AcDbEntity
  8
_U+30EC_U+30A4_U+30E4_U+30FC 1
 62
     7
420
 16777215
370
    25
100
AcDb2dPolyline
 66
     1
 10
0.0
 20
0.0
 30
0.0
  0
VERTEX
  5
57
330
56
100
AcDbEntity
  8
_U+30EC_U+30A4_U+30E4_U+30FC 1
 62
     7
420
 16777215
370
    25
100
AcDbVertex
100
AcDb2dVertex
 10
80.30551989567995
 20
-134.4483030219438
 30
0.0
  0
VERTEX
  5
58
330
56
100
AcDbEntity
  8
_U+30EC_U+30A4_U+30E4_U+30FC 1
 62
     7
420
 16777215
370
    25
100
AcDbVertex
100
AcDb2dVertex
 10
81.42689458929352
 20
-135.5696777438852
 30
0.0
  0
SEQEND
  5
59
330
56
100
AcDbEntity
  8
_U+30EC_U+30A4_U+30E4_U+30FC 1
 62
     7
420
 16777215
370
    25
  0
POLYLINE
  5
5A
330
1F
100
AcDbEntity
  8
_U+30EC_U+30A4_U+30E4_U+30FC 1
 62
     7
420
 16777215
370
    25
100
AcDb2dPolyline
 66
     1
 10
0.0
 20
0.0
 30
0.0
  0
VERTEX
  5
5B
330
5A
100
AcDbEntity
  8
_U+30EC_U+30A4_U+30E4_U+30FC 1
 62
     7
420
 16777215
370
    25
100
AcDbVertex
100
AcDb2dVertex
 10
95.95901032965946
 20
-137.3979838545392
 30
0.0
  0
VERTEX
  5
5C
330
5A
100
AcDbEntity
  8
_U+30EC_U+30A4_U+30E4_U+30FC 1
 62
     7
420
 16777215
370
    25
100
AcDbVertex
100
AcDb2dVertex
 10
96.30557920970665
 20
-137.5981499656003
 30
0.0
  0
SEQEND
  5
5D
330
5A
100
AcDbEntity
  8
_U+30EC_U+30A4_U+30E4_U+30FC 1
 62
     7
420
 16777215
370
    25
  0
POLYLINE
  5
5E
330
1F
100
AcDbEntity
  8
_U+30EC_U+30A4_U+30E4_U+30FC 1
 62
     7
420
 16777215
370
    25
100
AcDb2dPolyline
 66
     1
 10
0.0
 20
0.0
 30
0.0
  0
VERTEX
  5
5F
330
5E
100
AcDbEntity
  8
_U+30EC_U+30A4_U+30E4_U+30FC 1
 62
     7
420
 16777215
370
    25
100
AcDbVertex
100
AcDb2dVertex
 10
80.30551989567995
 20
-126.7443771905363
 30
0.0
  0
VERTEX
  5
60
330
5E
100
AcDbEntity
  8
_U+30EC_U+30A4_U+30E4_U+30FC 1
 62
     7
420
 16777215
370
    25
100
AcDbVertex
100
AcDb2dVertex
 10
80.30551989567995
 20
-134.4483030219438
 30
0.0
  0
SEQEND
  5
61
330
5E
100
AcDbEntity
  8
_U+30EC_U+30A4_U+30E4_U+30FC 1
 62
     7
420
 16777215
370
    25
  0
POLYLINE
  5
62
330
1F
100
AcDbEntity
  8
_U+30EC_U+30A4_U+30E4_U+30FC 1
 62
     7
420
 16777215
370
    25
100
AcDb2dPolyline
 66
     1
 10
0.0
 20
0.0
 30
0.0
  0
VERTEX
  5
63
330
62
100
AcDbEntity
  8
_U+30EC_U+30A4_U+30E4_U+30FC 1
 62
     7
420
 16777215
370
    25
100
AcDbVertex
100
AcDb2dVertex
 10
80.1053537896755
 20
-119.1065971924456
 30
0.0
  0
VERTEX
  5
64
330
62
100
AcDbEntity
  8
_U+30EC_U+30A4_U+30E4_U+30FC 1
 62
     7
420
 16777215
370
    25
100
AcDbVertex
100
AcDb2dVertex
 10
80.1053537896755
 20
-126.3981258017337
 30
0.0
  0
SEQEND
  5
65
330
62
100
AcDbEntity
  8
_U+30EC_U+30A4_U+30E4_U+30FC 1
 62
     7
420
 16777215
370
    25
  0
POLYLINE
  5
66
330
1F
100
AcDbEntity
  8
_U+30EC_U+30A4_U+30E4_U+30FC 1
 62
     7
420
 16777215
370
    25
100
AcDb2dPolyline
 66
     1
 10
0.0
 20
0.0
 30
0.0
  0
VERTEX
  5
67
330
66
100
AcDbEntity
  8
_U+30EC_U+30A4_U+30E4_U+30FC 1
 62
     7
420
 16777215
370
    25
100
AcDbVertex
100
AcDb2dVertex
 10
80.1053537896755
 20
-126.3981258017337
 30
0.0
  0
VERTEX
  5
68
330
66
100
AcDbEntity
  8
_U+30EC_U+30A4_U+30E4_U+30FC 1
 62
     7
420
 16777215
370
    25
100
AcDbVertex
100
AcDb2dVertex
 10
80.30551989567995
 20
-126.7443771905363
 30
0.0
  0
SEQEND
  5
69
330
66
100
AcDbEntity
  8
_U+30EC_U+30A4_U+30E4_U+30FC 1
 62
     7
420
 16777215
370
    25
  0
POLYLINE
  5
6A
330
1F
100
AcDbEntity
  8
_U+30EC_U+30A4_U+30E4_U+30FC 1
 62
     7
420
 16777215
370
    25
100
AcDb2dPolyline
 66
     1
 10
0.0
 20
0.0
 30
0.0
  0
VERTEX
  5
6B
330
6A
100
AcDbEntity
  8
_U+30EC_U+30A4_U+30E4_U+30FC 1
 62
     7
420
 16777215
370
    25
100
AcDbVertex
100
AcDb2dVertex
 10
85.60544142713435
 20
-131.3907780227077
 30
0.0
  0
VERTEX
  5
6C
330
6A
100
AcDbEntity
  8
_U+30EC_U+30A4_U+30E4_U+30FC 1
 62
     7
420
 16777215
370
    25
100
AcDbVertex
100
AcDb2dVertex
 10
81.42689458929352
 20
-135.5696777438852
 30
0.0
  0
SEQEND
  5
6D
330
6A
100
AcDbEntity
  8
_U+30EC_U+30A4_U+30E4_U+30FC 1
 62
     7
420
 16777215
370
    25
  0
POLYLINE
  5
6E
330
1F
100
AcDbEntity
  8
_U+30EC_U+30A4_U+30E4_U+30FC 1
 62
     7
420
 16777215
370
    25
100
AcDb2dPolyline
 66
     1
 10
0.0
 20
0.0
 30
0.0
  0
VERTEX
  5
6F
330
6E
100
AcDbEntity
  8
_U+30EC_U+30A4_U+30E4_U+30FC 1
 62
     7
420
 16777215
370
    25
100
AcDbVertex
100
AcDb2dVertex
 10
86.31272775619966
 20
-132.0980621891975
 30
0.0
  0
VERTEX
  5
70
330
6E
100
AcDbEntity
  8
_U+30EC_U+30A4_U+30E4_U+30FC 1
 62
     7
420
 16777215
370
    25
100
AcDbVertex
100
AcDb2dVertex
 10
82.13382596014708
 20
-136.2766091325972
 30
0.0
  0
SEQEND
  5
71
330
6E
100
AcDbEntity
  8
_U+30EC_U+30A4_U+30E4_U+30FC 1
 62
     7
420
 16777215
370
    25
  0
POLYLINE
  5
72
330
1F
100
AcDbEntity
  8
_U+30EC_U+30A4_U+30E4_U+30FC 1
 62
     7
420
 16777215
370
    25
100
AcDb2dPolyline
 66
     1
 10
0.0
 20
0.0
 30
0.0
  0
VERTEX
  5
73
330
72
100
AcDbEntity
  8
_U+30EC_U+30A4_U+30E4_U+30FC 1
 62
     7
420
 16777215
370
    25
100
AcDbVertex
100
AcDb2dVertex
 10
82.13382596014708
 20
-136.2766091325972
 30
0.0
  0
VERTEX
  5
74
330
72
100
AcDbEntity
  8
_U+30EC_U+30A4_U+30E4_U+30FC 1
 62
     7
420
 16777215
370
    25
100
AcDbVertex
100
AcDb2dVertex
 10
83.25520275696391
 20
-137.3979838545392
 30
0.0
  0
SEQEND
  5
75
330
72
100
AcDbEntity
  8
_U+30EC_U+30A4_U+30E4_U+30FC 1
 62
     7
420
 16777215
370
    25
  0
POLYLINE
  5
76
330
1F
100
AcDbEntity
  8
_U+30EC_U+30A4_U+30E4_U+30FC 1
 62
     7
420
 16777215
370
    25
100
AcDb2dPolyline
 66
     1
 10
0.0
 20
0.0
 30
0.0
  0
VERTEX
  5
77
330
76
100
AcDbEntity
  8
_U+30EC_U+30A4_U+30E4_U+30FC 1
 62
     7
420
 16777215
370
    25
100
AcDbVertex
100
AcDb2dVertex
 10
86.31272775619966
 20
-132.0980621891975
 30
0.0
  0
VERTEX
  5
78
330
76
100
AcDbEntity
  8
_U+30EC_U+30A4_U+30E4_U+30FC 1
 62
     7
420
 16777215
370
    25
100
AcDbVertex
100
AcDb2dVertex
 10
93.60531233415175
 20
-132.0980621891975
 30
0.0
  0
SEQEND
  5
79
330
76
100
AcDbEntity
  8
_U+30EC_U+30A4_U+30E4_U+30FC 1
 62
     7
420
 16777215
370
    25
  0
POLYLINE
  5
7A
330
1F
100
AcDbEntity
  8
_U+30EC_U+30A4_U+30E4_U+30FC 1
 62
     7
420
 16777215
370
    25
100
AcDb2dPolyline
 66
     1
 10
0.0
 20
0.0
 30
0.0
  0
VERTEX
  5
7B
330
7A
100
AcDbEntity
  8
_U+30EC_U+30A4_U+30E4_U+30FC 1
 62
     7
420
 16777215
370
    25
100
AcDbVertex
100
AcDb2dVertex
 10
85.60544142713435
 20
-124.0981910800867
 30
0.0
  0
VERTEX
  5
7C
330
7A
100
AcDbEntity
  8
_U+30EC_U+30A4_U+30E4_U+30FC 1
 62
     7
420
 16777215
370
    25
100
AcDbVertex
100
AcDb2dVertex
 10
85.60544142713435
 20
-131.3907780227077
 30
0.0
  0
SEQEND
  5
7D
330
7A
100
AcDbEntity
  8
_U+30EC_U+30A4_U+30E4_U+30FC 1
 62
     7
420
 16777215
370
    25
  0
POLYLINE
  5
7E
330
1F
100
AcDbEntity
  8
_U+30EC_U+30A4_U+30E4_U+30FC 1
 62
     7
420
 16777215
370
    25
100
AcDb2dPolyline
 66
     1
 10
0.0
 20
0.0
 30
0.0
  0
VERTEX
  5
7F
330
7E
100
AcDbEntity
  8
_U+30EC_U+30A4_U+30E4_U+30FC 1
 62
     7
420
 16777215
370
    25
100
AcDbVertex
100
AcDb2dVertex
 10
87.10545249997699
 20
-131.0979371894479
 30
0.0
  0
VERTEX
  5
80
330
7E
100
AcDbEntity
  8
_U+30EC_U+30A4_U+30E4_U+30FC 1
 62
     7
420
 16777215
370
    25
100
AcDbVertex
100
AcDb2dVertex
 10
93.25528623197056
 20
-131.0979371894479
 30
0.0
  0
SEQEND
  5
81
330
7E
100
AcDbEntity
  8
_U+30EC_U+30A4_U+30E4_U+30FC 1
 62
     7
420
 16777215
370
    25
  0
POLYLINE
  5
82
330
1F
100
AcDbEntity
  8
_U+30EC_U+30A4_U+30E4_U+30FC 1
 62
     7
420
 16777215
370
    25
100
AcDb2dPolyline
 66
     1
 10
0.0
 20
0.0
 30
0.0
  0
VERTEX
  5
83
330
82
100
AcDbEntity
  8
_U+30EC_U+30A4_U+30E4_U+30FC 1
 62
     7
420
 16777215
370
    25
100
AcDbVertex
100
AcDb2dVertex
 10
86.60556640161904
 20
-124.4482171911101
 30
0.0
  0
VERTEX
  5
84
330
82
100
AcDbEntity
  8
_U+30EC_U+30A4_U+30E4_U+30FC 1
 62
     7
420
 16777215
370
    25
100
AcDbVertex
100
AcDb2dVertex
 10
86.60556640161904
 20
-130.5980510784613
 30
0.0
  0
SEQEND
  5
85
330
82
100
AcDbEntity
  8
_U+30EC_U+30A4_U+30E4_U+30FC 1
 62
     7
420
 16777215
370
    25
  0
SPLINE
  5
86
330
1F
100
AcDbEntity
  8
_U+30EC_U+30A4_U+30E4_U+30FC 1
 62
     7
420
 16777215
370
    25
100
AcDbSpline
210
0.0
220
0.0
230
1.0
 70
     8
 71
     3
 72
     8
 73
     4
 74
     0
 42
0.0000000001
 43
0.0000000001
 12
1.0
 22
0.0
 32
0.0
 13
1.0
 23
0.0
 33
0.0
 40
0.0
 40
0.0
 40
0.0
 40
0.0
 40
1.0
 40
1.0
 40
1.0
 40
1.0
 10
86.60556640161904
 20
-124.4482171911101
 30
0.0
 10
86.32581363097835
 20
-124.2136199689466
 30
0.0
 10
85.97028419560421
 20
-124.0892305245332
 30
0.0
 10
85.60544142713435
 20
-124.0981910800867
 30
0.0
  0
SPLINE
  5
87
330
1F
100
AcDbEntity
  8
_U+30EC_U+30A4_U+30E4_U+30FC 1
 62
     7
420
 16777215
370
    25
100
AcDbSpline
210
0.0
220
0.0
230
1.0
 70
     8
 71
     3
 72
     8
 73
     4
 74
     0
 42
0.0000000001
 43
0.0000000001
 12
1.0
 22
0.0
 32
0.0
 13
1.0
 23
0.0
 33
0.0
 40
0.0
 40
0.0
 40
0.0
 40
0.0
 40
1.0
 40
1.0
 40
1.0
 40
1.0
 10
93.60531233415175
 20
-132.0980621891975
 30
0.0
 10
93.6142728894787
 20
-131.733219411511
 30
0.0
 10
93.4898834482077
 20
-131.3776899671556
 30
0.0
 10
93.25528623197056
 20
-131.0979371894479
 30
0.0
  0
SPLINE
  5
88
330
1F
100
AcDbEntity
  8
_U+30EC_U+30A4_U+30E4_U+30FC 1
 62
     7
420
 16777215
370
    25
100
AcDbSpline
210
0.0
220
0.0
230
1.0
 70
     8
 71
     3
 72
     8
 73
     4
 74
     0
 42
0.0000000001
 43
0.0000000001
 12
1.0
 22
0.0
 32
0.0
 13
1.0
 23
0.0
 33
0.0
 40
0.0
 40
0.0
 40
0.0
 40
0.0
 40
1.0
 40
1.0
 40
1.0
 40
1.0
 10
103.8055666407154
 20
-138.3981088542895
 30
0.0
 10
103.8120904070885
 20
-138.1169802432483
 30
0.0
 10
103.740088464481
 20
-137.839979132207
 30
0.0
 10
103.5967901348035
 20
-137.5981499656003
 30
0.0
  0
SPLINE
  5
89
330
1F
100
AcDbEntity
  8
_U+30EC_U+30A4_U+30E4_U+30FC 1
 62
     7
420
 16777215
370
    25
100
AcDbSpline
210
0.0
220
0.0
230
1.0
 70
     8
 71
     3
 72
     8
 73
     4
 74
     0
 42
0.0000000001
 43
0.0000000001
 12
1.0
 22
0.0
 32
0.0
 13
1.0
 23
0.0
 33
0.0
 40
0.0
 40
0.0
 40
0.0
 40
0.0
 40
1.0
 40
1.0
 40
1.0
 40
1.0
 10
80.1053537896755
 20
-119.1065971924456
 30
0.0
 10
79.86352462917841
 20
-118.9636163591479
 30
0.0
 10
79.5861707473654
 20
-118.891261636944
 30
0.0
 10
79.30539492119526
 20
-118.8981760813866
 30
0.0
  0
SPLINE
  5
8A
330
1F
100
AcDbEntity
  8
_U+30EC_U+30A4_U+30E4_U+30FC 1
 62
     7
420
 16777215
370
     9
100
AcDbSpline
210
0.0
220
0.0
230
1.0
 70
    11
 71
     3
 72
    17
 73
    13
 74
     0
 42
0.0000000001
 43
0.0000000001
 12
1.0
 22
0.0
 32
0.0
 13
1.0
 23
0.0
 33
0.0
 40
0.0
 40
0.0
 40
0.0
 40
0.0
 40
1.0
 40
1.0
 40
1.0
 40
2.0
 40
2.0
 40
2.0
 40
3.0
 40
3.0
 40
3.0
 40
4.0
 40
4.0
 40
4.0
 40
4.0
 10
85.70534809125219
 20
-128.0979502457532
 30
0.0
 10
85.70534809125219
 20
-128.0428463568783
 30
0.0
 10
85.6605805923943
 20
-127.9980435791116
 30
0.0
 10
85.60544142713435
 20
-127.9980435791116
 30
0.0
 10
85.5499847618825
 20
-127.9980435791116
 30
0.0
 10
85.50521942306828
 20
-128.0428463568783
 30
0.0
 10
85.50521942306828
 20
-128.0979502457532
 30
0.0
 10
85.50521942306828
 20
-128.1530894124063
 30
0.0
 10
85.5499847618825
 20
-128.1978569123949
 30
0.0
 10
85.60544142713435
 20
-128.1978569123949
 30
0.0
 10
85.6605805923943
 20
-128.1978569123949
 30
0.0
 10
85.70534809125219
 20
-128.1530894124063
 30
0.0
 10
85.70534809125219
 20
-128.0979502457532
 30
0.0
  0
SPLINE
  5
8B
330
1F
100
AcDbEntity
  8
_U+30EC_U+30A4_U+30E4_U+30FC 1
 62
     7
420
 16777215
370
     9
100
AcDbSpline
210
0.0
220
0.0
230
1.0
 70
    11
 71
     3
 72
    17
 73
    13
 74
     0
 42
0.0000000001
 43
0.0000000001
 12
1.0
 22
0.0
 32
0.0
 13
1.0
 23
0.0
 33
0.0
 40
0.0
 40
0.0
 40
0.0
 40
0.0
 40
1.0
 40
1.0
 40
1.0
 40
2.0
 40
2.0
 40
2.0
 40
3.0
 40
3.0
 40
3.0
 40
4.0
 40
4.0
 40
4.0
 40
4.0
 10
86.70547306573687
 20
-128.0979502457532
 30
0.0
 10
86.70547306573687
 20
-128.0428463568783
 30
0.0
 10
86.66067028910211
 20
-127.9980435791116
 30
0.0
 10
86.60556640161904
 20
-127.9980435791116
 30
0.0
 10
86.55010973636719
 20
-127.9980435791116
 30
0.0
 10
86.50530695973242
 20
-128.0428463568783
 30
0.0
 10
86.50530695973242
 20
-128.0979502457532
 30
0.0
 10
86.50530695973242
 20
-128.1530894124063
 30
0.0
 10
86.55010973636719
 20
-128.1978569123949
 30
0.0
 10
86.60556640161904
 20
-128.1978569123949
 30
0.0
 10
86.66067028910211
 20
-128.1978569123949
 30
0.0
 10
86.70547306573687
 20
-128.1530894124063
 30
0.0
 10
86.70547306573687
 20
-128.0979502457532
 30
0.0
  0
SPLINE
  5
8C
330
1F
100
AcDbEntity
  8
_U+30EC_U+30A4_U+30E4_U+30FC 1
 62
     7
420
 16777215
370
     9
100
AcDbSpline
210
0.0
220
0.0
230
1.0
 70
    11
 71
     3
 72
    17
 73
    13
 74
     0
 42
0.0000000001
 43
0.0000000001
 12
1.0
 22
0.0
 32
0.0
 13
1.0
 23
0.0
 33
0.0
 40
0.0
 40
0.0
 40
0.0
 40
0.0
 40
1.0
 40
1.0
 40
1.0
 40
2.0
 40
2.0
 40
2.0
 40
3.0
 40
3.0
 40
3.0
 40
4.0
 40
4.0
 40
4.0
 40
4.0
 10
75.40522502069689
 20
-118.8981760813866
 30
0.0
 10
75.40522502069689
 20
-118.8430369147338
 30
0.0
 10
75.36042224406212
 20
-118.798269414745
 30
0.0
 10
75.30531835657905
 20
-118.798269414745
 30
0.0
 10
75.2501791913191
 20
-118.798269414745
 30
0.0
 10
75.20541169246121
 20
-118.8430369147338
 30
0.0
 10
75.20541169246121
 20
-118.8981760813866
 30
0.0
 10
75.20541169246121
 20
-118.9532799702618
 30
0.0
 10
75.2501791913191
 20
-118.9980827480282
 30
0.0
 10
75.30531835657905
 20
-118.9980827480282
 30
0.0
 10
75.36042224406212
 20
-118.9980827480282
 30
0.0
 10
75.40522502069689
 20
-118.9532799702618
 30
0.0
 10
75.40522502069689
 20
-118.8981760813866
 30
0.0
  0
SPLINE
  5
8D
330
1F
100
AcDbEntity
  8
_U+30EC_U+30A4_U+30E4_U+30FC 1
 62
     7
420
 16777215
370
     9
100
AcDbSpline
210
0.0
220
0.0
230
1.0
 70
    11
 71
     3
 72
    17
 73
    13
 74
     0
 42
0.0000000001
 43
0.0000000001
 12
1.0
 22
0.0
 32
0.0
 13
1.0
 23
0.0
 33
0.0
 40
0.0
 40
0.0
 40
0.0
 40
0.0
 40
1.0
 40
1.0
 40
1.0
 40
2.0
 40
2.0
 40
2.0
 40
3.0
 40
3.0
 40
3.0
 40
4.0
 40
4.0
 40
4.0
 40
4.0
 10
75.40522502069689
 20
-138.3981088542895
 30
0.0
 10
75.40522502069689
 20
-138.3429696876365
 30
0.0
 10
75.36042224406212
 20
-138.2982021876479
 30
0.0
 10
75.30531835657905
 20
-138.2982021876479
 30
0.0
 10
75.2501791913191
 20
-138.2982021876479
 30
0.0
 10
75.20541169246121
 20
-138.3429696876365
 30
0.0
 10
75.20541169246121
 20
-138.3981088542895
 30
0.0
 10
75.20541169246121
 20
-138.4532127431645
 30
0.0
 10
75.2501791913191
 20
-138.4980155209312
 30
0.0
 10
75.30531835657905
 20
-138.4980155209312
 30
0.0
 10
75.36042224406212
 20
-138.4980155209312
 30
0.0
 10
75.40522502069689
 20
-138.4532127431645
 30
0.0
 10
75.40522502069689
 20
-138.3981088542895
 30
0.0
  0
SPLINE
  5
8E
330
1F
100
AcDbEntity
  8
_U+30EC_U+30A4_U+30E4_U+30FC 1
 62
     7
420
 16777215
370
     9
100
AcDbSpline
210
0.0
220
0.0
230
1.0
 70
    11
 71
     3
 72
    17
 73
    13
 74
     0
 42
0.0000000001
 43
0.0000000001
 12
1.0
 22
0.0
 32
0.0
 13
1.0
 23
0.0
 33
0.0
 40
0.0
 40
0.0
 40
0.0
 40
0.0
 40
1.0
 40
1.0
 40
1.0
 40
2.0
 40
2.0
 40
2.0
 40
3.0
 40
3.0
 40
3.0
 40
4.0
 40
4.0
 40
4.0
 40
4.0
 10
73.74847478518633
 20
-140.5192557982035
 30
0.0
 10
73.74847478518633
 20
-140.4641166315504
 30
0.0
 10
73.70402478632035
 20
-140.4193491315618
 30
0.0
 10
73.6485681210685
 20
-140.4193491315618
 30
0.0
 10
73.59311145581664
 20
-140.4193491315618
 30
0.0
 10
73.54830867918187
 20
-140.4641166315504
 30
0.0
 10
73.54830867918187
 20
-140.5192557982035
 30
0.0
 10
73.54830867918187
 20
-140.5747124648561
 30
0.0
 10
73.59311145581664
 20
-140.6194799648453
 30
0.0
 10
73.6485681210685
 20
-140.6194799648453
 30
0.0
 10
73.70402478632035
 20
-140.6194799648453
 30
0.0
 10
73.74847478518633
 20
-140.5747124648561
 30
0.0
 10
73.74847478518633
 20
-140.5192557982035
 30
0.0
  0
SPLINE
  5
8F
330
1F
100
AcDbEntity
  8
_U+30EC_U+30A4_U+30E4_U+30FC 1
 62
     7
420
 16777215
370
     9
100
AcDbSpline
210
0.0
220
0.0
230
1.0
 70
    11
 71
     3
 72
    17
 73
    13
 74
     0
 42
0.0000000001
 43
0.0000000001
 12
1.0
 22
0.0
 32
0.0
 13
1.0
 23
0.0
 33
0.0
 40
0.0
 40
0.0
 40
0.0
 40
0.0
 40
1.0
 40
1.0
 40
1.0
 40
2.0
 40
2.0
 40
2.0
 40
3.0
 40
3.0
 40
3.0
 40
4.0
 40
4.0
 40
4.0
 40
4.0
 10
77.28415469498361
 20
-144.0549357973195
 30
0.0
 10
77.28415469498361
 20
-143.9998319084446
 30
0.0
 10
77.23938719612573
 20
-143.9550291306778
 30
0.0
 10
77.18424998070392
 20
-143.9550291306778
 30
0.0
 10
77.12879136561394
 20
-143.9550291306778
 30
0.0
 10
77.08402386675604
 20
-143.9998319084446
 30
0.0
 10
77.08402386675604
 20
-144.0549357973195
 30
0.0
 10
77.08402386675604
 20
-144.1100749639726
 30
0.0
 10
77.12879136561394
 20
-144.1548424639611
 30
0.0
 10
77.18424998070392
 20
-144.1548424639611
 30
0.0
 10
77.23938719612573
 20
-144.1548424639611
 30
0.0
 10
77.28415469498361
 20
-144.1100749639726
 30
0.0
 10
77.28415469498361
 20
-144.0549357973195
 30
0.0
  0
SPLINE
  5
90
330
1F
100
AcDbEntity
  8
_U+30EC_U+30A4_U+30E4_U+30FC 1
 62
     7
420
 16777215
370
     9
100
AcDbSpline
210
0.0
220
0.0
230
1.0
 70
    11
 71
     3
 72
    17
 73
    13
 74
     0
 42
0.0000000001
 43
0.0000000001
 12
1.0
 22
0.0
 32
0.0
 13
1.0
 23
0.0
 33
0.0
 40
0.0
 40
0.0
 40
0.0
 40
0.0
 40
1.0
 40
1.0
 40
1.0
 40
2.0
 40
2.0
 40
2.0
 40
3.0
 40
3.0
 40
3.0
 40
4.0
 40
4.0
 40
4.0
 40
4.0
 10
79.4053015853131
 20
-142.398185519956
 30
0.0
 10
79.4053015853131
 20
-142.3427288533034
 30
0.0
 10
79.36088886904868
 20
-142.2979613533142
 30
0.0
 10
79.30539492119526
 20
-142.2979613533142
 30
0.0
 10
79.2499382559434
 20
-142.2979613533142
 30
0.0
 10
79.20517075708553
 20
-142.3427288533034
 30
0.0
 10
79.20517075708553
 20
-142.398185519956
 30
0.0
 10
79.20517075708553
 20
-142.4533246866091
 30
0.0
 10
79.2499382559434
 20
-142.4980921865977
 30
0.0
 10
79.30539492119526
 20
-142.4980921865977
 30
0.0
 10
79.36088886904868
 20
-142.4980921865977
 30
0.0
 10
79.4053015853131
 20
-142.4533246866091
 30
0.0
 10
79.4053015853131
 20
-142.398185519956
 30
0.0
  0
SPLINE
  5
91
330
1F
100
AcDbEntity
  8
_U+30EC_U+30A4_U+30E4_U+30FC 1
 62
     7
420
 16777215
370
     9
100
AcDbSpline
210
0.0
220
0.0
230
1.0
 70
    11
 71
     3
 72
    17
 73
    13
 74
     0
 42
0.0000000001
 43
0.0000000001
 12
1.0
 22
0.0
 32
0.0
 13
1.0
 23
0.0
 33
0.0
 40
0.0
 40
0.0
 40
0.0
 40
0.0
 40
1.0
 40
1.0
 40
1.0
 40
2.0
 40
2.0
 40
2.0
 40
3.0
 40
3.0
 40
3.0
 40
4.0
 40
4.0
 40
4.0
 40
4.0
 10
103.9054706824839
 20
-142.398185519956
 30
0.0
 10
103.9054706824839
 20
-142.3427288533034
 30
0.0
 10
103.8606679058492
 20
-142.2979613533142
 30
0.0
 10
103.8055666407154
 20
-142.2979613533142
 30
0.0
 10
103.7500720753374
 20
-142.2979613533142
 30
0.0
 10
103.7053045764795
 20
-142.3427288533034
 30
0.0
 10
103.7053045764795
 20
-142.398185519956
 30
0.0
 10
103.7053045764795
 20
-142.4533246866091
 30
0.0
 10
103.7500720753374
 20
-142.4980921865977
 30
0.0
 10
103.8055666407154
 20
-142.4980921865977
 30
0.0
 10
103.8606679058492
 20
-142.4980921865977
 30
0.0
 10
103.9054706824839
 20
-142.4533246866091
 30
0.0
 10
103.9054706824839
 20
-142.398185519956
 30
0.0
  0
SPLINE
  5
92
330
1F
100
AcDbEntity
  8
_U+30EC_U+30A4_U+30E4_U+30FC 1
 62
     7
420
 16777215
370
     9
100
AcDbSpline
210
0.0
220
0.0
230
1.0
 70
    11
 71
     3
 72
    17
 73
    13
 74
     0
 42
0.0000000001
 43
0.0000000001
 12
1.0
 22
0.0
 32
0.0
 13
1.0
 23
0.0
 33
0.0
 40
0.0
 40
0.0
 40
0.0
 40
0.0
 40
1.0
 40
1.0
 40
1.0
 40
2.0
 40
2.0
 40
2.0
 40
3.0
 40
3.0
 40
3.0
 40
4.0
 40
4.0
 40
4.0
 40
4.0
 10
97.7053333089067
 20
-131.0979371894479
 30
0.0
 10
97.7053333089067
 20
-131.0428333005723
 30
0.0
 10
97.66053053114062
 20
-130.9980305228062
 30
0.0
 10
97.60542417654484
 20
-130.9980305228062
 30
0.0
 10
97.5502850112849
 20
-130.9980305228062
 30
0.0
 10
97.505517512427
 20
-131.0428333005723
 30
0.0
 10
97.505517512427
 20
-131.0979371894479
 30
0.0
 10
97.505517512427
 20
-131.1530763561003
 30
0.0
 10
97.5502850112849
 20
-131.1978438560895
 30
0.0
 10
97.60542417654484
 20
-131.1978438560895
 30
0.0
 10
97.66053053114062
 20
-131.1978438560895
 30
0.0
 10
97.7053333089067
 20
-131.1530763561003
 30
0.0
 10
97.7053333089067
 20
-131.0979371894479
 30
0.0
  0
SPLINE
  5
93
330
1F
100
AcDbEntity
  8
_U+30EC_U+30A4_U+30E4_U+30FC 1
 62
     7
420
 16777215
370
     9
100
AcDbSpline
210
0.0
220
0.0
230
1.0
 70
    11
 71
     3
 72
    17
 73
    13
 74
     0
 42
0.0000000001
 43
0.0000000001
 12
1.0
 22
0.0
 32
0.0
 13
1.0
 23
0.0
 33
0.0
 40
0.0
 40
0.0
 40
0.0
 40
0.0
 40
1.0
 40
1.0
 40
1.0
 40
2.0
 40
2.0
 40
2.0
 40
3.0
 40
3.0
 40
3.0
 40
4.0
 40
4.0
 40
4.0
 40
4.0
 10
97.7053333089067
 20
-124.0981910800867
 30
0.0
 10
97.7053333089067
 20
-124.0430871912114
 30
0.0
 10
97.66053053114062
 20
-123.998284413445
 30
0.0
 10
97.60542417654484
 20
-123.998284413445
 30
0.0
 10
97.5502850112849
 20
-123.998284413445
 30
0.0
 10
97.505517512427
 20
-124.0430871912114
 30
0.0
 10
97.505517512427
 20
-124.0981910800867
 30
0.0
 10
97.505517512427
 20
-124.1533302467394
 30
0.0
 10
97.5502850112849
 20
-124.1980977467283
 30
0.0
 10
97.60542417654484
 20
-124.1980977467283
 30
0.0
 10
97.66053053114062
 20
-124.1980977467283
 30
0.0
 10
97.7053333089067
 20
-124.1533302467394
 30
0.0
 10
97.7053333089067
 20
-124.0981910800867
 30
0.0
  0
SPLINE
  5
94
330
1F
100
AcDbEntity
  8
_U+30EC_U+30A4_U+30E4_U+30FC 1
 62
     7
420
 16777215
370
     9
100
AcDbSpline
210
0.0
220
0.0
230
1.0
 70
    11
 71
     3
 72
    17
 73
    13
 74
     0
 42
0.0000000001
 43
0.0000000001
 12
1.0
 22
0.0
 32
0.0
 13
1.0
 23
0.0
 33
0.0
 40
0.0
 40
0.0
 40
0.0
 40
0.0
 40
1.0
 40
1.0
 40
1.0
 40
2.0
 40
2.0
 40
2.0
 40
3.0
 40
3.0
 40
3.0
 40
4.0
 40
4.0
 40
4.0
 40
4.0
 10
93.70557177603837
 20
-120.098079136642
 30
0.0
 10
93.70557177603837
 20
-120.0426224699893
 30
0.0
 10
93.6607689994036
 20
-119.9978549700004
 30
0.0
 10
93.60531233415175
 20
-119.9978549700004
 30
0.0
 10
93.5501731688918
 20
-119.9978549700004
 30
0.0
 10
93.50540567003392
 20
-120.0426224699893
 30
0.0
 10
93.50540567003392
 20
-120.098079136642
 30
0.0
 10
93.50540567003392
 20
-120.1532183032951
 30
0.0
 10
93.5501731688918
 20
-120.1980210810615
 30
0.0
 10
93.60531233415175
 20
-120.1980210810615
 30
0.0
 10
93.6607689994036
 20
-120.1980210810615
 30
0.0
 10
93.70557177603837
 20
-120.1532183032951
 30
0.0
 10
93.70557177603837
 20
-120.098079136642
 30
0.0
  0
SPLINE
  5
95
330
1F
100
AcDbEntity
  8
_U+30EC_U+30A4_U+30E4_U+30FC 1
 62
     7
420
 16777215
370
     9
100
AcDbSpline
210
0.0
220
0.0
230
1.0
 70
    11
 71
     3
 72
    17
 73
    13
 74
     0
 42
0.0000000001
 43
0.0000000001
 12
1.0
 22
0.0
 32
0.0
 13
1.0
 23
0.0
 33
0.0
 40
0.0
 40
0.0
 40
0.0
 40
0.0
 40
1.0
 40
1.0
 40
1.0
 40
2.0
 40
2.0
 40
2.0
 40
3.0
 40
3.0
 40
3.0
 40
4.0
 40
4.0
 40
4.0
 40
4.0
 10
86.70582584350565
 20
-120.098079136642
 30
0.0
 10
86.70582584350565
 20
-120.0426224699893
 30
0.0
 10
86.66102306687088
 20
-119.9978549700004
 30
0.0
 10
86.60591917938781
 20
-119.9978549700004
 30
0.0
 10
86.55042723635908
 20
-119.9978549700004
 30
0.0
 10
86.5056597375012
 20
-120.0426224699893
 30
0.0
 10
86.5056597375012
 20
-120.098079136642
 30
0.0
 10
86.5056597375012
 20
-120.1532183032951
 30
0.0
 10
86.55042723635908
 20
-120.1980210810615
 30
0.0
 10
86.60591917938781
 20
-120.1980210810615
 30
0.0
 10
86.66102306687088
 20
-120.1980210810615
 30
0.0
 10
86.70582584350565
 20
-120.1532183032951
 30
0.0
 10
86.70582584350565
 20
-120.098079136642
 30
0.0
  0
SPLINE
  5
96
330
1F
100
AcDbEntity
  8
_U+30EC_U+30A4_U+30E4_U+30FC 1
 62
     7
420
 16777215
370
     9
100
AcDbSpline
210
0.0
220
0.0
230
1.0
 70
    11
 71
     3
 72
    17
 73
    13
 74
     0
 42
0.0000000001
 43
0.0000000001
 12
1.0
 22
0.0
 32
0.0
 13
1.0
 23
0.0
 33
0.0
 40
0.0
 40
0.0
 40
0.0
 40
0.0
 40
1.0
 40
1.0
 40
1.0
 40
2.0
 40
2.0
 40
2.0
 40
3.0
 40
3.0
 40
3.0
 40
4.0
 40
4.0
 40
4.0
 40
4.0
 10
80.20561323156211
 20
-114.8973938601646
 30
0.0
 10
80.20561323156211
 20
-114.8422546935115
 30
0.0
 10
80.16081045492734
 20
-114.7974871935229
 30
0.0
 10
80.1053537896755
 20
-114.7974871935229
 30
0.0
 10
80.05024990219243
 20
-114.7974871935229
 30
0.0
 10
80.00544712555767
 20
-114.8422546935115
 30
0.0
 10
80.00544712555767
 20
-114.8973938601646
 30
0.0
 10
80.00544712555767
 20
-114.9528505268173
 30
0.0
 10
80.05024990219243
 20
-114.9976180268061
 30
0.0
 10
80.1053537896755
 20
-114.9976180268061
 30
0.0
 10
80.16081045492734
 20
-114.9976180268061
 30
0.0
 10
80.20561323156211
 20
-114.9528505268173
 30
0.0
 10
80.20561323156211
 20
-114.8973938601646
 30
0.0
  0
SPLINE
  5
97
330
1F
100
AcDbEntity
  8
_U+30EC_U+30A4_U+30E4_U+30FC 1
 62
     7
420
 16777215
370
     9
100
AcDbSpline
210
0.0
220
0.0
230
1.0
 70
    11
 71
     3
 72
    17
 73
    13
 74
     0
 42
0.0000000001
 43
0.0000000001
 12
1.0
 22
0.0
 32
0.0
 13
1.0
 23
0.0
 33
0.0
 40
0.0
 40
0.0
 40
0.0
 40
0.0
 40
1.0
 40
1.0
 40
1.0
 40
2.0
 40
2.0
 40
2.0
 40
3.0
 40
3.0
 40
3.0
 40
4.0
 40
4.0
 40
4.0
 40
4.0
 10
79.4053015853131
 20
-114.8973938601646
 30
0.0
 10
79.4053015853131
 20
-114.8422546935115
 30
0.0
 10
79.36088886904868
 20
-114.7974871935229
 30
0.0
 10
79.30539492119526
 20
-114.7974871935229
 30
0.0
 10
79.2499382559434
 20
-114.7974871935229
 30
0.0
 10
79.20517075708553
 20
-114.8422546935115
 30
0.0
 10
79.20517075708553
 20
-114.8973938601646
 30
0.0
 10
79.20517075708553
 20
-114.9528505268173
 30
0.0
 10
79.2499382559434
 20
-114.9976180268061
 30
0.0
 10
79.30539492119526
 20
-114.9976180268061
 30
0.0
 10
79.36088886904868
 20
-114.9976180268061
 30
0.0
 10
79.4053015853131
 20
-114.9528505268173
 30
0.0
 10
79.4053015853131
 20
-114.8973938601646
 30
0.0
  0
SPLINE
  5
98
330
1F
100
AcDbEntity
  8
_U+30EC_U+30A4_U+30E4_U+30FC 1
 62
     7
420
 16777215
370
     9
100
AcDbSpline
210
0.0
220
0.0
230
1.0
 70
    11
 71
     3
 72
    17
 73
    13
 74
     0
 42
0.0000000001
 43
0.0000000001
 12
1.0
 22
0.0
 32
0.0
 13
1.0
 23
0.0
 33
0.0
 40
0.0
 40
0.0
 40
0.0
 40
0.0
 40
1.0
 40
1.0
 40
1.0
 40
2.0
 40
2.0
 40
2.0
 40
3.0
 40
3.0
 40
3.0
 40
4.0
 40
4.0
 40
4.0
 40
4.0
 10
107.9055499730235
 20
-132.0980621891975
 30
0.0
 10
107.9055499730235
 20
-132.0429230225451
 30
0.0
 10
107.8607797482423
 20
-131.9981555225559
 30
0.0
 10
107.8052878052135
 20
-131.9981555225559
 30
0.0
 10
107.7501839177305
 20
-131.9981555225559
 30
0.0
 10
107.7053811410957
 20
-132.0429230225451
 30
0.0
 10
107.7053811410957
 20
-132.0980621891975
 30
0.0
 10
107.7053811410957
 20
-132.1531660780731
 30
0.0
 10
107.7501839177305
 20
-132.1979688558392
 30
0.0
 10
107.8052878052135
 20
-132.1979688558392
 30
0.0
 10
107.8607797482423
 20
-132.1979688558392
 30
0.0
 10
107.9055499730235
 20
-132.1531660780731
 30
0.0
 10
107.9055499730235
 20
-132.0980621891975
 30
0.0
  0
SPLINE
  5
99
330
1F
100
AcDbEntity
  8
_U+30EC_U+30A4_U+30E4_U+30FC 1
 62
     7
420
 16777215
370
     9
100
AcDbSpline
210
0.0
220
0.0
230
1.0
 70
    11
 71
     3
 72
    17
 73
    13
 74
     0
 42
0.0000000001
 43
0.0000000001
 12
1.0
 22
0.0
 32
0.0
 13
1.0
 23
0.0
 33
0.0
 40
0.0
 40
0.0
 40
0.0
 40
0.0
 40
1.0
 40
1.0
 40
1.0
 40
2.0
 40
2.0
 40
2.0
 40
3.0
 40
3.0
 40
3.0
 40
4.0
 40
4.0
 40
4.0
 40
4.0
 10
107.9055499730235
 20
-137.5981499656003
 30
0.0
 10
107.9055499730235
 20
-137.5426932989476
 30
0.0
 10
107.8607797482423
 20
-137.4978905211809
 30
0.0
 10
107.8052878052135
 20
-137.4978905211809
 30
0.0
 10
107.7501839177305
 20
-137.4978905211809
 30
0.0
 10
107.7053811410957
 20
-137.5426932989476
 30
0.0
 10
107.7053811410957
 20
-137.5981499656003
 30
0.0
 10
107.7053811410957
 20
-137.6532538544758
 30
0.0
 10
107.7501839177305
 20
-137.6980566322419
 30
0.0
 10
107.8052878052135
 20
-137.6980566322419
 30
0.0
 10
107.8607797482423
 20
-137.6980566322419
 30
0.0
 10
107.9055499730235
 20
-137.6532538544758
 30
0.0
 10
107.9055499730235
 20
-137.5981499656003
 30
0.0
  0
POLYLINE
  5
9A
330
1F
100
AcDbEntity
  8
_U+30EC_U+30A4_U+30E4_U+30FC 1
 62
     7
420
 16777215
370
     9
100
AcDb2dPolyline
 66
     1
 10
0.0
 20
0.0
 30
0.0
  0
VERTEX
  5
9B
330
9A
100
AcDbEntity
  8
_U+30EC_U+30A4_U+30E4_U+30FC 1
 62
     7
420
 16777215
370
     9
100
AcDbVertex
100
AcDb2dVertex
 10
86.60521362385026
 20
-120.098079136642
 30
0.0
  0
VERTEX
  5
9C
330
9A
100
AcDbEntity
  8
_U+30EC_U+30A4_U+30E4_U+30FC 1
 62
     7
420
 16777215
370
     9
100
AcDbVertex
100
AcDb2dVertex
 10
93.60531233415175
 20
-120.098079136642
 30
0.0
  0
SEQEND
  5
9D
330
9A
100
AcDbEntity
  8
_U+30EC_U+30A4_U+30E4_U+30FC 1
 62
     7
420
 16777215
370
     9
  0
POLYLINE
  5
9E
330
1F
100
AcDbEntity
  8
_U+30EC_U+30A4_U+30E4_U+30FC 1
 62
     7
420
 16777215
370
     9
100
AcDb2dPolyline
 66
     1
 10
0.0
 20
0.0
 30
0.0
  0
VERTEX
  5
9F
330
9E
100
AcDbEntity
  8
_U+30EC_U+30A4_U+30E4_U+30FC 1
 62
     7
420
 16777215
370
     9
100
AcDbVertex
100
AcDb2dVertex
 10
86.60591917938781
 20
-121.558120525166
 30
0.0
  0
VERTEX
  5
A0
330
9E
100
AcDbEntity
  8
_U+30EC_U+30A4_U+30E4_U+30FC 1
 62
     7
420
 16777215
370
     9
100
AcDbVertex
100
AcDb2dVertex
 10
86.60591917938781
 20
-119.0979894146699
 30
0.0
  0
SEQEND
  5
A1
330
9E
100
AcDbEntity
  8
_U+30EC_U+30A4_U+30E4_U+30FC 1
 62
     7
420
 16777215
370
     9
  0
POLYLINE
  5
A2
330
1F
100
AcDbEntity
  8
_U+30EC_U+30A4_U+30E4_U+30FC 1
 62
     7
420
 16777215
370
     9
100
AcDb2dPolyline
 66
     1
 10
0.0
 20
0.0
 30
0.0
  0
VERTEX
  5
A3
330
A2
100
AcDbEntity
  8
_U+30EC_U+30A4_U+30E4_U+30FC 1
 62
     7
420
 16777215
370
     9
100
AcDbVertex
100
AcDb2dVertex
 10
93.60531233415175
 20
-129.5579916342772
 30
0.0
  0
VERTEX
  5
A4
330
A2
100
AcDbEntity
  8
_U+30EC_U+30A4_U+30E4_U+30FC 1
 62
     7
420
 16777215
370
     9
100
AcDbVertex
100
AcDb2dVertex
 10
93.60531233415175
 20
-119.0979894146699
 30
0.0
  0
SEQEND
  5
A5
330
A2
100
AcDbEntity
  8
_U+30EC_U+30A4_U+30E4_U+30FC 1
 62
     7
420
 16777215
370
     9
  0
INSERT
  5
A7
330
1F
100
AcDbEntity
  8
_U+30EC_U+30A4_U+30E4_U+30FC 1
100
AcDbBlockReference
  2
block 2
 10
0.0
 20
0.0
 30
0.0
  0
POLYLINE
  5
AC
330
1F
100
AcDbEntity
  8
_U+30EC_U+30A4_U+30E4_U+30FC 1
 62
     7
420
 16777215
370
     9
100
AcDb2dPolyline
 66
     1
 10
0.0
 20
0.0
 30
0.0
  0
VERTEX
  5
AD
330
AC
100
AcDbEntity
  8
_U+30EC_U+30A4_U+30E4_U+30FC 1
 62
     7
420
 16777215
370
     9
100
AcDbVertex
100
AcDb2dVertex
 10
97.60542417654484
 20
-124.0981910800867
 30
0.0
  0
VERTEX
  5
AE
330
AC
100
AcDbEntity
  8
_U+30EC_U+30A4_U+30E4_U+30FC 1
 62
     7
420
 16777215
370
     9
100
AcDbVertex
100
AcDb2dVertex
 10
97.60542417654484
 20
-131.0982899672256
 30
0.0
  0
SEQEND
  5
AF
330
AC
100
AcDbEntity
  8
_U+30EC_U+30A4_U+30E4_U+30FC 1
 62
     7
420
 16777215
370
     9
  0
POLYLINE
  5
B0
330
1F
100
AcDbEntity
  8
_U+30EC_U+30A4_U+30E4_U+30FC 1
 62
     7
420
 16777215
370
     9
100
AcDb2dPolyline
 66
     1
 10
0.0
 20
0.0
 30
0.0
  0
VERTEX
  5
B1
330
B0
100
AcDbEntity
  8
_U+30EC_U+30A4_U+30E4_U+30FC 1
 62
     7
420
 16777215
370
     9
100
AcDbVertex
100
AcDb2dVertex
 10
88.1455119178873
 20
-124.0981910800867
 30
0.0
  0
VERTEX
  5
B2
330
B0
100
AcDbEntity
  8
_U+30EC_U+30A4_U+30E4_U+30FC 1
 62
     7
420
 16777215
370
     9
100
AcDbVertex
100
AcDb2dVertex
 10
98.60551387325265
 20
-124.0981910800867
 30
0.0
  0
SEQEND
  5
B3
330
B0
100
AcDbEntity
  8
_U+30EC_U+30A4_U+30E4_U+30FC 1
 62
     7
420
 16777215
370
     9
  0
POLYLINE
  5
B4
330
1F
100
AcDbEntity
  8
_U+30EC_U+30A4_U+30E4_U+30FC 1
 62
     7
420
 16777215
370
     9
100
AcDb2dPolyline
 66
     1
 10
0.0
 20
0.0
 30
0.0
  0
VERTEX
  5
B5
330
B4
100
AcDbEntity
  8
_U+30EC_U+30A4_U+30E4_U+30FC 1
 62
     7
420
 16777215
370
     9
100
AcDbVertex
100
AcDb2dVertex
 10
96.14538282490471
 20
-132.0980621891975
 30
0.0
  0
VERTEX
  5
B6
330
B4
100
AcDbEntity
  8
_U+30EC_U+30A4_U+30E4_U+30FC 1
 62
     7
420
 16777215
370
     9
100
AcDbVertex
100
AcDb2dVertex
 10
98.60551387325265
 20
-132.0980621891975
 30
0.0
  0
SEQEND
  5
B7
330
B4
100
AcDbEntity
  8
_U+30EC_U+30A4_U+30E4_U+30FC 1
 62
     7
420
 16777215
370
     9
  0
INSERT
  5
B9
330
1F
100
AcDbEntity
  8
_U+30EC_U+30A4_U+30E4_U+30FC 1
100
AcDbBlockReference
  2
block 3
 10
0.0
 20
0.0
 30
0.0
  0
POLYLINE
  5
BE
330
1F
100
AcDbEntity
  8
_U+30EC_U+30A4_U+30E4_U+30FC 1
 62
     7
420
 16777215
370
     9
100
AcDb2dPolyline
 66
     1
 10
0.0
 20
0.0
 30
0.0
  0
VERTEX
  5
BF
330
BE
100
AcDbEntity
  8
_U+30EC_U+30A4_U+30E4_U+30FC 1
 62
     7
420
 16777215
370
     9
100
AcDbVertex
100
AcDb2dVertex
 10
86.60556640161904
 20
-128.0979502457532
 30
0.0
  0
VERTEX
  5
C0
330
BE
100
AcDbEntity
  8
_U+30EC_U+30A4_U+30E4_U+30FC 1
 62
     7
420
 16777215
370
     9
100
AcDbVertex
100
AcDb2dVertex
 10
90.37587880543036
 20
-128.0979502457532
 30
0.0
  0
SEQEND
  5
C1
330
BE
100
AcDbEntity
  8
_U+30EC_U+30A4_U+30E4_U+30FC 1
 62
     7
420
 16777215
370
     9
  0
POLYLINE
  5
C2
330
1F
100
AcDbEntity
  8
_U+30EC_U+30A4_U+30E4_U+30FC 1
 62
     7
420
 16777215
370
     9
100
AcDb2dPolyline
 66
     1
 10
0.0
 20
0.0
 30
0.0
  0
VERTEX
  5
C3
330
C2
100
AcDbEntity
  8
_U+30EC_U+30A4_U+30E4_U+30FC 1
 62
     7
420
 16777215
370
     9
100
AcDbVertex
100
AcDb2dVertex
 10
86.60556640161904
 20
-128.0979502457532
 30
0.0
  0
VERTEX
  5
C4
330
C2
100
AcDbEntity
  8
_U+30EC_U+30A4_U+30E4_U+30FC 1
 62
     7
420
 16777215
370
     9
100
AcDbVertex
100
AcDb2dVertex
 10
84.60535173042655
 20
-128.0979502457532
 30
0.0
  0
SEQEND
  5
C5
330
C2
100
AcDbEntity
  8
_U+30EC_U+30A4_U+30E4_U+30FC 1
 62
     7
420
 16777215
370
     9
  0
POLYLINE
  5
C6
330
1F
100
AcDbEntity
  8
_U+30EC_U+30A4_U+30E4_U+30FC 1
 62
     7
420
 16777215
370
    25
100
AcDb2dPolyline
 66
     1
 10
0.0
 20
0.0
 30
0.0
  0
VERTEX
  5
C7
330
C6
100
AcDbEntity
  8
_U+30EC_U+30A4_U+30E4_U+30FC 1
 62
     7
420
 16777215
370
    25
100
AcDbVertex
100
AcDb2dVertex
 10
86.60556640161904
 20
-130.6380208006738
 30
0.0
  0
VERTEX
  5
C8
330
C6
100
AcDbEntity
  8
_U+30EC_U+30A4_U+30E4_U+30FC 1
 62
     7
420
 16777215
370
    25
100
AcDbVertex
100
AcDb2dVertex
 10
86.60556640161904
 20
-128.0989733013087
 30
0.0
  0
SEQEND
  5
C9
330
C6
100
AcDbEntity
  8
_U+30EC_U+30A4_U+30E4_U+30FC 1
 62
     7
420
 16777215
370
    25
  0
POLYLINE
  5
CA
330
1F
100
AcDbEntity
  8
_U+30EC_U+30A4_U+30E4_U+30FC 1
 62
     7
420
 16777215
370
    25
100
AcDb2dPolyline
 66
     1
 10
0.0
 20
0.0
 30
0.0
  0
VERTEX
  5
CB
330
CA
100
AcDbEntity
  8
_U+30EC_U+30A4_U+30E4_U+30FC 1
 62
     7
420
 16777215
370
    25
100
AcDbVertex
100
AcDb2dVertex
 10
85.60544142713435
 20
-130.6380208006738
 30
0.0
  0
VERTEX
  5
CC
330
CA
100
AcDbEntity
  8
_U+30EC_U+30A4_U+30E4_U+30FC 1
 62
     7
420
 16777215
370
    25
100
AcDbVertex
100
AcDb2dVertex
 10
85.60544142713435
 20
-128.0989733013087
 30
0.0
  0
SEQEND
  5
CD
330
CA
100
AcDbEntity
  8
_U+30EC_U+30A4_U+30E4_U+30FC 1
 62
     7
420
 16777215
370
    25
  0
INSERT
  5
CF
330
1F
100
AcDbEntity
  8
_U+30EC_U+30A4_U+30E4_U+30FC 1
100
AcDbBlockReference
  2
block 4
 10
0.0
 20
0.0
 30
0.0
  0
POLYLINE
  5
D4
330
1F
100
AcDbEntity
  8
_U+30EC_U+30A4_U+30E4_U+30FC 1
 62
     7
420
 16777215
370
     9
100
AcDb2dPolyline
 66
     1
 10
0.0
 20
0.0
 30
0.0
  0
VERTEX
  5
D5
330
D4
100
AcDbEntity
  8
_U+30EC_U+30A4_U+30E4_U+30FC 1
 62
     7
420
 16777215
370
     9
100
AcDbVertex
100
AcDb2dVertex
 10
77.18424998070392
 20
-144.0549357973195
 30
0.0
  0
VERTEX
  5
D6
330
D4
100
AcDbEntity
  8
_U+30EC_U+30A4_U+30E4_U+30FC 1
 62
     7
420
 16777215
370
     9
100
AcDbVertex
100
AcDb2dVertex
 10
73.6485681210685
 20
-140.5192557982035
 30
0.0
  0
SEQEND
  5
D7
330
D4
100
AcDbEntity
  8
_U+30EC_U+30A4_U+30E4_U+30FC 1
 62
     7
420
 16777215
370
     9
  0
POLYLINE
  5
D8
330
1F
100
AcDbEntity
  8
_U+30EC_U+30A4_U+30E4_U+30FC 1
 62
     7
420
 16777215
370
     9
100
AcDb2dPolyline
 66
     1
 10
0.0
 20
0.0
 30
0.0
  0
VERTEX
  5
D9
330
D8
100
AcDbEntity
  8
_U+30EC_U+30A4_U+30E4_U+30FC 1
 62
     7
420
 16777215
370
     9
100
AcDbVertex
100
AcDb2dVertex
 10
81.0448362657073
 20
-140.1940299649517
 30
0.0
  0
VERTEX
  5
DA
330
D8
100
AcDbEntity
  8
_U+30EC_U+30A4_U+30E4_U+30FC 1
 62
     7
420
 16777215
370
     9
100
AcDbVertex
100
AcDb2dVertex
 10
76.47699916002031
 20
-144.7618671860315
 30
0.0
  0
SEQEND
  5
DB
330
D8
100
AcDbEntity
  8
_U+30EC_U+30A4_U+30E4_U+30FC 1
 62
     7
420
 16777215
370
     9
  0
POLYLINE
  5
DC
330
1F
100
AcDbEntity
  8
_U+30EC_U+30A4_U+30E4_U+30FC 1
 62
     7
420
 16777215
370
     9
100
AcDb2dPolyline
 66
     1
 10
0.0
 20
0.0
 30
0.0
  0
VERTEX
  5
DD
330
DC
100
AcDbEntity
  8
_U+30EC_U+30A4_U+30E4_U+30FC 1
 62
     7
420
 16777215
370
     9
100
AcDbVertex
100
AcDb2dVertex
 10
77.50947385590192
 20
-136.6586674658352
 30
0.0
  0
VERTEX
  5
DE
330
DC
100
AcDbEntity
  8
_U+30EC_U+30A4_U+30E4_U+30FC 1
 62
     7
420
 16777215
370
     9
100
AcDbVertex
100
AcDb2dVertex
 10
72.94128397244614
 20
-141.2265046869157
 30
0.0
  0
SEQEND
  5
DF
330
DC
100
AcDbEntity
  8
_U+30EC_U+30A4_U+30E4_U+30FC 1
 62
     7
420
 16777215
370
     9
  0
INSERT
  5
E1
330
1F
100
AcDbEntity
  8
_U+30EC_U+30A4_U+30E4_U+30FC 1
100
AcDbBlockReference
  2
block 5
 10
0.0
 20
0.0
 30
0.0
  0
POLYLINE
  5
E6
330
1F
100
AcDbEntity
  8
_U+30EC_U+30A4_U+30E4_U+30FC 1
 62
     7
420
 16777215
370
     9
100
AcDb2dPolyline
 66
     1
 10
0.0
 20
0.0
 30
0.0
  0
VERTEX
  5
E7
330
E6
100
AcDbEntity
  8
_U+30EC_U+30A4_U+30E4_U+30FC 1
 62
     7
420
 16777215
370
     9
100
AcDbVertex
100
AcDb2dVertex
 10
80.1053537896755
 20
-114.8973938601646
 30
0.0
  0
VERTEX
  5
E8
330
E6
100
AcDbEntity
  8
_U+30EC_U+30A4_U+30E4_U+30FC 1
 62
     7
420
 16777215
370
     9
100
AcDbVertex
100
AcDb2dVertex
 10
85.36325948886848
 20
-114.8973938601646
 30
0.0
  0
SEQEND
  5
E9
330
E6
100
AcDbEntity
  8
_U+30EC_U+30A4_U+30E4_U+30FC 1
 62
     7
420
 16777215
370
     9
  0
POLYLINE
  5
EA
330
1F
100
AcDbEntity
  8
_U+30EC_U+30A4_U+30E4_U+30FC 1
 62
     7
420
 16777215
370
     9
100
AcDb2dPolyline
 66
     1
 10
0.0
 20
0.0
 30
0.0
  0
VERTEX
  5
EB
330
EA
100
AcDbEntity
  8
_U+30EC_U+30A4_U+30E4_U+30FC 1
 62
     7
420
 16777215
370
     9
100
AcDbVertex
100
AcDb2dVertex
 10
78.30530522448746
 20
-114.8973938601646
 30
0.0
  0
VERTEX
  5
EC
330
EA
100
AcDbEntity
  8
_U+30EC_U+30A4_U+30E4_U+30FC 1
 62
     7
420
 16777215
370
     9
100
AcDbVertex
100
AcDb2dVertex
 10
80.1053537896755
 20
-114.8973938601646
 30
0.0
  0
SEQEND
  5
ED
330
EA
100
AcDbEntity
  8
_U+30EC_U+30A4_U+30E4_U+30FC 1
 62
     7
420
 16777215
370
     9
  0
POLYLINE
  5
EE
330
1F
100
AcDbEntity
  8
_U+30EC_U+30A4_U+30E4_U+30FC 1
 62
     7
420
 16777215
370
     9
100
AcDb2dPolyline
 66
     1
 10
0.0
 20
0.0
 30
0.0
  0
VERTEX
  5
EF
330
EE
100
AcDbEntity
  8
_U+30EC_U+30A4_U+30E4_U+30FC 1
 62
     7
420
 16777215
370
     9
100
AcDbVertex
100
AcDb2dVertex
 10
79.30539492119526
 20
-116.358105526466
 30
0.0
  0
VERTEX
  5
F0
330
EE
100
AcDbEntity
  8
_U+30EC_U+30A4_U+30E4_U+30FC 1
 62
     7
420
 16777215
370
     9
100
AcDbVertex
100
AcDb2dVertex
 10
79.30539492119526
 20
-113.8976216381924
 30
0.0
  0
SEQEND
  5
F1
330
EE
100
AcDbEntity
  8
_U+30EC_U+30A4_U+30E4_U+30FC 1
 62
     7
420
 16777215
370
     9
  0
POLYLINE
  5
F2
330
1F
100
AcDbEntity
  8
_U+30EC_U+30A4_U+30E4_U+30FC 1
 62
     7
420
 16777215
370
     9
100
AcDb2dPolyline
 66
     1
 10
0.0
 20
0.0
 30
0.0
  0
VERTEX
  5
F3
330
F2
100
AcDbEntity
  8
_U+30EC_U+30A4_U+30E4_U+30FC 1
 62
     7
420
 16777215
370
     9
100
AcDbVertex
100
AcDb2dVertex
 10
80.1053537896755
 20
-116.566526637525
 30
0.0
  0
VERTEX
  5
F4
330
F2
100
AcDbEntity
  8
_U+30EC_U+30A4_U+30E4_U+30FC 1
 62
     7
420
 16777215
370
     9
100
AcDbVertex
100
AcDb2dVertex
 10
80.1053537896755
 20
-113.8976216381924
 30
0.0
  0
SEQEND
  5
F5
330
F2
100
AcDbEntity
  8
_U+30EC_U+30A4_U+30E4_U+30FC 1
 62
     7
420
 16777215
370
     9
  0
INSERT
  5
F7
330
1F
100
AcDbEntity
  8
_U+30EC_U+30A4_U+30E4_U+30FC 1
100
AcDbBlockReference
  2
block 6
 10
0.0
 20
0.0
 30
0.0
  0
POLYLINE
  5
109
330
1F
100
AcDbEntity
  8
_U+30EC_U+30A4_U+30E4_U+30FC 1
 62
     7
420
 16777215
370
     9
100
AcDb2dPolyline
 66
     1
 10
0.0
 20
0.0
 30
0.0
  0
VERTEX
  5
10A
330
109
100
AcDbEntity
  8
_U+30EC_U+30A4_U+30E4_U+30FC 1
 62
     7
420
 16777215
370
     9
100
AcDbVertex
100
AcDb2dVertex
 10
103.8055666407154
 20
-142.398185519956
 30
0.0
  0
VERTEX
  5
10B
330
109
100
AcDbEntity
  8
_U+30EC_U+30A4_U+30E4_U+30FC 1
 62
     7
420
 16777215
370
     9
100
AcDbVertex
100
AcDb2dVertex
 10
79.30539492119526
 20
-142.398185519956
 30
0.0
  0
SEQEND
  5
10C
330
109
100
AcDbEntity
  8
_U+30EC_U+30A4_U+30E4_U+30FC 1
 62
     7
420
 16777215
370
     9
  0
POLYLINE
  5
10D
330
1F
100
AcDbEntity
  8
_U+30EC_U+30A4_U+30E4_U+30FC 1
 62
     7
420
 16777215
370
     9
100
AcDb2dPolyline
 66
     1
 10
0.0
 20
0.0
 30
0.0
  0
VERTEX
  5
10E
330
10D
100
AcDbEntity
  8
_U+30EC_U+30A4_U+30E4_U+30FC 1
 62
     7
420
 16777215
370
     9
100
AcDbVertex
100
AcDb2dVertex
 10
103.8055666407154
 20
-140.9381794092099
 30
0.0
  0
VERTEX
  5
10F
330
10D
100
AcDbEntity
  8
_U+30EC_U+30A4_U+30E4_U+30FC 1
 62
     7
420
 16777215
370
     9
100
AcDbVertex
100
AcDb2dVertex
 10
103.8055666407154
 20
-143.3979577419286
 30
0.0
  0
SEQEND
  5
110
330
10D
100
AcDbEntity
  8
_U+30EC_U+30A4_U+30E4_U+30FC 1
 62
     7
420
 16777215
370
     9
  0
POLYLINE
  5
111
330
1F
100
AcDbEntity
  8
_U+30EC_U+30A4_U+30E4_U+30FC 1
 62
     7
420
 16777215
370
     9
100
AcDb2dPolyline
 66
     1
 10
0.0
 20
0.0
 30
0.0
  0
VERTEX
  5
112
330
111
100
AcDbEntity
  8
_U+30EC_U+30A4_U+30E4_U+30FC 1
 62
     7
420
 16777215
370
     9
100
AcDbVertex
100
AcDb2dVertex
 10
79.30539492119526
 20
-137.4024641323163
 30
0.0
  0
VERTEX
  5
113
330
111
100
AcDbEntity
  8
_U+30EC_U+30A4_U+30E4_U+30FC 1
 62
     7
420
 16777215
370
     9
100
AcDbVertex
100
AcDb2dVertex
 10
79.30539492119526
 20
-143.3979577419286
 30
0.0
  0
SEQEND
  5
114
330
111
100
AcDbEntity
  8
_U+30EC_U+30A4_U+30E4_U+30FC 1
 62
     7
420
 16777215
370
     9
  0
INSERT
  5
116
330
1F
100
AcDbEntity
  8
_U+30EC_U+30A4_U+30E4_U+30FC 1
100
AcDbBlockReference
  2
block 7
 10
0.0
 20
0.0
 30
0.0
  0
POLYLINE
  5
13A
330
1F
100
AcDbEntity
  8
_U+30EC_U+30A4_U+30E4_U+30FC 1
 62
     7
420
 16777215
370
     9
100
AcDb2dPolyline
 66
     1
 10
0.0
 20
0.0
 30
0.0
  0
VERTEX
  5
13B
330
13A
100
AcDbEntity
  8
_U+30EC_U+30A4_U+30E4_U+30FC 1
 62
     7
420
 16777215
370
     9
100
AcDbVertex
100
AcDb2dVertex
 10
75.30531835657905
 20
-118.8981760813866
 30
0.0
  0
VERTEX
  5
13C
330
13A
100
AcDbEntity
  8
_U+30EC_U+30A4_U+30E4_U+30FC 1
 62
     7
420
 16777215
370
     9
100
AcDbVertex
100
AcDb2dVertex
 10
75.30531835657905
 20
-138.3981088542895
 30
0.0
  0
SEQEND
  5
13D
330
13A
100
AcDbEntity
  8
_U+30EC_U+30A4_U+30E4_U+30FC 1
 62
     7
420
 16777215
370
     9
  0
POLYLINE
  5
13E
330
1F
100
AcDbEntity
  8
_U+30EC_U+30A4_U+30E4_U+30FC 1
 62
     7
420
 16777215
370
     9
100
AcDb2dPolyline
 66
     1
 10
0.0
 20
0.0
 30
0.0
  0
VERTEX
  5
13F
330
13E
100
AcDbEntity
  8
_U+30EC_U+30A4_U+30E4_U+30FC 1
 62
     7
420
 16777215
370
     9
100
AcDbVertex
100
AcDb2dVertex
 10
76.7653244304423
 20
-118.8981760813866
 30
0.0
  0
VERTEX
  5
140
330
13E
100
AcDbEntity
  8
_U+30EC_U+30A4_U+30E4_U+30FC 1
 62
     7
420
 16777215
370
     9
100
AcDbVertex
100
AcDb2dVertex
 10
74.30554615986314
 20
-118.8981760813866
 30
0.0
  0
SEQEND
  5
141
330
13E
100
AcDbEntity
  8
_U+30EC_U+30A4_U+30E4_U+30FC 1
 62
     7
420
 16777215
370
     9
  0
POLYLINE
  5
142
330
1F
100
AcDbEntity
  8
_U+30EC_U+30A4_U+30E4_U+30FC 1
 62
     7
420
 16777215
370
     9
100
AcDb2dPolyline
 66
     1
 10
0.0
 20
0.0
 30
0.0
  0
VERTEX
  5
143
330
142
100
AcDbEntity
  8
_U+30EC_U+30A4_U+30E4_U+30FC 1
 62
     7
420
 16777215
370
     9
100
AcDbVertex
100
AcDb2dVertex
 10
80.30068886881365
 20
-138.3981088542895
 30
0.0
  0
VERTEX
  5
144
330
142
100
AcDbEntity
  8
_U+30EC_U+30A4_U+30E4_U+30FC 1
 62
     7
420
 16777215
370
     9
100
AcDbVertex
100
AcDb2dVertex
 10
74.30554615986314
 20
-138.3981088542895
 30
0.0
  0
SEQEND
  5
145
330
142
100
AcDbEntity
  8
_U+30EC_U+30A4_U+30E4_U+30FC 1
 62
     7
420
 16777215
370
     9
  0
INSERT
  5
147
330
1F
100
AcDbEntity
  8
_U+30EC_U+30A4_U+30E4_U+30FC 1
100
AcDbBlockReference
  2
block 8
 10
0.0
 20
0.0
 30
0.0
  0
POLYLINE
  5
159
330
1F
100
AcDbEntity
  8
_U+30EC_U+30A4_U+30E4_U+30FC 1
 62
     7
420
 16777215
370
     9
100
AcDb2dPolyline
 66
     1
 10
0.0
 20
0.0
 30
0.0
  0
VERTEX
  5
15A
330
159
100
AcDbEntity
  8
_U+30EC_U+30A4_U+30E4_U+30FC 1
 62
     7
420
 16777215
370
     9
100
AcDbVertex
100
AcDb2dVertex
 10
107.8052878052135
 20
-137.5981499656003
 30
0.0
  0
VERTEX
  5
15B
330
159
100
AcDbEntity
  8
_U+30EC_U+30A4_U+30E4_U+30FC 1
 62
     7
420
 16777215
370
     9
100
AcDbVertex
100
AcDb2dVertex
 10
107.8052878052135
 20
-132.0980621891975
 30
0.0
  0
SEQEND
  5
15C
330
159
100
AcDbEntity
  8
_U+30EC_U+30A4_U+30E4_U+30FC 1
 62
     7
420
 16777215
370
     9
  0
POLYLINE
  5
15D
330
1F
100
AcDbEntity
  8
_U+30EC_U+30A4_U+30E4_U+30FC 1
 62
     7
420
 16777215
370
     9
100
AcDb2dPolyline
 66
     1
 10
0.0
 20
0.0
 30
0.0
  0
VERTEX
  5
15E
330
15D
100
AcDbEntity
  8
_U+30EC_U+30A4_U+30E4_U+30FC 1
 62
     7
420
 16777215
370
     9
100
AcDbVertex
100
AcDb2dVertex
 10
106.1368606255564
 20
-137.5981499656003
 30
0.0
  0
VERTEX
  5
15F
330
15D
100
AcDbEntity
  8
_U+30EC_U+30A4_U+30E4_U+30FC 1
 62
     7
420
 16777215
370
     9
100
AcDbVertex
100
AcDb2dVertex
 10
108.8054127796982
 20
-137.5981499656003
 30
0.0
  0
SEQEND
  5
160
330
15D
100
AcDbEntity
  8
_U+30EC_U+30A4_U+30E4_U+30FC 1
 62
     7
420
 16777215
370
     9
  0
POLYLINE
  5
161
330
1F
100
AcDbEntity
  8
_U+30EC_U+30A4_U+30E4_U+30FC 1
 62
     7
420
 16777215
370
     9
100
AcDb2dPolyline
 66
     1
 10
0.0
 20
0.0
 30
0.0
  0
VERTEX
  5
162
330
161
100
AcDbEntity
  8
_U+30EC_U+30A4_U+30E4_U+30FC 1
 62
     7
420
 16777215
370
     9
100
AcDbVertex
100
AcDb2dVertex
 10
96.14538282490471
 20
-132.0980621891975
 30
0.0
  0
VERTEX
  5
163
330
161
100
AcDbEntity
  8
_U+30EC_U+30A4_U+30E4_U+30FC 1
 62
     7
420
 16777215
370
     9
100
AcDbVertex
100
AcDb2dVertex
 10
108.8054127796982
 20
-132.0980621891975
 30
0.0
  0
SEQEND
  5
164
330
161
100
AcDbEntity
  8
_U+30EC_U+30A4_U+30E4_U+30FC 1
 62
     7
420
 16777215
370
     9
  0
POLYLINE
  5
165
330
1F
100
AcDbEntity
  8
_U+30EC_U+30A4_U+30E4_U+30FC 1
 62
     7
420
 16777215
370
     9
100
AcDb2dPolyline
 66
     1
 10
0.0
 20
0.0
 30
0.0
  0
VERTEX
  5
166
330
165
100
AcDbEntity
  8
_U+30EC_U+30A4_U+30E4_U+30FC 1
 62
     7
420
 16777215
370
     9
100
AcDbVertex
100
AcDb2dVertex
 10
96.14538282490471
 20
-131.0979371894479
 30
0.0
  0
VERTEX
  5
167
330
165
100
AcDbEntity
  8
_U+30EC_U+30A4_U+30E4_U+30FC 1
 62
     7
420
 16777215
370
     9
100
AcDbVertex
100
AcDb2dVertex
 10
98.60551387325265
 20
-131.0979371894479
 30
0.0
  0
SEQEND
  5
168
330
165
100
AcDbEntity
  8
_U+30EC_U+30A4_U+30E4_U+30FC 1
 62
     7
420
 16777215
370
     9
  0
INSERT
  5
16A
330
1F
100
AcDbEntity
  8
_U+30EC_U+30A4_U+30E4_U+30FC 1
100
AcDbBlockReference
  2
block 9
 10
0.0
 20
0.0
 30
0.0
  0
POLYLINE
  5
179
330
1F
100
AcDbEntity
  8
_U+30EC_U+30A4_U+30E4_U+30FC 1
 62
   179
420
  2234388
370
     9
100
AcDb2dPolyline
 66
     1
 10
0.0
 20
0.0
 30
0.0
  0
VERTEX
  5
17A
330
179
100
AcDbEntity
  8
_U+30EC_U+30A4_U+30E4_U+30FC 1
 62
   179
420
  2234388
370
     9
100
AcDbVertex
100
AcDb2dVertex
 10
86.76265834205573
 20
-130.8378341339571
 30
0.0
  0
VERTEX
  5
17B
330
179
100
AcDbEntity
  8
_U+30EC_U+30A4_U+30E4_U+30FC 1
 62
   179
420
  2234388
370
     9
100
AcDbVertex
100
AcDb2dVertex
 10
87.28424027319352
 20
-129.9345466341831
 30
0.0
  0
SEQEND
  5
17C
330
179
100
AcDbEntity
  8
_U+30EC_U+30A4_U+30E4_U+30FC 1
 62
   179
420
  2234388
370
     9
  0
POLYLINE
  5
17D
330
1F
100
AcDbEntity
  8
_U+30EC_U+30A4_U+30E4_U+30FC 1
 62
   179
420
  2234388
370
     9
100
AcDb2dPolyline
 66
     1
 10
0.0
 20
0.0
 30
0.0
  0
VERTEX
  5
17E
330
17D
100
AcDbEntity
  8
_U+30EC_U+30A4_U+30E4_U+30FC 1
 62
   179
420
  2234388
370
     9
100
AcDbVertex
100
AcDb2dVertex
 10
86.76265834205573
 20
-130.8378341339571
 30
0.0
  0
VERTEX
  5
17F
330
17D
100
AcDbEntity
  8
_U+30EC_U+30A4_U+30E4_U+30FC 1
 62
   179
420
  2234388
370
     9
100
AcDbVertex
100
AcDb2dVertex
 10
88.18064858365757
 20
-129.482885245407
 30
0.0
  0
SEQEND
  5
180
330
17D
100
AcDbEntity
  8
_U+30EC_U+30A4_U+30E4_U+30FC 1
 62
   179
420
  2234388
370
     9
  0
POLYLINE
  5
181
330
1F
100
AcDbEntity
  8
_U+30EC_U+30A4_U+30E4_U+30FC 1
 62
   179
420
  2234388
370
     9
100
AcDb2dPolyline
 66
     1
 10
0.0
 20
0.0
 30
0.0
  0
VERTEX
  5
182
330
181
100
AcDbEntity
  8
_U+30EC_U+30A4_U+30E4_U+30FC 1
 62
   179
420
  2234388
370
     9
100
AcDbVertex
100
AcDb2dVertex
 10
86.76265834205573
 20
-130.8378341339571
 30
0.0
  0
VERTEX
  5
183
330
181
100
AcDbEntity
  8
_U+30EC_U+30A4_U+30E4_U+30FC 1
 62
   179
420
  2234388
370
     9
100
AcDbVertex
100
AcDb2dVertex
 10
87.66527775586147
 20
-130.3162521896433
 30
0.0
  0
SEQEND
  5
184
330
181
100
AcDbEntity
  8
_U+30EC_U+30A4_U+30E4_U+30FC 1
 62
   179
420
  2234388
370
     9
  0
INSERT
  5
186
330
1F
100
AcDbEntity
  8
_U+30EC_U+30A4_U+30E4_U+30FC 1
100
AcDbBlockReference
  2
block 10
 10
0.0
 20
0.0
 30
0.0
  0
ENDSEC
  0
SECTION
  2
OBJECTS
  0
DICTIONARY
  5
C
330
0
100
AcDbDictionary
281
     1
  3
ACAD_GROUP
350
D
  3
ACAD_LAYOUT
350
1A
  3
ACAD_MATERIAL
350
3B
  3
ACAD_MLEADERSTYLE
350
18F
  3
ACAD_MLINESTYLE
350
17
  3
ACAD_PLOTSETTINGS
350
19
  3
ACAD_PLOTSTYLENAME
350
E
  3
ACAD_TABLESTYLE
350
18E
  3
ACAD_VISUALSTYLE
350
2A
  0
SUN
  5
3F
330
29
100
AcDbSun
 90
        1
290
     0
 63
     7
421
 16777215
 40
1.0
291
     1
 91
  2455826
 92
 54000000
292
     0
 70
     2
 71
   256
280
     1
  0
DICTIONARY
  5
D
102
{ACAD_REACTORS
330
C
102
}
330
C
100
AcDbDictionary
281
     1
  0
DICTIONARY
  5
1A
102
{ACAD_REACTORS
330
C
102
}
330
C
100
AcDbDictionary
281
     1
  3
Layout1
350
1E
  3
Layout2
350
26
  3
Model
350
22
  0
DICTIONARY
  5
3B
102
{ACAD_REACTORS
330
C
102
}
330
C
100
AcDbDictionary
281
     1
  3
ByBlock
350
3D
  3
ByLayer
350
3C
  3
Global
350
3E
  0
DICTIONARY
  5
18F
102
{ACAD_REACTORS
330
C
102
}
330
C
100
AcDbDictionary
281
     1
  0
DICTIONARY
  5
17
102
{ACAD_REACTORS
330
C
102
}
330
C
100
AcDbDictionary
281
     1
  3
Standard
350
18
  0
DICTIONARY
  5
19
102
{ACAD_REACTORS
330
C
102
}
330
C
100
AcDbDictionary
281
     1
  0
ACDBDICTIONARYWDFLT
  5
E
102
{ACAD_REACTORS
330
C
102
}
330
C
100
AcDbDictionary
281
     1
  3
Normal
350
F
100
AcDbDictionaryWithDefault
340
F
  0
DICTIONARY
  5
18E
102
{ACAD_REACTORS
330
C
102
}
330
C
100
AcDbDictionary
281
     1
  0
DICTIONARY
  5
2A
102
{ACAD_REACTORS
330
C
102
}
330
C
100
AcDbDictionary
281
     1
  3
2dWireframe
350
2F
  3
3D Hidden
350
31
  3
3dWireframe
350
30
  3
Basic
350
32
  3
Brighten
350
36
  3
ColorChange
350
3A
  3
Conceptual
350
34
  3
Dim
350
35
  3
Facepattern
350
39
  3
Flat
350
2B
  3
FlatWithEdges
350
2C
  3
Gouraud
350
2D
  3
GouraudWithEdges
350
2E
  3
Linepattern
350
38
  3
Realistic
350
33
  3
Thicken
350
37
  0
LAYOUT
  5
1E
102
{ACAD_REACTORS
330
1A
102
}
330
1A
100
AcDbPlotSettings
  1

  2
none_device
  4

  6

 40
0.0
 41
0.0
 42
0.0
 43
0.0
 44
0.0
 45
0.0
 46
0.0
 47
0.0
 48
0.0
 49
0.0
140
0.0
141
0.0
142
1.0
143
1.0
 70
   688
 72
     0
 73
     0
 74
     5
  7

 75
    16
 76
     0
 77
     2
 78
   300
147
1.0
148
0.0
149
0.0
100
AcDbLayout
  1
Layout1
 70
     1
 71
     1
 10
0.0
 20
0.0
 11
12.0
 21
9.0
 12
0.0
 22
0.0
 32
0.0
 14
1.000000000000000E+20
 24
1.000000000000000E+20
 34
1.000000000000000E+20
 15
-1.000000000000000E+20
 25
-1.000000000000000E+20
 35
-1.000000000000000E+20
146
0.0
 13
0.0
 23
0.0
 33
0.0
 16
1.0
 26
0.0
 36
0.0
 17
0.0
 27
1.0
 37
0.0
 76
     0
330
1B
  0
LAYOUT
  5
26
102
{ACAD_REACTORS
330
1A
102
}
330
1A
100
AcDbPlotSettings
  1

  2
none_device
  4

  6

 40
0.0
 41
0.0
 42
0.0
 43
0.0
 44
0.0
 45
0.0
 46
0.0
 47
0.0
 48
0.0
 49
0.0
140
0.0
141
0.0
142
1.0
143
1.0
 70
   688
 72
     0
 73
     0
 74
     5
  7

 75
    16
 76
     0
 77
     2
 78
   300
147
1.0
148
0.0
149
0.0
100
AcDbLayout
  1
Layout2
 70
     1
 71
     2
 10
0.0
 20
0.0
 11
0.0
 21
0.0
 12
0.0
 22
0.0
 32
0.0
 14
0.0
 24
0.0
 34
0.0
 15
0.0
 25
0.0
 35
0.0
146
0.0
 13
0.0
 23
0.0
 33
0.0
 16
1.0
 26
0.0
 36
0.0
 17
0.0
 27
1.0
 37
0.0
 76
     0
330
23
  0
LAYOUT
  5
22
102
{ACAD_REACTORS
330
1A
102
}
330
1A
100
AcDbPlotSettings
  1

  2
none_device
  4

  6

 40
0.0
 41
0.0
 42
0.0
 43
0.0
 44
0.0
 45
0.0
 46
0.0
 47
0.0
 48
0.0
 49
0.0
140
0.0
141
0.0
142
1.0
143
1.0
 70
  1712
 72
     0
 73
     0
 74
     0
  7

 75
     0
 76
     0
 77
     2
 78
   300
147
1.0
148
0.0
149
0.0
100
AcDbLayout
  1
Model
 70
     1
 71
     0
 10
0.0
 20
0.0
 11
12.0
 21
9.0
 12
0.0
 22
0.0
 32
0.0
 14
1.000000000000000E+20
 24
1.000000000000000E+20
 34
1.000000000000000E+20
 15
-1.000000000000000E+20
 25
-1.000000000000000E+20
 35
-1.000000000000000E+20
146
0.0
 13
0.0
 23
0.0
 33
0.0
 16
1.0
 26
0.0
 36
0.0
 17
0.0
 27
1.0
 37
0.0
 76
     0
330
1F
331
29
  0
MATERIAL
  5
3D
102
{ACAD_REACTORS
330
3B
102
}
330
3B
100
AcDbMaterial
  1
ByBlock
 72
     1
 94
      127
  0
MATERIAL
  5
3C
102
{ACAD_REACTORS
330
3B
102
}
330
3B
100
AcDbMaterial
  1
ByLayer
 72
     1
 94
      127
  0
MATERIAL
  5
3E
102
{ACAD_REACTORS
330
3B
102
}
330
3B
100
AcDbMaterial
  1
Global
 72
     1
 94
      127
  0
MLINESTYLE
  5
18
102
{ACAD_REACTORS
330
17
102
}
330
17
100
AcDbMlineStyle
  2
Standard
 70
     0
  3

 62
   256
 51
90.0
 52
90.0
 71
     2
 49
0.5
 62
   256
  6
BYLAYER
 49
-0.5
 62
   256
  6
BYLAYER
  0
ACDBPLACEHOLDER
  5
F
102
{ACAD_REACTORS
330
E
102
}
330
E
  0
VISUALSTYLE
  5
2F
102
{ACAD_REACTORS
330
2A
102
}
330
2A
100
AcDbVisualStyle
  2
2dWireframe
 70
     4
177
     2
291
     0
 71
     0
176
     1
 72
     2
176
     1
 73
     0
176
     1
 90
        0
176
     1
 40
-0.6
176
     1
 41
-30.0
176
     1
 62
     5
 63
     7
421
 16777215
176
     1
 74
     1
176
     1
 91
        4
176
     1
 64
     7
176
     1
 65
   257
176
     1
 75
     1
176
     1
175
     1
176
     1
 42
1.0
176
     1
 92
        0
176
     1
 66
   257
176
     1
 43
1.0
176
     1
 76
     1
176
     1
 77
     6
176
     1
 78
     2
176
     1
 67
     7
176
     1
 79
     5
176
     1
170
     0
176
     1
171
     0
176
     1
290
     0
176
     1
 93
        1
176
     1
 44
0.0
176
     1
173
     0
176
     1
  0
VISUALSTYLE
  5
31
102
{ACAD_REACTORS
330
2A
102
}
330
2A
100
AcDbVisualStyle
  2
3D Hidden
 70
     6
177
     2
291
     0
 71
     1
176
     1
 72
     2
176
     1
 73
     2
176
     1
 90
        0
176
     1
 40
-0.6
176
     1
 41
-30.0
176
     1
 62
     5
 63
     7
421
 16777215
176
     1
 74
     2
176
     1
 91
        2
176
     1
 64
     7
176
     1
 65
   257
176
     1
 75
     2
176
     1
175
     1
176
     1
 42
40.0
176
     1
 92
        0
176
     1
 66
   257
176
     1
 43
1.0
176
     1
 76
     1
176
     1
 77
     6
176
     1
 78
     2
176
     1
 67
     7
176
     1
 79
     3
176
     1
170
     0
176
     1
171
     0
176
     1
290
     0
176
     1
 93
        1
176
     1
 44
0.0
176
     1
173
     0
176
     1
  0
VISUALSTYLE
  5
30
102
{ACAD_REACTORS
330
2A
102
}
330
2A
100
AcDbVisualStyle
  2
3dWireframe
 70
     5
177
     2
291
     0
 71
     0
176
     1
 72
     2
176
     1
 73
     0
176
     1
 90
        0
176
     1
 40
-0.6
176
     1
 41
-30.0
176
     1
 62
     5
 63
     7
421
 16777215
176
     1
 74
     1
176
     1
 91
        4
176
     1
 64
     7
176
     1
 65
   257
176
     1
 75
     1
176
     1
175
     1
176
     1
 42
1.0
176
     1
 92
        0
176
     1
 66
   257
176
     1
 43
1.0
176
     1
 76
     1
176
     1
 77
     6
176
     1
 78
     2
176
     1
 67
     7
176
     1
 79
     5
176
     1
170
     0
176
     1
171
     0
176
     1
290
     0
176
     1
 93
        1
176
     1
 44
0.0
176
     1
173
     0
176
     1
  0
VISUALSTYLE
  5
32
102
{ACAD_REACTORS
330
2A
102
}
330
2A
100
AcDbVisualStyle
  2
Basic
 70
     7
177
     2
291
     1
 71
     1
176
     1
 72
     0
176
     1
 73
     1
176
     1
 90
        0
176
     1
 40
-0.6
176
     1
 41
-30.0
176
     1
 62
     5
 63
     7
421
 16777215
176
     1
 74
     0
176
     1
 91
        4
176
     1
 64
     7
176
     1
 65
   257
176
     1
 75
     1
176
     1
175
     1
176
     1
 42
1.0
176
     1
 92
        8
176
     1
 66
     7
176
     1
 43
1.0
176
     1
 76
     1
176
     1
 77
     6
176
     1
 78
     2
176
     1
 67
     7
176
     1
 79
     5
176
     1
170
     0
176
     1
171
     0
176
     1
290
     0
176
     1
 93
        1
176
     1
 44
0.0
176
     1
173
     0
176
     1
  0
VISUALSTYLE
  5
36
102
{ACAD_REACTORS
330
2A
102
}
330
2A
100
AcDbVisualStyle
  2
Brighten
 70
    12
177
     2
291
     1
 71
     2
176
     1
 72
     2
176
     1
 73
     0
176
     1
 90
        0
176
     1
 40
-0.6
176
     1
 41
-30.0
176
     1
 62
     5
 63
     7
421
 16777215
176
     1
 74
     1
176
     1
 91
        4
176
     1
 64
     7
176
     1
 65
   257
176
     1
 75
     1
176
     1
175
     1
176
     1
 42
1.0
176
     1
 92
        8
176
     1
 66
     7
176
     1
 43
1.0
176
     1
 76
     1
176
     1
 77
     6
176
     1
 78
     2
176
     1
 67
     7
176
     1
 79
     5
176
     1
170
     0
176
     1
171
     0
176
     1
290
     0
176
     1
 93
        1
176
     1
 44
50.0
176
     1
173
     0
176
     1
  0
VISUALSTYLE
  5
3A
102
{ACAD_REACTORS
330
2A
102
}
330
2A
100
AcDbVisualStyle
  2
ColorChange
 70
    16
177
     2
291
     1
 71
     2
176
     1
 72
     2
176
     1
 73
     3
176
     1
 90
        0
176
     1
 40
-0.6
176
     1
 41
-30.0
176
     1
 62
     5
 63
     8
421
  8421504
176
     1
 74
     1
176
     1
 91
        4
176
     1
 64
     7
176
     1
 65
   257
176
     1
 75
     1
176
     1
175
     1
176
     1
 42
1.0
176
     1
 92
        8
176
     1
 66
     8
424
  8421504
176
     1
 43
1.0
176
     1
 76
     1
176
     1
 77
     6
176
     1
 78
     2
176
     1
 67
     7
176
     1
 79
     5
176
     1
170
     0
176
     1
171
     0
176
     1
290
     0
176
     1
 93
        1
176
     1
 44
0.0
176
     1
173
     0
176
     1
  0
VISUALSTYLE
  5
34
102
{ACAD_REACTORS
330
2A
102
}
330
2A
100
AcDbVisualStyle
  2
Conceptual
 70
     9
177
     2
291
     0
 71
     3
176
     1
 72
     2
176
     1
 73
     0
176
     1
 90
        0
176
     1
 40
-0.6
176
     1
 41
-30.0
176
     1
 62
     5
 63
     7
421
 16777215
176
     1
 74
     2
176
     1
 91
        2
176
     1
 64
     7
176
     1
 65
   257
176
     1
 75
     1
176
     1
175
     1
176
     1
 42
40.0
176
     1
 92
        8
176
     1
 66
     7
176
     1
 43
1.0
176
     1
 76
     1
176
     1
 77
     6
176
     1
 78
     2
176
     1
 67
     7
176
     1
 79
     3
176
     1
170
     0
176
     1
171
     0
176
     1
290
     0
176
     1
 93
        1
176
     1
 44
0.0
176
     1
173
     0
176
     1
  0
VISUALSTYLE
  5
35
102
{ACAD_REACTORS
330
2A
102
}
330
2A
100
AcDbVisualStyle
  2
Dim
 70
    11
177
     2
291
     1
 71
     2
176
     1
 72
     2
176
     1
 73
     0
176
     1
 90
        0
176
     1
 40
-0.6
176
     1
 41
-30.0
176
     1
 62
     5
 63
     7
421
 16777215
176
     1
 74
     1
176
     1
 91
        4
176
     1
 64
     7
176
     1
 65
   257
176
     1
 75
     1
176
     1
175
     1
176
     1
 42
1.0
176
     1
 92
        8
176
     1
 66
     7
176
     1
 43
1.0
176
     1
 76
     1
176
     1
 77
     6
176
     1
 78
     2
176
     1
 67
     7
176
     1
 79
     5
176
     1
170
     0
176
     1
171
     0
176
     1
290
     0
176
     1
 93
        1
176
     1
 44
-50.0
176
     1
173
     0
176
     1
  0
VISUALSTYLE
  5
39
102
{ACAD_REACTORS
330
2A
102
}
330
2A
100
AcDbVisualStyle
  2
Facepattern
 70
    15
177
     2
291
     1
 71
     2
176
     1
 72
     2
176
     1
 73
     0
176
     1
 90
        0
176
     1
 40
-0.6
176
     1
 41
-30.0
176
     1
 62
     5
 63
     7
421
 16777215
176
     1
 74
     1
176
     1
 91
        4
176
     1
 64
     7
176
     1
 65
   257
176
     1
 75
     1
176
     1
175
     1
176
     1
 42
1.0
176
     1
 92
        8
176
     1
 66
     7
176
     1
 43
1.0
176
     1
 76
     1
176
     1
 77
     6
176
     1
 78
     2
176
     1
 67
     7
176
     1
 79
     5
176
     1
170
     0
176
     1
171
     0
176
     1
290
     0
176
     1
 93
        1
176
     1
 44
0.0
176
     1
173
     0
176
     1
  0
VISUALSTYLE
  5
2B
102
{ACAD_REACTORS
330
2A
102
}
330
2A
100
AcDbVisualStyle
  2
Flat
 70
     0
177
     2
291
     1
 71
     2
176
     1
 72
     1
176
     1
 73
     1
176
     1
 90
        2
176
     1
 40
-0.6
176
     1
 41
30.0
176
     1
 62
     5
 63
     7
421
 16777215
176
     1
 74
     0
176
     1
 91
        4
176
     1
 64
     7
176
     1
 65
   257
176
     1
 75
     1
176
     1
175
     1
176
     1
 42
1.0
176
     1
 92
        8
176
     1
 66
     7
176
     1
 43
1.0
176
     1
 76
     1
176
     1
 77
     6
176
     1
 78
     2
176
     1
 67
     7
176
     1
 79
     5
176
     1
170
     0
176
     1
171
     0
176
     1
290
     0
176
     1
 93
       13
176
     1
 44
0.0
176
     1
173
     0
176
     1
  0
VISUALSTYLE
  5
2C
102
{ACAD_REACTORS
330
2A
102
}
330
2A
100
AcDbVisualStyle
  2
FlatWithEdges
 70
     1
177
     2
291
     1
 71
     2
176
     1
 72
     1
176
     1
 73
     1
176
     1
 90
        2
176
     1
 40
-0.6
176
     1
 41
30.0
176
     1
 62
     5
 63
     7
421
 16777215
176
     1
 74
     1
176
     1
 91
        4
176
     1
 64
     7
176
     1
 65
   257
176
     1
 75
     1
176
     1
175
     1
176
     1
 42
1.0
176
     1
 92
        0
176
     1
 66
   257
176
     1
 43
1.0
176
     1
 76
     1
176
     1
 77
     6
176
     1
 78
     2
176
     1
 67
     7
176
     1
 79
     5
176
     1
170
     0
176
     1
171
     0
176
     1
290
     0
176
     1
 93
       13
176
     1
 44
0.0
176
     1
173
     0
176
     1
  0
VISUALSTYLE
  5
2D
102
{ACAD_REACTORS
330
2A
102
}
330
2A
100
AcDbVisualStyle
  2
Gouraud
 70
     2
177
     2
291
     1
 71
     2
176
     1
 72
     2
176
     1
 73
     1
176
     1
 90
        2
176
     1
 40
-0.6
176
     1
 41
30.0
176
     1
 62
     5
 63
     7
421
 16777215
176
     1
 74
     0
176
     1
 91
        4
176
     1
 64
     7
176
     1
 65
   257
176
     1
 75
     1
176
     1
175
     1
176
     1
 42
1.0
176
     1
 92
        0
176
     1
 66
     7
176
     1
 43
1.0
176
     1
 76
     1
176
     1
 77
     6
176
     1
 78
     2
176
     1
 67
     7
176
     1
 79
     5
176
     1
170
     0
176
     1
171
     0
176
     1
290
     0
176
     1
 93
       13
176
     1
 44
0.0
176
     1
173
     0
176
     1
  0
VISUALSTYLE
  5
2E
102
{ACAD_REACTORS
330
2A
102
}
330
2A
100
AcDbVisualStyle
  2
GouraudWithEdges
 70
     3
177
     2
291
     1
 71
     2
176
     1
 72
     2
176
     1
 73
     1
176
     1
 90
        2
176
     1
 40
-0.6
176
     1
 41
30.0
176
     1
 62
     5
 63
     7
421
 16777215
176
     1
 74
     1
176
     1
 91
        4
176
     1
 64
     7
176
     1
 65
   257
176
     1
 75
     1
176
     1
175
     1
176
     1
 42
1.0
176
     1
 92
        0
176
     1
 66
   257
176
     1
 43
1.0
176
     1
 76
     1
176
     1
 77
     6
176
     1
 78
     2
176
     1
 67
     7
176
     1
 79
     5
176
     1
170
     0
176
     1
171
     0
176
     1
290
     0
176
     1
 93
       13
176
     1
 44
0.0
176
     1
173
     0
176
     1
  0
VISUALSTYLE
  5
38
102
{ACAD_REACTORS
330
2A
102
}
330
2A
100
AcDbVisualStyle
  2
Linepattern
 70
    14
177
     2
291
     1
 71
     2
176
     1
 72
     2
176
     1
 73
     0
176
     1
 90
        0
176
     1
 40
-0.6
176
     1
 41
-30.0
176
     1
 62
     5
 63
     7
421
 16777215
176
     1
 74
     1
176
     1
 91
        4
176
     1
 64
     7
176
     1
 65
   257
176
     1
 75
     7
176
     1
175
     7
176
     1
 42
1.0
176
     1
 92
        8
176
     1
 66
     7
176
     1
 43
1.0
176
     1
 76
     1
176
     1
 77
     6
176
     1
 78
     2
176
     1
 67
     7
176
     1
 79
     5
176
     1
170
     0
176
     1
171
     0
176
     1
290
     0
176
     1
 93
        1
176
     1
 44
0.0
176
     1
173
     0
176
     1
  0
VISUALSTYLE
  5
33
102
{ACAD_REACTORS
330
2A
102
}
330
2A
100
AcDbVisualStyle
  2
Realistic
 70
     8
177
     2
291
     0
 71
     2
176
     1
 72
     2
176
     1
 73
     0
176
     1
 90
        0
176
     1
 40
-0.6
176
     1
 41
-30.0
176
     1
 62
     5
 63
     7
421
 16777215
176
     1
 74
     1
176
     1
 91
        0
176
     1
 64
     7
176
     1
 65
   257
176
     1
 75
     1
176
     1
175
     1
176
     1
 42
1.0
176
     1
 92
        8
176
     1
 66
     8
424
  7895160
176
     1
 43
1.0
176
     1
 76
     1
176
     1
 77
     6
176
     1
 78
     2
176
     1
 67
     7
176
     1
 79
     5
176
     1
170
     0
176
     1
171
     0
176
     1
290
     0
176
     1
 93
       13
176
     1
 44
0.0
176
     1
173
     0
176
     1
  0
VISUALSTYLE
  5
37
102
{ACAD_REACTORS
330
2A
102
}
330
2A
100
AcDbVisualStyle
  2
Thicken
 70
    13
177
     2
291
     1
 71
     2
176
     1
 72
     2
176
     1
 73
     0
176
     1
 90
        0
176
     1
 40
-0.6
176
     1
 41
-30.0
176
     1
 62
     5
 63
     7
421
 16777215
176
     1
 74
     1
176
     1
 91
        4
176
     1
 64
     7
176
     1
 65
   257
176
     1
 75
     1
176
     1
175
     1
176
     1
 42
1.0
176
     1
 92
       12
176
     1
 66
     7
176
     1
 43
1.0
176
     1
 76
     1
176
     1
 77
     6
176
     1
 78
     2
176
     1
 67
     7
176
     1
 79
     5
176
     1
170
     0
176
     1
171
     0
176
     1
290
     0
176
     1
 93
        1
176
     1
 44
0.0
176
     1
173
     0
176
     1
  0
ENDSEC
  0
EOF
