  0
SECTION
  2
HEADER
  9
$ACADVER
  1
AC1024
  9
$ACADMAINTVER
 70
     6
  9
$DWGCODEPAGE
  3
UNDEFINED
  9
$INSBASE
 10
0.0
 20
0.0
 30
0.0
  9
$EXTMIN
 10
1.000000000000000E+20
 20
1.000000000000000E+20
 30
1.000000000000000E+20
  9
$EXTMAX
 10
-1.000000000000000E+20
 20
-1.000000000000000E+20
 30
-1.000000000000000E+20
  9
$LIMMIN
 10
0.0
 20
0.0
  9
$LIMMAX
 10
12.0
 20
9.0
  9
$ORTHOMODE
 70
     0
  9
$REGENMODE
 70
     1
  9
$FILLMODE
 70
     1
  9
$QTEXTMODE
 70
     0
  9
$MIRRTEXT
 70
     1
  9
$LTSCALE
 40
1.0
  9
$ATTMODE
 70
     1
  9
$TEXTSIZE
 40
0.2
  9
$TRACEWID
 40
0.05
  9
$TEXTSTYLE
  7
Standard
  9
$CLAYER
  8
0
  9
$CELTYPE
  6
ByLayer
  9
$CECOLOR
 62
   256
  9
$CELTSCALE
 40
1.0
  9
$DISPSILH
 70
     0
  9
$DIMSCALE
 40
1.0
  9
$DIMASZ
 40
0.18
  9
$DIMEXO
 40
0.0625
  9
$DIMDLI
 40
0.38
  9
$DIMRND
 40
0.0
  9
$DIMDLE
 40
0.0
  9
$DIMEXE
 40
0.18
  9
$DIMTP
 40
0.0
  9
$DIMTM
 40
0.0
  9
$DIMTXT
 40
0.18
  9
$DIMCEN
 40
0.09
  9
$DIMTSZ
 40
0.0
  9
$DIMTOL
 70
     0
  9
$DIMLIM
 70
     0
  9
$DIMTIH
 70
     1
  9
$DIMTOH
 70
     1
  9
$DIMSE1
 70
     0
  9
$DIMSE2
 70
     0
  9
$DIMTAD
 70
     0
  9
$DIMZIN
 70
     0
  9
$DIMBLK
  1

  9
$DIMASO
 70
     1
  9
$DIMSHO
 70
     1
  9
$DIMPOST
  1

  9
$DIMAPOST
  1

  9
$DIMALT
 70
     0
  9
$DIMALTD
 70
     2
  9
$DIMALTF
 40
25.4
  9
$DIMLFAC
 40
1.0
  9
$DIMTOFL
 70
     0
  9
$DIMTVP
 40
0.0
  9
$DIMTIX
 70
     0
  9
$DIMSOXD
 70
     0
  9
$DIMSAH
 70
     0
  9
$DIMBLK1
  1

  9
$DIMBLK2
  1

  9
$DIMSTYLE
  2
Standard
  9
$DIMCLRD
 70
     0
  9
$DIMCLRE
 70
     0
  9
$DIMCLRT
 70
     0
  9
$DIMTFAC
 40
1.0
  9
$DIMGAP
 40
0.09
  9
$DIMJUST
 70
     0
  9
$DIMSD1
 70
     0
  9
$DIMSD2
 70
     0
  9
$DIMTOLJ
 70
     1
  9
$DIMTZIN
 70
     0
  9
$DIMALTZ
 70
     0
  9
$DIMALTTZ
 70
     0
  9
$DIMUPT
 70
     0
  9
$DIMDEC
 70
     4
  9
$DIMTDEC
 70
     4
  9
$DIMALTU
 70
     2
  9
$DIMALTTD
 70
     2
  9
$DIMTXSTY
  7
Standard
  9
$DIMAUNIT
 70
     0
  9
$DIMADEC
 70
     0
  9
$DIMALTRND
 40
0.0
  9
$DIMAZIN
 70
     0
  9
$DIMDSEP
 70
    46
  9
$DIMATFIT
 70
     3
  9
$DIMFRAC
 70
     0
  9
$DIMLDRBLK
  1

  9
$DIMLUNIT
 70
     2
  9
$DIMLWD
 70
    -2
  9
$DIMLWE
 70
    -2
  9
$DIMTMOVE
 70
     0
  9
$DIMFXL
 40
1.0
  9
$DIMFXLON
 70
     0
  9
$DIMJOGANG
 40
0.7853981633974483
  9
$DIMTFILL
 70
     0
  9
$DIMTFILLCLR
 70
     0
  9
$DIMARCSYM
 70
     0
  9
$DIMLTYPE
  6

  9
$DIMLTEX1
  6

  9
$DIMLTEX2
  6

  9
$DIMTXTDIRECTION
 70
     0
  9
$LUNITS
 70
     2
  9
$LUPREC
 70
     4
  9
$SKETCHINC
 40
0.1
  9
$FILLETRAD
 40
0.5
  9
$AUNITS
 70
     0
  9
$AUPREC
 70
     0
  9
$MENU
  1
.
  9
$ELEVATION
 40
0.0
  9
$PELEVATION
 40
0.0
  9
$THICKNESS
 40
0.0
  9
$LIMCHECK
 70
     0
  9
$CHAMFERA
 40
0.5
  9
$CHAMFERB
 40
0.5
  9
$CHAMFERC
 40
1.0
  9
$CHAMFERD
 40
0.0
  9
$SKPOLY
 70
     0
  9
$TDCREATE
 40
2457917.595335637
  9
$TDUCREATE
 40
2457917.220335648
  9
$TDUPDATE
 40
2457917.595335637
  9
$TDUUPDATE
 40
2457917.220335648
  9
$TDINDWG
 40
0.0000000116
  9
$TDUSRTIMER
 40
0.0000000116
  9
$USRTIMER
 70
     1
  9
$ANGBASE
 50
0.0
  9
$ANGDIR
 70
     0
  9
$PDMODE
 70
     0
  9
$PDSIZE
 40
0.0
  9
$PLINEWID
 40
0.0
  9
$SPLFRAME
 70
     0
  9
$SPLINETYPE
 70
     6
  9
$SPLINESEGS
 70
     8
  9
$HANDSEED
  5
195
  9
$SURFTAB1
 70
     6
  9
$SURFTAB2
 70
     6
  9
$SURFTYPE
 70
     6
  9
$SURFU
 70
     6
  9
$SURFV
 70
     6
  9
$UCSBASE
  2

  9
$UCSNAME
  2

  9
$UCSORG
 10
0.0
 20
0.0
 30
0.0
  9
$UCSXDIR
 10
1.0
 20
0.0
 30
0.0
  9
$UCSYDIR
 10
0.0
 20
1.0
 30
0.0
  9
$UCSORTHOREF
  2

  9
$UCSORTHOVIEW
 70
     0
  9
$UCSORGTOP
 10
0.0
 20
0.0
 30
0.0
  9
$UCSORGBOTTOM
 10
0.0
 20
0.0
 30
0.0
  9
$UCSORGLEFT
 10
0.0
 20
0.0
 30
0.0
  9
$UCSORGRIGHT
 10
0.0
 20
0.0
 30
0.0
  9
$UCSORGFRONT
 10
0.0
 20
0.0
 30
0.0
  9
$UCSORGBACK
 10
0.0
 20
0.0
 30
0.0
  9
$PUCSBASE
  2

  9
$PUCSNAME
  2

  9
$PUCSORG
 10
0.0
 20
0.0
 30
0.0
  9
$PUCSXDIR
 10
1.0
 20
0.0
 30
0.0
  9
$PUCSYDIR
 10
0.0
 20
1.0
 30
0.0
  9
$PUCSORTHOREF
  2

  9
$PUCSORTHOVIEW
 70
     0
  9
$PUCSORGTOP
 10
0.0
 20
0.0
 30
0.0
  9
$PUCSORGBOTTOM
 10
0.0
 20
0.0
 30
0.0
  9
$PUCSORGLEFT
 10
0.0
 20
0.0
 30
0.0
  9
$PUCSORGRIGHT
 10
0.0
 20
0.0
 30
0.0
  9
$PUCSORGFRONT
 10
0.0
 20
0.0
 30
0.0
  9
$PUCSORGBACK
 10
0.0
 20
0.0
 30
0.0
  9
$USERI1
 70
     0
  9
$USERI2
 70
     0
  9
$USERI3
 70
     0
  9
$USERI4
 70
     0
  9
$USERI5
 70
     0
  9
$USERR1
 40
0.0
  9
$USERR2
 40
0.0
  9
$USERR3
 40
0.0
  9
$USERR4
 40
0.0
  9
$USERR5
 40
0.0
  9
$WORLDVIEW
 70
     1
  9
$SHADEDGE
 70
     3
  9
$SHADEDIF
 70
    70
  9
$TILEMODE
 70
     1
  9
$MAXACTVP
 70
    64
  9
$PINSBASE
 10
0.0
 20
0.0
 30
0.0
  9
$PLIMCHECK
 70
     0
  9
$PEXTMIN
 10
1.000000000000000E+20
 20
1.000000000000000E+20
 30
1.000000000000000E+20
  9
$PEXTMAX
 10
-1.000000000000000E+20
 20
-1.000000000000000E+20
 30
-1.000000000000000E+20
  9
$PLIMMIN
 10
0.0
 20
0.0
  9
$PLIMMAX
 10
12.0
 20
9.0
  9
$UNITMODE
 70
     0
  9
$VISRETAIN
 70
     1
  9
$PLINEGEN
 70
     0
  9
$PSLTSCALE
 70
     1
  9
$TREEDEPTH
 70
  3020
  9
$CMLSTYLE
  2
Standard
  9
$CMLJUST
 70
     0
  9
$CMLSCALE
 40
1.0
  9
$PROXYGRAPHICS
 70
     1
  9
$MEASUREMENT
 70
     0
  9
$CELWEIGHT
370
    -1
  9
$ENDCAPS
280
     0
  9
$JOINSTYLE
280
     0
  9
$LWDISPLAY
290
     1
  9
$INSUNITS
 70
     1
  9
$HYPERLINKBASE
  1

  9
$STYLESHEET
  1

  9
$XEDIT
290
     1
  9
$CEPSNTYPE
380
     0
  9
$PSTYLEMODE
290
     1
  9
$FINGERPRINTGUID
  2
{B05D84B9-6C59-6211-76DB-95EA54C199B8}
  9
$VERSIONGUID
  2
{FAEB1C32-E019-11D5-929B-00C0DF256EC4}
  9
$EXTNAMES
290
     1
  9
$PSVPSCALE
 40
0.0
  9
$OLESTARTUP
290
     0
  9
$SORTENTS
280
   127
  9
$INDEXCTL
280
     0
  9
$HIDETEXT
280
     1
  9
$XCLIPFRAME
280
     2
  9
$HALOGAP
280
     0
  9
$OBSCOLOR
 70
   257
  9
$OBSLTYPE
280
     0
  9
$INTERSECTIONDISPLAY
280
     0
  9
$INTERSECTIONCOLOR
 70
   257
  9
$DIMASSOC
280
     2
  9
$PROJECTNAME
  1

  9
$CAMERADISPLAY
290
     0
  9
$LENSLENGTH
 40
50.0
  9
$CAMERAHEIGHT
 40
0.0
  9
$STEPSPERSEC
 40
2.0
  9
$STEPSIZE
 40
6.0
  9
$3DDWFPREC
 40
2.0
  9
$PSOLWIDTH
 40
0.25
  9
$PSOLHEIGHT
 40
4.0
  9
$LOFTANG1
 40
1.570796326794897
  9
$LOFTANG2
 40
1.570796326794897
  9
$LOFTMAG1
 40
0.0
  9
$LOFTMAG2
 40
0.0
  9
$LOFTPARAM
 70
     7
  9
$LOFTNORMALS
280
     1
  9
$LATITUDE
 40
37.795
  9
$LONGITUDE
 40
-122.394
  9
$NORTHDIRECTION
 40
0.0
  9
$TIMEZONE
 70
 -8000
  9
$LIGHTGLYPHDISPLAY
280
     1
  9
$TILEMODELIGHTSYNCH
280
     1
  9
$CMATERIAL
347
3C
  9
$SOLIDHIST
280
     1
  9
$SHOWHIST
280
     1
  9
$DWFFRAME
280
     2
  9
$DGNFRAME
280
     2
  9
$REALWORLDSCALE
290
     1
  9
$INTERFERECOLOR
 62
   256
  9
$CSHADOW
280
     0
  9
$SHADOWPLANELOCATION
 40
0.0
  0
ENDSEC
  0
SECTION
  2
CLASSES
  0
CLASS
  1
ACDBDICTIONARYWDFLT
  2
AcDbDictionaryWithDefault
  3
ObjectDBX Classes
 90
        0
 91
        4
280
     0
281
     0
  0
CLASS
  1
VISUALSTYLE
  2
AcDbVisualStyle
  3
ObjectDBX Classes
 90
     4095
 91
        4
280
     0
281
     0
  0
CLASS
  1
MATERIAL
  2
AcDbMaterial
  3
ObjectDBX Classes
 90
     1153
 91
        4
280
     0
281
     0
  0
CLASS
  1
SUN
  2
AcDbSun
  3
SCENEOE
 90
     1024
 91
        4
280
     0
281
     0
  0
ENDSEC
  0
SECTION
  2
TABLES
  0
TABLE
  2
VPORT
  5
8
330
0
100
AcDbSymbolTable
 70
     1
  0
VPORT
  5
29
330
8
100
AcDbSymbolTableRecord
100
AcDbViewportTableRecord
  2
*Active
 70
     0
 10
0.0
 20
0.0
 11
1.0
 21
1.0
 12
0.0
 22
0.0
 13
0.0
 23
0.0
 14
0.5
 24
0.5
 15
0.5
 25
0.5
 16
0.0
 26
0.0
 36
1.0
 17
91.00082462281999
 27
-128.4993055234307
 37
0.0
 40
256.9986110468615
 41
0.7081814508812795
 42
50.0
 43
0.0
 44
0.0
 50
0.0
 51
0.0
 71
     0
 72
   100
 73
     1
 74
     3
 75
     0
 76
     0
 77
     0
 78
     0
281
     0
 65
     1
110
0.0
120
0.0
130
0.0
111
1.0
121
0.0
131
0.0
112
0.0
122
1.0
132
0.0
 79
     0
146
0.0
 60
     3
 61
     5
292
     1
282
     1
141
0.0
142
0.0
 63
   250
361
3F
  0
ENDTAB
  0
TABLE
  2
LTYPE
  5
5
330
0
100
AcDbSymbolTable
 70
     1
  0
LTYPE
  5
14
330
5
100
AcDbSymbolTableRecord
100
AcDbLinetypeTableRecord
  2
ByBlock
 70
     0
  3

 72
    65
 73
     0
 40
0.0
  0
LTYPE
  5
15
330
5
100
AcDbSymbolTableRecord
100
AcDbLinetypeTableRecord
  2
ByLayer
 70
     0
  3

 72
    65
 73
     0
 40
0.0
  0
LTYPE
  5
16
330
5
100
AcDbSymbolTableRecord
100
AcDbLinetypeTableRecord
  2
Continuous
 70
     0
  3
Solid line
 72
    65
 73
     0
 40
0.0
  0
ENDTAB
  0
TABLE
  2
LAYER
  5
2
330
0
100
AcDbSymbolTable
 70
     2
  0
LAYER
  5
10
330
2
100
AcDbSymbolTableRecord
100
AcDbLayerTableRecord
  2
0
 70
     0
 62
     7
  6
Continuous
370
    -3
390
F
347
3E
  0
LAYER
  5
40
330
2
100
AcDbSymbolTableRecord
100
AcDbLayerTableRecord
  2
_U+30EC_U+30A4_U+30E4_U+30FC 1
 70
     0
 62
     7
  6
Continuous
370
    -3
390
F
347
3E
  0
ENDTAB
  0
TABLE
  2
STYLE
  5
3
330
0
100
AcDbSymbolTable
 70
     1
  0
STYLE
  5
11
330
3
100
AcDbSymbolTableRecord
100
AcDbTextStyleTableRecord
  2
Standard
 70
     0
 40
0.0
 41
1.0
 50
0.0
 71
     0
 42
0.2
  3
txt
  4

  0
ENDTAB
  0
TABLE
  2
VIEW
  5
6
330
0
100
AcDbSymbolTable
 70
     0
  0
ENDTAB
  0
TABLE
  2
UCS
  5
7
330
0
100
AcDbSymbolTable
 70
     0
  0
ENDTAB
  0
TABLE
  2
APPID
  5
9
330
0
100
AcDbSymbolTable
 70
     1
  0
APPID
  5
12
330
9
100
AcDbSymbolTableRecord
100
AcDbRegAppTableRecord
  2
ACAD
 70
     0
  0
ENDTAB
  0
TABLE
  2
DIMSTYLE
  5
A
330
0
100
AcDbSymbolTable
 70
     1
100
AcDbDimStyleTable
  0
DIMSTYLE
105
27
330
A
100
AcDbSymbolTableRecord
100
AcDbDimStyleTableRecord
  2
Standard
 70
     0
178
     0
340
11
  0
ENDTAB
  0
TABLE
  2
BLOCK_RECORD
  5
1
330
0
100
AcDbSymbolTable
 70
    10
  0
BLOCK_RECORD
  5
1F
330
1
100
AcDbSymbolTableRecord
100
AcDbBlockTableRecord
  2
*Model_Space
340
22
 70
     0
280
     1
281
     0
  0
BLOCK_RECORD
  5
1B
330
1
100
AcDbSymbolTableRecord
100
AcDbBlockTableRecord
  2
*Paper_Space
340
1E
 70
     0
280
     1
281
     0
  0
BLOCK_RECORD
  5
23
330
1
100
AcDbSymbolTableRecord
100
AcDbBlockTableRecord
  2
*Paper_Space0
340
26
 70
     0
280
     1
281
     0
  0
BLOCK_RECORD
  5
A5
330
1
100
AcDbSymbolTableRecord
100
AcDbBlockTableRecord
  2
block 2
340
0
102
{BLKREFS
331
A6
102
}
 70
     0
280
     1
281
     0
  0
BLOCK_RECORD
  5
B7
330
1
100
AcDbSymbolTableRecord
100
AcDbBlockTableRecord
  2
block 3
340
0
102
{BLKREFS
331
B8
102
}
 70
     0
280
     1
281
     0
  0
BLOCK_RECORD
  5
CD
330
1
100
AcDbSymbolTableRecord
100
AcDbBlockTableRecord
  2
block 4
340
0
102
{BLKREFS
331
CE
102
}
 70
     0
280
     1
281
     0
  0
BLOCK_RECORD
  5
DF
330
1
100
AcDbSymbolTableRecord
100
AcDbBlockTableRecord
  2
block 5
340
0
102
{BLKREFS
331
E0
102
}
 70
     0
280
     1
281
     0
  0
BLOCK_RECORD
  5
F5
330
1
100
AcDbSymbolTableRecord
100
AcDbBlockTableRecord
  2
block 6
340
0
102
{BLKREFS
331
F6
102
}
 70
     0
280
     1
281
     0
  0
BLOCK_RECORD
  5
114
330
1
100
AcDbSymbolTableRecord
100
AcDbBlockTableRecord
  2
block 7
340
0
102
{BLKREFS
331
115
102
}
 70
     0
280
     1
281
     0
  0
BLOCK_RECORD
  5
132
330
1
100
AcDbSymbolTableRecord
100
AcDbBlockTableRecord
  2
block 8
340
0
102
{BLKREFS
331
133
102
}
 70
     0
280
     1
281
     0
  0
BLOCK_RECORD
  5
15B
330
1
100
AcDbSymbolTableRecord
100
AcDbBlockTableRecord
  2
block 9
340
0
102
{BLKREFS
331
15C
102
}
 70
     0
280
     1
281
     0
  0
BLOCK_RECORD
  5
18A
330
1
100
AcDbSymbolTableRecord
100
AcDbBlockTableRecord
  2
block 10
340
0
102
{BLKREFS
331
18B
102
}
 70
     0
280
     1
281
     0
  0
ENDTAB
  0
ENDSEC
  0
SECTION
  2
BLOCKS
  0
BLOCK
  5
20
330
1F
100
AcDbEntity
  8
0
100
AcDbBlockBegin
  2
*Model_Space
 70
     0
 10
0.0
 20
0.0
 30
0.0
  3
*Model_Space
  1

  0
ENDBLK
  5
21
330
1F
100
AcDbEntity
  8
0
100
AcDbBlockEnd
  0
BLOCK
  5
1C
330
1B
100
AcDbEntity
 67
     1
  8
0
100
AcDbBlockBegin
  2
*Paper_Space
 70
     0
 10
0.0
 20
0.0
 30
0.0
  3
*Paper_Space
  1

  0
ENDBLK
  5
1D
330
1B
100
AcDbEntity
 67
     1
  8
0
100
AcDbBlockEnd
  0
BLOCK
  5
24
330
23
100
AcDbEntity
  8
0
100
AcDbBlockBegin
  2
*Paper_Space0
 70
     0
 10
0.0
 20
0.0
 30
0.0
  3
*Paper_Space0
  1

  0
ENDBLK
  5
25
330
23
100
AcDbEntity
  8
0
100
AcDbBlockEnd
  0
BLOCK
  5
A7
330
A5
100
AcDbEntity
  8
0
100
AcDbBlockBegin
  2
block 2
 70
     0
 10
0.0
 20
0.0
 30
0.0
  3
block 2
  1

  0
SPLINE
  5
A9
330
A5
100
AcDbEntity
  8
_U+30EC_U+30A4_U+30E4_U+30FC 1
370
     0
100
AcDbSpline
210
0.0
220
0.0
230
1.0
 70
    11
 71
     3
 72
    26
 73
    22
 74
     0
 42
0.0000000001
 43
0.0000000001
 12
1.0
 22
0.0
 32
0.0
 13
1.0
 23
0.0
 33
0.0
 40
0.0
 40
0.0
 40
0.0
 40
0.0
 40
1.0
 40
1.0
 40
1.0
 40
2.0
 40
2.0
 40
2.0
 40
3.0
 40
3.0
 40
3.0
 40
4.0
 40
4.0
 40
4.0
 40
5.0
 40
5.0
 40
5.0
 40
6.0
 40
6.0
 40
6.0
 40
7.0
 40
7.0
 40
7.0
 40
7.0
 10
89.58040633611185
 20
-119.8548719318418
 30
0.0
 10
89.58040633611185
 20
-119.8548719318418
 30
0.0
 10
89.34355602150092
 20
-119.8548719318418
 30
0.0
 10
89.34355602150092
 20
-119.8548719318418
 30
0.0
 10
89.36887747331751
 20
-119.5460191215892
 30
0.0
 10
89.56145831094297
 20
-119.0277045058334
 30
0.0
 10
89.96763506865393
 20
-118.5221367433729
 30
0.0
 10
89.96763506865393
 20
-118.5221367433729
 30
0.0
 10
89.12978784664116
 20
-118.5221367433729
 30
0.0
 10
89.12978784664116
 20
-118.5221367433729
 30
0.0
 10
89.12978784664116
 20
-118.5221367433729
 30
0.0
 10
89.12978784664116
 20
-118.3106078805786
 30
0.0
 10
89.12978784664116
 20
-118.3106078805786
 30
0.0
 10
89.12978784664116
 20
-118.3106078805786
 30
0.0
 10
90.20448538326485
 20
-118.3106078805786
 30
0.0
 10
90.20448538326485
 20
-118.3106078805786
 30
0.0
 10
90.20448538326485
 20
-118.3106078805786
 30
0.0
 10
90.20448538326485
 20
-118.5221367433729
 30
0.0
 10
90.20448538326485
 20
-118.5221367433729
 30
0.0
 10
89.88081866242564
 20
-118.8118692736825
 30
0.0
 10
89.61434052664156
 20
-119.4042534423712
 30
0.0
 10
89.58040633611185
 20
-119.8548719318418
 30
0.0
  0
HATCH
  5
AA
330
A5
100
AcDbEntity
  8
_U+30EC_U+30A4_U+30E4_U+30FC 1
 62
     7
420
 16777215
100
AcDbHatch
 10
0.0
 20
0.0
 30
0.0
210
0.0
220
0.0
230
1.0
  2
SOLID
 70
     1
 71
     0
 91
        1
 92
        1
 93
        1
 72
     4
 94
        3
 73
     0
 74
     1
 95
       26
 96
       22
 40
0.0
 40
0.0
 40
0.0
 40
0.0
 40
1.0
 40
1.0
 40
1.0
 40
2.0
 40
2.0
 40
2.0
 40
3.0
 40
3.0
 40
3.0
 40
4.0
 40
4.0
 40
4.0
 40
5.0
 40
5.0
 40
5.0
 40
6.0
 40
6.0
 40
6.0
 40
7.0
 40
7.0
 40
7.0
 40
7.0
 10
89.58040633611185
 20
-119.8548719318418
 10
89.58040633611185
 20
-119.8548719318418
 10
89.34355602150092
 20
-119.8548719318418
 10
89.34355602150092
 20
-119.8548719318418
 10
89.36887747331751
 20
-119.5460191215892
 10
89.56145831094297
 20
-119.0277045058334
 10
89.96763506865393
 20
-118.5221367433729
 10
89.96763506865393
 20
-118.5221367433729
 10
89.12978784664116
 20
-118.5221367433729
 10
89.12978784664116
 20
-118.5221367433729
 10
89.12978784664116
 20
-118.5221367433729
 10
89.12978784664116
 20
-118.3106078805786
 10
89.12978784664116
 20
-118.3106078805786
 10
89.12978784664116
 20
-118.3106078805786
 10
90.20448538326485
 20
-118.3106078805786
 10
90.20448538326485
 20
-118.3106078805786
 10
90.20448538326485
 20
-118.3106078805786
 10
90.20448538326485
 20
-118.5221367433729
 10
90.20448538326485
 20
-118.5221367433729
 10
89.88081866242564
 20
-118.8118692736825
 10
89.61434052664156
 20
-119.4042534423712
 10
89.58040633611185
 20
-119.8548719318418
 97
        0
 97
        0
 75
     2
 76
     1
 98
        0
  0
ENDBLK
  5
A8
330
A5
100
AcDbEntity
  8
0
100
AcDbBlockEnd
  0
BLOCK
  5
B9
330
B7
100
AcDbEntity
  8
0
100
AcDbBlockBegin
  2
block 3
 70
     0
 10
0.0
 20
0.0
 30
0.0
  3
block 3
  1

  0
SPLINE
  5
BB
330
B7
100
AcDbEntity
  8
_U+30EC_U+30A4_U+30E4_U+30FC 1
370
     0
100
AcDbSpline
210
0.0
220
0.0
230
1.0
 70
    11
 71
     3
 72
    26
 73
    22
 74
     0
 42
0.0000000001
 43
0.0000000001
 12
1.0
 22
0.0
 32
0.0
 13
1.0
 23
0.0
 33
0.0
 40
0.0
 40
0.0
 40
0.0
 40
0.0
 40
1.0
 40
1.0
 40
1.0
 40
2.0
 40
2.0
 40
2.0
 40
3.0
 40
3.0
 40
3.0
 40
4.0
 40
4.0
 40
4.0
 40
5.0
 40
5.0
 40
5.0
 40
6.0
 40
6.0
 40
6.0
 40
7.0
 40
7.0
 40
7.0
 40
7.0
 10
96.57291664252344
 20
-128.0090684358797
 30
0.0
 10
96.57291664252344
 20
-128.0090684358797
 30
0.0
 10
96.57291664252344
 20
-128.2459187504906
 30
0.0
 10
96.57291664252344
 20
-128.2459187504906
 30
0.0
 10
96.26389157749654
 20
-128.220597298674
 30
0.0
 10
95.74574921651495
 20
-128.0280164610486
 30
0.0
 10
95.24000919928028
 20
-127.6218397033376
 30
0.0
 10
95.24000919928028
 20
-127.6218397033376
 30
0.0
 10
95.24000919928028
 20
-128.4596869253504
 30
0.0
 10
95.24000919928028
 20
-128.4596869253504
 30
0.0
 10
95.24000919928028
 20
-128.4596869253504
 30
0.0
 10
95.02848033648594
 20
-128.4596869253504
 30
0.0
 10
95.02848033648594
 20
-128.4596869253504
 30
0.0
 10
95.02848033648594
 20
-128.4596869253504
 30
0.0
 10
95.02848033648594
 20
-127.3849893887267
 30
0.0
 10
95.02848033648594
 20
-127.3849893887267
 30
0.0
 10
95.02848033648594
 20
-127.3849893887267
 30
0.0
 10
95.24000919928028
 20
-127.3849893887267
 30
0.0
 10
95.24000919928028
 20
-127.3849893887267
 30
0.0
 10
95.53008623913831
 20
-127.7086561095659
 30
0.0
 10
96.12229815305277
 20
-127.97513424535
 30
0.0
 10
96.57291664252344
 20
-128.0090684358797
 30
0.0
  0
HATCH
  5
BC
330
B7
100
AcDbEntity
  8
_U+30EC_U+30A4_U+30E4_U+30FC 1
 62
     7
420
 16777215
100
AcDbHatch
 10
0.0
 20
0.0
 30
0.0
210
0.0
220
0.0
230
1.0
  2
SOLID
 70
     1
 71
     0
 91
        1
 92
        1
 93
        1
 72
     4
 94
        3
 73
     0
 74
     1
 95
       26
 96
       22
 40
0.0
 40
0.0
 40
0.0
 40
0.0
 40
1.0
 40
1.0
 40
1.0
 40
2.0
 40
2.0
 40
2.0
 40
3.0
 40
3.0
 40
3.0
 40
4.0
 40
4.0
 40
4.0
 40
5.0
 40
5.0
 40
5.0
 40
6.0
 40
6.0
 40
6.0
 40
7.0
 40
7.0
 40
7.0
 40
7.0
 10
96.57291664252344
 20
-128.0090684358797
 10
96.57291664252344
 20
-128.0090684358797
 10
96.57291664252344
 20
-128.2459187504906
 10
96.57291664252344
 20
-128.2459187504906
 10
96.26389157749654
 20
-128.220597298674
 10
95.74574921651495
 20
-128.0280164610486
 10
95.24000919928028
 20
-127.6218397033376
 10
95.24000919928028
 20
-127.6218397033376
 10
95.24000919928028
 20
-128.4596869253504
 10
95.24000919928028
 20
-128.4596869253504
 10
95.24000919928028
 20
-128.4596869253504
 10
95.02848033648594
 20
-128.4596869253504
 10
95.02848033648594
 20
-128.4596869253504
 10
95.02848033648594
 20
-128.4596869253504
 10
95.02848033648594
 20
-127.3849893887267
 10
95.02848033648594
 20
-127.3849893887267
 10
95.02848033648594
 20
-127.3849893887267
 10
95.24000919928028
 20
-127.3849893887267
 10
95.24000919928028
 20
-127.3849893887267
 10
95.53008623913831
 20
-127.7086561095659
 10
96.12229815305277
 20
-127.97513424535
 10
96.57291664252344
 20
-128.0090684358797
 97
        0
 97
        0
 75
     2
 76
     1
 98
        0
  0
ENDBLK
  5
BA
330
B7
100
AcDbEntity
  8
0
100
AcDbBlockEnd
  0
BLOCK
  5
CF
330
CD
100
AcDbEntity
  8
0
100
AcDbBlockBegin
  2
block 4
 70
     0
 10
0.0
 20
0.0
 30
0.0
  3
block 4
  1

  0
SPLINE
  5
D1
330
CD
100
AcDbEntity
  8
_U+30EC_U+30A4_U+30E4_U+30FC 1
370
     0
100
AcDbSpline
210
0.0
220
0.0
230
1.0
 70
    11
 71
     3
 72
    26
 73
    22
 74
     0
 42
0.0000000001
 43
0.0000000001
 12
1.0
 22
0.0
 32
0.0
 13
1.0
 23
0.0
 33
0.0
 40
0.0
 40
0.0
 40
0.0
 40
0.0
 40
1.0
 40
1.0
 40
1.0
 40
2.0
 40
2.0
 40
2.0
 40
3.0
 40
3.0
 40
3.0
 40
4.0
 40
4.0
 40
4.0
 40
5.0
 40
5.0
 40
5.0
 40
6.0
 40
6.0
 40
6.0
 40
7.0
 40
7.0
 40
7.0
 40
7.0
 10
89.1232421652192
 20
-127.855072667689
 30
0.0
 10
89.1232421652192
 20
-127.855072667689
 30
0.0
 10
89.1232421652192
 20
-126.7507473098922
 30
0.0
 10
89.1232421652192
 20
-126.7507473098922
 30
0.0
 10
89.1232421652192
 20
-126.7507473098922
 30
0.0
 10
88.79320201773226
 20
-126.7507473098922
 30
0.0
 10
88.79320201773226
 20
-126.7507473098922
 30
0.0
 10
88.79320201773226
 20
-126.7507473098922
 30
0.0
 10
88.79320201773226
 20
-126.6027804588007
 30
0.0
 10
88.79320201773226
 20
-126.6027804588007
 30
0.0
 10
89.12530922251034
 20
-126.5879665482141
 30
0.0
 10
89.17181801156121
 20
-126.4250135317618
 30
0.0
 10
89.20144583273436
 20
-126.3108086164258
 30
0.0
 10
89.20144583273436
 20
-126.3108086164258
 30
0.0
 10
89.34751788130896
 20
-126.3108086164258
 30
0.0
 10
89.34751788130896
 20
-126.3108086164258
 30
0.0
 10
89.34751788130896
 20
-126.3108086164258
 30
0.0
 10
89.34751788130896
 20
-127.855072667689
 30
0.0
 10
89.34751788130896
 20
-127.855072667689
 30
0.0
 10
89.34751788130896
 20
-127.855072667689
 30
0.0
 10
89.1232421652192
 20
-127.855072667689
 30
0.0
 10
89.1232421652192
 20
-127.855072667689
 30
0.0
  0
HATCH
  5
D2
330
CD
100
AcDbEntity
  8
_U+30EC_U+30A4_U+30E4_U+30FC 1
 62
     7
420
 16777215
100
AcDbHatch
 10
0.0
 20
0.0
 30
0.0
210
0.0
220
0.0
230
1.0
  2
SOLID
 70
     1
 71
     0
 91
        1
 92
        1
 93
        1
 72
     4
 94
        3
 73
     0
 74
     1
 95
       26
 96
       22
 40
0.0
 40
0.0
 40
0.0
 40
0.0
 40
1.0
 40
1.0
 40
1.0
 40
2.0
 40
2.0
 40
2.0
 40
3.0
 40
3.0
 40
3.0
 40
4.0
 40
4.0
 40
4.0
 40
5.0
 40
5.0
 40
5.0
 40
6.0
 40
6.0
 40
6.0
 40
7.0
 40
7.0
 40
7.0
 40
7.0
 10
89.1232421652192
 20
-127.855072667689
 10
89.1232421652192
 20
-127.855072667689
 10
89.1232421652192
 20
-126.7507473098922
 10
89.1232421652192
 20
-126.7507473098922
 10
89.1232421652192
 20
-126.7507473098922
 10
88.79320201773226
 20
-126.7507473098922
 10
88.79320201773226
 20
-126.7507473098922
 10
88.79320201773226
 20
-126.7507473098922
 10
88.79320201773226
 20
-126.6027804588007
 10
88.79320201773226
 20
-126.6027804588007
 10
89.12530922251034
 20
-126.5879665482141
 10
89.17181801156121
 20
-126.4250135317618
 10
89.20144583273436
 20
-126.3108086164258
 10
89.20144583273436
 20
-126.3108086164258
 10
89.34751788130896
 20
-126.3108086164258
 10
89.34751788130896
 20
-126.3108086164258
 10
89.34751788130896
 20
-126.3108086164258
 10
89.34751788130896
 20
-127.855072667689
 10
89.34751788130896
 20
-127.855072667689
 10
89.34751788130896
 20
-127.855072667689
 10
89.1232421652192
 20
-127.855072667689
 10
89.1232421652192
 20
-127.855072667689
 97
        0
 97
        0
 75
     2
 76
     1
 98
        0
  0
ENDBLK
  5
D0
330
CD
100
AcDbEntity
  8
0
100
AcDbBlockEnd
  0
BLOCK
  5
E1
330
DF
100
AcDbEntity
  8
0
100
AcDbBlockBegin
  2
block 5
 70
     0
 10
0.0
 20
0.0
 30
0.0
  3
block 5
  1

  0
SPLINE
  5
E3
330
DF
100
AcDbEntity
  8
_U+30EC_U+30A4_U+30E4_U+30FC 1
370
     0
100
AcDbSpline
210
0.0
220
0.0
230
1.0
 70
    11
 71
     3
 72
    53
 73
    49
 74
     0
 42
0.0000000001
 43
0.0000000001
 12
1.0
 22
0.0
 32
0.0
 13
1.0
 23
0.0
 33
0.0
 40
0.0
 40
0.0
 40
0.0
 40
0.0
 40
1.0
 40
1.0
 40
1.0
 40
2.0
 40
2.0
 40
2.0
 40
3.0
 40
3.0
 40
3.0
 40
4.0
 40
4.0
 40
4.0
 40
5.0
 40
5.0
 40
5.0
 40
6.0
 40
6.0
 40
6.0
 40
7.0
 40
7.0
 40
7.0
 40
8.0
 40
8.0
 40
8.0
 40
9.0
 40
9.0
 40
9.0
 40
10.0
 40
10.0
 40
10.0
 40
11.0
 40
11.0
 40
11.0
 40
12.0
 40
12.0
 40
12.0
 40
13.0
 40
13.0
 40
13.0
 40
14.0
 40
14.0
 40
14.0
 40
15.0
 40
15.0
 40
15.0
 40
16.0
 40
16.0
 40
16.0
 40
16.0
 10
76.35416800391494
 20
-141.2437472520155
 30
0.0
 10
76.29887422137668
 20
-141.1882812147029
 30
0.0
 10
76.23892955993333
 20
-141.1045653944114
 30
0.0
 10
76.21205781514838
 20
-140.9877766574614
 30
0.0
 10
76.16709931906587
 20
-140.7872721002199
 30
0.0
 10
76.24495847703251
 20
-140.6797851210801
 30
0.0
 10
76.30783146963833
 20
-140.589868128915
 30
0.0
 10
76.30783146963833
 20
-140.589868128915
 30
0.0
 10
76.46492782376572
 20
-140.7469644830424
 30
0.0
 10
76.46492782376572
 20
-140.7469644830424
 30
0.0
 10
76.36312525217659
 20
-140.926453957824
 30
0.0
 10
76.43185490710732
 20
-141.0370415229005
 30
0.0
 10
76.49782848564985
 20
-141.1028428466688
 30
0.0
 10
76.59653047130226
 20
-141.2017170870954
 30
0.0
 10
76.77446965311542
 20
-141.2392686278846
 30
0.0
 10
76.9389729625361
 20
-141.0745930636897
 30
0.0
 10
77.12001273028598
 20
-140.8937255507141
 30
0.0
 10
77.04232582709359
 20
-140.7169921523208
 30
0.0
 10
76.95705971383366
 20
-140.6318982938351
 30
0.0
 10
76.93449433840527
 20
-140.609505173181
 30
0.0
 10
76.8342420597845
 20
-140.5092528945602
 30
0.0
 10
76.68024629159383
 20
-140.5375026775392
 30
0.0
 10
76.68024629159383
 20
-140.5375026775392
 30
0.0
 10
76.56948647174305
 20
-140.4000433676778
 30
0.0
 10
76.56948647174305
 20
-140.4000433676778
 30
0.0
 10
76.56948647174305
 20
-140.4000433676778
 30
0.0
 10
77.25316567079088
 20
-139.8867241403755
 30
0.0
 10
77.25316567079088
 20
-139.8867241403755
 30
0.0
 10
77.25316567079088
 20
-139.8867241403755
 30
0.0
 10
77.80369192933381
 20
-140.4372503989185
 30
0.0
 10
77.80369192933381
 20
-140.4372503989185
 30
0.0
 10
77.80369192933381
 20
-140.4372503989185
 30
0.0
 10
77.66606036469807
 20
-140.5750542183285
 30
0.0
 10
77.66606036469807
 20
-140.5750542183285
 30
0.0
 10
77.66606036469807
 20
-140.5750542183285
 30
0.0
 10
77.23077255013675
 20
-140.1395941489929
 30
0.0
 10
77.23077255013675
 20
-140.1395941489929
 30
0.0
 10
77.23077255013675
 20
-140.1395941489929
 30
0.0
 10
76.8852294729662
 20
-140.3924641576102
 30
0.0
 10
76.8852294729662
 20
-140.3924641576102
 30
0.0
 10
76.95258108970283
 20
-140.4117566923276
 30
0.0
 10
77.03922524115687
 20
-140.4417290230493
 30
0.0
 10
77.1231133162227
 20
-140.5254448433409
 30
0.0
 10
77.30260279100422
 20
-140.7049343181224
 30
0.0
 10
77.33843178405081
 20
-141.0043131157906
 30
0.0
 10
77.11708439912351
 20
-141.2254882459436
 30
0.0
 10
76.89263642825948
 20
-141.4501084715819
 30
0.0
 10
76.56810843354894
 20
-141.457343172101
 30
0.0
 10
76.35416800391494
 20
-141.2437472520155
 30
0.0
  0
HATCH
  5
E4
330
DF
100
AcDbEntity
  8
_U+30EC_U+30A4_U+30E4_U+30FC 1
 62
     7
420
 16777215
100
AcDbHatch
 10
0.0
 20
0.0
 30
0.0
210
0.0
220
0.0
230
1.0
  2
SOLID
 70
     1
 71
     0
 91
        1
 92
        1
 93
        1
 72
     4
 94
        3
 73
     0
 74
     1
 95
       53
 96
       49
 40
0.0
 40
0.0
 40
0.0
 40
0.0
 40
1.0
 40
1.0
 40
1.0
 40
2.0
 40
2.0
 40
2.0
 40
3.0
 40
3.0
 40
3.0
 40
4.0
 40
4.0
 40
4.0
 40
5.0
 40
5.0
 40
5.0
 40
6.0
 40
6.0
 40
6.0
 40
7.0
 40
7.0
 40
7.0
 40
8.0
 40
8.0
 40
8.0
 40
9.0
 40
9.0
 40
9.0
 40
10.0
 40
10.0
 40
10.0
 40
11.0
 40
11.0
 40
11.0
 40
12.0
 40
12.0
 40
12.0
 40
13.0
 40
13.0
 40
13.0
 40
14.0
 40
14.0
 40
14.0
 40
15.0
 40
15.0
 40
15.0
 40
16.0
 40
16.0
 40
16.0
 40
16.0
 10
76.35416800391494
 20
-141.2437472520155
 10
76.29887422137668
 20
-141.1882812147029
 10
76.23892955993333
 20
-141.1045653944114
 10
76.21205781514838
 20
-140.9877766574614
 10
76.16709931906587
 20
-140.7872721002199
 10
76.24495847703251
 20
-140.6797851210801
 10
76.30783146963833
 20
-140.589868128915
 10
76.30783146963833
 20
-140.589868128915
 10
76.46492782376572
 20
-140.7469644830424
 10
76.46492782376572
 20
-140.7469644830424
 10
76.36312525217659
 20
-140.926453957824
 10
76.43185490710732
 20
-141.0370415229005
 10
76.49782848564985
 20
-141.1028428466688
 10
76.59653047130226
 20
-141.2017170870954
 10
76.77446965311542
 20
-141.2392686278846
 10
76.9389729625361
 20
-141.0745930636897
 10
77.12001273028598
 20
-140.8937255507141
 10
77.04232582709359
 20
-140.7169921523208
 10
76.95705971383366
 20
-140.6318982938351
 10
76.93449433840527
 20
-140.609505173181
 10
76.8342420597845
 20
-140.5092528945602
 10
76.68024629159383
 20
-140.5375026775392
 10
76.68024629159383
 20
-140.5375026775392
 10
76.56948647174305
 20
-140.4000433676778
 10
76.56948647174305
 20
-140.4000433676778
 10
76.56948647174305
 20
-140.4000433676778
 10
77.25316567079088
 20
-139.8867241403755
 10
77.25316567079088
 20
-139.8867241403755
 10
77.25316567079088
 20
-139.8867241403755
 10
77.80369192933381
 20
-140.4372503989185
 10
77.80369192933381
 20
-140.4372503989185
 10
77.80369192933381
 20
-140.4372503989185
 10
77.66606036469807
 20
-140.5750542183285
 10
77.66606036469807
 20
-140.5750542183285
 10
77.66606036469807
 20
-140.5750542183285
 10
77.23077255013675
 20
-140.1395941489929
 10
77.23077255013675
 20
-140.1395941489929
 10
77.23077255013675
 20
-140.1395941489929
 10
76.8852294729662
 20
-140.3924641576102
 10
76.8852294729662
 20
-140.3924641576102
 10
76.95258108970283
 20
-140.4117566923276
 10
77.03922524115687
 20
-140.4417290230493
 10
77.1231133162227
 20
-140.5254448433409
 10
77.30260279100422
 20
-140.7049343181224
 10
77.33843178405081
 20
-141.0043131157906
 10
77.11708439912351
 20
-141.2254882459436
 10
76.89263642825948
 20
-141.4501084715819
 10
76.56810843354894
 20
-141.457343172101
 10
76.35416800391494
 20
-141.2437472520155
 97
        0
 97
        0
 75
     2
 76
     1
 98
        0
  0
ENDBLK
  5
E2
330
DF
100
AcDbEntity
  8
0
100
AcDbBlockEnd
  0
BLOCK
  5
F7
330
F5
100
AcDbEntity
  8
0
100
AcDbBlockBegin
  2
block 6
 70
     0
 10
0.0
 20
0.0
 30
0.0
  3
block 6
  1

  0
SPLINE
  5
F9
330
F5
100
AcDbEntity
  8
_U+30EC_U+30A4_U+30E4_U+30FC 1
370
     0
100
AcDbSpline
210
0.0
220
0.0
230
1.0
 70
    11
 71
     3
 72
    29
 73
    25
 74
     0
 42
0.0000000001
 43
0.0000000001
 12
1.0
 22
0.0
 32
0.0
 13
1.0
 23
0.0
 33
0.0
 40
0.0
 40
0.0
 40
0.0
 40
0.0
 40
1.0
 40
1.0
 40
1.0
 40
2.0
 40
2.0
 40
2.0
 40
3.0
 40
3.0
 40
3.0
 40
4.0
 40
4.0
 40
4.0
 40
5.0
 40
5.0
 40
5.0
 40
6.0
 40
6.0
 40
6.0
 40
7.0
 40
7.0
 40
7.0
 40
8.0
 40
8.0
 40
8.0
 40
8.0
 10
83.25314396790199
 20
-114.4769056245926
 30
0.0
 10
83.14496796966515
 20
-114.6863674300958
 30
0.0
 10
82.97167966675708
 20
-114.7054877100389
 30
0.0
 10
82.85523543935564
 20
-114.7054877100389
 30
0.0
 10
82.69434948019448
 20
-114.7054877100389
 30
0.0
 10
82.5527560557507
 20
-114.658978920988
 30
0.0
 10
82.45767142035781
 20
-114.4769056245926
 30
0.0
 10
82.35397404625179
 20
-114.2824299844502
 30
0.0
 10
82.33468151153438
 20
-114.045407415065
 30
0.0
 10
82.33468151153438
 20
-113.8824543986127
 30
0.0
 10
82.33468151153438
 20
-113.7386216621035
 30
0.0
 10
82.35190698896064
 20
-113.486957436906
 30
0.0
 10
82.45767142035781
 20
-113.2880031726329
 30
0.0
 10
82.56550290904613
 20
-113.0849147937774
 30
0.0
 10
82.7263888682073
 20
-113.0616603992519
 30
0.0
 10
82.85523543935564
 20
-113.0616603992519
 30
0.0
 10
83.01405434122566
 20
-113.0616603992519
 30
0.0
 10
83.15771482296057
 20
-113.1061021310117
 30
0.0
 10
83.25314396790199
 20
-113.2880031726329
 30
0.0
 10
83.35236271787718
 20
-113.4805840102583
 30
0.0
 10
83.37578936717689
 20
-113.7089938409304
 30
0.0
 10
83.37578936717689
 20
-113.8824543986127
 30
0.0
 10
83.37578936717689
 20
-114.0538478990039
 30
0.0
 10
83.35442977516834
 20
-114.2844970417414
 30
0.0
 10
83.25314396790199
 20
-114.4769056245926
 30
0.0
  0
SPLINE
  5
FA
330
F5
100
AcDbEntity
  8
_U+30EC_U+30A4_U+30E4_U+30FC 1
370
     0
100
AcDbSpline
210
0.0
220
0.0
230
1.0
 70
    11
 71
     3
 72
    17
 73
    13
 74
     0
 42
0.0000000001
 43
0.0000000001
 12
1.0
 22
0.0
 32
0.0
 13
1.0
 23
0.0
 33
0.0
 40
0.0
 40
0.0
 40
0.0
 40
0.0
 40
1.0
 40
1.0
 40
1.0
 40
2.0
 40
2.0
 40
2.0
 40
3.0
 40
3.0
 40
3.0
 40
4.0
 40
4.0
 40
4.0
 40
4.0
 10
82.85523543935564
 20
-113.2542412368774
 30
0.0
 10
82.60546601667502
 20
-113.2542412368774
 30
0.0
 10
82.55895722762415
 20
-113.5376003405392
 30
0.0
 10
82.55895722762415
 20
-113.8824543986127
 30
0.0
 10
82.55895722762415
 20
-114.2019870048697
 30
0.0
 10
82.59513073021928
 20
-114.5108398151223
 30
0.0
 10
82.85523543935564
 20
-114.5108398151223
 30
0.0
 10
83.1029378047451
 20
-114.5108398151223
 30
0.0
 10
83.15151365108713
 20
-114.2293755139774
 30
0.0
 10
83.15151365108713
 20
-113.8824543986127
 30
0.0
 10
83.15151365108713
 20
-113.5630940471301
 30
0.0
 10
83.11327309120085
 20
-113.2542412368774
 30
0.0
 10
82.85523543935564
 20
-113.2542412368774
 30
0.0
  0
HATCH
  5
FB
330
F5
100
AcDbEntity
  8
_U+30EC_U+30A4_U+30E4_U+30FC 1
 62
     7
420
 16777215
100
AcDbHatch
 10
0.0
 20
0.0
 30
0.0
210
0.0
220
0.0
230
1.0
  2
SOLID
 70
     1
 71
     0
 91
        2
 92
        1
 93
        1
 72
     4
 94
        3
 73
     0
 74
     1
 95
       29
 96
       25
 40
0.0
 40
0.0
 40
0.0
 40
0.0
 40
1.0
 40
1.0
 40
1.0
 40
2.0
 40
2.0
 40
2.0
 40
3.0
 40
3.0
 40
3.0
 40
4.0
 40
4.0
 40
4.0
 40
5.0
 40
5.0
 40
5.0
 40
6.0
 40
6.0
 40
6.0
 40
7.0
 40
7.0
 40
7.0
 40
8.0
 40
8.0
 40
8.0
 40
8.0
 10
83.25314396790199
 20
-114.4769056245926
 10
83.14496796966515
 20
-114.6863674300958
 10
82.97167966675708
 20
-114.7054877100389
 10
82.85523543935564
 20
-114.7054877100389
 10
82.69434948019448
 20
-114.7054877100389
 10
82.5527560557507
 20
-114.658978920988
 10
82.45767142035781
 20
-114.4769056245926
 10
82.35397404625179
 20
-114.2824299844502
 10
82.33468151153438
 20
-114.045407415065
 10
82.33468151153438
 20
-113.8824543986127
 10
82.33468151153438
 20
-113.7386216621035
 10
82.35190698896064
 20
-113.486957436906
 10
82.45767142035781
 20
-113.2880031726329
 10
82.56550290904613
 20
-113.0849147937774
 10
82.7263888682073
 20
-113.0616603992519
 10
82.85523543935564
 20
-113.0616603992519
 10
83.01405434122566
 20
-113.0616603992519
 10
83.15771482296057
 20
-113.1061021310117
 10
83.25314396790199
 20
-113.2880031726329
 10
83.35236271787718
 20
-113.4805840102583
 10
83.37578936717689
 20
-113.7089938409304
 10
83.37578936717689
 20
-113.8824543986127
 10
83.37578936717689
 20
-114.0538478990039
 10
83.35442977516834
 20
-114.2844970417414
 10
83.25314396790199
 20
-114.4769056245926
 97
        0
 97
        0
 92
        1
 93
        1
 72
     4
 94
        3
 73
     0
 74
     1
 95
       17
 96
       13
 40
0.0
 40
0.0
 40
0.0
 40
0.0
 40
1.0
 40
1.0
 40
1.0
 40
2.0
 40
2.0
 40
2.0
 40
3.0
 40
3.0
 40
3.0
 40
4.0
 40
4.0
 40
4.0
 40
4.0
 10
82.85523543935564
 20
-113.2542412368774
 10
82.60546601667502
 20
-113.2542412368774
 10
82.55895722762415
 20
-113.5376003405392
 10
82.55895722762415
 20
-113.8824543986127
 10
82.55895722762415
 20
-114.2019870048697
 10
82.59513073021928
 20
-114.5108398151223
 10
82.85523543935564
 20
-114.5108398151223
 10
83.1029378047451
 20
-114.5108398151223
 10
83.15151365108713
 20
-114.2293755139774
 10
83.15151365108713
 20
-113.8824543986127
 10
83.15151365108713
 20
-113.5630940471301
 10
83.11327309120085
 20
-113.2542412368774
 10
82.85523543935564
 20
-113.2542412368774
 97
        0
 97
        0
 75
     2
 76
     1
 98
        0
  0
POLYLINE
  5
FC
330
F5
100
AcDbEntity
  8
_U+30EC_U+30A4_U+30E4_U+30FC 1
370
     0
100
AcDb2dPolyline
 66
     1
 10
0.0
 20
0.0
 30
0.0
  0
VERTEX
  5
FD
330
FC
100
AcDbEntity
  8
_U+30EC_U+30A4_U+30E4_U+30FC 1
370
     0
100
AcDbVertex
100
AcDb2dVertex
 10
83.59214136365058
 20
-114.6546725516315
 30
0.0
  0
VERTEX
  5
FE
330
FC
100
AcDbEntity
  8
_U+30EC_U+30A4_U+30E4_U+30FC 1
370
     0
100
AcDbVertex
100
AcDb2dVertex
 10
83.59214136365058
 20
-114.403008326434
 30
0.0
  0
VERTEX
  5
FF
330
FC
100
AcDbEntity
  8
_U+30EC_U+30A4_U+30E4_U+30FC 1
370
     0
100
AcDbVertex
100
AcDb2dVertex
 10
83.84397784362234
 20
-114.403008326434
 30
0.0
  0
VERTEX
  5
100
330
FC
100
AcDbEntity
  8
_U+30EC_U+30A4_U+30E4_U+30FC 1
370
     0
100
AcDbVertex
100
AcDb2dVertex
 10
83.84397784362234
 20
-114.6546725516315
 30
0.0
  0
VERTEX
  5
101
330
FC
100
AcDbEntity
  8
_U+30EC_U+30A4_U+30E4_U+30FC 1
370
     0
100
AcDbVertex
100
AcDb2dVertex
 10
83.59214136365058
 20
-114.6546725516315
 30
0.0
  0
SEQEND
  5
102
330
FC
100
AcDbEntity
  8
_U+30EC_U+30A4_U+30E4_U+30FC 1
370
     0
  0
HATCH
  5
103
330
F5
100
AcDbEntity
  8
_U+30EC_U+30A4_U+30E4_U+30FC 1
 62
     7
420
 16777215
100
AcDbHatch
 10
0.0
 20
0.0
 30
0.0
210
0.0
220
0.0
230
1.0
  2
SOLID
 70
     1
 71
     0
 91
        1
 92
        1
 93
        4
 72
     1
 10
83.59214136365058
 20
-114.6546725516315
 11
83.59214136365058
 21
-114.403008326434
 72
     1
 10
83.59214136365058
 20
-114.403008326434
 11
83.84397784362234
 21
-114.403008326434
 72
     1
 10
83.84397784362234
 20
-114.403008326434
 11
83.84397784362234
 21
-114.6546725516315
 72
     1
 10
83.84397784362234
 20
-114.6546725516315
 11
83.59214136365058
 21
-114.6546725516315
 97
        0
 75
     2
 76
     1
 98
        0
  0
SPLINE
  5
104
330
F5
100
AcDbEntity
  8
_U+30EC_U+30A4_U+30E4_U+30FC 1
370
     0
100
AcDbSpline
210
0.0
220
0.0
230
1.0
 70
    11
 71
     3
 72
    29
 73
    25
 74
     0
 42
0.0000000001
 43
0.0000000001
 12
1.0
 22
0.0
 32
0.0
 13
1.0
 23
0.0
 33
0.0
 40
0.0
 40
0.0
 40
0.0
 40
0.0
 40
1.0
 40
1.0
 40
1.0
 40
2.0
 40
2.0
 40
2.0
 40
3.0
 40
3.0
 40
3.0
 40
4.0
 40
4.0
 40
4.0
 40
5.0
 40
5.0
 40
5.0
 40
6.0
 40
6.0
 40
6.0
 40
7.0
 40
7.0
 40
7.0
 40
8.0
 40
8.0
 40
8.0
 40
8.0
 10
84.58019474882023
 20
-114.7054877100389
 30
0.0
 10
84.3135443582619
 20
-114.7054877100389
 30
0.0
 10
84.0599853305475
 20
-114.5678561454032
 30
0.0
 10
84.0599853305475
 20
-114.2188679727474
 30
0.0
 10
84.0599853305475
 20
-113.9628973781933
 30
0.0
 10
84.20157875499127
 20
-113.8676404880262
 30
0.0
 10
84.30734318638845
 20
-113.8063177883887
 30
0.0
 10
84.1826307298224
 20
-113.7470621460424
 30
0.0
 10
84.10649411959838
 20
-113.6328572307064
 30
0.0
 10
84.10649411959838
 20
-113.4721435263195
 30
0.0
 10
84.10649411959838
 20
-113.1970526518223
 30
0.0
 10
84.3052761290973
 20
-113.0616603992519
 30
0.0
 10
84.58019474882023
 20
-113.0616603992519
 30
0.0
 10
84.8637261072563
 20
-113.0616603992519
 30
0.0
 10
85.05423988759061
 20
-113.2054931357611
 30
0.0
 10
85.05423988759061
 20
-113.4721435263195
 30
0.0
 10
85.05423988759061
 20
-113.6328572307064
 30
0.0
 10
84.97569171052692
 20
-113.7470621460424
 30
0.0
 10
84.85097925396087
 20
-113.8063177883887
 30
0.0
 10
84.93986271748031
 20
-113.8571329467961
 30
0.0
 10
85.09868161935033
 20
-113.9523898369633
 30
0.0
 10
85.09868161935033
 20
-114.2145616033908
 30
0.0
 10
85.09868161935033
 20
-114.5890434826375
 30
0.0
 10
84.81928437549657
 20
-114.7054877100389
 30
0.0
 10
84.58019474882023
 20
-114.7054877100389
 30
0.0
  0
SPLINE
  5
105
330
F5
100
AcDbEntity
  8
_U+30EC_U+30A4_U+30E4_U+30FC 1
370
     0
100
AcDbSpline
210
0.0
220
0.0
230
1.0
 70
    11
 71
     3
 72
    17
 73
    13
 74
     0
 42
0.0000000001
 43
0.0000000001
 12
1.0
 22
0.0
 32
0.0
 13
1.0
 23
0.0
 33
0.0
 40
0.0
 40
0.0
 40
0.0
 40
0.0
 40
1.0
 40
1.0
 40
1.0
 40
2.0
 40
2.0
 40
2.0
 40
3.0
 40
3.0
 40
3.0
 40
4.0
 40
4.0
 40
4.0
 40
4.0
 10
84.58019474882023
 20
-113.9143215318513
 30
0.0
 10
84.43653426708532
 20
-113.9143215318513
 30
0.0
 10
84.28391653708874
 20
-114.0009656833053
 30
0.0
 10
84.28391653708874
 20
-114.2040540621608
 30
0.0
 10
84.28391653708874
 20
-114.4092094983074
 30
0.0
 10
84.41104056049447
 20
-114.5108398151223
 30
0.0
 10
84.58019474882023
 20
-114.5108398151223
 30
0.0
 10
84.76622990502372
 20
-114.5108398151223
 30
0.0
 10
84.87647296055172
 20
-114.3881944158474
 30
0.0
 10
84.87647296055172
 20
-114.2104274888085
 30
0.0
 10
84.87647296055172
 20
-113.9882188300099
 30
0.0
 10
84.7135199440994
 20
-113.9143215318513
 30
0.0
 10
84.58019474882023
 20
-113.9143215318513
 30
0.0
  0
SPLINE
  5
106
330
F5
100
AcDbEntity
  8
_U+30EC_U+30A4_U+30E4_U+30FC 1
370
     0
100
AcDbSpline
210
0.0
220
0.0
230
1.0
 70
    11
 71
     3
 72
    17
 73
    13
 74
     0
 42
0.0000000001
 43
0.0000000001
 12
1.0
 22
0.0
 32
0.0
 13
1.0
 23
0.0
 33
0.0
 40
0.0
 40
0.0
 40
0.0
 40
0.0
 40
1.0
 40
1.0
 40
1.0
 40
2.0
 40
2.0
 40
2.0
 40
3.0
 40
3.0
 40
3.0
 40
4.0
 40
4.0
 40
4.0
 40
4.0
 10
84.58019474882023
 20
-113.2542412368774
 30
0.0
 10
84.41517467507677
 20
-113.2542412368774
 30
0.0
 10
84.33076983568814
 20
-113.3493258722703
 30
0.0
 10
84.33076983568814
 20
-113.4847181248406
 30
0.0
 10
84.33076983568814
 20
-113.6075357788898
 30
0.0
 10
84.40242782178134
 20
-113.7260470635824
 30
0.0
 10
84.58019474882023
 20
-113.7260470635824
 30
0.0
 10
84.75796167585912
 20
-113.7260470635824
 30
0.0
 10
84.82996417150085
 20
-113.6075357788898
 30
0.0
 10
84.82996417150085
 20
-113.4847181248406
 30
0.0
 10
84.82996417150085
 20
-113.3493258722703
 30
0.0
 10
84.74314776527255
 20
-113.2542412368774
 30
0.0
 10
84.58019474882023
 20
-113.2542412368774
 30
0.0
  0
HATCH
  5
107
330
F5
100
AcDbEntity
  8
_U+30EC_U+30A4_U+30E4_U+30FC 1
 62
     7
420
 16777215
100
AcDbHatch
 10
0.0
 20
0.0
 30
0.0
210
0.0
220
0.0
230
1.0
  2
SOLID
 70
     1
 71
     0
 91
        3
 92
        1
 93
        1
 72
     4
 94
        3
 73
     0
 74
     1
 95
       29
 96
       25
 40
0.0
 40
0.0
 40
0.0
 40
0.0
 40
1.0
 40
1.0
 40
1.0
 40
2.0
 40
2.0
 40
2.0
 40
3.0
 40
3.0
 40
3.0
 40
4.0
 40
4.0
 40
4.0
 40
5.0
 40
5.0
 40
5.0
 40
6.0
 40
6.0
 40
6.0
 40
7.0
 40
7.0
 40
7.0
 40
8.0
 40
8.0
 40
8.0
 40
8.0
 10
84.58019474882023
 20
-114.7054877100389
 10
84.3135443582619
 20
-114.7054877100389
 10
84.0599853305475
 20
-114.5678561454032
 10
84.0599853305475
 20
-114.2188679727474
 10
84.0599853305475
 20
-113.9628973781933
 10
84.20157875499127
 20
-113.8676404880262
 10
84.30734318638845
 20
-113.8063177883887
 10
84.1826307298224
 20
-113.7470621460424
 10
84.10649411959838
 20
-113.6328572307064
 10
84.10649411959838
 20
-113.4721435263195
 10
84.10649411959838
 20
-113.1970526518223
 10
84.3052761290973
 20
-113.0616603992519
 10
84.58019474882023
 20
-113.0616603992519
 10
84.8637261072563
 20
-113.0616603992519
 10
85.05423988759061
 20
-113.2054931357611
 10
85.05423988759061
 20
-113.4721435263195
 10
85.05423988759061
 20
-113.6328572307064
 10
84.97569171052692
 20
-113.7470621460424
 10
84.85097925396087
 20
-113.8063177883887
 10
84.93986271748031
 20
-113.8571329467961
 10
85.09868161935033
 20
-113.9523898369633
 10
85.09868161935033
 20
-114.2145616033908
 10
85.09868161935033
 20
-114.5890434826375
 10
84.81928437549657
 20
-114.7054877100389
 10
84.58019474882023
 20
-114.7054877100389
 97
        0
 97
        0
 92
        1
 93
        1
 72
     4
 94
        3
 73
     0
 74
     1
 95
       17
 96
       13
 40
0.0
 40
0.0
 40
0.0
 40
0.0
 40
1.0
 40
1.0
 40
1.0
 40
2.0
 40
2.0
 40
2.0
 40
3.0
 40
3.0
 40
3.0
 40
4.0
 40
4.0
 40
4.0
 40
4.0
 10
84.58019474882023
 20
-113.9143215318513
 10
84.43653426708532
 20
-113.9143215318513
 10
84.28391653708874
 20
-114.0009656833053
 10
84.28391653708874
 20
-114.2040540621608
 10
84.28391653708874
 20
-114.4092094983074
 10
84.41104056049447
 20
-114.5108398151223
 10
84.58019474882023
 20
-114.5108398151223
 10
84.76622990502372
 20
-114.5108398151223
 10
84.87647296055172
 20
-114.3881944158474
 10
84.87647296055172
 20
-114.2104274888085
 10
84.87647296055172
 20
-113.9882188300099
 10
84.7135199440994
 20
-113.9143215318513
 10
84.58019474882023
 20
-113.9143215318513
 97
        0
 97
        0
 92
        1
 93
        1
 72
     4
 94
        3
 73
     0
 74
     1
 95
       17
 96
       13
 40
0.0
 40
0.0
 40
0.0
 40
0.0
 40
1.0
 40
1.0
 40
1.0
 40
2.0
 40
2.0
 40
2.0
 40
3.0
 40
3.0
 40
3.0
 40
4.0
 40
4.0
 40
4.0
 40
4.0
 10
84.58019474882023
 20
-113.2542412368774
 10
84.41517467507677
 20
-113.2542412368774
 10
84.33076983568814
 20
-113.3493258722703
 10
84.33076983568814
 20
-113.4847181248406
 10
84.33076983568814
 20
-113.6075357788898
 10
84.40242782178134
 20
-113.7260470635824
 10
84.58019474882023
 20
-113.7260470635824
 10
84.75796167585912
 20
-113.7260470635824
 10
84.82996417150085
 20
-113.6075357788898
 10
84.82996417150085
 20
-113.4847181248406
 10
84.82996417150085
 20
-113.3493258722703
 10
84.74314776527255
 20
-113.2542412368774
 10
84.58019474882023
 20
-113.2542412368774
 97
        0
 97
        0
 75
     2
 76
     1
 98
        0
  0
ENDBLK
  5
F8
330
F5
100
AcDbEntity
  8
0
100
AcDbBlockEnd
  0
BLOCK
  5
116
330
114
100
AcDbEntity
  8
0
100
AcDbBlockBegin
  2
block 7
 70
     0
 10
0.0
 20
0.0
 30
0.0
  3
block 7
  1

  0
SPLINE
  5
118
330
114
100
AcDbEntity
  8
_U+30EC_U+30A4_U+30E4_U+30FC 1
370
     0
100
AcDbSpline
210
0.0
220
0.0
230
1.0
 70
    11
 71
     3
 72
    44
 73
    40
 74
     0
 42
0.0000000001
 43
0.0000000001
 12
1.0
 22
0.0
 32
0.0
 13
1.0
 23
0.0
 33
0.0
 40
0.0
 40
0.0
 40
0.0
 40
0.0
 40
1.0
 40
1.0
 40
1.0
 40
2.0
 40
2.0
 40
2.0
 40
3.0
 40
3.0
 40
3.0
 40
4.0
 40
4.0
 40
4.0
 40
5.0
 40
5.0
 40
5.0
 40
6.0
 40
6.0
 40
6.0
 40
7.0
 40
7.0
 40
7.0
 40
8.0
 40
8.0
 40
8.0
 40
9.0
 40
9.0
 40
9.0
 40
10.0
 40
10.0
 40
10.0
 40
11.0
 40
11.0
 40
11.0
 40
12.0
 40
12.0
 40
12.0
 40
13.0
 40
13.0
 40
13.0
 40
13.0
 10
90.38001299823833
 20
-140.5733316705858
 30
0.0
 10
90.16228296357055
 20
-140.7321505724559
 30
0.0
 10
90.0692653854688
 20
-140.8062201253887
 30
0.0
 10
90.02034502957825
 20
-140.9498806071236
 30
0.0
 10
90.02034502957825
 20
-140.9498806071236
 30
0.0
 10
90.79893660924472
 20
-140.9498806071236
 30
0.0
 10
90.79893660924472
 20
-140.9498806071236
 30
0.0
 10
90.79893660924472
 20
-140.9498806071236
 30
0.0
 10
90.79893660924472
 20
-141.1552082980445
 30
0.0
 10
90.79893660924472
 20
-141.1552082980445
 30
0.0
 10
90.79893660924472
 20
-141.1552082980445
 30
0.0
 10
89.77092011644616
 20
-141.1552082980445
 30
0.0
 10
89.77092011644616
 20
-141.1552082980445
 30
0.0
 10
89.80261499491046
 20
-140.7976073866756
 30
0.0
 10
89.86807180913021
 20
-140.7194037191604
 30
0.0
 10
90.25323348438114
 20
-140.4210584501378
 30
0.0
 10
90.5092040789352
 20
-140.2222764406389
 30
0.0
 10
90.57466089315496
 20
-140.1544080595795
 30
0.0
 10
90.57466089315496
 20
-140.016948749718
 30
0.0
 10
90.57466089315496
 20
-139.8984374650254
 30
0.0
 10
90.50265839751323
 20
-139.7675238365859
 30
0.0
 10
90.30594344530546
 20
-139.7675238365859
 30
0.0
 10
90.0458387361691
 20
-139.7675238365859
 30
0.0
 10
90.03722599745598
 20
-139.9980007245491
 30
0.0
 10
90.03309188287368
 20
-140.1144449519506
 30
0.0
 10
90.03309188287368
 20
-140.1144449519506
 30
0.0
 10
89.80881616678391
 20
-140.1144449519506
 30
0.0
 10
89.80881616678391
 20
-140.1144449519506
 30
0.0
 10
89.81742890549704
 20
-139.9873209285448
 30
0.0
 10
89.82810870150131
 20
-139.8753553252742
 30
0.0
 10
89.90837942630763
 20
-139.7568440405816
 30
0.0
 10
90.0182779722871
 20
-139.5959580814205
 30
0.0
 10
90.20465763803912
 20
-139.562196145665
 30
0.0
 10
90.32075735589204
 20
-139.562196145665
 30
0.0
 10
90.59808754245465
 20
-139.562196145665
 30
0.0
 10
90.80548229066669
 20
-139.7461642445774
 30
0.0
 10
90.80548229066669
 20
-140.0190158070091
 30
0.0
 10
90.80548229066669
 20
-140.2477701472297
 30
0.0
 10
90.68903806326524
 20
-140.3469888972049
 30
0.0
 10
90.38001299823833
 20
-140.5733316705858
 30
0.0
  0
HATCH
  5
119
330
114
100
AcDbEntity
  8
_U+30EC_U+30A4_U+30E4_U+30FC 1
 62
     7
420
 16777215
100
AcDbHatch
 10
0.0
 20
0.0
 30
0.0
210
0.0
220
0.0
230
1.0
  2
SOLID
 70
     1
 71
     0
 91
        1
 92
        1
 93
        1
 72
     4
 94
        3
 73
     0
 74
     1
 95
       44
 96
       40
 40
0.0
 40
0.0
 40
0.0
 40
0.0
 40
1.0
 40
1.0
 40
1.0
 40
2.0
 40
2.0
 40
2.0
 40
3.0
 40
3.0
 40
3.0
 40
4.0
 40
4.0
 40
4.0
 40
5.0
 40
5.0
 40
5.0
 40
6.0
 40
6.0
 40
6.0
 40
7.0
 40
7.0
 40
7.0
 40
8.0
 40
8.0
 40
8.0
 40
9.0
 40
9.0
 40
9.0
 40
10.0
 40
10.0
 40
10.0
 40
11.0
 40
11.0
 40
11.0
 40
12.0
 40
12.0
 40
12.0
 40
13.0
 40
13.0
 40
13.0
 40
13.0
 10
90.38001299823833
 20
-140.5733316705858
 10
90.16228296357055
 20
-140.7321505724559
 10
90.0692653854688
 20
-140.8062201253887
 10
90.02034502957825
 20
-140.9498806071236
 10
90.02034502957825
 20
-140.9498806071236
 10
90.79893660924472
 20
-140.9498806071236
 10
90.79893660924472
 20
-140.9498806071236
 10
90.79893660924472
 20
-140.9498806071236
 10
90.79893660924472
 20
-141.1552082980445
 10
90.79893660924472
 20
-141.1552082980445
 10
90.79893660924472
 20
-141.1552082980445
 10
89.77092011644616
 20
-141.1552082980445
 10
89.77092011644616
 20
-141.1552082980445
 10
89.80261499491046
 20
-140.7976073866756
 10
89.86807180913021
 20
-140.7194037191604
 10
90.25323348438114
 20
-140.4210584501378
 10
90.5092040789352
 20
-140.2222764406389
 10
90.57466089315496
 20
-140.1544080595795
 10
90.57466089315496
 20
-140.016948749718
 10
90.57466089315496
 20
-139.8984374650254
 10
90.50265839751323
 20
-139.7675238365859
 10
90.30594344530546
 20
-139.7675238365859
 10
90.0458387361691
 20
-139.7675238365859
 10
90.03722599745598
 20
-139.9980007245491
 10
90.03309188287368
 20
-140.1144449519506
 10
90.03309188287368
 20
-140.1144449519506
 10
89.80881616678391
 20
-140.1144449519506
 10
89.80881616678391
 20
-140.1144449519506
 10
89.81742890549704
 20
-139.9873209285448
 10
89.82810870150131
 20
-139.8753553252742
 10
89.90837942630763
 20
-139.7568440405816
 10
90.0182779722871
 20
-139.5959580814205
 10
90.20465763803912
 20
-139.562196145665
 10
90.32075735589204
 20
-139.562196145665
 10
90.59808754245465
 20
-139.562196145665
 10
90.80548229066669
 20
-139.7461642445774
 10
90.80548229066669
 20
-140.0190158070091
 10
90.80548229066669
 20
-140.2477701472297
 10
90.68903806326524
 20
-140.3469888972049
 10
90.38001299823833
 20
-140.5733316705858
 97
        0
 97
        0
 75
     2
 76
     1
 98
        0
  0
SPLINE
  5
11A
330
114
100
AcDbEntity
  8
_U+30EC_U+30A4_U+30E4_U+30FC 1
370
     0
100
AcDbSpline
210
0.0
220
0.0
230
1.0
 70
    11
 71
     3
 72
    62
 73
    58
 74
     0
 42
0.0000000001
 43
0.0000000001
 12
1.0
 22
0.0
 32
0.0
 13
1.0
 23
0.0
 33
0.0
 40
0.0
 40
0.0
 40
0.0
 40
0.0
 40
1.0
 40
1.0
 40
1.0
 40
2.0
 40
2.0
 40
2.0
 40
3.0
 40
3.0
 40
3.0
 40
4.0
 40
4.0
 40
4.0
 40
5.0
 40
5.0
 40
5.0
 40
6.0
 40
6.0
 40
6.0
 40
7.0
 40
7.0
 40
7.0
 40
8.0
 40
8.0
 40
8.0
 40
9.0
 40
9.0
 40
9.0
 40
10.0
 40
10.0
 40
10.0
 40
11.0
 40
11.0
 40
11.0
 40
12.0
 40
12.0
 40
12.0
 40
13.0
 40
13.0
 40
13.0
 40
14.0
 40
14.0
 40
14.0
 40
15.0
 40
15.0
 40
15.0
 40
16.0
 40
16.0
 40
16.0
 40
17.0
 40
17.0
 40
17.0
 40
18.0
 40
18.0
 40
18.0
 40
19.0
 40
19.0
 40
19.0
 40
19.0
 10
91.45557180873334
 20
-141.2058512016777
 30
0.0
 10
91.36014266379192
 20
-141.2058512016777
 30
0.0
 10
91.14241262912412
 20
-141.1848361192177
 30
0.0
 10
91.01735566300955
 20
-140.9988009630142
 30
0.0
 10
90.94328611007668
 20
-140.8864908501951
 30
0.0
 10
90.93915199549438
 20
-140.7872721002199
 30
0.0
 10
90.93501788091208
 20
-140.7025227512827
 30
0.0
 10
90.93501788091208
 20
-140.7025227512827
 30
0.0
 10
91.15515948241955
 20
-140.7025227512827
 30
0.0
 10
91.15515948241955
 20
-140.7025227512827
 30
0.0
 10
91.15722653971069
 20
-140.7765923042156
 30
0.0
 10
91.16756182616645
 20
-141.0112033067611
 30
0.0
 10
91.45109318460251
 20
-141.0112033067611
 30
0.0
 10
91.58855249446398
 20
-141.0112033067611
 30
0.0
 10
91.74117022446055
 20
-140.941612377959
 30
0.0
 10
91.74117022446055
 20
-140.713202547287
 30
0.0
 10
91.74117022446055
 20
-140.5967583198855
 30
0.0
 10
91.70292966457427
 20
-140.5481824735435
 30
0.0
 10
91.67123478610998
 20
-140.5164875950792
 30
0.0
 10
91.59716523317711
 20
-140.4424180421464
 30
0.0
 10
91.48072100577566
 20
-140.4296711888509
 30
0.0
 10
91.42594398756019
 20
-140.4296711888509
 30
0.0
 10
91.40665145284278
 20
-140.4296711888509
 30
0.0
 10
91.37082245979619
 20
-140.4317382461421
 30
0.0
 10
91.3432616959142
 20
-140.4358723607244
 30
0.0
 10
91.3432616959142
 20
-140.4358723607244
 30
0.0
 10
91.3432616959142
 20
-140.2412244658078
 30
0.0
 10
91.3432616959142
 20
-140.2412244658078
 30
0.0
 10
91.38150225580046
 20
-140.2477701472297
 30
0.0
 10
91.4235324207205
 20
-140.2498372045209
 30
0.0
 10
91.43007810214249
 20
-140.2498372045209
 30
0.0
 10
91.49553491636223
 20
-140.2498372045209
 30
0.0
 10
91.69431692586114
 20
-140.2284776125123
 30
0.0
 10
91.69431692586114
 20
-139.9917995526757
 30
0.0
 10
91.69431692586114
 20
-139.8140326256368
 30
0.0
 10
91.56340329742166
 20
-139.7589110978728
 30
0.0
 10
91.45316024189366
 20
-139.7589110978728
 30
0.0
 10
91.188921418175
 20
-139.7589110978728
 30
0.0
 10
91.18030867946187
 20
-139.9917995526757
 30
0.0
 10
91.17617456487957
 20
-140.0634575387689
 30
0.0
 10
91.17617456487957
 20
-140.0634575387689
 30
0.0
 10
90.97291393124983
 20
-140.0634575387689
 30
0.0
 10
90.97291393124983
 20
-140.0634575387689
 30
0.0
 10
90.98152666996296
 20
-139.9387450822028
 30
0.0
 10
91.00908743384495
 20
-139.562196145665
 30
0.0
 10
91.46590709518908
 20
-139.562196145665
 30
0.0
 10
91.69018281127885
 20
-139.562196145665
 30
0.0
 10
91.93133949524633
 20
-139.6893201690707
 30
0.0
 10
91.93133949524633
 20
-139.9852538712537
 30
0.0
 10
91.93133949524633
 20
-140.1716335370057
 30
0.0
 10
91.83625485985344
 20
-140.2539713191032
 30
0.0
 10
91.73669160032972
 20
-140.3152940187406
 30
0.0
 10
91.79801429996716
 20
-140.3428547826226
 30
0.0
 10
91.97991534158835
 20
-140.4231255074289
 30
0.0
 10
91.97991534158835
 20
-140.7004556939916
 30
0.0
 10
91.97991534158835
 20
-141.0387640706431
 30
0.0
 10
91.73255748574742
 20
-141.2058512016777
 30
0.0
 10
91.45557180873334
 20
-141.2058512016777
 30
0.0
  0
HATCH
  5
11B
330
114
100
AcDbEntity
  8
_U+30EC_U+30A4_U+30E4_U+30FC 1
 62
     7
420
 16777215
100
AcDbHatch
 10
0.0
 20
0.0
 30
0.0
210
0.0
220
0.0
230
1.0
  2
SOLID
 70
     1
 71
     0
 91
        1
 92
        1
 93
        1
 72
     4
 94
        3
 73
     0
 74
     1
 95
       62
 96
       58
 40
0.0
 40
0.0
 40
0.0
 40
0.0
 40
1.0
 40
1.0
 40
1.0
 40
2.0
 40
2.0
 40
2.0
 40
3.0
 40
3.0
 40
3.0
 40
4.0
 40
4.0
 40
4.0
 40
5.0
 40
5.0
 40
5.0
 40
6.0
 40
6.0
 40
6.0
 40
7.0
 40
7.0
 40
7.0
 40
8.0
 40
8.0
 40
8.0
 40
9.0
 40
9.0
 40
9.0
 40
10.0
 40
10.0
 40
10.0
 40
11.0
 40
11.0
 40
11.0
 40
12.0
 40
12.0
 40
12.0
 40
13.0
 40
13.0
 40
13.0
 40
14.0
 40
14.0
 40
14.0
 40
15.0
 40
15.0
 40
15.0
 40
16.0
 40
16.0
 40
16.0
 40
17.0
 40
17.0
 40
17.0
 40
18.0
 40
18.0
 40
18.0
 40
19.0
 40
19.0
 40
19.0
 40
19.0
 10
91.45557180873334
 20
-141.2058512016777
 10
91.36014266379192
 20
-141.2058512016777
 10
91.14241262912412
 20
-141.1848361192177
 10
91.01735566300955
 20
-140.9988009630142
 10
90.94328611007668
 20
-140.8864908501951
 10
90.93915199549438
 20
-140.7872721002199
 10
90.93501788091208
 20
-140.7025227512827
 10
90.93501788091208
 20
-140.7025227512827
 10
91.15515948241955
 20
-140.7025227512827
 10
91.15515948241955
 20
-140.7025227512827
 10
91.15722653971069
 20
-140.7765923042156
 10
91.16756182616645
 20
-141.0112033067611
 10
91.45109318460251
 20
-141.0112033067611
 10
91.58855249446398
 20
-141.0112033067611
 10
91.74117022446055
 20
-140.941612377959
 10
91.74117022446055
 20
-140.713202547287
 10
91.74117022446055
 20
-140.5967583198855
 10
91.70292966457427
 20
-140.5481824735435
 10
91.67123478610998
 20
-140.5164875950792
 10
91.59716523317711
 20
-140.4424180421464
 10
91.48072100577566
 20
-140.4296711888509
 10
91.42594398756019
 20
-140.4296711888509
 10
91.40665145284278
 20
-140.4296711888509
 10
91.37082245979619
 20
-140.4317382461421
 10
91.3432616959142
 20
-140.4358723607244
 10
91.3432616959142
 20
-140.4358723607244
 10
91.3432616959142
 20
-140.2412244658078
 10
91.3432616959142
 20
-140.2412244658078
 10
91.38150225580046
 20
-140.2477701472297
 10
91.4235324207205
 20
-140.2498372045209
 10
91.43007810214249
 20
-140.2498372045209
 10
91.49553491636223
 20
-140.2498372045209
 10
91.69431692586114
 20
-140.2284776125123
 10
91.69431692586114
 20
-139.9917995526757
 10
91.69431692586114
 20
-139.8140326256368
 10
91.56340329742166
 20
-139.7589110978728
 10
91.45316024189366
 20
-139.7589110978728
 10
91.188921418175
 20
-139.7589110978728
 10
91.18030867946187
 20
-139.9917995526757
 10
91.17617456487957
 20
-140.0634575387689
 10
91.17617456487957
 20
-140.0634575387689
 10
90.97291393124983
 20
-140.0634575387689
 10
90.97291393124983
 20
-140.0634575387689
 10
90.98152666996296
 20
-139.9387450822028
 10
91.00908743384495
 20
-139.562196145665
 10
91.46590709518908
 20
-139.562196145665
 10
91.69018281127885
 20
-139.562196145665
 10
91.93133949524633
 20
-139.6893201690707
 10
91.93133949524633
 20
-139.9852538712537
 10
91.93133949524633
 20
-140.1716335370057
 10
91.83625485985344
 20
-140.2539713191032
 10
91.73669160032972
 20
-140.3152940187406
 10
91.79801429996716
 20
-140.3428547826226
 10
91.97991534158835
 20
-140.4231255074289
 10
91.97991534158835
 20
-140.7004556939916
 10
91.97991534158835
 20
-141.0387640706431
 10
91.73255748574742
 20
-141.2058512016777
 10
91.45557180873334
 20
-141.2058512016777
 97
        0
 97
        0
 75
     2
 76
     1
 98
        0
  0
POLYLINE
  5
11C
330
114
100
AcDbEntity
  8
_U+30EC_U+30A4_U+30E4_U+30FC 1
370
     0
100
AcDb2dPolyline
 66
     1
 10
0.0
 20
0.0
 30
0.0
  0
VERTEX
  5
11D
330
11C
100
AcDbEntity
  8
_U+30EC_U+30A4_U+30E4_U+30FC 1
370
     0
100
AcDbVertex
100
AcDb2dVertex
 10
92.20074596219287
 20
-141.1552082980445
 30
0.0
  0
VERTEX
  5
11E
330
11C
100
AcDbEntity
  8
_U+30EC_U+30A4_U+30E4_U+30FC 1
370
     0
100
AcDbVertex
100
AcDb2dVertex
 10
92.20074596219287
 20
-140.9033718180728
 30
0.0
  0
VERTEX
  5
11F
330
11C
100
AcDbEntity
  8
_U+30EC_U+30A4_U+30E4_U+30FC 1
370
     0
100
AcDbVertex
100
AcDb2dVertex
 10
92.45258244216464
 20
-140.9033718180728
 30
0.0
  0
VERTEX
  5
120
330
11C
100
AcDbEntity
  8
_U+30EC_U+30A4_U+30E4_U+30FC 1
370
     0
100
AcDbVertex
100
AcDb2dVertex
 10
92.45258244216464
 20
-141.1552082980445
 30
0.0
  0
VERTEX
  5
121
330
11C
100
AcDbEntity
  8
_U+30EC_U+30A4_U+30E4_U+30FC 1
370
     0
100
AcDbVertex
100
AcDb2dVertex
 10
92.20074596219287
 20
-141.1552082980445
 30
0.0
  0
SEQEND
  5
122
330
11C
100
AcDbEntity
  8
_U+30EC_U+30A4_U+30E4_U+30FC 1
370
     0
  0
HATCH
  5
123
330
114
100
AcDbEntity
  8
_U+30EC_U+30A4_U+30E4_U+30FC 1
 62
     7
420
 16777215
100
AcDbHatch
 10
0.0
 20
0.0
 30
0.0
210
0.0
220
0.0
230
1.0
  2
SOLID
 70
     1
 71
     0
 91
        1
 92
        1
 93
        4
 72
     1
 10
92.20074596219287
 20
-141.1552082980445
 11
92.20074596219287
 21
-140.9033718180728
 72
     1
 10
92.20074596219287
 20
-140.9033718180728
 11
92.45258244216464
 21
-140.9033718180728
 72
     1
 10
92.45258244216464
 20
-140.9033718180728
 11
92.45258244216464
 21
-141.1552082980445
 72
     1
 10
92.45258244216464
 20
-141.1552082980445
 11
92.20074596219287
 21
-141.1552082980445
 97
        0
 75
     2
 76
     1
 98
        0
  0
SPLINE
  5
124
330
114
100
AcDbEntity
  8
_U+30EC_U+30A4_U+30E4_U+30FC 1
370
     0
100
AcDbSpline
210
0.0
220
0.0
230
1.0
 70
    11
 71
     3
 72
    53
 73
    49
 74
     0
 42
0.0000000001
 43
0.0000000001
 12
1.0
 22
0.0
 32
0.0
 13
1.0
 23
0.0
 33
0.0
 40
0.0
 40
0.0
 40
0.0
 40
0.0
 40
1.0
 40
1.0
 40
1.0
 40
2.0
 40
2.0
 40
2.0
 40
3.0
 40
3.0
 40
3.0
 40
4.0
 40
4.0
 40
4.0
 40
5.0
 40
5.0
 40
5.0
 40
6.0
 40
6.0
 40
6.0
 40
7.0
 40
7.0
 40
7.0
 40
8.0
 40
8.0
 40
8.0
 40
9.0
 40
9.0
 40
9.0
 40
10.0
 40
10.0
 40
10.0
 40
11.0
 40
11.0
 40
11.0
 40
12.0
 40
12.0
 40
12.0
 40
13.0
 40
13.0
 40
13.0
 40
14.0
 40
14.0
 40
14.0
 40
15.0
 40
15.0
 40
15.0
 40
16.0
 40
16.0
 40
16.0
 40
16.0
 10
93.16985132219365
 20
-141.2058512016777
 30
0.0
 10
93.09164765467848
 20
-141.2058512016777
 30
0.0
 10
92.9900173378636
 20
-141.1889702338
 30
0.0
 10
92.88838702104874
 20
-141.1255804768714
 30
0.0
 10
92.71509871814068
 20
-141.0156819308919
 30
0.0
 10
92.69373912613213
 20
-140.8844237929039
 30
0.0
 10
92.67479110096325
 20
-140.7765923042156
 30
0.0
 10
92.67479110096325
 20
-140.7765923042156
 30
0.0
 10
92.89699975976187
 20
-140.7765923042156
 30
0.0
 10
92.89699975976187
 20
-140.7765923042156
 30
0.0
 10
92.95177677797734
 20
-140.9753743137145
 30
0.0
 10
93.07890080138306
 20
-141.0050021348876
 30
0.0
 10
93.17191837948481
 20
-141.0050021348876
 30
0.0
 10
93.31144474663742
 20
-141.0050021348876
 30
0.0
 10
93.46371796708546
 20
-140.9054388753639
 30
0.0
 10
93.46371796708546
 20
-140.6728949301095
 30
0.0
 10
93.46371796708546
 20
-140.4169243355555
 30
0.0
 10
93.28388398275543
 20
-140.3469888972049
 30
0.0
 10
93.16330564077168
 20
-140.3469888972049
 30
0.0
 10
93.13161076230737
 20
-140.3469888972049
 30
0.0
 10
92.9900173378636
 20
-140.3469888972049
 30
0.0
 10
92.90113387434417
 20
-140.4761799779018
 30
0.0
 10
92.90113387434417
 20
-140.4761799779018
 30
0.0
 10
92.72543400459642
 20
-140.4572319527329
 30
0.0
 10
92.72543400459642
 20
-140.4572319527329
 30
0.0
 10
92.72543400459642
 20
-140.4572319527329
 30
0.0
 10
92.84601234658017
 20
-139.610771992007
 30
0.0
 10
92.84601234658017
 20
-139.610771992007
 30
0.0
 10
92.84601234658017
 20
-139.610771992007
 30
0.0
 10
93.62460392624664
 20
-139.610771992007
 30
0.0
 10
93.62460392624664
 20
-139.610771992007
 30
0.0
 10
93.62460392624664
 20
-139.610771992007
 30
0.0
 10
93.62460392624664
 20
-139.8054198869237
 30
0.0
 10
93.62460392624664
 20
-139.8054198869237
 30
0.0
 10
93.62460392624664
 20
-139.8054198869237
 30
0.0
 10
93.00896536303249
 20
-139.8054198869237
 30
0.0
 10
93.00896536303249
 20
-139.8054198869237
 30
0.0
 10
93.00896536303249
 20
-139.8054198869237
 30
0.0
 10
92.94350854881274
 20
-140.2284776125123
 30
0.0
 10
92.94350854881274
 20
-140.2284776125123
 30
0.0
 10
93.00483124845019
 20
-140.1947156767569
 30
0.0
 10
93.08716903054766
 20
-140.1544080595795
 30
0.0
 10
93.20568031524024
 20
-140.1544080595795
 30
0.0
 10
93.45958385250316
 20
-140.1544080595795
 30
0.0
 10
93.69660642188835
 20
-140.3407877253315
 30
0.0
 10
93.69660642188835
 20
-140.6539469049407
 30
0.0
 10
93.69660642188835
 20
-140.9712401991322
 30
0.0
 10
93.47233070579858
 20
-141.2058512016777
 30
0.0
 10
93.16985132219365
 20
-141.2058512016777
 30
0.0
  0
HATCH
  5
125
330
114
100
AcDbEntity
  8
_U+30EC_U+30A4_U+30E4_U+30FC 1
 62
     7
420
 16777215
100
AcDbHatch
 10
0.0
 20
0.0
 30
0.0
210
0.0
220
0.0
230
1.0
  2
SOLID
 70
     1
 71
     0
 91
        1
 92
        1
 93
        1
 72
     4
 94
        3
 73
     0
 74
     1
 95
       53
 96
       49
 40
0.0
 40
0.0
 40
0.0
 40
0.0
 40
1.0
 40
1.0
 40
1.0
 40
2.0
 40
2.0
 40
2.0
 40
3.0
 40
3.0
 40
3.0
 40
4.0
 40
4.0
 40
4.0
 40
5.0
 40
5.0
 40
5.0
 40
6.0
 40
6.0
 40
6.0
 40
7.0
 40
7.0
 40
7.0
 40
8.0
 40
8.0
 40
8.0
 40
9.0
 40
9.0
 40
9.0
 40
10.0
 40
10.0
 40
10.0
 40
11.0
 40
11.0
 40
11.0
 40
12.0
 40
12.0
 40
12.0
 40
13.0
 40
13.0
 40
13.0
 40
14.0
 40
14.0
 40
14.0
 40
15.0
 40
15.0
 40
15.0
 40
16.0
 40
16.0
 40
16.0
 40
16.0
 10
93.16985132219365
 20
-141.2058512016777
 10
93.09164765467848
 20
-141.2058512016777
 10
92.9900173378636
 20
-141.1889702338
 10
92.88838702104874
 20
-141.1255804768714
 10
92.71509871814068
 20
-141.0156819308919
 10
92.69373912613213
 20
-140.8844237929039
 10
92.67479110096325
 20
-140.7765923042156
 10
92.67479110096325
 20
-140.7765923042156
 10
92.89699975976187
 20
-140.7765923042156
 10
92.89699975976187
 20
-140.7765923042156
 10
92.95177677797734
 20
-140.9753743137145
 10
93.07890080138306
 20
-141.0050021348876
 10
93.17191837948481
 20
-141.0050021348876
 10
93.31144474663742
 20
-141.0050021348876
 10
93.46371796708546
 20
-140.9054388753639
 10
93.46371796708546
 20
-140.6728949301095
 10
93.46371796708546
 20
-140.4169243355555
 10
93.28388398275543
 20
-140.3469888972049
 10
93.16330564077168
 20
-140.3469888972049
 10
93.13161076230737
 20
-140.3469888972049
 10
92.9900173378636
 20
-140.3469888972049
 10
92.90113387434417
 20
-140.4761799779018
 10
92.90113387434417
 20
-140.4761799779018
 10
92.72543400459642
 20
-140.4572319527329
 10
92.72543400459642
 20
-140.4572319527329
 10
92.72543400459642
 20
-140.4572319527329
 10
92.84601234658017
 20
-139.610771992007
 10
92.84601234658017
 20
-139.610771992007
 10
92.84601234658017
 20
-139.610771992007
 10
93.62460392624664
 20
-139.610771992007
 10
93.62460392624664
 20
-139.610771992007
 10
93.62460392624664
 20
-139.610771992007
 10
93.62460392624664
 20
-139.8054198869237
 10
93.62460392624664
 20
-139.8054198869237
 10
93.62460392624664
 20
-139.8054198869237
 10
93.00896536303249
 20
-139.8054198869237
 10
93.00896536303249
 20
-139.8054198869237
 10
93.00896536303249
 20
-139.8054198869237
 10
92.94350854881274
 20
-140.2284776125123
 10
92.94350854881274
 20
-140.2284776125123
 10
93.00483124845019
 20
-140.1947156767569
 10
93.08716903054766
 20
-140.1544080595795
 10
93.20568031524024
 20
-140.1544080595795
 10
93.45958385250316
 20
-140.1544080595795
 10
93.69660642188835
 20
-140.3407877253315
 10
93.69660642188835
 20
-140.6539469049407
 10
93.69660642188835
 20
-140.9712401991322
 10
93.47233070579858
 20
-141.2058512016777
 10
93.16985132219365
 20
-141.2058512016777
 97
        0
 97
        0
 75
     2
 76
     1
 98
        0
  0
ENDBLK
  5
117
330
114
100
AcDbEntity
  8
0
100
AcDbBlockEnd
  0
BLOCK
  5
134
330
132
100
AcDbEntity
  8
0
100
AcDbBlockBegin
  2
block 8
 70
     0
 10
0.0
 20
0.0
 30
0.0
  3
block 8
  1

  0
SPLINE
  5
136
330
132
100
AcDbEntity
  8
_U+30EC_U+30A4_U+30E4_U+30FC 1
370
     0
100
AcDbSpline
210
0.0
220
0.0
230
1.0
 70
    11
 71
     3
 72
    26
 73
    22
 74
     0
 42
0.0000000001
 43
0.0000000001
 12
1.0
 22
0.0
 32
0.0
 13
1.0
 23
0.0
 33
0.0
 40
0.0
 40
0.0
 40
0.0
 40
0.0
 40
1.0
 40
1.0
 40
1.0
 40
2.0
 40
2.0
 40
2.0
 40
3.0
 40
3.0
 40
3.0
 40
4.0
 40
4.0
 40
4.0
 40
5.0
 40
5.0
 40
5.0
 40
6.0
 40
6.0
 40
6.0
 40
7.0
 40
7.0
 40
7.0
 40
7.0
 10
75.27344155019206
 20
-129.8825113607585
 30
0.0
 10
75.27344155019206
 20
-129.8825113607585
 30
0.0
 10
74.16911619239522
 20
-129.8825113607585
 30
0.0
 10
74.16911619239522
 20
-129.8825113607585
 30
0.0
 10
74.16911619239522
 20
-129.8825113607585
 30
0.0
 10
74.16911619239522
 20
-130.2125515082455
 30
0.0
 10
74.16911619239522
 20
-130.2125515082455
 30
0.0
 10
74.16911619239522
 20
-130.2125515082455
 30
0.0
 10
74.02097708652948
 20
-130.2125515082455
 30
0.0
 10
74.02097708652948
 20
-130.2125515082455
 30
0.0
 10
74.00633543071717
 20
-129.8804443034674
 30
0.0
 10
73.84338241426485
 20
-129.8339355144165
 30
0.0
 10
73.72917749892882
 20
-129.8043076932434
 30
0.0
 10
73.72917749892882
 20
-129.8043076932434
 30
0.0
 10
73.72917749892882
 20
-129.6582356446688
 30
0.0
 10
73.72917749892882
 20
-129.6582356446688
 30
0.0
 10
73.72917749892882
 20
-129.6582356446688
 30
0.0
 10
75.27344155019206
 20
-129.6582356446688
 30
0.0
 10
75.27344155019206
 20
-129.6582356446688
 30
0.0
 10
75.27344155019206
 20
-129.6582356446688
 30
0.0
 10
75.27344155019206
 20
-129.8825113607585
 30
0.0
 10
75.27344155019206
 20
-129.8825113607585
 30
0.0
  0
HATCH
  5
137
330
132
100
AcDbEntity
  8
_U+30EC_U+30A4_U+30E4_U+30FC 1
 62
     7
420
 16777215
100
AcDbHatch
 10
0.0
 20
0.0
 30
0.0
210
0.0
220
0.0
230
1.0
  2
SOLID
 70
     1
 71
     0
 91
        1
 92
        1
 93
        1
 72
     4
 94
        3
 73
     0
 74
     1
 95
       26
 96
       22
 40
0.0
 40
0.0
 40
0.0
 40
0.0
 40
1.0
 40
1.0
 40
1.0
 40
2.0
 40
2.0
 40
2.0
 40
3.0
 40
3.0
 40
3.0
 40
4.0
 40
4.0
 40
4.0
 40
5.0
 40
5.0
 40
5.0
 40
6.0
 40
6.0
 40
6.0
 40
7.0
 40
7.0
 40
7.0
 40
7.0
 10
75.27344155019206
 20
-129.8825113607585
 10
75.27344155019206
 20
-129.8825113607585
 10
74.16911619239522
 20
-129.8825113607585
 10
74.16911619239522
 20
-129.8825113607585
 10
74.16911619239522
 20
-129.8825113607585
 10
74.16911619239522
 20
-130.2125515082455
 10
74.16911619239522
 20
-130.2125515082455
 10
74.16911619239522
 20
-130.2125515082455
 10
74.02097708652948
 20
-130.2125515082455
 10
74.02097708652948
 20
-130.2125515082455
 10
74.00633543071717
 20
-129.8804443034674
 10
73.84338241426485
 20
-129.8339355144165
 10
73.72917749892882
 20
-129.8043076932434
 10
73.72917749892882
 20
-129.8043076932434
 10
73.72917749892882
 20
-129.6582356446688
 10
73.72917749892882
 20
-129.6582356446688
 10
73.72917749892882
 20
-129.6582356446688
 10
75.27344155019206
 20
-129.6582356446688
 10
75.27344155019206
 20
-129.6582356446688
 10
75.27344155019206
 20
-129.6582356446688
 10
75.27344155019206
 20
-129.8825113607585
 10
75.27344155019206
 20
-129.8825113607585
 97
        0
 97
        0
 75
     2
 76
     1
 98
        0
  0
SPLINE
  5
138
330
132
100
AcDbEntity
  8
_U+30EC_U+30A4_U+30E4_U+30FC 1
370
     0
100
AcDbSpline
210
0.0
220
0.0
230
1.0
 70
    11
 71
     3
 72
    29
 73
    25
 74
     0
 42
0.0000000001
 43
0.0000000001
 12
1.0
 22
0.0
 32
0.0
 13
1.0
 23
0.0
 33
0.0
 40
0.0
 40
0.0
 40
0.0
 40
0.0
 40
1.0
 40
1.0
 40
1.0
 40
2.0
 40
2.0
 40
2.0
 40
3.0
 40
3.0
 40
3.0
 40
4.0
 40
4.0
 40
4.0
 40
5.0
 40
5.0
 40
5.0
 40
6.0
 40
6.0
 40
6.0
 40
7.0
 40
7.0
 40
7.0
 40
8.0
 40
8.0
 40
8.0
 40
8.0
 10
75.32425670859949
 20
-128.6570908966552
 30
0.0
 10
75.32425670859949
 20
-128.9237412872135
 30
0.0
 10
75.18662514396377
 20
-129.1773003149279
 30
0.0
 10
74.83763697130796
 20
-129.1773003149279
 30
0.0
 10
74.58166637675389
 20
-129.1773003149279
 30
0.0
 10
74.48640948658674
 20
-129.0357068904841
 30
0.0
 10
74.4250867869493
 20
-128.929942459087
 30
0.0
 10
74.36583114460299
 20
-129.054654915653
 30
0.0
 10
74.25162622926696
 20
-129.130791525877
 30
0.0
 10
74.09091252488005
 20
-129.130791525877
 30
0.0
 10
73.81582165038286
 20
-129.130791525877
 30
0.0
 10
73.68042939781253
 20
-128.9320095163781
 30
0.0
 10
73.68042939781253
 20
-128.6570908966552
 30
0.0
 10
73.68042939781253
 20
-128.3735595382191
 30
0.0
 10
73.82426213432171
 20
-128.1830457578848
 30
0.0
 10
74.09091252488005
 20
-128.1830457578848
 30
0.0
 10
74.25162622926696
 20
-128.1830457578848
 30
0.0
 10
74.36583114460299
 20
-128.2615939349485
 30
0.0
 10
74.4250867869493
 20
-128.3863063915146
 30
0.0
 10
74.47590194535672
 20
-128.2974229279951
 30
0.0
 10
74.57115883552387
 20
-128.1386040261251
 30
0.0
 10
74.83333060195139
 20
-128.1386040261251
 30
0.0
 10
75.20781248119805
 20
-128.1386040261251
 30
0.0
 10
75.32425670859949
 20
-128.4180012699788
 30
0.0
 10
75.32425670859949
 20
-128.6570908966552
 30
0.0
  0
SPLINE
  5
139
330
132
100
AcDbEntity
  8
_U+30EC_U+30A4_U+30E4_U+30FC 1
370
     0
100
AcDbSpline
210
0.0
220
0.0
230
1.0
 70
    11
 71
     3
 72
    17
 73
    13
 74
     0
 42
0.0000000001
 43
0.0000000001
 12
1.0
 22
0.0
 32
0.0
 13
1.0
 23
0.0
 33
0.0
 40
0.0
 40
0.0
 40
0.0
 40
0.0
 40
1.0
 40
1.0
 40
1.0
 40
2.0
 40
2.0
 40
2.0
 40
3.0
 40
3.0
 40
3.0
 40
4.0
 40
4.0
 40
4.0
 40
4.0
 10
73.873010235438
 20
-128.6570908966552
 30
0.0
 10
73.873010235438
 20
-128.8221109703987
 30
0.0
 10
73.9680948708309
 20
-128.9065158097873
 30
0.0
 10
74.10348712340121
 20
-128.9065158097873
 30
0.0
 10
74.22630477745037
 20
-128.9065158097873
 30
0.0
 10
74.34481606214297
 20
-128.8348578236941
 30
0.0
 10
74.34481606214297
 20
-128.6570908966552
 30
0.0
 10
74.34481606214297
 20
-128.4793239696163
 30
0.0
 10
74.22630477745037
 20
-128.4073214739746
 30
0.0
 10
74.10348712340121
 20
-128.4073214739746
 30
0.0
 10
73.9680948708309
 20
-128.4073214739746
 30
0.0
 10
73.873010235438
 20
-128.4941378802029
 30
0.0
 10
73.873010235438
 20
-128.6570908966552
 30
0.0
  0
SPLINE
  5
13A
330
132
100
AcDbEntity
  8
_U+30EC_U+30A4_U+30E4_U+30FC 1
370
     0
100
AcDbSpline
210
0.0
220
0.0
230
1.0
 70
    11
 71
     3
 72
    17
 73
    13
 74
     0
 42
0.0000000001
 43
0.0000000001
 12
1.0
 22
0.0
 32
0.0
 13
1.0
 23
0.0
 33
0.0
 40
0.0
 40
0.0
 40
0.0
 40
0.0
 40
1.0
 40
1.0
 40
1.0
 40
2.0
 40
2.0
 40
2.0
 40
3.0
 40
3.0
 40
3.0
 40
4.0
 40
4.0
 40
4.0
 40
4.0
 10
74.53309053041187
 20
-128.6570908966552
 30
0.0
 10
74.53309053041187
 20
-128.8007513783901
 30
0.0
 10
74.6197346818659
 20
-128.9533691083867
 30
0.0
 10
74.82282306072138
 20
-128.9533691083867
 30
0.0
 10
75.027978496868
 20
-128.9533691083867
 30
0.0
 10
75.12960881368288
 20
-128.8262450849809
 30
0.0
 10
75.12960881368288
 20
-128.6570908966552
 30
0.0
 10
75.12960881368288
 20
-128.4710557404517
 30
0.0
 10
75.00696341440799
 20
-128.3608126849237
 30
0.0
 10
74.82919648736909
 20
-128.3608126849237
 30
0.0
 10
74.60698782857048
 20
-128.3608126849237
 30
0.0
 10
74.53309053041187
 20
-128.523765701376
 30
0.0
 10
74.53309053041187
 20
-128.6570908966552
 30
0.0
  0
HATCH
  5
13B
330
132
100
AcDbEntity
  8
_U+30EC_U+30A4_U+30E4_U+30FC 1
 62
     7
420
 16777215
100
AcDbHatch
 10
0.0
 20
0.0
 30
0.0
210
0.0
220
0.0
230
1.0
  2
SOLID
 70
     1
 71
     0
 91
        3
 92
        1
 93
        1
 72
     4
 94
        3
 73
     0
 74
     1
 95
       29
 96
       25
 40
0.0
 40
0.0
 40
0.0
 40
0.0
 40
1.0
 40
1.0
 40
1.0
 40
2.0
 40
2.0
 40
2.0
 40
3.0
 40
3.0
 40
3.0
 40
4.0
 40
4.0
 40
4.0
 40
5.0
 40
5.0
 40
5.0
 40
6.0
 40
6.0
 40
6.0
 40
7.0
 40
7.0
 40
7.0
 40
8.0
 40
8.0
 40
8.0
 40
8.0
 10
75.32425670859949
 20
-128.6570908966552
 10
75.32425670859949
 20
-128.9237412872135
 10
75.18662514396377
 20
-129.1773003149279
 10
74.83763697130796
 20
-129.1773003149279
 10
74.58166637675389
 20
-129.1773003149279
 10
74.48640948658674
 20
-129.0357068904841
 10
74.4250867869493
 20
-128.929942459087
 10
74.36583114460299
 20
-129.054654915653
 10
74.25162622926696
 20
-129.130791525877
 10
74.09091252488005
 20
-129.130791525877
 10
73.81582165038286
 20
-129.130791525877
 10
73.68042939781253
 20
-128.9320095163781
 10
73.68042939781253
 20
-128.6570908966552
 10
73.68042939781253
 20
-128.3735595382191
 10
73.82426213432171
 20
-128.1830457578848
 10
74.09091252488005
 20
-128.1830457578848
 10
74.25162622926696
 20
-128.1830457578848
 10
74.36583114460299
 20
-128.2615939349485
 10
74.4250867869493
 20
-128.3863063915146
 10
74.47590194535672
 20
-128.2974229279951
 10
74.57115883552387
 20
-128.1386040261251
 10
74.83333060195139
 20
-128.1386040261251
 10
75.20781248119805
 20
-128.1386040261251
 10
75.32425670859949
 20
-128.4180012699788
 10
75.32425670859949
 20
-128.6570908966552
 97
        0
 97
        0
 92
        1
 93
        1
 72
     4
 94
        3
 73
     0
 74
     1
 95
       17
 96
       13
 40
0.0
 40
0.0
 40
0.0
 40
0.0
 40
1.0
 40
1.0
 40
1.0
 40
2.0
 40
2.0
 40
2.0
 40
3.0
 40
3.0
 40
3.0
 40
4.0
 40
4.0
 40
4.0
 40
4.0
 10
73.873010235438
 20
-128.6570908966552
 10
73.873010235438
 20
-128.8221109703987
 10
73.9680948708309
 20
-128.9065158097873
 10
74.10348712340121
 20
-128.9065158097873
 10
74.22630477745037
 20
-128.9065158097873
 10
74.34481606214297
 20
-128.8348578236941
 10
74.34481606214297
 20
-128.6570908966552
 10
74.34481606214297
 20
-128.4793239696163
 10
74.22630477745037
 20
-128.4073214739746
 10
74.10348712340121
 20
-128.4073214739746
 10
73.9680948708309
 20
-128.4073214739746
 10
73.873010235438
 20
-128.4941378802029
 10
73.873010235438
 20
-128.6570908966552
 97
        0
 97
        0
 92
        1
 93
        1
 72
     4
 94
        3
 73
     0
 74
     1
 95
       17
 96
       13
 40
0.0
 40
0.0
 40
0.0
 40
0.0
 40
1.0
 40
1.0
 40
1.0
 40
2.0
 40
2.0
 40
2.0
 40
3.0
 40
3.0
 40
3.0
 40
4.0
 40
4.0
 40
4.0
 40
4.0
 10
74.53309053041187
 20
-128.6570908966552
 10
74.53309053041187
 20
-128.8007513783901
 10
74.6197346818659
 20
-128.9533691083867
 10
74.82282306072138
 20
-128.9533691083867
 10
75.027978496868
 20
-128.9533691083867
 10
75.12960881368288
 20
-128.8262450849809
 10
75.12960881368288
 20
-128.6570908966552
 10
75.12960881368288
 20
-128.4710557404517
 10
75.00696341440799
 20
-128.3608126849237
 10
74.82919648736909
 20
-128.3608126849237
 10
74.60698782857048
 20
-128.3608126849237
 10
74.53309053041187
 20
-128.523765701376
 10
74.53309053041187
 20
-128.6570908966552
 97
        0
 97
        0
 75
     2
 76
     1
 98
        0
  0
POLYLINE
  5
13C
330
132
100
AcDbEntity
  8
_U+30EC_U+30A4_U+30E4_U+30FC 1
370
     0
100
AcDb2dPolyline
 66
     1
 10
0.0
 20
0.0
 30
0.0
  0
VERTEX
  5
13D
330
13C
100
AcDbEntity
  8
_U+30EC_U+30A4_U+30E4_U+30FC 1
370
     0
100
AcDbVertex
100
AcDb2dVertex
 10
75.27344155019206
 20
-127.9201849723602
 30
0.0
  0
VERTEX
  5
13E
330
13C
100
AcDbEntity
  8
_U+30EC_U+30A4_U+30E4_U+30FC 1
370
     0
100
AcDbVertex
100
AcDb2dVertex
 10
75.02177732499456
 20
-127.9201849723602
 30
0.0
  0
VERTEX
  5
13F
330
13C
100
AcDbEntity
  8
_U+30EC_U+30A4_U+30E4_U+30FC 1
370
     0
100
AcDbVertex
100
AcDb2dVertex
 10
75.02177732499456
 20
-127.6683484923885
 30
0.0
  0
VERTEX
  5
140
330
13C
100
AcDbEntity
  8
_U+30EC_U+30A4_U+30E4_U+30FC 1
370
     0
100
AcDbVertex
100
AcDb2dVertex
 10
75.27344155019206
 20
-127.6683484923885
 30
0.0
  0
VERTEX
  5
141
330
13C
100
AcDbEntity
  8
_U+30EC_U+30A4_U+30E4_U+30FC 1
370
     0
100
AcDbVertex
100
AcDb2dVertex
 10
75.27344155019206
 20
-127.9201849723602
 30
0.0
  0
SEQEND
  5
142
330
13C
100
AcDbEntity
  8
_U+30EC_U+30A4_U+30E4_U+30FC 1
370
     0
  0
HATCH
  5
143
330
132
100
AcDbEntity
  8
_U+30EC_U+30A4_U+30E4_U+30FC 1
 62
     7
420
 16777215
100
AcDbHatch
 10
0.0
 20
0.0
 30
0.0
210
0.0
220
0.0
230
1.0
  2
SOLID
 70
     1
 71
     0
 91
        1
 92
        1
 93
        4
 72
     1
 10
75.27344155019206
 20
-127.9201849723602
 11
75.02177732499456
 21
-127.9201849723602
 72
     1
 10
75.02177732499456
 20
-127.9201849723602
 11
75.02177732499456
 21
-127.6683484923885
 72
     1
 10
75.02177732499456
 20
-127.6683484923885
 11
75.27344155019206
 21
-127.6683484923885
 72
     1
 10
75.27344155019206
 20
-127.6683484923885
 11
75.27344155019206
 21
-127.9201849723602
 97
        0
 75
     2
 76
     1
 98
        0
  0
SPLINE
  5
144
330
132
100
AcDbEntity
  8
_U+30EC_U+30A4_U+30E4_U+30FC 1
370
     0
100
AcDbSpline
210
0.0
220
0.0
230
1.0
 70
    11
 71
     3
 72
    53
 73
    49
 74
     0
 42
0.0000000001
 43
0.0000000001
 12
1.0
 22
0.0
 32
0.0
 13
1.0
 23
0.0
 33
0.0
 40
0.0
 40
0.0
 40
0.0
 40
0.0
 40
1.0
 40
1.0
 40
1.0
 40
2.0
 40
2.0
 40
2.0
 40
3.0
 40
3.0
 40
3.0
 40
4.0
 40
4.0
 40
4.0
 40
5.0
 40
5.0
 40
5.0
 40
6.0
 40
6.0
 40
6.0
 40
7.0
 40
7.0
 40
7.0
 40
8.0
 40
8.0
 40
8.0
 40
9.0
 40
9.0
 40
9.0
 40
10.0
 40
10.0
 40
10.0
 40
11.0
 40
11.0
 40
11.0
 40
12.0
 40
12.0
 40
12.0
 40
13.0
 40
13.0
 40
13.0
 40
14.0
 40
14.0
 40
14.0
 40
15.0
 40
15.0
 40
15.0
 40
16.0
 40
16.0
 40
16.0
 40
16.0
 10
75.32425670859949
 20
-126.9510796123595
 30
0.0
 10
75.32425670859949
 20
-127.0292832798746
 30
0.0
 10
75.30737574072177
 20
-127.1309135966895
 30
0.0
 10
75.24381372901891
 20
-127.2325439135044
 30
0.0
 10
75.13374292826518
 20
-127.4058322164124
 30
0.0
 10
75.00265704505142
 20
-127.427191808421
 30
0.0
 10
74.8948255563631
 20
-127.4461398335899
 30
0.0
 10
74.8948255563631
 20
-127.4461398335899
 30
0.0
 10
74.8948255563631
 20
-127.2239311747912
 30
0.0
 10
74.8948255563631
 20
-127.2239311747912
 30
0.0
 10
75.09360756586202
 20
-127.1691541565758
 30
0.0
 10
75.12323538703517
 20
-127.0420301331701
 30
0.0
 10
75.12323538703517
 20
-126.9490125550683
 30
0.0
 10
75.12323538703517
 20
-126.8094861879157
 30
0.0
 10
75.0238443822857
 20
-126.6572129674676
 30
0.0
 10
74.79112818225708
 20
-126.6572129674676
 30
0.0
 10
74.53515758770303
 20
-126.6572129674676
 30
0.0
 10
74.46539440412671
 20
-126.8370469517977
 30
0.0
 10
74.46539440412671
 20
-126.9576252937814
 30
0.0
 10
74.46539440412671
 20
-126.9893201722457
 30
0.0
 10
74.46539440412671
 20
-127.1309135966895
 30
0.0
 10
74.59441323004931
 20
-127.2197970602089
 30
0.0
 10
74.59441323004931
 20
-127.2197970602089
 30
0.0
 10
74.57529295010617
 20
-127.3954969299567
 30
0.0
 10
74.57529295010617
 20
-127.3954969299567
 30
0.0
 10
74.57529295010617
 20
-127.3954969299567
 30
0.0
 10
73.72917749892882
 20
-127.2749185879729
 30
0.0
 10
73.72917749892882
 20
-127.2749185879729
 30
0.0
 10
73.72917749892882
 20
-127.2749185879729
 30
0.0
 10
73.72917749892882
 20
-126.4963270083065
 30
0.0
 10
73.72917749892882
 20
-126.4963270083065
 30
0.0
 10
73.72917749892882
 20
-126.4963270083065
 30
0.0
 10
73.92382539384543
 20
-126.4963270083065
 30
0.0
 10
73.92382539384543
 20
-126.4963270083065
 30
0.0
 10
73.92382539384543
 20
-126.4963270083065
 30
0.0
 10
73.92382539384543
 20
-127.1119655715206
 30
0.0
 10
73.92382539384543
 20
-127.1119655715206
 30
0.0
 10
73.92382539384543
 20
-127.1119655715206
 30
0.0
 10
74.34688311943411
 20
-127.1774223857404
 30
0.0
 10
74.34688311943411
 20
-127.1774223857404
 30
0.0
 10
74.3129489289044
 20
-127.1160996861029
 30
0.0
 10
74.27281356650124
 20
-127.0337619040055
 30
0.0
 10
74.27281356650124
 20
-126.9152506193129
 30
0.0
 10
74.27281356650124
 20
-126.6613470820499
 30
0.0
 10
74.459020977479
 20
-126.4243245126648
 30
0.0
 10
74.77200790231394
 20
-126.4243245126648
 30
0.0
 10
75.08947345127972
 20
-126.4243245126648
 30
0.0
 10
75.32425670859949
 20
-126.6486002287545
 30
0.0
 10
75.32425670859949
 20
-126.9510796123595
 30
0.0
  0
HATCH
  5
145
330
132
100
AcDbEntity
  8
_U+30EC_U+30A4_U+30E4_U+30FC 1
 62
     7
420
 16777215
100
AcDbHatch
 10
0.0
 20
0.0
 30
0.0
210
0.0
220
0.0
230
1.0
  2
SOLID
 70
     1
 71
     0
 91
        1
 92
        1
 93
        1
 72
     4
 94
        3
 73
     0
 74
     1
 95
       53
 96
       49
 40
0.0
 40
0.0
 40
0.0
 40
0.0
 40
1.0
 40
1.0
 40
1.0
 40
2.0
 40
2.0
 40
2.0
 40
3.0
 40
3.0
 40
3.0
 40
4.0
 40
4.0
 40
4.0
 40
5.0
 40
5.0
 40
5.0
 40
6.0
 40
6.0
 40
6.0
 40
7.0
 40
7.0
 40
7.0
 40
8.0
 40
8.0
 40
8.0
 40
9.0
 40
9.0
 40
9.0
 40
10.0
 40
10.0
 40
10.0
 40
11.0
 40
11.0
 40
11.0
 40
12.0
 40
12.0
 40
12.0
 40
13.0
 40
13.0
 40
13.0
 40
14.0
 40
14.0
 40
14.0
 40
15.0
 40
15.0
 40
15.0
 40
16.0
 40
16.0
 40
16.0
 40
16.0
 10
75.32425670859949
 20
-126.9510796123595
 10
75.32425670859949
 20
-127.0292832798746
 10
75.30737574072177
 20
-127.1309135966895
 10
75.24381372901891
 20
-127.2325439135044
 10
75.13374292826518
 20
-127.4058322164124
 10
75.00265704505142
 20
-127.427191808421
 10
74.8948255563631
 20
-127.4461398335899
 10
74.8948255563631
 20
-127.4461398335899
 10
74.8948255563631
 20
-127.2239311747912
 10
74.8948255563631
 20
-127.2239311747912
 10
75.09360756586202
 20
-127.1691541565758
 10
75.12323538703517
 20
-127.0420301331701
 10
75.12323538703517
 20
-126.9490125550683
 10
75.12323538703517
 20
-126.8094861879157
 10
75.0238443822857
 20
-126.6572129674676
 10
74.79112818225708
 20
-126.6572129674676
 10
74.53515758770303
 20
-126.6572129674676
 10
74.46539440412671
 20
-126.8370469517977
 10
74.46539440412671
 20
-126.9576252937814
 10
74.46539440412671
 20
-126.9893201722457
 10
74.46539440412671
 20
-127.1309135966895
 10
74.59441323004931
 20
-127.2197970602089
 10
74.59441323004931
 20
-127.2197970602089
 10
74.57529295010617
 20
-127.3954969299567
 10
74.57529295010617
 20
-127.3954969299567
 10
74.57529295010617
 20
-127.3954969299567
 10
73.72917749892882
 20
-127.2749185879729
 10
73.72917749892882
 20
-127.2749185879729
 10
73.72917749892882
 20
-127.2749185879729
 10
73.72917749892882
 20
-126.4963270083065
 10
73.72917749892882
 20
-126.4963270083065
 10
73.72917749892882
 20
-126.4963270083065
 10
73.92382539384543
 20
-126.4963270083065
 10
73.92382539384543
 20
-126.4963270083065
 10
73.92382539384543
 20
-126.4963270083065
 10
73.92382539384543
 20
-127.1119655715206
 10
73.92382539384543
 20
-127.1119655715206
 10
73.92382539384543
 20
-127.1119655715206
 10
74.34688311943411
 20
-127.1774223857404
 10
74.34688311943411
 20
-127.1774223857404
 10
74.3129489289044
 20
-127.1160996861029
 10
74.27281356650124
 20
-127.0337619040055
 10
74.27281356650124
 20
-126.9152506193129
 10
74.27281356650124
 20
-126.6613470820499
 10
74.459020977479
 20
-126.4243245126648
 10
74.77200790231394
 20
-126.4243245126648
 10
75.08947345127972
 20
-126.4243245126648
 10
75.32425670859949
 20
-126.6486002287545
 10
75.32425670859949
 20
-126.9510796123595
 97
        0
 97
        0
 75
     2
 76
     1
 98
        0
  0
ENDBLK
  5
135
330
132
100
AcDbEntity
  8
0
100
AcDbBlockEnd
  0
BLOCK
  5
15D
330
15B
100
AcDbEntity
  8
0
100
AcDbBlockBegin
  2
block 9
 70
     0
 10
0.0
 20
0.0
 30
0.0
  3
block 9
  1

  0
POLYLINE
  5
15F
330
15B
100
AcDbEntity
  8
_U+30EC_U+30A4_U+30E4_U+30FC 1
370
     0
100
AcDb2dPolyline
 66
     1
 10
0.0
 20
0.0
 30
0.0
  0
VERTEX
  5
160
330
15F
100
AcDbEntity
  8
_U+30EC_U+30A4_U+30E4_U+30FC 1
370
     0
100
AcDbVertex
100
AcDb2dVertex
 10
106.4269232589835
 20
-134.9071831259954
 30
0.0
  0
VERTEX
  5
161
330
15F
100
AcDbEntity
  8
_U+30EC_U+30A4_U+30E4_U+30FC 1
370
     0
100
AcDbVertex
100
AcDb2dVertex
 10
106.7738443743482
 20
-134.9071831259954
 30
0.0
  0
VERTEX
  5
162
330
15F
100
AcDbEntity
  8
_U+30EC_U+30A4_U+30E4_U+30FC 1
370
     0
100
AcDbVertex
100
AcDb2dVertex
 10
106.7738443743482
 20
-135.1249131606632
 30
0.0
  0
VERTEX
  5
163
330
15F
100
AcDbEntity
  8
_U+30EC_U+30A4_U+30E4_U+30FC 1
370
     0
100
AcDbVertex
100
AcDb2dVertex
 10
106.4269232589835
 20
-135.1249131606632
 30
0.0
  0
VERTEX
  5
164
330
15F
100
AcDbEntity
  8
_U+30EC_U+30A4_U+30E4_U+30FC 1
370
     0
100
AcDbVertex
100
AcDb2dVertex
 10
106.4269232589835
 20
-135.7808593410548
 30
0.0
  0
VERTEX
  5
165
330
15F
100
AcDbEntity
  8
_U+30EC_U+30A4_U+30E4_U+30FC 1
370
     0
100
AcDbVertex
100
AcDb2dVertex
 10
106.2026475428938
 20
-135.7808593410548
 30
0.0
  0
VERTEX
  5
166
330
15F
100
AcDbEntity
  8
_U+30EC_U+30A4_U+30E4_U+30FC 1
370
     0
100
AcDbVertex
100
AcDb2dVertex
 10
105.2294080683107
 20
-135.101831020912
 30
0.0
  0
VERTEX
  5
167
330
15F
100
AcDbEntity
  8
_U+30EC_U+30A4_U+30E4_U+30FC 1
370
     0
100
AcDbVertex
100
AcDb2dVertex
 10
105.2294080683107
 20
-134.9071831259954
 30
0.0
  0
VERTEX
  5
168
330
15F
100
AcDbEntity
  8
_U+30EC_U+30A4_U+30E4_U+30FC 1
370
     0
100
AcDbVertex
100
AcDb2dVertex
 10
106.2281412494846
 20
-134.9071831259954
 30
0.0
  0
VERTEX
  5
169
330
15F
100
AcDbEntity
  8
_U+30EC_U+30A4_U+30E4_U+30FC 1
370
     0
100
AcDbVertex
100
AcDb2dVertex
 10
106.2281412494846
 20
-134.6997883777834
 30
0.0
  0
VERTEX
  5
16A
330
15F
100
AcDbEntity
  8
_U+30EC_U+30A4_U+30E4_U+30FC 1
370
     0
100
AcDbVertex
100
AcDb2dVertex
 10
106.4269232589835
 20
-134.6997883777834
 30
0.0
  0
VERTEX
  5
16B
330
15F
100
AcDbEntity
  8
_U+30EC_U+30A4_U+30E4_U+30FC 1
370
     0
100
AcDbVertex
100
AcDb2dVertex
 10
106.4269232589835
 20
-134.9071831259954
 30
0.0
  0
SEQEND
  5
16C
330
15F
100
AcDbEntity
  8
_U+30EC_U+30A4_U+30E4_U+30FC 1
370
     0
  0
POLYLINE
  5
16D
330
15B
100
AcDbEntity
  8
_U+30EC_U+30A4_U+30E4_U+30FC 1
370
     0
100
AcDb2dPolyline
 66
     1
 10
0.0
 20
0.0
 30
0.0
  0
VERTEX
  5
16E
330
16D
100
AcDbEntity
  8
_U+30EC_U+30A4_U+30E4_U+30FC 1
370
     0
100
AcDbVertex
100
AcDb2dVertex
 10
105.5721950690931
 20
-135.1249131606632
 30
0.0
  0
VERTEX
  5
16F
330
16D
100
AcDbEntity
  8
_U+30EC_U+30A4_U+30E4_U+30FC 1
370
     0
100
AcDbVertex
100
AcDb2dVertex
 10
106.2281412494846
 20
-135.5820773315559
 30
0.0
  0
VERTEX
  5
170
330
16D
100
AcDbEntity
  8
_U+30EC_U+30A4_U+30E4_U+30FC 1
370
     0
100
AcDbVertex
100
AcDb2dVertex
 10
106.2281412494846
 20
-135.1249131606632
 30
0.0
  0
VERTEX
  5
171
330
16D
100
AcDbEntity
  8
_U+30EC_U+30A4_U+30E4_U+30FC 1
370
     0
100
AcDbVertex
100
AcDb2dVertex
 10
105.5721950690931
 20
-135.1249131606632
 30
0.0
  0
SEQEND
  5
172
330
16D
100
AcDbEntity
  8
_U+30EC_U+30A4_U+30E4_U+30FC 1
370
     0
  0
HATCH
  5
173
330
15B
100
AcDbEntity
  8
_U+30EC_U+30A4_U+30E4_U+30FC 1
 62
     7
420
 16777215
100
AcDbHatch
 10
0.0
 20
0.0
 30
0.0
210
0.0
220
0.0
230
1.0
  2
SOLID
 70
     1
 71
     0
 91
        2
 92
        1
 93
       11
 72
     1
 10
106.4269232589835
 20
-134.9071831259954
 11
106.7738443743482
 21
-134.9071831259954
 72
     1
 10
106.7738443743482
 20
-134.9071831259954
 11
106.7738443743482
 21
-135.1249131606632
 72
     1
 10
106.7738443743482
 20
-135.1249131606632
 11
106.4269232589835
 21
-135.1249131606632
 72
     1
 10
106.4269232589835
 20
-135.1249131606632
 11
106.4269232589835
 21
-135.7808593410548
 72
     1
 10
106.4269232589835
 20
-135.7808593410548
 11
106.2026475428938
 21
-135.7808593410548
 72
     1
 10
106.2026475428938
 20
-135.7808593410548
 11
105.2294080683107
 21
-135.101831020912
 72
     1
 10
105.2294080683107
 20
-135.101831020912
 11
105.2294080683107
 21
-134.9071831259954
 72
     1
 10
105.2294080683107
 20
-134.9071831259954
 11
106.2281412494846
 21
-134.9071831259954
 72
     1
 10
106.2281412494846
 20
-134.9071831259954
 11
106.2281412494846
 21
-134.6997883777834
 72
     1
 10
106.2281412494846
 20
-134.6997883777834
 11
106.4269232589835
 21
-134.6997883777834
 72
     1
 10
106.4269232589835
 20
-134.6997883777834
 11
106.4269232589835
 21
-134.9071831259954
 97
        0
 92
        1
 93
        3
 72
     1
 10
105.5721950690931
 20
-135.1249131606632
 11
106.2281412494846
 21
-135.5820773315559
 72
     1
 10
106.2281412494846
 20
-135.5820773315559
 11
106.2281412494846
 21
-135.1249131606632
 72
     1
 10
106.2281412494846
 20
-135.1249131606632
 11
105.5721950690931
 21
-135.1249131606632
 97
        0
 75
     2
 76
     1
 98
        0
  0
POLYLINE
  5
174
330
15B
100
AcDbEntity
  8
_U+30EC_U+30A4_U+30E4_U+30FC 1
370
     0
100
AcDb2dPolyline
 66
     1
 10
0.0
 20
0.0
 30
0.0
  0
VERTEX
  5
175
330
174
100
AcDbEntity
  8
_U+30EC_U+30A4_U+30E4_U+30FC 1
370
     0
100
AcDbVertex
100
AcDb2dVertex
 10
106.7738443743482
 20
-134.5023844064786
 30
0.0
  0
VERTEX
  5
176
330
174
100
AcDbEntity
  8
_U+30EC_U+30A4_U+30E4_U+30FC 1
370
     0
100
AcDbVertex
100
AcDb2dVertex
 10
106.5220078943764
 20
-134.5023844064786
 30
0.0
  0
VERTEX
  5
177
330
174
100
AcDbEntity
  8
_U+30EC_U+30A4_U+30E4_U+30FC 1
370
     0
100
AcDbVertex
100
AcDb2dVertex
 10
106.5220078943764
 20
-134.2505479265068
 30
0.0
  0
VERTEX
  5
178
330
174
100
AcDbEntity
  8
_U+30EC_U+30A4_U+30E4_U+30FC 1
370
     0
100
AcDbVertex
100
AcDb2dVertex
 10
106.7738443743482
 20
-134.2505479265068
 30
0.0
  0
VERTEX
  5
179
330
174
100
AcDbEntity
  8
_U+30EC_U+30A4_U+30E4_U+30FC 1
370
     0
100
AcDbVertex
100
AcDb2dVertex
 10
106.7738443743482
 20
-134.5023844064786
 30
0.0
  0
SEQEND
  5
17A
330
174
100
AcDbEntity
  8
_U+30EC_U+30A4_U+30E4_U+30FC 1
370
     0
  0
HATCH
  5
17B
330
15B
100
AcDbEntity
  8
_U+30EC_U+30A4_U+30E4_U+30FC 1
 62
     7
420
 16777215
100
AcDbHatch
 10
0.0
 20
0.0
 30
0.0
210
0.0
220
0.0
230
1.0
  2
SOLID
 70
     1
 71
     0
 91
        1
 92
        1
 93
        4
 72
     1
 10
106.7738443743482
 20
-134.5023844064786
 11
106.5220078943764
 21
-134.5023844064786
 72
     1
 10
106.5220078943764
 20
-134.5023844064786
 11
106.5220078943764
 21
-134.2505479265068
 72
     1
 10
106.5220078943764
 20
-134.2505479265068
 11
106.7738443743482
 21
-134.2505479265068
 72
     1
 10
106.7738443743482
 20
-134.2505479265068
 11
106.7738443743482
 21
-134.5023844064786
 97
        0
 75
     2
 76
     1
 98
        0
  0
SPLINE
  5
17C
330
15B
100
AcDbEntity
  8
_U+30EC_U+30A4_U+30E4_U+30FC 1
370
     0
100
AcDbSpline
210
0.0
220
0.0
230
1.0
 70
    11
 71
     3
 72
    53
 73
    49
 74
     0
 42
0.0000000001
 43
0.0000000001
 12
1.0
 22
0.0
 32
0.0
 13
1.0
 23
0.0
 33
0.0
 40
0.0
 40
0.0
 40
0.0
 40
0.0
 40
1.0
 40
1.0
 40
1.0
 40
2.0
 40
2.0
 40
2.0
 40
3.0
 40
3.0
 40
3.0
 40
4.0
 40
4.0
 40
4.0
 40
5.0
 40
5.0
 40
5.0
 40
6.0
 40
6.0
 40
6.0
 40
7.0
 40
7.0
 40
7.0
 40
8.0
 40
8.0
 40
8.0
 40
9.0
 40
9.0
 40
9.0
 40
10.0
 40
10.0
 40
10.0
 40
11.0
 40
11.0
 40
11.0
 40
12.0
 40
12.0
 40
12.0
 40
13.0
 40
13.0
 40
13.0
 40
14.0
 40
14.0
 40
14.0
 40
15.0
 40
15.0
 40
15.0
 40
16.0
 40
16.0
 40
16.0
 40
16.0
 10
106.8244872779814
 20
-133.5332790464778
 30
0.0
 10
106.8244872779814
 20
-133.611482713993
 30
0.0
 10
106.8076063101037
 20
-133.7131130308078
 30
0.0
 10
106.7442165531751
 20
-133.8147433476227
 30
0.0
 10
106.6343180071956
 20
-133.9880316505308
 30
0.0
 10
106.5030598692076
 20
-134.0093912425393
 30
0.0
 10
106.3952283805193
 20
-134.0283392677082
 30
0.0
 10
106.3952283805193
 20
-134.0283392677082
 30
0.0
 10
106.3952283805193
 20
-133.8061306089096
 30
0.0
 10
106.3952283805193
 20
-133.8061306089096
 30
0.0
 10
106.5940103900182
 20
-133.7513535906941
 30
0.0
 10
106.6236382111913
 20
-133.6242295672884
 30
0.0
 10
106.6236382111913
 20
-133.5312119891867
 30
0.0
 10
106.6236382111913
 20
-133.391685622034
 30
0.0
 10
106.5240749516676
 20
-133.239412401586
 30
0.0
 10
106.2915310064132
 20
-133.239412401586
 30
0.0
 10
106.0355604118592
 20
-133.239412401586
 30
0.0
 10
105.9656249735086
 20
-133.419246385916
 30
0.0
 10
105.9656249735086
 20
-133.5398247278998
 30
0.0
 10
105.9656249735086
 20
-133.5715196063641
 30
0.0
 10
105.9656249735086
 20
-133.7131130308078
 30
0.0
 10
106.0948160542055
 20
-133.8019964943273
 30
0.0
 10
106.0948160542055
 20
-133.8019964943273
 30
0.0
 10
106.0758680290366
 20
-133.977696364075
 30
0.0
 10
106.0758680290366
 20
-133.977696364075
 30
0.0
 10
106.0758680290366
 20
-133.977696364075
 30
0.0
 10
105.2294080683107
 20
-133.8571180220913
 30
0.0
 10
105.2294080683107
 20
-133.8571180220913
 30
0.0
 10
105.2294080683107
 20
-133.8571180220913
 30
0.0
 10
105.2294080683107
 20
-133.0785264424248
 30
0.0
 10
105.2294080683107
 20
-133.0785264424248
 30
0.0
 10
105.2294080683107
 20
-133.0785264424248
 30
0.0
 10
105.4240559632273
 20
-133.0785264424248
 30
0.0
 10
105.4240559632273
 20
-133.0785264424248
 30
0.0
 10
105.4240559632273
 20
-133.0785264424248
 30
0.0
 10
105.4240559632273
 20
-133.694165005639
 30
0.0
 10
105.4240559632273
 20
-133.694165005639
 30
0.0
 10
105.4240559632273
 20
-133.694165005639
 30
0.0
 10
105.847113688816
 20
-133.7596218198587
 30
0.0
 10
105.847113688816
 20
-133.7596218198587
 30
0.0
 10
105.8133517530606
 20
-133.6982991202213
 30
0.0
 10
105.7730441358831
 20
-133.6159613381238
 30
0.0
 10
105.7730441358831
 20
-133.4974500534312
 30
0.0
 10
105.7730441358831
 20
-133.2435465161683
 30
0.0
 10
105.9594238016352
 20
-133.0065239467831
 30
0.0
 10
106.2725829812444
 20
-133.0065239467831
 30
0.0
 10
106.5898762754359
 20
-133.0065239467831
 30
0.0
 10
106.8244872779814
 20
-133.2307996628729
 30
0.0
 10
106.8244872779814
 20
-133.5332790464778
 30
0.0
  0
HATCH
  5
17D
330
15B
100
AcDbEntity
  8
_U+30EC_U+30A4_U+30E4_U+30FC 1
 62
     7
420
 16777215
100
AcDbHatch
 10
0.0
 20
0.0
 30
0.0
210
0.0
220
0.0
230
1.0
  2
SOLID
 70
     1
 71
     0
 91
        1
 92
        1
 93
        1
 72
     4
 94
        3
 73
     0
 74
     1
 95
       53
 96
       49
 40
0.0
 40
0.0
 40
0.0
 40
0.0
 40
1.0
 40
1.0
 40
1.0
 40
2.0
 40
2.0
 40
2.0
 40
3.0
 40
3.0
 40
3.0
 40
4.0
 40
4.0
 40
4.0
 40
5.0
 40
5.0
 40
5.0
 40
6.0
 40
6.0
 40
6.0
 40
7.0
 40
7.0
 40
7.0
 40
8.0
 40
8.0
 40
8.0
 40
9.0
 40
9.0
 40
9.0
 40
10.0
 40
10.0
 40
10.0
 40
11.0
 40
11.0
 40
11.0
 40
12.0
 40
12.0
 40
12.0
 40
13.0
 40
13.0
 40
13.0
 40
14.0
 40
14.0
 40
14.0
 40
15.0
 40
15.0
 40
15.0
 40
16.0
 40
16.0
 40
16.0
 40
16.0
 10
106.8244872779814
 20
-133.5332790464778
 10
106.8244872779814
 20
-133.611482713993
 10
106.8076063101037
 20
-133.7131130308078
 10
106.7442165531751
 20
-133.8147433476227
 10
106.6343180071956
 20
-133.9880316505308
 10
106.5030598692076
 20
-134.0093912425393
 10
106.3952283805193
 20
-134.0283392677082
 10
106.3952283805193
 20
-134.0283392677082
 10
106.3952283805193
 20
-133.8061306089096
 10
106.3952283805193
 20
-133.8061306089096
 10
106.5940103900182
 20
-133.7513535906941
 10
106.6236382111913
 20
-133.6242295672884
 10
106.6236382111913
 20
-133.5312119891867
 10
106.6236382111913
 20
-133.391685622034
 10
106.5240749516676
 20
-133.239412401586
 10
106.2915310064132
 20
-133.239412401586
 10
106.0355604118592
 20
-133.239412401586
 10
105.9656249735086
 20
-133.419246385916
 10
105.9656249735086
 20
-133.5398247278998
 10
105.9656249735086
 20
-133.5715196063641
 10
105.9656249735086
 20
-133.7131130308078
 10
106.0948160542055
 20
-133.8019964943273
 10
106.0948160542055
 20
-133.8019964943273
 10
106.0758680290366
 20
-133.977696364075
 10
106.0758680290366
 20
-133.977696364075
 10
106.0758680290366
 20
-133.977696364075
 10
105.2294080683107
 20
-133.8571180220913
 10
105.2294080683107
 20
-133.8571180220913
 10
105.2294080683107
 20
-133.8571180220913
 10
105.2294080683107
 20
-133.0785264424248
 10
105.2294080683107
 20
-133.0785264424248
 10
105.2294080683107
 20
-133.0785264424248
 10
105.4240559632273
 20
-133.0785264424248
 10
105.4240559632273
 20
-133.0785264424248
 10
105.4240559632273
 20
-133.0785264424248
 10
105.4240559632273
 20
-133.694165005639
 10
105.4240559632273
 20
-133.694165005639
 10
105.4240559632273
 20
-133.694165005639
 10
105.847113688816
 20
-133.7596218198587
 10
105.847113688816
 20
-133.7596218198587
 10
105.8133517530606
 20
-133.6982991202213
 10
105.7730441358831
 20
-133.6159613381238
 10
105.7730441358831
 20
-133.4974500534312
 10
105.7730441358831
 20
-133.2435465161683
 10
105.9594238016352
 20
-133.0065239467831
 10
106.2725829812444
 20
-133.0065239467831
 10
106.5898762754359
 20
-133.0065239467831
 10
106.8244872779814
 20
-133.2307996628729
 10
106.8244872779814
 20
-133.5332790464778
 97
        0
 97
        0
 75
     2
 76
     1
 98
        0
  0
ENDBLK
  5
15E
330
15B
100
AcDbEntity
  8
0
100
AcDbBlockEnd
  0
BLOCK
  5
18C
330
18A
100
AcDbEntity
  8
0
100
AcDbBlockBegin
  2
block 10
 70
     0
 10
0.0
 20
0.0
 30
0.0
  3
block 10
  1

  0
SPLINE
  5
18E
330
18A
100
AcDbEntity
  8
_U+30EC_U+30A4_U+30E4_U+30FC 1
370
     0
100
AcDbSpline
210
0.0
220
0.0
230
1.0
 70
    11
 71
     3
 72
    44
 73
    40
 74
     0
 42
0.0000000001
 43
0.0000000001
 12
1.0
 22
0.0
 32
0.0
 13
1.0
 23
0.0
 33
0.0
 40
0.0
 40
0.0
 40
0.0
 40
0.0
 40
1.0
 40
1.0
 40
1.0
 40
2.0
 40
2.0
 40
2.0
 40
3.0
 40
3.0
 40
3.0
 40
4.0
 40
4.0
 40
4.0
 40
5.0
 40
5.0
 40
5.0
 40
6.0
 40
6.0
 40
6.0
 40
7.0
 40
7.0
 40
7.0
 40
8.0
 40
8.0
 40
8.0
 40
9.0
 40
9.0
 40
9.0
 40
10.0
 40
10.0
 40
10.0
 40
11.0
 40
11.0
 40
11.0
 40
12.0
 40
12.0
 40
12.0
 40
13.0
 40
13.0
 40
13.0
 40
13.0
 10
89.00025225639577
 20
-130.7393066079402
 30
0.0
 10
88.97682560709607
 20
-130.6948648761804
 30
0.0
 10
88.95581052463605
 20
-130.6421549152561
 30
0.0
 10
88.95357121257064
 20
-130.4113335177444
 30
0.0
 10
88.94943709798834
 20
-130.1681097764857
 30
0.0
 10
88.89018145564204
 20
-130.0985188476837
 30
0.0
 10
88.71241452860315
 20
-130.0985188476837
 30
0.0
 10
88.71241452860315
 20
-130.0985188476837
 30
0.0
 10
88.30417071360104
 20
-130.0985188476837
 30
0.0
 10
88.30417071360104
 20
-130.0985188476837
 30
0.0
 10
88.30417071360104
 20
-130.0985188476837
 30
0.0
 10
88.30417071360104
 20
-130.7393066079402
 30
0.0
 10
88.30417071360104
 20
-130.7393066079402
 30
0.0
 10
88.30417071360104
 20
-130.7393066079402
 30
0.0
 10
88.06938745628126
 20
-130.7393066079402
 30
0.0
 10
88.06938745628126
 20
-130.7393066079402
 30
0.0
 10
88.06938745628126
 20
-130.7393066079402
 30
0.0
 10
88.06938745628126
 20
-129.1952148114512
 30
0.0
 10
88.06938745628126
 20
-129.1952148114512
 30
0.0
 10
88.06938745628126
 20
-129.1952148114512
 30
0.0
 10
88.74428166184171
 20
-129.1952148114512
 30
0.0
 10
88.74428166184171
 20
-129.1952148114512
 30
0.0
 10
89.05089516002894
 20
-129.1952148114512
 30
0.0
 10
89.21798229106356
 20
-129.3660915475196
 30
0.0
 10
89.21798229106356
 20
-129.6224066516222
 30
0.0
 10
89.21798229106356
 20
-129.6730495552553
 30
0.0
 10
89.20954180712471
 20
-129.7553873373528
 30
0.0
 10
89.16510007536498
 20
-129.8360025717077
 30
0.0
 10
89.10601668779294
 20
-129.9396999458137
 30
0.0
 10
89.04038761879893
 20
-129.9586479709826
 30
0.0
 10
88.97906491916149
 20
-129.9755289388603
 30
0.0
 10
89.11652422902296
 20
-130.0179036133289
 30
0.0
 10
89.18422035530811
 20
-130.0668239692194
 30
0.0
 10
89.18852672466468
 20
-130.3817056965713
 30
0.0
 10
89.19266083924698
 20
-130.6524902017119
 30
0.0
 10
89.22866208706783
 20
-130.6841850801762
 30
0.0
 10
89.296358213353
 20
-130.7393066079402
 30
0.0
 10
89.296358213353
 20
-130.7393066079402
 30
0.0
 10
89.00025225639577
 20
-130.7393066079402
 30
0.0
 10
89.00025225639577
 20
-130.7393066079402
 30
0.0
  0
SPLINE
  5
18F
330
18A
100
AcDbEntity
  8
_U+30EC_U+30A4_U+30E4_U+30FC 1
370
     0
100
AcDbSpline
210
0.0
220
0.0
230
1.0
 70
    11
 71
     3
 72
    20
 73
    16
 74
     0
 42
0.0000000001
 43
0.0000000001
 12
1.0
 22
0.0
 32
0.0
 13
1.0
 23
0.0
 33
0.0
 40
0.0
 40
0.0
 40
0.0
 40
0.0
 40
1.0
 40
1.0
 40
1.0
 40
2.0
 40
2.0
 40
2.0
 40
3.0
 40
3.0
 40
3.0
 40
4.0
 40
4.0
 40
4.0
 40
5.0
 40
5.0
 40
5.0
 40
5.0
 10
88.74841577642401
 20
-129.4067436742455
 30
0.0
 10
88.74841577642401
 20
-129.4067436742455
 30
0.0
 10
88.30417071360104
 20
-129.4067436742455
 30
0.0
 10
88.30417071360104
 20
-129.4067436742455
 30
0.0
 10
88.30417071360104
 20
-129.4067436742455
 30
0.0
 10
88.30417071360104
 20
-129.8869899848894
 30
0.0
 10
88.30417071360104
 20
-129.8869899848894
 30
0.0
 10
88.30417071360104
 20
-129.8869899848894
 30
0.0
 10
88.74634871913287
 20
-129.8869899848894
 30
0.0
 10
88.74634871913287
 20
-129.8869899848894
 30
0.0
 10
88.84573972388232
 20
-129.8869899848894
 30
0.0
 10
88.98113197645264
 20
-129.8105088651168
 30
0.0
 10
88.98113197645264
 20
-129.6392876194999
 30
0.0
 10
88.98113197645264
 20
-129.5610839519847
 30
0.0
 10
88.94719778592292
 20
-129.4067436742455
 30
0.0
 10
88.74841577642401
 20
-129.4067436742455
 30
0.0
  0
HATCH
  5
190
330
18A
100
AcDbEntity
  8
_U+30EC_U+30A4_U+30E4_U+30FC 1
 62
   179
420
  2234388
100
AcDbHatch
 10
0.0
 20
0.0
 30
0.0
210
0.0
220
0.0
230
1.0
  2
SOLID
 70
     1
 71
     0
 91
        2
 92
        1
 93
        1
 72
     4
 94
        3
 73
     0
 74
     1
 95
       44
 96
       40
 40
0.0
 40
0.0
 40
0.0
 40
0.0
 40
1.0
 40
1.0
 40
1.0
 40
2.0
 40
2.0
 40
2.0
 40
3.0
 40
3.0
 40
3.0
 40
4.0
 40
4.0
 40
4.0
 40
5.0
 40
5.0
 40
5.0
 40
6.0
 40
6.0
 40
6.0
 40
7.0
 40
7.0
 40
7.0
 40
8.0
 40
8.0
 40
8.0
 40
9.0
 40
9.0
 40
9.0
 40
10.0
 40
10.0
 40
10.0
 40
11.0
 40
11.0
 40
11.0
 40
12.0
 40
12.0
 40
12.0
 40
13.0
 40
13.0
 40
13.0
 40
13.0
 10
89.00025225639577
 20
-130.7393066079402
 10
88.97682560709607
 20
-130.6948648761804
 10
88.95581052463605
 20
-130.6421549152561
 10
88.95357121257064
 20
-130.4113335177444
 10
88.94943709798834
 20
-130.1681097764857
 10
88.89018145564204
 20
-130.0985188476837
 10
88.71241452860315
 20
-130.0985188476837
 10
88.71241452860315
 20
-130.0985188476837
 10
88.30417071360104
 20
-130.0985188476837
 10
88.30417071360104
 20
-130.0985188476837
 10
88.30417071360104
 20
-130.0985188476837
 10
88.30417071360104
 20
-130.7393066079402
 10
88.30417071360104
 20
-130.7393066079402
 10
88.30417071360104
 20
-130.7393066079402
 10
88.06938745628126
 20
-130.7393066079402
 10
88.06938745628126
 20
-130.7393066079402
 10
88.06938745628126
 20
-130.7393066079402
 10
88.06938745628126
 20
-129.1952148114512
 10
88.06938745628126
 20
-129.1952148114512
 10
88.06938745628126
 20
-129.1952148114512
 10
88.74428166184171
 20
-129.1952148114512
 10
88.74428166184171
 20
-129.1952148114512
 10
89.05089516002894
 20
-129.1952148114512
 10
89.21798229106356
 20
-129.3660915475196
 10
89.21798229106356
 20
-129.6224066516222
 10
89.21798229106356
 20
-129.6730495552553
 10
89.20954180712471
 20
-129.7553873373528
 10
89.16510007536498
 20
-129.8360025717077
 10
89.10601668779294
 20
-129.9396999458137
 10
89.04038761879893
 20
-129.9586479709826
 10
88.97906491916149
 20
-129.9755289388603
 10
89.11652422902296
 20
-130.0179036133289
 10
89.18422035530811
 20
-130.0668239692194
 10
89.18852672466468
 20
-130.3817056965713
 10
89.19266083924698
 20
-130.6524902017119
 10
89.22866208706783
 20
-130.6841850801762
 10
89.296358213353
 20
-130.7393066079402
 10
89.296358213353
 20
-130.7393066079402
 10
89.00025225639577
 20
-130.7393066079402
 10
89.00025225639577
 20
-130.7393066079402
 97
        0
 97
        0
 92
        1
 93
        1
 72
     4
 94
        3
 73
     0
 74
     1
 95
       20
 96
       16
 40
0.0
 40
0.0
 40
0.0
 40
0.0
 40
1.0
 40
1.0
 40
1.0
 40
2.0
 40
2.0
 40
2.0
 40
3.0
 40
3.0
 40
3.0
 40
4.0
 40
4.0
 40
4.0
 40
5.0
 40
5.0
 40
5.0
 40
5.0
 10
88.74841577642401
 20
-129.4067436742455
 10
88.74841577642401
 20
-129.4067436742455
 10
88.30417071360104
 20
-129.4067436742455
 10
88.30417071360104
 20
-129.4067436742455
 10
88.30417071360104
 20
-129.4067436742455
 10
88.30417071360104
 20
-129.8869899848894
 10
88.30417071360104
 20
-129.8869899848894
 10
88.30417071360104
 20
-129.8869899848894
 10
88.74634871913287
 20
-129.8869899848894
 10
88.74634871913287
 20
-129.8869899848894
 10
88.84573972388232
 20
-129.8869899848894
 10
88.98113197645264
 20
-129.8105088651168
 10
88.98113197645264
 20
-129.6392876194999
 10
88.98113197645264
 20
-129.5610839519847
 10
88.94719778592292
 20
-129.4067436742455
 10
88.74841577642401
 20
-129.4067436742455
 97
        0
 97
        0
 75
     2
 76
     1
 98
        0
  0
SPLINE
  5
191
330
18A
100
AcDbEntity
  8
_U+30EC_U+30A4_U+30E4_U+30FC 1
370
     0
100
AcDbSpline
210
0.0
220
0.0
230
1.0
 70
    11
 71
     3
 72
    26
 73
    22
 74
     0
 42
0.0000000001
 43
0.0000000001
 12
1.0
 22
0.0
 32
0.0
 13
1.0
 23
0.0
 33
0.0
 40
0.0
 40
0.0
 40
0.0
 40
0.0
 40
1.0
 40
1.0
 40
1.0
 40
2.0
 40
2.0
 40
2.0
 40
3.0
 40
3.0
 40
3.0
 40
4.0
 40
4.0
 40
4.0
 40
5.0
 40
5.0
 40
5.0
 40
6.0
 40
6.0
 40
6.0
 40
7.0
 40
7.0
 40
7.0
 40
7.0
 10
89.88736434384761
 20
-130.7393066079402
 30
0.0
 10
89.88736434384761
 20
-130.7393066079402
 30
0.0
 10
89.88736434384761
 20
-129.6348089953691
 30
0.0
 10
89.88736434384761
 20
-129.6348089953691
 30
0.0
 10
89.88736434384761
 20
-129.6348089953691
 30
0.0
 10
89.55732419636067
 20
-129.6348089953691
 30
0.0
 10
89.55732419636067
 20
-129.6348089953691
 30
0.0
 10
89.55732419636067
 20
-129.6348089953691
 30
0.0
 10
89.55732419636067
 20
-129.4870143990519
 30
0.0
 10
89.55732419636067
 20
-129.4870143990519
 30
0.0
 10
89.88943140113875
 20
-129.4722004884653
 30
0.0
 10
89.93594019018963
 20
-129.309247472013
 30
0.0
 10
89.96556801136278
 20
-129.1952148114512
 30
0.0
 10
89.96556801136278
 20
-129.1952148114512
 30
0.0
 10
90.11164005993737
 20
-129.1952148114512
 30
0.0
 10
90.11164005993737
 20
-129.1952148114512
 30
0.0
 10
90.11164005993737
 20
-129.1952148114512
 30
0.0
 10
90.11164005993737
 20
-130.7393066079402
 30
0.0
 10
90.11164005993737
 20
-130.7393066079402
 30
0.0
 10
90.11164005993737
 20
-130.7393066079402
 30
0.0
 10
89.88736434384761
 20
-130.7393066079402
 30
0.0
 10
89.88736434384761
 20
-130.7393066079402
 30
0.0
  0
HATCH
  5
192
330
18A
100
AcDbEntity
  8
_U+30EC_U+30A4_U+30E4_U+30FC 1
 62
   179
420
  2234388
100
AcDbHatch
 10
0.0
 20
0.0
 30
0.0
210
0.0
220
0.0
230
1.0
  2
SOLID
 70
     1
 71
     0
 91
        1
 92
        1
 93
        1
 72
     4
 94
        3
 73
     0
 74
     1
 95
       26
 96
       22
 40
0.0
 40
0.0
 40
0.0
 40
0.0
 40
1.0
 40
1.0
 40
1.0
 40
2.0
 40
2.0
 40
2.0
 40
3.0
 40
3.0
 40
3.0
 40
4.0
 40
4.0
 40
4.0
 40
5.0
 40
5.0
 40
5.0
 40
6.0
 40
6.0
 40
6.0
 40
7.0
 40
7.0
 40
7.0
 40
7.0
 10
89.88736434384761
 20
-130.7393066079402
 10
89.88736434384761
 20
-130.7393066079402
 10
89.88736434384761
 20
-129.6348089953691
 10
89.88736434384761
 20
-129.6348089953691
 10
89.88736434384761
 20
-129.6348089953691
 10
89.55732419636067
 20
-129.6348089953691
 10
89.55732419636067
 20
-129.6348089953691
 10
89.55732419636067
 20
-129.6348089953691
 10
89.55732419636067
 20
-129.4870143990519
 10
89.55732419636067
 20
-129.4870143990519
 10
89.88943140113875
 20
-129.4722004884653
 10
89.93594019018963
 20
-129.309247472013
 10
89.96556801136278
 20
-129.1952148114512
 10
89.96556801136278
 20
-129.1952148114512
 10
90.11164005993737
 20
-129.1952148114512
 10
90.11164005993737
 20
-129.1952148114512
 10
90.11164005993737
 20
-129.1952148114512
 10
90.11164005993737
 20
-130.7393066079402
 10
90.11164005993737
 20
-130.7393066079402
 10
90.11164005993737
 20
-130.7393066079402
 10
89.88736434384761
 20
-130.7393066079402
 10
89.88736434384761
 20
-130.7393066079402
 97
        0
 97
        0
 75
     2
 76
     1
 98
        0
  0
ENDBLK
  5
18D
330
18A
100
AcDbEntity
  8
0
100
AcDbBlockEnd
  0
ENDSEC
  0
SECTION
  2
ENTITIES
  0
POLYLINE
  5
41
330
1F
100
AcDbEntity
  8
_U+30EC_U+30A4_U+30E4_U+30FC 1
 62
     7
420
 16777215
370
    25
100
AcDb2dPolyline
 66
     1
 10
0.0
 20
0.0
 30
0.0
  0
VERTEX
  5
42
330
41
100
AcDbEntity
  8
_U+30EC_U+30A4_U+30E4_U+30FC 1
 62
     7
420
 16777215
370
    25
100
AcDbVertex
100
AcDb2dVertex
 10
79.86969824013202
 20
-119.2513066368539
 30
0.0
  0
VERTEX
  5
43
330
41
100
AcDbEntity
  8
_U+30EC_U+30A4_U+30E4_U+30FC 1
 62
     7
420
 16777215
370
    25
100
AcDbVertex
100
AcDb2dVertex
 10
79.86969824013202
 20
-134.2157519108908
 30
0.0
  0
SEQEND
  5
44
330
41
100
AcDbEntity
  8
_U+30EC_U+30A4_U+30E4_U+30FC 1
 62
     7
420
 16777215
370
    25
  0
POLYLINE
  5
45
330
1F
100
AcDbEntity
  8
_U+30EC_U+30A4_U+30E4_U+30FC 1
 62
     7
420
 16777215
370
    25
100
AcDb2dPolyline
 66
     1
 10
0.0
 20
0.0
 30
0.0
  0
VERTEX
  5
46
330
45
100
AcDbEntity
  8
_U+30EC_U+30A4_U+30E4_U+30FC 1
 62
     7
420
 16777215
370
    25
100
AcDbVertex
100
AcDb2dVertex
 10
83.40506064993741
 20
-137.7514671877844
 30
0.0
  0
VERTEX
  5
47
330
45
100
AcDbEntity
  8
_U+30EC_U+30A4_U+30E4_U+30FC 1
 62
     7
420
 16777215
370
    25
100
AcDbVertex
100
AcDb2dVertex
 10
103.3693895850494
 20
-137.7514671877844
 30
0.0
  0
SEQEND
  5
48
330
45
100
AcDbEntity
  8
_U+30EC_U+30A4_U+30E4_U+30FC 1
 62
     7
420
 16777215
370
    25
  0
POLYLINE
  5
49
330
1F
100
AcDbEntity
  8
_U+30EC_U+30A4_U+30E4_U+30FC 1
 62
     7
420
 16777215
370
    25
100
AcDb2dPolyline
 66
     1
 10
0.0
 20
0.0
 30
0.0
  0
VERTEX
  5
4A
330
49
100
AcDbEntity
  8
_U+30EC_U+30A4_U+30E4_U+30FC 1
 62
     7
420
 16777215
370
    25
100
AcDbVertex
100
AcDb2dVertex
 10
79.86969824013202
 20
-134.2157519108908
 30
0.0
  0
VERTEX
  5
4B
330
49
100
AcDbEntity
  8
_U+30EC_U+30A4_U+30E4_U+30FC 1
 62
     7
420
 16777215
370
    25
100
AcDbVertex
100
AcDb2dVertex
 10
83.40506064993741
 20
-137.7514671877844
 30
0.0
  0
SEQEND
  5
4C
330
49
100
AcDbEntity
  8
_U+30EC_U+30A4_U+30E4_U+30FC 1
 62
     7
420
 16777215
370
    25
  0
POLYLINE
  5
4D
330
1F
100
AcDbEntity
  8
_U+30EC_U+30A4_U+30E4_U+30FC 1
 62
     7
420
 16777215
370
    25
100
AcDb2dPolyline
 66
     1
 10
0.0
 20
0.0
 30
0.0
  0
VERTEX
  5
4E
330
4D
100
AcDbEntity
  8
_U+30EC_U+30A4_U+30E4_U+30FC 1
 62
     7
420
 16777215
370
    25
100
AcDbVertex
100
AcDb2dVertex
 10
95.86944005416682
 20
-136.9515082990957
 30
0.0
  0
VERTEX
  5
4F
330
4D
100
AcDbEntity
  8
_U+30EC_U+30A4_U+30E4_U+30FC 1
 62
     7
420
 16777215
370
    25
100
AcDbVertex
100
AcDb2dVertex
 10
103.1613212570243
 20
-136.9515082990957
 30
0.0
  0
SEQEND
  5
50
330
4D
100
AcDbEntity
  8
_U+30EC_U+30A4_U+30E4_U+30FC 1
 62
     7
420
 16777215
370
    25
  0
POLYLINE
  5
51
330
1F
100
AcDbEntity
  8
_U+30EC_U+30A4_U+30E4_U+30FC 1
 62
     7
420
 16777215
370
    25
100
AcDb2dPolyline
 66
     1
 10
0.0
 20
0.0
 30
0.0
  0
VERTEX
  5
52
330
51
100
AcDbEntity
  8
_U+30EC_U+30A4_U+30E4_U+30FC 1
 62
     7
420
 16777215
370
    25
100
AcDbVertex
100
AcDb2dVertex
 10
83.81918647270551
 20
-136.7513421880347
 30
0.0
  0
VERTEX
  5
53
330
51
100
AcDbEntity
  8
_U+30EC_U+30A4_U+30E4_U+30FC 1
 62
     7
420
 16777215
370
    25
100
AcDbVertex
100
AcDb2dVertex
 10
95.52283589634276
 20
-136.7513421880347
 30
0.0
  0
SEQEND
  5
54
330
51
100
AcDbEntity
  8
_U+30EC_U+30A4_U+30E4_U+30FC 1
 62
     7
420
 16777215
370
    25
  0
POLYLINE
  5
55
330
1F
100
AcDbEntity
  8
_U+30EC_U+30A4_U+30E4_U+30FC 1
 62
     7
420
 16777215
370
    25
100
AcDb2dPolyline
 66
     1
 10
0.0
 20
0.0
 30
0.0
  0
VERTEX
  5
56
330
55
100
AcDbEntity
  8
_U+30EC_U+30A4_U+30E4_U+30FC 1
 62
     7
420
 16777215
370
    25
100
AcDbVertex
100
AcDb2dVertex
 10
80.86947043684792
 20
-133.8016613554386
 30
0.0
  0
VERTEX
  5
57
330
55
100
AcDbEntity
  8
_U+30EC_U+30A4_U+30E4_U+30FC 1
 62
     7
420
 16777215
370
    25
100
AcDbVertex
100
AcDb2dVertex
 10
81.99119997950227
 20
-134.9230360773806
 30
0.0
  0
SEQEND
  5
58
330
55
100
AcDbEntity
  8
_U+30EC_U+30A4_U+30E4_U+30FC 1
 62
     7
420
 16777215
370
    25
  0
POLYLINE
  5
59
330
1F
100
AcDbEntity
  8
_U+30EC_U+30A4_U+30E4_U+30FC 1
 62
     7
420
 16777215
370
    25
100
AcDb2dPolyline
 66
     1
 10
0.0
 20
0.0
 30
0.0
  0
VERTEX
  5
5A
330
59
100
AcDbEntity
  8
_U+30EC_U+30A4_U+30E4_U+30FC 1
 62
     7
420
 16777215
370
    25
100
AcDbVertex
100
AcDb2dVertex
 10
95.52283589634276
 20
-136.7513421880347
 30
0.0
  0
VERTEX
  5
5B
330
59
100
AcDbEntity
  8
_U+30EC_U+30A4_U+30E4_U+30FC 1
 62
     7
420
 16777215
370
    25
100
AcDbVertex
100
AcDb2dVertex
 10
95.86944005416682
 20
-136.9515082990957
 30
0.0
  0
SEQEND
  5
5C
330
59
100
AcDbEntity
  8
_U+30EC_U+30A4_U+30E4_U+30FC 1
 62
     7
420
 16777215
370
    25
  0
POLYLINE
  5
5D
330
1F
100
AcDbEntity
  8
_U+30EC_U+30A4_U+30E4_U+30FC 1
 62
     7
420
 16777215
370
    25
100
AcDb2dPolyline
 66
     1
 10
0.0
 20
0.0
 30
0.0
  0
VERTEX
  5
5E
330
5D
100
AcDbEntity
  8
_U+30EC_U+30A4_U+30E4_U+30FC 1
 62
     7
420
 16777215
370
    25
100
AcDbVertex
100
AcDb2dVertex
 10
80.86947043684792
 20
-127.0978252460032
 30
0.0
  0
VERTEX
  5
5F
330
5D
100
AcDbEntity
  8
_U+30EC_U+30A4_U+30E4_U+30FC 1
 62
     7
420
 16777215
370
    25
100
AcDbVertex
100
AcDb2dVertex
 10
80.86947043684792
 20
-133.8016613554386
 30
0.0
  0
SEQEND
  5
60
330
5D
100
AcDbEntity
  8
_U+30EC_U+30A4_U+30E4_U+30FC 1
 62
     7
420
 16777215
370
    25
  0
POLYLINE
  5
61
330
1F
100
AcDbEntity
  8
_U+30EC_U+30A4_U+30E4_U+30FC 1
 62
     7
420
 16777215
370
    25
100
AcDb2dPolyline
 66
     1
 10
0.0
 20
0.0
 30
0.0
  0
VERTEX
  5
62
330
61
100
AcDbEntity
  8
_U+30EC_U+30A4_U+30E4_U+30FC 1
 62
     7
420
 16777215
370
    25
100
AcDbVertex
100
AcDb2dVertex
 10
80.66965710861226
 20
-119.4600805256907
 30
0.0
  0
VERTEX
  5
63
330
61
100
AcDbEntity
  8
_U+30EC_U+30A4_U+30E4_U+30FC 1
 62
     7
420
 16777215
370
    25
100
AcDbVertex
100
AcDb2dVertex
 10
80.66965710861226
 20
-126.751256357201
 30
0.0
  0
SEQEND
  5
64
330
61
100
AcDbEntity
  8
_U+30EC_U+30A4_U+30E4_U+30FC 1
 62
     7
420
 16777215
370
    25
  0
POLYLINE
  5
65
330
1F
100
AcDbEntity
  8
_U+30EC_U+30A4_U+30E4_U+30FC 1
 62
     7
420
 16777215
370
    25
100
AcDb2dPolyline
 66
     1
 10
0.0
 20
0.0
 30
0.0
  0
VERTEX
  5
66
330
65
100
AcDbEntity
  8
_U+30EC_U+30A4_U+30E4_U+30FC 1
 62
     7
420
 16777215
370
    25
100
AcDbVertex
100
AcDb2dVertex
 10
80.66965710861226
 20
-126.751256357201
 30
0.0
  0
VERTEX
  5
67
330
65
100
AcDbEntity
  8
_U+30EC_U+30A4_U+30E4_U+30FC 1
 62
     7
420
 16777215
370
    25
100
AcDbVertex
100
AcDb2dVertex
 10
80.86947043684792
 20
-127.0978252460032
 30
0.0
  0
SEQEND
  5
68
330
65
100
AcDbEntity
  8
_U+30EC_U+30A4_U+30E4_U+30FC 1
 62
     7
420
 16777215
370
    25
  0
POLYLINE
  5
69
330
1F
100
AcDbEntity
  8
_U+30EC_U+30A4_U+30E4_U+30FC 1
 62
     7
420
 16777215
370
    25
100
AcDb2dPolyline
 66
     1
 10
0.0
 20
0.0
 30
0.0
  0
VERTEX
  5
6A
330
69
100
AcDbEntity
  8
_U+30EC_U+30A4_U+30E4_U+30FC 1
 62
     7
420
 16777215
370
    25
100
AcDbVertex
100
AcDb2dVertex
 10
85.1696550493633
 20
-131.7442260781753
 30
0.0
  0
VERTEX
  5
6B
330
69
100
AcDbEntity
  8
_U+30EC_U+30A4_U+30E4_U+30FC 1
 62
     7
420
 16777215
370
    25
100
AcDbVertex
100
AcDb2dVertex
 10
81.99119997950227
 20
-134.9230360773806
 30
0.0
  0
SEQEND
  5
6C
330
69
100
AcDbEntity
  8
_U+30EC_U+30A4_U+30E4_U+30FC 1
 62
     7
420
 16777215
370
    25
  0
POLYLINE
  5
6D
330
1F
100
AcDbEntity
  8
_U+30EC_U+30A4_U+30E4_U+30FC 1
 62
     7
420
 16777215
370
    25
100
AcDb2dPolyline
 66
     1
 10
0.0
 20
0.0
 30
0.0
  0
VERTEX
  5
6E
330
6D
100
AcDbEntity
  8
_U+30EC_U+30A4_U+30E4_U+30FC 1
 62
     7
420
 16777215
370
    25
100
AcDbVertex
100
AcDb2dVertex
 10
85.87658642021687
 20
-132.4515102446651
 30
0.0
  0
VERTEX
  5
6F
330
6D
100
AcDbEntity
  8
_U+30EC_U+30A4_U+30E4_U+30FC 1
 62
     7
420
 16777215
370
    25
100
AcDbVertex
100
AcDb2dVertex
 10
82.69812927908384
 20
-135.6299674660927
 30
0.0
  0
SEQEND
  5
70
330
6D
100
AcDbEntity
  8
_U+30EC_U+30A4_U+30E4_U+30FC 1
 62
     7
420
 16777215
370
    25
  0
POLYLINE
  5
71
330
1F
100
AcDbEntity
  8
_U+30EC_U+30A4_U+30E4_U+30FC 1
 62
     7
420
 16777215
370
    25
100
AcDb2dPolyline
 66
     1
 10
0.0
 20
0.0
 30
0.0
  0
VERTEX
  5
72
330
71
100
AcDbEntity
  8
_U+30EC_U+30A4_U+30E4_U+30FC 1
 62
     7
420
 16777215
370
    25
100
AcDbVertex
100
AcDb2dVertex
 10
82.69812927908384
 20
-135.6299674660927
 30
0.0
  0
VERTEX
  5
73
330
71
100
AcDbEntity
  8
_U+30EC_U+30A4_U+30E4_U+30FC 1
 62
     7
420
 16777215
370
    25
100
AcDbVertex
100
AcDb2dVertex
 10
83.81918647270551
 20
-136.7513421880347
 30
0.0
  0
SEQEND
  5
74
330
71
100
AcDbEntity
  8
_U+30EC_U+30A4_U+30E4_U+30FC 1
 62
     7
420
 16777215
370
    25
  0
POLYLINE
  5
75
330
1F
100
AcDbEntity
  8
_U+30EC_U+30A4_U+30E4_U+30FC 1
 62
     7
420
 16777215
370
    25
100
AcDb2dPolyline
 66
     1
 10
0.0
 20
0.0
 30
0.0
  0
VERTEX
  5
76
330
75
100
AcDbEntity
  8
_U+30EC_U+30A4_U+30E4_U+30FC 1
 62
     7
420
 16777215
370
    25
100
AcDbVertex
100
AcDb2dVertex
 10
85.87658642021687
 20
-132.4515102446651
 30
0.0
  0
VERTEX
  5
77
330
75
100
AcDbEntity
  8
_U+30EC_U+30A4_U+30E4_U+30FC 1
 62
     7
420
 16777215
370
    25
100
AcDbVertex
100
AcDb2dVertex
 10
93.1698434563726
 20
-132.4515102446651
 30
0.0
  0
SEQEND
  5
78
330
75
100
AcDbEntity
  8
_U+30EC_U+30A4_U+30E4_U+30FC 1
 62
     7
420
 16777215
370
    25
  0
POLYLINE
  5
79
330
1F
100
AcDbEntity
  8
_U+30EC_U+30A4_U+30E4_U+30FC 1
 62
     7
420
 16777215
370
    25
100
AcDb2dPolyline
 66
     1
 10
0.0
 20
0.0
 30
0.0
  0
VERTEX
  5
7A
330
79
100
AcDbEntity
  8
_U+30EC_U+30A4_U+30E4_U+30FC 1
 62
     7
420
 16777215
370
    25
100
AcDbVertex
100
AcDb2dVertex
 10
85.1696550493633
 20
-124.451321635554
 30
0.0
  0
VERTEX
  5
7B
330
79
100
AcDbEntity
  8
_U+30EC_U+30A4_U+30E4_U+30FC 1
 62
     7
420
 16777215
370
    25
100
AcDbVertex
100
AcDb2dVertex
 10
85.1696550493633
 20
-131.7442260781753
 30
0.0
  0
SEQEND
  5
7C
330
79
100
AcDbEntity
  8
_U+30EC_U+30A4_U+30E4_U+30FC 1
 62
     7
420
 16777215
370
    25
  0
POLYLINE
  5
7D
330
1F
100
AcDbEntity
  8
_U+30EC_U+30A4_U+30E4_U+30FC 1
 62
     7
420
 16777215
370
    25
100
AcDb2dPolyline
 66
     1
 10
0.0
 20
0.0
 30
0.0
  0
VERTEX
  5
7E
330
7D
100
AcDbEntity
  8
_U+30EC_U+30A4_U+30E4_U+30FC 1
 62
     7
420
 16777215
370
    25
100
AcDbVertex
100
AcDb2dVertex
 10
86.66963084442907
 20
-131.451420522693
 30
0.0
  0
VERTEX
  5
7F
330
7D
100
AcDbEntity
  8
_U+30EC_U+30A4_U+30E4_U+30FC 1
 62
     7
420
 16777215
370
    25
100
AcDbVertex
100
AcDb2dVertex
 10
92.8198173541914
 20
-131.451420522693
 30
0.0
  0
SEQEND
  5
80
330
7D
100
AcDbEntity
  8
_U+30EC_U+30A4_U+30E4_U+30FC 1
 62
     7
420
 16777215
370
    25
  0
POLYLINE
  5
81
330
1F
100
AcDbEntity
  8
_U+30EC_U+30A4_U+30E4_U+30FC 1
 62
     7
420
 16777215
370
    25
100
AcDb2dPolyline
 66
     1
 10
0.0
 20
0.0
 30
0.0
  0
VERTEX
  5
82
330
81
100
AcDbEntity
  8
_U+30EC_U+30A4_U+30E4_U+30FC 1
 62
     7
420
 16777215
370
    25
100
AcDbVertex
100
AcDb2dVertex
 10
86.16942724607921
 20
-124.8013477465775
 30
0.0
  0
VERTEX
  5
83
330
81
100
AcDbEntity
  8
_U+30EC_U+30A4_U+30E4_U+30FC 1
 62
     7
420
 16777215
370
    25
100
AcDbVertex
100
AcDb2dVertex
 10
86.16942724607921
 20
-130.9515344117064
 30
0.0
  0
SEQEND
  5
84
330
81
100
AcDbEntity
  8
_U+30EC_U+30A4_U+30E4_U+30FC 1
 62
     7
420
 16777215
370
    25
  0
SPLINE
  5
85
330
1F
100
AcDbEntity
  8
_U+30EC_U+30A4_U+30E4_U+30FC 1
 62
     7
420
 16777215
370
    25
100
AcDbSpline
210
0.0
220
0.0
230
1.0
 70
     8
 71
     3
 72
     8
 73
     4
 74
     0
 42
0.0000000001
 43
0.0000000001
 12
1.0
 22
0.0
 32
0.0
 13
1.0
 23
0.0
 33
0.0
 40
0.0
 40
0.0
 40
0.0
 40
0.0
 40
1.0
 40
1.0
 40
1.0
 40
1.0
 10
86.16942724607921
 20
-130.9515344117064
 30
0.0
 10
86.16942724607921
 20
-131.2274771894151
 30
0.0
 10
86.3933352959224
 20
-131.451420522693
 30
0.0
 10
86.66963084442907
 20
-131.451420522693
 30
0.0
  0
SPLINE
  5
86
330
1F
100
AcDbEntity
  8
_U+30EC_U+30A4_U+30E4_U+30FC 1
 62
     7
420
 16777215
370
    25
100
AcDbSpline
210
0.0
220
0.0
230
1.0
 70
     8
 71
     3
 72
     8
 73
     4
 74
     0
 42
0.0000000001
 43
0.0000000001
 12
1.0
 22
0.0
 32
0.0
 13
1.0
 23
0.0
 33
0.0
 40
0.0
 40
0.0
 40
0.0
 40
0.0
 40
1.0
 40
1.0
 40
1.0
 40
1.0
 10
86.16942724607921
 20
-124.8013477465775
 30
0.0
 10
85.88967447543851
 20
-124.5670680244139
 30
0.0
 10
85.53414720083863
 20
-124.4423610800005
 30
0.0
 10
85.1696550493633
 20
-124.451321635554
 30
0.0
  0
SPLINE
  5
87
330
1F
100
AcDbEntity
  8
_U+30EC_U+30A4_U+30E4_U+30FC 1
 62
     7
420
 16777215
370
    25
100
AcDbSpline
210
0.0
220
0.0
230
1.0
 70
     8
 71
     3
 72
     8
 73
     4
 74
     0
 42
0.0000000001
 43
0.0000000001
 12
1.0
 22
0.0
 32
0.0
 13
1.0
 23
0.0
 33
0.0
 40
0.0
 40
0.0
 40
0.0
 40
0.0
 40
1.0
 40
1.0
 40
1.0
 40
1.0
 10
93.1698434563726
 20
-132.4515102446651
 30
0.0
 10
93.17813608781672
 20
-132.0866674669786
 30
0.0
 10
93.05409707043665
 20
-131.7311380226226
 30
0.0
 10
92.8198173541914
 20
-131.451420522693
 30
0.0
  0
SPLINE
  5
88
330
1F
100
AcDbEntity
  8
_U+30EC_U+30A4_U+30E4_U+30FC 1
 62
     7
420
 16777215
370
    25
100
AcDbSpline
210
0.0
220
0.0
230
1.0
 70
     8
 71
     3
 72
     8
 73
     4
 74
     0
 42
0.0000000001
 43
0.0000000001
 12
1.0
 22
0.0
 32
0.0
 13
1.0
 23
0.0
 33
0.0
 40
0.0
 40
0.0
 40
0.0
 40
0.0
 40
1.0
 40
1.0
 40
1.0
 40
1.0
 10
103.3693895850494
 20
-137.7514671877844
 30
0.0
 10
103.3763040293174
 20
-137.4703385767437
 30
0.0
 10
103.3039493089411
 20
-137.1933374657018
 30
0.0
 10
103.1613212570243
 20
-136.9515082990957
 30
0.0
  0
SPLINE
  5
89
330
1F
100
AcDbEntity
  8
_U+30EC_U+30A4_U+30E4_U+30FC 1
 62
     7
420
 16777215
370
    25
100
AcDbSpline
210
0.0
220
0.0
230
1.0
 70
     8
 71
     3
 72
     8
 73
     4
 74
     0
 42
0.0000000001
 43
0.0000000001
 12
1.0
 22
0.0
 32
0.0
 13
1.0
 23
0.0
 33
0.0
 40
0.0
 40
0.0
 40
0.0
 40
0.0
 40
1.0
 40
1.0
 40
1.0
 40
1.0
 10
80.66965710861226
 20
-119.4600805256907
 30
0.0
 10
80.42782794811517
 20
-119.3167469146152
 30
0.0
 10
80.15082684407093
 20
-119.244392192411
 30
0.0
 10
79.86969824013202
 20
-119.2513066368539
 30
0.0
  0
SPLINE
  5
8A
330
1F
100
AcDbEntity
  8
_U+30EC_U+30A4_U+30E4_U+30FC 1
 62
     7
420
 16777215
370
     9
100
AcDbSpline
210
0.0
220
0.0
230
1.0
 70
    11
 71
     3
 72
    17
 73
    13
 74
     0
 42
0.0000000001
 43
0.0000000001
 12
1.0
 22
0.0
 32
0.0
 13
1.0
 23
0.0
 33
0.0
 40
0.0
 40
0.0
 40
0.0
 40
0.0
 40
1.0
 40
1.0
 40
1.0
 40
2.0
 40
2.0
 40
2.0
 40
3.0
 40
3.0
 40
3.0
 40
4.0
 40
4.0
 40
4.0
 40
4.0
 10
85.26956386757145
 20
-128.4514335789983
 30
0.0
 10
85.26956386757145
 20
-128.3959416345678
 30
0.0
 10
85.22476108980504
 20
-128.3511741345789
 30
0.0
 10
85.1696550493633
 20
-128.3511741345789
 30
0.0
 10
85.11451588410335
 20
-128.3511741345789
 30
0.0
 10
85.06974838524546
 20
-128.3959416345678
 30
0.0
 10
85.06974838524546
 20
-128.4514335789983
 30
0.0
 10
85.06974838524546
 20
-128.506890245651
 30
0.0
 10
85.11451588410335
 20
-128.5513402456399
 30
0.0
 10
85.1696550493633
 20
-128.5513402456399
 30
0.0
 10
85.22476108980504
 20
-128.5513402456399
 30
0.0
 10
85.26956386757145
 20
-128.506890245651
 30
0.0
 10
85.26956386757145
 20
-128.4514335789983
 30
0.0
  0
SPLINE
  5
8B
330
1F
100
AcDbEntity
  8
_U+30EC_U+30A4_U+30E4_U+30FC 1
 62
     7
420
 16777215
370
     9
100
AcDbSpline
210
0.0
220
0.0
230
1.0
 70
    11
 71
     3
 72
    17
 73
    13
 74
     0
 42
0.0000000001
 43
0.0000000001
 12
1.0
 22
0.0
 32
0.0
 13
1.0
 23
0.0
 33
0.0
 40
0.0
 40
0.0
 40
0.0
 40
0.0
 40
1.0
 40
1.0
 40
1.0
 40
2.0
 40
2.0
 40
2.0
 40
3.0
 40
3.0
 40
3.0
 40
4.0
 40
4.0
 40
4.0
 40
4.0
 10
86.26933608954366
 20
-128.4514335789983
 30
0.0
 10
86.26933608954366
 20
-128.3959416345678
 30
0.0
 10
86.22453331177726
 20
-128.3511741345789
 30
0.0
 10
86.16942724607921
 20
-128.3511741345789
 30
0.0
 10
86.11428808081926
 20
-128.3511741345789
 30
0.0
 10
86.06952058196137
 20
-128.3959416345678
 30
0.0
 10
86.06952058196137
 20
-128.4514335789983
 30
0.0
 10
86.06952058196137
 20
-128.506890245651
 30
0.0
 10
86.11428808081926
 20
-128.5513402456399
 30
0.0
 10
86.16942724607921
 20
-128.5513402456399
 30
0.0
 10
86.22453331177726
 20
-128.5513402456399
 30
0.0
 10
86.26933608954366
 20
-128.506890245651
 30
0.0
 10
86.26933608954366
 20
-128.4514335789983
 30
0.0
  0
SPLINE
  5
8C
330
1F
100
AcDbEntity
  8
_U+30EC_U+30A4_U+30E4_U+30FC 1
 62
     7
420
 16777215
370
     9
100
AcDbSpline
210
0.0
220
0.0
230
1.0
 70
    11
 71
     3
 72
    17
 73
    13
 74
     0
 42
0.0000000001
 43
0.0000000001
 12
1.0
 22
0.0
 32
0.0
 13
1.0
 23
0.0
 33
0.0
 40
0.0
 40
0.0
 40
0.0
 40
0.0
 40
1.0
 40
1.0
 40
1.0
 40
2.0
 40
2.0
 40
2.0
 40
3.0
 40
3.0
 40
3.0
 40
4.0
 40
4.0
 40
4.0
 40
4.0
 10
75.96988111740242
 20
-119.2513066368539
 30
0.0
 10
75.96988111740242
 20
-119.1961674702009
 30
0.0
 10
75.92507834076766
 20
-119.1513999702123
 30
0.0
 10
75.86997445328458
 20
-119.1513999702123
 30
0.0
 10
75.81416501026396
 20
-119.1513999702123
 30
0.0
 10
75.7693622336292
 20
-119.1961674702009
 30
0.0
 10
75.7693622336292
 20
-119.2513066368539
 30
0.0
 10
75.7693622336292
 20
-119.3064105257289
 30
0.0
 10
75.81416501026396
 20
-119.3512133034956
 30
0.0
 10
75.86997445328458
 20
-119.3512133034956
 30
0.0
 10
75.92507834076766
 20
-119.3512133034956
 30
0.0
 10
75.96988111740242
 20
-119.3064105257289
 30
0.0
 10
75.96988111740242
 20
-119.2513066368539
 30
0.0
  0
SPLINE
  5
8D
330
1F
100
AcDbEntity
  8
_U+30EC_U+30A4_U+30E4_U+30FC 1
 62
     7
420
 16777215
370
     9
100
AcDbSpline
210
0.0
220
0.0
230
1.0
 70
    11
 71
     3
 72
    17
 73
    13
 74
     0
 42
0.0000000001
 43
0.0000000001
 12
1.0
 22
0.0
 32
0.0
 13
1.0
 23
0.0
 33
0.0
 40
0.0
 40
0.0
 40
0.0
 40
0.0
 40
1.0
 40
1.0
 40
1.0
 40
2.0
 40
2.0
 40
2.0
 40
3.0
 40
3.0
 40
3.0
 40
4.0
 40
4.0
 40
4.0
 40
4.0
 10
75.96988111740242
 20
-137.7514671877844
 30
0.0
 10
75.96988111740242
 20
-137.6963280211313
 30
0.0
 10
75.92507834076766
 20
-137.6515605211427
 30
0.0
 10
75.86997445328458
 20
-137.6515605211427
 30
0.0
 10
75.81416501026396
 20
-137.6515605211427
 30
0.0
 10
75.7693622336292
 20
-137.6963280211313
 30
0.0
 10
75.7693622336292
 20
-137.7514671877844
 30
0.0
 10
75.7693622336292
 20
-137.8065710766593
 30
0.0
 10
75.81416501026396
 20
-137.851373854426
 30
0.0
 10
75.86997445328458
 20
-137.851373854426
 30
0.0
 10
75.92507834076766
 20
-137.851373854426
 30
0.0
 10
75.96988111740242
 20
-137.8065710766593
 30
0.0
 10
75.96988111740242
 20
-137.7514671877844
 30
0.0
  0
SPLINE
  5
8E
330
1F
100
AcDbEntity
  8
_U+30EC_U+30A4_U+30E4_U+30FC 1
 62
     7
420
 16777215
370
     9
100
AcDbSpline
210
0.0
220
0.0
230
1.0
 70
    11
 71
     3
 72
    17
 73
    13
 74
     0
 42
0.0000000001
 43
0.0000000001
 12
1.0
 22
0.0
 32
0.0
 13
1.0
 23
0.0
 33
0.0
 40
0.0
 40
0.0
 40
0.0
 40
0.0
 40
1.0
 40
1.0
 40
1.0
 40
2.0
 40
2.0
 40
2.0
 40
3.0
 40
3.0
 40
3.0
 40
4.0
 40
4.0
 40
4.0
 40
4.0
 10
74.31277810412308
 20
-139.8726141316983
 30
0.0
 10
74.31277810412308
 20
-139.8174749650458
 30
0.0
 10
74.26797532748832
 20
-139.7727074650566
 30
0.0
 10
74.21287144000524
 20
-139.7727074650566
 30
0.0
 10
74.1577322747453
 20
-139.7727074650566
 30
0.0
 10
74.11296664813837
 20
-139.8174749650458
 30
0.0
 10
74.11296664813837
 20
-139.8726141316983
 30
0.0
 10
74.11296664813837
 20
-139.9280707983516
 30
0.0
 10
74.1577322747453
 20
-139.9728382983402
 30
0.0
 10
74.21287144000524
 20
-139.9728382983402
 30
0.0
 10
74.26797532748832
 20
-139.9728382983402
 30
0.0
 10
74.31277810412308
 20
-139.9280707983516
 30
0.0
 10
74.31277810412308
 20
-139.8726141316983
 30
0.0
  0
SPLINE
  5
8F
330
1F
100
AcDbEntity
  8
_U+30EC_U+30A4_U+30E4_U+30FC 1
 62
     7
420
 16777215
370
     9
100
AcDbSpline
210
0.0
220
0.0
230
1.0
 70
    11
 71
     3
 72
    17
 73
    13
 74
     0
 42
0.0000000001
 43
0.0000000001
 12
1.0
 22
0.0
 32
0.0
 13
1.0
 23
0.0
 33
0.0
 40
0.0
 40
0.0
 40
0.0
 40
0.0
 40
1.0
 40
1.0
 40
1.0
 40
2.0
 40
2.0
 40
2.0
 40
3.0
 40
3.0
 40
3.0
 40
4.0
 40
4.0
 40
4.0
 40
4.0
 10
77.84814051392847
 20
-143.4082941308143
 30
0.0
 10
77.84814051392847
 20
-143.3531902419394
 30
0.0
 10
77.80333773729372
 20
-143.3083874641727
 30
0.0
 10
77.74823384981065
 20
-143.3083874641727
 30
0.0
 10
77.69309468455069
 20
-143.3083874641727
 30
0.0
 10
77.6483271856928
 20
-143.3531902419394
 30
0.0
 10
77.6483271856928
 20
-143.4082941308143
 30
0.0
 10
77.6483271856928
 20
-143.4634332974674
 30
0.0
 10
77.69309468455069
 20
-143.5082007974566
 30
0.0
 10
77.74823384981065
 20
-143.5082007974566
 30
0.0
 10
77.80333773729372
 20
-143.5082007974566
 30
0.0
 10
77.84814051392847
 20
-143.4634332974674
 30
0.0
 10
77.84814051392847
 20
-143.4082941308143
 30
0.0
  0
SPLINE
  5
90
330
1F
100
AcDbEntity
  8
_U+30EC_U+30A4_U+30E4_U+30FC 1
 62
     7
420
 16777215
370
     9
100
AcDbSpline
210
0.0
220
0.0
230
1.0
 70
    11
 71
     3
 72
    17
 73
    13
 74
     0
 42
0.0000000001
 43
0.0000000001
 12
1.0
 22
0.0
 32
0.0
 13
1.0
 23
0.0
 33
0.0
 40
0.0
 40
0.0
 40
0.0
 40
0.0
 40
1.0
 40
1.0
 40
1.0
 40
2.0
 40
2.0
 40
2.0
 40
3.0
 40
3.0
 40
3.0
 40
4.0
 40
4.0
 40
4.0
 40
4.0
 10
79.96960490424985
 20
-141.7515438534508
 30
0.0
 10
79.96960490424985
 20
-141.6960871867982
 30
0.0
 10
79.92483740539197
 20
-141.6513196868096
 30
0.0
 10
79.86969824013202
 20
-141.6513196868096
 30
0.0
 10
79.81459435264895
 20
-141.6513196868096
 30
0.0
 10
79.76979157601419
 20
-141.6960871867982
 30
0.0
 10
79.76979157601419
 20
-141.7515438534508
 30
0.0
 10
79.76979157601419
 20
-141.8066830201039
 30
0.0
 10
79.81459435264895
 20
-141.8514505200925
 30
0.0
 10
79.86969824013202
 20
-141.8514505200925
 30
0.0
 10
79.92483740539197
 20
-141.8514505200925
 30
0.0
 10
79.96960490424985
 20
-141.8066830201039
 30
0.0
 10
79.96960490424985
 20
-141.7515438534508
 30
0.0
  0
SPLINE
  5
91
330
1F
100
AcDbEntity
  8
_U+30EC_U+30A4_U+30E4_U+30FC 1
 62
     7
420
 16777215
370
     9
100
AcDbSpline
210
0.0
220
0.0
230
1.0
 70
    11
 71
     3
 72
    17
 73
    13
 74
     0
 42
0.0000000001
 43
0.0000000001
 12
1.0
 22
0.0
 32
0.0
 13
1.0
 23
0.0
 33
0.0
 40
0.0
 40
0.0
 40
0.0
 40
0.0
 40
1.0
 40
1.0
 40
1.0
 40
2.0
 40
2.0
 40
2.0
 40
3.0
 40
3.0
 40
3.0
 40
4.0
 40
4.0
 40
4.0
 40
4.0
 10
103.4692962491672
 20
-141.7515438534508
 30
0.0
 10
103.4692962491672
 20
-141.6960871867982
 30
0.0
 10
103.4245287503093
 20
-141.6513196868096
 30
0.0
 10
103.3693895850494
 20
-141.6513196868096
 30
0.0
 10
103.3142856975663
 20
-141.6513196868096
 30
0.0
 10
103.2694829209316
 20
-141.6960871867982
 30
0.0
 10
103.2694829209316
 20
-141.7515438534508
 30
0.0
 10
103.2694829209316
 20
-141.8066830201039
 30
0.0
 10
103.3142856975663
 20
-141.8514505200925
 30
0.0
 10
103.3693895850494
 20
-141.8514505200925
 30
0.0
 10
103.4245287503093
 20
-141.8514505200925
 30
0.0
 10
103.4692962491672
 20
-141.8066830201039
 30
0.0
 10
103.4692962491672
 20
-141.7515438534508
 30
0.0
  0
SPLINE
  5
92
330
1F
100
AcDbEntity
  8
_U+30EC_U+30A4_U+30E4_U+30FC 1
 62
     7
420
 16777215
370
     9
100
AcDbSpline
210
0.0
220
0.0
230
1.0
 70
    11
 71
     3
 72
    17
 73
    13
 74
     0
 42
0.0000000001
 43
0.0000000001
 12
1.0
 22
0.0
 32
0.0
 13
1.0
 23
0.0
 33
0.0
 40
0.0
 40
0.0
 40
0.0
 40
0.0
 40
1.0
 40
1.0
 40
1.0
 40
2.0
 40
2.0
 40
2.0
 40
3.0
 40
3.0
 40
3.0
 40
4.0
 40
4.0
 40
4.0
 40
4.0
 10
107.4697608693291
 20
-136.9515082990957
 30
0.0
 10
107.4697608693291
 20
-136.8960516324424
 30
0.0
 10
107.4249580926943
 20
-136.8512488546763
 30
0.0
 10
107.3698542052113
 20
-136.8512488546763
 30
0.0
 10
107.3140447621906
 20
-136.8512488546763
 30
0.0
 10
107.2692419855559
 20
-136.8960516324424
 30
0.0
 10
107.2692419855559
 20
-136.9515082990957
 30
0.0
 10
107.2692419855559
 20
-137.0066121879706
 30
0.0
 10
107.3140447621906
 20
-137.0514149657374
 30
0.0
 10
107.3698542052113
 20
-137.0514149657374
 30
0.0
 10
107.4249580926943
 20
-137.0514149657374
 30
0.0
 10
107.4697608693291
 20
-137.0066121879706
 30
0.0
 10
107.4697608693291
 20
-136.9515082990957
 30
0.0
  0
SPLINE
  5
93
330
1F
100
AcDbEntity
  8
_U+30EC_U+30A4_U+30E4_U+30FC 1
 62
     7
420
 16777215
370
     9
100
AcDbSpline
210
0.0
220
0.0
230
1.0
 70
    11
 71
     3
 72
    17
 73
    13
 74
     0
 42
0.0000000001
 43
0.0000000001
 12
1.0
 22
0.0
 32
0.0
 13
1.0
 23
0.0
 33
0.0
 40
0.0
 40
0.0
 40
0.0
 40
0.0
 40
1.0
 40
1.0
 40
1.0
 40
2.0
 40
2.0
 40
2.0
 40
3.0
 40
3.0
 40
3.0
 40
4.0
 40
4.0
 40
4.0
 40
4.0
 10
97.26950918511474
 20
-124.451321635554
 30
0.0
 10
97.26950918511474
 20
-124.3961824689009
 30
0.0
 10
97.22474168625686
 20
-124.351414968912
 30
0.0
 10
97.16960252099692
 20
-124.351414968912
 30
0.0
 10
97.11449863351385
 20
-124.351414968912
 30
0.0
 10
97.06969585687908
 20
-124.3961824689009
 30
0.0
 10
97.06969585687908
 20
-124.451321635554
 30
0.0
 10
97.06969585687908
 20
-124.5064255244289
 30
0.0
 10
97.11449863351385
 20
-124.5512283021956
 30
0.0
 10
97.16960252099692
 20
-124.5512283021956
 30
0.0
 10
97.22474168625686
 20
-124.5512283021956
 30
0.0
 10
97.26950918511474
 20
-124.5064255244289
 30
0.0
 10
97.26950918511474
 20
-124.451321635554
 30
0.0
  0
SPLINE
  5
94
330
1F
100
AcDbEntity
  8
_U+30EC_U+30A4_U+30E4_U+30FC 1
 62
     7
420
 16777215
370
     9
100
AcDbSpline
210
0.0
220
0.0
230
1.0
 70
    11
 71
     3
 72
    17
 73
    13
 74
     0
 42
0.0000000001
 43
0.0000000001
 12
1.0
 22
0.0
 32
0.0
 13
1.0
 23
0.0
 33
0.0
 40
0.0
 40
0.0
 40
0.0
 40
0.0
 40
1.0
 40
1.0
 40
1.0
 40
2.0
 40
2.0
 40
2.0
 40
3.0
 40
3.0
 40
3.0
 40
4.0
 40
4.0
 40
4.0
 40
4.0
 10
93.26975012049044
 20
-120.4515624698871
 30
0.0
 10
93.26975012049044
 20
-120.3961058032344
 30
0.0
 10
93.22498262163255
 20
-120.3516558032455
 30
0.0
 10
93.1698434563726
 20
-120.3516558032455
 30
0.0
 10
93.11403401335197
 20
-120.3516558032455
 30
0.0
 10
93.06926651449409
 20
-120.3961058032344
 30
0.0
 10
93.06926651449409
 20
-120.4515624698871
 30
0.0
 10
93.06926651449409
 20
-120.5067016365399
 30
0.0
 10
93.11403401335197
 20
-120.5514691365288
 30
0.0
 10
93.1698434563726
 20
-120.5514691365288
 30
0.0
 10
93.22498262163255
 20
-120.5514691365288
 30
0.0
 10
93.26975012049044
 20
-120.5067016365399
 30
0.0
 10
93.26975012049044
 20
-120.4515624698871
 30
0.0
  0
SPLINE
  5
95
330
1F
100
AcDbEntity
  8
_U+30EC_U+30A4_U+30E4_U+30FC 1
 62
     7
420
 16777215
370
     9
100
AcDbSpline
210
0.0
220
0.0
230
1.0
 70
    11
 71
     3
 72
    17
 73
    13
 74
     0
 42
0.0000000001
 43
0.0000000001
 12
1.0
 22
0.0
 32
0.0
 13
1.0
 23
0.0
 33
0.0
 40
0.0
 40
0.0
 40
0.0
 40
0.0
 40
1.0
 40
1.0
 40
1.0
 40
2.0
 40
2.0
 40
2.0
 40
3.0
 40
3.0
 40
3.0
 40
4.0
 40
4.0
 40
4.0
 40
4.0
 10
86.26933608954366
 20
-120.4515624698871
 30
0.0
 10
86.26933608954366
 20
-120.3961058032344
 30
0.0
 10
86.22453331177726
 20
-120.3516558032455
 30
0.0
 10
86.16942724607921
 20
-120.3516558032455
 30
0.0
 10
86.11428808081926
 20
-120.3516558032455
 30
0.0
 10
86.06952058196137
 20
-120.3961058032344
 30
0.0
 10
86.06952058196137
 20
-120.4515624698871
 30
0.0
 10
86.06952058196137
 20
-120.5067016365399
 30
0.0
 10
86.11428808081926
 20
-120.5514691365288
 30
0.0
 10
86.16942724607921
 20
-120.5514691365288
 30
0.0
 10
86.22453331177726
 20
-120.5514691365288
 30
0.0
 10
86.26933608954366
 20
-120.5067016365399
 30
0.0
 10
86.26933608954366
 20
-120.4515624698871
 30
0.0
  0
SPLINE
  5
96
330
1F
100
AcDbEntity
  8
_U+30EC_U+30A4_U+30E4_U+30FC 1
 62
     7
420
 16777215
370
     9
100
AcDbSpline
210
0.0
220
0.0
230
1.0
 70
    11
 71
     3
 72
    17
 73
    13
 74
     0
 42
0.0000000001
 43
0.0000000001
 12
1.0
 22
0.0
 32
0.0
 13
1.0
 23
0.0
 33
0.0
 40
0.0
 40
0.0
 40
0.0
 40
0.0
 40
1.0
 40
1.0
 40
1.0
 40
2.0
 40
2.0
 40
2.0
 40
3.0
 40
3.0
 40
3.0
 40
4.0
 40
4.0
 40
4.0
 40
4.0
 10
80.7695637727301
 20
-115.2508419156319
 30
0.0
 10
80.7695637727301
 20
-115.1957380267566
 30
0.0
 10
80.7247962738722
 20
-115.1509352489899
 30
0.0
 10
80.66965710861226
 20
-115.1509352489899
 30
0.0
 10
80.61455322112919
 20
-115.1509352489899
 30
0.0
 10
80.56975044449442
 20
-115.1957380267566
 30
0.0
 10
80.56975044449442
 20
-115.2508419156319
 30
0.0
 10
80.56975044449442
 20
-115.3059810822846
 30
0.0
 10
80.61455322112919
 20
-115.3507485822735
 30
0.0
 10
80.66965710861226
 20
-115.3507485822735
 30
0.0
 10
80.7247962738722
 20
-115.3507485822735
 30
0.0
 10
80.7695637727301
 20
-115.3059810822846
 30
0.0
 10
80.7695637727301
 20
-115.2508419156319
 30
0.0
  0
SPLINE
  5
97
330
1F
100
AcDbEntity
  8
_U+30EC_U+30A4_U+30E4_U+30FC 1
 62
     7
420
 16777215
370
     9
100
AcDbSpline
210
0.0
220
0.0
230
1.0
 70
    11
 71
     3
 72
    17
 73
    13
 74
     0
 42
0.0000000001
 43
0.0000000001
 12
1.0
 22
0.0
 32
0.0
 13
1.0
 23
0.0
 33
0.0
 40
0.0
 40
0.0
 40
0.0
 40
0.0
 40
1.0
 40
1.0
 40
1.0
 40
2.0
 40
2.0
 40
2.0
 40
3.0
 40
3.0
 40
3.0
 40
4.0
 40
4.0
 40
4.0
 40
4.0
 10
79.96960490424985
 20
-115.2508419156319
 30
0.0
 10
79.96960490424985
 20
-115.1957380267566
 30
0.0
 10
79.92483740539197
 20
-115.1509352489899
 30
0.0
 10
79.86969824013202
 20
-115.1509352489899
 30
0.0
 10
79.81459435264895
 20
-115.1509352489899
 30
0.0
 10
79.76979157601419
 20
-115.1957380267566
 30
0.0
 10
79.76979157601419
 20
-115.2508419156319
 30
0.0
 10
79.76979157601419
 20
-115.3059810822846
 30
0.0
 10
79.81459435264895
 20
-115.3507485822735
 30
0.0
 10
79.86969824013202
 20
-115.3507485822735
 30
0.0
 10
79.92483740539197
 20
-115.3507485822735
 30
0.0
 10
79.96960490424985
 20
-115.3059810822846
 30
0.0
 10
79.96960490424985
 20
-115.2508419156319
 30
0.0
  0
SPLINE
  5
98
330
1F
100
AcDbEntity
  8
_U+30EC_U+30A4_U+30E4_U+30FC 1
 62
     7
420
 16777215
370
     9
100
AcDbSpline
210
0.0
220
0.0
230
1.0
 70
    11
 71
     3
 72
    17
 73
    13
 74
     0
 42
0.0000000001
 43
0.0000000001
 12
1.0
 22
0.0
 32
0.0
 13
1.0
 23
0.0
 33
0.0
 40
0.0
 40
0.0
 40
0.0
 40
0.0
 40
1.0
 40
1.0
 40
1.0
 40
2.0
 40
2.0
 40
2.0
 40
3.0
 40
3.0
 40
3.0
 40
4.0
 40
4.0
 40
4.0
 40
4.0
 10
107.4697608693291
 20
-132.4515102446651
 30
0.0
 10
107.4697608693291
 20
-132.3960535780118
 30
0.0
 10
107.4249580926943
 20
-132.3512508002457
 30
0.0
 10
107.3698542052113
 20
-132.3512508002457
 30
0.0
 10
107.3140447621906
 20
-132.3512508002457
 30
0.0
 10
107.2692419855559
 20
-132.3960535780118
 30
0.0
 10
107.2692419855559
 20
-132.4515102446651
 30
0.0
 10
107.2692419855559
 20
-132.5066494113176
 30
0.0
 10
107.3140447621906
 20
-132.5514169113068
 30
0.0
 10
107.3698542052113
 20
-132.5514169113068
 30
0.0
 10
107.4249580926943
 20
-132.5514169113068
 30
0.0
 10
107.4697608693291
 20
-132.5066494113176
 30
0.0
 10
107.4697608693291
 20
-132.4515102446651
 30
0.0
  0
POLYLINE
  5
99
330
1F
100
AcDbEntity
  8
_U+30EC_U+30A4_U+30E4_U+30FC 1
 62
     7
420
 16777215
370
     9
100
AcDb2dPolyline
 66
     1
 10
0.0
 20
0.0
 30
0.0
  0
VERTEX
  5
9A
330
99
100
AcDbEntity
  8
_U+30EC_U+30A4_U+30E4_U+30FC 1
 62
     7
420
 16777215
370
     9
100
AcDbVertex
100
AcDb2dVertex
 10
86.16942724607921
 20
-120.4515624698871
 30
0.0
  0
VERTEX
  5
9B
330
99
100
AcDbEntity
  8
_U+30EC_U+30A4_U+30E4_U+30FC 1
 62
     7
420
 16777215
370
     9
100
AcDbVertex
100
AcDb2dVertex
 10
93.1698434563726
 20
-120.4515624698871
 30
0.0
  0
SEQEND
  5
9C
330
99
100
AcDbEntity
  8
_U+30EC_U+30A4_U+30E4_U+30FC 1
 62
     7
420
 16777215
370
     9
  0
POLYLINE
  5
9D
330
1F
100
AcDbEntity
  8
_U+30EC_U+30A4_U+30E4_U+30FC 1
 62
     7
420
 16777215
370
     9
100
AcDb2dPolyline
 66
     1
 10
0.0
 20
0.0
 30
0.0
  0
VERTEX
  5
9E
330
9D
100
AcDbEntity
  8
_U+30EC_U+30A4_U+30E4_U+30FC 1
 62
     7
420
 16777215
370
     9
100
AcDbVertex
100
AcDb2dVertex
 10
86.16942724607921
 20
-121.9116038584111
 30
0.0
  0
VERTEX
  5
9F
330
9D
100
AcDbEntity
  8
_U+30EC_U+30A4_U+30E4_U+30FC 1
 62
     7
420
 16777215
370
     9
100
AcDbVertex
100
AcDb2dVertex
 10
86.16942724607921
 20
-119.4514374701371
 30
0.0
  0
SEQEND
  5
A0
330
9D
100
AcDbEntity
  8
_U+30EC_U+30A4_U+30E4_U+30FC 1
 62
     7
420
 16777215
370
     9
  0
POLYLINE
  5
A1
330
1F
100
AcDbEntity
  8
_U+30EC_U+30A4_U+30E4_U+30FC 1
 62
     7
420
 16777215
370
     9
100
AcDb2dPolyline
 66
     1
 10
0.0
 20
0.0
 30
0.0
  0
VERTEX
  5
A2
330
A1
100
AcDbEntity
  8
_U+30EC_U+30A4_U+30E4_U+30FC 1
 62
     7
420
 16777215
370
     9
100
AcDbVertex
100
AcDb2dVertex
 10
93.1698434563726
 20
-129.9114396897442
 30
0.0
  0
VERTEX
  5
A3
330
A1
100
AcDbEntity
  8
_U+30EC_U+30A4_U+30E4_U+30FC 1
 62
     7
420
 16777215
370
     9
100
AcDbVertex
100
AcDb2dVertex
 10
93.1698434563726
 20
-119.4514374701371
 30
0.0
  0
SEQEND
  5
A4
330
A1
100
AcDbEntity
  8
_U+30EC_U+30A4_U+30E4_U+30FC 1
 62
     7
420
 16777215
370
     9
  0
INSERT
  5
A6
330
1F
100
AcDbEntity
  8
_U+30EC_U+30A4_U+30E4_U+30FC 1
100
AcDbBlockReference
  2
block 2
 10
0.0
 20
0.0
 30
0.0
  0
POLYLINE
  5
AB
330
1F
100
AcDbEntity
  8
_U+30EC_U+30A4_U+30E4_U+30FC 1
 62
     7
420
 16777215
370
     9
100
AcDb2dPolyline
 66
     1
 10
0.0
 20
0.0
 30
0.0
  0
VERTEX
  5
AC
330
AB
100
AcDbEntity
  8
_U+30EC_U+30A4_U+30E4_U+30FC 1
 62
     7
420
 16777215
370
     9
100
AcDbVertex
100
AcDb2dVertex
 10
97.16960252099692
 20
-124.451321635554
 30
0.0
  0
VERTEX
  5
AD
330
AB
100
AcDbEntity
  8
_U+30EC_U+30A4_U+30E4_U+30FC 1
 62
     7
420
 16777215
370
     9
100
AcDbVertex
100
AcDb2dVertex
 10
97.16960252099692
 20
-131.451420522693
 30
0.0
  0
SEQEND
  5
AE
330
AB
100
AcDbEntity
  8
_U+30EC_U+30A4_U+30E4_U+30FC 1
 62
     7
420
 16777215
370
     9
  0
POLYLINE
  5
AF
330
1F
100
AcDbEntity
  8
_U+30EC_U+30A4_U+30E4_U+30FC 1
 62
     7
420
 16777215
370
     9
100
AcDb2dPolyline
 66
     1
 10
0.0
 20
0.0
 30
0.0
  0
VERTEX
  5
B0
330
AF
100
AcDbEntity
  8
_U+30EC_U+30A4_U+30E4_U+30FC 1
 62
     7
420
 16777215
370
     9
100
AcDbVertex
100
AcDb2dVertex
 10
87.70937497807266
 20
-124.451321635554
 30
0.0
  0
VERTEX
  5
B1
330
AF
100
AcDbEntity
  8
_U+30EC_U+30A4_U+30E4_U+30FC 1
 62
     7
420
 16777215
370
     9
100
AcDbVertex
100
AcDb2dVertex
 10
98.16937471771283
 20
-124.451321635554
 30
0.0
  0
SEQEND
  5
B2
330
AF
100
AcDbEntity
  8
_U+30EC_U+30A4_U+30E4_U+30FC 1
 62
     7
420
 16777215
370
     9
  0
POLYLINE
  5
B3
330
1F
100
AcDbEntity
  8
_U+30EC_U+30A4_U+30E4_U+30FC 1
 62
     7
420
 16777215
370
     9
100
AcDb2dPolyline
 66
     1
 10
0.0
 20
0.0
 30
0.0
  0
VERTEX
  5
B4
330
B3
100
AcDbEntity
  8
_U+30EC_U+30A4_U+30E4_U+30FC 1
 62
     7
420
 16777215
370
     9
100
AcDbVertex
100
AcDb2dVertex
 10
95.70956116935677
 20
-132.4515102446651
 30
0.0
  0
VERTEX
  5
B5
330
B3
100
AcDbEntity
  8
_U+30EC_U+30A4_U+30E4_U+30FC 1
 62
     7
420
 16777215
370
     9
100
AcDbVertex
100
AcDb2dVertex
 10
98.16937471771283
 20
-132.4515102446651
 30
0.0
  0
SEQEND
  5
B6
330
B3
100
AcDbEntity
  8
_U+30EC_U+30A4_U+30E4_U+30FC 1
 62
     7
420
 16777215
370
     9
  0
INSERT
  5
B8
330
1F
100
AcDbEntity
  8
_U+30EC_U+30A4_U+30E4_U+30FC 1
100
AcDbBlockReference
  2
block 3
 10
0.0
 20
0.0
 30
0.0
  0
POLYLINE
  5
BD
330
1F
100
AcDbEntity
  8
_U+30EC_U+30A4_U+30E4_U+30FC 1
 62
     7
420
 16777215
370
     9
100
AcDb2dPolyline
 66
     1
 10
0.0
 20
0.0
 30
0.0
  0
VERTEX
  5
BE
330
BD
100
AcDbEntity
  8
_U+30EC_U+30A4_U+30E4_U+30FC 1
 62
     7
420
 16777215
370
     9
100
AcDbVertex
100
AcDb2dVertex
 10
86.16942724607921
 20
-128.4514335789983
 30
0.0
  0
VERTEX
  5
BF
330
BD
100
AcDbEntity
  8
_U+30EC_U+30A4_U+30E4_U+30FC 1
 62
     7
420
 16777215
370
     9
100
AcDbVertex
100
AcDb2dVertex
 10
89.93973964989053
 20
-128.4514335789983
 30
0.0
  0
SEQEND
  5
C0
330
BD
100
AcDbEntity
  8
_U+30EC_U+30A4_U+30E4_U+30FC 1
 62
     7
420
 16777215
370
     9
  0
POLYLINE
  5
C1
330
1F
100
AcDbEntity
  8
_U+30EC_U+30A4_U+30E4_U+30FC 1
 62
     7
420
 16777215
370
     9
100
AcDb2dPolyline
 66
     1
 10
0.0
 20
0.0
 30
0.0
  0
VERTEX
  5
C2
330
C1
100
AcDbEntity
  8
_U+30EC_U+30A4_U+30E4_U+30FC 1
 62
     7
420
 16777215
370
     9
100
AcDbVertex
100
AcDb2dVertex
 10
86.16942724607921
 20
-128.4514335789983
 30
0.0
  0
VERTEX
  5
C3
330
C1
100
AcDbEntity
  8
_U+30EC_U+30A4_U+30E4_U+30FC 1
 62
     7
420
 16777215
370
     9
100
AcDbVertex
100
AcDb2dVertex
 10
84.16988285264739
 20
-128.4514335789983
 30
0.0
  0
SEQEND
  5
C4
330
C1
100
AcDbEntity
  8
_U+30EC_U+30A4_U+30E4_U+30FC 1
 62
     7
420
 16777215
370
     9
  0
POLYLINE
  5
C5
330
1F
100
AcDbEntity
  8
_U+30EC_U+30A4_U+30E4_U+30FC 1
 62
     7
420
 16777215
370
    25
100
AcDb2dPolyline
 66
     1
 10
0.0
 20
0.0
 30
0.0
  0
VERTEX
  5
C6
330
C5
100
AcDbEntity
  8
_U+30EC_U+30A4_U+30E4_U+30FC 1
 62
     7
420
 16777215
370
    25
100
AcDbVertex
100
AcDb2dVertex
 10
86.16942724607921
 20
-130.9915041339189
 30
0.0
  0
VERTEX
  5
C7
330
C5
100
AcDbEntity
  8
_U+30EC_U+30A4_U+30E4_U+30FC 1
 62
     7
420
 16777215
370
    25
100
AcDbVertex
100
AcDb2dVertex
 10
86.16942724607921
 20
-128.4524566345534
 30
0.0
  0
SEQEND
  5
C8
330
C5
100
AcDbEntity
  8
_U+30EC_U+30A4_U+30E4_U+30FC 1
 62
     7
420
 16777215
370
    25
  0
POLYLINE
  5
C9
330
1F
100
AcDbEntity
  8
_U+30EC_U+30A4_U+30E4_U+30FC 1
 62
     7
420
 16777215
370
    25
100
AcDb2dPolyline
 66
     1
 10
0.0
 20
0.0
 30
0.0
  0
VERTEX
  5
CA
330
C9
100
AcDbEntity
  8
_U+30EC_U+30A4_U+30E4_U+30FC 1
 62
     7
420
 16777215
370
    25
100
AcDbVertex
100
AcDb2dVertex
 10
85.1696550493633
 20
-130.9915041339189
 30
0.0
  0
VERTEX
  5
CB
330
C9
100
AcDbEntity
  8
_U+30EC_U+30A4_U+30E4_U+30FC 1
 62
     7
420
 16777215
370
    25
100
AcDbVertex
100
AcDb2dVertex
 10
85.1696550493633
 20
-128.4524566345534
 30
0.0
  0
SEQEND
  5
CC
330
C9
100
AcDbEntity
  8
_U+30EC_U+30A4_U+30E4_U+30FC 1
 62
     7
420
 16777215
370
    25
  0
INSERT
  5
CE
330
1F
100
AcDbEntity
  8
_U+30EC_U+30A4_U+30E4_U+30FC 1
100
AcDbBlockReference
  2
block 4
 10
0.0
 20
0.0
 30
0.0
  0
POLYLINE
  5
D3
330
1F
100
AcDbEntity
  8
_U+30EC_U+30A4_U+30E4_U+30FC 1
 62
     7
420
 16777215
370
     9
100
AcDb2dPolyline
 66
     1
 10
0.0
 20
0.0
 30
0.0
  0
VERTEX
  5
D4
330
D3
100
AcDbEntity
  8
_U+30EC_U+30A4_U+30E4_U+30FC 1
 62
     7
420
 16777215
370
     9
100
AcDbVertex
100
AcDb2dVertex
 10
77.74823384981065
 20
-143.4082941308143
 30
0.0
  0
VERTEX
  5
D5
330
D3
100
AcDbEntity
  8
_U+30EC_U+30A4_U+30E4_U+30FC 1
 62
     7
420
 16777215
370
     9
100
AcDbVertex
100
AcDb2dVertex
 10
74.21287144000524
 20
-139.8726141316983
 30
0.0
  0
SEQEND
  5
D6
330
D3
100
AcDbEntity
  8
_U+30EC_U+30A4_U+30E4_U+30FC 1
 62
     7
420
 16777215
370
     9
  0
POLYLINE
  5
D7
330
1F
100
AcDbEntity
  8
_U+30EC_U+30A4_U+30E4_U+30FC 1
 62
     7
420
 16777215
370
     9
100
AcDb2dPolyline
 66
     1
 10
0.0
 20
0.0
 30
0.0
  0
VERTEX
  5
D8
330
D7
100
AcDbEntity
  8
_U+30EC_U+30A4_U+30E4_U+30FC 1
 62
     7
420
 16777215
370
     9
100
AcDbVertex
100
AcDb2dVertex
 10
81.60878886848681
 20
-139.5473882984465
 30
0.0
  0
VERTEX
  5
D9
330
D7
100
AcDbEntity
  8
_U+30EC_U+30A4_U+30E4_U+30FC 1
 62
     7
420
 16777215
370
     9
100
AcDbVertex
100
AcDb2dVertex
 10
77.04130247895708
 20
-144.115225519527
 30
0.0
  0
SEQEND
  5
DA
330
D7
100
AcDbEntity
  8
_U+30EC_U+30A4_U+30E4_U+30FC 1
 62
     7
420
 16777215
370
     9
  0
POLYLINE
  5
DB
330
1F
100
AcDbEntity
  8
_U+30EC_U+30A4_U+30E4_U+30FC 1
 62
     7
420
 16777215
370
     9
100
AcDb2dPolyline
 66
     1
 10
0.0
 20
0.0
 30
0.0
  0
VERTEX
  5
DC
330
DB
100
AcDbEntity
  8
_U+30EC_U+30A4_U+30E4_U+30FC 1
 62
     7
420
 16777215
370
     9
100
AcDbVertex
100
AcDb2dVertex
 10
78.07342439706989
 20
-136.01202579933
 30
0.0
  0
VERTEX
  5
DD
330
DB
100
AcDbEntity
  8
_U+30EC_U+30A4_U+30E4_U+30FC 1
 62
     7
420
 16777215
370
     9
100
AcDbVertex
100
AcDb2dVertex
 10
73.50594006915168
 20
-140.5798630204106
 30
0.0
  0
SEQEND
  5
DE
330
DB
100
AcDbEntity
  8
_U+30EC_U+30A4_U+30E4_U+30FC 1
 62
     7
420
 16777215
370
     9
  0
INSERT
  5
E0
330
1F
100
AcDbEntity
  8
_U+30EC_U+30A4_U+30E4_U+30FC 1
100
AcDbBlockReference
  2
block 5
 10
0.0
 20
0.0
 30
0.0
  0
POLYLINE
  5
E5
330
1F
100
AcDbEntity
  8
_U+30EC_U+30A4_U+30E4_U+30FC 1
 62
     7
420
 16777215
370
     9
100
AcDb2dPolyline
 66
     1
 10
0.0
 20
0.0
 30
0.0
  0
VERTEX
  5
E6
330
E5
100
AcDbEntity
  8
_U+30EC_U+30A4_U+30E4_U+30FC 1
 62
     7
420
 16777215
370
     9
100
AcDbVertex
100
AcDb2dVertex
 10
80.66965710861226
 20
-115.2508419156319
 30
0.0
  0
VERTEX
  5
E7
330
E5
100
AcDbEntity
  8
_U+30EC_U+30A4_U+30E4_U+30FC 1
 62
     7
420
 16777215
370
     9
100
AcDbVertex
100
AcDb2dVertex
 10
85.92756280780524
 20
-115.2508419156319
 30
0.0
  0
SEQEND
  5
E8
330
E5
100
AcDbEntity
  8
_U+30EC_U+30A4_U+30E4_U+30FC 1
 62
     7
420
 16777215
370
     9
  0
POLYLINE
  5
E9
330
1F
100
AcDbEntity
  8
_U+30EC_U+30A4_U+30E4_U+30FC 1
 62
     7
420
 16777215
370
     9
100
AcDb2dPolyline
 66
     1
 10
0.0
 20
0.0
 30
0.0
  0
VERTEX
  5
EA
330
E9
100
AcDbEntity
  8
_U+30EC_U+30A4_U+30E4_U+30FC 1
 62
     7
420
 16777215
370
     9
100
AcDbVertex
100
AcDb2dVertex
 10
78.86996132119299
 20
-115.2508419156319
 30
0.0
  0
VERTEX
  5
EB
330
E9
100
AcDbEntity
  8
_U+30EC_U+30A4_U+30E4_U+30FC 1
 62
     7
420
 16777215
370
     9
100
AcDbVertex
100
AcDb2dVertex
 10
80.66965710861226
 20
-115.2508419156319
 30
0.0
  0
SEQEND
  5
EC
330
E9
100
AcDbEntity
  8
_U+30EC_U+30A4_U+30E4_U+30FC 1
 62
     7
420
 16777215
370
     9
  0
POLYLINE
  5
ED
330
1F
100
AcDbEntity
  8
_U+30EC_U+30A4_U+30E4_U+30FC 1
 62
     7
420
 16777215
370
     9
100
AcDb2dPolyline
 66
     1
 10
0.0
 20
0.0
 30
0.0
  0
VERTEX
  5
EE
330
ED
100
AcDbEntity
  8
_U+30EC_U+30A4_U+30E4_U+30FC 1
 62
     7
420
 16777215
370
     9
100
AcDbVertex
100
AcDb2dVertex
 10
79.86969824013202
 20
-116.7115535819332
 30
0.0
  0
VERTEX
  5
EF
330
ED
100
AcDbEntity
  8
_U+30EC_U+30A4_U+30E4_U+30FC 1
 62
     7
420
 16777215
370
     9
100
AcDbVertex
100
AcDb2dVertex
 10
79.86969824013202
 20
-114.2510696936596
 30
0.0
  0
SEQEND
  5
F0
330
ED
100
AcDbEntity
  8
_U+30EC_U+30A4_U+30E4_U+30FC 1
 62
     7
420
 16777215
370
     9
  0
POLYLINE
  5
F1
330
1F
100
AcDbEntity
  8
_U+30EC_U+30A4_U+30E4_U+30FC 1
 62
     7
420
 16777215
370
     9
100
AcDb2dPolyline
 66
     1
 10
0.0
 20
0.0
 30
0.0
  0
VERTEX
  5
F2
330
F1
100
AcDbEntity
  8
_U+30EC_U+30A4_U+30E4_U+30FC 1
 62
     7
420
 16777215
370
     9
100
AcDbVertex
100
AcDb2dVertex
 10
80.66965710861226
 20
-116.9196571929923
 30
0.0
  0
VERTEX
  5
F3
330
F1
100
AcDbEntity
  8
_U+30EC_U+30A4_U+30E4_U+30FC 1
 62
     7
420
 16777215
370
     9
100
AcDbVertex
100
AcDb2dVertex
 10
80.66965710861226
 20
-114.2510696936596
 30
0.0
  0
SEQEND
  5
F4
330
F1
100
AcDbEntity
  8
_U+30EC_U+30A4_U+30E4_U+30FC 1
 62
     7
420
 16777215
370
     9
  0
INSERT
  5
F6
330
1F
100
AcDbEntity
  8
_U+30EC_U+30A4_U+30E4_U+30FC 1
100
AcDbBlockReference
  2
block 6
 10
0.0
 20
0.0
 30
0.0
  0
POLYLINE
  5
108
330
1F
100
AcDbEntity
  8
_U+30EC_U+30A4_U+30E4_U+30FC 1
 62
     7
420
 16777215
370
     9
100
AcDb2dPolyline
 66
     1
 10
0.0
 20
0.0
 30
0.0
  0
VERTEX
  5
109
330
108
100
AcDbEntity
  8
_U+30EC_U+30A4_U+30E4_U+30FC 1
 62
     7
420
 16777215
370
     9
100
AcDbVertex
100
AcDb2dVertex
 10
79.86969824013202
 20
-141.7515438534508
 30
0.0
  0
VERTEX
  5
10A
330
108
100
AcDbEntity
  8
_U+30EC_U+30A4_U+30E4_U+30FC 1
 62
     7
420
 16777215
370
     9
100
AcDbVertex
100
AcDb2dVertex
 10
103.3693895850494
 20
-141.7515438534508
 30
0.0
  0
SEQEND
  5
10B
330
108
100
AcDbEntity
  8
_U+30EC_U+30A4_U+30E4_U+30FC 1
 62
     7
420
 16777215
370
     9
  0
POLYLINE
  5
10C
330
1F
100
AcDbEntity
  8
_U+30EC_U+30A4_U+30E4_U+30FC 1
 62
     7
420
 16777215
370
     9
100
AcDb2dPolyline
 66
     1
 10
0.0
 20
0.0
 30
0.0
  0
VERTEX
  5
10D
330
10C
100
AcDbEntity
  8
_U+30EC_U+30A4_U+30E4_U+30FC 1
 62
     7
420
 16777215
370
     9
100
AcDbVertex
100
AcDb2dVertex
 10
79.86969824013202
 20
-136.7558224658111
 30
0.0
  0
VERTEX
  5
10E
330
10C
100
AcDbEntity
  8
_U+30EC_U+30A4_U+30E4_U+30FC 1
 62
     7
420
 16777215
370
     9
100
AcDbVertex
100
AcDb2dVertex
 10
79.86969824013202
 20
-142.7513160754234
 30
0.0
  0
SEQEND
  5
10F
330
10C
100
AcDbEntity
  8
_U+30EC_U+30A4_U+30E4_U+30FC 1
 62
     7
420
 16777215
370
     9
  0
POLYLINE
  5
110
330
1F
100
AcDbEntity
  8
_U+30EC_U+30A4_U+30E4_U+30FC 1
 62
     7
420
 16777215
370
     9
100
AcDb2dPolyline
 66
     1
 10
0.0
 20
0.0
 30
0.0
  0
VERTEX
  5
111
330
110
100
AcDbEntity
  8
_U+30EC_U+30A4_U+30E4_U+30FC 1
 62
     7
420
 16777215
370
     9
100
AcDbVertex
100
AcDb2dVertex
 10
103.3693895850494
 20
-140.2915377427046
 30
0.0
  0
VERTEX
  5
112
330
110
100
AcDbEntity
  8
_U+30EC_U+30A4_U+30E4_U+30FC 1
 62
     7
420
 16777215
370
     9
100
AcDbVertex
100
AcDb2dVertex
 10
103.3693895850494
 20
-142.7513160754234
 30
0.0
  0
SEQEND
  5
113
330
110
100
AcDbEntity
  8
_U+30EC_U+30A4_U+30E4_U+30FC 1
 62
     7
420
 16777215
370
     9
  0
INSERT
  5
115
330
1F
100
AcDbEntity
  8
_U+30EC_U+30A4_U+30E4_U+30FC 1
100
AcDbBlockReference
  2
block 7
 10
0.0
 20
0.0
 30
0.0
  0
POLYLINE
  5
126
330
1F
100
AcDbEntity
  8
_U+30EC_U+30A4_U+30E4_U+30FC 1
 62
     7
420
 16777215
370
     9
100
AcDb2dPolyline
 66
     1
 10
0.0
 20
0.0
 30
0.0
  0
VERTEX
  5
127
330
126
100
AcDbEntity
  8
_U+30EC_U+30A4_U+30E4_U+30FC 1
 62
     7
420
 16777215
370
     9
100
AcDbVertex
100
AcDb2dVertex
 10
75.86997445328458
 20
-119.2513066368539
 30
0.0
  0
VERTEX
  5
128
330
126
100
AcDbEntity
  8
_U+30EC_U+30A4_U+30E4_U+30FC 1
 62
     7
420
 16777215
370
     9
100
AcDbVertex
100
AcDb2dVertex
 10
75.86997445328458
 20
-137.7514671877844
 30
0.0
  0
SEQEND
  5
129
330
126
100
AcDbEntity
  8
_U+30EC_U+30A4_U+30E4_U+30FC 1
 62
     7
420
 16777215
370
     9
  0
POLYLINE
  5
12A
330
1F
100
AcDbEntity
  8
_U+30EC_U+30A4_U+30E4_U+30FC 1
 62
     7
420
 16777215
370
     9
100
AcDb2dPolyline
 66
     1
 10
0.0
 20
0.0
 30
0.0
  0
VERTEX
  5
12B
330
12A
100
AcDbEntity
  8
_U+30EC_U+30A4_U+30E4_U+30FC 1
 62
     7
420
 16777215
370
     9
100
AcDbVertex
100
AcDb2dVertex
 10
77.32931024938716
 20
-119.2513066368539
 30
0.0
  0
VERTEX
  5
12C
330
12A
100
AcDbEntity
  8
_U+30EC_U+30A4_U+30E4_U+30FC 1
 62
     7
420
 16777215
370
     9
100
AcDbVertex
100
AcDb2dVertex
 10
74.86949670103112
 20
-119.2513066368539
 30
0.0
  0
SEQEND
  5
12D
330
12A
100
AcDbEntity
  8
_U+30EC_U+30A4_U+30E4_U+30FC 1
 62
     7
420
 16777215
370
     9
  0
POLYLINE
  5
12E
330
1F
100
AcDbEntity
  8
_U+30EC_U+30A4_U+30E4_U+30FC 1
 62
     7
420
 16777215
370
     9
100
AcDb2dPolyline
 66
     1
 10
0.0
 20
0.0
 30
0.0
  0
VERTEX
  5
12F
330
12E
100
AcDbEntity
  8
_U+30EC_U+30A4_U+30E4_U+30FC 1
 62
     7
420
 16777215
370
     9
100
AcDbVertex
100
AcDb2dVertex
 10
80.86534293695323
 20
-137.7514671877844
 30
0.0
  0
VERTEX
  5
130
330
12E
100
AcDbEntity
  8
_U+30EC_U+30A4_U+30E4_U+30FC 1
 62
     7
420
 16777215
370
     9
100
AcDbVertex
100
AcDb2dVertex
 10
74.86949670103112
 20
-137.7514671877844
 30
0.0
  0
SEQEND
  5
131
330
12E
100
AcDbEntity
  8
_U+30EC_U+30A4_U+30E4_U+30FC 1
 62
     7
420
 16777215
370
     9
  0
INSERT
  5
133
330
1F
100
AcDbEntity
  8
_U+30EC_U+30A4_U+30E4_U+30FC 1
100
AcDbBlockReference
  2
block 8
 10
0.0
 20
0.0
 30
0.0
  0
POLYLINE
  5
146
330
1F
100
AcDbEntity
  8
_U+30EC_U+30A4_U+30E4_U+30FC 1
 62
     7
420
 16777215
370
     9
100
AcDb2dPolyline
 66
     1
 10
0.0
 20
0.0
 30
0.0
  0
VERTEX
  5
147
330
146
100
AcDbEntity
  8
_U+30EC_U+30A4_U+30E4_U+30FC 1
 62
     7
420
 16777215
370
     9
100
AcDbVertex
100
AcDb2dVertex
 10
107.3698542052113
 20
-136.9515082990957
 30
0.0
  0
VERTEX
  5
148
330
146
100
AcDbEntity
  8
_U+30EC_U+30A4_U+30E4_U+30FC 1
 62
     7
420
 16777215
370
     9
100
AcDbVertex
100
AcDb2dVertex
 10
107.3698542052113
 20
-142.2090613533369
 30
0.0
  0
SEQEND
  5
149
330
146
100
AcDbEntity
  8
_U+30EC_U+30A4_U+30E4_U+30FC 1
 62
     7
420
 16777215
370
     9
  0
POLYLINE
  5
14A
330
1F
100
AcDbEntity
  8
_U+30EC_U+30A4_U+30E4_U+30FC 1
 62
     7
420
 16777215
370
     9
100
AcDb2dPolyline
 66
     1
 10
0.0
 20
0.0
 30
0.0
  0
VERTEX
  5
14B
330
14A
100
AcDbEntity
  8
_U+30EC_U+30A4_U+30E4_U+30FC 1
 62
     7
420
 16777215
370
     9
100
AcDbVertex
100
AcDb2dVertex
 10
107.3698542052113
 20
-136.9515082990957
 30
0.0
  0
VERTEX
  5
14C
330
14A
100
AcDbEntity
  8
_U+30EC_U+30A4_U+30E4_U+30FC 1
 62
     7
420
 16777215
370
     9
100
AcDbVertex
100
AcDb2dVertex
 10
107.3698542052113
 20
-132.4515102446651
 30
0.0
  0
SEQEND
  5
14D
330
14A
100
AcDbEntity
  8
_U+30EC_U+30A4_U+30E4_U+30FC 1
 62
     7
420
 16777215
370
     9
  0
POLYLINE
  5
14E
330
1F
100
AcDbEntity
  8
_U+30EC_U+30A4_U+30E4_U+30FC 1
 62
     7
420
 16777215
370
     9
100
AcDb2dPolyline
 66
     1
 10
0.0
 20
0.0
 30
0.0
  0
VERTEX
  5
14F
330
14E
100
AcDbEntity
  8
_U+30EC_U+30A4_U+30E4_U+30FC 1
 62
     7
420
 16777215
370
     9
100
AcDbVertex
100
AcDb2dVertex
 10
105.7010416402414
 20
-136.9515082990957
 30
0.0
  0
VERTEX
  5
150
330
14E
100
AcDbEntity
  8
_U+30EC_U+30A4_U+30E4_U+30FC 1
 62
     7
420
 16777215
370
     9
100
AcDbVertex
100
AcDb2dVertex
 10
108.3696264019272
 20
-136.9515082990957
 30
0.0
  0
SEQEND
  5
151
330
14E
100
AcDbEntity
  8
_U+30EC_U+30A4_U+30E4_U+30FC 1
 62
     7
420
 16777215
370
     9
  0
POLYLINE
  5
152
330
1F
100
AcDbEntity
  8
_U+30EC_U+30A4_U+30E4_U+30FC 1
 62
     7
420
 16777215
370
     9
100
AcDb2dPolyline
 66
     1
 10
0.0
 20
0.0
 30
0.0
  0
VERTEX
  5
153
330
152
100
AcDbEntity
  8
_U+30EC_U+30A4_U+30E4_U+30FC 1
 62
     7
420
 16777215
370
     9
100
AcDbVertex
100
AcDb2dVertex
 10
95.70956116935677
 20
-132.4515102446651
 30
0.0
  0
VERTEX
  5
154
330
152
100
AcDbEntity
  8
_U+30EC_U+30A4_U+30E4_U+30FC 1
 62
     7
420
 16777215
370
     9
100
AcDbVertex
100
AcDb2dVertex
 10
108.3696264019272
 20
-132.4515102446651
 30
0.0
  0
SEQEND
  5
155
330
152
100
AcDbEntity
  8
_U+30EC_U+30A4_U+30E4_U+30FC 1
 62
     7
420
 16777215
370
     9
  0
SPLINE
  5
156
330
1F
100
AcDbEntity
  8
_U+30EC_U+30A4_U+30E4_U+30FC 1
 62
     7
420
 16777215
370
     9
100
AcDbSpline
210
0.0
220
0.0
230
1.0
 70
    11
 71
     3
 72
    17
 73
    13
 74
     0
 42
0.0000000001
 43
0.0000000001
 12
1.0
 22
0.0
 32
0.0
 13
1.0
 23
0.0
 33
0.0
 40
0.0
 40
0.0
 40
0.0
 40
0.0
 40
1.0
 40
1.0
 40
1.0
 40
2.0
 40
2.0
 40
2.0
 40
3.0
 40
3.0
 40
3.0
 40
4.0
 40
4.0
 40
4.0
 40
4.0
 10
97.26950918511474
 20
-131.4517380226926
 30
0.0
 10
97.26950918511474
 20
-131.3962813560399
 30
0.0
 10
97.22474168625686
 20
-131.3515138560507
 30
0.0
 10
97.16960252099692
 20
-131.3515138560507
 30
0.0
 10
97.11449863351385
 20
-131.3515138560507
 30
0.0
 10
97.06969585687908
 20
-131.3962813560399
 30
0.0
 10
97.06969585687908
 20
-131.4517380226926
 30
0.0
 10
97.06969585687908
 20
-131.5068771893457
 30
0.0
 10
97.11449863351385
 20
-131.5516446893342
 30
0.0
 10
97.16960252099692
 20
-131.5516446893342
 30
0.0
 10
97.22474168625686
 20
-131.5516446893342
 30
0.0
 10
97.26950918511474
 20
-131.5068771893457
 30
0.0
 10
97.26950918511474
 20
-131.4517380226926
 30
0.0
  0
POLYLINE
  5
157
330
1F
100
AcDbEntity
  8
_U+30EC_U+30A4_U+30E4_U+30FC 1
 62
     7
420
 16777215
370
     9
100
AcDb2dPolyline
 66
     1
 10
0.0
 20
0.0
 30
0.0
  0
VERTEX
  5
158
330
157
100
AcDbEntity
  8
_U+30EC_U+30A4_U+30E4_U+30FC 1
 62
     7
420
 16777215
370
     9
100
AcDbVertex
100
AcDb2dVertex
 10
95.70956116935677
 20
-131.451420522693
 30
0.0
  0
VERTEX
  5
159
330
157
100
AcDbEntity
  8
_U+30EC_U+30A4_U+30E4_U+30FC 1
 62
     7
420
 16777215
370
     9
100
AcDbVertex
100
AcDb2dVertex
 10
98.16937471771283
 20
-131.451420522693
 30
0.0
  0
SEQEND
  5
15A
330
157
100
AcDbEntity
  8
_U+30EC_U+30A4_U+30E4_U+30FC 1
 62
     7
420
 16777215
370
     9
  0
INSERT
  5
15C
330
1F
100
AcDbEntity
  8
_U+30EC_U+30A4_U+30E4_U+30FC 1
100
AcDbBlockReference
  2
block 9
 10
0.0
 20
0.0
 30
0.0
  0
POLYLINE
  5
17E
330
1F
100
AcDbEntity
  8
_U+30EC_U+30A4_U+30E4_U+30FC 1
 62
   179
420
  2234388
370
     9
100
AcDb2dPolyline
 66
     1
 10
0.0
 20
0.0
 30
0.0
  0
VERTEX
  5
17F
330
17E
100
AcDbEntity
  8
_U+30EC_U+30A4_U+30E4_U+30FC 1
 62
   179
420
  2234388
370
     9
100
AcDbVertex
100
AcDb2dVertex
 10
86.32651918651591
 20
-131.1913174672022
 30
0.0
  0
VERTEX
  5
180
330
17E
100
AcDbEntity
  8
_U+30EC_U+30A4_U+30E4_U+30FC 1
 62
   179
420
  2234388
370
     9
100
AcDbVertex
100
AcDb2dVertex
 10
86.84810111765368
 20
-130.28799468965
 30
0.0
  0
SEQEND
  5
181
330
17E
100
AcDbEntity
  8
_U+30EC_U+30A4_U+30E4_U+30FC 1
 62
   179
420
  2234388
370
     9
  0
POLYLINE
  5
182
330
1F
100
AcDbEntity
  8
_U+30EC_U+30A4_U+30E4_U+30FC 1
 62
   179
420
  2234388
370
     9
100
AcDb2dPolyline
 66
     1
 10
0.0
 20
0.0
 30
0.0
  0
VERTEX
  5
183
330
182
100
AcDbEntity
  8
_U+30EC_U+30A4_U+30E4_U+30FC 1
 62
   179
420
  2234388
370
     9
100
AcDbVertex
100
AcDb2dVertex
 10
86.32651918651591
 20
-131.1913174672022
 30
0.0
  0
VERTEX
  5
184
330
182
100
AcDbEntity
  8
_U+30EC_U+30A4_U+30E4_U+30FC 1
 62
   179
420
  2234388
370
     9
100
AcDbVertex
100
AcDb2dVertex
 10
87.74450942811774
 20
-129.8363333008746
 30
0.0
  0
SEQEND
  5
185
330
182
100
AcDbEntity
  8
_U+30EC_U+30A4_U+30E4_U+30FC 1
 62
   179
420
  2234388
370
     9
  0
POLYLINE
  5
186
330
1F
100
AcDbEntity
  8
_U+30EC_U+30A4_U+30E4_U+30FC 1
 62
   179
420
  2234388
370
     9
100
AcDb2dPolyline
 66
     1
 10
0.0
 20
0.0
 30
0.0
  0
VERTEX
  5
187
330
186
100
AcDbEntity
  8
_U+30EC_U+30A4_U+30E4_U+30FC 1
 62
   179
420
  2234388
370
     9
100
AcDbVertex
100
AcDb2dVertex
 10
86.32651918651591
 20
-131.1913174672022
 30
0.0
  0
VERTEX
  5
188
330
186
100
AcDbEntity
  8
_U+30EC_U+30A4_U+30E4_U+30FC 1
 62
   179
420
  2234388
370
     9
100
AcDbVertex
100
AcDb2dVertex
 10
87.22913638571045
 20
-130.6697002451103
 30
0.0
  0
SEQEND
  5
189
330
186
100
AcDbEntity
  8
_U+30EC_U+30A4_U+30E4_U+30FC 1
 62
   179
420
  2234388
370
     9
  0
INSERT
  5
18B
330
1F
100
AcDbEntity
  8
_U+30EC_U+30A4_U+30E4_U+30FC 1
100
AcDbBlockReference
  2
block 10
 10
0.0
 20
0.0
 30
0.0
  0
ENDSEC
  0
SECTION
  2
OBJECTS
  0
DICTIONARY
  5
C
330
0
100
AcDbDictionary
281
     1
  3
ACAD_GROUP
350
D
  3
ACAD_LAYOUT
350
1A
  3
ACAD_MATERIAL
350
3B
  3
ACAD_MLEADERSTYLE
350
194
  3
ACAD_MLINESTYLE
350
17
  3
ACAD_PLOTSETTINGS
350
19
  3
ACAD_PLOTSTYLENAME
350
E
  3
ACAD_TABLESTYLE
350
193
  3
ACAD_VISUALSTYLE
350
2A
  0
SUN
  5
3F
330
29
100
AcDbSun
 90
        1
290
     0
 63
     7
421
 16777215
 40
1.0
291
     1
 91
  2455826
 92
 54000000
292
     0
 70
     2
 71
   256
280
     1
  0
DICTIONARY
  5
D
102
{ACAD_REACTORS
330
C
102
}
330
C
100
AcDbDictionary
281
     1
  0
DICTIONARY
  5
1A
102
{ACAD_REACTORS
330
C
102
}
330
C
100
AcDbDictionary
281
     1
  3
Layout1
350
1E
  3
Layout2
350
26
  3
Model
350
22
  0
DICTIONARY
  5
3B
102
{ACAD_REACTORS
330
C
102
}
330
C
100
AcDbDictionary
281
     1
  3
ByBlock
350
3D
  3
ByLayer
350
3C
  3
Global
350
3E
  0
DICTIONARY
  5
194
102
{ACAD_REACTORS
330
C
102
}
330
C
100
AcDbDictionary
281
     1
  0
DICTIONARY
  5
17
102
{ACAD_REACTORS
330
C
102
}
330
C
100
AcDbDictionary
281
     1
  3
Standard
350
18
  0
DICTIONARY
  5
19
102
{ACAD_REACTORS
330
C
102
}
330
C
100
AcDbDictionary
281
     1
  0
ACDBDICTIONARYWDFLT
  5
E
102
{ACAD_REACTORS
330
C
102
}
330
C
100
AcDbDictionary
281
     1
  3
Normal
350
F
100
AcDbDictionaryWithDefault
340
F
  0
DICTIONARY
  5
193
102
{ACAD_REACTORS
330
C
102
}
330
C
100
AcDbDictionary
281
     1
  0
DICTIONARY
  5
2A
102
{ACAD_REACTORS
330
C
102
}
330
C
100
AcDbDictionary
281
     1
  3
2dWireframe
350
2F
  3
3D Hidden
350
31
  3
3dWireframe
350
30
  3
Basic
350
32
  3
Brighten
350
36
  3
ColorChange
350
3A
  3
Conceptual
350
34
  3
Dim
350
35
  3
Facepattern
350
39
  3
Flat
350
2B
  3
FlatWithEdges
350
2C
  3
Gouraud
350
2D
  3
GouraudWithEdges
350
2E
  3
Linepattern
350
38
  3
Realistic
350
33
  3
Thicken
350
37
  0
LAYOUT
  5
1E
102
{ACAD_REACTORS
330
1A
102
}
330
1A
100
AcDbPlotSettings
  1

  2
none_device
  4

  6

 40
0.0
 41
0.0
 42
0.0
 43
0.0
 44
0.0
 45
0.0
 46
0.0
 47
0.0
 48
0.0
 49
0.0
140
0.0
141
0.0
142
1.0
143
1.0
 70
   688
 72
     0
 73
     0
 74
     5
  7

 75
    16
 76
     0
 77
     2
 78
   300
147
1.0
148
0.0
149
0.0
100
AcDbLayout
  1
Layout1
 70
     1
 71
     1
 10
0.0
 20
0.0
 11
12.0
 21
9.0
 12
0.0
 22
0.0
 32
0.0
 14
1.000000000000000E+20
 24
1.000000000000000E+20
 34
1.000000000000000E+20
 15
-1.000000000000000E+20
 25
-1.000000000000000E+20
 35
-1.000000000000000E+20
146
0.0
 13
0.0
 23
0.0
 33
0.0
 16
1.0
 26
0.0
 36
0.0
 17
0.0
 27
1.0
 37
0.0
 76
     0
330
1B
  0
LAYOUT
  5
26
102
{ACAD_REACTORS
330
1A
102
}
330
1A
100
AcDbPlotSettings
  1

  2
none_device
  4

  6

 40
0.0
 41
0.0
 42
0.0
 43
0.0
 44
0.0
 45
0.0
 46
0.0
 47
0.0
 48
0.0
 49
0.0
140
0.0
141
0.0
142
1.0
143
1.0
 70
   688
 72
     0
 73
     0
 74
     5
  7

 75
    16
 76
     0
 77
     2
 78
   300
147
1.0
148
0.0
149
0.0
100
AcDbLayout
  1
Layout2
 70
     1
 71
     2
 10
0.0
 20
0.0
 11
0.0
 21
0.0
 12
0.0
 22
0.0
 32
0.0
 14
0.0
 24
0.0
 34
0.0
 15
0.0
 25
0.0
 35
0.0
146
0.0
 13
0.0
 23
0.0
 33
0.0
 16
1.0
 26
0.0
 36
0.0
 17
0.0
 27
1.0
 37
0.0
 76
     0
330
23
  0
LAYOUT
  5
22
102
{ACAD_REACTORS
330
1A
102
}
330
1A
100
AcDbPlotSettings
  1

  2
none_device
  4

  6

 40
0.0
 41
0.0
 42
0.0
 43
0.0
 44
0.0
 45
0.0
 46
0.0
 47
0.0
 48
0.0
 49
0.0
140
0.0
141
0.0
142
1.0
143
1.0
 70
  1712
 72
     0
 73
     0
 74
     0
  7

 75
     0
 76
     0
 77
     2
 78
   300
147
1.0
148
0.0
149
0.0
100
AcDbLayout
  1
Model
 70
     1
 71
     0
 10
0.0
 20
0.0
 11
12.0
 21
9.0
 12
0.0
 22
0.0
 32
0.0
 14
1.000000000000000E+20
 24
1.000000000000000E+20
 34
1.000000000000000E+20
 15
-1.000000000000000E+20
 25
-1.000000000000000E+20
 35
-1.000000000000000E+20
146
0.0
 13
0.0
 23
0.0
 33
0.0
 16
1.0
 26
0.0
 36
0.0
 17
0.0
 27
1.0
 37
0.0
 76
     0
330
1F
331
29
  0
MATERIAL
  5
3D
102
{ACAD_REACTORS
330
3B
102
}
330
3B
100
AcDbMaterial
  1
ByBlock
 72
     1
 94
      127
  0
MATERIAL
  5
3C
102
{ACAD_REACTORS
330
3B
102
}
330
3B
100
AcDbMaterial
  1
ByLayer
 72
     1
 94
      127
  0
MATERIAL
  5
3E
102
{ACAD_REACTORS
330
3B
102
}
330
3B
100
AcDbMaterial
  1
Global
 72
     1
 94
      127
  0
MLINESTYLE
  5
18
102
{ACAD_REACTORS
330
17
102
}
330
17
100
AcDbMlineStyle
  2
Standard
 70
     0
  3

 62
   256
 51
90.0
 52
90.0
 71
     2
 49
0.5
 62
   256
  6
BYLAYER
 49
-0.5
 62
   256
  6
BYLAYER
  0
ACDBPLACEHOLDER
  5
F
102
{ACAD_REACTORS
330
E
102
}
330
E
  0
VISUALSTYLE
  5
2F
102
{ACAD_REACTORS
330
2A
102
}
330
2A
100
AcDbVisualStyle
  2
2dWireframe
 70
     4
177
     2
291
     0
 71
     0
176
     1
 72
     2
176
     1
 73
     0
176
     1
 90
        0
176
     1
 40
-0.6
176
     1
 41
-30.0
176
     1
 62
     5
 63
     7
421
 16777215
176
     1
 74
     1
176
     1
 91
        4
176
     1
 64
     7
176
     1
 65
   257
176
     1
 75
     1
176
     1
175
     1
176
     1
 42
1.0
176
     1
 92
        0
176
     1
 66
   257
176
     1
 43
1.0
176
     1
 76
     1
176
     1
 77
     6
176
     1
 78
     2
176
     1
 67
     7
176
     1
 79
     5
176
     1
170
     0
176
     1
171
     0
176
     1
290
     0
176
     1
 93
        1
176
     1
 44
0.0
176
     1
173
     0
176
     1
  0
VISUALSTYLE
  5
31
102
{ACAD_REACTORS
330
2A
102
}
330
2A
100
AcDbVisualStyle
  2
3D Hidden
 70
     6
177
     2
291
     0
 71
     1
176
     1
 72
     2
176
     1
 73
     2
176
     1
 90
        0
176
     1
 40
-0.6
176
     1
 41
-30.0
176
     1
 62
     5
 63
     7
421
 16777215
176
     1
 74
     2
176
     1
 91
        2
176
     1
 64
     7
176
     1
 65
   257
176
     1
 75
     2
176
     1
175
     1
176
     1
 42
40.0
176
     1
 92
        0
176
     1
 66
   257
176
     1
 43
1.0
176
     1
 76
     1
176
     1
 77
     6
176
     1
 78
     2
176
     1
 67
     7
176
     1
 79
     3
176
     1
170
     0
176
     1
171
     0
176
     1
290
     0
176
     1
 93
        1
176
     1
 44
0.0
176
     1
173
     0
176
     1
  0
VISUALSTYLE
  5
30
102
{ACAD_REACTORS
330
2A
102
}
330
2A
100
AcDbVisualStyle
  2
3dWireframe
 70
     5
177
     2
291
     0
 71
     0
176
     1
 72
     2
176
     1
 73
     0
176
     1
 90
        0
176
     1
 40
-0.6
176
     1
 41
-30.0
176
     1
 62
     5
 63
     7
421
 16777215
176
     1
 74
     1
176
     1
 91
        4
176
     1
 64
     7
176
     1
 65
   257
176
     1
 75
     1
176
     1
175
     1
176
     1
 42
1.0
176
     1
 92
        0
176
     1
 66
   257
176
     1
 43
1.0
176
     1
 76
     1
176
     1
 77
     6
176
     1
 78
     2
176
     1
 67
     7
176
     1
 79
     5
176
     1
170
     0
176
     1
171
     0
176
     1
290
     0
176
     1
 93
        1
176
     1
 44
0.0
176
     1
173
     0
176
     1
  0
VISUALSTYLE
  5
32
102
{ACAD_REACTORS
330
2A
102
}
330
2A
100
AcDbVisualStyle
  2
Basic
 70
     7
177
     2
291
     1
 71
     1
176
     1
 72
     0
176
     1
 73
     1
176
     1
 90
        0
176
     1
 40
-0.6
176
     1
 41
-30.0
176
     1
 62
     5
 63
     7
421
 16777215
176
     1
 74
     0
176
     1
 91
        4
176
     1
 64
     7
176
     1
 65
   257
176
     1
 75
     1
176
     1
175
     1
176
     1
 42
1.0
176
     1
 92
        8
176
     1
 66
     7
176
     1
 43
1.0
176
     1
 76
     1
176
     1
 77
     6
176
     1
 78
     2
176
     1
 67
     7
176
     1
 79
     5
176
     1
170
     0
176
     1
171
     0
176
     1
290
     0
176
     1
 93
        1
176
     1
 44
0.0
176
     1
173
     0
176
     1
  0
VISUALSTYLE
  5
36
102
{ACAD_REACTORS
330
2A
102
}
330
2A
100
AcDbVisualStyle
  2
Brighten
 70
    12
177
     2
291
     1
 71
     2
176
     1
 72
     2
176
     1
 73
     0
176
     1
 90
        0
176
     1
 40
-0.6
176
     1
 41
-30.0
176
     1
 62
     5
 63
     7
421
 16777215
176
     1
 74
     1
176
     1
 91
        4
176
     1
 64
     7
176
     1
 65
   257
176
     1
 75
     1
176
     1
175
     1
176
     1
 42
1.0
176
     1
 92
        8
176
     1
 66
     7
176
     1
 43
1.0
176
     1
 76
     1
176
     1
 77
     6
176
     1
 78
     2
176
     1
 67
     7
176
     1
 79
     5
176
     1
170
     0
176
     1
171
     0
176
     1
290
     0
176
     1
 93
        1
176
     1
 44
50.0
176
     1
173
     0
176
     1
  0
VISUALSTYLE
  5
3A
102
{ACAD_REACTORS
330
2A
102
}
330
2A
100
AcDbVisualStyle
  2
ColorChange
 70
    16
177
     2
291
     1
 71
     2
176
     1
 72
     2
176
     1
 73
     3
176
     1
 90
        0
176
     1
 40
-0.6
176
     1
 41
-30.0
176
     1
 62
     5
 63
     8
421
  8421504
176
     1
 74
     1
176
     1
 91
        4
176
     1
 64
     7
176
     1
 65
   257
176
     1
 75
     1
176
     1
175
     1
176
     1
 42
1.0
176
     1
 92
        8
176
     1
 66
     8
424
  8421504
176
     1
 43
1.0
176
     1
 76
     1
176
     1
 77
     6
176
     1
 78
     2
176
     1
 67
     7
176
     1
 79
     5
176
     1
170
     0
176
     1
171
     0
176
     1
290
     0
176
     1
 93
        1
176
     1
 44
0.0
176
     1
173
     0
176
     1
  0
VISUALSTYLE
  5
34
102
{ACAD_REACTORS
330
2A
102
}
330
2A
100
AcDbVisualStyle
  2
Conceptual
 70
     9
177
     2
291
     0
 71
     3
176
     1
 72
     2
176
     1
 73
     0
176
     1
 90
        0
176
     1
 40
-0.6
176
     1
 41
-30.0
176
     1
 62
     5
 63
     7
421
 16777215
176
     1
 74
     2
176
     1
 91
        2
176
     1
 64
     7
176
     1
 65
   257
176
     1
 75
     1
176
     1
175
     1
176
     1
 42
40.0
176
     1
 92
        8
176
     1
 66
     7
176
     1
 43
1.0
176
     1
 76
     1
176
     1
 77
     6
176
     1
 78
     2
176
     1
 67
     7
176
     1
 79
     3
176
     1
170
     0
176
     1
171
     0
176
     1
290
     0
176
     1
 93
        1
176
     1
 44
0.0
176
     1
173
     0
176
     1
  0
VISUALSTYLE
  5
35
102
{ACAD_REACTORS
330
2A
102
}
330
2A
100
AcDbVisualStyle
  2
Dim
 70
    11
177
     2
291
     1
 71
     2
176
     1
 72
     2
176
     1
 73
     0
176
     1
 90
        0
176
     1
 40
-0.6
176
     1
 41
-30.0
176
     1
 62
     5
 63
     7
421
 16777215
176
     1
 74
     1
176
     1
 91
        4
176
     1
 64
     7
176
     1
 65
   257
176
     1
 75
     1
176
     1
175
     1
176
     1
 42
1.0
176
     1
 92
        8
176
     1
 66
     7
176
     1
 43
1.0
176
     1
 76
     1
176
     1
 77
     6
176
     1
 78
     2
176
     1
 67
     7
176
     1
 79
     5
176
     1
170
     0
176
     1
171
     0
176
     1
290
     0
176
     1
 93
        1
176
     1
 44
-50.0
176
     1
173
     0
176
     1
  0
VISUALSTYLE
  5
39
102
{ACAD_REACTORS
330
2A
102
}
330
2A
100
AcDbVisualStyle
  2
Facepattern
 70
    15
177
     2
291
     1
 71
     2
176
     1
 72
     2
176
     1
 73
     0
176
     1
 90
        0
176
     1
 40
-0.6
176
     1
 41
-30.0
176
     1
 62
     5
 63
     7
421
 16777215
176
     1
 74
     1
176
     1
 91
        4
176
     1
 64
     7
176
     1
 65
   257
176
     1
 75
     1
176
     1
175
     1
176
     1
 42
1.0
176
     1
 92
        8
176
     1
 66
     7
176
     1
 43
1.0
176
     1
 76
     1
176
     1
 77
     6
176
     1
 78
     2
176
     1
 67
     7
176
     1
 79
     5
176
     1
170
     0
176
     1
171
     0
176
     1
290
     0
176
     1
 93
        1
176
     1
 44
0.0
176
     1
173
     0
176
     1
  0
VISUALSTYLE
  5
2B
102
{ACAD_REACTORS
330
2A
102
}
330
2A
100
AcDbVisualStyle
  2
Flat
 70
     0
177
     2
291
     1
 71
     2
176
     1
 72
     1
176
     1
 73
     1
176
     1
 90
        2
176
     1
 40
-0.6
176
     1
 41
30.0
176
     1
 62
     5
 63
     7
421
 16777215
176
     1
 74
     0
176
     1
 91
        4
176
     1
 64
     7
176
     1
 65
   257
176
     1
 75
     1
176
     1
175
     1
176
     1
 42
1.0
176
     1
 92
        8
176
     1
 66
     7
176
     1
 43
1.0
176
     1
 76
     1
176
     1
 77
     6
176
     1
 78
     2
176
     1
 67
     7
176
     1
 79
     5
176
     1
170
     0
176
     1
171
     0
176
     1
290
     0
176
     1
 93
       13
176
     1
 44
0.0
176
     1
173
     0
176
     1
  0
VISUALSTYLE
  5
2C
102
{ACAD_REACTORS
330
2A
102
}
330
2A
100
AcDbVisualStyle
  2
FlatWithEdges
 70
     1
177
     2
291
     1
 71
     2
176
     1
 72
     1
176
     1
 73
     1
176
     1
 90
        2
176
     1
 40
-0.6
176
     1
 41
30.0
176
     1
 62
     5
 63
     7
421
 16777215
176
     1
 74
     1
176
     1
 91
        4
176
     1
 64
     7
176
     1
 65
   257
176
     1
 75
     1
176
     1
175
     1
176
     1
 42
1.0
176
     1
 92
        0
176
     1
 66
   257
176
     1
 43
1.0
176
     1
 76
     1
176
     1
 77
     6
176
     1
 78
     2
176
     1
 67
     7
176
     1
 79
     5
176
     1
170
     0
176
     1
171
     0
176
     1
290
     0
176
     1
 93
       13
176
     1
 44
0.0
176
     1
173
     0
176
     1
  0
VISUALSTYLE
  5
2D
102
{ACAD_REACTORS
330
2A
102
}
330
2A
100
AcDbVisualStyle
  2
Gouraud
 70
     2
177
     2
291
     1
 71
     2
176
     1
 72
     2
176
     1
 73
     1
176
     1
 90
        2
176
     1
 40
-0.6
176
     1
 41
30.0
176
     1
 62
     5
 63
     7
421
 16777215
176
     1
 74
     0
176
     1
 91
        4
176
     1
 64
     7
176
     1
 65
   257
176
     1
 75
     1
176
     1
175
     1
176
     1
 42
1.0
176
     1
 92
        0
176
     1
 66
     7
176
     1
 43
1.0
176
     1
 76
     1
176
     1
 77
     6
176
     1
 78
     2
176
     1
 67
     7
176
     1
 79
     5
176
     1
170
     0
176
     1
171
     0
176
     1
290
     0
176
     1
 93
       13
176
     1
 44
0.0
176
     1
173
     0
176
     1
  0
VISUALSTYLE
  5
2E
102
{ACAD_REACTORS
330
2A
102
}
330
2A
100
AcDbVisualStyle
  2
GouraudWithEdges
 70
     3
177
     2
291
     1
 71
     2
176
     1
 72
     2
176
     1
 73
     1
176
     1
 90
        2
176
     1
 40
-0.6
176
     1
 41
30.0
176
     1
 62
     5
 63
     7
421
 16777215
176
     1
 74
     1
176
     1
 91
        4
176
     1
 64
     7
176
     1
 65
   257
176
     1
 75
     1
176
     1
175
     1
176
     1
 42
1.0
176
     1
 92
        0
176
     1
 66
   257
176
     1
 43
1.0
176
     1
 76
     1
176
     1
 77
     6
176
     1
 78
     2
176
     1
 67
     7
176
     1
 79
     5
176
     1
170
     0
176
     1
171
     0
176
     1
290
     0
176
     1
 93
       13
176
     1
 44
0.0
176
     1
173
     0
176
     1
  0
VISUALSTYLE
  5
38
102
{ACAD_REACTORS
330
2A
102
}
330
2A
100
AcDbVisualStyle
  2
Linepattern
 70
    14
177
     2
291
     1
 71
     2
176
     1
 72
     2
176
     1
 73
     0
176
     1
 90
        0
176
     1
 40
-0.6
176
     1
 41
-30.0
176
     1
 62
     5
 63
     7
421
 16777215
176
     1
 74
     1
176
     1
 91
        4
176
     1
 64
     7
176
     1
 65
   257
176
     1
 75
     7
176
     1
175
     7
176
     1
 42
1.0
176
     1
 92
        8
176
     1
 66
     7
176
     1
 43
1.0
176
     1
 76
     1
176
     1
 77
     6
176
     1
 78
     2
176
     1
 67
     7
176
     1
 79
     5
176
     1
170
     0
176
     1
171
     0
176
     1
290
     0
176
     1
 93
        1
176
     1
 44
0.0
176
     1
173
     0
176
     1
  0
VISUALSTYLE
  5
33
102
{ACAD_REACTORS
330
2A
102
}
330
2A
100
AcDbVisualStyle
  2
Realistic
 70
     8
177
     2
291
     0
 71
     2
176
     1
 72
     2
176
     1
 73
     0
176
     1
 90
        0
176
     1
 40
-0.6
176
     1
 41
-30.0
176
     1
 62
     5
 63
     7
421
 16777215
176
     1
 74
     1
176
     1
 91
        0
176
     1
 64
     7
176
     1
 65
   257
176
     1
 75
     1
176
     1
175
     1
176
     1
 42
1.0
176
     1
 92
        8
176
     1
 66
     8
424
  7895160
176
     1
 43
1.0
176
     1
 76
     1
176
     1
 77
     6
176
     1
 78
     2
176
     1
 67
     7
176
     1
 79
     5
176
     1
170
     0
176
     1
171
     0
176
     1
290
     0
176
     1
 93
       13
176
     1
 44
0.0
176
     1
173
     0
176
     1
  0
VISUALSTYLE
  5
37
102
{ACAD_REACTORS
330
2A
102
}
330
2A
100
AcDbVisualStyle
  2
Thicken
 70
    13
177
     2
291
     1
 71
     2
176
     1
 72
     2
176
     1
 73
     0
176
     1
 90
        0
176
     1
 40
-0.6
176
     1
 41
-30.0
176
     1
 62
     5
 63
     7
421
 16777215
176
     1
 74
     1
176
     1
 91
        4
176
     1
 64
     7
176
     1
 65
   257
176
     1
 75
     1
176
     1
175
     1
176
     1
 42
1.0
176
     1
 92
       12
176
     1
 66
     7
176
     1
 43
1.0
176
     1
 76
     1
176
     1
 77
     6
176
     1
 78
     2
176
     1
 67
     7
176
     1
 79
     5
176
     1
170
     0
176
     1
171
     0
176
     1
290
     0
176
     1
 93
        1
176
     1
 44
0.0
176
     1
173
     0
176
     1
  0
ENDSEC
  0
EOF
