  0
SECTION
  2
HEADER
  9
$ACADVER
  1
AC1024
  9
$ACADMAINTVER
 70
     6
  9
$DWGCODEPAGE
  3
UNDEFINED
  9
$INSBASE
 10
0.0
 20
0.0
 30
0.0
  9
$EXTMIN
 10
1.000000000000000E+20
 20
1.000000000000000E+20
 30
1.000000000000000E+20
  9
$EXTMAX
 10
-1.000000000000000E+20
 20
-1.000000000000000E+20
 30
-1.000000000000000E+20
  9
$LIMMIN
 10
0.0
 20
0.0
  9
$LIMMAX
 10
12.0
 20
9.0
  9
$ORTHOMODE
 70
     0
  9
$REGENMODE
 70
     1
  9
$FILLMODE
 70
     1
  9
$QTEXTMODE
 70
     0
  9
$MIRRTEXT
 70
     1
  9
$LTSCALE
 40
1.0
  9
$ATTMODE
 70
     1
  9
$TEXTSIZE
 40
0.2
  9
$TRACEWID
 40
0.05
  9
$TEXTSTYLE
  7
Standard
  9
$CLAYER
  8
0
  9
$CELTYPE
  6
ByLayer
  9
$CECOLOR
 62
   256
  9
$CELTSCALE
 40
1.0
  9
$DISPSILH
 70
     0
  9
$DIMSCALE
 40
1.0
  9
$DIMASZ
 40
0.18
  9
$DIMEXO
 40
0.0625
  9
$DIMDLI
 40
0.38
  9
$DIMRND
 40
0.0
  9
$DIMDLE
 40
0.0
  9
$DIMEXE
 40
0.18
  9
$DIMTP
 40
0.0
  9
$DIMTM
 40
0.0
  9
$DIMTXT
 40
0.18
  9
$DIMCEN
 40
0.09
  9
$DIMTSZ
 40
0.0
  9
$DIMTOL
 70
     0
  9
$DIMLIM
 70
     0
  9
$DIMTIH
 70
     1
  9
$DIMTOH
 70
     1
  9
$DIMSE1
 70
     0
  9
$DIMSE2
 70
     0
  9
$DIMTAD
 70
     0
  9
$DIMZIN
 70
     0
  9
$DIMBLK
  1

  9
$DIMASO
 70
     1
  9
$DIMSHO
 70
     1
  9
$DIMPOST
  1

  9
$DIMAPOST
  1

  9
$DIMALT
 70
     0
  9
$DIMALTD
 70
     2
  9
$DIMALTF
 40
25.4
  9
$DIMLFAC
 40
1.0
  9
$DIMTOFL
 70
     0
  9
$DIMTVP
 40
0.0
  9
$DIMTIX
 70
     0
  9
$DIMSOXD
 70
     0
  9
$DIMSAH
 70
     0
  9
$DIMBLK1
  1

  9
$DIMBLK2
  1

  9
$DIMSTYLE
  2
Standard
  9
$DIMCLRD
 70
     0
  9
$DIMCLRE
 70
     0
  9
$DIMCLRT
 70
     0
  9
$DIMTFAC
 40
1.0
  9
$DIMGAP
 40
0.09
  9
$DIMJUST
 70
     0
  9
$DIMSD1
 70
     0
  9
$DIMSD2
 70
     0
  9
$DIMTOLJ
 70
     1
  9
$DIMTZIN
 70
     0
  9
$DIMALTZ
 70
     0
  9
$DIMALTTZ
 70
     0
  9
$DIMUPT
 70
     0
  9
$DIMDEC
 70
     4
  9
$DIMTDEC
 70
     4
  9
$DIMALTU
 70
     2
  9
$DIMALTTD
 70
     2
  9
$DIMTXSTY
  7
Standard
  9
$DIMAUNIT
 70
     0
  9
$DIMADEC
 70
     0
  9
$DIMALTRND
 40
0.0
  9
$DIMAZIN
 70
     0
  9
$DIMDSEP
 70
    46
  9
$DIMATFIT
 70
     3
  9
$DIMFRAC
 70
     0
  9
$DIMLDRBLK
  1

  9
$DIMLUNIT
 70
     2
  9
$DIMLWD
 70
    -2
  9
$DIMLWE
 70
    -2
  9
$DIMTMOVE
 70
     0
  9
$DIMFXL
 40
1.0
  9
$DIMFXLON
 70
     0
  9
$DIMJOGANG
 40
0.7853981633974483
  9
$DIMTFILL
 70
     0
  9
$DIMTFILLCLR
 70
     0
  9
$DIMARCSYM
 70
     0
  9
$DIMLTYPE
  6

  9
$DIMLTEX1
  6

  9
$DIMLTEX2
  6

  9
$DIMTXTDIRECTION
 70
     0
  9
$LUNITS
 70
     2
  9
$LUPREC
 70
     4
  9
$SKETCHINC
 40
0.1
  9
$FILLETRAD
 40
0.5
  9
$AUNITS
 70
     0
  9
$AUPREC
 70
     0
  9
$MENU
  1
.
  9
$ELEVATION
 40
0.0
  9
$PELEVATION
 40
0.0
  9
$THICKNESS
 40
0.0
  9
$LIMCHECK
 70
     0
  9
$CHAMFERA
 40
0.5
  9
$CHAMFERB
 40
0.5
  9
$CHAMFERC
 40
1.0
  9
$CHAMFERD
 40
0.0
  9
$SKPOLY
 70
     0
  9
$TDCREATE
 40
2457917.595277778
  9
$TDUCREATE
 40
2457917.220277778
  9
$TDUPDATE
 40
2457917.595277778
  9
$TDUUPDATE
 40
2457917.220277778
  9
$TDINDWG
 40
0.0000000116
  9
$TDUSRTIMER
 40
0.0000000116
  9
$USRTIMER
 70
     1
  9
$ANGBASE
 50
0.0
  9
$ANGDIR
 70
     0
  9
$PDMODE
 70
     0
  9
$PDSIZE
 40
0.0
  9
$PLINEWID
 40
0.0
  9
$SPLFRAME
 70
     0
  9
$SPLINETYPE
 70
     6
  9
$SPLINESEGS
 70
     8
  9
$HANDSEED
  5
101
  9
$SURFTAB1
 70
     6
  9
$SURFTAB2
 70
     6
  9
$SURFTYPE
 70
     6
  9
$SURFU
 70
     6
  9
$SURFV
 70
     6
  9
$UCSBASE
  2

  9
$UCSNAME
  2

  9
$UCSORG
 10
0.0
 20
0.0
 30
0.0
  9
$UCSXDIR
 10
1.0
 20
0.0
 30
0.0
  9
$UCSYDIR
 10
0.0
 20
1.0
 30
0.0
  9
$UCSORTHOREF
  2

  9
$UCSORTHOVIEW
 70
     0
  9
$UCSORGTOP
 10
0.0
 20
0.0
 30
0.0
  9
$UCSORGBOTTOM
 10
0.0
 20
0.0
 30
0.0
  9
$UCSORGLEFT
 10
0.0
 20
0.0
 30
0.0
  9
$UCSORGRIGHT
 10
0.0
 20
0.0
 30
0.0
  9
$UCSORGFRONT
 10
0.0
 20
0.0
 30
0.0
  9
$UCSORGBACK
 10
0.0
 20
0.0
 30
0.0
  9
$PUCSBASE
  2

  9
$PUCSNAME
  2

  9
$PUCSORG
 10
0.0
 20
0.0
 30
0.0
  9
$PUCSXDIR
 10
1.0
 20
0.0
 30
0.0
  9
$PUCSYDIR
 10
0.0
 20
1.0
 30
0.0
  9
$PUCSORTHOREF
  2

  9
$PUCSORTHOVIEW
 70
     0
  9
$PUCSORGTOP
 10
0.0
 20
0.0
 30
0.0
  9
$PUCSORGBOTTOM
 10
0.0
 20
0.0
 30
0.0
  9
$PUCSORGLEFT
 10
0.0
 20
0.0
 30
0.0
  9
$PUCSORGRIGHT
 10
0.0
 20
0.0
 30
0.0
  9
$PUCSORGFRONT
 10
0.0
 20
0.0
 30
0.0
  9
$PUCSORGBACK
 10
0.0
 20
0.0
 30
0.0
  9
$USERI1
 70
     0
  9
$USERI2
 70
     0
  9
$USERI3
 70
     0
  9
$USERI4
 70
     0
  9
$USERI5
 70
     0
  9
$USERR1
 40
0.0
  9
$USERR2
 40
0.0
  9
$USERR3
 40
0.0
  9
$USERR4
 40
0.0
  9
$USERR5
 40
0.0
  9
$WORLDVIEW
 70
     1
  9
$SHADEDGE
 70
     3
  9
$SHADEDIF
 70
    70
  9
$TILEMODE
 70
     1
  9
$MAXACTVP
 70
    64
  9
$PINSBASE
 10
0.0
 20
0.0
 30
0.0
  9
$PLIMCHECK
 70
     0
  9
$PEXTMIN
 10
1.000000000000000E+20
 20
1.000000000000000E+20
 30
1.000000000000000E+20
  9
$PEXTMAX
 10
-1.000000000000000E+20
 20
-1.000000000000000E+20
 30
-1.000000000000000E+20
  9
$PLIMMIN
 10
0.0
 20
0.0
  9
$PLIMMAX
 10
12.0
 20
9.0
  9
$UNITMODE
 70
     0
  9
$VISRETAIN
 70
     1
  9
$PLINEGEN
 70
     0
  9
$PSLTSCALE
 70
     1
  9
$TREEDEPTH
 70
  3020
  9
$CMLSTYLE
  2
Standard
  9
$CMLJUST
 70
     0
  9
$CMLSCALE
 40
1.0
  9
$PROXYGRAPHICS
 70
     1
  9
$MEASUREMENT
 70
     0
  9
$CELWEIGHT
370
    -1
  9
$ENDCAPS
280
     0
  9
$JOINSTYLE
280
     0
  9
$LWDISPLAY
290
     1
  9
$INSUNITS
 70
     1
  9
$HYPERLINKBASE
  1

  9
$STYLESHEET
  1

  9
$XEDIT
290
     1
  9
$CEPSNTYPE
380
     0
  9
$PSTYLEMODE
290
     1
  9
$FINGERPRINTGUID
  2
{E0CB2447-9FB0-800F-317A-F1581B145781}
  9
$VERSIONGUID
  2
{FAEB1C32-E019-11D5-929B-00C0DF256EC4}
  9
$EXTNAMES
290
     1
  9
$PSVPSCALE
 40
0.0
  9
$OLESTARTUP
290
     0
  9
$SORTENTS
280
   127
  9
$INDEXCTL
280
     0
  9
$HIDETEXT
280
     1
  9
$XCLIPFRAME
280
     2
  9
$HALOGAP
280
     0
  9
$OBSCOLOR
 70
   257
  9
$OBSLTYPE
280
     0
  9
$INTERSECTIONDISPLAY
280
     0
  9
$INTERSECTIONCOLOR
 70
   257
  9
$DIMASSOC
280
     2
  9
$PROJECTNAME
  1

  9
$CAMERADISPLAY
290
     0
  9
$LENSLENGTH
 40
50.0
  9
$CAMERAHEIGHT
 40
0.0
  9
$STEPSPERSEC
 40
2.0
  9
$STEPSIZE
 40
6.0
  9
$3DDWFPREC
 40
2.0
  9
$PSOLWIDTH
 40
0.25
  9
$PSOLHEIGHT
 40
4.0
  9
$LOFTANG1
 40
1.570796326794897
  9
$LOFTANG2
 40
1.570796326794897
  9
$LOFTMAG1
 40
0.0
  9
$LOFTMAG2
 40
0.0
  9
$LOFTPARAM
 70
     7
  9
$LOFTNORMALS
280
     1
  9
$LATITUDE
 40
37.795
  9
$LONGITUDE
 40
-122.394
  9
$NORTHDIRECTION
 40
0.0
  9
$TIMEZONE
 70
 -8000
  9
$LIGHTGLYPHDISPLAY
280
     1
  9
$TILEMODELIGHTSYNCH
280
     1
  9
$CMATERIAL
347
3C
  9
$SOLIDHIST
280
     1
  9
$SHOWHIST
280
     1
  9
$DWFFRAME
280
     2
  9
$DGNFRAME
280
     2
  9
$REALWORLDSCALE
290
     1
  9
$INTERFERECOLOR
 62
   256
  9
$CSHADOW
280
     0
  9
$SHADOWPLANELOCATION
 40
0.0
  0
ENDSEC
  0
SECTION
  2
CLASSES
  0
CLASS
  1
ACDBDICTIONARYWDFLT
  2
AcDbDictionaryWithDefault
  3
ObjectDBX Classes
 90
        0
 91
        4
280
     0
281
     0
  0
CLASS
  1
VISUALSTYLE
  2
AcDbVisualStyle
  3
ObjectDBX Classes
 90
     4095
 91
        4
280
     0
281
     0
  0
CLASS
  1
MATERIAL
  2
AcDbMaterial
  3
ObjectDBX Classes
 90
     1153
 91
        4
280
     0
281
     0
  0
CLASS
  1
SUN
  2
AcDbSun
  3
SCENEOE
 90
     1024
 91
        4
280
     0
281
     0
  0
ENDSEC
  0
SECTION
  2
TABLES
  0
TABLE
  2
VPORT
  5
8
330
0
100
AcDbSymbolTable
 70
     1
  0
VPORT
  5
29
330
8
100
AcDbSymbolTableRecord
100
AcDbViewportTableRecord
  2
*Active
 70
     0
 10
0.0
 20
0.0
 11
1.0
 21
1.0
 12
0.0
 22
0.0
 13
0.0
 23
0.0
 14
0.5
 24
0.5
 15
0.5
 25
0.5
 16
0.0
 26
0.0
 36
1.0
 17
91.00082462281999
 27
-128.4993055234307
 37
0.0
 40
256.9986110468615
 41
0.7081814508812795
 42
50.0
 43
0.0
 44
0.0
 50
0.0
 51
0.0
 71
     0
 72
   100
 73
     1
 74
     3
 75
     0
 76
     0
 77
     0
 78
     0
281
     0
 65
     1
110
0.0
120
0.0
130
0.0
111
1.0
121
0.0
131
0.0
112
0.0
122
1.0
132
0.0
 79
     0
146
0.0
 60
     3
 61
     5
292
     1
282
     1
141
0.0
142
0.0
 63
   250
361
3F
  0
ENDTAB
  0
TABLE
  2
LTYPE
  5
5
330
0
100
AcDbSymbolTable
 70
     1
  0
LTYPE
  5
14
330
5
100
AcDbSymbolTableRecord
100
AcDbLinetypeTableRecord
  2
ByBlock
 70
     0
  3

 72
    65
 73
     0
 40
0.0
  0
LTYPE
  5
15
330
5
100
AcDbSymbolTableRecord
100
AcDbLinetypeTableRecord
  2
ByLayer
 70
     0
  3

 72
    65
 73
     0
 40
0.0
  0
LTYPE
  5
16
330
5
100
AcDbSymbolTableRecord
100
AcDbLinetypeTableRecord
  2
Continuous
 70
     0
  3
Solid line
 72
    65
 73
     0
 40
0.0
  0
ENDTAB
  0
TABLE
  2
LAYER
  5
2
330
0
100
AcDbSymbolTable
 70
     2
  0
LAYER
  5
10
330
2
100
AcDbSymbolTableRecord
100
AcDbLayerTableRecord
  2
0
 70
     0
 62
     7
  6
Continuous
370
    -3
390
F
347
3E
  0
LAYER
  5
40
330
2
100
AcDbSymbolTableRecord
100
AcDbLayerTableRecord
  2
_U+30EC_U+30A4_U+30E4_U+30FC 1
 70
     0
 62
     7
  6
Continuous
370
    -3
390
F
347
3E
  0
ENDTAB
  0
TABLE
  2
STYLE
  5
3
330
0
100
AcDbSymbolTable
 70
     1
  0
STYLE
  5
11
330
3
100
AcDbSymbolTableRecord
100
AcDbTextStyleTableRecord
  2
Standard
 70
     0
 40
0.0
 41
1.0
 50
0.0
 71
     0
 42
0.2
  3
txt
  4

  0
ENDTAB
  0
TABLE
  2
VIEW
  5
6
330
0
100
AcDbSymbolTable
 70
     0
  0
ENDTAB
  0
TABLE
  2
UCS
  5
7
330
0
100
AcDbSymbolTable
 70
     0
  0
ENDTAB
  0
TABLE
  2
APPID
  5
9
330
0
100
AcDbSymbolTable
 70
     1
  0
APPID
  5
12
330
9
100
AcDbSymbolTableRecord
100
AcDbRegAppTableRecord
  2
ACAD
 70
     0
  0
ENDTAB
  0
TABLE
  2
DIMSTYLE
  5
A
330
0
100
AcDbSymbolTable
 70
     1
100
AcDbDimStyleTable
  0
DIMSTYLE
105
27
330
A
100
AcDbSymbolTableRecord
100
AcDbDimStyleTableRecord
  2
Standard
 70
     0
178
     0
340
11
  0
ENDTAB
  0
TABLE
  2
BLOCK_RECORD
  5
1
330
0
100
AcDbSymbolTable
 70
     6
  0
BLOCK_RECORD
  5
1F
330
1
100
AcDbSymbolTableRecord
100
AcDbBlockTableRecord
  2
*Model_Space
340
22
 70
     0
280
     1
281
     0
  0
BLOCK_RECORD
  5
1B
330
1
100
AcDbSymbolTableRecord
100
AcDbBlockTableRecord
  2
*Paper_Space
340
1E
 70
     0
280
     1
281
     0
  0
BLOCK_RECORD
  5
23
330
1
100
AcDbSymbolTableRecord
100
AcDbBlockTableRecord
  2
*Paper_Space0
340
26
 70
     0
280
     1
281
     0
  0
BLOCK_RECORD
  5
7A
330
1
100
AcDbSymbolTableRecord
100
AcDbBlockTableRecord
  2
block 2
340
0
102
{BLKREFS
331
7B
102
}
 70
     0
280
     1
281
     0
  0
BLOCK_RECORD
  5
8C
330
1
100
AcDbSymbolTableRecord
100
AcDbBlockTableRecord
  2
block 3
340
0
102
{BLKREFS
331
8D
102
}
 70
     0
280
     1
281
     0
  0
BLOCK_RECORD
  5
BB
330
1
100
AcDbSymbolTableRecord
100
AcDbBlockTableRecord
  2
block 4
340
0
102
{BLKREFS
331
BC
102
}
 70
     0
280
     1
281
     0
  0
BLOCK_RECORD
  5
DE
330
1
100
AcDbSymbolTableRecord
100
AcDbBlockTableRecord
  2
block 5
340
0
102
{BLKREFS
331
DF
102
}
 70
     0
280
     1
281
     0
  0
BLOCK_RECORD
  5
F8
330
1
100
AcDbSymbolTableRecord
100
AcDbBlockTableRecord
  2
block 6
340
0
102
{BLKREFS
331
F9
102
}
 70
     0
280
     1
281
     0
  0
ENDTAB
  0
ENDSEC
  0
SECTION
  2
BLOCKS
  0
BLOCK
  5
20
330
1F
100
AcDbEntity
  8
0
100
AcDbBlockBegin
  2
*Model_Space
 70
     0
 10
0.0
 20
0.0
 30
0.0
  3
*Model_Space
  1

  0
ENDBLK
  5
21
330
1F
100
AcDbEntity
  8
0
100
AcDbBlockEnd
  0
BLOCK
  5
1C
330
1B
100
AcDbEntity
 67
     1
  8
0
100
AcDbBlockBegin
  2
*Paper_Space
 70
     0
 10
0.0
 20
0.0
 30
0.0
  3
*Paper_Space
  1

  0
ENDBLK
  5
1D
330
1B
100
AcDbEntity
 67
     1
  8
0
100
AcDbBlockEnd
  0
BLOCK
  5
24
330
23
100
AcDbEntity
  8
0
100
AcDbBlockBegin
  2
*Paper_Space0
 70
     0
 10
0.0
 20
0.0
 30
0.0
  3
*Paper_Space0
  1

  0
ENDBLK
  5
25
330
23
100
AcDbEntity
  8
0
100
AcDbBlockEnd
  0
BLOCK
  5
7C
330
7A
100
AcDbEntity
  8
0
100
AcDbBlockBegin
  2
block 2
 70
     0
 10
0.0
 20
0.0
 30
0.0
  3
block 2
  1

  0
SPLINE
  5
7E
330
7A
100
AcDbEntity
  8
_U+30EC_U+30A4_U+30E4_U+30FC 1
370
     0
100
AcDbSpline
210
0.0
220
0.0
230
1.0
 70
    11
 71
     3
 72
    26
 73
    22
 74
     0
 42
0.0000000001
 43
0.0000000001
 12
1.0
 22
0.0
 32
0.0
 13
1.0
 23
0.0
 33
0.0
 40
0.0
 40
0.0
 40
0.0
 40
0.0
 40
1.0
 40
1.0
 40
1.0
 40
2.0
 40
2.0
 40
2.0
 40
3.0
 40
3.0
 40
3.0
 40
4.0
 40
4.0
 40
4.0
 40
5.0
 40
5.0
 40
5.0
 40
6.0
 40
6.0
 40
6.0
 40
7.0
 40
7.0
 40
7.0
 40
7.0
 10
89.84567868847608
 20
-119.891045434437
 30
0.0
 10
89.84567868847608
 20
-119.891045434437
 30
0.0
 10
89.84567868847608
 20
-118.7867200766401
 30
0.0
 10
89.84567868847608
 20
-118.7867200766401
 30
0.0
 10
89.84567868847608
 20
-118.7867200766401
 30
0.0
 10
89.4929009107865
 20
-118.7867200766401
 30
0.0
 10
89.4929009107865
 20
-118.7867200766401
 30
0.0
 10
89.4929009107865
 20
-118.7867200766401
 30
0.0
 10
89.4929009107865
 20
-118.6387532255487
 30
0.0
 10
89.4929009107865
 20
-118.6387532255487
 30
0.0
 10
89.8479180005415
 20
-118.6239393149621
 30
0.0
 10
89.89769963030335
 20
-118.4609862985098
 30
0.0
 10
89.92939450876766
 20
-118.3467813831737
 30
0.0
 10
89.92939450876766
 20
-118.3467813831737
 30
0.0
 10
90.08528507947521
 20
-118.3467813831737
 30
0.0
 10
90.08528507947521
 20
-118.3467813831737
 30
0.0
 10
90.08528507947521
 20
-118.3467813831737
 30
0.0
 10
90.08528507947521
 20
-119.891045434437
 30
0.0
 10
90.08528507947521
 20
-119.891045434437
 30
0.0
 10
90.08528507947521
 20
-119.891045434437
 30
0.0
 10
89.84567868847608
 20
-119.891045434437
 30
0.0
 10
89.84567868847608
 20
-119.891045434437
 30
0.0
  0
HATCH
  5
7F
330
7A
100
AcDbEntity
  8
_U+30EC_U+30A4_U+30E4_U+30FC 1
 62
     7
420
 16777215
100
AcDbHatch
 10
0.0
 20
0.0
 30
0.0
210
0.0
220
0.0
230
1.0
  2
SOLID
 70
     1
 71
     0
 91
        1
 92
        1
 93
        1
 72
     4
 94
        3
 73
     0
 74
     1
 95
       26
 96
       22
 40
0.0
 40
0.0
 40
0.0
 40
0.0
 40
1.0
 40
1.0
 40
1.0
 40
2.0
 40
2.0
 40
2.0
 40
3.0
 40
3.0
 40
3.0
 40
4.0
 40
4.0
 40
4.0
 40
5.0
 40
5.0
 40
5.0
 40
6.0
 40
6.0
 40
6.0
 40
7.0
 40
7.0
 40
7.0
 40
7.0
 10
89.84567868847608
 20
-119.891045434437
 10
89.84567868847608
 20
-119.891045434437
 10
89.84567868847608
 20
-118.7867200766401
 10
89.84567868847608
 20
-118.7867200766401
 10
89.84567868847608
 20
-118.7867200766401
 10
89.4929009107865
 20
-118.7867200766401
 10
89.4929009107865
 20
-118.7867200766401
 10
89.4929009107865
 20
-118.7867200766401
 10
89.4929009107865
 20
-118.6387532255487
 10
89.4929009107865
 20
-118.6387532255487
 10
89.8479180005415
 20
-118.6239393149621
 10
89.89769963030335
 20
-118.4609862985098
 10
89.92939450876766
 20
-118.3467813831737
 10
89.92939450876766
 20
-118.3467813831737
 10
90.08528507947521
 20
-118.3467813831737
 10
90.08528507947521
 20
-118.3467813831737
 10
90.08528507947521
 20
-118.3467813831737
 10
90.08528507947521
 20
-119.891045434437
 10
90.08528507947521
 20
-119.891045434437
 10
90.08528507947521
 20
-119.891045434437
 10
89.84567868847608
 20
-119.891045434437
 10
89.84567868847608
 20
-119.891045434437
 97
        0
 97
        0
 75
     2
 76
     1
 98
        0
  0
ENDBLK
  5
7D
330
7A
100
AcDbEntity
  8
0
100
AcDbBlockEnd
  0
BLOCK
  5
8E
330
8C
100
AcDbEntity
  8
0
100
AcDbBlockBegin
  2
block 3
 70
     0
 10
0.0
 20
0.0
 30
0.0
  3
block 3
  1

  0
SPLINE
  5
90
330
8C
100
AcDbEntity
  8
_U+30EC_U+30A4_U+30E4_U+30FC 1
370
     0
100
AcDbSpline
210
0.0
220
0.0
230
1.0
 70
    11
 71
     3
 72
    26
 73
    22
 74
     0
 42
0.0000000001
 43
0.0000000001
 12
1.0
 22
0.0
 32
0.0
 13
1.0
 23
0.0
 33
0.0
 40
0.0
 40
0.0
 40
0.0
 40
0.0
 40
1.0
 40
1.0
 40
1.0
 40
2.0
 40
2.0
 40
2.0
 40
3.0
 40
3.0
 40
3.0
 40
4.0
 40
4.0
 40
4.0
 40
5.0
 40
5.0
 40
5.0
 40
6.0
 40
6.0
 40
6.0
 40
7.0
 40
7.0
 40
7.0
 40
7.0
 10
92.17421872695645
 20
-143.009358688206
 30
0.0
 10
92.17421872695645
 20
-143.009358688206
 30
0.0
 10
92.17421872695645
 20
-141.9052055851834
 30
0.0
 10
92.17421872695645
 20
-141.9052055851834
 30
0.0
 10
92.17421872695645
 20
-141.9052055851834
 30
0.0
 10
91.82178545881538
 20
-141.9052055851834
 30
0.0
 10
91.82178545881538
 20
-141.9052055851834
 30
0.0
 10
91.82178545881538
 20
-141.9052055851834
 30
0.0
 10
91.82178545881538
 20
-141.7570664793177
 30
0.0
 10
91.82178545881538
 20
-141.7570664793177
 30
0.0
 10
92.17663029379612
 20
-141.7422525687311
 30
0.0
 10
92.22623966878372
 20
-141.5792995522788
 30
0.0
 10
92.25793454724803
 20
-141.4649223821685
 30
0.0
 10
92.25793454724803
 20
-141.4649223821685
 30
0.0
 10
92.41399737272984
 20
-141.4649223821685
 30
0.0
 10
92.41399737272984
 20
-141.4649223821685
 30
0.0
 10
92.41399737272984
 20
-141.4649223821685
 30
0.0
 10
92.41399737272984
 20
-143.009358688206
 30
0.0
 10
92.41399737272984
 20
-143.009358688206
 30
0.0
 10
92.41399737272984
 20
-143.009358688206
 30
0.0
 10
92.17421872695645
 20
-143.009358688206
 30
0.0
 10
92.17421872695645
 20
-143.009358688206
 30
0.0
  0
HATCH
  5
91
330
8C
100
AcDbEntity
  8
_U+30EC_U+30A4_U+30E4_U+30FC 1
 62
     7
420
 16777215
100
AcDbHatch
 10
0.0
 20
0.0
 30
0.0
210
0.0
220
0.0
230
1.0
  2
SOLID
 70
     1
 71
     0
 91
        1
 92
        1
 93
        1
 72
     4
 94
        3
 73
     0
 74
     1
 95
       26
 96
       22
 40
0.0
 40
0.0
 40
0.0
 40
0.0
 40
1.0
 40
1.0
 40
1.0
 40
2.0
 40
2.0
 40
2.0
 40
3.0
 40
3.0
 40
3.0
 40
4.0
 40
4.0
 40
4.0
 40
5.0
 40
5.0
 40
5.0
 40
6.0
 40
6.0
 40
6.0
 40
7.0
 40
7.0
 40
7.0
 40
7.0
 10
92.17421872695645
 20
-143.009358688206
 10
92.17421872695645
 20
-143.009358688206
 10
92.17421872695645
 20
-141.9052055851834
 10
92.17421872695645
 20
-141.9052055851834
 10
92.17421872695645
 20
-141.9052055851834
 10
91.82178545881538
 20
-141.9052055851834
 10
91.82178545881538
 20
-141.9052055851834
 10
91.82178545881538
 20
-141.9052055851834
 10
91.82178545881538
 20
-141.7570664793177
 10
91.82178545881538
 20
-141.7570664793177
 10
92.17663029379612
 20
-141.7422525687311
 10
92.22623966878372
 20
-141.5792995522788
 10
92.25793454724803
 20
-141.4649223821685
 10
92.25793454724803
 20
-141.4649223821685
 10
92.41399737272984
 20
-141.4649223821685
 10
92.41399737272984
 20
-141.4649223821685
 10
92.41399737272984
 20
-141.4649223821685
 10
92.41399737272984
 20
-143.009358688206
 10
92.41399737272984
 20
-143.009358688206
 10
92.41399737272984
 20
-143.009358688206
 10
92.17421872695645
 20
-143.009358688206
 10
92.17421872695645
 20
-143.009358688206
 97
        0
 97
        0
 75
     2
 76
     1
 98
        0
  0
POLYLINE
  5
92
330
8C
100
AcDbEntity
  8
_U+30EC_U+30A4_U+30E4_U+30FC 1
370
     0
100
AcDb2dPolyline
 66
     1
 10
0.0
 20
0.0
 30
0.0
  0
VERTEX
  5
93
330
92
100
AcDbEntity
  8
_U+30EC_U+30A4_U+30E4_U+30FC 1
370
     0
100
AcDbVertex
100
AcDb2dVertex
 10
93.8392333749777
 20
-142.6624375728414
 30
0.0
  0
VERTEX
  5
94
330
92
100
AcDbEntity
  8
_U+30EC_U+30A4_U+30E4_U+30FC 1
370
     0
100
AcDbVertex
100
AcDb2dVertex
 10
93.8392333749777
 20
-143.009358688206
 30
0.0
  0
VERTEX
  5
95
330
92
100
AcDbEntity
  8
_U+30EC_U+30A4_U+30E4_U+30FC 1
370
     0
100
AcDbVertex
100
AcDb2dVertex
 10
93.6063449201748
 20
-143.009358688206
 30
0.0
  0
VERTEX
  5
96
330
92
100
AcDbEntity
  8
_U+30EC_U+30A4_U+30E4_U+30FC 1
370
     0
100
AcDbVertex
100
AcDb2dVertex
 10
93.6063449201748
 20
-142.6624375728414
 30
0.0
  0
VERTEX
  5
97
330
92
100
AcDbEntity
  8
_U+30EC_U+30A4_U+30E4_U+30FC 1
370
     0
100
AcDbVertex
100
AcDb2dVertex
 10
92.90526798892647
 20
-142.6624375728414
 30
0.0
  0
VERTEX
  5
98
330
92
100
AcDbEntity
  8
_U+30EC_U+30A4_U+30E4_U+30FC 1
370
     0
100
AcDbVertex
100
AcDb2dVertex
 10
92.90526798892647
 20
-142.4381618567516
 30
0.0
  0
VERTEX
  5
99
330
92
100
AcDbEntity
  8
_U+30EC_U+30A4_U+30E4_U+30FC 1
370
     0
100
AcDbVertex
100
AcDb2dVertex
 10
93.6311496076686
 20
-141.4649223821685
 30
0.0
  0
VERTEX
  5
9A
330
92
100
AcDbEntity
  8
_U+30EC_U+30A4_U+30E4_U+30FC 1
370
     0
100
AcDbVertex
100
AcDb2dVertex
 10
93.8392333749777
 20
-141.4649223821685
 30
0.0
  0
VERTEX
  5
9B
330
92
100
AcDbEntity
  8
_U+30EC_U+30A4_U+30E4_U+30FC 1
370
     0
100
AcDbVertex
100
AcDb2dVertex
 10
93.8392333749777
 20
-142.4636555633424
 30
0.0
  0
VERTEX
  5
9C
330
92
100
AcDbEntity
  8
_U+30EC_U+30A4_U+30E4_U+30FC 1
370
     0
100
AcDbVertex
100
AcDb2dVertex
 10
94.06075301467926
 20
-142.4636555633424
 30
0.0
  0
VERTEX
  5
9D
330
92
100
AcDbEntity
  8
_U+30EC_U+30A4_U+30E4_U+30FC 1
370
     0
100
AcDbVertex
100
AcDb2dVertex
 10
94.06075301467926
 20
-142.6624375728414
 30
0.0
  0
VERTEX
  5
9E
330
92
100
AcDbEntity
  8
_U+30EC_U+30A4_U+30E4_U+30FC 1
370
     0
100
AcDbVertex
100
AcDb2dVertex
 10
93.8392333749777
 20
-142.6624375728414
 30
0.0
  0
SEQEND
  5
9F
330
92
100
AcDbEntity
  8
_U+30EC_U+30A4_U+30E4_U+30FC 1
370
     0
  0
POLYLINE
  5
A0
330
8C
100
AcDbEntity
  8
_U+30EC_U+30A4_U+30E4_U+30FC 1
370
     0
100
AcDb2dPolyline
 66
     1
 10
0.0
 20
0.0
 30
0.0
  0
VERTEX
  5
A1
330
A0
100
AcDbEntity
  8
_U+30EC_U+30A4_U+30E4_U+30FC 1
370
     0
100
AcDbVertex
100
AcDb2dVertex
 10
93.6063449201748
 20
-141.8077093829509
 30
0.0
  0
VERTEX
  5
A2
330
A0
100
AcDbEntity
  8
_U+30EC_U+30A4_U+30E4_U+30FC 1
370
     0
100
AcDbVertex
100
AcDb2dVertex
 10
93.11783038036639
 20
-142.4636555633424
 30
0.0
  0
VERTEX
  5
A3
330
A0
100
AcDbEntity
  8
_U+30EC_U+30A4_U+30E4_U+30FC 1
370
     0
100
AcDbVertex
100
AcDb2dVertex
 10
93.6063449201748
 20
-142.4636555633424
 30
0.0
  0
VERTEX
  5
A4
330
A0
100
AcDbEntity
  8
_U+30EC_U+30A4_U+30E4_U+30FC 1
370
     0
100
AcDbVertex
100
AcDb2dVertex
 10
93.6063449201748
 20
-141.8077093829509
 30
0.0
  0
SEQEND
  5
A5
330
A0
100
AcDbEntity
  8
_U+30EC_U+30A4_U+30E4_U+30FC 1
370
     0
  0
HATCH
  5
A6
330
8C
100
AcDbEntity
  8
_U+30EC_U+30A4_U+30E4_U+30FC 1
 62
     7
420
 16777215
100
AcDbHatch
 10
0.0
 20
0.0
 30
0.0
210
0.0
220
0.0
230
1.0
  2
SOLID
 70
     1
 71
     0
 91
        2
 92
        1
 93
       11
 72
     1
 10
93.8392333749777
 20
-142.6624375728414
 11
93.8392333749777
 21
-143.009358688206
 72
     1
 10
93.8392333749777
 20
-143.009358688206
 11
93.6063449201748
 21
-143.009358688206
 72
     1
 10
93.6063449201748
 20
-143.009358688206
 11
93.6063449201748
 21
-142.6624375728414
 72
     1
 10
93.6063449201748
 20
-142.6624375728414
 11
92.90526798892647
 21
-142.6624375728414
 72
     1
 10
92.90526798892647
 20
-142.6624375728414
 11
92.90526798892647
 21
-142.4381618567516
 72
     1
 10
92.90526798892647
 20
-142.4381618567516
 11
93.6311496076686
 21
-141.4649223821685
 72
     1
 10
93.6311496076686
 20
-141.4649223821685
 11
93.8392333749777
 21
-141.4649223821685
 72
     1
 10
93.8392333749777
 20
-141.4649223821685
 11
93.8392333749777
 21
-142.4636555633424
 72
     1
 10
93.8392333749777
 20
-142.4636555633424
 11
94.06075301467926
 21
-142.4636555633424
 72
     1
 10
94.06075301467926
 20
-142.4636555633424
 11
94.06075301467926
 21
-142.6624375728414
 72
     1
 10
94.06075301467926
 20
-142.6624375728414
 11
93.8392333749777
 21
-142.6624375728414
 97
        0
 92
        1
 93
        3
 72
     1
 10
93.6063449201748
 20
-141.8077093829509
 11
93.11783038036639
 21
-142.4636555633424
 72
     1
 10
93.11783038036639
 20
-142.4636555633424
 11
93.6063449201748
 21
-142.4636555633424
 72
     1
 10
93.6063449201748
 20
-142.4636555633424
 11
93.6063449201748
 21
-141.8077093829509
 97
        0
 75
     2
 76
     1
 98
        0
  0
ENDBLK
  5
8F
330
8C
100
AcDbEntity
  8
0
100
AcDbBlockEnd
  0
BLOCK
  5
BD
330
BB
100
AcDbEntity
  8
0
100
AcDbBlockBegin
  2
block 4
 70
     0
 10
0.0
 20
0.0
 30
0.0
  3
block 4
  1

  0
SPLINE
  5
BF
330
BB
100
AcDbEntity
  8
_U+30EC_U+30A4_U+30E4_U+30FC 1
370
     0
100
AcDbSpline
210
0.0
220
0.0
230
1.0
 70
    11
 71
     3
 72
    44
 73
    40
 74
     0
 42
0.0000000001
 43
0.0000000001
 12
1.0
 22
0.0
 32
0.0
 13
1.0
 23
0.0
 33
0.0
 40
0.0
 40
0.0
 40
0.0
 40
0.0
 40
1.0
 40
1.0
 40
1.0
 40
2.0
 40
2.0
 40
2.0
 40
3.0
 40
3.0
 40
3.0
 40
4.0
 40
4.0
 40
4.0
 40
5.0
 40
5.0
 40
5.0
 40
6.0
 40
6.0
 40
6.0
 40
7.0
 40
7.0
 40
7.0
 40
8.0
 40
8.0
 40
8.0
 40
9.0
 40
9.0
 40
9.0
 40
10.0
 40
10.0
 40
10.0
 40
11.0
 40
11.0
 40
11.0
 40
12.0
 40
12.0
 40
12.0
 40
13.0
 40
13.0
 40
13.0
 40
13.0
 10
80.67724607358069
 20
-129.3078694338189
 30
0.0
 10
80.83589272067644
 20
-129.5407578886218
 30
0.0
 10
80.90996227360932
 20
-129.6403211481455
 30
0.0
 10
81.0537950101185
 20
-129.6919975804242
 30
0.0
 10
81.0537950101185
 20
-129.6919975804242
 30
0.0
 10
81.0537950101185
 20
-128.8603515302849
 30
0.0
 10
81.0537950101185
 20
-128.8603515302849
 30
0.0
 10
81.0537950101185
 20
-128.8603515302849
 30
0.0
 10
81.25895044626513
 20
-128.8603515302849
 30
0.0
 10
81.25895044626513
 20
-128.8603515302849
 30
0.0
 10
81.25895044626513
 20
-128.8603515302849
 30
0.0
 10
81.25895044626513
 20
-129.9589924805311
 30
0.0
 10
81.25895044626513
 20
-129.9589924805311
 30
0.0
 10
80.9013495348962
 20
-129.9248860352271
 30
0.0
 10
80.82314586738103
 20
-129.8549505968765
 30
0.0
 10
80.52480059835838
 20
-129.4432616863892
 30
0.0
 10
80.32601858885947
 20
-129.1697211048603
 30
0.0
 10
80.25832246257431
 20
-129.0997856665098
 30
0.0
 10
80.12086315271284
 20
-129.0997856665098
 30
0.0
 10
80.00235186802026
 20
-129.0997856665098
 30
0.0
 10
79.87109373003223
 20
-129.1766112958309
 30
0.0
 10
79.87109373003223
 20
-129.3867621204311
 30
0.0
 10
79.87109373003223
 20
-129.6651258356393
 30
0.0
 10
80.1017428727697
 20
-129.6740830839009
 30
0.0
 10
80.21818710017115
 20
-129.6785617080318
 30
0.0
 10
80.21818710017115
 20
-129.6785617080318
 30
0.0
 10
80.21818710017115
 20
-129.9179958442566
 30
0.0
 10
80.21818710017115
 20
-129.9179958442566
 30
0.0
 10
80.09123533153969
 20
-129.909038595995
 30
0.0
 10
79.97909747349482
 20
-129.8980142904422
 30
0.0
 10
79.86058618880222
 20
-129.8118869033109
 30
0.0
 10
79.69987248441531
 20
-129.6944091472639
 30
0.0
 10
79.6659382938856
 20
-129.495627137765
 30
0.0
 10
79.6659382938856
 20
-129.3709146811989
 30
0.0
 10
79.6659382938856
 20
-129.074980979016
 30
0.0
 10
79.8500786475722
 20
-128.8534613393144
 30
0.0
 10
80.122930210004
 20
-128.8534613393144
 30
0.0
 10
80.35134004067606
 20
-128.8534613393144
 30
0.0
 10
80.45090330019978
 20
-128.9774847767834
 30
0.0
 10
80.67724607358069
 20
-129.3078694338189
 30
0.0
  0
HATCH
  5
C0
330
BB
100
AcDbEntity
  8
_U+30EC_U+30A4_U+30E4_U+30FC 1
 62
     7
420
 16777215
100
AcDbHatch
 10
0.0
 20
0.0
 30
0.0
210
0.0
220
0.0
230
1.0
  2
SOLID
 70
     1
 71
     0
 91
        1
 92
        1
 93
        1
 72
     4
 94
        3
 73
     0
 74
     1
 95
       44
 96
       40
 40
0.0
 40
0.0
 40
0.0
 40
0.0
 40
1.0
 40
1.0
 40
1.0
 40
2.0
 40
2.0
 40
2.0
 40
3.0
 40
3.0
 40
3.0
 40
4.0
 40
4.0
 40
4.0
 40
5.0
 40
5.0
 40
5.0
 40
6.0
 40
6.0
 40
6.0
 40
7.0
 40
7.0
 40
7.0
 40
8.0
 40
8.0
 40
8.0
 40
9.0
 40
9.0
 40
9.0
 40
10.0
 40
10.0
 40
10.0
 40
11.0
 40
11.0
 40
11.0
 40
12.0
 40
12.0
 40
12.0
 40
13.0
 40
13.0
 40
13.0
 40
13.0
 10
80.67724607358069
 20
-129.3078694338189
 10
80.83589272067644
 20
-129.5407578886218
 10
80.90996227360932
 20
-129.6403211481455
 10
81.0537950101185
 20
-129.6919975804242
 10
81.0537950101185
 20
-129.6919975804242
 10
81.0537950101185
 20
-128.8603515302849
 10
81.0537950101185
 20
-128.8603515302849
 10
81.0537950101185
 20
-128.8603515302849
 10
81.25895044626513
 20
-128.8603515302849
 10
81.25895044626513
 20
-128.8603515302849
 10
81.25895044626513
 20
-128.8603515302849
 10
81.25895044626513
 20
-129.9589924805311
 10
81.25895044626513
 20
-129.9589924805311
 10
80.9013495348962
 20
-129.9248860352271
 10
80.82314586738103
 20
-129.8549505968765
 10
80.52480059835838
 20
-129.4432616863892
 10
80.32601858885947
 20
-129.1697211048603
 10
80.25832246257431
 20
-129.0997856665098
 10
80.12086315271284
 20
-129.0997856665098
 10
80.00235186802026
 20
-129.0997856665098
 10
79.87109373003223
 20
-129.1766112958309
 10
79.87109373003223
 20
-129.3867621204311
 10
79.87109373003223
 20
-129.6651258356393
 10
80.1017428727697
 20
-129.6740830839009
 10
80.21818710017115
 20
-129.6785617080318
 10
80.21818710017115
 20
-129.6785617080318
 10
80.21818710017115
 20
-129.9179958442566
 10
80.21818710017115
 20
-129.9179958442566
 10
80.09123533153969
 20
-129.909038595995
 10
79.97909747349482
 20
-129.8980142904422
 10
79.86058618880222
 20
-129.8118869033109
 10
79.69987248441531
 20
-129.6944091472639
 10
79.6659382938856
 20
-129.495627137765
 10
79.6659382938856
 20
-129.3709146811989
 10
79.6659382938856
 20
-129.074980979016
 10
79.8500786475722
 20
-128.8534613393144
 10
80.122930210004
 20
-128.8534613393144
 10
80.35134004067606
 20
-128.8534613393144
 10
80.45090330019978
 20
-128.9774847767834
 10
80.67724607358069
 20
-129.3078694338189
 97
        0
 97
        0
 75
     2
 76
     1
 98
        0
  0
SPLINE
  5
C1
330
BB
100
AcDbEntity
  8
_U+30EC_U+30A4_U+30E4_U+30FC 1
370
     0
100
AcDbSpline
210
0.0
220
0.0
230
1.0
 70
    11
 71
     3
 72
    62
 73
    58
 74
     0
 42
0.0000000001
 43
0.0000000001
 12
1.0
 22
0.0
 32
0.0
 13
1.0
 23
0.0
 33
0.0
 40
0.0
 40
0.0
 40
0.0
 40
0.0
 40
1.0
 40
1.0
 40
1.0
 40
2.0
 40
2.0
 40
2.0
 40
3.0
 40
3.0
 40
3.0
 40
4.0
 40
4.0
 40
4.0
 40
5.0
 40
5.0
 40
5.0
 40
6.0
 40
6.0
 40
6.0
 40
7.0
 40
7.0
 40
7.0
 40
8.0
 40
8.0
 40
8.0
 40
9.0
 40
9.0
 40
9.0
 40
10.0
 40
10.0
 40
10.0
 40
11.0
 40
11.0
 40
11.0
 40
12.0
 40
12.0
 40
12.0
 40
13.0
 40
13.0
 40
13.0
 40
14.0
 40
14.0
 40
14.0
 40
15.0
 40
15.0
 40
15.0
 40
16.0
 40
16.0
 40
16.0
 40
17.0
 40
17.0
 40
17.0
 40
18.0
 40
18.0
 40
18.0
 40
19.0
 40
19.0
 40
19.0
 40
19.0
 10
81.30976560467256
 20
-128.1585855799395
 30
0.0
 10
81.30976560467256
 20
-128.2602158967544
 30
0.0
 10
81.28857826743828
 20
-128.4931043515573
 30
0.0
 10
81.10237085646052
 20
-128.6266018016107
 30
0.0
 10
80.99023299841564
 20
-128.7056667429972
 30
0.0
 10
80.89084199366619
 20
-128.710145367128
 30
0.0
 10
80.8062648995033
 20
-128.7147962460331
 30
0.0
 10
80.8062648995033
 20
-128.7147962460331
 30
0.0
 10
80.8062648995033
 20
-128.4794962243905
 30
0.0
 10
80.8062648995033
 20
-128.4794962243905
 30
0.0
 10
80.88033445243617
 20
-128.4772569123251
 30
0.0
 10
81.11511770975595
 20
-128.4660603519981
 30
0.0
 10
81.11511770975595
 20
-128.1630642040703
 30
0.0
 10
81.11511770975595
 20
-128.0161308816244
 30
0.0
 10
81.04535452617964
 20
-127.8533501199464
 30
0.0
 10
80.81677244073332
 20
-127.8533501199464
 30
0.0
 10
80.70050046810613
 20
-127.8533501199464
 30
0.0
 10
80.65175236698984
 20
-127.8940022466723
 30
0.0
 10
80.62005748852555
 20
-127.927936437202
 30
0.0
 10
80.54598793559268
 20
-128.0070013785885
 30
0.0
 10
80.53341333707151
 20
-128.131369325606
 30
0.0
 10
80.53341333707151
 20
-128.1901082036296
 30
0.0
 10
80.53341333707151
 20
-128.2106065217668
 30
0.0
 10
80.53548039436266
 20
-128.2490193364273
 30
0.0
 10
80.53961450894496
 20
-128.2783026480519
 30
0.0
 10
80.53961450894496
 20
-128.2783026480519
 30
0.0
 10
80.34513886880261
 20
-128.2783026480519
 30
0.0
 10
80.34513886880261
 20
-128.2783026480519
 30
0.0
 10
80.35134004067606
 20
-128.237650521326
 30
0.0
 10
80.35357935274148
 20
-128.1925197704692
 30
0.0
 10
80.35357935274148
 20
-128.1856295794987
 30
0.0
 10
80.35357935274148
 20
-128.1155218863739
 30
0.0
 10
80.33239201550718
 20
-127.9031317497083
 30
0.0
 10
80.09536944612199
 20
-127.9031317497083
 30
0.0
 10
79.91777477385736
 20
-127.9031317497083
 30
0.0
 10
79.86265324609337
 20
-128.0431748811837
 30
0.0
 10
79.86265324609337
 20
-128.1608248920049
 30
0.0
 10
79.86265324609337
 20
-128.4433227217954
 30
0.0
 10
80.09536944612199
 20
-128.4524522248313
 30
0.0
 10
80.16737194176372
 20
-128.4569308489622
 30
0.0
 10
80.16737194176372
 20
-128.4569308489622
 30
0.0
 10
80.16737194176372
 20
-128.6739718645329
 30
0.0
 10
80.16737194176372
 20
-128.6739718645329
 30
0.0
 10
80.0424872304234
 20
-128.6650146162713
 30
0.0
 10
79.6659382938856
 20
-128.6355590498724
 30
0.0
 10
79.6659382938856
 20
-128.1472167648382
 30
0.0
 10
79.6659382938856
 20
-127.9076103738391
 30
0.0
 10
79.79289006251706
 20
-127.6499172315424
 30
0.0
 10
80.08899601947428
 20
-127.6499172315424
 30
0.0
 10
80.27520343045204
 20
-127.6499172315424
 30
0.0
 10
80.35771346732378
 20
-127.7515475483573
 30
0.0
 10
80.41903616696122
 20
-127.8578287440772
 30
0.0
 10
80.44659693084321
 20
-127.7921996750832
 30
0.0
 10
80.5270399104238
 20
-127.5978962897151
 30
0.0
 10
80.80419784221215
 20
-127.5978962897151
 30
0.0
 10
81.14267847363794
 20
-127.5978962897151
 30
0.0
 10
81.30976560467256
 20
-127.862307368208
 30
0.0
 10
81.30976560467256
 20
-128.1585855799395
 30
0.0
  0
HATCH
  5
C2
330
BB
100
AcDbEntity
  8
_U+30EC_U+30A4_U+30E4_U+30FC 1
 62
     7
420
 16777215
100
AcDbHatch
 10
0.0
 20
0.0
 30
0.0
210
0.0
220
0.0
230
1.0
  2
SOLID
 70
     1
 71
     0
 91
        1
 92
        1
 93
        1
 72
     4
 94
        3
 73
     0
 74
     1
 95
       62
 96
       58
 40
0.0
 40
0.0
 40
0.0
 40
0.0
 40
1.0
 40
1.0
 40
1.0
 40
2.0
 40
2.0
 40
2.0
 40
3.0
 40
3.0
 40
3.0
 40
4.0
 40
4.0
 40
4.0
 40
5.0
 40
5.0
 40
5.0
 40
6.0
 40
6.0
 40
6.0
 40
7.0
 40
7.0
 40
7.0
 40
8.0
 40
8.0
 40
8.0
 40
9.0
 40
9.0
 40
9.0
 40
10.0
 40
10.0
 40
10.0
 40
11.0
 40
11.0
 40
11.0
 40
12.0
 40
12.0
 40
12.0
 40
13.0
 40
13.0
 40
13.0
 40
14.0
 40
14.0
 40
14.0
 40
15.0
 40
15.0
 40
15.0
 40
16.0
 40
16.0
 40
16.0
 40
17.0
 40
17.0
 40
17.0
 40
18.0
 40
18.0
 40
18.0
 40
19.0
 40
19.0
 40
19.0
 40
19.0
 10
81.30976560467256
 20
-128.1585855799395
 10
81.30976560467256
 20
-128.2602158967544
 10
81.28857826743828
 20
-128.4931043515573
 10
81.10237085646052
 20
-128.6266018016107
 10
80.99023299841564
 20
-128.7056667429972
 10
80.89084199366619
 20
-128.710145367128
 10
80.8062648995033
 20
-128.7147962460331
 10
80.8062648995033
 20
-128.7147962460331
 10
80.8062648995033
 20
-128.4794962243905
 10
80.8062648995033
 20
-128.4794962243905
 10
80.88033445243617
 20
-128.4772569123251
 10
81.11511770975595
 20
-128.4660603519981
 10
81.11511770975595
 20
-128.1630642040703
 10
81.11511770975595
 20
-128.0161308816244
 10
81.04535452617964
 20
-127.8533501199464
 10
80.81677244073332
 20
-127.8533501199464
 10
80.70050046810613
 20
-127.8533501199464
 10
80.65175236698984
 20
-127.8940022466723
 10
80.62005748852555
 20
-127.927936437202
 10
80.54598793559268
 20
-128.0070013785885
 10
80.53341333707151
 20
-128.131369325606
 10
80.53341333707151
 20
-128.1901082036296
 10
80.53341333707151
 20
-128.2106065217668
 10
80.53548039436266
 20
-128.2490193364273
 10
80.53961450894496
 20
-128.2783026480519
 10
80.53961450894496
 20
-128.2783026480519
 10
80.34513886880261
 20
-128.2783026480519
 10
80.34513886880261
 20
-128.2783026480519
 10
80.35134004067606
 20
-128.237650521326
 10
80.35357935274148
 20
-128.1925197704692
 10
80.35357935274148
 20
-128.1856295794987
 10
80.35357935274148
 20
-128.1155218863739
 10
80.33239201550718
 20
-127.9031317497083
 10
80.09536944612199
 20
-127.9031317497083
 10
79.91777477385736
 20
-127.9031317497083
 10
79.86265324609337
 20
-128.0431748811837
 10
79.86265324609337
 20
-128.1608248920049
 10
79.86265324609337
 20
-128.4433227217954
 10
80.09536944612199
 20
-128.4524522248313
 10
80.16737194176372
 20
-128.4569308489622
 10
80.16737194176372
 20
-128.4569308489622
 10
80.16737194176372
 20
-128.6739718645329
 10
80.16737194176372
 20
-128.6739718645329
 10
80.0424872304234
 20
-128.6650146162713
 10
79.6659382938856
 20
-128.6355590498724
 10
79.6659382938856
 20
-128.1472167648382
 10
79.6659382938856
 20
-127.9076103738391
 10
79.79289006251706
 20
-127.6499172315424
 10
80.08899601947428
 20
-127.6499172315424
 10
80.27520343045204
 20
-127.6499172315424
 10
80.35771346732378
 20
-127.7515475483573
 10
80.41903616696122
 20
-127.8578287440772
 10
80.44659693084321
 20
-127.7921996750832
 10
80.5270399104238
 20
-127.5978962897151
 10
80.80419784221215
 20
-127.5978962897151
 10
81.14267847363794
 20
-127.5978962897151
 10
81.30976560467256
 20
-127.862307368208
 10
81.30976560467256
 20
-128.1585855799395
 97
        0
 97
        0
 75
     2
 76
     1
 98
        0
  0
POLYLINE
  5
C3
330
BB
100
AcDbEntity
  8
_U+30EC_U+30A4_U+30E4_U+30FC 1
370
     0
100
AcDb2dPolyline
 66
     1
 10
0.0
 20
0.0
 30
0.0
  0
VERTEX
  5
C4
330
C3
100
AcDbEntity
  8
_U+30EC_U+30A4_U+30E4_U+30FC 1
370
     0
100
AcDbVertex
100
AcDb2dVertex
 10
81.25895044626513
 20
-127.3619072489755
 30
0.0
  0
VERTEX
  5
C5
330
C3
100
AcDbEntity
  8
_U+30EC_U+30A4_U+30E4_U+30FC 1
370
     0
100
AcDbVertex
100
AcDb2dVertex
 10
81.00728622106763
 20
-127.3619072489755
 30
0.0
  0
VERTEX
  5
C6
330
C3
100
AcDbEntity
  8
_U+30EC_U+30A4_U+30E4_U+30FC 1
370
     0
100
AcDbVertex
100
AcDb2dVertex
 10
81.00728622106763
 20
-127.0928452915775
 30
0.0
  0
VERTEX
  5
C7
330
C3
100
AcDbEntity
  8
_U+30EC_U+30A4_U+30E4_U+30FC 1
370
     0
100
AcDbVertex
100
AcDb2dVertex
 10
81.25895044626513
 20
-127.0928452915775
 30
0.0
  0
VERTEX
  5
C8
330
C3
100
AcDbEntity
  8
_U+30EC_U+30A4_U+30E4_U+30FC 1
370
     0
100
AcDbVertex
100
AcDb2dVertex
 10
81.25895044626513
 20
-127.3619072489755
 30
0.0
  0
SEQEND
  5
C9
330
C3
100
AcDbEntity
  8
_U+30EC_U+30A4_U+30E4_U+30FC 1
370
     0
  0
HATCH
  5
CA
330
BB
100
AcDbEntity
  8
_U+30EC_U+30A4_U+30E4_U+30FC 1
 62
     7
420
 16777215
100
AcDbHatch
 10
0.0
 20
0.0
 30
0.0
210
0.0
220
0.0
230
1.0
  2
SOLID
 70
     1
 71
     0
 91
        1
 92
        1
 93
        4
 72
     1
 10
81.25895044626513
 20
-127.3619072489755
 11
81.00728622106763
 21
-127.3619072489755
 72
     1
 10
81.00728622106763
 20
-127.3619072489755
 11
81.00728622106763
 21
-127.0928452915775
 72
     1
 10
81.00728622106763
 20
-127.0928452915775
 11
81.25895044626513
 21
-127.0928452915775
 72
     1
 10
81.25895044626513
 20
-127.0928452915775
 11
81.25895044626513
 21
-127.3619072489755
 97
        0
 75
     2
 76
     1
 98
        0
  0
SPLINE
  5
CB
330
BB
100
AcDbEntity
  8
_U+30EC_U+30A4_U+30E4_U+30FC 1
370
     0
100
AcDbSpline
210
0.0
220
0.0
230
1.0
 70
    11
 71
     3
 72
    53
 73
    49
 74
     0
 42
0.0000000001
 43
0.0000000001
 12
1.0
 22
0.0
 32
0.0
 13
1.0
 23
0.0
 33
0.0
 40
0.0
 40
0.0
 40
0.0
 40
0.0
 40
1.0
 40
1.0
 40
1.0
 40
2.0
 40
2.0
 40
2.0
 40
3.0
 40
3.0
 40
3.0
 40
4.0
 40
4.0
 40
4.0
 40
5.0
 40
5.0
 40
5.0
 40
6.0
 40
6.0
 40
6.0
 40
7.0
 40
7.0
 40
7.0
 40
8.0
 40
8.0
 40
8.0
 40
9.0
 40
9.0
 40
9.0
 40
10.0
 40
10.0
 40
10.0
 40
11.0
 40
11.0
 40
11.0
 40
12.0
 40
12.0
 40
12.0
 40
13.0
 40
13.0
 40
13.0
 40
14.0
 40
14.0
 40
14.0
 40
15.0
 40
15.0
 40
15.0
 40
16.0
 40
16.0
 40
16.0
 40
16.0
 10
81.30976560467256
 20
-126.3259670365609
 30
0.0
 10
81.30976560467256
 20
-126.4096828568524
 30
0.0
 10
81.29288463679484
 20
-126.5182033646378
 30
0.0
 10
81.22932262509198
 20
-126.6267238724232
 30
0.0
 10
81.11925182433825
 20
-126.8120700095296
 30
0.0
 10
80.98816594112449
 20
-126.8348076397323
 30
0.0
 10
80.88033445243617
 20
-126.8551337030952
 30
0.0
 10
80.88033445243617
 20
-126.8551337030952
 30
0.0
 10
80.88033445243617
 20
-126.6177666241615
 30
0.0
 10
80.88033445243617
 20
-126.6177666241615
 30
0.0
 10
81.07911646193509
 20
-126.5588554913638
 30
0.0
 10
81.10874428310824
 20
-126.4232909840192
 30
0.0
 10
81.10874428310824
 20
-126.3237277244955
 30
0.0
 10
81.10874428310824
 20
-126.1745550899841
 30
0.0
 10
81.00935327835877
 20
-126.0117743283061
 30
0.0
 10
80.77663707833015
 20
-126.0117743283061
 30
0.0
 10
80.52066648377608
 20
-126.0117743283061
 30
0.0
 10
80.45090330019978
 20
-126.204010656383
 30
0.0
 10
80.45090330019978
 20
-126.3328572275314
 30
0.0
 10
80.45090330019978
 20
-126.3667914180611
 30
0.0
 10
80.45090330019978
 20
-126.5182033646378
 30
0.0
 10
80.57992212612238
 20
-126.6131157452565
 30
0.0
 10
80.57992212612238
 20
-126.6131157452565
 30
0.0
 10
80.56080184617925
 20
-126.8008734492026
 30
0.0
 10
80.56080184617925
 20
-126.8008734492026
 30
0.0
 10
80.56080184617925
 20
-126.8008734492026
 30
0.0
 10
79.71468639500189
 20
-126.67185462328
 30
0.0
 10
79.71468639500189
 20
-126.67185462328
 30
0.0
 10
79.71468639500189
 20
-126.67185462328
 30
0.0
 10
79.71468639500189
 20
-125.8398640635921
 30
0.0
 10
79.71468639500189
 20
-125.8398640635921
 30
0.0
 10
79.71468639500189
 20
-125.8398640635921
 30
0.0
 10
79.9093342899185
 20
-125.8398640635921
 30
0.0
 10
79.9093342899185
 20
-125.8398640635921
 30
0.0
 10
79.9093342899185
 20
-125.8398640635921
 30
0.0
 10
79.9093342899185
 20
-126.4978773012748
 30
0.0
 10
79.9093342899185
 20
-126.4978773012748
 30
0.0
 10
79.9093342899185
 20
-126.4978773012748
 30
0.0
 10
80.33239201550718
 20
-126.5679849943997
 30
0.0
 10
80.33239201550718
 20
-126.5679849943997
 30
0.0
 10
80.29845782497748
 20
-126.5023559254057
 30
0.0
 10
80.25832246257431
 20
-126.4141614809833
 30
0.0
 10
80.25832246257431
 20
-126.2875542219003
 30
0.0
 10
80.25832246257431
 20
-126.0162529524369
 30
0.0
 10
80.44452987355207
 20
-125.7630384342711
 30
0.0
 10
80.75751679838702
 20
-125.7630384342711
 30
0.0
 10
81.07498234735279
 20
-125.7630384342711
 30
0.0
 10
81.30976560467256
 20
-126.0028170800444
 30
0.0
 10
81.30976560467256
 20
-126.3259670365609
 30
0.0
  0
HATCH
  5
CC
330
BB
100
AcDbEntity
  8
_U+30EC_U+30A4_U+30E4_U+30FC 1
 62
     7
420
 16777215
100
AcDbHatch
 10
0.0
 20
0.0
 30
0.0
210
0.0
220
0.0
230
1.0
  2
SOLID
 70
     1
 71
     0
 91
        1
 92
        1
 93
        1
 72
     4
 94
        3
 73
     0
 74
     1
 95
       53
 96
       49
 40
0.0
 40
0.0
 40
0.0
 40
0.0
 40
1.0
 40
1.0
 40
1.0
 40
2.0
 40
2.0
 40
2.0
 40
3.0
 40
3.0
 40
3.0
 40
4.0
 40
4.0
 40
4.0
 40
5.0
 40
5.0
 40
5.0
 40
6.0
 40
6.0
 40
6.0
 40
7.0
 40
7.0
 40
7.0
 40
8.0
 40
8.0
 40
8.0
 40
9.0
 40
9.0
 40
9.0
 40
10.0
 40
10.0
 40
10.0
 40
11.0
 40
11.0
 40
11.0
 40
12.0
 40
12.0
 40
12.0
 40
13.0
 40
13.0
 40
13.0
 40
14.0
 40
14.0
 40
14.0
 40
15.0
 40
15.0
 40
15.0
 40
16.0
 40
16.0
 40
16.0
 40
16.0
 10
81.30976560467256
 20
-126.3259670365609
 10
81.30976560467256
 20
-126.4096828568524
 10
81.29288463679484
 20
-126.5182033646378
 10
81.22932262509198
 20
-126.6267238724232
 10
81.11925182433825
 20
-126.8120700095296
 10
80.98816594112449
 20
-126.8348076397323
 10
80.88033445243617
 20
-126.8551337030952
 10
80.88033445243617
 20
-126.8551337030952
 10
80.88033445243617
 20
-126.6177666241615
 10
80.88033445243617
 20
-126.6177666241615
 10
81.07911646193509
 20
-126.5588554913638
 10
81.10874428310824
 20
-126.4232909840192
 10
81.10874428310824
 20
-126.3237277244955
 10
81.10874428310824
 20
-126.1745550899841
 10
81.00935327835877
 20
-126.0117743283061
 10
80.77663707833015
 20
-126.0117743283061
 10
80.52066648377608
 20
-126.0117743283061
 10
80.45090330019978
 20
-126.204010656383
 10
80.45090330019978
 20
-126.3328572275314
 10
80.45090330019978
 20
-126.3667914180611
 10
80.45090330019978
 20
-126.5182033646378
 10
80.57992212612238
 20
-126.6131157452565
 10
80.57992212612238
 20
-126.6131157452565
 10
80.56080184617925
 20
-126.8008734492026
 10
80.56080184617925
 20
-126.8008734492026
 10
80.56080184617925
 20
-126.8008734492026
 10
79.71468639500189
 20
-126.67185462328
 10
79.71468639500189
 20
-126.67185462328
 10
79.71468639500189
 20
-126.67185462328
 10
79.71468639500189
 20
-125.8398640635921
 10
79.71468639500189
 20
-125.8398640635921
 10
79.71468639500189
 20
-125.8398640635921
 10
79.9093342899185
 20
-125.8398640635921
 10
79.9093342899185
 20
-125.8398640635921
 10
79.9093342899185
 20
-125.8398640635921
 10
79.9093342899185
 20
-126.4978773012748
 10
79.9093342899185
 20
-126.4978773012748
 10
79.9093342899185
 20
-126.4978773012748
 10
80.33239201550718
 20
-126.5679849943997
 10
80.33239201550718
 20
-126.5679849943997
 10
80.29845782497748
 20
-126.5023559254057
 10
80.25832246257431
 20
-126.4141614809833
 10
80.25832246257431
 20
-126.2875542219003
 10
80.25832246257431
 20
-126.0162529524369
 10
80.44452987355207
 20
-125.7630384342711
 10
80.75751679838702
 20
-125.7630384342711
 10
81.07498234735279
 20
-125.7630384342711
 10
81.30976560467256
 20
-126.0028170800444
 10
81.30976560467256
 20
-126.3259670365609
 97
        0
 97
        0
 75
     2
 76
     1
 98
        0
  0
ENDBLK
  5
BE
330
BB
100
AcDbEntity
  8
0
100
AcDbBlockEnd
  0
BLOCK
  5
E0
330
DE
100
AcDbEntity
  8
0
100
AcDbBlockBegin
  2
block 5
 70
     0
 10
0.0
 20
0.0
 30
0.0
  3
block 5
  1

  0
SPLINE
  5
E2
330
DE
100
AcDbEntity
  8
_U+30EC_U+30A4_U+30E4_U+30FC 1
370
     0
100
AcDbSpline
210
0.0
220
0.0
230
1.0
 70
    11
 71
     3
 72
    26
 73
    22
 74
     0
 42
0.0000000001
 43
0.0000000001
 12
1.0
 22
0.0
 32
0.0
 13
1.0
 23
0.0
 33
0.0
 40
0.0
 40
0.0
 40
0.0
 40
0.0
 40
1.0
 40
1.0
 40
1.0
 40
2.0
 40
2.0
 40
2.0
 40
3.0
 40
3.0
 40
3.0
 40
4.0
 40
4.0
 40
4.0
 40
5.0
 40
5.0
 40
5.0
 40
6.0
 40
6.0
 40
6.0
 40
7.0
 40
7.0
 40
7.0
 40
7.0
 10
101.6716579606932
 20
-132.4590982741769
 30
0.0
 10
101.6716579606932
 20
-132.4590982741769
 30
0.0
 10
100.5675048576706
 20
-132.4590982741769
 30
0.0
 10
100.5675048576706
 20
-132.4590982741769
 30
0.0
 10
100.5675048576706
 20
-132.4590982741769
 30
0.0
 10
100.5675048576706
 20
-132.811531542318
 30
0.0
 10
100.5675048576706
 20
-132.811531542318
 30
0.0
 10
100.5675048576706
 20
-132.811531542318
 30
0.0
 10
100.4193657518049
 20
-132.811531542318
 30
0.0
 10
100.4193657518049
 20
-132.811531542318
 30
0.0
 10
100.4045518412183
 20
-132.4566867073372
 30
0.0
 10
100.241598824766
 20
-132.4070773323496
 30
0.0
 10
100.1272216546557
 20
-132.3753824538853
 30
0.0
 10
100.1272216546557
 20
-132.3753824538853
 30
0.0
 10
100.1272216546557
 20
-132.2193196284035
 30
0.0
 10
100.1272216546557
 20
-132.2193196284035
 30
0.0
 10
100.1272216546557
 20
-132.2193196284035
 30
0.0
 10
101.6716579606932
 20
-132.2193196284035
 30
0.0
 10
101.6716579606932
 20
-132.2193196284035
 30
0.0
 10
101.6716579606932
 20
-132.2193196284035
 30
0.0
 10
101.6716579606932
 20
-132.4590982741769
 30
0.0
 10
101.6716579606932
 20
-132.4590982741769
 30
0.0
  0
HATCH
  5
E3
330
DE
100
AcDbEntity
  8
_U+30EC_U+30A4_U+30E4_U+30FC 1
 62
     7
420
 16777215
100
AcDbHatch
 10
0.0
 20
0.0
 30
0.0
210
0.0
220
0.0
230
1.0
  2
SOLID
 70
     1
 71
     0
 91
        1
 92
        1
 93
        1
 72
     4
 94
        3
 73
     0
 74
     1
 95
       26
 96
       22
 40
0.0
 40
0.0
 40
0.0
 40
0.0
 40
1.0
 40
1.0
 40
1.0
 40
2.0
 40
2.0
 40
2.0
 40
3.0
 40
3.0
 40
3.0
 40
4.0
 40
4.0
 40
4.0
 40
5.0
 40
5.0
 40
5.0
 40
6.0
 40
6.0
 40
6.0
 40
7.0
 40
7.0
 40
7.0
 40
7.0
 10
101.6716579606932
 20
-132.4590982741769
 10
101.6716579606932
 20
-132.4590982741769
 10
100.5675048576706
 20
-132.4590982741769
 10
100.5675048576706
 20
-132.4590982741769
 10
100.5675048576706
 20
-132.4590982741769
 10
100.5675048576706
 20
-132.811531542318
 10
100.5675048576706
 20
-132.811531542318
 10
100.5675048576706
 20
-132.811531542318
 10
100.4193657518049
 20
-132.811531542318
 10
100.4193657518049
 20
-132.811531542318
 10
100.4045518412183
 20
-132.4566867073372
 10
100.241598824766
 20
-132.4070773323496
 10
100.1272216546557
 20
-132.3753824538853
 10
100.1272216546557
 20
-132.3753824538853
 10
100.1272216546557
 20
-132.2193196284035
 10
100.1272216546557
 20
-132.2193196284035
 10
100.1272216546557
 20
-132.2193196284035
 10
101.6716579606932
 20
-132.2193196284035
 10
101.6716579606932
 20
-132.2193196284035
 10
101.6716579606932
 20
-132.2193196284035
 10
101.6716579606932
 20
-132.4590982741769
 10
101.6716579606932
 20
-132.4590982741769
 97
        0
 97
        0
 75
     2
 76
     1
 98
        0
  0
SPLINE
  5
E4
330
DE
100
AcDbEntity
  8
_U+30EC_U+30A4_U+30E4_U+30FC 1
370
     0
100
AcDbSpline
210
0.0
220
0.0
230
1.0
 70
    11
 71
     3
 72
    53
 73
    49
 74
     0
 42
0.0000000001
 43
0.0000000001
 12
1.0
 22
0.0
 32
0.0
 13
1.0
 23
0.0
 33
0.0
 40
0.0
 40
0.0
 40
0.0
 40
0.0
 40
1.0
 40
1.0
 40
1.0
 40
2.0
 40
2.0
 40
2.0
 40
3.0
 40
3.0
 40
3.0
 40
4.0
 40
4.0
 40
4.0
 40
5.0
 40
5.0
 40
5.0
 40
6.0
 40
6.0
 40
6.0
 40
7.0
 40
7.0
 40
7.0
 40
8.0
 40
8.0
 40
8.0
 40
9.0
 40
9.0
 40
9.0
 40
10.0
 40
10.0
 40
10.0
 40
11.0
 40
11.0
 40
11.0
 40
12.0
 40
12.0
 40
12.0
 40
13.0
 40
13.0
 40
13.0
 40
14.0
 40
14.0
 40
14.0
 40
15.0
 40
15.0
 40
15.0
 40
16.0
 40
16.0
 40
16.0
 40
16.0
 10
101.7223008643264
 20
-131.1695990340479
 30
0.0
 10
101.7223008643264
 20
-131.2529703447909
 30
0.0
 10
101.7054198964486
 20
-131.3618353621248
 30
0.0
 10
101.6420301395201
 20
-131.4700113603617
 30
0.0
 10
101.5321315935406
 20
-131.6557020070166
 30
0.0
 10
101.4008734555526
 20
-131.6780951276708
 30
0.0
 10
101.2930419668642
 20
-131.6984211910337
 30
0.0
 10
101.2930419668642
 20
-131.6984211910337
 30
0.0
 10
101.2930419668642
 20
-131.4610541121
 30
0.0
 10
101.2930419668642
 20
-131.4610541121
 30
0.0
 10
101.4918239763632
 20
-131.4024874888508
 30
0.0
 10
101.5214517975363
 20
-131.2667507267319
 30
0.0
 10
101.5214517975363
 20
-131.1671874672082
 30
0.0
 10
101.5214517975363
 20
-131.0180148326969
 30
0.0
 10
101.4218885380126
 20
-130.8554063257931
 30
0.0
 10
101.1893445927582
 20
-130.8554063257931
 30
0.0
 10
100.9333739982042
 20
-130.8554063257931
 30
0.0
 10
100.8634385598536
 20
-131.0472981443215
 30
0.0
 10
100.8634385598536
 20
-131.1761447154699
 30
0.0
 10
100.8634385598536
 20
-131.2102511607738
 30
0.0
 10
100.8634385598536
 20
-131.3618353621248
 30
0.0
 10
100.9926296405505
 20
-131.4565754879692
 30
0.0
 10
100.9926296405505
 20
-131.4565754879692
 30
0.0
 10
100.9736816153816
 20
-131.6443331919153
 30
0.0
 10
100.9736816153816
 20
-131.6443331919153
 30
0.0
 10
100.9736816153816
 20
-131.6443331919153
 30
0.0
 10
100.1272216546557
 20
-131.515486620767
 30
0.0
 10
100.1272216546557
 20
-131.515486620767
 30
0.0
 10
100.1272216546557
 20
-131.515486620767
 30
0.0
 10
100.1272216546557
 20
-130.6834960610791
 30
0.0
 10
100.1272216546557
 20
-130.6834960610791
 30
0.0
 10
100.1272216546557
 20
-130.6834960610791
 30
0.0
 10
100.3218695495723
 20
-130.6834960610791
 30
0.0
 10
100.3218695495723
 20
-130.6834960610791
 30
0.0
 10
100.3218695495723
 20
-130.6834960610791
 30
0.0
 10
100.3218695495723
 20
-131.3411647892133
 30
0.0
 10
100.3218695495723
 20
-131.3411647892133
 30
0.0
 10
100.3218695495723
 20
-131.3411647892133
 30
0.0
 10
100.744927275161
 20
-131.4114447371124
 30
0.0
 10
100.744927275161
 20
-131.4114447371124
 30
0.0
 10
100.7111653394055
 20
-131.3459879228927
 30
0.0
 10
100.6708577222281
 20
-131.2577934784703
 30
0.0
 10
100.6708577222281
 20
-131.1310139646131
 30
0.0
 10
100.6708577222281
 20
-130.8598849499239
 30
0.0
 10
100.8572373879801
 20
-130.6066704317581
 30
0.0
 10
101.1703965675893
 20
-130.6066704317581
 30
0.0
 10
101.4876898617809
 20
-130.6066704317581
 30
0.0
 10
101.7223008643264
 20
-130.8461045679829
 30
0.0
 10
101.7223008643264
 20
-131.1695990340479
 30
0.0
  0
HATCH
  5
E5
330
DE
100
AcDbEntity
  8
_U+30EC_U+30A4_U+30E4_U+30FC 1
 62
     7
420
 16777215
100
AcDbHatch
 10
0.0
 20
0.0
 30
0.0
210
0.0
220
0.0
230
1.0
  2
SOLID
 70
     1
 71
     0
 91
        1
 92
        1
 93
        1
 72
     4
 94
        3
 73
     0
 74
     1
 95
       53
 96
       49
 40
0.0
 40
0.0
 40
0.0
 40
0.0
 40
1.0
 40
1.0
 40
1.0
 40
2.0
 40
2.0
 40
2.0
 40
3.0
 40
3.0
 40
3.0
 40
4.0
 40
4.0
 40
4.0
 40
5.0
 40
5.0
 40
5.0
 40
6.0
 40
6.0
 40
6.0
 40
7.0
 40
7.0
 40
7.0
 40
8.0
 40
8.0
 40
8.0
 40
9.0
 40
9.0
 40
9.0
 40
10.0
 40
10.0
 40
10.0
 40
11.0
 40
11.0
 40
11.0
 40
12.0
 40
12.0
 40
12.0
 40
13.0
 40
13.0
 40
13.0
 40
14.0
 40
14.0
 40
14.0
 40
15.0
 40
15.0
 40
15.0
 40
16.0
 40
16.0
 40
16.0
 40
16.0
 10
101.7223008643264
 20
-131.1695990340479
 10
101.7223008643264
 20
-131.2529703447909
 10
101.7054198964486
 20
-131.3618353621248
 10
101.6420301395201
 20
-131.4700113603617
 10
101.5321315935406
 20
-131.6557020070166
 10
101.4008734555526
 20
-131.6780951276708
 10
101.2930419668642
 20
-131.6984211910337
 10
101.2930419668642
 20
-131.6984211910337
 10
101.2930419668642
 20
-131.4610541121
 10
101.2930419668642
 20
-131.4610541121
 10
101.4918239763632
 20
-131.4024874888508
 10
101.5214517975363
 20
-131.2667507267319
 10
101.5214517975363
 20
-131.1671874672082
 10
101.5214517975363
 20
-131.0180148326969
 10
101.4218885380126
 20
-130.8554063257931
 10
101.1893445927582
 20
-130.8554063257931
 10
100.9333739982042
 20
-130.8554063257931
 10
100.8634385598536
 20
-131.0472981443215
 10
100.8634385598536
 20
-131.1761447154699
 10
100.8634385598536
 20
-131.2102511607738
 10
100.8634385598536
 20
-131.3618353621248
 10
100.9926296405505
 20
-131.4565754879692
 10
100.9926296405505
 20
-131.4565754879692
 10
100.9736816153816
 20
-131.6443331919153
 10
100.9736816153816
 20
-131.6443331919153
 10
100.9736816153816
 20
-131.6443331919153
 10
100.1272216546557
 20
-131.515486620767
 10
100.1272216546557
 20
-131.515486620767
 10
100.1272216546557
 20
-131.515486620767
 10
100.1272216546557
 20
-130.6834960610791
 10
100.1272216546557
 20
-130.6834960610791
 10
100.1272216546557
 20
-130.6834960610791
 10
100.3218695495723
 20
-130.6834960610791
 10
100.3218695495723
 20
-130.6834960610791
 10
100.3218695495723
 20
-130.6834960610791
 10
100.3218695495723
 20
-131.3411647892133
 10
100.3218695495723
 20
-131.3411647892133
 10
100.3218695495723
 20
-131.3411647892133
 10
100.744927275161
 20
-131.4114447371124
 10
100.744927275161
 20
-131.4114447371124
 10
100.7111653394055
 20
-131.3459879228927
 10
100.6708577222281
 20
-131.2577934784703
 10
100.6708577222281
 20
-131.1310139646131
 10
100.6708577222281
 20
-130.8598849499239
 10
100.8572373879801
 20
-130.6066704317581
 10
101.1703965675893
 20
-130.6066704317581
 10
101.4876898617809
 20
-130.6066704317581
 10
101.7223008643264
 20
-130.8461045679829
 10
101.7223008643264
 20
-131.1695990340479
 97
        0
 97
        0
 75
     2
 76
     1
 98
        0
  0
POLYLINE
  5
E6
330
DE
100
AcDbEntity
  8
_U+30EC_U+30A4_U+30E4_U+30FC 1
370
     0
100
AcDb2dPolyline
 66
     1
 10
0.0
 20
0.0
 30
0.0
  0
VERTEX
  5
E7
330
E6
100
AcDbEntity
  8
_U+30EC_U+30A4_U+30E4_U+30FC 1
370
     0
100
AcDbVertex
100
AcDb2dVertex
 10
101.6716579606932
 20
-130.3613796332083
 30
0.0
  0
VERTEX
  5
E8
330
E6
100
AcDbEntity
  8
_U+30EC_U+30A4_U+30E4_U+30FC 1
370
     0
100
AcDbVertex
100
AcDb2dVertex
 10
101.4198214807214
 20
-130.3613796332083
 30
0.0
  0
VERTEX
  5
E9
330
E6
100
AcDbEntity
  8
_U+30EC_U+30A4_U+30E4_U+30FC 1
370
     0
100
AcDbVertex
100
AcDb2dVertex
 10
101.4198214807214
 20
-130.0923176758102
 30
0.0
  0
VERTEX
  5
EA
330
E6
100
AcDbEntity
  8
_U+30EC_U+30A4_U+30E4_U+30FC 1
370
     0
100
AcDbVertex
100
AcDb2dVertex
 10
101.6716579606932
 20
-130.0923176758102
 30
0.0
  0
VERTEX
  5
EB
330
E6
100
AcDbEntity
  8
_U+30EC_U+30A4_U+30E4_U+30FC 1
370
     0
100
AcDbVertex
100
AcDb2dVertex
 10
101.6716579606932
 20
-130.3613796332083
 30
0.0
  0
SEQEND
  5
EC
330
E6
100
AcDbEntity
  8
_U+30EC_U+30A4_U+30E4_U+30FC 1
370
     0
  0
HATCH
  5
ED
330
DE
100
AcDbEntity
  8
_U+30EC_U+30A4_U+30E4_U+30FC 1
 62
     7
420
 16777215
100
AcDbHatch
 10
0.0
 20
0.0
 30
0.0
210
0.0
220
0.0
230
1.0
  2
SOLID
 70
     1
 71
     0
 91
        1
 92
        1
 93
        4
 72
     1
 10
101.6716579606932
 20
-130.3613796332083
 11
101.4198214807214
 21
-130.3613796332083
 72
     1
 10
101.4198214807214
 20
-130.3613796332083
 11
101.4198214807214
 21
-130.0923176758102
 72
     1
 10
101.4198214807214
 20
-130.0923176758102
 11
101.6716579606932
 21
-130.0923176758102
 72
     1
 10
101.6716579606932
 20
-130.0923176758102
 11
101.6716579606932
 21
-130.3613796332083
 97
        0
 75
     2
 76
     1
 98
        0
  0
SPLINE
  5
EE
330
DE
100
AcDbEntity
  8
_U+30EC_U+30A4_U+30E4_U+30FC 1
370
     0
100
AcDbSpline
210
0.0
220
0.0
230
1.0
 70
    11
 71
     3
 72
    53
 73
    49
 74
     0
 42
0.0000000001
 43
0.0000000001
 12
1.0
 22
0.0
 32
0.0
 13
1.0
 23
0.0
 33
0.0
 40
0.0
 40
0.0
 40
0.0
 40
0.0
 40
1.0
 40
1.0
 40
1.0
 40
2.0
 40
2.0
 40
2.0
 40
3.0
 40
3.0
 40
3.0
 40
4.0
 40
4.0
 40
4.0
 40
5.0
 40
5.0
 40
5.0
 40
6.0
 40
6.0
 40
6.0
 40
7.0
 40
7.0
 40
7.0
 40
8.0
 40
8.0
 40
8.0
 40
9.0
 40
9.0
 40
9.0
 40
10.0
 40
10.0
 40
10.0
 40
11.0
 40
11.0
 40
11.0
 40
12.0
 40
12.0
 40
12.0
 40
13.0
 40
13.0
 40
13.0
 40
14.0
 40
14.0
 40
14.0
 40
15.0
 40
15.0
 40
15.0
 40
16.0
 40
16.0
 40
16.0
 40
16.0
 10
101.7223008643264
 20
-129.3254394207937
 30
0.0
 10
101.7223008643264
 20
-129.4091552410852
 30
0.0
 10
101.7054198964486
 20
-129.5176757488706
 30
0.0
 10
101.6420301395201
 20
-129.626196256656
 30
0.0
 10
101.5321315935406
 20
-129.8115423937624
 30
0.0
 10
101.4008734555526
 20
-129.8342800239651
 30
0.0
 10
101.2930419668642
 20
-129.854606087328
 30
0.0
 10
101.2930419668642
 20
-129.854606087328
 30
0.0
 10
101.2930419668642
 20
-129.6172390083943
 30
0.0
 10
101.2930419668642
 20
-129.6172390083943
 30
0.0
 10
101.4918239763632
 20
-129.5583278755965
 30
0.0
 10
101.5214517975363
 20
-129.4229356230262
 30
0.0
 10
101.5214517975363
 20
-129.3233723635025
 30
0.0
 10
101.5214517975363
 20
-129.1741997289912
 30
0.0
 10
101.4218885380126
 20
-129.0112467125388
 30
0.0
 10
101.1893445927582
 20
-129.0112467125388
 30
0.0
 10
100.9333739982042
 20
-129.0112467125388
 30
0.0
 10
100.8634385598536
 20
-129.2034830406158
 30
0.0
 10
100.8634385598536
 20
-129.3323296117642
 30
0.0
 10
100.8634385598536
 20
-129.3664360570681
 30
0.0
 10
100.8634385598536
 20
-129.5176757488706
 30
0.0
 10
100.9926296405505
 20
-129.6127603842635
 30
0.0
 10
100.9926296405505
 20
-129.6127603842635
 30
0.0
 10
100.9736816153816
 20
-129.8005180882096
 30
0.0
 10
100.9736816153816
 20
-129.8005180882096
 30
0.0
 10
100.9736816153816
 20
-129.8005180882096
 30
0.0
 10
100.1272216546557
 20
-129.6716715170612
 30
0.0
 10
100.1272216546557
 20
-129.6716715170612
 30
0.0
 10
100.1272216546557
 20
-129.6716715170612
 30
0.0
 10
100.1272216546557
 20
-128.8396809573734
 30
0.0
 10
100.1272216546557
 20
-128.8396809573734
 30
0.0
 10
100.1272216546557
 20
-128.8396809573734
 30
0.0
 10
100.3218695495723
 20
-128.8396809573734
 30
0.0
 10
100.3218695495723
 20
-128.8396809573734
 30
0.0
 10
100.3218695495723
 20
-128.8396809573734
 30
0.0
 10
100.3218695495723
 20
-129.4973496855076
 30
0.0
 10
100.3218695495723
 20
-129.4973496855076
 30
0.0
 10
100.3218695495723
 20
-129.4973496855076
 30
0.0
 10
100.744927275161
 20
-129.5676296334067
 30
0.0
 10
100.744927275161
 20
-129.5676296334067
 30
0.0
 10
100.7111653394055
 20
-129.5018283096384
 30
0.0
 10
100.6708577222281
 20
-129.413633865216
 30
0.0
 10
100.6708577222281
 20
-129.2871988609074
 30
0.0
 10
100.6708577222281
 20
-129.0157253366697
 30
0.0
 10
100.8572373879801
 20
-128.7625108185038
 30
0.0
 10
101.1703965675893
 20
-128.7625108185038
 30
0.0
 10
101.4876898617809
 20
-128.7625108185038
 30
0.0
 10
101.7223008643264
 20
-129.0022894642772
 30
0.0
 10
101.7223008643264
 20
-129.3254394207937
 30
0.0
  0
HATCH
  5
EF
330
DE
100
AcDbEntity
  8
_U+30EC_U+30A4_U+30E4_U+30FC 1
 62
     7
420
 16777215
100
AcDbHatch
 10
0.0
 20
0.0
 30
0.0
210
0.0
220
0.0
230
1.0
  2
SOLID
 70
     1
 71
     0
 91
        1
 92
        1
 93
        1
 72
     4
 94
        3
 73
     0
 74
     1
 95
       53
 96
       49
 40
0.0
 40
0.0
 40
0.0
 40
0.0
 40
1.0
 40
1.0
 40
1.0
 40
2.0
 40
2.0
 40
2.0
 40
3.0
 40
3.0
 40
3.0
 40
4.0
 40
4.0
 40
4.0
 40
5.0
 40
5.0
 40
5.0
 40
6.0
 40
6.0
 40
6.0
 40
7.0
 40
7.0
 40
7.0
 40
8.0
 40
8.0
 40
8.0
 40
9.0
 40
9.0
 40
9.0
 40
10.0
 40
10.0
 40
10.0
 40
11.0
 40
11.0
 40
11.0
 40
12.0
 40
12.0
 40
12.0
 40
13.0
 40
13.0
 40
13.0
 40
14.0
 40
14.0
 40
14.0
 40
15.0
 40
15.0
 40
15.0
 40
16.0
 40
16.0
 40
16.0
 40
16.0
 10
101.7223008643264
 20
-129.3254394207937
 10
101.7223008643264
 20
-129.4091552410852
 10
101.7054198964486
 20
-129.5176757488706
 10
101.6420301395201
 20
-129.626196256656
 10
101.5321315935406
 20
-129.8115423937624
 10
101.4008734555526
 20
-129.8342800239651
 10
101.2930419668642
 20
-129.854606087328
 10
101.2930419668642
 20
-129.854606087328
 10
101.2930419668642
 20
-129.6172390083943
 10
101.2930419668642
 20
-129.6172390083943
 10
101.4918239763632
 20
-129.5583278755965
 10
101.5214517975363
 20
-129.4229356230262
 10
101.5214517975363
 20
-129.3233723635025
 10
101.5214517975363
 20
-129.1741997289912
 10
101.4218885380126
 20
-129.0112467125388
 10
101.1893445927582
 20
-129.0112467125388
 10
100.9333739982042
 20
-129.0112467125388
 10
100.8634385598536
 20
-129.2034830406158
 10
100.8634385598536
 20
-129.3323296117642
 10
100.8634385598536
 20
-129.3664360570681
 10
100.8634385598536
 20
-129.5176757488706
 10
100.9926296405505
 20
-129.6127603842635
 10
100.9926296405505
 20
-129.6127603842635
 10
100.9736816153816
 20
-129.8005180882096
 10
100.9736816153816
 20
-129.8005180882096
 10
100.9736816153816
 20
-129.8005180882096
 10
100.1272216546557
 20
-129.6716715170612
 10
100.1272216546557
 20
-129.6716715170612
 10
100.1272216546557
 20
-129.6716715170612
 10
100.1272216546557
 20
-128.8396809573734
 10
100.1272216546557
 20
-128.8396809573734
 10
100.1272216546557
 20
-128.8396809573734
 10
100.3218695495723
 20
-128.8396809573734
 10
100.3218695495723
 20
-128.8396809573734
 10
100.3218695495723
 20
-128.8396809573734
 10
100.3218695495723
 20
-129.4973496855076
 10
100.3218695495723
 20
-129.4973496855076
 10
100.3218695495723
 20
-129.4973496855076
 10
100.744927275161
 20
-129.5676296334067
 10
100.744927275161
 20
-129.5676296334067
 10
100.7111653394055
 20
-129.5018283096384
 10
100.6708577222281
 20
-129.413633865216
 10
100.6708577222281
 20
-129.2871988609074
 10
100.6708577222281
 20
-129.0157253366697
 10
100.8572373879801
 20
-128.7625108185038
 10
101.1703965675893
 20
-128.7625108185038
 10
101.4876898617809
 20
-128.7625108185038
 10
101.7223008643264
 20
-129.0022894642772
 10
101.7223008643264
 20
-129.3254394207937
 97
        0
 97
        0
 75
     2
 76
     1
 98
        0
  0
ENDBLK
  5
E1
330
DE
100
AcDbEntity
  8
0
100
AcDbBlockEnd
  0
BLOCK
  5
FA
330
F8
100
AcDbEntity
  8
0
100
AcDbBlockBegin
  2
block 6
 70
     0
 10
0.0
 20
0.0
 30
0.0
  3
block 6
  1

  0
SPLINE
  5
FC
330
F8
100
AcDbEntity
  8
_U+30EC_U+30A4_U+30E4_U+30FC 1
370
     0
100
AcDbSpline
210
0.0
220
0.0
230
1.0
 70
    11
 71
     3
 72
    32
 73
    28
 74
     0
 42
0.0000000001
 43
0.0000000001
 12
1.0
 22
0.0
 32
0.0
 13
1.0
 23
0.0
 33
0.0
 40
0.0
 40
0.0
 40
0.0
 40
0.0
 40
1.0
 40
1.0
 40
1.0
 40
2.0
 40
2.0
 40
2.0
 40
3.0
 40
3.0
 40
3.0
 40
4.0
 40
4.0
 40
4.0
 40
5.0
 40
5.0
 40
5.0
 40
6.0
 40
6.0
 40
6.0
 40
7.0
 40
7.0
 40
7.0
 40
8.0
 40
8.0
 40
8.0
 40
9.0
 40
9.0
 40
9.0
 40
9.0
 10
101.7223008643264
 20
-119.2607652154105
 30
0.0
 10
101.7223008643264
 20
-119.8124972573733
 30
0.0
 10
101.1683295102982
 20
-119.8214545056349
 30
0.0
 10
100.9543890806642
 20
-119.8214545056349
 30
0.0
 10
100.723912192701
 20
-119.8214545056349
 30
0.0
 10
100.0765787510225
 20
-119.8011284422719
 30
0.0
 10
100.0765787510225
 20
-119.2201130886846
 30
0.0
 10
100.0765787510225
 20
-119.0345946968039
 30
0.0
 10
100.1465141893731
 20
-118.7724229303764
 30
0.0
 10
100.4786213941512
 20
-118.7317708036504
 30
0.0
 10
100.4786213941512
 20
-118.7317708036504
 30
0.0
 10
100.4786213941512
 20
-118.9600083795482
 30
0.0
 10
100.4786213941512
 20
-118.9600083795482
 30
0.0
 10
100.421432809096
 20
-118.9713771946495
 30
0.0
 10
100.2732937032303
 20
-119.0053113851792
 30
0.0
 10
100.2732937032303
 20
-119.22235240075
 30
0.0
 10
100.2732937032303
 20
-119.5343057969393
 30
0.0
 10
100.6012667934261
 20
-119.5771972357307
 30
0.0
 10
100.8062499747984
 20
-119.5908053628974
 30
0.0
 10
100.7280463072833
 20
-119.491414358148
 30
0.0
 10
100.668790664937
 20
-119.4190673529577
 30
0.0
 10
100.668790664937
 20
-119.2245917128154
 30
0.0
 10
100.668790664937
 20
-119.0323553847384
 30
0.0
 10
100.7769666631738
 20
-118.7090331734478
 30
0.0
 10
101.1831434208848
 20
-118.7090331734478
 30
0.0
 10
101.5025037723674
 20
-118.7090331734478
 30
0.0
 10
101.7223008643264
 20
-118.9215955648877
 30
0.0
 10
101.7223008643264
 20
-119.2607652154105
 30
0.0
  0
SPLINE
  5
FD
330
F8
100
AcDbEntity
  8
_U+30EC_U+30A4_U+30E4_U+30FC 1
370
     0
100
AcDbSpline
210
0.0
220
0.0
230
1.0
 70
    11
 71
     3
 72
    17
 73
    13
 74
     0
 42
0.0000000001
 43
0.0000000001
 12
1.0
 22
0.0
 32
0.0
 13
1.0
 23
0.0
 33
0.0
 40
0.0
 40
0.0
 40
0.0
 40
0.0
 40
1.0
 40
1.0
 40
1.0
 40
2.0
 40
2.0
 40
2.0
 40
3.0
 40
3.0
 40
3.0
 40
4.0
 40
4.0
 40
4.0
 40
4.0
 10
100.8634385598536
 20
-119.2426784641129
 30
0.0
 10
100.8634385598536
 20
-119.5231092366123
 30
0.0
 10
101.0749674226479
 20
-119.5637613633382
 30
0.0
 10
101.1914116500494
 20
-119.5637613633382
 30
0.0
 10
101.3671115197971
 20
-119.5637613633382
 30
0.0
 10
101.5300645362494
 20
-119.4619587917491
 30
0.0
 10
101.5300645362494
 20
-119.2652438395413
 30
0.0
 10
101.5300645362494
 20
-119.136397268393
 30
0.0
 10
101.4708088939031
 20
-118.9488118192211
 30
0.0
 10
101.1852104781759
 20
-118.9488118192211
 30
0.0
 10
100.9609347620862
 20
-118.9488118192211
 30
0.0
 10
100.8634385598536
 20
-119.0979844537325
 30
0.0
 10
100.8634385598536
 20
-119.2426784641129
 30
0.0
  0
HATCH
  5
FE
330
F8
100
AcDbEntity
  8
_U+30EC_U+30A4_U+30E4_U+30FC 1
 62
     7
420
 16777215
100
AcDbHatch
 10
0.0
 20
0.0
 30
0.0
210
0.0
220
0.0
230
1.0
  2
SOLID
 70
     1
 71
     0
 91
        2
 92
        1
 93
        1
 72
     4
 94
        3
 73
     0
 74
     1
 95
       32
 96
       28
 40
0.0
 40
0.0
 40
0.0
 40
0.0
 40
1.0
 40
1.0
 40
1.0
 40
2.0
 40
2.0
 40
2.0
 40
3.0
 40
3.0
 40
3.0
 40
4.0
 40
4.0
 40
4.0
 40
5.0
 40
5.0
 40
5.0
 40
6.0
 40
6.0
 40
6.0
 40
7.0
 40
7.0
 40
7.0
 40
8.0
 40
8.0
 40
8.0
 40
9.0
 40
9.0
 40
9.0
 40
9.0
 10
101.7223008643264
 20
-119.2607652154105
 10
101.7223008643264
 20
-119.8124972573733
 10
101.1683295102982
 20
-119.8214545056349
 10
100.9543890806642
 20
-119.8214545056349
 10
100.723912192701
 20
-119.8214545056349
 10
100.0765787510225
 20
-119.8011284422719
 10
100.0765787510225
 20
-119.2201130886846
 10
100.0765787510225
 20
-119.0345946968039
 10
100.1465141893731
 20
-118.7724229303764
 10
100.4786213941512
 20
-118.7317708036504
 10
100.4786213941512
 20
-118.7317708036504
 10
100.4786213941512
 20
-118.9600083795482
 10
100.4786213941512
 20
-118.9600083795482
 10
100.421432809096
 20
-118.9713771946495
 10
100.2732937032303
 20
-119.0053113851792
 10
100.2732937032303
 20
-119.22235240075
 10
100.2732937032303
 20
-119.5343057969393
 10
100.6012667934261
 20
-119.5771972357307
 10
100.8062499747984
 20
-119.5908053628974
 10
100.7280463072833
 20
-119.491414358148
 10
100.668790664937
 20
-119.4190673529577
 10
100.668790664937
 20
-119.2245917128154
 10
100.668790664937
 20
-119.0323553847384
 10
100.7769666631738
 20
-118.7090331734478
 10
101.1831434208848
 20
-118.7090331734478
 10
101.5025037723674
 20
-118.7090331734478
 10
101.7223008643264
 20
-118.9215955648877
 10
101.7223008643264
 20
-119.2607652154105
 97
        0
 97
        0
 92
        1
 93
        1
 72
     4
 94
        3
 73
     0
 74
     1
 95
       17
 96
       13
 40
0.0
 40
0.0
 40
0.0
 40
0.0
 40
1.0
 40
1.0
 40
1.0
 40
2.0
 40
2.0
 40
2.0
 40
3.0
 40
3.0
 40
3.0
 40
4.0
 40
4.0
 40
4.0
 40
4.0
 10
100.8634385598536
 20
-119.2426784641129
 10
100.8634385598536
 20
-119.5231092366123
 10
101.0749674226479
 20
-119.5637613633382
 10
101.1914116500494
 20
-119.5637613633382
 10
101.3671115197971
 20
-119.5637613633382
 10
101.5300645362494
 20
-119.4619587917491
 10
101.5300645362494
 20
-119.2652438395413
 10
101.5300645362494
 20
-119.136397268393
 10
101.4708088939031
 20
-118.9488118192211
 10
101.1852104781759
 20
-118.9488118192211
 10
100.9609347620862
 20
-118.9488118192211
 10
100.8634385598536
 20
-119.0979844537325
 10
100.8634385598536
 20
-119.2426784641129
 97
        0
 97
        0
 75
     2
 76
     1
 98
        0
  0
ENDBLK
  5
FB
330
F8
100
AcDbEntity
  8
0
100
AcDbBlockEnd
  0
ENDSEC
  0
SECTION
  2
ENTITIES
  0
POLYLINE
  5
41
330
1F
100
AcDbEntity
  8
_U+30EC_U+30A4_U+30E4_U+30FC 1
 62
     7
420
 16777215
370
    25
100
AcDb2dPolyline
 66
     1
 10
0.0
 20
0.0
 30
0.0
  0
VERTEX
  5
42
330
41
100
AcDbEntity
  8
_U+30EC_U+30A4_U+30E4_U+30FC 1
 62
     7
420
 16777215
370
    25
100
AcDbVertex
100
AcDb2dVertex
 10
86.85550945079801
 20
-138.605824409793
 30
0.0
  0
VERTEX
  5
43
330
41
100
AcDbEntity
  8
_U+30EC_U+30A4_U+30E4_U+30FC 1
 62
     7
420
 16777215
370
    25
100
AcDbVertex
100
AcDb2dVertex
 10
92.8556595754992
 20
-138.605824409793
 30
0.0
  0
SEQEND
  5
44
330
41
100
AcDbEntity
  8
_U+30EC_U+30A4_U+30E4_U+30FC 1
 62
     7
420
 16777215
370
    25
  0
POLYLINE
  5
45
330
1F
100
AcDbEntity
  8
_U+30EC_U+30A4_U+30E4_U+30FC 1
 62
     7
420
 16777215
370
    25
100
AcDb2dPolyline
 66
     1
 10
0.0
 20
0.0
 30
0.0
  0
VERTEX
  5
46
330
45
100
AcDbEntity
  8
_U+30EC_U+30A4_U+30E4_U+30FC 1
 62
     7
420
 16777215
370
    25
100
AcDbVertex
100
AcDb2dVertex
 10
86.85550945079801
 20
-123.1060035803347
 30
0.0
  0
VERTEX
  5
47
330
45
100
AcDbEntity
  8
_U+30EC_U+30A4_U+30E4_U+30FC 1
 62
     7
420
 16777215
370
    25
100
AcDbVertex
100
AcDb2dVertex
 10
92.8556595754992
 20
-123.1060035803347
 30
0.0
  0
SEQEND
  5
48
330
45
100
AcDbEntity
  8
_U+30EC_U+30A4_U+30E4_U+30FC 1
 62
     7
420
 16777215
370
    25
  0
POLYLINE
  5
49
330
1F
100
AcDbEntity
  8
_U+30EC_U+30A4_U+30E4_U+30FC 1
 62
     7
420
 16777215
370
    25
100
AcDb2dPolyline
 66
     1
 10
0.0
 20
0.0
 30
0.0
  0
VERTEX
  5
4A
330
49
100
AcDbEntity
  8
_U+30EC_U+30A4_U+30E4_U+30FC 1
 62
     7
420
 16777215
370
    25
100
AcDbVertex
100
AcDb2dVertex
 10
86.85550945079801
 20
-139.6063021873204
 30
0.0
  0
VERTEX
  5
4B
330
49
100
AcDbEntity
  8
_U+30EC_U+30A4_U+30E4_U+30FC 1
 62
     7
420
 16777215
370
    25
100
AcDbVertex
100
AcDb2dVertex
 10
99.85540550803192
 20
-139.6063021873204
 30
0.0
  0
SEQEND
  5
4C
330
49
100
AcDbEntity
  8
_U+30EC_U+30A4_U+30E4_U+30FC 1
 62
     7
420
 16777215
370
    25
  0
POLYLINE
  5
4D
330
1F
100
AcDbEntity
  8
_U+30EC_U+30A4_U+30E4_U+30FC 1
 62
     7
420
 16777215
370
    25
100
AcDb2dPolyline
 66
     1
 10
0.0
 20
0.0
 30
0.0
  0
VERTEX
  5
4E
330
4D
100
AcDbEntity
  8
_U+30EC_U+30A4_U+30E4_U+30FC 1
 62
     7
420
 16777215
370
    25
100
AcDbVertex
100
AcDb2dVertex
 10
85.85506697632142
 20
-116.1059046931957
 30
0.0
  0
VERTEX
  5
4F
330
4D
100
AcDbEntity
  8
_U+30EC_U+30A4_U+30E4_U+30FC 1
 62
     7
420
 16777215
370
    25
100
AcDbVertex
100
AcDb2dVertex
 10
85.85506697632142
 20
-138.605824409793
 30
0.0
  0
SEQEND
  5
50
330
4D
100
AcDbEntity
  8
_U+30EC_U+30A4_U+30E4_U+30FC 1
 62
     7
420
 16777215
370
    25
  0
POLYLINE
  5
51
330
1F
100
AcDbEntity
  8
_U+30EC_U+30A4_U+30E4_U+30FC 1
 62
     7
420
 16777215
370
    25
100
AcDb2dPolyline
 66
     1
 10
0.0
 20
0.0
 30
0.0
  0
VERTEX
  5
52
330
51
100
AcDbEntity
  8
_U+30EC_U+30A4_U+30E4_U+30FC 1
 62
     7
420
 16777215
370
    25
100
AcDbVertex
100
AcDb2dVertex
 10
86.85550945079801
 20
-117.1056769151679
 30
0.0
  0
VERTEX
  5
53
330
51
100
AcDbEntity
  8
_U+30EC_U+30A4_U+30E4_U+30FC 1
 62
     7
420
 16777215
370
    25
100
AcDbVertex
100
AcDb2dVertex
 10
86.85550945079801
 20
-122.1055610805848
 30
0.0
  0
SEQEND
  5
54
330
51
100
AcDbEntity
  8
_U+30EC_U+30A4_U+30E4_U+30FC 1
 62
     7
420
 16777215
370
    25
  0
POLYLINE
  5
55
330
1F
100
AcDbEntity
  8
_U+30EC_U+30A4_U+30E4_U+30FC 1
 62
     7
420
 16777215
370
    25
100
AcDb2dPolyline
 66
     1
 10
0.0
 20
0.0
 30
0.0
  0
VERTEX
  5
56
330
55
100
AcDbEntity
  8
_U+30EC_U+30A4_U+30E4_U+30FC 1
 62
     7
420
 16777215
370
    25
100
AcDbVertex
100
AcDb2dVertex
 10
86.85550945079801
 20
-122.1055610805848
 30
0.0
  0
VERTEX
  5
57
330
55
100
AcDbEntity
  8
_U+30EC_U+30A4_U+30E4_U+30FC 1
 62
     7
420
 16777215
370
    25
100
AcDbVertex
100
AcDb2dVertex
 10
91.85521942148078
 20
-122.1055610805848
 30
0.0
  0
SEQEND
  5
58
330
55
100
AcDbEntity
  8
_U+30EC_U+30A4_U+30E4_U+30FC 1
 62
     7
420
 16777215
370
    25
  0
POLYLINE
  5
59
330
1F
100
AcDbEntity
  8
_U+30EC_U+30A4_U+30E4_U+30FC 1
 62
     7
420
 16777215
370
    25
100
AcDb2dPolyline
 66
     1
 10
0.0
 20
0.0
 30
0.0
  0
VERTEX
  5
5A
330
59
100
AcDbEntity
  8
_U+30EC_U+30A4_U+30E4_U+30FC 1
 62
     7
420
 16777215
370
    25
100
AcDbVertex
100
AcDb2dVertex
 10
86.85550945079801
 20
-123.1060035803347
 30
0.0
  0
VERTEX
  5
5B
330
59
100
AcDbEntity
  8
_U+30EC_U+30A4_U+30E4_U+30FC 1
 62
     7
420
 16777215
370
    25
100
AcDbVertex
100
AcDb2dVertex
 10
86.85550945079801
 20
-138.605824409793
 30
0.0
  0
SEQEND
  5
5C
330
59
100
AcDbEntity
  8
_U+30EC_U+30A4_U+30E4_U+30FC 1
 62
     7
420
 16777215
370
    25
  0
POLYLINE
  5
5D
330
1F
100
AcDbEntity
  8
_U+30EC_U+30A4_U+30E4_U+30FC 1
 62
     7
420
 16777215
370
    25
100
AcDb2dPolyline
 66
     1
 10
0.0
 20
0.0
 30
0.0
  0
VERTEX
  5
5E
330
5D
100
AcDbEntity
  8
_U+30EC_U+30A4_U+30E4_U+30FC 1
 62
     7
420
 16777215
370
    25
100
AcDbVertex
100
AcDb2dVertex
 10
93.21394067746981
 20
-138.8063432986318
 30
0.0
  0
VERTEX
  5
5F
330
5D
100
AcDbEntity
  8
_U+30EC_U+30A4_U+30E4_U+30FC 1
 62
     7
420
 16777215
370
    25
100
AcDbVertex
100
AcDb2dVertex
 10
99.05544663955169
 20
-138.8063432986318
 30
0.0
  0
SEQEND
  5
60
330
5D
100
AcDbEntity
  8
_U+30EC_U+30A4_U+30E4_U+30FC 1
 62
     7
420
 16777215
370
    25
  0
POLYLINE
  5
61
330
1F
100
AcDbEntity
  8
_U+30EC_U+30A4_U+30E4_U+30FC 1
 62
     7
420
 16777215
370
    25
100
AcDb2dPolyline
 66
     1
 10
0.0
 20
0.0
 30
0.0
  0
VERTEX
  5
62
330
61
100
AcDbEntity
  8
_U+30EC_U+30A4_U+30E4_U+30FC 1
 62
     7
420
 16777215
370
    25
100
AcDbVertex
100
AcDb2dVertex
 10
92.8556595754992
 20
-138.605824409793
 30
0.0
  0
VERTEX
  5
63
330
61
100
AcDbEntity
  8
_U+30EC_U+30A4_U+30E4_U+30FC 1
 62
     7
420
 16777215
370
    25
100
AcDbVertex
100
AcDb2dVertex
 10
93.20155817778571
 20
-138.8063432986318
 30
0.0
  0
SEQEND
  5
64
330
61
100
AcDbEntity
  8
_U+30EC_U+30A4_U+30E4_U+30FC 1
 62
     7
420
 16777215
370
    25
  0
SPLINE
  5
65
330
1F
100
AcDbEntity
  8
_U+30EC_U+30A4_U+30E4_U+30FC 1
 62
     7
420
 16777215
370
    25
100
AcDbSpline
210
0.0
220
0.0
230
1.0
 70
     8
 71
     3
 72
     8
 73
     4
 74
     0
 42
0.0000000001
 43
0.0000000001
 12
1.0
 22
0.0
 32
0.0
 13
1.0
 23
0.0
 33
0.0
 40
0.0
 40
0.0
 40
0.0
 40
0.0
 40
1.0
 40
1.0
 40
1.0
 40
1.0
 10
85.85506697632142
 20
-138.605824409793
 30
0.0
 10
85.85506697632142
 20
-139.1584155207659
 30
0.0
 10
86.30291835378468
 20
-139.6063021873204
 30
0.0
 10
86.85550945079801
 20
-139.6063021873204
 30
0.0
  0
SPLINE
  5
66
330
1F
100
AcDbEntity
  8
_U+30EC_U+30A4_U+30E4_U+30FC 1
 62
     7
420
 16777215
370
     9
100
AcDbSpline
210
0.0
220
0.0
230
1.0
 70
    11
 71
     3
 72
    17
 73
    13
 74
     0
 42
0.0000000001
 43
0.0000000001
 12
1.0
 22
0.0
 32
0.0
 13
1.0
 23
0.0
 33
0.0
 40
0.0
 40
0.0
 40
0.0
 40
0.0
 40
1.0
 40
1.0
 40
1.0
 40
2.0
 40
2.0
 40
2.0
 40
3.0
 40
3.0
 40
3.0
 40
4.0
 40
4.0
 40
4.0
 40
4.0
 10
85.95497364043926
 20
-120.3402963588037
 30
0.0
 10
85.95497364043926
 20
-120.2851571921509
 30
0.0
 10
85.9101708638045
 20
-120.240389692162
 30
0.0
 10
85.85506697632142
 20
-120.240389692162
 30
0.0
 10
85.79992781106148
 20
-120.240389692162
 30
0.0
 10
85.75512503442671
 20
-120.2851571921509
 30
0.0
 10
85.75512503442671
 20
-120.3402963588037
 30
0.0
 10
85.75512503442671
 20
-120.3954002476789
 30
0.0
 10
85.79992781106148
 20
-120.4402030254456
 30
0.0
 10
85.85506697632142
 20
-120.4402030254456
 30
0.0
 10
85.9101708638045
 20
-120.4402030254456
 30
0.0
 10
85.95497364043926
 20
-120.3954002476789
 30
0.0
 10
85.95497364043926
 20
-120.3402963588037
 30
0.0
  0
SPLINE
  5
67
330
1F
100
AcDbEntity
  8
_U+30EC_U+30A4_U+30E4_U+30FC 1
 62
     7
420
 16777215
370
     9
100
AcDbSpline
210
0.0
220
0.0
230
1.0
 70
    11
 71
     3
 72
    17
 73
    13
 74
     0
 42
0.0000000001
 43
0.0000000001
 12
1.0
 22
0.0
 32
0.0
 13
1.0
 23
0.0
 33
0.0
 40
0.0
 40
0.0
 40
0.0
 40
0.0
 40
1.0
 40
1.0
 40
1.0
 40
2.0
 40
2.0
 40
2.0
 40
3.0
 40
3.0
 40
3.0
 40
4.0
 40
4.0
 40
4.0
 40
4.0
 10
86.95541611491585
 20
-120.3402963588037
 30
0.0
 10
86.95541611491585
 20
-120.2851571921509
 30
0.0
 10
86.91061333828108
 20
-120.240389692162
 30
0.0
 10
86.85550945079801
 20
-120.240389692162
 30
0.0
 10
86.79970000777739
 20
-120.240389692162
 30
0.0
 10
86.75489723114262
 20
-120.2851571921509
 30
0.0
 10
86.75489723114262
 20
-120.3402963588037
 30
0.0
 10
86.75489723114262
 20
-120.3954002476789
 30
0.0
 10
86.79970000777739
 20
-120.4402030254456
 30
0.0
 10
86.85550945079801
 20
-120.4402030254456
 30
0.0
 10
86.91061333828108
 20
-120.4402030254456
 30
0.0
 10
86.95541611491585
 20
-120.3954002476789
 30
0.0
 10
86.95541611491585
 20
-120.3402963588037
 30
0.0
  0
SPLINE
  5
68
330
1F
100
AcDbEntity
  8
_U+30EC_U+30A4_U+30E4_U+30FC 1
 62
     7
420
 16777215
370
     9
100
AcDbSpline
210
0.0
220
0.0
230
1.0
 70
    11
 71
     3
 72
    17
 73
    13
 74
     0
 42
0.0000000001
 43
0.0000000001
 12
1.0
 22
0.0
 32
0.0
 13
1.0
 23
0.0
 33
0.0
 40
0.0
 40
0.0
 40
0.0
 40
0.0
 40
1.0
 40
1.0
 40
1.0
 40
2.0
 40
2.0
 40
2.0
 40
3.0
 40
3.0
 40
3.0
 40
4.0
 40
4.0
 40
4.0
 40
4.0
 10
99.85540550803192
 20
-143.6060613529873
 30
0.0
 10
99.85540550803192
 20
-143.5509221863342
 30
0.0
 10
99.81060273139717
 20
-143.5061546863457
 30
0.0
 10
99.75549884391408
 20
-143.5061546863457
 30
0.0
 10
99.70035967865414
 20
-143.5061546863457
 30
0.0
 10
99.65559217979626
 20
-143.5509221863342
 30
0.0
 10
99.65559217979626
 20
-143.6060613529873
 30
0.0
 10
99.65559217979626
 20
-143.6611652418622
 30
0.0
 10
99.70035967865414
 20
-143.705968019629
 30
0.0
 10
99.75549884391408
 20
-143.705968019629
 30
0.0
 10
99.81060273139717
 20
-143.705968019629
 30
0.0
 10
99.85540550803192
 20
-143.6611652418622
 30
0.0
 10
99.85540550803192
 20
-143.6060613529873
 30
0.0
  0
SPLINE
  5
69
330
1F
100
AcDbEntity
  8
_U+30EC_U+30A4_U+30E4_U+30FC 1
 62
     7
420
 16777215
370
     9
100
AcDbSpline
210
0.0
220
0.0
230
1.0
 70
    11
 71
     3
 72
    17
 73
    13
 74
     0
 42
0.0000000001
 43
0.0000000001
 12
1.0
 22
0.0
 32
0.0
 13
1.0
 23
0.0
 33
0.0
 40
0.0
 40
0.0
 40
0.0
 40
0.0
 40
1.0
 40
1.0
 40
1.0
 40
2.0
 40
2.0
 40
2.0
 40
3.0
 40
3.0
 40
3.0
 40
4.0
 40
4.0
 40
4.0
 40
4.0
 10
85.95497364043926
 20
-143.6060613529873
 30
0.0
 10
85.95497364043926
 20
-143.5509221863342
 30
0.0
 10
85.9101708638045
 20
-143.5061546863457
 30
0.0
 10
85.85506697632142
 20
-143.5061546863457
 30
0.0
 10
85.79992781106148
 20
-143.5061546863457
 30
0.0
 10
85.75512503442671
 20
-143.5509221863342
 30
0.0
 10
85.75512503442671
 20
-143.6060613529873
 30
0.0
 10
85.75512503442671
 20
-143.6611652418622
 30
0.0
 10
85.79992781106148
 20
-143.705968019629
 30
0.0
 10
85.85506697632142
 20
-143.705968019629
 30
0.0
 10
85.9101708638045
 20
-143.705968019629
 30
0.0
 10
85.95497364043926
 20
-143.6611652418622
 30
0.0
 10
85.95497364043926
 20
-143.6060613529873
 30
0.0
  0
SPLINE
  5
6A
330
1F
100
AcDbEntity
  8
_U+30EC_U+30A4_U+30E4_U+30FC 1
 62
     7
420
 16777215
370
    25
100
AcDbSpline
210
0.0
220
0.0
230
1.0
 70
     8
 71
     3
 72
     8
 73
     4
 74
     0
 42
0.0000000001
 43
0.0000000001
 12
1.0
 22
0.0
 32
0.0
 13
1.0
 23
0.0
 33
0.0
 40
0.0
 40
0.0
 40
0.0
 40
0.0
 40
1.0
 40
1.0
 40
1.0
 40
1.0
 10
86.85550945079801
 20
-117.1056769151679
 30
0.0
 10
86.85550945079801
 20
-116.5537913597506
 30
0.0
 10
86.40765807333477
 20
-116.1059046931957
 30
0.0
 10
85.85506697632142
 20
-116.1059046931957
 30
0.0
  0
SPLINE
  5
6B
330
1F
100
AcDbEntity
  8
_U+30EC_U+30A4_U+30E4_U+30FC 1
 62
     7
420
 16777215
370
    25
100
AcDbSpline
210
0.0
220
0.0
230
1.0
 70
     8
 71
     3
 72
     8
 73
     4
 74
     0
 42
0.0000000001
 43
0.0000000001
 12
1.0
 22
0.0
 32
0.0
 13
1.0
 23
0.0
 33
0.0
 40
0.0
 40
0.0
 40
0.0
 40
0.0
 40
1.0
 40
1.0
 40
1.0
 40
1.0
 10
92.8556595754992
 20
-123.1060035803347
 30
0.0
 10
92.8556595754992
 20
-122.5534124693615
 30
0.0
 10
92.40780819803597
 20
-122.1055610805848
 30
0.0
 10
91.85521942148078
 20
-122.1055610805848
 30
0.0
  0
SPLINE
  5
6C
330
1F
100
AcDbEntity
  8
_U+30EC_U+30A4_U+30E4_U+30FC 1
 62
     7
420
 16777215
370
    25
100
AcDbSpline
210
0.0
220
0.0
230
1.0
 70
     8
 71
     3
 72
     8
 73
     4
 74
     0
 42
0.0000000001
 43
0.0000000001
 12
1.0
 22
0.0
 32
0.0
 13
1.0
 23
0.0
 33
0.0
 40
0.0
 40
0.0
 40
0.0
 40
0.0
 40
1.0
 40
1.0
 40
1.0
 40
1.0
 10
99.85540550803192
 20
-139.6063021873204
 30
0.0
 10
99.85540550803192
 20
-139.1646244096536
 30
0.0
 10
99.49712440606133
 20
-138.8063432986318
 30
0.0
 10
99.05544663955169
 20
-138.8063432986318
 30
0.0
  0
SPLINE
  5
6D
330
1F
100
AcDbEntity
  8
_U+30EC_U+30A4_U+30E4_U+30FC 1
 62
     7
420
 16777215
370
     9
100
AcDbSpline
210
0.0
220
0.0
230
1.0
 70
    11
 71
     3
 72
    17
 73
    13
 74
     0
 42
0.0000000001
 43
0.0000000001
 12
1.0
 22
0.0
 32
0.0
 13
1.0
 23
0.0
 33
0.0
 40
0.0
 40
0.0
 40
0.0
 40
0.0
 40
1.0
 40
1.0
 40
1.0
 40
2.0
 40
2.0
 40
2.0
 40
3.0
 40
3.0
 40
3.0
 40
4.0
 40
4.0
 40
4.0
 40
4.0
 10
81.95521664617797
 20
-116.1062574709735
 30
0.0
 10
81.95521664617797
 20
-116.0511535820982
 30
0.0
 10
81.91041386841125
 20
-116.0063508043318
 30
0.0
 10
81.85530791169711
 20
-116.0063508043318
 30
0.0
 10
81.80016874643717
 20
-116.0063508043318
 30
0.0
 10
81.75540124757929
 20
-116.0511535820982
 30
0.0
 10
81.75540124757929
 20
-116.1062574709735
 30
0.0
 10
81.75540124757929
 20
-116.1613966376262
 30
0.0
 10
81.80016874643717
 20
-116.2061641376151
 30
0.0
 10
81.85530791169711
 20
-116.2061641376151
 30
0.0
 10
81.91041386841125
 20
-116.2061641376151
 30
0.0
 10
81.95521664617797
 20
-116.1613966376262
 30
0.0
 10
81.95521664617797
 20
-116.1062574709735
 30
0.0
  0
SPLINE
  5
6E
330
1F
100
AcDbEntity
  8
_U+30EC_U+30A4_U+30E4_U+30FC 1
 62
     7
420
 16777215
370
     9
100
AcDbSpline
210
0.0
220
0.0
230
1.0
 70
    11
 71
     3
 72
    17
 73
    13
 74
     0
 42
0.0000000001
 43
0.0000000001
 12
1.0
 22
0.0
 32
0.0
 13
1.0
 23
0.0
 33
0.0
 40
0.0
 40
0.0
 40
0.0
 40
0.0
 40
1.0
 40
1.0
 40
1.0
 40
2.0
 40
2.0
 40
2.0
 40
3.0
 40
3.0
 40
3.0
 40
4.0
 40
4.0
 40
4.0
 40
4.0
 10
81.95521664617797
 20
-139.6063021873204
 30
0.0
 10
81.95521664617797
 20
-139.551163020668
 30
0.0
 10
81.91041386841125
 20
-139.5063955206788
 30
0.0
 10
81.85530791169711
 20
-139.5063955206788
 30
0.0
 10
81.80016874643717
 20
-139.5063955206788
 30
0.0
 10
81.75540124757929
 20
-139.551163020668
 30
0.0
 10
81.75540124757929
 20
-139.6063021873204
 30
0.0
 10
81.75540124757929
 20
-139.661406076196
 30
0.0
 10
81.80016874643717
 20
-139.7062088539621
 30
0.0
 10
81.85530791169711
 20
-139.7062088539621
 30
0.0
 10
81.91041386841125
 20
-139.7062088539621
 30
0.0
 10
81.95521664617797
 20
-139.661406076196
 30
0.0
 10
81.95521664617797
 20
-139.6063021873204
 30
0.0
  0
SPLINE
  5
6F
330
1F
100
AcDbEntity
  8
_U+30EC_U+30A4_U+30E4_U+30FC 1
 62
     7
420
 16777215
370
     9
100
AcDbSpline
210
0.0
220
0.0
230
1.0
 70
    11
 71
     3
 72
    17
 73
    13
 74
     0
 42
0.0000000001
 43
0.0000000001
 12
1.0
 22
0.0
 32
0.0
 13
1.0
 23
0.0
 33
0.0
 40
0.0
 40
0.0
 40
0.0
 40
0.0
 40
1.0
 40
1.0
 40
1.0
 40
2.0
 40
2.0
 40
2.0
 40
3.0
 40
3.0
 40
3.0
 40
4.0
 40
4.0
 40
4.0
 40
4.0
 10
102.3675712772746
 20
-138.605824409793
 30
0.0
 10
102.3675712772746
 20
-138.5507205209181
 30
0.0
 10
102.3227685006398
 20
-138.5059177431514
 30
0.0
 10
102.2676646131567
 20
-138.5059177431514
 30
0.0
 10
102.2125254478968
 20
-138.5059177431514
 30
0.0
 10
102.1677579490389
 20
-138.5507205209181
 30
0.0
 10
102.1677579490389
 20
-138.605824409793
 30
0.0
 10
102.1677579490389
 20
-138.6616338542235
 30
0.0
 10
102.2125254478968
 20
-138.7064366319902
 30
0.0
 10
102.2676646131567
 20
-138.7064366319902
 30
0.0
 10
102.3227685006398
 20
-138.7064366319902
 30
0.0
 10
102.3675712772746
 20
-138.6616338542235
 30
0.0
 10
102.3675712772746
 20
-138.605824409793
 30
0.0
  0
SPLINE
  5
70
330
1F
100
AcDbEntity
  8
_U+30EC_U+30A4_U+30E4_U+30FC 1
 62
     7
420
 16777215
370
     9
100
AcDbSpline
210
0.0
220
0.0
230
1.0
 70
    11
 71
     3
 72
    17
 73
    13
 74
     0
 42
0.0000000001
 43
0.0000000001
 12
1.0
 22
0.0
 32
0.0
 13
1.0
 23
0.0
 33
0.0
 40
0.0
 40
0.0
 40
0.0
 40
0.0
 40
1.0
 40
1.0
 40
1.0
 40
2.0
 40
2.0
 40
2.0
 40
3.0
 40
3.0
 40
3.0
 40
4.0
 40
4.0
 40
4.0
 40
4.0
 10
102.3675712772746
 20
-123.2059102469763
 30
0.0
 10
102.3675712772746
 20
-123.1508063581011
 30
0.0
 10
102.3227685006398
 20
-123.1060035803347
 30
0.0
 10
102.2676646131567
 20
-123.1060035803347
 30
0.0
 10
102.2125254478968
 20
-123.1060035803347
 30
0.0
 10
102.1677579490389
 20
-123.1508063581011
 30
0.0
 10
102.1677579490389
 20
-123.2059102469763
 30
0.0
 10
102.1677579490389
 20
-123.261366913629
 30
0.0
 10
102.2125254478968
 20
-123.3061696913957
 30
0.0
 10
102.2676646131567
 20
-123.3061696913957
 30
0.0
 10
102.3227685006398
 20
-123.3061696913957
 30
0.0
 10
102.3675712772746
 20
-123.261366913629
 30
0.0
 10
102.3675712772746
 20
-123.2059102469763
 30
0.0
  0
SPLINE
  5
71
330
1F
100
AcDbEntity
  8
_U+30EC_U+30A4_U+30E4_U+30FC 1
 62
     7
420
 16777215
370
     9
100
AcDbSpline
210
0.0
220
0.0
230
1.0
 70
    11
 71
     3
 72
    17
 73
    13
 74
     0
 42
0.0000000001
 43
0.0000000001
 12
1.0
 22
0.0
 32
0.0
 13
1.0
 23
0.0
 33
0.0
 40
0.0
 40
0.0
 40
0.0
 40
0.0
 40
1.0
 40
1.0
 40
1.0
 40
2.0
 40
2.0
 40
2.0
 40
3.0
 40
3.0
 40
3.0
 40
4.0
 40
4.0
 40
4.0
 40
4.0
 10
102.3675712772746
 20
-116.2058113598374
 30
0.0
 10
102.3675712772746
 20
-116.1507074709624
 30
0.0
 10
102.3227685006398
 20
-116.1059046931957
 30
0.0
 10
102.2676646131567
 20
-116.1059046931957
 30
0.0
 10
102.2125254478968
 20
-116.1059046931957
 30
0.0
 10
102.1677579490389
 20
-116.1507074709624
 30
0.0
 10
102.1677579490389
 20
-116.2058113598374
 30
0.0
 10
102.1677579490389
 20
-116.2609505264904
 30
0.0
 10
102.2125254478968
 20
-116.305718026479
 30
0.0
 10
102.2676646131567
 20
-116.305718026479
 30
0.0
 10
102.3227685006398
 20
-116.305718026479
 30
0.0
 10
102.3675712772746
 20
-116.2609505264904
 30
0.0
 10
102.3675712772746
 20
-116.2058113598374
 30
0.0
  0
POLYLINE
  5
72
330
1F
100
AcDbEntity
  8
_U+30EC_U+30A4_U+30E4_U+30FC 1
 62
     7
420
 16777215
370
     9
100
AcDb2dPolyline
 66
     1
 10
0.0
 20
0.0
 30
0.0
  0
VERTEX
  5
73
330
72
100
AcDbEntity
  8
_U+30EC_U+30A4_U+30E4_U+30FC 1
 62
     7
420
 16777215
370
     9
100
AcDbVertex
100
AcDb2dVertex
 10
86.85550945079801
 20
-120.3402963588037
 30
0.0
  0
VERTEX
  5
74
330
72
100
AcDbEntity
  8
_U+30EC_U+30A4_U+30E4_U+30FC 1
 62
     7
420
 16777215
370
     9
100
AcDbVertex
100
AcDb2dVertex
 10
90.62582185460933
 20
-120.3402963588037
 30
0.0
  0
SEQEND
  5
75
330
72
100
AcDbEntity
  8
_U+30EC_U+30A4_U+30E4_U+30FC 1
 62
     7
420
 16777215
370
     9
  0
POLYLINE
  5
76
330
1F
100
AcDbEntity
  8
_U+30EC_U+30A4_U+30E4_U+30FC 1
 62
     7
420
 16777215
370
     9
100
AcDb2dPolyline
 66
     1
 10
0.0
 20
0.0
 30
0.0
  0
VERTEX
  5
77
330
76
100
AcDbEntity
  8
_U+30EC_U+30A4_U+30E4_U+30FC 1
 62
     7
420
 16777215
370
     9
100
AcDbVertex
100
AcDb2dVertex
 10
84.85529477960552
 20
-120.3402963588037
 30
0.0
  0
VERTEX
  5
78
330
76
100
AcDbEntity
  8
_U+30EC_U+30A4_U+30E4_U+30FC 1
 62
     7
420
 16777215
370
     9
100
AcDbVertex
100
AcDb2dVertex
 10
86.85550945079801
 20
-120.3402963588037
 30
0.0
  0
SEQEND
  5
79
330
76
100
AcDbEntity
  8
_U+30EC_U+30A4_U+30E4_U+30FC 1
 62
     7
420
 16777215
370
     9
  0
INSERT
  5
7B
330
1F
100
AcDbEntity
  8
_U+30EC_U+30A4_U+30E4_U+30FC 1
100
AcDbBlockReference
  2
block 2
 10
0.0
 20
0.0
 30
0.0
  0
POLYLINE
  5
80
330
1F
100
AcDbEntity
  8
_U+30EC_U+30A4_U+30E4_U+30FC 1
 62
     7
420
 16777215
370
     9
100
AcDb2dPolyline
 66
     1
 10
0.0
 20
0.0
 30
0.0
  0
VERTEX
  5
81
330
80
100
AcDbEntity
  8
_U+30EC_U+30A4_U+30E4_U+30FC 1
 62
     7
420
 16777215
370
     9
100
AcDbVertex
100
AcDb2dVertex
 10
85.85506697632142
 20
-143.6060613529873
 30
0.0
  0
VERTEX
  5
82
330
80
100
AcDbEntity
  8
_U+30EC_U+30A4_U+30E4_U+30FC 1
 62
     7
420
 16777215
370
     9
100
AcDbVertex
100
AcDb2dVertex
 10
99.85540550803192
 20
-143.6060613529873
 30
0.0
  0
SEQEND
  5
83
330
80
100
AcDbEntity
  8
_U+30EC_U+30A4_U+30E4_U+30FC 1
 62
     7
420
 16777215
370
     9
  0
POLYLINE
  5
84
330
1F
100
AcDbEntity
  8
_U+30EC_U+30A4_U+30E4_U+30FC 1
 62
     7
420
 16777215
370
     9
100
AcDb2dPolyline
 66
     1
 10
0.0
 20
0.0
 30
0.0
  0
VERTEX
  5
85
330
84
100
AcDbEntity
  8
_U+30EC_U+30A4_U+30E4_U+30FC 1
 62
     7
420
 16777215
370
     9
100
AcDbVertex
100
AcDb2dVertex
 10
85.85506697632142
 20
-141.1462477424911
 30
0.0
  0
VERTEX
  5
86
330
84
100
AcDbEntity
  8
_U+30EC_U+30A4_U+30E4_U+30FC 1
 62
     7
420
 16777215
370
     9
100
AcDbVertex
100
AcDb2dVertex
 10
85.85506697632142
 20
-144.6065038527372
 30
0.0
  0
SEQEND
  5
87
330
84
100
AcDbEntity
  8
_U+30EC_U+30A4_U+30E4_U+30FC 1
 62
     7
420
 16777215
370
     9
  0
POLYLINE
  5
88
330
1F
100
AcDbEntity
  8
_U+30EC_U+30A4_U+30E4_U+30FC 1
 62
     7
420
 16777215
370
     9
100
AcDb2dPolyline
 66
     1
 10
0.0
 20
0.0
 30
0.0
  0
VERTEX
  5
89
330
88
100
AcDbEntity
  8
_U+30EC_U+30A4_U+30E4_U+30FC 1
 62
     7
420
 16777215
370
     9
100
AcDbVertex
100
AcDb2dVertex
 10
99.75549884391408
 20
-141.1462477424911
 30
0.0
  0
VERTEX
  5
8A
330
88
100
AcDbEntity
  8
_U+30EC_U+30A4_U+30E4_U+30FC 1
 62
     7
420
 16777215
370
     9
100
AcDbVertex
100
AcDb2dVertex
 10
99.75549884391408
 20
-144.6065038527372
 30
0.0
  0
SEQEND
  5
8B
330
88
100
AcDbEntity
  8
_U+30EC_U+30A4_U+30E4_U+30FC 1
 62
     7
420
 16777215
370
     9
  0
INSERT
  5
8D
330
1F
100
AcDbEntity
  8
_U+30EC_U+30A4_U+30E4_U+30FC 1
100
AcDbBlockReference
  2
block 3
 10
0.0
 20
0.0
 30
0.0
  0
POLYLINE
  5
A7
330
1F
100
AcDbEntity
  8
_U+30EC_U+30A4_U+30E4_U+30FC 1
 62
     7
420
 16777215
370
     9
100
AcDb2dPolyline
 66
     1
 10
0.0
 20
0.0
 30
0.0
  0
VERTEX
  5
A8
330
A7
100
AcDbEntity
  8
_U+30EC_U+30A4_U+30E4_U+30FC 1
 62
     7
420
 16777215
370
     9
100
AcDbVertex
100
AcDb2dVertex
 10
86.95541611491585
 20
-112.5409441385316
 30
0.0
  0
VERTEX
  5
A9
330
A7
100
AcDbEntity
  8
_U+30EC_U+30A4_U+30E4_U+30FC 1
 62
     7
420
 16777215
370
     9
100
AcDbVertex
100
AcDb2dVertex
 10
86.95541611491585
 20
-115.0010752490274
 30
0.0
  0
SEQEND
  5
AA
330
A7
100
AcDbEntity
  8
_U+30EC_U+30A4_U+30E4_U+30FC 1
 62
     7
420
 16777215
370
     9
  0
POLYLINE
  5
AB
330
1F
100
AcDbEntity
  8
_U+30EC_U+30A4_U+30E4_U+30FC 1
 62
     7
420
 16777215
370
     9
100
AcDb2dPolyline
 66
     1
 10
0.0
 20
0.0
 30
0.0
  0
VERTEX
  5
AC
330
AB
100
AcDbEntity
  8
_U+30EC_U+30A4_U+30E4_U+30FC 1
 62
     7
420
 16777215
370
     9
100
AcDbVertex
100
AcDb2dVertex
 10
92.95556623961704
 20
-112.5409441385316
 30
0.0
  0
VERTEX
  5
AD
330
AB
100
AcDbEntity
  8
_U+30EC_U+30A4_U+30E4_U+30FC 1
 62
     7
420
 16777215
370
     9
100
AcDbVertex
100
AcDb2dVertex
 10
92.95556623961704
 20
-115.0010752490274
 30
0.0
  0
SEQEND
  5
AE
330
AB
100
AcDbEntity
  8
_U+30EC_U+30A4_U+30E4_U+30FC 1
 62
     7
420
 16777215
370
     9
  0
POLYLINE
  5
AF
330
1F
100
AcDbEntity
  8
_U+30EC_U+30A4_U+30E4_U+30FC 1
 62
     7
420
 16777215
370
     9
100
AcDb2dPolyline
 66
     1
 10
0.0
 20
0.0
 30
0.0
  0
VERTEX
  5
B0
330
AF
100
AcDbEntity
  8
_U+30EC_U+30A4_U+30E4_U+30FC 1
 62
     7
420
 16777215
370
     9
100
AcDbVertex
100
AcDb2dVertex
 10
81.85530791169711
 20
-139.6063021873204
 30
0.0
  0
VERTEX
  5
B1
330
AF
100
AcDbEntity
  8
_U+30EC_U+30A4_U+30E4_U+30FC 1
 62
     7
420
 16777215
370
     9
100
AcDbVertex
100
AcDb2dVertex
 10
81.85530791169711
 20
-116.1062574709735
 30
0.0
  0
SEQEND
  5
B2
330
AF
100
AcDbEntity
  8
_U+30EC_U+30A4_U+30E4_U+30FC 1
 62
     7
420
 16777215
370
     9
  0
POLYLINE
  5
B3
330
1F
100
AcDbEntity
  8
_U+30EC_U+30A4_U+30E4_U+30FC 1
 62
     7
420
 16777215
370
     9
100
AcDb2dPolyline
 66
     1
 10
0.0
 20
0.0
 30
0.0
  0
VERTEX
  5
B4
330
B3
100
AcDbEntity
  8
_U+30EC_U+30A4_U+30E4_U+30FC 1
 62
     7
420
 16777215
370
     9
100
AcDbVertex
100
AcDb2dVertex
 10
84.31508618227627
 20
-139.6063021873204
 30
0.0
  0
VERTEX
  5
B5
330
B3
100
AcDbEntity
  8
_U+30EC_U+30A4_U+30E4_U+30FC 1
 62
     7
420
 16777215
370
     9
100
AcDbVertex
100
AcDb2dVertex
 10
80.85553571498122
 20
-139.6063021873204
 30
0.0
  0
SEQEND
  5
B6
330
B3
100
AcDbEntity
  8
_U+30EC_U+30A4_U+30E4_U+30FC 1
 62
     7
420
 16777215
370
     9
  0
POLYLINE
  5
B7
330
1F
100
AcDbEntity
  8
_U+30EC_U+30A4_U+30E4_U+30FC 1
 62
     7
420
 16777215
370
     9
100
AcDb2dPolyline
 66
     1
 10
0.0
 20
0.0
 30
0.0
  0
VERTEX
  5
B8
330
B7
100
AcDbEntity
  8
_U+30EC_U+30A4_U+30E4_U+30FC 1
 62
     7
420
 16777215
370
     9
100
AcDbVertex
100
AcDb2dVertex
 10
83.31531398556037
 20
-116.1062574709735
 30
0.0
  0
VERTEX
  5
B9
330
B7
100
AcDbEntity
  8
_U+30EC_U+30A4_U+30E4_U+30FC 1
 62
     7
420
 16777215
370
     9
100
AcDbVertex
100
AcDb2dVertex
 10
80.85553571498122
 20
-116.1062574709735
 30
0.0
  0
SEQEND
  5
BA
330
B7
100
AcDbEntity
  8
_U+30EC_U+30A4_U+30E4_U+30FC 1
 62
     7
420
 16777215
370
     9
  0
INSERT
  5
BC
330
1F
100
AcDbEntity
  8
_U+30EC_U+30A4_U+30E4_U+30FC 1
100
AcDbBlockReference
  2
block 4
 10
0.0
 20
0.0
 30
0.0
  0
POLYLINE
  5
CD
330
1F
100
AcDbEntity
  8
_U+30EC_U+30A4_U+30E4_U+30FC 1
 62
     7
420
 16777215
370
     9
100
AcDb2dPolyline
 66
     1
 10
0.0
 20
0.0
 30
0.0
  0
VERTEX
  5
CE
330
CD
100
AcDbEntity
  8
_U+30EC_U+30A4_U+30E4_U+30FC 1
 62
     7
420
 16777215
370
     9
100
AcDbVertex
100
AcDb2dVertex
 10
102.2676646131567
 20
-138.605824409793
 30
0.0
  0
VERTEX
  5
CF
330
CD
100
AcDbEntity
  8
_U+30EC_U+30A4_U+30E4_U+30FC 1
 62
     7
420
 16777215
370
     9
100
AcDbVertex
100
AcDb2dVertex
 10
102.2676646131567
 20
-123.1060035803347
 30
0.0
  0
SEQEND
  5
D0
330
CD
100
AcDbEntity
  8
_U+30EC_U+30A4_U+30E4_U+30FC 1
 62
     7
420
 16777215
370
     9
  0
POLYLINE
  5
D1
330
1F
100
AcDbEntity
  8
_U+30EC_U+30A4_U+30E4_U+30FC 1
 62
     7
420
 16777215
370
     9
100
AcDb2dPolyline
 66
     1
 10
0.0
 20
0.0
 30
0.0
  0
VERTEX
  5
D2
330
D1
100
AcDbEntity
  8
_U+30EC_U+30A4_U+30E4_U+30FC 1
 62
     7
420
 16777215
370
     9
100
AcDbVertex
100
AcDb2dVertex
 10
95.80742172241571
 20
-138.605824409793
 30
0.0
  0
VERTEX
  5
D3
330
D1
100
AcDbEntity
  8
_U+30EC_U+30A4_U+30E4_U+30FC 1
 62
     7
420
 16777215
370
     9
100
AcDbVertex
100
AcDb2dVertex
 10
103.2674368098726
 20
-138.605824409793
 30
0.0
  0
SEQEND
  5
D4
330
D1
100
AcDbEntity
  8
_U+30EC_U+30A4_U+30E4_U+30FC 1
 62
     7
420
 16777215
370
     9
  0
POLYLINE
  5
D5
330
1F
100
AcDbEntity
  8
_U+30EC_U+30A4_U+30E4_U+30FC 1
 62
     7
420
 16777215
370
     9
100
AcDb2dPolyline
 66
     1
 10
0.0
 20
0.0
 30
0.0
  0
VERTEX
  5
D6
330
D5
100
AcDbEntity
  8
_U+30EC_U+30A4_U+30E4_U+30FC 1
 62
     7
420
 16777215
370
     9
100
AcDbVertex
100
AcDb2dVertex
 10
95.80742172241571
 20
-123.2059102469763
 30
0.0
  0
VERTEX
  5
D7
330
D5
100
AcDbEntity
  8
_U+30EC_U+30A4_U+30E4_U+30FC 1
 62
     7
420
 16777215
370
     9
100
AcDbVertex
100
AcDb2dVertex
 10
103.2674368098726
 20
-123.2059102469763
 30
0.0
  0
SEQEND
  5
D8
330
D5
100
AcDbEntity
  8
_U+30EC_U+30A4_U+30E4_U+30FC 1
 62
     7
420
 16777215
370
     9
  0
SPLINE
  5
D9
330
1F
100
AcDbEntity
  8
_U+30EC_U+30A4_U+30E4_U+30FC 1
 62
     7
420
 16777215
370
     9
100
AcDbSpline
210
0.0
220
0.0
230
1.0
 70
    11
 71
     3
 72
    17
 73
    13
 74
     0
 42
0.0000000001
 43
0.0000000001
 12
1.0
 22
0.0
 32
0.0
 13
1.0
 23
0.0
 33
0.0
 40
0.0
 40
0.0
 40
0.0
 40
0.0
 40
1.0
 40
1.0
 40
1.0
 40
2.0
 40
2.0
 40
2.0
 40
3.0
 40
3.0
 40
3.0
 40
4.0
 40
4.0
 40
4.0
 40
4.0
 10
102.3675712772746
 20
-122.1055610805848
 30
0.0
 10
102.3675712772746
 20
-122.0504219139317
 30
0.0
 10
102.3227685006398
 20
-122.0056544139432
 30
0.0
 10
102.2676646131567
 20
-122.0056544139432
 30
0.0
 10
102.2125254478968
 20
-122.0056544139432
 30
0.0
 10
102.1677579490389
 20
-122.0504219139317
 30
0.0
 10
102.1677579490389
 20
-122.1055610805848
 30
0.0
 10
102.1677579490389
 20
-122.1610177472375
 30
0.0
 10
102.2125254478968
 20
-122.2058205250042
 30
0.0
 10
102.2676646131567
 20
-122.2058205250042
 30
0.0
 10
102.3227685006398
 20
-122.2058205250042
 30
0.0
 10
102.3675712772746
 20
-122.1610177472375
 30
0.0
 10
102.3675712772746
 20
-122.1055610805848
 30
0.0
  0
POLYLINE
  5
DA
330
1F
100
AcDbEntity
  8
_U+30EC_U+30A4_U+30E4_U+30FC 1
 62
     7
420
 16777215
370
     9
100
AcDb2dPolyline
 66
     1
 10
0.0
 20
0.0
 30
0.0
  0
VERTEX
  5
DB
330
DA
100
AcDbEntity
  8
_U+30EC_U+30A4_U+30E4_U+30FC 1
 62
     7
420
 16777215
370
     9
100
AcDbVertex
100
AcDb2dVertex
 10
95.80742172241571
 20
-122.1055610805848
 30
0.0
  0
VERTEX
  5
DC
330
DA
100
AcDbEntity
  8
_U+30EC_U+30A4_U+30E4_U+30FC 1
 62
     7
420
 16777215
370
     9
100
AcDbVertex
100
AcDb2dVertex
 10
103.2674368098726
 20
-122.1055610805848
 30
0.0
  0
SEQEND
  5
DD
330
DA
100
AcDbEntity
  8
_U+30EC_U+30A4_U+30E4_U+30FC 1
 62
     7
420
 16777215
370
     9
  0
INSERT
  5
DF
330
1F
100
AcDbEntity
  8
_U+30EC_U+30A4_U+30E4_U+30FC 1
100
AcDbBlockReference
  2
block 5
 10
0.0
 20
0.0
 30
0.0
  0
POLYLINE
  5
F0
330
1F
100
AcDbEntity
  8
_U+30EC_U+30A4_U+30E4_U+30FC 1
 62
     7
420
 16777215
370
     9
100
AcDb2dPolyline
 66
     1
 10
0.0
 20
0.0
 30
0.0
  0
VERTEX
  5
F1
330
F0
100
AcDbEntity
  8
_U+30EC_U+30A4_U+30E4_U+30FC 1
 62
     7
420
 16777215
370
     9
100
AcDbVertex
100
AcDb2dVertex
 10
102.2676646131567
 20
-123.2059102469763
 30
0.0
  0
VERTEX
  5
F2
330
F0
100
AcDbEntity
  8
_U+30EC_U+30A4_U+30E4_U+30FC 1
 62
     7
420
 16777215
370
     9
100
AcDbVertex
100
AcDb2dVertex
 10
102.2676646131567
 20
-116.2058113598374
 30
0.0
  0
SEQEND
  5
F3
330
F0
100
AcDbEntity
  8
_U+30EC_U+30A4_U+30E4_U+30FC 1
 62
     7
420
 16777215
370
     9
  0
POLYLINE
  5
F4
330
1F
100
AcDbEntity
  8
_U+30EC_U+30A4_U+30E4_U+30FC 1
 62
     7
420
 16777215
370
     9
100
AcDb2dPolyline
 66
     1
 10
0.0
 20
0.0
 30
0.0
  0
VERTEX
  5
F5
330
F4
100
AcDbEntity
  8
_U+30EC_U+30A4_U+30E4_U+30FC 1
 62
     7
420
 16777215
370
     9
100
AcDbVertex
100
AcDb2dVertex
 10
95.80742172241571
 20
-116.2058113598374
 30
0.0
  0
VERTEX
  5
F6
330
F4
100
AcDbEntity
  8
_U+30EC_U+30A4_U+30E4_U+30FC 1
 62
     7
420
 16777215
370
     9
100
AcDbVertex
100
AcDb2dVertex
 10
103.2674368098726
 20
-116.2058113598374
 30
0.0
  0
SEQEND
  5
F7
330
F4
100
AcDbEntity
  8
_U+30EC_U+30A4_U+30E4_U+30FC 1
 62
     7
420
 16777215
370
     9
  0
INSERT
  5
F9
330
1F
100
AcDbEntity
  8
_U+30EC_U+30A4_U+30E4_U+30FC 1
100
AcDbBlockReference
  2
block 6
 10
0.0
 20
0.0
 30
0.0
  0
ENDSEC
  0
SECTION
  2
OBJECTS
  0
DICTIONARY
  5
C
330
0
100
AcDbDictionary
281
     1
  3
ACAD_GROUP
350
D
  3
ACAD_LAYOUT
350
1A
  3
ACAD_MATERIAL
350
3B
  3
ACAD_MLEADERSTYLE
350
100
  3
ACAD_MLINESTYLE
350
17
  3
ACAD_PLOTSETTINGS
350
19
  3
ACAD_PLOTSTYLENAME
350
E
  3
ACAD_TABLESTYLE
350
FF
  3
ACAD_VISUALSTYLE
350
2A
  0
SUN
  5
3F
330
29
100
AcDbSun
 90
        1
290
     0
 63
     7
421
 16777215
 40
1.0
291
     1
 91
  2455826
 92
 54000000
292
     0
 70
     2
 71
   256
280
     1
  0
DICTIONARY
  5
D
102
{ACAD_REACTORS
330
C
102
}
330
C
100
AcDbDictionary
281
     1
  0
DICTIONARY
  5
1A
102
{ACAD_REACTORS
330
C
102
}
330
C
100
AcDbDictionary
281
     1
  3
Layout1
350
1E
  3
Layout2
350
26
  3
Model
350
22
  0
DICTIONARY
  5
3B
102
{ACAD_REACTORS
330
C
102
}
330
C
100
AcDbDictionary
281
     1
  3
ByBlock
350
3D
  3
ByLayer
350
3C
  3
Global
350
3E
  0
DICTIONARY
  5
100
102
{ACAD_REACTORS
330
C
102
}
330
C
100
AcDbDictionary
281
     1
  0
DICTIONARY
  5
17
102
{ACAD_REACTORS
330
C
102
}
330
C
100
AcDbDictionary
281
     1
  3
Standard
350
18
  0
DICTIONARY
  5
19
102
{ACAD_REACTORS
330
C
102
}
330
C
100
AcDbDictionary
281
     1
  0
ACDBDICTIONARYWDFLT
  5
E
102
{ACAD_REACTORS
330
C
102
}
330
C
100
AcDbDictionary
281
     1
  3
Normal
350
F
100
AcDbDictionaryWithDefault
340
F
  0
DICTIONARY
  5
FF
102
{ACAD_REACTORS
330
C
102
}
330
C
100
AcDbDictionary
281
     1
  0
DICTIONARY
  5
2A
102
{ACAD_REACTORS
330
C
102
}
330
C
100
AcDbDictionary
281
     1
  3
2dWireframe
350
2F
  3
3D Hidden
350
31
  3
3dWireframe
350
30
  3
Basic
350
32
  3
Brighten
350
36
  3
ColorChange
350
3A
  3
Conceptual
350
34
  3
Dim
350
35
  3
Facepattern
350
39
  3
Flat
350
2B
  3
FlatWithEdges
350
2C
  3
Gouraud
350
2D
  3
GouraudWithEdges
350
2E
  3
Linepattern
350
38
  3
Realistic
350
33
  3
Thicken
350
37
  0
LAYOUT
  5
1E
102
{ACAD_REACTORS
330
1A
102
}
330
1A
100
AcDbPlotSettings
  1

  2
none_device
  4

  6

 40
0.0
 41
0.0
 42
0.0
 43
0.0
 44
0.0
 45
0.0
 46
0.0
 47
0.0
 48
0.0
 49
0.0
140
0.0
141
0.0
142
1.0
143
1.0
 70
   688
 72
     0
 73
     0
 74
     5
  7

 75
    16
 76
     0
 77
     2
 78
   300
147
1.0
148
0.0
149
0.0
100
AcDbLayout
  1
Layout1
 70
     1
 71
     1
 10
0.0
 20
0.0
 11
12.0
 21
9.0
 12
0.0
 22
0.0
 32
0.0
 14
1.000000000000000E+20
 24
1.000000000000000E+20
 34
1.000000000000000E+20
 15
-1.000000000000000E+20
 25
-1.000000000000000E+20
 35
-1.000000000000000E+20
146
0.0
 13
0.0
 23
0.0
 33
0.0
 16
1.0
 26
0.0
 36
0.0
 17
0.0
 27
1.0
 37
0.0
 76
     0
330
1B
  0
LAYOUT
  5
26
102
{ACAD_REACTORS
330
1A
102
}
330
1A
100
AcDbPlotSettings
  1

  2
none_device
  4

  6

 40
0.0
 41
0.0
 42
0.0
 43
0.0
 44
0.0
 45
0.0
 46
0.0
 47
0.0
 48
0.0
 49
0.0
140
0.0
141
0.0
142
1.0
143
1.0
 70
   688
 72
     0
 73
     0
 74
     5
  7

 75
    16
 76
     0
 77
     2
 78
   300
147
1.0
148
0.0
149
0.0
100
AcDbLayout
  1
Layout2
 70
     1
 71
     2
 10
0.0
 20
0.0
 11
0.0
 21
0.0
 12
0.0
 22
0.0
 32
0.0
 14
0.0
 24
0.0
 34
0.0
 15
0.0
 25
0.0
 35
0.0
146
0.0
 13
0.0
 23
0.0
 33
0.0
 16
1.0
 26
0.0
 36
0.0
 17
0.0
 27
1.0
 37
0.0
 76
     0
330
23
  0
LAYOUT
  5
22
102
{ACAD_REACTORS
330
1A
102
}
330
1A
100
AcDbPlotSettings
  1

  2
none_device
  4

  6

 40
0.0
 41
0.0
 42
0.0
 43
0.0
 44
0.0
 45
0.0
 46
0.0
 47
0.0
 48
0.0
 49
0.0
140
0.0
141
0.0
142
1.0
143
1.0
 70
  1712
 72
     0
 73
     0
 74
     0
  7

 75
     0
 76
     0
 77
     2
 78
   300
147
1.0
148
0.0
149
0.0
100
AcDbLayout
  1
Model
 70
     1
 71
     0
 10
0.0
 20
0.0
 11
12.0
 21
9.0
 12
0.0
 22
0.0
 32
0.0
 14
1.000000000000000E+20
 24
1.000000000000000E+20
 34
1.000000000000000E+20
 15
-1.000000000000000E+20
 25
-1.000000000000000E+20
 35
-1.000000000000000E+20
146
0.0
 13
0.0
 23
0.0
 33
0.0
 16
1.0
 26
0.0
 36
0.0
 17
0.0
 27
1.0
 37
0.0
 76
     0
330
1F
331
29
  0
MATERIAL
  5
3D
102
{ACAD_REACTORS
330
3B
102
}
330
3B
100
AcDbMaterial
  1
ByBlock
 72
     1
 94
      127
  0
MATERIAL
  5
3C
102
{ACAD_REACTORS
330
3B
102
}
330
3B
100
AcDbMaterial
  1
ByLayer
 72
     1
 94
      127
  0
MATERIAL
  5
3E
102
{ACAD_REACTORS
330
3B
102
}
330
3B
100
AcDbMaterial
  1
Global
 72
     1
 94
      127
  0
MLINESTYLE
  5
18
102
{ACAD_REACTORS
330
17
102
}
330
17
100
AcDbMlineStyle
  2
Standard
 70
     0
  3

 62
   256
 51
90.0
 52
90.0
 71
     2
 49
0.5
 62
   256
  6
BYLAYER
 49
-0.5
 62
   256
  6
BYLAYER
  0
ACDBPLACEHOLDER
  5
F
102
{ACAD_REACTORS
330
E
102
}
330
E
  0
VISUALSTYLE
  5
2F
102
{ACAD_REACTORS
330
2A
102
}
330
2A
100
AcDbVisualStyle
  2
2dWireframe
 70
     4
177
     2
291
     0
 71
     0
176
     1
 72
     2
176
     1
 73
     0
176
     1
 90
        0
176
     1
 40
-0.6
176
     1
 41
-30.0
176
     1
 62
     5
 63
     7
421
 16777215
176
     1
 74
     1
176
     1
 91
        4
176
     1
 64
     7
176
     1
 65
   257
176
     1
 75
     1
176
     1
175
     1
176
     1
 42
1.0
176
     1
 92
        0
176
     1
 66
   257
176
     1
 43
1.0
176
     1
 76
     1
176
     1
 77
     6
176
     1
 78
     2
176
     1
 67
     7
176
     1
 79
     5
176
     1
170
     0
176
     1
171
     0
176
     1
290
     0
176
     1
 93
        1
176
     1
 44
0.0
176
     1
173
     0
176
     1
  0
VISUALSTYLE
  5
31
102
{ACAD_REACTORS
330
2A
102
}
330
2A
100
AcDbVisualStyle
  2
3D Hidden
 70
     6
177
     2
291
     0
 71
     1
176
     1
 72
     2
176
     1
 73
     2
176
     1
 90
        0
176
     1
 40
-0.6
176
     1
 41
-30.0
176
     1
 62
     5
 63
     7
421
 16777215
176
     1
 74
     2
176
     1
 91
        2
176
     1
 64
     7
176
     1
 65
   257
176
     1
 75
     2
176
     1
175
     1
176
     1
 42
40.0
176
     1
 92
        0
176
     1
 66
   257
176
     1
 43
1.0
176
     1
 76
     1
176
     1
 77
     6
176
     1
 78
     2
176
     1
 67
     7
176
     1
 79
     3
176
     1
170
     0
176
     1
171
     0
176
     1
290
     0
176
     1
 93
        1
176
     1
 44
0.0
176
     1
173
     0
176
     1
  0
VISUALSTYLE
  5
30
102
{ACAD_REACTORS
330
2A
102
}
330
2A
100
AcDbVisualStyle
  2
3dWireframe
 70
     5
177
     2
291
     0
 71
     0
176
     1
 72
     2
176
     1
 73
     0
176
     1
 90
        0
176
     1
 40
-0.6
176
     1
 41
-30.0
176
     1
 62
     5
 63
     7
421
 16777215
176
     1
 74
     1
176
     1
 91
        4
176
     1
 64
     7
176
     1
 65
   257
176
     1
 75
     1
176
     1
175
     1
176
     1
 42
1.0
176
     1
 92
        0
176
     1
 66
   257
176
     1
 43
1.0
176
     1
 76
     1
176
     1
 77
     6
176
     1
 78
     2
176
     1
 67
     7
176
     1
 79
     5
176
     1
170
     0
176
     1
171
     0
176
     1
290
     0
176
     1
 93
        1
176
     1
 44
0.0
176
     1
173
     0
176
     1
  0
VISUALSTYLE
  5
32
102
{ACAD_REACTORS
330
2A
102
}
330
2A
100
AcDbVisualStyle
  2
Basic
 70
     7
177
     2
291
     1
 71
     1
176
     1
 72
     0
176
     1
 73
     1
176
     1
 90
        0
176
     1
 40
-0.6
176
     1
 41
-30.0
176
     1
 62
     5
 63
     7
421
 16777215
176
     1
 74
     0
176
     1
 91
        4
176
     1
 64
     7
176
     1
 65
   257
176
     1
 75
     1
176
     1
175
     1
176
     1
 42
1.0
176
     1
 92
        8
176
     1
 66
     7
176
     1
 43
1.0
176
     1
 76
     1
176
     1
 77
     6
176
     1
 78
     2
176
     1
 67
     7
176
     1
 79
     5
176
     1
170
     0
176
     1
171
     0
176
     1
290
     0
176
     1
 93
        1
176
     1
 44
0.0
176
     1
173
     0
176
     1
  0
VISUALSTYLE
  5
36
102
{ACAD_REACTORS
330
2A
102
}
330
2A
100
AcDbVisualStyle
  2
Brighten
 70
    12
177
     2
291
     1
 71
     2
176
     1
 72
     2
176
     1
 73
     0
176
     1
 90
        0
176
     1
 40
-0.6
176
     1
 41
-30.0
176
     1
 62
     5
 63
     7
421
 16777215
176
     1
 74
     1
176
     1
 91
        4
176
     1
 64
     7
176
     1
 65
   257
176
     1
 75
     1
176
     1
175
     1
176
     1
 42
1.0
176
     1
 92
        8
176
     1
 66
     7
176
     1
 43
1.0
176
     1
 76
     1
176
     1
 77
     6
176
     1
 78
     2
176
     1
 67
     7
176
     1
 79
     5
176
     1
170
     0
176
     1
171
     0
176
     1
290
     0
176
     1
 93
        1
176
     1
 44
50.0
176
     1
173
     0
176
     1
  0
VISUALSTYLE
  5
3A
102
{ACAD_REACTORS
330
2A
102
}
330
2A
100
AcDbVisualStyle
  2
ColorChange
 70
    16
177
     2
291
     1
 71
     2
176
     1
 72
     2
176
     1
 73
     3
176
     1
 90
        0
176
     1
 40
-0.6
176
     1
 41
-30.0
176
     1
 62
     5
 63
     8
421
  8421504
176
     1
 74
     1
176
     1
 91
        4
176
     1
 64
     7
176
     1
 65
   257
176
     1
 75
     1
176
     1
175
     1
176
     1
 42
1.0
176
     1
 92
        8
176
     1
 66
     8
424
  8421504
176
     1
 43
1.0
176
     1
 76
     1
176
     1
 77
     6
176
     1
 78
     2
176
     1
 67
     7
176
     1
 79
     5
176
     1
170
     0
176
     1
171
     0
176
     1
290
     0
176
     1
 93
        1
176
     1
 44
0.0
176
     1
173
     0
176
     1
  0
VISUALSTYLE
  5
34
102
{ACAD_REACTORS
330
2A
102
}
330
2A
100
AcDbVisualStyle
  2
Conceptual
 70
     9
177
     2
291
     0
 71
     3
176
     1
 72
     2
176
     1
 73
     0
176
     1
 90
        0
176
     1
 40
-0.6
176
     1
 41
-30.0
176
     1
 62
     5
 63
     7
421
 16777215
176
     1
 74
     2
176
     1
 91
        2
176
     1
 64
     7
176
     1
 65
   257
176
     1
 75
     1
176
     1
175
     1
176
     1
 42
40.0
176
     1
 92
        8
176
     1
 66
     7
176
     1
 43
1.0
176
     1
 76
     1
176
     1
 77
     6
176
     1
 78
     2
176
     1
 67
     7
176
     1
 79
     3
176
     1
170
     0
176
     1
171
     0
176
     1
290
     0
176
     1
 93
        1
176
     1
 44
0.0
176
     1
173
     0
176
     1
  0
VISUALSTYLE
  5
35
102
{ACAD_REACTORS
330
2A
102
}
330
2A
100
AcDbVisualStyle
  2
Dim
 70
    11
177
     2
291
     1
 71
     2
176
     1
 72
     2
176
     1
 73
     0
176
     1
 90
        0
176
     1
 40
-0.6
176
     1
 41
-30.0
176
     1
 62
     5
 63
     7
421
 16777215
176
     1
 74
     1
176
     1
 91
        4
176
     1
 64
     7
176
     1
 65
   257
176
     1
 75
     1
176
     1
175
     1
176
     1
 42
1.0
176
     1
 92
        8
176
     1
 66
     7
176
     1
 43
1.0
176
     1
 76
     1
176
     1
 77
     6
176
     1
 78
     2
176
     1
 67
     7
176
     1
 79
     5
176
     1
170
     0
176
     1
171
     0
176
     1
290
     0
176
     1
 93
        1
176
     1
 44
-50.0
176
     1
173
     0
176
     1
  0
VISUALSTYLE
  5
39
102
{ACAD_REACTORS
330
2A
102
}
330
2A
100
AcDbVisualStyle
  2
Facepattern
 70
    15
177
     2
291
     1
 71
     2
176
     1
 72
     2
176
     1
 73
     0
176
     1
 90
        0
176
     1
 40
-0.6
176
     1
 41
-30.0
176
     1
 62
     5
 63
     7
421
 16777215
176
     1
 74
     1
176
     1
 91
        4
176
     1
 64
     7
176
     1
 65
   257
176
     1
 75
     1
176
     1
175
     1
176
     1
 42
1.0
176
     1
 92
        8
176
     1
 66
     7
176
     1
 43
1.0
176
     1
 76
     1
176
     1
 77
     6
176
     1
 78
     2
176
     1
 67
     7
176
     1
 79
     5
176
     1
170
     0
176
     1
171
     0
176
     1
290
     0
176
     1
 93
        1
176
     1
 44
0.0
176
     1
173
     0
176
     1
  0
VISUALSTYLE
  5
2B
102
{ACAD_REACTORS
330
2A
102
}
330
2A
100
AcDbVisualStyle
  2
Flat
 70
     0
177
     2
291
     1
 71
     2
176
     1
 72
     1
176
     1
 73
     1
176
     1
 90
        2
176
     1
 40
-0.6
176
     1
 41
30.0
176
     1
 62
     5
 63
     7
421
 16777215
176
     1
 74
     0
176
     1
 91
        4
176
     1
 64
     7
176
     1
 65
   257
176
     1
 75
     1
176
     1
175
     1
176
     1
 42
1.0
176
     1
 92
        8
176
     1
 66
     7
176
     1
 43
1.0
176
     1
 76
     1
176
     1
 77
     6
176
     1
 78
     2
176
     1
 67
     7
176
     1
 79
     5
176
     1
170
     0
176
     1
171
     0
176
     1
290
     0
176
     1
 93
       13
176
     1
 44
0.0
176
     1
173
     0
176
     1
  0
VISUALSTYLE
  5
2C
102
{ACAD_REACTORS
330
2A
102
}
330
2A
100
AcDbVisualStyle
  2
FlatWithEdges
 70
     1
177
     2
291
     1
 71
     2
176
     1
 72
     1
176
     1
 73
     1
176
     1
 90
        2
176
     1
 40
-0.6
176
     1
 41
30.0
176
     1
 62
     5
 63
     7
421
 16777215
176
     1
 74
     1
176
     1
 91
        4
176
     1
 64
     7
176
     1
 65
   257
176
     1
 75
     1
176
     1
175
     1
176
     1
 42
1.0
176
     1
 92
        0
176
     1
 66
   257
176
     1
 43
1.0
176
     1
 76
     1
176
     1
 77
     6
176
     1
 78
     2
176
     1
 67
     7
176
     1
 79
     5
176
     1
170
     0
176
     1
171
     0
176
     1
290
     0
176
     1
 93
       13
176
     1
 44
0.0
176
     1
173
     0
176
     1
  0
VISUALSTYLE
  5
2D
102
{ACAD_REACTORS
330
2A
102
}
330
2A
100
AcDbVisualStyle
  2
Gouraud
 70
     2
177
     2
291
     1
 71
     2
176
     1
 72
     2
176
     1
 73
     1
176
     1
 90
        2
176
     1
 40
-0.6
176
     1
 41
30.0
176
     1
 62
     5
 63
     7
421
 16777215
176
     1
 74
     0
176
     1
 91
        4
176
     1
 64
     7
176
     1
 65
   257
176
     1
 75
     1
176
     1
175
     1
176
     1
 42
1.0
176
     1
 92
        0
176
     1
 66
     7
176
     1
 43
1.0
176
     1
 76
     1
176
     1
 77
     6
176
     1
 78
     2
176
     1
 67
     7
176
     1
 79
     5
176
     1
170
     0
176
     1
171
     0
176
     1
290
     0
176
     1
 93
       13
176
     1
 44
0.0
176
     1
173
     0
176
     1
  0
VISUALSTYLE
  5
2E
102
{ACAD_REACTORS
330
2A
102
}
330
2A
100
AcDbVisualStyle
  2
GouraudWithEdges
 70
     3
177
     2
291
     1
 71
     2
176
     1
 72
     2
176
     1
 73
     1
176
     1
 90
        2
176
     1
 40
-0.6
176
     1
 41
30.0
176
     1
 62
     5
 63
     7
421
 16777215
176
     1
 74
     1
176
     1
 91
        4
176
     1
 64
     7
176
     1
 65
   257
176
     1
 75
     1
176
     1
175
     1
176
     1
 42
1.0
176
     1
 92
        0
176
     1
 66
   257
176
     1
 43
1.0
176
     1
 76
     1
176
     1
 77
     6
176
     1
 78
     2
176
     1
 67
     7
176
     1
 79
     5
176
     1
170
     0
176
     1
171
     0
176
     1
290
     0
176
     1
 93
       13
176
     1
 44
0.0
176
     1
173
     0
176
     1
  0
VISUALSTYLE
  5
38
102
{ACAD_REACTORS
330
2A
102
}
330
2A
100
AcDbVisualStyle
  2
Linepattern
 70
    14
177
     2
291
     1
 71
     2
176
     1
 72
     2
176
     1
 73
     0
176
     1
 90
        0
176
     1
 40
-0.6
176
     1
 41
-30.0
176
     1
 62
     5
 63
     7
421
 16777215
176
     1
 74
     1
176
     1
 91
        4
176
     1
 64
     7
176
     1
 65
   257
176
     1
 75
     7
176
     1
175
     7
176
     1
 42
1.0
176
     1
 92
        8
176
     1
 66
     7
176
     1
 43
1.0
176
     1
 76
     1
176
     1
 77
     6
176
     1
 78
     2
176
     1
 67
     7
176
     1
 79
     5
176
     1
170
     0
176
     1
171
     0
176
     1
290
     0
176
     1
 93
        1
176
     1
 44
0.0
176
     1
173
     0
176
     1
  0
VISUALSTYLE
  5
33
102
{ACAD_REACTORS
330
2A
102
}
330
2A
100
AcDbVisualStyle
  2
Realistic
 70
     8
177
     2
291
     0
 71
     2
176
     1
 72
     2
176
     1
 73
     0
176
     1
 90
        0
176
     1
 40
-0.6
176
     1
 41
-30.0
176
     1
 62
     5
 63
     7
421
 16777215
176
     1
 74
     1
176
     1
 91
        0
176
     1
 64
     7
176
     1
 65
   257
176
     1
 75
     1
176
     1
175
     1
176
     1
 42
1.0
176
     1
 92
        8
176
     1
 66
     8
424
  7895160
176
     1
 43
1.0
176
     1
 76
     1
176
     1
 77
     6
176
     1
 78
     2
176
     1
 67
     7
176
     1
 79
     5
176
     1
170
     0
176
     1
171
     0
176
     1
290
     0
176
     1
 93
       13
176
     1
 44
0.0
176
     1
173
     0
176
     1
  0
VISUALSTYLE
  5
37
102
{ACAD_REACTORS
330
2A
102
}
330
2A
100
AcDbVisualStyle
  2
Thicken
 70
    13
177
     2
291
     1
 71
     2
176
     1
 72
     2
176
     1
 73
     0
176
     1
 90
        0
176
     1
 40
-0.6
176
     1
 41
-30.0
176
     1
 62
     5
 63
     7
421
 16777215
176
     1
 74
     1
176
     1
 91
        4
176
     1
 64
     7
176
     1
 65
   257
176
     1
 75
     1
176
     1
175
     1
176
     1
 42
1.0
176
     1
 92
       12
176
     1
 66
     7
176
     1
 43
1.0
176
     1
 76
     1
176
     1
 77
     6
176
     1
 78
     2
176
     1
 67
     7
176
     1
 79
     5
176
     1
170
     0
176
     1
171
     0
176
     1
290
     0
176
     1
 93
        1
176
     1
 44
0.0
176
     1
173
     0
176
     1
  0
ENDSEC
  0
EOF
