  0
SECTION
  2
HEADER
  9
$ACADVER
  1
AC1024
  9
$ACADMAINTVER
 70
     6
  9
$DWGCODEPAGE
  3
UNDEFINED
  9
$INSBASE
 10
0.0
 20
0.0
 30
0.0
  9
$EXTMIN
 10
1.000000000000000E+20
 20
1.000000000000000E+20
 30
1.000000000000000E+20
  9
$EXTMAX
 10
-1.000000000000000E+20
 20
-1.000000000000000E+20
 30
-1.000000000000000E+20
  9
$LIMMIN
 10
0.0
 20
0.0
  9
$LIMMAX
 10
12.0
 20
9.0
  9
$ORTHOMODE
 70
     0
  9
$REGENMODE
 70
     1
  9
$FILLMODE
 70
     1
  9
$QTEXTMODE
 70
     0
  9
$MIRRTEXT
 70
     1
  9
$LTSCALE
 40
1.0
  9
$ATTMODE
 70
     1
  9
$TEXTSIZE
 40
0.2
  9
$TRACEWID
 40
0.05
  9
$TEXTSTYLE
  7
Standard
  9
$CLAYER
  8
0
  9
$CELTYPE
  6
ByLayer
  9
$CECOLOR
 62
   256
  9
$CELTSCALE
 40
1.0
  9
$DISPSILH
 70
     0
  9
$DIMSCALE
 40
1.0
  9
$DIMASZ
 40
0.18
  9
$DIMEXO
 40
0.0625
  9
$DIMDLI
 40
0.38
  9
$DIMRND
 40
0.0
  9
$DIMDLE
 40
0.0
  9
$DIMEXE
 40
0.18
  9
$DIMTP
 40
0.0
  9
$DIMTM
 40
0.0
  9
$DIMTXT
 40
0.18
  9
$DIMCEN
 40
0.09
  9
$DIMTSZ
 40
0.0
  9
$DIMTOL
 70
     0
  9
$DIMLIM
 70
     0
  9
$DIMTIH
 70
     1
  9
$DIMTOH
 70
     1
  9
$DIMSE1
 70
     0
  9
$DIMSE2
 70
     0
  9
$DIMTAD
 70
     0
  9
$DIMZIN
 70
     0
  9
$DIMBLK
  1

  9
$DIMASO
 70
     1
  9
$DIMSHO
 70
     1
  9
$DIMPOST
  1

  9
$DIMAPOST
  1

  9
$DIMALT
 70
     0
  9
$DIMALTD
 70
     2
  9
$DIMALTF
 40
25.4
  9
$DIMLFAC
 40
1.0
  9
$DIMTOFL
 70
     0
  9
$DIMTVP
 40
0.0
  9
$DIMTIX
 70
     0
  9
$DIMSOXD
 70
     0
  9
$DIMSAH
 70
     0
  9
$DIMBLK1
  1

  9
$DIMBLK2
  1

  9
$DIMSTYLE
  2
Standard
  9
$DIMCLRD
 70
     0
  9
$DIMCLRE
 70
     0
  9
$DIMCLRT
 70
     0
  9
$DIMTFAC
 40
1.0
  9
$DIMGAP
 40
0.09
  9
$DIMJUST
 70
     0
  9
$DIMSD1
 70
     0
  9
$DIMSD2
 70
     0
  9
$DIMTOLJ
 70
     1
  9
$DIMTZIN
 70
     0
  9
$DIMALTZ
 70
     0
  9
$DIMALTTZ
 70
     0
  9
$DIMUPT
 70
     0
  9
$DIMDEC
 70
     4
  9
$DIMTDEC
 70
     4
  9
$DIMALTU
 70
     2
  9
$DIMALTTD
 70
     2
  9
$DIMTXSTY
  7
Standard
  9
$DIMAUNIT
 70
     0
  9
$DIMADEC
 70
     0
  9
$DIMALTRND
 40
0.0
  9
$DIMAZIN
 70
     0
  9
$DIMDSEP
 70
    46
  9
$DIMATFIT
 70
     3
  9
$DIMFRAC
 70
     0
  9
$DIMLDRBLK
  1

  9
$DIMLUNIT
 70
     2
  9
$DIMLWD
 70
    -2
  9
$DIMLWE
 70
    -2
  9
$DIMTMOVE
 70
     0
  9
$DIMFXL
 40
1.0
  9
$DIMFXLON
 70
     0
  9
$DIMJOGANG
 40
0.7853981633974483
  9
$DIMTFILL
 70
     0
  9
$DIMTFILLCLR
 70
     0
  9
$DIMARCSYM
 70
     0
  9
$DIMLTYPE
  6

  9
$DIMLTEX1
  6

  9
$DIMLTEX2
  6

  9
$DIMTXTDIRECTION
 70
     0
  9
$LUNITS
 70
     2
  9
$LUPREC
 70
     4
  9
$SKETCHINC
 40
0.1
  9
$FILLETRAD
 40
0.5
  9
$AUNITS
 70
     0
  9
$AUPREC
 70
     0
  9
$MENU
  1
.
  9
$ELEVATION
 40
0.0
  9
$PELEVATION
 40
0.0
  9
$THICKNESS
 40
0.0
  9
$LIMCHECK
 70
     0
  9
$CHAMFERA
 40
0.5
  9
$CHAMFERB
 40
0.5
  9
$CHAMFERC
 40
1.0
  9
$CHAMFERD
 40
0.0
  9
$SKPOLY
 70
     0
  9
$TDCREATE
 40
2457917.59523147
  9
$TDUCREATE
 40
2457917.220231481
  9
$TDUPDATE
 40
2457917.59523147
  9
$TDUUPDATE
 40
2457917.220231481
  9
$TDINDWG
 40
0.0000000116
  9
$TDUSRTIMER
 40
0.0000000116
  9
$USRTIMER
 70
     1
  9
$ANGBASE
 50
0.0
  9
$ANGDIR
 70
     0
  9
$PDMODE
 70
     0
  9
$PDSIZE
 40
0.0
  9
$PLINEWID
 40
0.0
  9
$SPLFRAME
 70
     0
  9
$SPLINETYPE
 70
     6
  9
$SPLINESEGS
 70
     8
  9
$HANDSEED
  5
DF
  9
$SURFTAB1
 70
     6
  9
$SURFTAB2
 70
     6
  9
$SURFTYPE
 70
     6
  9
$SURFU
 70
     6
  9
$SURFV
 70
     6
  9
$UCSBASE
  2

  9
$UCSNAME
  2

  9
$UCSORG
 10
0.0
 20
0.0
 30
0.0
  9
$UCSXDIR
 10
1.0
 20
0.0
 30
0.0
  9
$UCSYDIR
 10
0.0
 20
1.0
 30
0.0
  9
$UCSORTHOREF
  2

  9
$UCSORTHOVIEW
 70
     0
  9
$UCSORGTOP
 10
0.0
 20
0.0
 30
0.0
  9
$UCSORGBOTTOM
 10
0.0
 20
0.0
 30
0.0
  9
$UCSORGLEFT
 10
0.0
 20
0.0
 30
0.0
  9
$UCSORGRIGHT
 10
0.0
 20
0.0
 30
0.0
  9
$UCSORGFRONT
 10
0.0
 20
0.0
 30
0.0
  9
$UCSORGBACK
 10
0.0
 20
0.0
 30
0.0
  9
$PUCSBASE
  2

  9
$PUCSNAME
  2

  9
$PUCSORG
 10
0.0
 20
0.0
 30
0.0
  9
$PUCSXDIR
 10
1.0
 20
0.0
 30
0.0
  9
$PUCSYDIR
 10
0.0
 20
1.0
 30
0.0
  9
$PUCSORTHOREF
  2

  9
$PUCSORTHOVIEW
 70
     0
  9
$PUCSORGTOP
 10
0.0
 20
0.0
 30
0.0
  9
$PUCSORGBOTTOM
 10
0.0
 20
0.0
 30
0.0
  9
$PUCSORGLEFT
 10
0.0
 20
0.0
 30
0.0
  9
$PUCSORGRIGHT
 10
0.0
 20
0.0
 30
0.0
  9
$PUCSORGFRONT
 10
0.0
 20
0.0
 30
0.0
  9
$PUCSORGBACK
 10
0.0
 20
0.0
 30
0.0
  9
$USERI1
 70
     0
  9
$USERI2
 70
     0
  9
$USERI3
 70
     0
  9
$USERI4
 70
     0
  9
$USERI5
 70
     0
  9
$USERR1
 40
0.0
  9
$USERR2
 40
0.0
  9
$USERR3
 40
0.0
  9
$USERR4
 40
0.0
  9
$USERR5
 40
0.0
  9
$WORLDVIEW
 70
     1
  9
$SHADEDGE
 70
     3
  9
$SHADEDIF
 70
    70
  9
$TILEMODE
 70
     1
  9
$MAXACTVP
 70
    64
  9
$PINSBASE
 10
0.0
 20
0.0
 30
0.0
  9
$PLIMCHECK
 70
     0
  9
$PEXTMIN
 10
1.000000000000000E+20
 20
1.000000000000000E+20
 30
1.000000000000000E+20
  9
$PEXTMAX
 10
-1.000000000000000E+20
 20
-1.000000000000000E+20
 30
-1.000000000000000E+20
  9
$PLIMMIN
 10
0.0
 20
0.0
  9
$PLIMMAX
 10
12.0
 20
9.0
  9
$UNITMODE
 70
     0
  9
$VISRETAIN
 70
     1
  9
$PLINEGEN
 70
     0
  9
$PSLTSCALE
 70
     1
  9
$TREEDEPTH
 70
  3020
  9
$CMLSTYLE
  2
Standard
  9
$CMLJUST
 70
     0
  9
$CMLSCALE
 40
1.0
  9
$PROXYGRAPHICS
 70
     1
  9
$MEASUREMENT
 70
     0
  9
$CELWEIGHT
370
    -1
  9
$ENDCAPS
280
     0
  9
$JOINSTYLE
280
     0
  9
$LWDISPLAY
290
     1
  9
$INSUNITS
 70
     1
  9
$HYPERLINKBASE
  1

  9
$STYLESHEET
  1

  9
$XEDIT
290
     1
  9
$CEPSNTYPE
380
     0
  9
$PSTYLEMODE
290
     1
  9
$FINGERPRINTGUID
  2
{8E5AB36B-0B3C-4633-B167-F03649F6D9EF}
  9
$VERSIONGUID
  2
{FAEB1C32-E019-11D5-929B-00C0DF256EC4}
  9
$EXTNAMES
290
     1
  9
$PSVPSCALE
 40
0.0
  9
$OLESTARTUP
290
     0
  9
$SORTENTS
280
   127
  9
$INDEXCTL
280
     0
  9
$HIDETEXT
280
     1
  9
$XCLIPFRAME
280
     2
  9
$HALOGAP
280
     0
  9
$OBSCOLOR
 70
   257
  9
$OBSLTYPE
280
     0
  9
$INTERSECTIONDISPLAY
280
     0
  9
$INTERSECTIONCOLOR
 70
   257
  9
$DIMASSOC
280
     2
  9
$PROJECTNAME
  1

  9
$CAMERADISPLAY
290
     0
  9
$LENSLENGTH
 40
50.0
  9
$CAMERAHEIGHT
 40
0.0
  9
$STEPSPERSEC
 40
2.0
  9
$STEPSIZE
 40
6.0
  9
$3DDWFPREC
 40
2.0
  9
$PSOLWIDTH
 40
0.25
  9
$PSOLHEIGHT
 40
4.0
  9
$LOFTANG1
 40
1.570796326794897
  9
$LOFTANG2
 40
1.570796326794897
  9
$LOFTMAG1
 40
0.0
  9
$LOFTMAG2
 40
0.0
  9
$LOFTPARAM
 70
     7
  9
$LOFTNORMALS
280
     1
  9
$LATITUDE
 40
37.795
  9
$LONGITUDE
 40
-122.394
  9
$NORTHDIRECTION
 40
0.0
  9
$TIMEZONE
 70
 -8000
  9
$LIGHTGLYPHDISPLAY
280
     1
  9
$TILEMODELIGHTSYNCH
280
     1
  9
$CMATERIAL
347
3C
  9
$SOLIDHIST
280
     1
  9
$SHOWHIST
280
     1
  9
$DWFFRAME
280
     2
  9
$DGNFRAME
280
     2
  9
$REALWORLDSCALE
290
     1
  9
$INTERFERECOLOR
 62
   256
  9
$CSHADOW
280
     0
  9
$SHADOWPLANELOCATION
 40
0.0
  0
ENDSEC
  0
SECTION
  2
CLASSES
  0
CLASS
  1
ACDBDICTIONARYWDFLT
  2
AcDbDictionaryWithDefault
  3
ObjectDBX Classes
 90
        0
 91
        4
280
     0
281
     0
  0
CLASS
  1
VISUALSTYLE
  2
AcDbVisualStyle
  3
ObjectDBX Classes
 90
     4095
 91
        4
280
     0
281
     0
  0
CLASS
  1
MATERIAL
  2
AcDbMaterial
  3
ObjectDBX Classes
 90
     1153
 91
        4
280
     0
281
     0
  0
CLASS
  1
SUN
  2
AcDbSun
  3
SCENEOE
 90
     1024
 91
        4
280
     0
281
     0
  0
ENDSEC
  0
SECTION
  2
TABLES
  0
TABLE
  2
VPORT
  5
8
330
0
100
AcDbSymbolTable
 70
     1
  0
VPORT
  5
29
330
8
100
AcDbSymbolTableRecord
100
AcDbViewportTableRecord
  2
*Active
 70
     0
 10
0.0
 20
0.0
 11
1.0
 21
1.0
 12
0.0
 22
0.0
 13
0.0
 23
0.0
 14
0.5
 24
0.5
 15
0.5
 25
0.5
 16
0.0
 26
0.0
 36
1.0
 17
91.00082462281999
 27
-128.4993055234307
 37
0.0
 40
256.9986110468615
 41
0.7081814508812795
 42
50.0
 43
0.0
 44
0.0
 50
0.0
 51
0.0
 71
     0
 72
   100
 73
     1
 74
     3
 75
     0
 76
     0
 77
     0
 78
     0
281
     0
 65
     1
110
0.0
120
0.0
130
0.0
111
1.0
121
0.0
131
0.0
112
0.0
122
1.0
132
0.0
 79
     0
146
0.0
 60
     3
 61
     5
292
     1
282
     1
141
0.0
142
0.0
 63
   250
361
3F
  0
ENDTAB
  0
TABLE
  2
LTYPE
  5
5
330
0
100
AcDbSymbolTable
 70
     1
  0
LTYPE
  5
14
330
5
100
AcDbSymbolTableRecord
100
AcDbLinetypeTableRecord
  2
ByBlock
 70
     0
  3

 72
    65
 73
     0
 40
0.0
  0
LTYPE
  5
15
330
5
100
AcDbSymbolTableRecord
100
AcDbLinetypeTableRecord
  2
ByLayer
 70
     0
  3

 72
    65
 73
     0
 40
0.0
  0
LTYPE
  5
16
330
5
100
AcDbSymbolTableRecord
100
AcDbLinetypeTableRecord
  2
Continuous
 70
     0
  3
Solid line
 72
    65
 73
     0
 40
0.0
  0
ENDTAB
  0
TABLE
  2
LAYER
  5
2
330
0
100
AcDbSymbolTable
 70
     2
  0
LAYER
  5
10
330
2
100
AcDbSymbolTableRecord
100
AcDbLayerTableRecord
  2
0
 70
     0
 62
     7
  6
Continuous
370
    -3
390
F
347
3E
  0
LAYER
  5
40
330
2
100
AcDbSymbolTableRecord
100
AcDbLayerTableRecord
  2
_U+30EC_U+30A4_U+30E4_U+30FC 1
 70
     0
 62
     7
  6
Continuous
370
    -3
390
F
347
3E
  0
ENDTAB
  0
TABLE
  2
STYLE
  5
3
330
0
100
AcDbSymbolTable
 70
     1
  0
STYLE
  5
11
330
3
100
AcDbSymbolTableRecord
100
AcDbTextStyleTableRecord
  2
Standard
 70
     0
 40
0.0
 41
1.0
 50
0.0
 71
     0
 42
0.2
  3
txt
  4

  0
ENDTAB
  0
TABLE
  2
VIEW
  5
6
330
0
100
AcDbSymbolTable
 70
     0
  0
ENDTAB
  0
TABLE
  2
UCS
  5
7
330
0
100
AcDbSymbolTable
 70
     0
  0
ENDTAB
  0
TABLE
  2
APPID
  5
9
330
0
100
AcDbSymbolTable
 70
     1
  0
APPID
  5
12
330
9
100
AcDbSymbolTableRecord
100
AcDbRegAppTableRecord
  2
ACAD
 70
     0
  0
ENDTAB
  0
TABLE
  2
DIMSTYLE
  5
A
330
0
100
AcDbSymbolTable
 70
     1
100
AcDbDimStyleTable
  0
DIMSTYLE
105
27
330
A
100
AcDbSymbolTableRecord
100
AcDbDimStyleTableRecord
  2
Standard
 70
     0
178
     0
340
11
  0
ENDTAB
  0
TABLE
  2
BLOCK_RECORD
  5
1
330
0
100
AcDbSymbolTable
 70
     7
  0
BLOCK_RECORD
  5
1F
330
1
100
AcDbSymbolTableRecord
100
AcDbBlockTableRecord
  2
*Model_Space
340
22
 70
     0
280
     1
281
     0
  0
BLOCK_RECORD
  5
1B
330
1
100
AcDbSymbolTableRecord
100
AcDbBlockTableRecord
  2
*Paper_Space
340
1E
 70
     0
280
     1
281
     0
  0
BLOCK_RECORD
  5
23
330
1
100
AcDbSymbolTableRecord
100
AcDbBlockTableRecord
  2
*Paper_Space0
340
26
 70
     0
280
     1
281
     0
  0
BLOCK_RECORD
  5
4F
330
1
100
AcDbSymbolTableRecord
100
AcDbBlockTableRecord
  2
block 2
340
0
102
{BLKREFS
331
50
102
}
 70
     0
280
     1
281
     0
  0
BLOCK_RECORD
  5
78
330
1
100
AcDbSymbolTableRecord
100
AcDbBlockTableRecord
  2
block 3
340
0
102
{BLKREFS
331
79
102
}
 70
     0
280
     1
281
     0
  0
BLOCK_RECORD
  5
8D
330
1
100
AcDbSymbolTableRecord
100
AcDbBlockTableRecord
  2
block 4
340
0
102
{BLKREFS
331
8E
102
}
 70
     0
280
     1
281
     0
  0
BLOCK_RECORD
  5
B3
330
1
100
AcDbSymbolTableRecord
100
AcDbBlockTableRecord
  2
block 5
340
0
102
{BLKREFS
331
B4
102
}
 70
     0
280
     1
281
     0
  0
BLOCK_RECORD
  5
CB
330
1
100
AcDbSymbolTableRecord
100
AcDbBlockTableRecord
  2
block 6
340
0
102
{BLKREFS
331
CC
102
}
 70
     0
280
     1
281
     0
  0
BLOCK_RECORD
  5
D7
330
1
100
AcDbSymbolTableRecord
100
AcDbBlockTableRecord
  2
block 7
340
0
102
{BLKREFS
331
D8
102
}
 70
     0
280
     1
281
     0
  0
ENDTAB
  0
ENDSEC
  0
SECTION
  2
BLOCKS
  0
BLOCK
  5
20
330
1F
100
AcDbEntity
  8
0
100
AcDbBlockBegin
  2
*Model_Space
 70
     0
 10
0.0
 20
0.0
 30
0.0
  3
*Model_Space
  1

  0
ENDBLK
  5
21
330
1F
100
AcDbEntity
  8
0
100
AcDbBlockEnd
  0
BLOCK
  5
1C
330
1B
100
AcDbEntity
 67
     1
  8
0
100
AcDbBlockBegin
  2
*Paper_Space
 70
     0
 10
0.0
 20
0.0
 30
0.0
  3
*Paper_Space
  1

  0
ENDBLK
  5
1D
330
1B
100
AcDbEntity
 67
     1
  8
0
100
AcDbBlockEnd
  0
BLOCK
  5
24
330
23
100
AcDbEntity
  8
0
100
AcDbBlockBegin
  2
*Paper_Space0
 70
     0
 10
0.0
 20
0.0
 30
0.0
  3
*Paper_Space0
  1

  0
ENDBLK
  5
25
330
23
100
AcDbEntity
  8
0
100
AcDbBlockEnd
  0
BLOCK
  5
51
330
4F
100
AcDbEntity
  8
0
100
AcDbBlockBegin
  2
block 2
 70
     0
 10
0.0
 20
0.0
 30
0.0
  3
block 2
  1

  0
SPLINE
  5
53
330
4F
100
AcDbEntity
  8
_U+30EC_U+30A4_U+30E4_U+30FC 1
370
     0
100
AcDbSpline
210
0.0
220
0.0
230
1.0
 70
    11
 71
     3
 72
    26
 73
    22
 74
     0
 42
0.0000000001
 43
0.0000000001
 12
1.0
 22
0.0
 32
0.0
 13
1.0
 23
0.0
 33
0.0
 40
0.0
 40
0.0
 40
0.0
 40
0.0
 40
1.0
 40
1.0
 40
1.0
 40
2.0
 40
2.0
 40
2.0
 40
3.0
 40
3.0
 40
3.0
 40
4.0
 40
4.0
 40
4.0
 40
5.0
 40
5.0
 40
5.0
 40
6.0
 40
6.0
 40
6.0
 40
7.0
 40
7.0
 40
7.0
 40
7.0
 10
92.32752547605007
 20
-137.4286485116498
 30
0.0
 10
92.32752547605007
 20
-137.4286485116498
 30
0.0
 10
92.32752547605007
 20
-136.3244954086272
 30
0.0
 10
92.32752547605007
 20
-136.3244954086272
 30
0.0
 10
92.32752547605007
 20
-136.3244954086272
 30
0.0
 10
91.97509220790901
 20
-136.3244954086272
 30
0.0
 10
91.97509220790901
 20
-136.3244954086272
 30
0.0
 10
91.97509220790901
 20
-136.3244954086272
 30
0.0
 10
91.97509220790901
 20
-136.1763563027615
 30
0.0
 10
91.97509220790901
 20
-136.1763563027615
 30
0.0
 10
92.32993704288974
 20
-136.1615423921749
 30
0.0
 10
92.37954641787734
 20
-135.9985893757226
 30
0.0
 10
92.41124129634164
 20
-135.8842122056123
 30
0.0
 10
92.41124129634164
 20
-135.8842122056123
 30
0.0
 10
92.56730412182345
 20
-135.8842122056123
 30
0.0
 10
92.56730412182345
 20
-135.8842122056123
 30
0.0
 10
92.56730412182345
 20
-135.8842122056123
 30
0.0
 10
92.56730412182345
 20
-137.4286485116498
 30
0.0
 10
92.56730412182345
 20
-137.4286485116498
 30
0.0
 10
92.56730412182345
 20
-137.4286485116498
 30
0.0
 10
92.32752547605007
 20
-137.4286485116498
 30
0.0
 10
92.32752547605007
 20
-137.4286485116498
 30
0.0
  0
HATCH
  5
54
330
4F
100
AcDbEntity
  8
_U+30EC_U+30A4_U+30E4_U+30FC 1
 62
     7
420
 16777215
100
AcDbHatch
 10
0.0
 20
0.0
 30
0.0
210
0.0
220
0.0
230
1.0
  2
SOLID
 70
     1
 71
     0
 91
        1
 92
        1
 93
        1
 72
     4
 94
        3
 73
     0
 74
     1
 95
       26
 96
       22
 40
0.0
 40
0.0
 40
0.0
 40
0.0
 40
1.0
 40
1.0
 40
1.0
 40
2.0
 40
2.0
 40
2.0
 40
3.0
 40
3.0
 40
3.0
 40
4.0
 40
4.0
 40
4.0
 40
5.0
 40
5.0
 40
5.0
 40
6.0
 40
6.0
 40
6.0
 40
7.0
 40
7.0
 40
7.0
 40
7.0
 10
92.32752547605007
 20
-137.4286485116498
 10
92.32752547605007
 20
-137.4286485116498
 10
92.32752547605007
 20
-136.3244954086272
 10
92.32752547605007
 20
-136.3244954086272
 10
92.32752547605007
 20
-136.3244954086272
 10
91.97509220790901
 20
-136.3244954086272
 10
91.97509220790901
 20
-136.3244954086272
 10
91.97509220790901
 20
-136.3244954086272
 10
91.97509220790901
 20
-136.1763563027615
 10
91.97509220790901
 20
-136.1763563027615
 10
92.32993704288974
 20
-136.1615423921749
 10
92.37954641787734
 20
-135.9985893757226
 10
92.41124129634164
 20
-135.8842122056123
 10
92.41124129634164
 20
-135.8842122056123
 10
92.56730412182345
 20
-135.8842122056123
 10
92.56730412182345
 20
-135.8842122056123
 10
92.56730412182345
 20
-135.8842122056123
 10
92.56730412182345
 20
-137.4286485116498
 10
92.56730412182345
 20
-137.4286485116498
 10
92.56730412182345
 20
-137.4286485116498
 10
92.32752547605007
 20
-137.4286485116498
 10
92.32752547605007
 20
-137.4286485116498
 97
        0
 97
        0
 75
     2
 76
     1
 98
        0
  0
POLYLINE
  5
55
330
4F
100
AcDbEntity
  8
_U+30EC_U+30A4_U+30E4_U+30FC 1
370
     0
100
AcDb2dPolyline
 66
     1
 10
0.0
 20
0.0
 30
0.0
  0
VERTEX
  5
56
330
55
100
AcDbEntity
  8
_U+30EC_U+30A4_U+30E4_U+30FC 1
370
     0
100
AcDbVertex
100
AcDb2dVertex
 10
93.99254012407131
 20
-137.0817273962851
 30
0.0
  0
VERTEX
  5
57
330
55
100
AcDbEntity
  8
_U+30EC_U+30A4_U+30E4_U+30FC 1
370
     0
100
AcDbVertex
100
AcDb2dVertex
 10
93.99254012407131
 20
-137.4286485116498
 30
0.0
  0
VERTEX
  5
58
330
55
100
AcDbEntity
  8
_U+30EC_U+30A4_U+30E4_U+30FC 1
370
     0
100
AcDbVertex
100
AcDb2dVertex
 10
93.75965166926842
 20
-137.4286485116498
 30
0.0
  0
VERTEX
  5
59
330
55
100
AcDbEntity
  8
_U+30EC_U+30A4_U+30E4_U+30FC 1
370
     0
100
AcDbVertex
100
AcDb2dVertex
 10
93.75965166926842
 20
-137.0817273962851
 30
0.0
  0
VERTEX
  5
5A
330
55
100
AcDbEntity
  8
_U+30EC_U+30A4_U+30E4_U+30FC 1
370
     0
100
AcDbVertex
100
AcDb2dVertex
 10
93.05857473802008
 20
-137.0817273962851
 30
0.0
  0
VERTEX
  5
5B
330
55
100
AcDbEntity
  8
_U+30EC_U+30A4_U+30E4_U+30FC 1
370
     0
100
AcDbVertex
100
AcDb2dVertex
 10
93.05857473802008
 20
-136.8574516801954
 30
0.0
  0
VERTEX
  5
5C
330
55
100
AcDbEntity
  8
_U+30EC_U+30A4_U+30E4_U+30FC 1
370
     0
100
AcDbVertex
100
AcDb2dVertex
 10
93.78445635676222
 20
-135.8842122056123
 30
0.0
  0
VERTEX
  5
5D
330
55
100
AcDbEntity
  8
_U+30EC_U+30A4_U+30E4_U+30FC 1
370
     0
100
AcDbVertex
100
AcDb2dVertex
 10
93.99254012407131
 20
-135.8842122056123
 30
0.0
  0
VERTEX
  5
5E
330
55
100
AcDbEntity
  8
_U+30EC_U+30A4_U+30E4_U+30FC 1
370
     0
100
AcDbVertex
100
AcDb2dVertex
 10
93.99254012407131
 20
-136.8829453867862
 30
0.0
  0
VERTEX
  5
5F
330
55
100
AcDbEntity
  8
_U+30EC_U+30A4_U+30E4_U+30FC 1
370
     0
100
AcDbVertex
100
AcDb2dVertex
 10
94.21405976377288
 20
-136.8829453867862
 30
0.0
  0
VERTEX
  5
60
330
55
100
AcDbEntity
  8
_U+30EC_U+30A4_U+30E4_U+30FC 1
370
     0
100
AcDbVertex
100
AcDb2dVertex
 10
94.21405976377288
 20
-137.0817273962851
 30
0.0
  0
VERTEX
  5
61
330
55
100
AcDbEntity
  8
_U+30EC_U+30A4_U+30E4_U+30FC 1
370
     0
100
AcDbVertex
100
AcDb2dVertex
 10
93.99254012407131
 20
-137.0817273962851
 30
0.0
  0
SEQEND
  5
62
330
55
100
AcDbEntity
  8
_U+30EC_U+30A4_U+30E4_U+30FC 1
370
     0
  0
POLYLINE
  5
63
330
4F
100
AcDbEntity
  8
_U+30EC_U+30A4_U+30E4_U+30FC 1
370
     0
100
AcDb2dPolyline
 66
     1
 10
0.0
 20
0.0
 30
0.0
  0
VERTEX
  5
64
330
63
100
AcDbEntity
  8
_U+30EC_U+30A4_U+30E4_U+30FC 1
370
     0
100
AcDbVertex
100
AcDb2dVertex
 10
93.75965166926842
 20
-136.2269992063947
 30
0.0
  0
VERTEX
  5
65
330
63
100
AcDbEntity
  8
_U+30EC_U+30A4_U+30E4_U+30FC 1
370
     0
100
AcDbVertex
100
AcDb2dVertex
 10
93.27113712946
 20
-136.8829453867862
 30
0.0
  0
VERTEX
  5
66
330
63
100
AcDbEntity
  8
_U+30EC_U+30A4_U+30E4_U+30FC 1
370
     0
100
AcDbVertex
100
AcDb2dVertex
 10
93.75965166926842
 20
-136.8829453867862
 30
0.0
  0
VERTEX
  5
67
330
63
100
AcDbEntity
  8
_U+30EC_U+30A4_U+30E4_U+30FC 1
370
     0
100
AcDbVertex
100
AcDb2dVertex
 10
93.75965166926842
 20
-136.2269992063947
 30
0.0
  0
SEQEND
  5
68
330
63
100
AcDbEntity
  8
_U+30EC_U+30A4_U+30E4_U+30FC 1
370
     0
  0
HATCH
  5
69
330
4F
100
AcDbEntity
  8
_U+30EC_U+30A4_U+30E4_U+30FC 1
 62
     7
420
 16777215
100
AcDbHatch
 10
0.0
 20
0.0
 30
0.0
210
0.0
220
0.0
230
1.0
  2
SOLID
 70
     1
 71
     0
 91
        2
 92
        1
 93
       11
 72
     1
 10
93.99254012407131
 20
-137.0817273962851
 11
93.99254012407131
 21
-137.4286485116498
 72
     1
 10
93.99254012407131
 20
-137.4286485116498
 11
93.75965166926842
 21
-137.4286485116498
 72
     1
 10
93.75965166926842
 20
-137.4286485116498
 11
93.75965166926842
 21
-137.0817273962851
 72
     1
 10
93.75965166926842
 20
-137.0817273962851
 11
93.05857473802008
 21
-137.0817273962851
 72
     1
 10
93.05857473802008
 20
-137.0817273962851
 11
93.05857473802008
 21
-136.8574516801954
 72
     1
 10
93.05857473802008
 20
-136.8574516801954
 11
93.78445635676222
 21
-135.8842122056123
 72
     1
 10
93.78445635676222
 20
-135.8842122056123
 11
93.99254012407131
 21
-135.8842122056123
 72
     1
 10
93.99254012407131
 20
-135.8842122056123
 11
93.99254012407131
 21
-136.8829453867862
 72
     1
 10
93.99254012407131
 20
-136.8829453867862
 11
94.21405976377288
 21
-136.8829453867862
 72
     1
 10
94.21405976377288
 20
-136.8829453867862
 11
94.21405976377288
 21
-137.0817273962851
 72
     1
 10
94.21405976377288
 20
-137.0817273962851
 11
93.99254012407131
 21
-137.0817273962851
 97
        0
 92
        1
 93
        3
 72
     1
 10
93.75965166926842
 20
-136.2269992063947
 11
93.27113712946
 21
-136.8829453867862
 72
     1
 10
93.27113712946
 20
-136.8829453867862
 11
93.75965166926842
 21
-136.8829453867862
 72
     1
 10
93.75965166926842
 20
-136.8829453867862
 11
93.75965166926842
 21
-136.2269992063947
 97
        0
 75
     2
 76
     1
 98
        0
  0
ENDBLK
  5
52
330
4F
100
AcDbEntity
  8
0
100
AcDbBlockEnd
  0
BLOCK
  5
7A
330
78
100
AcDbEntity
  8
0
100
AcDbBlockBegin
  2
block 3
 70
     0
 10
0.0
 20
0.0
 30
0.0
  3
block 3
  1

  0
SPLINE
  5
7C
330
78
100
AcDbEntity
  8
_U+30EC_U+30A4_U+30E4_U+30FC 1
370
     0
100
AcDbSpline
210
0.0
220
0.0
230
1.0
 70
    11
 71
     3
 72
    32
 73
    28
 74
     0
 42
0.0000000001
 43
0.0000000001
 12
1.0
 22
0.0
 32
0.0
 13
1.0
 23
0.0
 33
0.0
 40
0.0
 40
0.0
 40
0.0
 40
0.0
 40
1.0
 40
1.0
 40
1.0
 40
2.0
 40
2.0
 40
2.0
 40
3.0
 40
3.0
 40
3.0
 40
4.0
 40
4.0
 40
4.0
 40
5.0
 40
5.0
 40
5.0
 40
6.0
 40
6.0
 40
6.0
 40
7.0
 40
7.0
 40
7.0
 40
8.0
 40
8.0
 40
8.0
 40
9.0
 40
9.0
 40
9.0
 40
9.0
 10
90.11301809813148
 20
-119.8882893580488
 30
0.0
 10
89.56145831094297
 20
-119.8882893580488
 30
0.0
 10
89.55250106268133
 20
-119.3343180040206
 30
0.0
 10
89.55250106268133
 20
-119.1203775743866
 30
0.0
 10
89.55250106268133
 20
-118.8899006864234
 30
0.0
 10
89.5728271260443
 20
-118.2425672447449
 30
0.0
 10
90.15401473440595
 20
-118.2425672447449
 30
0.0
 10
90.33936087151238
 20
-118.2425672447449
 30
0.0
 10
90.6015326379399
 20
-118.3125026830955
 30
0.0
 10
90.64218476466584
 20
-118.6446098878736
 30
0.0
 10
90.64218476466584
 20
-118.6446098878736
 30
0.0
 10
90.41377493399378
 20
-118.6446098878736
 30
0.0
 10
90.41377493399378
 20
-118.6446098878736
 30
0.0
 10
90.40240611889246
 20
-118.5874213028184
 30
0.0
 10
90.36864418313701
 20
-118.4392821969527
 30
0.0
 10
90.15160316756626
 20
-118.4392821969527
 30
0.0
 10
89.83947751660263
 20
-118.4392821969527
 30
0.0
 10
89.79675833258554
 20
-118.7672552871485
 30
0.0
 10
89.78297795064454
 20
-118.9722384685208
 30
0.0
 10
89.88254121016826
 20
-118.8940348010057
 30
0.0
 10
89.95488821535851
 20
-118.8347791586594
 30
0.0
 10
90.14953611027512
 20
-118.8347791586594
 30
0.0
 10
90.34142792880354
 20
-118.8347791586594
 30
0.0
 10
90.6649223948685
 20
-118.9429551568962
 30
0.0
 10
90.6649223948685
 20
-119.3491319146072
 30
0.0
 10
90.6649223948685
 20
-119.6684922660898
 30
0.0
 10
90.45236000342858
 20
-119.8882893580488
 30
0.0
 10
90.11301809813148
 20
-119.8882893580488
 30
0.0
  0
SPLINE
  5
7D
330
78
100
AcDbEntity
  8
_U+30EC_U+30A4_U+30E4_U+30FC 1
370
     0
100
AcDbSpline
210
0.0
220
0.0
230
1.0
 70
    11
 71
     3
 72
    17
 73
    13
 74
     0
 42
0.0000000001
 43
0.0000000001
 12
1.0
 22
0.0
 32
0.0
 13
1.0
 23
0.0
 33
0.0
 40
0.0
 40
0.0
 40
0.0
 40
0.0
 40
1.0
 40
1.0
 40
1.0
 40
2.0
 40
2.0
 40
2.0
 40
3.0
 40
3.0
 40
3.0
 40
4.0
 40
4.0
 40
4.0
 40
4.0
 10
90.13127710420329
 20
-119.029427053576
 30
0.0
 10
89.85084633170396
 20
-119.029427053576
 30
0.0
 10
89.81019420497802
 20
-119.2409559163703
 30
0.0
 10
89.81019420497802
 20
-119.3574001437718
 30
0.0
 10
89.81019420497802
 20
-119.5331000135195
 30
0.0
 10
89.91182452179288
 20
-119.6960530299718
 30
0.0
 10
90.10853947400065
 20
-119.6960530299718
 30
0.0
 10
90.237386045149
 20
-119.6960530299718
 30
0.0
 10
90.42514374909511
 20
-119.6367973876255
 30
0.0
 10
90.42514374909511
 20
-119.3511989718983
 30
0.0
 10
90.42514374909511
 20
-119.1269232558085
 30
0.0
 10
90.27597111458378
 20
-119.029427053576
 30
0.0
 10
90.13127710420329
 20
-119.029427053576
 30
0.0
  0
HATCH
  5
7E
330
78
100
AcDbEntity
  8
_U+30EC_U+30A4_U+30E4_U+30FC 1
 62
     7
420
 16777215
100
AcDbHatch
 10
0.0
 20
0.0
 30
0.0
210
0.0
220
0.0
230
1.0
  2
SOLID
 70
     1
 71
     0
 91
        2
 92
        1
 93
        1
 72
     4
 94
        3
 73
     0
 74
     1
 95
       32
 96
       28
 40
0.0
 40
0.0
 40
0.0
 40
0.0
 40
1.0
 40
1.0
 40
1.0
 40
2.0
 40
2.0
 40
2.0
 40
3.0
 40
3.0
 40
3.0
 40
4.0
 40
4.0
 40
4.0
 40
5.0
 40
5.0
 40
5.0
 40
6.0
 40
6.0
 40
6.0
 40
7.0
 40
7.0
 40
7.0
 40
8.0
 40
8.0
 40
8.0
 40
9.0
 40
9.0
 40
9.0
 40
9.0
 10
90.11301809813148
 20
-119.8882893580488
 10
89.56145831094297
 20
-119.8882893580488
 10
89.55250106268133
 20
-119.3343180040206
 10
89.55250106268133
 20
-119.1203775743866
 10
89.55250106268133
 20
-118.8899006864234
 10
89.5728271260443
 20
-118.2425672447449
 10
90.15401473440595
 20
-118.2425672447449
 10
90.33936087151238
 20
-118.2425672447449
 10
90.6015326379399
 20
-118.3125026830955
 10
90.64218476466584
 20
-118.6446098878736
 10
90.64218476466584
 20
-118.6446098878736
 10
90.41377493399378
 20
-118.6446098878736
 10
90.41377493399378
 20
-118.6446098878736
 10
90.40240611889246
 20
-118.5874213028184
 10
90.36864418313701
 20
-118.4392821969527
 10
90.15160316756626
 20
-118.4392821969527
 10
89.83947751660263
 20
-118.4392821969527
 10
89.79675833258554
 20
-118.7672552871485
 10
89.78297795064454
 20
-118.9722384685208
 10
89.88254121016826
 20
-118.8940348010057
 10
89.95488821535851
 20
-118.8347791586594
 10
90.14953611027512
 20
-118.8347791586594
 10
90.34142792880354
 20
-118.8347791586594
 10
90.6649223948685
 20
-118.9429551568962
 10
90.6649223948685
 20
-119.3491319146072
 10
90.6649223948685
 20
-119.6684922660898
 10
90.45236000342858
 20
-119.8882893580488
 10
90.11301809813148
 20
-119.8882893580488
 97
        0
 97
        0
 92
        1
 93
        1
 72
     4
 94
        3
 73
     0
 74
     1
 95
       17
 96
       13
 40
0.0
 40
0.0
 40
0.0
 40
0.0
 40
1.0
 40
1.0
 40
1.0
 40
2.0
 40
2.0
 40
2.0
 40
3.0
 40
3.0
 40
3.0
 40
4.0
 40
4.0
 40
4.0
 40
4.0
 10
90.13127710420329
 20
-119.029427053576
 10
89.85084633170396
 20
-119.029427053576
 10
89.81019420497802
 20
-119.2409559163703
 10
89.81019420497802
 20
-119.3574001437718
 10
89.81019420497802
 20
-119.5331000135195
 10
89.91182452179288
 20
-119.6960530299718
 10
90.10853947400065
 20
-119.6960530299718
 10
90.237386045149
 20
-119.6960530299718
 10
90.42514374909511
 20
-119.6367973876255
 10
90.42514374909511
 20
-119.3511989718983
 10
90.42514374909511
 20
-119.1269232558085
 10
90.27597111458378
 20
-119.029427053576
 10
90.13127710420329
 20
-119.029427053576
 97
        0
 97
        0
 75
     2
 76
     1
 98
        0
  0
ENDBLK
  5
7B
330
78
100
AcDbEntity
  8
0
100
AcDbBlockEnd
  0
BLOCK
  5
8F
330
8D
100
AcDbEntity
  8
0
100
AcDbBlockBegin
  2
block 4
 70
     0
 10
0.0
 20
0.0
 30
0.0
  3
block 4
  1

  0
SPLINE
  5
91
330
8D
100
AcDbEntity
  8
_U+30EC_U+30A4_U+30E4_U+30FC 1
370
     0
100
AcDbSpline
210
0.0
220
0.0
230
1.0
 70
    11
 71
     3
 72
    26
 73
    22
 74
     0
 42
0.0000000001
 43
0.0000000001
 12
1.0
 22
0.0
 32
0.0
 13
1.0
 23
0.0
 33
0.0
 40
0.0
 40
0.0
 40
0.0
 40
0.0
 40
1.0
 40
1.0
 40
1.0
 40
2.0
 40
2.0
 40
2.0
 40
3.0
 40
3.0
 40
3.0
 40
4.0
 40
4.0
 40
4.0
 40
5.0
 40
5.0
 40
5.0
 40
6.0
 40
6.0
 40
6.0
 40
7.0
 40
7.0
 40
7.0
 40
7.0
 10
81.412429450133
 20
-129.7216254015974
 30
0.0
 10
81.412429450133
 20
-129.7216254015974
 30
0.0
 10
80.30810409233617
 20
-129.7216254015974
 30
0.0
 10
80.30810409233617
 20
-129.7216254015974
 30
0.0
 10
80.30810409233617
 20
-129.7216254015974
 30
0.0
 10
80.30810409233617
 20
-130.074403179287
 30
0.0
 10
80.30810409233617
 20
-130.074403179287
 30
0.0
 10
80.30810409233617
 20
-130.074403179287
 30
0.0
 10
80.15996498647043
 20
-130.074403179287
 30
0.0
 10
80.15996498647043
 20
-130.074403179287
 30
0.0
 10
80.14532333065812
 20
-129.7192138347577
 30
0.0
 10
79.9823703142058
 20
-129.6696044597701
 30
0.0
 10
79.86816539886976
 20
-129.6379095813058
 30
0.0
 10
79.86816539886976
 20
-129.6379095813058
 30
0.0
 10
79.86816539886976
 20
-129.481846755824
 30
0.0
 10
79.86816539886976
 20
-129.481846755824
 30
0.0
 10
79.86816539886976
 20
-129.481846755824
 30
0.0
 10
81.412429450133
 20
-129.481846755824
 30
0.0
 10
81.412429450133
 20
-129.481846755824
 30
0.0
 10
81.412429450133
 20
-129.481846755824
 30
0.0
 10
81.412429450133
 20
-129.7216254015974
 30
0.0
 10
81.412429450133
 20
-129.7216254015974
 30
0.0
  0
HATCH
  5
92
330
8D
100
AcDbEntity
  8
_U+30EC_U+30A4_U+30E4_U+30FC 1
 62
     7
420
 16777215
100
AcDbHatch
 10
0.0
 20
0.0
 30
0.0
210
0.0
220
0.0
230
1.0
  2
SOLID
 70
     1
 71
     0
 91
        1
 92
        1
 93
        1
 72
     4
 94
        3
 73
     0
 74
     1
 95
       26
 96
       22
 40
0.0
 40
0.0
 40
0.0
 40
0.0
 40
1.0
 40
1.0
 40
1.0
 40
2.0
 40
2.0
 40
2.0
 40
3.0
 40
3.0
 40
3.0
 40
4.0
 40
4.0
 40
4.0
 40
5.0
 40
5.0
 40
5.0
 40
6.0
 40
6.0
 40
6.0
 40
7.0
 40
7.0
 40
7.0
 40
7.0
 10
81.412429450133
 20
-129.7216254015974
 10
81.412429450133
 20
-129.7216254015974
 10
80.30810409233617
 20
-129.7216254015974
 10
80.30810409233617
 20
-129.7216254015974
 10
80.30810409233617
 20
-129.7216254015974
 10
80.30810409233617
 20
-130.074403179287
 10
80.30810409233617
 20
-130.074403179287
 10
80.30810409233617
 20
-130.074403179287
 10
80.15996498647043
 20
-130.074403179287
 10
80.15996498647043
 20
-130.074403179287
 10
80.14532333065812
 20
-129.7192138347577
 10
79.9823703142058
 20
-129.6696044597701
 10
79.86816539886976
 20
-129.6379095813058
 10
79.86816539886976
 20
-129.6379095813058
 10
79.86816539886976
 20
-129.481846755824
 10
79.86816539886976
 20
-129.481846755824
 10
79.86816539886976
 20
-129.481846755824
 10
81.412429450133
 20
-129.481846755824
 10
81.412429450133
 20
-129.481846755824
 10
81.412429450133
 20
-129.481846755824
 10
81.412429450133
 20
-129.7216254015974
 10
81.412429450133
 20
-129.7216254015974
 97
        0
 97
        0
 75
     2
 76
     1
 98
        0
  0
SPLINE
  5
93
330
8D
100
AcDbEntity
  8
_U+30EC_U+30A4_U+30E4_U+30FC 1
370
     0
100
AcDbSpline
210
0.0
220
0.0
230
1.0
 70
    11
 71
     3
 72
    26
 73
    22
 74
     0
 42
0.0000000001
 43
0.0000000001
 12
1.0
 22
0.0
 32
0.0
 13
1.0
 23
0.0
 33
0.0
 40
0.0
 40
0.0
 40
0.0
 40
0.0
 40
1.0
 40
1.0
 40
1.0
 40
2.0
 40
2.0
 40
2.0
 40
3.0
 40
3.0
 40
3.0
 40
4.0
 40
4.0
 40
4.0
 40
5.0
 40
5.0
 40
5.0
 40
6.0
 40
6.0
 40
6.0
 40
7.0
 40
7.0
 40
7.0
 40
7.0
 10
81.412429450133
 20
-128.4638210399327
 30
0.0
 10
81.412429450133
 20
-128.4638210399327
 30
0.0
 10
80.30810409233617
 20
-128.4638210399327
 30
0.0
 10
80.30810409233617
 20
-128.4638210399327
 30
0.0
 10
80.30810409233617
 20
-128.4638210399327
 30
0.0
 10
80.30810409233617
 20
-128.8165988176222
 30
0.0
 10
80.30810409233617
 20
-128.8165988176222
 30
0.0
 10
80.30810409233617
 20
-128.8165988176222
 30
0.0
 10
80.15996498647043
 20
-128.8165988176222
 30
0.0
 10
80.15996498647043
 20
-128.8165988176222
 30
0.0
 10
80.14532333065812
 20
-128.4615817278672
 30
0.0
 10
79.9823703142058
 20
-128.4118000981054
 30
0.0
 10
79.86816539886976
 20
-128.3801052196411
 30
0.0
 10
79.86816539886976
 20
-128.3801052196411
 30
0.0
 10
79.86816539886976
 20
-128.2242146489335
 30
0.0
 10
79.86816539886976
 20
-128.2242146489335
 30
0.0
 10
79.86816539886976
 20
-128.2242146489335
 30
0.0
 10
81.412429450133
 20
-128.2242146489335
 30
0.0
 10
81.412429450133
 20
-128.2242146489335
 30
0.0
 10
81.412429450133
 20
-128.2242146489335
 30
0.0
 10
81.412429450133
 20
-128.4638210399327
 30
0.0
 10
81.412429450133
 20
-128.4638210399327
 30
0.0
  0
HATCH
  5
94
330
8D
100
AcDbEntity
  8
_U+30EC_U+30A4_U+30E4_U+30FC 1
 62
     7
420
 16777215
100
AcDbHatch
 10
0.0
 20
0.0
 30
0.0
210
0.0
220
0.0
230
1.0
  2
SOLID
 70
     1
 71
     0
 91
        1
 92
        1
 93
        1
 72
     4
 94
        3
 73
     0
 74
     1
 95
       26
 96
       22
 40
0.0
 40
0.0
 40
0.0
 40
0.0
 40
1.0
 40
1.0
 40
1.0
 40
2.0
 40
2.0
 40
2.0
 40
3.0
 40
3.0
 40
3.0
 40
4.0
 40
4.0
 40
4.0
 40
5.0
 40
5.0
 40
5.0
 40
6.0
 40
6.0
 40
6.0
 40
7.0
 40
7.0
 40
7.0
 40
7.0
 10
81.412429450133
 20
-128.4638210399327
 10
81.412429450133
 20
-128.4638210399327
 10
80.30810409233617
 20
-128.4638210399327
 10
80.30810409233617
 20
-128.4638210399327
 10
80.30810409233617
 20
-128.4638210399327
 10
80.30810409233617
 20
-128.8165988176222
 10
80.30810409233617
 20
-128.8165988176222
 10
80.30810409233617
 20
-128.8165988176222
 10
80.15996498647043
 20
-128.8165988176222
 10
80.15996498647043
 20
-128.8165988176222
 10
80.14532333065812
 20
-128.4615817278672
 10
79.9823703142058
 20
-128.4118000981054
 10
79.86816539886976
 20
-128.3801052196411
 10
79.86816539886976
 20
-128.3801052196411
 10
79.86816539886976
 20
-128.2242146489335
 10
79.86816539886976
 20
-128.2242146489335
 10
79.86816539886976
 20
-128.2242146489335
 10
81.412429450133
 20
-128.2242146489335
 10
81.412429450133
 20
-128.2242146489335
 10
81.412429450133
 20
-128.2242146489335
 10
81.412429450133
 20
-128.4638210399327
 10
81.412429450133
 20
-128.4638210399327
 97
        0
 97
        0
 75
     2
 76
     1
 98
        0
  0
POLYLINE
  5
95
330
8D
100
AcDbEntity
  8
_U+30EC_U+30A4_U+30E4_U+30FC 1
370
     0
100
AcDb2dPolyline
 66
     1
 10
0.0
 20
0.0
 30
0.0
  0
VERTEX
  5
96
330
95
100
AcDbEntity
  8
_U+30EC_U+30A4_U+30E4_U+30FC 1
370
     0
100
AcDbVertex
100
AcDb2dVertex
 10
81.412429450133
 20
-127.6242512701773
 30
0.0
  0
VERTEX
  5
97
330
95
100
AcDbEntity
  8
_U+30EC_U+30A4_U+30E4_U+30FC 1
370
     0
100
AcDbVertex
100
AcDb2dVertex
 10
81.1607652249355
 20
-127.6242512701773
 30
0.0
  0
VERTEX
  5
98
330
95
100
AcDbEntity
  8
_U+30EC_U+30A4_U+30E4_U+30FC 1
370
     0
100
AcDbVertex
100
AcDb2dVertex
 10
81.1607652249355
 20
-127.3551893127793
 30
0.0
  0
VERTEX
  5
99
330
95
100
AcDbEntity
  8
_U+30EC_U+30A4_U+30E4_U+30FC 1
370
     0
100
AcDbVertex
100
AcDb2dVertex
 10
81.412429450133
 20
-127.3551893127793
 30
0.0
  0
VERTEX
  5
9A
330
95
100
AcDbEntity
  8
_U+30EC_U+30A4_U+30E4_U+30FC 1
370
     0
100
AcDbVertex
100
AcDb2dVertex
 10
81.412429450133
 20
-127.6242512701773
 30
0.0
  0
SEQEND
  5
9B
330
95
100
AcDbEntity
  8
_U+30EC_U+30A4_U+30E4_U+30FC 1
370
     0
  0
HATCH
  5
9C
330
8D
100
AcDbEntity
  8
_U+30EC_U+30A4_U+30E4_U+30FC 1
 62
     7
420
 16777215
100
AcDbHatch
 10
0.0
 20
0.0
 30
0.0
210
0.0
220
0.0
230
1.0
  2
SOLID
 70
     1
 71
     0
 91
        1
 92
        1
 93
        4
 72
     1
 10
81.412429450133
 20
-127.6242512701773
 11
81.1607652249355
 21
-127.6242512701773
 72
     1
 10
81.1607652249355
 20
-127.6242512701773
 11
81.1607652249355
 21
-127.3551893127793
 72
     1
 10
81.1607652249355
 20
-127.3551893127793
 11
81.412429450133
 21
-127.3551893127793
 72
     1
 10
81.412429450133
 20
-127.3551893127793
 11
81.412429450133
 21
-127.6242512701773
 97
        0
 75
     2
 76
     1
 98
        0
  0
SPLINE
  5
9D
330
8D
100
AcDbEntity
  8
_U+30EC_U+30A4_U+30E4_U+30FC 1
370
     0
100
AcDbSpline
210
0.0
220
0.0
230
1.0
 70
    11
 71
     3
 72
    53
 73
    49
 74
     0
 42
0.0000000001
 43
0.0000000001
 12
1.0
 22
0.0
 32
0.0
 13
1.0
 23
0.0
 33
0.0
 40
0.0
 40
0.0
 40
0.0
 40
0.0
 40
1.0
 40
1.0
 40
1.0
 40
2.0
 40
2.0
 40
2.0
 40
3.0
 40
3.0
 40
3.0
 40
4.0
 40
4.0
 40
4.0
 40
5.0
 40
5.0
 40
5.0
 40
6.0
 40
6.0
 40
6.0
 40
7.0
 40
7.0
 40
7.0
 40
8.0
 40
8.0
 40
8.0
 40
9.0
 40
9.0
 40
9.0
 40
10.0
 40
10.0
 40
10.0
 40
11.0
 40
11.0
 40
11.0
 40
12.0
 40
12.0
 40
12.0
 40
13.0
 40
13.0
 40
13.0
 40
14.0
 40
14.0
 40
14.0
 40
15.0
 40
15.0
 40
15.0
 40
16.0
 40
16.0
 40
16.0
 40
16.0
 10
81.46324460854045
 20
-126.5883110577627
 30
0.0
 10
81.46324460854045
 20
-126.6720268780542
 30
0.0
 10
81.44636364066272
 20
-126.7805473858396
 30
0.0
 10
81.38280162895985
 20
-126.889067893625
 30
0.0
 10
81.27273082820612
 20
-127.0744140307314
 30
0.0
 10
81.14164494499236
 20
-127.097151660934
 30
0.0
 10
81.03381345630405
 20
-127.117477724297
 30
0.0
 10
81.03381345630405
 20
-127.117477724297
 30
0.0
 10
81.03381345630405
 20
-126.8801106453633
 30
0.0
 10
81.03381345630405
 20
-126.8801106453633
 30
0.0
 10
81.23259546580297
 20
-126.8211995125655
 30
0.0
 10
81.26222328697611
 20
-126.685635005221
 30
0.0
 10
81.26222328697611
 20
-126.5860717456972
 30
0.0
 10
81.26222328697611
 20
-126.4368991111859
 30
0.0
 10
81.16283228222666
 20
-126.2741183495079
 30
0.0
 10
80.93011608219803
 20
-126.2741183495079
 30
0.0
 10
80.67414548764397
 20
-126.2741183495079
 30
0.0
 10
80.60438230406766
 20
-126.4663546775848
 30
0.0
 10
80.60438230406766
 20
-126.5952012487331
 30
0.0
 10
80.60438230406766
 20
-126.6291354392629
 30
0.0
 10
80.60438230406766
 20
-126.7805473858396
 30
0.0
 10
80.73340112999027
 20
-126.8754597664582
 30
0.0
 10
80.73340112999027
 20
-126.8754597664582
 30
0.0
 10
80.71428085004713
 20
-127.0632174704043
 30
0.0
 10
80.71428085004713
 20
-127.0632174704043
 30
0.0
 10
80.71428085004713
 20
-127.0632174704043
 30
0.0
 10
79.86816539886976
 20
-126.9341986444817
 30
0.0
 10
79.86816539886976
 20
-126.9341986444817
 30
0.0
 10
79.86816539886976
 20
-126.9341986444817
 30
0.0
 10
79.86816539886976
 20
-126.1022080847939
 30
0.0
 10
79.86816539886976
 20
-126.1022080847939
 30
0.0
 10
79.86816539886976
 20
-126.1022080847939
 30
0.0
 10
80.06281329378638
 20
-126.1022080847939
 30
0.0
 10
80.06281329378638
 20
-126.1022080847939
 30
0.0
 10
80.06281329378638
 20
-126.1022080847939
 30
0.0
 10
80.06281329378638
 20
-126.7602213224766
 30
0.0
 10
80.06281329378638
 20
-126.7602213224766
 30
0.0
 10
80.06281329378638
 20
-126.7602213224766
 30
0.0
 10
80.48587101937507
 20
-126.8303290156014
 30
0.0
 10
80.48587101937507
 20
-126.8303290156014
 30
0.0
 10
80.45193682884535
 20
-126.7646999466074
 30
0.0
 10
80.4118014664422
 20
-126.6765055021851
 30
0.0
 10
80.4118014664422
 20
-126.5498982431021
 30
0.0
 10
80.4118014664422
 20
-126.2785969736387
 30
0.0
 10
80.59800887741994
 20
-126.0253824554728
 30
0.0
 10
80.91099580225489
 20
-126.0253824554728
 30
0.0
 10
81.22846135122067
 20
-126.0253824554728
 30
0.0
 10
81.46324460854045
 20
-126.2651611012462
 30
0.0
 10
81.46324460854045
 20
-126.5883110577627
 30
0.0
  0
HATCH
  5
9E
330
8D
100
AcDbEntity
  8
_U+30EC_U+30A4_U+30E4_U+30FC 1
 62
     7
420
 16777215
100
AcDbHatch
 10
0.0
 20
0.0
 30
0.0
210
0.0
220
0.0
230
1.0
  2
SOLID
 70
     1
 71
     0
 91
        1
 92
        1
 93
        1
 72
     4
 94
        3
 73
     0
 74
     1
 95
       53
 96
       49
 40
0.0
 40
0.0
 40
0.0
 40
0.0
 40
1.0
 40
1.0
 40
1.0
 40
2.0
 40
2.0
 40
2.0
 40
3.0
 40
3.0
 40
3.0
 40
4.0
 40
4.0
 40
4.0
 40
5.0
 40
5.0
 40
5.0
 40
6.0
 40
6.0
 40
6.0
 40
7.0
 40
7.0
 40
7.0
 40
8.0
 40
8.0
 40
8.0
 40
9.0
 40
9.0
 40
9.0
 40
10.0
 40
10.0
 40
10.0
 40
11.0
 40
11.0
 40
11.0
 40
12.0
 40
12.0
 40
12.0
 40
13.0
 40
13.0
 40
13.0
 40
14.0
 40
14.0
 40
14.0
 40
15.0
 40
15.0
 40
15.0
 40
16.0
 40
16.0
 40
16.0
 40
16.0
 10
81.46324460854045
 20
-126.5883110577627
 10
81.46324460854045
 20
-126.6720268780542
 10
81.44636364066272
 20
-126.7805473858396
 10
81.38280162895985
 20
-126.889067893625
 10
81.27273082820612
 20
-127.0744140307314
 10
81.14164494499236
 20
-127.097151660934
 10
81.03381345630405
 20
-127.117477724297
 10
81.03381345630405
 20
-127.117477724297
 10
81.03381345630405
 20
-126.8801106453633
 10
81.03381345630405
 20
-126.8801106453633
 10
81.23259546580297
 20
-126.8211995125655
 10
81.26222328697611
 20
-126.685635005221
 10
81.26222328697611
 20
-126.5860717456972
 10
81.26222328697611
 20
-126.4368991111859
 10
81.16283228222666
 20
-126.2741183495079
 10
80.93011608219803
 20
-126.2741183495079
 10
80.67414548764397
 20
-126.2741183495079
 10
80.60438230406766
 20
-126.4663546775848
 10
80.60438230406766
 20
-126.5952012487331
 10
80.60438230406766
 20
-126.6291354392629
 10
80.60438230406766
 20
-126.7805473858396
 10
80.73340112999027
 20
-126.8754597664582
 10
80.73340112999027
 20
-126.8754597664582
 10
80.71428085004713
 20
-127.0632174704043
 10
80.71428085004713
 20
-127.0632174704043
 10
80.71428085004713
 20
-127.0632174704043
 10
79.86816539886976
 20
-126.9341986444817
 10
79.86816539886976
 20
-126.9341986444817
 10
79.86816539886976
 20
-126.9341986444817
 10
79.86816539886976
 20
-126.1022080847939
 10
79.86816539886976
 20
-126.1022080847939
 10
79.86816539886976
 20
-126.1022080847939
 10
80.06281329378638
 20
-126.1022080847939
 10
80.06281329378638
 20
-126.1022080847939
 10
80.06281329378638
 20
-126.1022080847939
 10
80.06281329378638
 20
-126.7602213224766
 10
80.06281329378638
 20
-126.7602213224766
 10
80.06281329378638
 20
-126.7602213224766
 10
80.48587101937507
 20
-126.8303290156014
 10
80.48587101937507
 20
-126.8303290156014
 10
80.45193682884535
 20
-126.7646999466074
 10
80.4118014664422
 20
-126.6765055021851
 10
80.4118014664422
 20
-126.5498982431021
 10
80.4118014664422
 20
-126.2785969736387
 10
80.59800887741994
 20
-126.0253824554728
 10
80.91099580225489
 20
-126.0253824554728
 10
81.22846135122067
 20
-126.0253824554728
 10
81.46324460854045
 20
-126.2651611012462
 10
81.46324460854045
 20
-126.5883110577627
 97
        0
 97
        0
 75
     2
 76
     1
 98
        0
  0
ENDBLK
  5
90
330
8D
100
AcDbEntity
  8
0
100
AcDbBlockEnd
  0
BLOCK
  5
B5
330
B3
100
AcDbEntity
  8
0
100
AcDbBlockBegin
  2
block 5
 70
     0
 10
0.0
 20
0.0
 30
0.0
  3
block 5
  1

  0
SPLINE
  5
B7
330
B3
100
AcDbEntity
  8
_U+30EC_U+30A4_U+30E4_U+30FC 1
370
     0
100
AcDbSpline
210
0.0
220
0.0
230
1.0
 70
    11
 71
     3
 72
    62
 73
    58
 74
     0
 42
0.0000000001
 43
0.0000000001
 12
1.0
 22
0.0
 32
0.0
 13
1.0
 23
0.0
 33
0.0
 40
0.0
 40
0.0
 40
0.0
 40
0.0
 40
1.0
 40
1.0
 40
1.0
 40
2.0
 40
2.0
 40
2.0
 40
3.0
 40
3.0
 40
3.0
 40
4.0
 40
4.0
 40
4.0
 40
5.0
 40
5.0
 40
5.0
 40
6.0
 40
6.0
 40
6.0
 40
7.0
 40
7.0
 40
7.0
 40
8.0
 40
8.0
 40
8.0
 40
9.0
 40
9.0
 40
9.0
 40
10.0
 40
10.0
 40
10.0
 40
11.0
 40
11.0
 40
11.0
 40
12.0
 40
12.0
 40
12.0
 40
13.0
 40
13.0
 40
13.0
 40
14.0
 40
14.0
 40
14.0
 40
15.0
 40
15.0
 40
15.0
 40
16.0
 40
16.0
 40
16.0
 40
17.0
 40
17.0
 40
17.0
 40
18.0
 40
18.0
 40
18.0
 40
19.0
 40
19.0
 40
19.0
 40
19.0
 10
101.9203938547282
 20
-132.3419650276784
 30
0.0
 10
101.9203938547282
 20
-132.4435953444933
 30
0.0
 10
101.8993787722682
 20
-132.6764837992962
 30
0.0
 10
101.7133436160647
 20
-132.8098089945753
 30
0.0
 10
101.6010335032456
 20
-132.8890461907361
 30
0.0
 10
101.5018147532704
 20
-132.8935248148669
 30
0.0
 10
101.4170654043332
 20
-132.8980034389977
 30
0.0
 10
101.4170654043332
 20
-132.8980034389977
 30
0.0
 10
101.4170654043332
 20
-132.6630479269037
 30
0.0
 10
101.4170654043332
 20
-132.6630479269037
 30
0.0
 10
101.4911349572661
 20
-132.660636360064
 30
0.0
 10
101.7257459598116
 20
-132.6492675449627
 30
0.0
 10
101.7257459598116
 20
-132.3464436518092
 30
0.0
 10
101.7257459598116
 20
-132.1993380745891
 30
0.0
 10
101.6561550310096
 20
-132.0367295676853
 30
0.0
 10
101.4277452003375
 20
-132.0367295676853
 30
0.0
 10
101.3113009729361
 20
-132.0367295676853
 30
0.0
 10
101.262725126594
 20
-132.0773816944112
 30
0.0
 10
101.2310302481297
 20
-132.1111436301667
 30
0.0
 10
101.1569606951969
 20
-132.1903808263274
 30
0.0
 10
101.1442138419014
 20
-132.3147487733449
 30
0.0
 10
101.1442138419014
 20
-132.3736599061427
 30
0.0
 10
101.1442138419014
 20
-132.3939859695057
 30
0.0
 10
101.1462808991926
 20
-132.432226529392
 30
0.0
 10
101.1504150137749
 20
-132.4618543505651
 30
0.0
 10
101.1504150137749
 20
-132.4618543505651
 30
0.0
 10
100.9557671188583
 20
-132.4618543505651
 30
0.0
 10
100.9557671188583
 20
-132.4618543505651
 30
0.0
 10
100.9623128002803
 20
-132.4212022238391
 30
0.0
 10
100.9643798575714
 20
-132.3757269634339
 30
0.0
 10
100.9643798575714
 20
-132.3691812820119
 30
0.0
 10
100.9643798575714
 20
-132.2989013341128
 30
0.0
 10
100.9430202655629
 20
-132.0863389426729
 30
0.0
 10
100.7063422057262
 20
-132.0863389426729
 30
0.0
 10
100.5285752786873
 20
-132.0863389426729
 30
0.0
 10
100.4734537509233
 20
-132.2265543289225
 30
0.0
 10
100.4734537509233
 20
-132.3440320849695
 30
0.0
 10
100.4734537509233
 20
-132.6268744243086
 30
0.0
 10
100.7063422057262
 20
-132.6358316725702
 30
0.0
 10
100.7780001918194
 20
-132.640310296701
 30
0.0
 10
100.7780001918194
 20
-132.640310296701
 30
0.0
 10
100.7780001918194
 20
-132.8573513122718
 30
0.0
 10
100.7780001918194
 20
-132.8573513122718
 30
0.0
 10
100.6532877352533
 20
-132.8483940640101
 30
0.0
 10
100.2767387987155
 20
-132.8191107523855
 30
0.0
 10
100.2767387987155
 20
-132.3305962125771
 30
0.0
 10
100.2767387987155
 20
-132.0908175668037
 30
0.0
 10
100.4038628221213
 20
-131.833124424507
 30
0.0
 10
100.6997965243042
 20
-131.833124424507
 30
0.0
 10
100.8861761900562
 20
-131.833124424507
 30
0.0
 10
100.9685139721537
 20
-131.9350992508704
 30
0.0
 10
101.0298366717912
 20
-132.0412081918161
 30
0.0
 10
101.0573974356732
 20
-131.9757513775963
 30
0.0
 10
101.1376681604795
 20
-131.7811034826797
 30
0.0
 10
101.4149983470421
 20
-131.7811034826797
 30
0.0
 10
101.7533067236936
 20
-131.7811034826797
 30
0.0
 10
101.9203938547282
 20
-132.0456868159469
 30
0.0
 10
101.9203938547282
 20
-132.3419650276784
 30
0.0
  0
HATCH
  5
B8
330
B3
100
AcDbEntity
  8
_U+30EC_U+30A4_U+30E4_U+30FC 1
 62
     7
420
 16777215
100
AcDbHatch
 10
0.0
 20
0.0
 30
0.0
210
0.0
220
0.0
230
1.0
  2
SOLID
 70
     1
 71
     0
 91
        1
 92
        1
 93
        1
 72
     4
 94
        3
 73
     0
 74
     1
 95
       62
 96
       58
 40
0.0
 40
0.0
 40
0.0
 40
0.0
 40
1.0
 40
1.0
 40
1.0
 40
2.0
 40
2.0
 40
2.0
 40
3.0
 40
3.0
 40
3.0
 40
4.0
 40
4.0
 40
4.0
 40
5.0
 40
5.0
 40
5.0
 40
6.0
 40
6.0
 40
6.0
 40
7.0
 40
7.0
 40
7.0
 40
8.0
 40
8.0
 40
8.0
 40
9.0
 40
9.0
 40
9.0
 40
10.0
 40
10.0
 40
10.0
 40
11.0
 40
11.0
 40
11.0
 40
12.0
 40
12.0
 40
12.0
 40
13.0
 40
13.0
 40
13.0
 40
14.0
 40
14.0
 40
14.0
 40
15.0
 40
15.0
 40
15.0
 40
16.0
 40
16.0
 40
16.0
 40
17.0
 40
17.0
 40
17.0
 40
18.0
 40
18.0
 40
18.0
 40
19.0
 40
19.0
 40
19.0
 40
19.0
 10
101.9203938547282
 20
-132.3419650276784
 10
101.9203938547282
 20
-132.4435953444933
 10
101.8993787722682
 20
-132.6764837992962
 10
101.7133436160647
 20
-132.8098089945753
 10
101.6010335032456
 20
-132.8890461907361
 10
101.5018147532704
 20
-132.8935248148669
 10
101.4170654043332
 20
-132.8980034389977
 10
101.4170654043332
 20
-132.8980034389977
 10
101.4170654043332
 20
-132.6630479269037
 10
101.4170654043332
 20
-132.6630479269037
 10
101.4911349572661
 20
-132.660636360064
 10
101.7257459598116
 20
-132.6492675449627
 10
101.7257459598116
 20
-132.3464436518092
 10
101.7257459598116
 20
-132.1993380745891
 10
101.6561550310096
 20
-132.0367295676853
 10
101.4277452003375
 20
-132.0367295676853
 10
101.3113009729361
 20
-132.0367295676853
 10
101.262725126594
 20
-132.0773816944112
 10
101.2310302481297
 20
-132.1111436301667
 10
101.1569606951969
 20
-132.1903808263274
 10
101.1442138419014
 20
-132.3147487733449
 10
101.1442138419014
 20
-132.3736599061427
 10
101.1442138419014
 20
-132.3939859695057
 10
101.1462808991926
 20
-132.432226529392
 10
101.1504150137749
 20
-132.4618543505651
 10
101.1504150137749
 20
-132.4618543505651
 10
100.9557671188583
 20
-132.4618543505651
 10
100.9557671188583
 20
-132.4618543505651
 10
100.9623128002803
 20
-132.4212022238391
 10
100.9643798575714
 20
-132.3757269634339
 10
100.9643798575714
 20
-132.3691812820119
 10
100.9643798575714
 20
-132.2989013341128
 10
100.9430202655629
 20
-132.0863389426729
 10
100.7063422057262
 20
-132.0863389426729
 10
100.5285752786873
 20
-132.0863389426729
 10
100.4734537509233
 20
-132.2265543289225
 10
100.4734537509233
 20
-132.3440320849695
 10
100.4734537509233
 20
-132.6268744243086
 10
100.7063422057262
 20
-132.6358316725702
 10
100.7780001918194
 20
-132.640310296701
 10
100.7780001918194
 20
-132.640310296701
 10
100.7780001918194
 20
-132.8573513122718
 10
100.7780001918194
 20
-132.8573513122718
 10
100.6532877352533
 20
-132.8483940640101
 10
100.2767387987155
 20
-132.8191107523855
 10
100.2767387987155
 20
-132.3305962125771
 10
100.2767387987155
 20
-132.0908175668037
 10
100.4038628221213
 20
-131.833124424507
 10
100.6997965243042
 20
-131.833124424507
 10
100.8861761900562
 20
-131.833124424507
 10
100.9685139721537
 20
-131.9350992508704
 10
101.0298366717912
 20
-132.0412081918161
 10
101.0573974356732
 20
-131.9757513775963
 10
101.1376681604795
 20
-131.7811034826797
 10
101.4149983470421
 20
-131.7811034826797
 10
101.7533067236936
 20
-131.7811034826797
 10
101.9203938547282
 20
-132.0456868159469
 10
101.9203938547282
 20
-132.3419650276784
 97
        0
 97
        0
 75
     2
 76
     1
 98
        0
  0
POLYLINE
  5
B9
330
B3
100
AcDbEntity
  8
_U+30EC_U+30A4_U+30E4_U+30FC 1
370
     0
100
AcDb2dPolyline
 66
     1
 10
0.0
 20
0.0
 30
0.0
  0
VERTEX
  5
BA
330
B9
100
AcDbEntity
  8
_U+30EC_U+30A4_U+30E4_U+30FC 1
370
     0
100
AcDbVertex
100
AcDb2dVertex
 10
101.8697509510951
 20
-131.5454589514887
 30
0.0
  0
VERTEX
  5
BB
330
B9
100
AcDbEntity
  8
_U+30EC_U+30A4_U+30E4_U+30FC 1
370
     0
100
AcDbVertex
100
AcDb2dVertex
 10
101.6179144711233
 20
-131.5454589514887
 30
0.0
  0
VERTEX
  5
BC
330
B9
100
AcDbEntity
  8
_U+30EC_U+30A4_U+30E4_U+30FC 1
370
     0
100
AcDbVertex
100
AcDb2dVertex
 10
101.6179144711233
 20
-131.2763969940906
 30
0.0
  0
VERTEX
  5
BD
330
B9
100
AcDbEntity
  8
_U+30EC_U+30A4_U+30E4_U+30FC 1
370
     0
100
AcDbVertex
100
AcDb2dVertex
 10
101.8697509510951
 20
-131.2763969940906
 30
0.0
  0
VERTEX
  5
BE
330
B9
100
AcDbEntity
  8
_U+30EC_U+30A4_U+30E4_U+30FC 1
370
     0
100
AcDbVertex
100
AcDb2dVertex
 10
101.8697509510951
 20
-131.5454589514887
 30
0.0
  0
SEQEND
  5
BF
330
B9
100
AcDbEntity
  8
_U+30EC_U+30A4_U+30E4_U+30FC 1
370
     0
  0
HATCH
  5
C0
330
B3
100
AcDbEntity
  8
_U+30EC_U+30A4_U+30E4_U+30FC 1
 62
     7
420
 16777215
100
AcDbHatch
 10
0.0
 20
0.0
 30
0.0
210
0.0
220
0.0
230
1.0
  2
SOLID
 70
     1
 71
     0
 91
        1
 92
        1
 93
        4
 72
     1
 10
101.8697509510951
 20
-131.5454589514887
 11
101.6179144711233
 21
-131.5454589514887
 72
     1
 10
101.6179144711233
 20
-131.5454589514887
 11
101.6179144711233
 21
-131.2763969940906
 72
     1
 10
101.6179144711233
 20
-131.2763969940906
 11
101.8697509510951
 21
-131.2763969940906
 72
     1
 10
101.8697509510951
 20
-131.2763969940906
 11
101.8697509510951
 21
-131.5454589514887
 97
        0
 75
     2
 76
     1
 98
        0
  0
SPLINE
  5
C1
330
B3
100
AcDbEntity
  8
_U+30EC_U+30A4_U+30E4_U+30FC 1
370
     0
100
AcDbSpline
210
0.0
220
0.0
230
1.0
 70
    11
 71
     3
 72
    53
 73
    49
 74
     0
 42
0.0000000001
 43
0.0000000001
 12
1.0
 22
0.0
 32
0.0
 13
1.0
 23
0.0
 33
0.0
 40
0.0
 40
0.0
 40
0.0
 40
0.0
 40
1.0
 40
1.0
 40
1.0
 40
2.0
 40
2.0
 40
2.0
 40
3.0
 40
3.0
 40
3.0
 40
4.0
 40
4.0
 40
4.0
 40
5.0
 40
5.0
 40
5.0
 40
6.0
 40
6.0
 40
6.0
 40
7.0
 40
7.0
 40
7.0
 40
8.0
 40
8.0
 40
8.0
 40
9.0
 40
9.0
 40
9.0
 40
10.0
 40
10.0
 40
10.0
 40
11.0
 40
11.0
 40
11.0
 40
12.0
 40
12.0
 40
12.0
 40
13.0
 40
13.0
 40
13.0
 40
14.0
 40
14.0
 40
14.0
 40
15.0
 40
15.0
 40
15.0
 40
16.0
 40
16.0
 40
16.0
 40
16.0
 10
101.9203938547282
 20
-130.509518739074
 30
0.0
 10
101.9203938547282
 20
-130.5932345593656
 30
0.0
 10
101.9035128868505
 20
-130.7014105576024
 30
0.0
 10
101.8401231299219
 20
-130.8102755749363
 30
0.0
 10
101.7302245839424
 20
-130.9956217120428
 30
0.0
 10
101.5989664459544
 20
-131.0180148326969
 30
0.0
 10
101.4911349572661
 20
-131.0383408960599
 30
0.0
 10
101.4911349572661
 20
-131.0383408960599
 30
0.0
 10
101.4911349572661
 20
-130.8009738171262
 30
0.0
 10
101.4911349572661
 20
-130.8009738171262
 30
0.0
 10
101.689916966765
 20
-130.7424071938769
 30
0.0
 10
101.7195447879382
 20
-130.6066704317581
 30
0.0
 10
101.7195447879382
 20
-130.5071071722343
 30
0.0
 10
101.7195447879382
 20
-130.357934537723
 30
0.0
 10
101.6199815284145
 20
-130.1953260308192
 30
0.0
 10
101.3874375831601
 20
-130.1953260308192
 30
0.0
 10
101.131466988606
 20
-130.1953260308192
 30
0.0
 10
101.0615315502555
 20
-130.3875623588962
 30
0.0
 10
101.0615315502555
 20
-130.516064420496
 30
0.0
 10
101.0615315502555
 20
-130.5501708658
 30
0.0
 10
101.0615315502555
 20
-130.7014105576024
 30
0.0
 10
101.1907226309523
 20
-130.7964951929953
 30
0.0
 10
101.1907226309523
 20
-130.7964951929953
 30
0.0
 10
101.1717746057835
 20
-130.9842528969415
 30
0.0
 10
101.1717746057835
 20
-130.9842528969415
 30
0.0
 10
101.1717746057835
 20
-130.9842528969415
 30
0.0
 10
100.3253146450576
 20
-130.8554063257931
 30
0.0
 10
100.3253146450576
 20
-130.8554063257931
 30
0.0
 10
100.3253146450576
 20
-130.8554063257931
 30
0.0
 10
100.3253146450576
 20
-130.0234157661053
 30
0.0
 10
100.3253146450576
 20
-130.0234157661053
 30
0.0
 10
100.3253146450576
 20
-130.0234157661053
 30
0.0
 10
100.5199625399742
 20
-130.0234157661053
 30
0.0
 10
100.5199625399742
 20
-130.0234157661053
 30
0.0
 10
100.5199625399742
 20
-130.0234157661053
 30
0.0
 10
100.5199625399742
 20
-130.6810844942395
 30
0.0
 10
100.5199625399742
 20
-130.6810844942395
 30
0.0
 10
100.5199625399742
 20
-130.6810844942395
 30
0.0
 10
100.9430202655629
 20
-130.7513644421386
 30
0.0
 10
100.9430202655629
 20
-130.7513644421386
 30
0.0
 10
100.9092583298074
 20
-130.6859076279188
 30
0.0
 10
100.86895071263
 20
-130.5977131834964
 30
0.0
 10
100.86895071263
 20
-130.4709336696392
 30
0.0
 10
100.86895071263
 20
-130.19980465495
 30
0.0
 10
101.055330378382
 20
-129.9465901367842
 30
0.0
 10
101.3684895579912
 20
-129.9465901367842
 30
0.0
 10
101.6857828521827
 20
-129.9465901367842
 30
0.0
 10
101.9203938547282
 20
-130.1860242730091
 30
0.0
 10
101.9203938547282
 20
-130.509518739074
 30
0.0
  0
HATCH
  5
C2
330
B3
100
AcDbEntity
  8
_U+30EC_U+30A4_U+30E4_U+30FC 1
 62
     7
420
 16777215
100
AcDbHatch
 10
0.0
 20
0.0
 30
0.0
210
0.0
220
0.0
230
1.0
  2
SOLID
 70
     1
 71
     0
 91
        1
 92
        1
 93
        1
 72
     4
 94
        3
 73
     0
 74
     1
 95
       53
 96
       49
 40
0.0
 40
0.0
 40
0.0
 40
0.0
 40
1.0
 40
1.0
 40
1.0
 40
2.0
 40
2.0
 40
2.0
 40
3.0
 40
3.0
 40
3.0
 40
4.0
 40
4.0
 40
4.0
 40
5.0
 40
5.0
 40
5.0
 40
6.0
 40
6.0
 40
6.0
 40
7.0
 40
7.0
 40
7.0
 40
8.0
 40
8.0
 40
8.0
 40
9.0
 40
9.0
 40
9.0
 40
10.0
 40
10.0
 40
10.0
 40
11.0
 40
11.0
 40
11.0
 40
12.0
 40
12.0
 40
12.0
 40
13.0
 40
13.0
 40
13.0
 40
14.0
 40
14.0
 40
14.0
 40
15.0
 40
15.0
 40
15.0
 40
16.0
 40
16.0
 40
16.0
 40
16.0
 10
101.9203938547282
 20
-130.509518739074
 10
101.9203938547282
 20
-130.5932345593656
 10
101.9035128868505
 20
-130.7014105576024
 10
101.8401231299219
 20
-130.8102755749363
 10
101.7302245839424
 20
-130.9956217120428
 10
101.5989664459544
 20
-131.0180148326969
 10
101.4911349572661
 20
-131.0383408960599
 10
101.4911349572661
 20
-131.0383408960599
 10
101.4911349572661
 20
-130.8009738171262
 10
101.4911349572661
 20
-130.8009738171262
 10
101.689916966765
 20
-130.7424071938769
 10
101.7195447879382
 20
-130.6066704317581
 10
101.7195447879382
 20
-130.5071071722343
 10
101.7195447879382
 20
-130.357934537723
 10
101.6199815284145
 20
-130.1953260308192
 10
101.3874375831601
 20
-130.1953260308192
 10
101.131466988606
 20
-130.1953260308192
 10
101.0615315502555
 20
-130.3875623588962
 10
101.0615315502555
 20
-130.516064420496
 10
101.0615315502555
 20
-130.5501708658
 10
101.0615315502555
 20
-130.7014105576024
 10
101.1907226309523
 20
-130.7964951929953
 10
101.1907226309523
 20
-130.7964951929953
 10
101.1717746057835
 20
-130.9842528969415
 10
101.1717746057835
 20
-130.9842528969415
 10
101.1717746057835
 20
-130.9842528969415
 10
100.3253146450576
 20
-130.8554063257931
 10
100.3253146450576
 20
-130.8554063257931
 10
100.3253146450576
 20
-130.8554063257931
 10
100.3253146450576
 20
-130.0234157661053
 10
100.3253146450576
 20
-130.0234157661053
 10
100.3253146450576
 20
-130.0234157661053
 10
100.5199625399742
 20
-130.0234157661053
 10
100.5199625399742
 20
-130.0234157661053
 10
100.5199625399742
 20
-130.0234157661053
 10
100.5199625399742
 20
-130.6810844942395
 10
100.5199625399742
 20
-130.6810844942395
 10
100.5199625399742
 20
-130.6810844942395
 10
100.9430202655629
 20
-130.7513644421386
 10
100.9430202655629
 20
-130.7513644421386
 10
100.9092583298074
 20
-130.6859076279188
 10
100.86895071263
 20
-130.5977131834964
 10
100.86895071263
 20
-130.4709336696392
 10
100.86895071263
 20
-130.19980465495
 10
101.055330378382
 20
-129.9465901367842
 10
101.3684895579912
 20
-129.9465901367842
 10
101.6857828521827
 20
-129.9465901367842
 10
101.9203938547282
 20
-130.1860242730091
 10
101.9203938547282
 20
-130.509518739074
 97
        0
 97
        0
 75
     2
 76
     1
 98
        0
  0
ENDBLK
  5
B6
330
B3
100
AcDbEntity
  8
0
100
AcDbBlockEnd
  0
BLOCK
  5
CD
330
CB
100
AcDbEntity
  8
0
100
AcDbBlockBegin
  2
block 6
 70
     0
 10
0.0
 20
0.0
 30
0.0
  3
block 6
  1

  0
SPLINE
  5
CF
330
CB
100
AcDbEntity
  8
_U+30EC_U+30A4_U+30E4_U+30FC 1
370
     0
100
AcDbSpline
210
0.0
220
0.0
230
1.0
 70
    11
 71
     3
 72
    32
 73
    28
 74
     0
 42
0.0000000001
 43
0.0000000001
 12
1.0
 22
0.0
 32
0.0
 13
1.0
 23
0.0
 33
0.0
 40
0.0
 40
0.0
 40
0.0
 40
0.0
 40
1.0
 40
1.0
 40
1.0
 40
2.0
 40
2.0
 40
2.0
 40
3.0
 40
3.0
 40
3.0
 40
4.0
 40
4.0
 40
4.0
 40
5.0
 40
5.0
 40
5.0
 40
6.0
 40
6.0
 40
6.0
 40
7.0
 40
7.0
 40
7.0
 40
8.0
 40
8.0
 40
8.0
 40
9.0
 40
9.0
 40
9.0
 40
9.0
 10
101.9207383642768
 20
-125.5952622841394
 30
0.0
 10
101.9207383642768
 20
-126.1469943261021
 30
0.0
 10
101.3667670102486
 20
-126.1559515743638
 30
0.0
 10
101.1528265806146
 20
-126.1559515743638
 30
0.0
 10
100.9223496926514
 20
-126.1559515743638
 30
0.0
 10
100.2750162509729
 20
-126.1356255110008
 30
0.0
 10
100.2750162509729
 20
-125.5546101574134
 30
0.0
 10
100.2750162509729
 20
-125.3690917655327
 30
0.0
 10
100.3449516893235
 20
-125.1069199991052
 30
0.0
 10
100.6770588941016
 20
-125.0662678723793
 30
0.0
 10
100.6770588941016
 20
-125.0662678723793
 30
0.0
 10
100.6770588941016
 20
-125.2945054482771
 30
0.0
 10
100.6770588941016
 20
-125.2945054482771
 30
0.0
 10
100.6198703090464
 20
-125.3058742633784
 30
0.0
 10
100.4717312031807
 20
-125.3398084539081
 30
0.0
 10
100.4717312031807
 20
-125.5568494694788
 30
0.0
 10
100.4717312031807
 20
-125.8688028656682
 30
0.0
 10
100.7997042933765
 20
-125.9116943044596
 30
0.0
 10
101.0046874747488
 20
-125.9253024316263
 30
0.0
 10
100.9264838072337
 20
-125.8259114268769
 30
0.0
 10
100.8672281648874
 20
-125.7535644216866
 30
0.0
 10
100.8672281648874
 20
-125.5590887815443
 30
0.0
 10
100.8672281648874
 20
-125.3668524534673
 30
0.0
 10
100.9754041631242
 20
-125.0435302421766
 30
0.0
 10
101.3815809208352
 20
-125.0435302421766
 30
0.0
 10
101.7009412723178
 20
-125.0435302421766
 30
0.0
 10
101.9207383642768
 20
-125.2560926336165
 30
0.0
 10
101.9207383642768
 20
-125.5952622841394
 30
0.0
  0
SPLINE
  5
D0
330
CB
100
AcDbEntity
  8
_U+30EC_U+30A4_U+30E4_U+30FC 1
370
     0
100
AcDbSpline
210
0.0
220
0.0
230
1.0
 70
    11
 71
     3
 72
    17
 73
    13
 74
     0
 42
0.0000000001
 43
0.0000000001
 12
1.0
 22
0.0
 32
0.0
 13
1.0
 23
0.0
 33
0.0
 40
0.0
 40
0.0
 40
0.0
 40
0.0
 40
1.0
 40
1.0
 40
1.0
 40
2.0
 40
2.0
 40
2.0
 40
3.0
 40
3.0
 40
3.0
 40
4.0
 40
4.0
 40
4.0
 40
4.0
 10
101.061876059804
 20
-125.5771755328418
 30
0.0
 10
101.061876059804
 20
-125.8576063053412
 30
0.0
 10
101.2734049225983
 20
-125.8982584320671
 30
0.0
 10
101.3898491499998
 20
-125.8982584320671
 30
0.0
 10
101.5655490197475
 20
-125.8982584320671
 30
0.0
 10
101.7285020361998
 20
-125.796455860478
 30
0.0
 10
101.7285020361998
 20
-125.5997409082702
 30
0.0
 10
101.7285020361998
 20
-125.4708943371219
 30
0.0
 10
101.6692463938535
 20
-125.28330888795
 30
0.0
 10
101.3836479781263
 20
-125.28330888795
 30
0.0
 10
101.1593722620366
 20
-125.28330888795
 30
0.0
 10
101.061876059804
 20
-125.4324815224613
 30
0.0
 10
101.061876059804
 20
-125.5771755328418
 30
0.0
  0
HATCH
  5
D1
330
CB
100
AcDbEntity
  8
_U+30EC_U+30A4_U+30E4_U+30FC 1
 62
     7
420
 16777215
100
AcDbHatch
 10
0.0
 20
0.0
 30
0.0
210
0.0
220
0.0
230
1.0
  2
SOLID
 70
     1
 71
     0
 91
        2
 92
        1
 93
        1
 72
     4
 94
        3
 73
     0
 74
     1
 95
       32
 96
       28
 40
0.0
 40
0.0
 40
0.0
 40
0.0
 40
1.0
 40
1.0
 40
1.0
 40
2.0
 40
2.0
 40
2.0
 40
3.0
 40
3.0
 40
3.0
 40
4.0
 40
4.0
 40
4.0
 40
5.0
 40
5.0
 40
5.0
 40
6.0
 40
6.0
 40
6.0
 40
7.0
 40
7.0
 40
7.0
 40
8.0
 40
8.0
 40
8.0
 40
9.0
 40
9.0
 40
9.0
 40
9.0
 10
101.9207383642768
 20
-125.5952622841394
 10
101.9207383642768
 20
-126.1469943261021
 10
101.3667670102486
 20
-126.1559515743638
 10
101.1528265806146
 20
-126.1559515743638
 10
100.9223496926514
 20
-126.1559515743638
 10
100.2750162509729
 20
-126.1356255110008
 10
100.2750162509729
 20
-125.5546101574134
 10
100.2750162509729
 20
-125.3690917655327
 10
100.3449516893235
 20
-125.1069199991052
 10
100.6770588941016
 20
-125.0662678723793
 10
100.6770588941016
 20
-125.0662678723793
 10
100.6770588941016
 20
-125.2945054482771
 10
100.6770588941016
 20
-125.2945054482771
 10
100.6198703090464
 20
-125.3058742633784
 10
100.4717312031807
 20
-125.3398084539081
 10
100.4717312031807
 20
-125.5568494694788
 10
100.4717312031807
 20
-125.8688028656682
 10
100.7997042933765
 20
-125.9116943044596
 10
101.0046874747488
 20
-125.9253024316263
 10
100.9264838072337
 20
-125.8259114268769
 10
100.8672281648874
 20
-125.7535644216866
 10
100.8672281648874
 20
-125.5590887815443
 10
100.8672281648874
 20
-125.3668524534673
 10
100.9754041631242
 20
-125.0435302421766
 10
101.3815809208352
 20
-125.0435302421766
 10
101.7009412723178
 20
-125.0435302421766
 10
101.9207383642768
 20
-125.2560926336165
 10
101.9207383642768
 20
-125.5952622841394
 97
        0
 97
        0
 92
        1
 93
        1
 72
     4
 94
        3
 73
     0
 74
     1
 95
       17
 96
       13
 40
0.0
 40
0.0
 40
0.0
 40
0.0
 40
1.0
 40
1.0
 40
1.0
 40
2.0
 40
2.0
 40
2.0
 40
3.0
 40
3.0
 40
3.0
 40
4.0
 40
4.0
 40
4.0
 40
4.0
 10
101.061876059804
 20
-125.5771755328418
 10
101.061876059804
 20
-125.8576063053412
 10
101.2734049225983
 20
-125.8982584320671
 10
101.3898491499998
 20
-125.8982584320671
 10
101.5655490197475
 20
-125.8982584320671
 10
101.7285020361998
 20
-125.796455860478
 10
101.7285020361998
 20
-125.5997409082702
 10
101.7285020361998
 20
-125.4708943371219
 10
101.6692463938535
 20
-125.28330888795
 10
101.3836479781263
 20
-125.28330888795
 10
101.1593722620366
 20
-125.28330888795
 10
101.061876059804
 20
-125.4324815224613
 10
101.061876059804
 20
-125.5771755328418
 97
        0
 97
        0
 75
     2
 76
     1
 98
        0
  0
ENDBLK
  5
CE
330
CB
100
AcDbEntity
  8
0
100
AcDbBlockEnd
  0
BLOCK
  5
D9
330
D7
100
AcDbEntity
  8
0
100
AcDbBlockBegin
  2
block 7
 70
     0
 10
0.0
 20
0.0
 30
0.0
  3
block 7
  1

  0
SPLINE
  5
DB
330
D7
100
AcDbEntity
  8
_U+30EC_U+30A4_U+30E4_U+30FC 1
370
     0
100
AcDbSpline
210
0.0
220
0.0
230
1.0
 70
    11
 71
     3
 72
    26
 73
    22
 74
     0
 42
0.0000000001
 43
0.0000000001
 12
1.0
 22
0.0
 32
0.0
 13
1.0
 23
0.0
 33
0.0
 40
0.0
 40
0.0
 40
0.0
 40
0.0
 40
1.0
 40
1.0
 40
1.0
 40
2.0
 40
2.0
 40
2.0
 40
3.0
 40
3.0
 40
3.0
 40
4.0
 40
4.0
 40
4.0
 40
5.0
 40
5.0
 40
5.0
 40
6.0
 40
6.0
 40
6.0
 40
7.0
 40
7.0
 40
7.0
 40
7.0
 10
88.80939396651293
 20
-125.0469753376619
 30
0.0
 10
88.80939396651293
 20
-125.0469753376619
 30
0.0
 10
88.80939396651293
 20
-123.9428222346393
 30
0.0
 10
88.80939396651293
 20
-123.9428222346393
 30
0.0
 10
88.80939396651293
 20
-123.9428222346393
 30
0.0
 10
88.479353819026
 20
-123.9428222346393
 30
0.0
 10
88.479353819026
 20
-123.9428222346393
 30
0.0
 10
88.479353819026
 20
-123.9428222346393
 30
0.0
 10
88.479353819026
 20
-123.7946831287736
 30
0.0
 10
88.479353819026
 20
-123.7946831287736
 30
0.0
 10
88.81146102380409
 20
-123.779869218187
 30
0.0
 10
88.85796981285496
 20
-123.6169162017347
 30
0.0
 10
88.88759763402811
 20
-123.5025390316244
 30
0.0
 10
88.88759763402811
 20
-123.5025390316244
 30
0.0
 10
89.03366968260269
 20
-123.5025390316244
 30
0.0
 10
89.03366968260269
 20
-123.5025390316244
 30
0.0
 10
89.03366968260269
 20
-123.5025390316244
 30
0.0
 10
89.03366968260269
 20
-125.0469753376619
 30
0.0
 10
89.03366968260269
 20
-125.0469753376619
 30
0.0
 10
89.03366968260269
 20
-125.0469753376619
 30
0.0
 10
88.80939396651293
 20
-125.0469753376619
 30
0.0
 10
88.80939396651293
 20
-125.0469753376619
 30
0.0
  0
HATCH
  5
DC
330
D7
100
AcDbEntity
  8
_U+30EC_U+30A4_U+30E4_U+30FC 1
 62
   179
420
  2234388
100
AcDbHatch
 10
0.0
 20
0.0
 30
0.0
210
0.0
220
0.0
230
1.0
  2
SOLID
 70
     1
 71
     0
 91
        1
 92
        1
 93
        1
 72
     4
 94
        3
 73
     0
 74
     1
 95
       26
 96
       22
 40
0.0
 40
0.0
 40
0.0
 40
0.0
 40
1.0
 40
1.0
 40
1.0
 40
2.0
 40
2.0
 40
2.0
 40
3.0
 40
3.0
 40
3.0
 40
4.0
 40
4.0
 40
4.0
 40
5.0
 40
5.0
 40
5.0
 40
6.0
 40
6.0
 40
6.0
 40
7.0
 40
7.0
 40
7.0
 40
7.0
 10
88.80939396651293
 20
-125.0469753376619
 10
88.80939396651293
 20
-125.0469753376619
 10
88.80939396651293
 20
-123.9428222346393
 10
88.80939396651293
 20
-123.9428222346393
 10
88.80939396651293
 20
-123.9428222346393
 10
88.479353819026
 20
-123.9428222346393
 10
88.479353819026
 20
-123.9428222346393
 10
88.479353819026
 20
-123.9428222346393
 10
88.479353819026
 20
-123.7946831287736
 10
88.479353819026
 20
-123.7946831287736
 10
88.81146102380409
 20
-123.779869218187
 10
88.85796981285496
 20
-123.6169162017347
 10
88.88759763402811
 20
-123.5025390316244
 10
88.88759763402811
 20
-123.5025390316244
 10
89.03366968260269
 20
-123.5025390316244
 10
89.03366968260269
 20
-123.5025390316244
 10
89.03366968260269
 20
-123.5025390316244
 10
89.03366968260269
 20
-125.0469753376619
 10
89.03366968260269
 20
-125.0469753376619
 10
89.03366968260269
 20
-125.0469753376619
 10
88.80939396651293
 20
-125.0469753376619
 10
88.80939396651293
 20
-125.0469753376619
 97
        0
 97
        0
 75
     2
 76
     1
 98
        0
  0
ENDBLK
  5
DA
330
D7
100
AcDbEntity
  8
0
100
AcDbBlockEnd
  0
ENDSEC
  0
SECTION
  2
ENTITIES
  0
SPLINE
  5
41
330
1F
100
AcDbEntity
  8
_U+30EC_U+30A4_U+30E4_U+30FC 1
 62
     7
420
 16777215
370
     9
100
AcDbSpline
210
0.0
220
0.0
230
1.0
 70
    11
 71
     3
 72
    17
 73
    13
 74
     0
 42
0.0000000001
 43
0.0000000001
 12
1.0
 22
0.0
 32
0.0
 13
1.0
 23
0.0
 33
0.0
 40
0.0
 40
0.0
 40
0.0
 40
0.0
 40
1.0
 40
1.0
 40
1.0
 40
2.0
 40
2.0
 40
2.0
 40
3.0
 40
3.0
 40
3.0
 40
4.0
 40
4.0
 40
4.0
 40
4.0
 10
100.0083699485739
 20
-138.025011076605
 30
0.0
 10
100.0083699485739
 20
-137.9698719099519
 30
0.0
 10
99.96356717193916
 20
-137.9251044099634
 30
0.0
 10
99.90846328445609
 20
-137.9251044099634
 30
0.0
 10
99.85332411919613
 20
-137.9251044099634
 30
0.0
 10
99.80855662033825
 20
-137.9698719099519
 30
0.0
 10
99.80855662033825
 20
-138.025011076605
 30
0.0
 10
99.80855662033825
 20
-138.0801149654799
 30
0.0
 10
99.85332411919613
 20
-138.1249177432466
 30
0.0
 10
99.90846328445609
 20
-138.1249177432466
 30
0.0
 10
99.96356717193916
 20
-138.1249177432466
 30
0.0
 10
100.0083699485739
 20
-138.0801149654799
 30
0.0
 10
100.0083699485739
 20
-138.025011076605
 30
0.0
  0
SPLINE
  5
42
330
1F
100
AcDbEntity
  8
_U+30EC_U+30A4_U+30E4_U+30FC 1
 62
     7
420
 16777215
370
     9
100
AcDbSpline
210
0.0
220
0.0
230
1.0
 70
    11
 71
     3
 72
    17
 73
    13
 74
     0
 42
0.0000000001
 43
0.0000000001
 12
1.0
 22
0.0
 32
0.0
 13
1.0
 23
0.0
 33
0.0
 40
0.0
 40
0.0
 40
0.0
 40
0.0
 40
1.0
 40
1.0
 40
1.0
 40
2.0
 40
2.0
 40
2.0
 40
3.0
 40
3.0
 40
3.0
 40
4.0
 40
4.0
 40
4.0
 40
4.0
 10
86.10790280320438
 20
-138.025011076605
 30
0.0
 10
86.10790280320438
 20
-137.9698719099519
 30
0.0
 10
86.0631353043465
 20
-137.9251044099634
 30
0.0
 10
86.00799613908654
 20
-137.9251044099634
 30
0.0
 10
85.95289442295613
 20
-137.9251044099634
 30
0.0
 10
85.90809164518973
 20
-137.9698719099519
 30
0.0
 10
85.90809164518973
 20
-138.025011076605
 30
0.0
 10
85.90809164518973
 20
-138.0801149654799
 30
0.0
 10
85.95289442295613
 20
-138.1249177432466
 30
0.0
 10
86.00799613908654
 20
-138.1249177432466
 30
0.0
 10
86.0631353043465
 20
-138.1249177432466
 30
0.0
 10
86.10790280320438
 20
-138.0801149654799
 30
0.0
 10
86.10790280320438
 20
-138.025011076605
 30
0.0
  0
POLYLINE
  5
43
330
1F
100
AcDbEntity
  8
_U+30EC_U+30A4_U+30E4_U+30FC 1
 62
     7
420
 16777215
370
     9
100
AcDb2dPolyline
 66
     1
 10
0.0
 20
0.0
 30
0.0
  0
VERTEX
  5
44
330
43
100
AcDbEntity
  8
_U+30EC_U+30A4_U+30E4_U+30FC 1
 62
     7
420
 16777215
370
     9
100
AcDbVertex
100
AcDb2dVertex
 10
86.00799613908654
 20
-138.025011076605
 30
0.0
  0
VERTEX
  5
45
330
43
100
AcDbEntity
  8
_U+30EC_U+30A4_U+30E4_U+30FC 1
 62
     7
420
 16777215
370
     9
100
AcDbVertex
100
AcDb2dVertex
 10
100.0083699485739
 20
-138.025011076605
 30
0.0
  0
SEQEND
  5
46
330
43
100
AcDbEntity
  8
_U+30EC_U+30A4_U+30E4_U+30FC 1
 62
     7
420
 16777215
370
     9
  0
POLYLINE
  5
47
330
1F
100
AcDbEntity
  8
_U+30EC_U+30A4_U+30E4_U+30FC 1
 62
     7
420
 16777215
370
     9
100
AcDb2dPolyline
 66
     1
 10
0.0
 20
0.0
 30
0.0
  0
VERTEX
  5
48
330
47
100
AcDbEntity
  8
_U+30EC_U+30A4_U+30E4_U+30FC 1
 62
     7
420
 16777215
370
     9
100
AcDbVertex
100
AcDb2dVertex
 10
86.00799613908654
 20
-135.564844688331
 30
0.0
  0
VERTEX
  5
49
330
47
100
AcDbEntity
  8
_U+30EC_U+30A4_U+30E4_U+30FC 1
 62
     7
420
 16777215
370
     9
100
AcDbVertex
100
AcDb2dVertex
 10
86.00799613908654
 20
-139.0251007985771
 30
0.0
  0
SEQEND
  5
4A
330
47
100
AcDbEntity
  8
_U+30EC_U+30A4_U+30E4_U+30FC 1
 62
     7
420
 16777215
370
     9
  0
POLYLINE
  5
4B
330
1F
100
AcDbEntity
  8
_U+30EC_U+30A4_U+30E4_U+30FC 1
 62
     7
420
 16777215
370
     9
100
AcDb2dPolyline
 66
     1
 10
0.0
 20
0.0
 30
0.0
  0
VERTEX
  5
4C
330
4B
100
AcDbEntity
  8
_U+30EC_U+30A4_U+30E4_U+30FC 1
 62
     7
420
 16777215
370
     9
100
AcDbVertex
100
AcDb2dVertex
 10
99.90846328445609
 20
-135.564844688331
 30
0.0
  0
VERTEX
  5
4D
330
4B
100
AcDbEntity
  8
_U+30EC_U+30A4_U+30E4_U+30FC 1
 62
     7
420
 16777215
370
     9
100
AcDbVertex
100
AcDb2dVertex
 10
99.90846328445609
 20
-139.0251007985771
 30
0.0
  0
SEQEND
  5
4E
330
4B
100
AcDbEntity
  8
_U+30EC_U+30A4_U+30E4_U+30FC 1
 62
     7
420
 16777215
370
     9
  0
INSERT
  5
50
330
1F
100
AcDbEntity
  8
_U+30EC_U+30A4_U+30E4_U+30FC 1
100
AcDbBlockReference
  2
block 2
 10
0.0
 20
0.0
 30
0.0
  0
SPLINE
  5
6A
330
1F
100
AcDbEntity
  8
_U+30EC_U+30A4_U+30E4_U+30FC 1
 62
     7
420
 16777215
370
     9
100
AcDbSpline
210
0.0
220
0.0
230
1.0
 70
    11
 71
     3
 72
    17
 73
    13
 74
     0
 42
0.0000000001
 43
0.0000000001
 12
1.0
 22
0.0
 32
0.0
 13
1.0
 23
0.0
 33
0.0
 40
0.0
 40
0.0
 40
0.0
 40
0.0
 40
1.0
 40
1.0
 40
1.0
 40
2.0
 40
2.0
 40
2.0
 40
3.0
 40
3.0
 40
3.0
 40
4.0
 40
4.0
 40
4.0
 40
4.0
 10
93.20843734427687
 20
-120.4339941365583
 30
0.0
 10
93.20843734427687
 20
-120.3788549699052
 30
0.0
 10
93.16363456764212
 20
-120.3340874699166
 30
0.0
 10
93.10853068015903
 20
-120.3340874699166
 30
0.0
 10
93.05339151489909
 20
-120.3340874699166
 30
0.0
 10
93.00862401604121
 20
-120.3788549699052
 30
0.0
 10
93.00862401604121
 20
-120.4339941365583
 30
0.0
 10
93.00862401604121
 20
-120.4890980254332
 30
0.0
 10
93.05339151489909
 20
-120.5339008031999
 30
0.0
 10
93.10853068015903
 20
-120.5339008031999
 30
0.0
 10
93.16363456764212
 20
-120.5339008031999
 30
0.0
 10
93.20843734427687
 20
-120.4890980254332
 30
0.0
 10
93.20843734427687
 20
-120.4339941365583
 30
0.0
  0
SPLINE
  5
6B
330
1F
100
AcDbEntity
  8
_U+30EC_U+30A4_U+30E4_U+30FC 1
 62
     7
420
 16777215
370
     9
100
AcDbSpline
210
0.0
220
0.0
230
1.0
 70
    11
 71
     3
 72
    17
 73
    13
 74
     0
 42
0.0000000001
 43
0.0000000001
 12
1.0
 22
0.0
 32
0.0
 13
1.0
 23
0.0
 33
0.0
 40
0.0
 40
0.0
 40
0.0
 40
0.0
 40
1.0
 40
1.0
 40
1.0
 40
2.0
 40
2.0
 40
2.0
 40
3.0
 40
3.0
 40
3.0
 40
4.0
 40
4.0
 40
4.0
 40
4.0
 10
87.20828721957568
 20
-120.4339941365583
 30
0.0
 10
87.20828721957568
 20
-120.3788549699052
 30
0.0
 10
87.16348444294091
 20
-120.3340874699166
 30
0.0
 10
87.10838055545784
 20
-120.3340874699166
 30
0.0
 10
87.0532413901979
 20
-120.3340874699166
 30
0.0
 10
87.00847389134002
 20
-120.3788549699052
 30
0.0
 10
87.00847389134002
 20
-120.4339941365583
 30
0.0
 10
87.00847389134002
 20
-120.4890980254332
 30
0.0
 10
87.0532413901979
 20
-120.5339008031999
 30
0.0
 10
87.10838055545784
 20
-120.5339008031999
 30
0.0
 10
87.16348444294091
 20
-120.5339008031999
 30
0.0
 10
87.20828721957568
 20
-120.4890980254332
 30
0.0
 10
87.20828721957568
 20
-120.4339941365583
 30
0.0
  0
POLYLINE
  5
6C
330
1F
100
AcDbEntity
  8
_U+30EC_U+30A4_U+30E4_U+30FC 1
 62
     7
420
 16777215
370
     9
100
AcDb2dPolyline
 66
     1
 10
0.0
 20
0.0
 30
0.0
  0
VERTEX
  5
6D
330
6C
100
AcDbEntity
  8
_U+30EC_U+30A4_U+30E4_U+30FC 1
 62
     7
420
 16777215
370
     9
100
AcDbVertex
100
AcDb2dVertex
 10
87.10838055545784
 20
-120.4339941365583
 30
0.0
  0
VERTEX
  5
6E
330
6C
100
AcDbEntity
  8
_U+30EC_U+30A4_U+30E4_U+30FC 1
 62
     7
420
 16777215
370
     9
100
AcDbVertex
100
AcDb2dVertex
 10
93.10853068015903
 20
-120.4339941365583
 30
0.0
  0
SEQEND
  5
6F
330
6C
100
AcDbEntity
  8
_U+30EC_U+30A4_U+30E4_U+30FC 1
 62
     7
420
 16777215
370
     9
  0
POLYLINE
  5
70
330
1F
100
AcDbEntity
  8
_U+30EC_U+30A4_U+30E4_U+30FC 1
 62
     7
420
 16777215
370
     9
100
AcDb2dPolyline
 66
     1
 10
0.0
 20
0.0
 30
0.0
  0
VERTEX
  5
71
330
70
100
AcDbEntity
  8
_U+30EC_U+30A4_U+30E4_U+30FC 1
 62
     7
420
 16777215
370
     9
100
AcDbVertex
100
AcDb2dVertex
 10
87.10838055545784
 20
-118.9739527480342
 30
0.0
  0
VERTEX
  5
72
330
70
100
AcDbEntity
  8
_U+30EC_U+30A4_U+30E4_U+30FC 1
 62
     7
420
 16777215
370
     9
100
AcDbVertex
100
AcDb2dVertex
 10
87.10838055545784
 20
-121.4341191363082
 30
0.0
  0
SEQEND
  5
73
330
70
100
AcDbEntity
  8
_U+30EC_U+30A4_U+30E4_U+30FC 1
 62
     7
420
 16777215
370
     9
  0
POLYLINE
  5
74
330
1F
100
AcDbEntity
  8
_U+30EC_U+30A4_U+30E4_U+30FC 1
 62
     7
420
 16777215
370
     9
100
AcDb2dPolyline
 66
     1
 10
0.0
 20
0.0
 30
0.0
  0
VERTEX
  5
75
330
74
100
AcDbEntity
  8
_U+30EC_U+30A4_U+30E4_U+30FC 1
 62
     7
420
 16777215
370
     9
100
AcDbVertex
100
AcDb2dVertex
 10
93.10853068015903
 20
-118.9739527480342
 30
0.0
  0
VERTEX
  5
76
330
74
100
AcDbEntity
  8
_U+30EC_U+30A4_U+30E4_U+30FC 1
 62
     7
420
 16777215
370
     9
100
AcDbVertex
100
AcDb2dVertex
 10
93.10853068015903
 20
-121.4341191363082
 30
0.0
  0
SEQEND
  5
77
330
74
100
AcDbEntity
  8
_U+30EC_U+30A4_U+30E4_U+30FC 1
 62
     7
420
 16777215
370
     9
  0
INSERT
  5
79
330
1F
100
AcDbEntity
  8
_U+30EC_U+30A4_U+30E4_U+30FC 1
100
AcDbBlockReference
  2
block 3
 10
0.0
 20
0.0
 30
0.0
  0
SPLINE
  5
7F
330
1F
100
AcDbEntity
  8
_U+30EC_U+30A4_U+30E4_U+30FC 1
 62
     7
420
 16777215
370
     9
100
AcDbSpline
210
0.0
220
0.0
230
1.0
 70
    11
 71
     3
 72
    17
 73
    13
 74
     0
 42
0.0000000001
 43
0.0000000001
 12
1.0
 22
0.0
 32
0.0
 13
1.0
 23
0.0
 33
0.0
 40
0.0
 40
0.0
 40
0.0
 40
0.0
 40
1.0
 40
1.0
 40
1.0
 40
2.0
 40
2.0
 40
2.0
 40
3.0
 40
3.0
 40
3.0
 40
4.0
 40
4.0
 40
4.0
 40
4.0
 10
82.10817901635694
 20
-122.5405008026983
 30
0.0
 10
82.10817901635694
 20
-122.4853616360452
 30
0.0
 10
82.06337623972219
 20
-122.4405941360566
 30
0.0
 10
82.00827235223912
 20
-122.4405941360566
 30
0.0
 10
81.95313318697916
 20
-122.4405941360566
 30
0.0
 10
81.90836568812128
 20
-122.4853616360452
 30
0.0
 10
81.90836568812128
 20
-122.5405008026983
 30
0.0
 10
81.90836568812128
 20
-122.5956046915732
 30
0.0
 10
81.95313318697916
 20
-122.6404074693399
 30
0.0
 10
82.00827235223912
 20
-122.6404074693399
 30
0.0
 10
82.06337623972219
 20
-122.6404074693399
 30
0.0
 10
82.10817901635694
 20
-122.5956046915732
 30
0.0
 10
82.10817901635694
 20
-122.5405008026983
 30
0.0
  0
SPLINE
  5
80
330
1F
100
AcDbEntity
  8
_U+30EC_U+30A4_U+30E4_U+30FC 1
 62
     7
420
 16777215
370
     9
100
AcDbSpline
210
0.0
220
0.0
230
1.0
 70
    11
 71
     3
 72
    17
 73
    13
 74
     0
 42
0.0000000001
 43
0.0000000001
 12
1.0
 22
0.0
 32
0.0
 13
1.0
 23
0.0
 33
0.0
 40
0.0
 40
0.0
 40
0.0
 40
0.0
 40
1.0
 40
1.0
 40
1.0
 40
2.0
 40
2.0
 40
2.0
 40
3.0
 40
3.0
 40
3.0
 40
4.0
 40
4.0
 40
4.0
 40
4.0
 10
82.10817901635694
 20
-134.0403860776011
 30
0.0
 10
82.10817901635694
 20
-133.9852821887262
 30
0.0
 10
82.06337623972219
 20
-133.9404794109595
 30
0.0
 10
82.00827235223912
 20
-133.9404794109595
 30
0.0
 10
81.95313318697916
 20
-133.9404794109595
 30
0.0
 10
81.90836568812128
 20
-133.9852821887262
 30
0.0
 10
81.90836568812128
 20
-134.0403860776011
 30
0.0
 10
81.90836568812128
 20
-134.0958780220313
 30
0.0
 10
81.95313318697916
 20
-134.1406455220205
 30
0.0
 10
82.00827235223912
 20
-134.1406455220205
 30
0.0
 10
82.06337623972219
 20
-134.1406455220205
 30
0.0
 10
82.10817901635694
 20
-134.0958780220313
 30
0.0
 10
82.10817901635694
 20
-134.0403860776011
 30
0.0
  0
POLYLINE
  5
81
330
1F
100
AcDbEntity
  8
_U+30EC_U+30A4_U+30E4_U+30FC 1
 62
     7
420
 16777215
370
     9
100
AcDb2dPolyline
 66
     1
 10
0.0
 20
0.0
 30
0.0
  0
VERTEX
  5
82
330
81
100
AcDbEntity
  8
_U+30EC_U+30A4_U+30E4_U+30FC 1
 62
     7
420
 16777215
370
     9
100
AcDbVertex
100
AcDb2dVertex
 10
82.00827235223912
 20
-134.0403860776011
 30
0.0
  0
VERTEX
  5
83
330
81
100
AcDbEntity
  8
_U+30EC_U+30A4_U+30E4_U+30FC 1
 62
     7
420
 16777215
370
     9
100
AcDbVertex
100
AcDb2dVertex
 10
82.00827235223912
 20
-122.5405008026983
 30
0.0
  0
SEQEND
  5
84
330
81
100
AcDbEntity
  8
_U+30EC_U+30A4_U+30E4_U+30FC 1
 62
     7
420
 16777215
370
     9
  0
POLYLINE
  5
85
330
1F
100
AcDbEntity
  8
_U+30EC_U+30A4_U+30E4_U+30FC 1
 62
     7
420
 16777215
370
     9
100
AcDb2dPolyline
 66
     1
 10
0.0
 20
0.0
 30
0.0
  0
VERTEX
  5
86
330
85
100
AcDbEntity
  8
_U+30EC_U+30A4_U+30E4_U+30FC 1
 62
     7
420
 16777215
370
     9
100
AcDbVertex
100
AcDb2dVertex
 10
84.46805275666074
 20
-134.0403860776011
 30
0.0
  0
VERTEX
  5
87
330
85
100
AcDbEntity
  8
_U+30EC_U+30A4_U+30E4_U+30FC 1
 62
     7
420
 16777215
370
     9
100
AcDbVertex
100
AcDb2dVertex
 10
81.00850015552321
 20
-134.0403860776011
 30
0.0
  0
SEQEND
  5
88
330
85
100
AcDbEntity
  8
_U+30EC_U+30A4_U+30E4_U+30FC 1
 62
     7
420
 16777215
370
     9
  0
POLYLINE
  5
89
330
1F
100
AcDbEntity
  8
_U+30EC_U+30A4_U+30E4_U+30FC 1
 62
     7
420
 16777215
370
     9
100
AcDb2dPolyline
 66
     1
 10
0.0
 20
0.0
 30
0.0
  0
VERTEX
  5
8A
330
89
100
AcDbEntity
  8
_U+30EC_U+30A4_U+30E4_U+30FC 1
 62
     7
420
 16777215
370
     9
100
AcDbVertex
100
AcDb2dVertex
 10
83.46828053468852
 20
-122.5405008026983
 30
0.0
  0
VERTEX
  5
8B
330
89
100
AcDbEntity
  8
_U+30EC_U+30A4_U+30E4_U+30FC 1
 62
     7
420
 16777215
370
     9
100
AcDbVertex
100
AcDb2dVertex
 10
81.00850015552321
 20
-122.5405008026983
 30
0.0
  0
SEQEND
  5
8C
330
89
100
AcDbEntity
  8
_U+30EC_U+30A4_U+30E4_U+30FC 1
 62
     7
420
 16777215
370
     9
  0
INSERT
  5
8E
330
1F
100
AcDbEntity
  8
_U+30EC_U+30A4_U+30E4_U+30FC 1
100
AcDbBlockReference
  2
block 4
 10
0.0
 20
0.0
 30
0.0
  0
SPLINE
  5
9F
330
1F
100
AcDbEntity
  8
_U+30EC_U+30A4_U+30E4_U+30FC 1
 62
     7
420
 16777215
370
     9
100
AcDbSpline
210
0.0
220
0.0
230
1.0
 70
    11
 71
     3
 72
    17
 73
    13
 74
     0
 42
0.0000000001
 43
0.0000000001
 12
1.0
 22
0.0
 32
0.0
 13
1.0
 23
0.0
 33
0.0
 40
0.0
 40
0.0
 40
0.0
 40
0.0
 40
1.0
 40
1.0
 40
1.0
 40
2.0
 40
2.0
 40
2.0
 40
3.0
 40
3.0
 40
3.0
 40
4.0
 40
4.0
 40
4.0
 40
4.0
 10
102.5653032166745
 20
-132.9407071889869
 30
0.0
 10
102.5653032166745
 20
-132.8856033001121
 30
0.0
 10
102.5205357178166
 20
-132.8408005223453
 30
0.0
 10
102.4653965525566
 20
-132.8408005223453
 30
0.0
 10
102.4102926650735
 20
-132.8408005223453
 30
0.0
 10
102.3654898884388
 20
-132.8856033001121
 30
0.0
 10
102.3654898884388
 20
-132.9407071889869
 30
0.0
 10
102.3654898884388
 20
-132.99584635564
 30
0.0
 10
102.4102926650735
 20
-133.0406138556286
 30
0.0
 10
102.4653965525566
 20
-133.0406138556286
 30
0.0
 10
102.5205357178166
 20
-133.0406138556286
 30
0.0
 10
102.5653032166745
 20
-132.99584635564
 30
0.0
 10
102.5653032166745
 20
-132.9407071889869
 30
0.0
  0
SPLINE
  5
A0
330
1F
100
AcDbEntity
  8
_U+30EC_U+30A4_U+30E4_U+30FC 1
 62
     7
420
 16777215
370
     9
100
AcDbSpline
210
0.0
220
0.0
230
1.0
 70
    11
 71
     3
 72
    17
 73
    13
 74
     0
 42
0.0000000001
 43
0.0000000001
 12
1.0
 22
0.0
 32
0.0
 13
1.0
 23
0.0
 33
0.0
 40
0.0
 40
0.0
 40
0.0
 40
0.0
 40
1.0
 40
1.0
 40
1.0
 40
2.0
 40
2.0
 40
2.0
 40
3.0
 40
3.0
 40
3.0
 40
4.0
 40
4.0
 40
4.0
 40
4.0
 10
102.5653032166745
 20
-129.540423300948
 30
0.0
 10
102.5653032166745
 20
-129.4852841342956
 30
0.0
 10
102.5205357178166
 20
-129.4405166343064
 30
0.0
 10
102.4653965525566
 20
-129.4405166343064
 30
0.0
 10
102.4102926650735
 20
-129.4405166343064
 30
0.0
 10
102.3654898884388
 20
-129.4852841342956
 30
0.0
 10
102.3654898884388
 20
-129.540423300948
 30
0.0
 10
102.3654898884388
 20
-129.5962327453785
 30
0.0
 10
102.4102926650735
 20
-129.6410002453677
 30
0.0
 10
102.4653965525566
 20
-129.6410002453677
 30
0.0
 10
102.5205357178166
 20
-129.6410002453677
 30
0.0
 10
102.5653032166745
 20
-129.5962327453785
 30
0.0
 10
102.5653032166745
 20
-129.540423300948
 30
0.0
  0
SPLINE
  5
A1
330
1F
100
AcDbEntity
  8
_U+30EC_U+30A4_U+30E4_U+30FC 1
 62
     7
420
 16777215
370
     9
100
AcDbSpline
210
0.0
220
0.0
230
1.0
 70
    11
 71
     3
 72
    17
 73
    13
 74
     0
 42
0.0000000001
 43
0.0000000001
 12
1.0
 22
0.0
 32
0.0
 13
1.0
 23
0.0
 33
0.0
 40
0.0
 40
0.0
 40
0.0
 40
0.0
 40
1.0
 40
1.0
 40
1.0
 40
2.0
 40
2.0
 40
2.0
 40
3.0
 40
3.0
 40
3.0
 40
4.0
 40
4.0
 40
4.0
 40
4.0
 10
102.5653032166745
 20
-122.5406771915872
 30
0.0
 10
102.5653032166745
 20
-122.4855380249341
 30
0.0
 10
102.5205357178166
 20
-122.4407705249455
 30
0.0
 10
102.4653965525566
 20
-122.4407705249455
 30
0.0
 10
102.4102926650735
 20
-122.4407705249455
 30
0.0
 10
102.3654898884388
 20
-122.4855380249341
 30
0.0
 10
102.3654898884388
 20
-122.5406771915872
 30
0.0
 10
102.3654898884388
 20
-122.5957810804621
 30
0.0
 10
102.4102926650735
 20
-122.6405838582288
 30
0.0
 10
102.4653965525566
 20
-122.6405838582288
 30
0.0
 10
102.5205357178166
 20
-122.6405838582288
 30
0.0
 10
102.5653032166745
 20
-122.5957810804621
 30
0.0
 10
102.5653032166745
 20
-122.5406771915872
 30
0.0
  0
POLYLINE
  5
A2
330
1F
100
AcDbEntity
  8
_U+30EC_U+30A4_U+30E4_U+30FC 1
 62
     7
420
 16777215
370
     9
100
AcDb2dPolyline
 66
     1
 10
0.0
 20
0.0
 30
0.0
  0
VERTEX
  5
A3
330
A2
100
AcDbEntity
  8
_U+30EC_U+30A4_U+30E4_U+30FC 1
 62
     7
420
 16777215
370
     9
100
AcDbVertex
100
AcDb2dVertex
 10
102.4653965525566
 20
-132.9407071889869
 30
0.0
  0
VERTEX
  5
A4
330
A2
100
AcDbEntity
  8
_U+30EC_U+30A4_U+30E4_U+30FC 1
 62
     7
420
 16777215
370
     9
100
AcDbVertex
100
AcDb2dVertex
 10
102.4653965525566
 20
-129.4405166343064
 30
0.0
  0
SEQEND
  5
A5
330
A2
100
AcDbEntity
  8
_U+30EC_U+30A4_U+30E4_U+30FC 1
 62
     7
420
 16777215
370
     9
  0
POLYLINE
  5
A6
330
1F
100
AcDbEntity
  8
_U+30EC_U+30A4_U+30E4_U+30FC 1
 62
     7
420
 16777215
370
     9
100
AcDb2dPolyline
 66
     1
 10
0.0
 20
0.0
 30
0.0
  0
VERTEX
  5
A7
330
A6
100
AcDbEntity
  8
_U+30EC_U+30A4_U+30E4_U+30FC 1
 62
     7
420
 16777215
370
     9
100
AcDbVertex
100
AcDb2dVertex
 10
96.00515366181558
 20
-132.9407071889869
 30
0.0
  0
VERTEX
  5
A8
330
A6
100
AcDbEntity
  8
_U+30EC_U+30A4_U+30E4_U+30FC 1
 62
     7
420
 16777215
370
     9
100
AcDbVertex
100
AcDb2dVertex
 10
103.4651687492725
 20
-132.9407071889869
 30
0.0
  0
SEQEND
  5
A9
330
A6
100
AcDbEntity
  8
_U+30EC_U+30A4_U+30E4_U+30FC 1
 62
     7
420
 16777215
370
     9
  0
POLYLINE
  5
AA
330
1F
100
AcDbEntity
  8
_U+30EC_U+30A4_U+30E4_U+30FC 1
 62
     7
420
 16777215
370
     9
100
AcDb2dPolyline
 66
     1
 10
0.0
 20
0.0
 30
0.0
  0
VERTEX
  5
AB
330
AA
100
AcDbEntity
  8
_U+30EC_U+30A4_U+30E4_U+30FC 1
 62
     7
420
 16777215
370
     9
100
AcDbVertex
100
AcDb2dVertex
 10
96.00515366181558
 20
-129.540423300948
 30
0.0
  0
VERTEX
  5
AC
330
AA
100
AcDbEntity
  8
_U+30EC_U+30A4_U+30E4_U+30FC 1
 62
     7
420
 16777215
370
     9
100
AcDbVertex
100
AcDb2dVertex
 10
103.4651687492725
 20
-129.540423300948
 30
0.0
  0
SEQEND
  5
AD
330
AA
100
AcDbEntity
  8
_U+30EC_U+30A4_U+30E4_U+30FC 1
 62
     7
420
 16777215
370
     9
  0
SPLINE
  5
AE
330
1F
100
AcDbEntity
  8
_U+30EC_U+30A4_U+30E4_U+30FC 1
 62
     7
420
 16777215
370
     9
100
AcDbSpline
210
0.0
220
0.0
230
1.0
 70
    11
 71
     3
 72
    17
 73
    13
 74
     0
 42
0.0000000001
 43
0.0000000001
 12
1.0
 22
0.0
 32
0.0
 13
1.0
 23
0.0
 33
0.0
 40
0.0
 40
0.0
 40
0.0
 40
0.0
 40
1.0
 40
1.0
 40
1.0
 40
2.0
 40
2.0
 40
2.0
 40
3.0
 40
3.0
 40
3.0
 40
4.0
 40
4.0
 40
4.0
 40
4.0
 10
102.5653032166745
 20
-128.440038856779
 30
0.0
 10
102.5653032166745
 20
-128.3849349679038
 30
0.0
 10
102.5205357178166
 20
-128.3401321901374
 30
0.0
 10
102.4653965525566
 20
-128.3401321901374
 30
0.0
 10
102.4102926650735
 20
-128.3401321901374
 30
0.0
 10
102.3654898884388
 20
-128.3849349679038
 30
0.0
 10
102.3654898884388
 20
-128.440038856779
 30
0.0
 10
102.3654898884388
 20
-128.4958483012094
 30
0.0
 10
102.4102926650735
 20
-128.5406510789759
 30
0.0
 10
102.4653965525566
 20
-128.5406510789759
 30
0.0
 10
102.5205357178166
 20
-128.5406510789759
 30
0.0
 10
102.5653032166745
 20
-128.4958483012094
 30
0.0
 10
102.5653032166745
 20
-128.440038856779
 30
0.0
  0
POLYLINE
  5
AF
330
1F
100
AcDbEntity
  8
_U+30EC_U+30A4_U+30E4_U+30FC 1
 62
     7
420
 16777215
370
     9
100
AcDb2dPolyline
 66
     1
 10
0.0
 20
0.0
 30
0.0
  0
VERTEX
  5
B0
330
AF
100
AcDbEntity
  8
_U+30EC_U+30A4_U+30E4_U+30FC 1
 62
     7
420
 16777215
370
     9
100
AcDbVertex
100
AcDb2dVertex
 10
96.00515366181558
 20
-128.440038856779
 30
0.0
  0
VERTEX
  5
B1
330
AF
100
AcDbEntity
  8
_U+30EC_U+30A4_U+30E4_U+30FC 1
 62
     7
420
 16777215
370
     9
100
AcDbVertex
100
AcDb2dVertex
 10
103.4651687492725
 20
-128.440038856779
 30
0.0
  0
SEQEND
  5
B2
330
AF
100
AcDbEntity
  8
_U+30EC_U+30A4_U+30E4_U+30FC 1
 62
     7
420
 16777215
370
     9
  0
INSERT
  5
B4
330
1F
100
AcDbEntity
  8
_U+30EC_U+30A4_U+30E4_U+30FC 1
100
AcDbBlockReference
  2
block 5
 10
0.0
 20
0.0
 30
0.0
  0
POLYLINE
  5
C3
330
1F
100
AcDbEntity
  8
_U+30EC_U+30A4_U+30E4_U+30FC 1
 62
     7
420
 16777215
370
     9
100
AcDb2dPolyline
 66
     1
 10
0.0
 20
0.0
 30
0.0
  0
VERTEX
  5
C4
330
C3
100
AcDbEntity
  8
_U+30EC_U+30A4_U+30E4_U+30FC 1
 62
     7
420
 16777215
370
     9
100
AcDbVertex
100
AcDb2dVertex
 10
102.4653965525566
 20
-129.540423300948
 30
0.0
  0
VERTEX
  5
C5
330
C3
100
AcDbEntity
  8
_U+30EC_U+30A4_U+30E4_U+30FC 1
 62
     7
420
 16777215
370
     9
100
AcDbVertex
100
AcDb2dVertex
 10
102.4653965525566
 20
-122.5406771915872
 30
0.0
  0
SEQEND
  5
C6
330
C3
100
AcDbEntity
  8
_U+30EC_U+30A4_U+30E4_U+30FC 1
 62
     7
420
 16777215
370
     9
  0
POLYLINE
  5
C7
330
1F
100
AcDbEntity
  8
_U+30EC_U+30A4_U+30E4_U+30FC 1
 62
     7
420
 16777215
370
     9
100
AcDb2dPolyline
 66
     1
 10
0.0
 20
0.0
 30
0.0
  0
VERTEX
  5
C8
330
C7
100
AcDbEntity
  8
_U+30EC_U+30A4_U+30E4_U+30FC 1
 62
     7
420
 16777215
370
     9
100
AcDbVertex
100
AcDb2dVertex
 10
96.00515366181558
 20
-122.5406771915872
 30
0.0
  0
VERTEX
  5
C9
330
C7
100
AcDbEntity
  8
_U+30EC_U+30A4_U+30E4_U+30FC 1
 62
     7
420
 16777215
370
     9
100
AcDbVertex
100
AcDb2dVertex
 10
103.4651687492725
 20
-122.5406771915872
 30
0.0
  0
SEQEND
  5
CA
330
C7
100
AcDbEntity
  8
_U+30EC_U+30A4_U+30E4_U+30FC 1
 62
     7
420
 16777215
370
     9
  0
INSERT
  5
CC
330
1F
100
AcDbEntity
  8
_U+30EC_U+30A4_U+30E4_U+30FC 1
100
AcDbBlockReference
  2
block 6
 10
0.0
 20
0.0
 30
0.0
  0
SPLINE
  5
D2
330
1F
100
AcDbEntity
  8
_U+30EC_U+30A4_U+30E4_U+30FC 1
 62
   179
420
  2234388
370
    25
100
AcDbSpline
210
0.0
220
0.0
230
1.0
 70
    11
 71
     3
 72
    44
 73
    40
 74
     0
 42
0.0000000001
 43
0.0000000001
 12
1.0
 22
0.0
 32
0.0
 13
1.0
 23
0.0
 33
0.0
 40
0.0
 40
0.0
 40
0.0
 40
0.0
 40
1.0
 40
1.0
 40
1.0
 40
2.0
 40
2.0
 40
2.0
 40
3.0
 40
3.0
 40
3.0
 40
4.0
 40
4.0
 40
4.0
 40
5.0
 40
5.0
 40
5.0
 40
6.0
 40
6.0
 40
6.0
 40
7.0
 40
7.0
 40
7.0
 40
8.0
 40
8.0
 40
8.0
 40
9.0
 40
9.0
 40
9.0
 40
10.0
 40
10.0
 40
10.0
 40
11.0
 40
11.0
 40
11.0
 40
12.0
 40
12.0
 40
12.0
 40
13.0
 40
13.0
 40
13.0
 40
13.0
 10
87.00466389143722
 20
-123.5404494135594
 30
0.0
 10
87.00466389143722
 20
-122.9878583025865
 30
0.0
 10
86.55681251397397
 20
-122.5403244138094
 30
0.0
 10
86.00492697249818
 20
-122.5403244138094
 30
0.0
 10
86.00492697249818
 20
-122.5403244138094
 30
0.0
 10
86.00492697249818
 20
-133.0406138556286
 30
0.0
 10
86.00492697249818
 20
-133.0406138556286
 30
0.0
 10
86.00492697249818
 20
-133.5928874666019
 30
0.0
 10
86.4527805339424
 20
-134.0403860776011
 30
0.0
 10
87.00466389143722
 20
-134.0403860776011
 30
0.0
 10
87.00466389143722
 20
-134.0403860776011
 30
0.0
 10
100.0049127264399
 20
-134.0403860776011
 30
0.0
 10
100.0049127264399
 20
-134.0403860776011
 30
0.0
 10
100.0049127264399
 20
-133.5987435777112
 30
0.0
 10
99.64730190222998
 20
-133.24046246669
 30
0.0
 10
99.20495385795967
 20
-133.24046246669
 30
0.0
 10
99.20495385795967
 20
-133.24046246669
 30
0.0
 10
93.35106539619369
 20
-133.24046246669
 30
0.0
 10
93.35106539619369
 20
-133.24046246669
 30
0.0
 10
93.35106539619369
 20
-133.24046246669
 30
0.0
 10
93.00516679390718
 20
-133.040296355629
 30
0.0
 10
93.00516679390718
 20
-133.040296355629
 30
0.0
 10
93.00516679390718
 20
-133.040296355629
 30
0.0
 10
87.00501666920599
 20
-133.040296355629
 30
0.0
 10
87.00501666920599
 20
-133.040296355629
 30
0.0
 10
87.00501666920599
 20
-133.040296355629
 30
0.0
 10
87.00501666920599
 20
-129.540423300948
 30
0.0
 10
87.00501666920599
 20
-129.540423300948
 30
0.0
 10
87.00501666920599
 20
-129.540423300948
 30
0.0
 10
93.00516679390718
 20
-129.540423300948
 30
0.0
 10
93.00516679390718
 20
-129.540423300948
 30
0.0
 10
93.00516679390718
 20
-128.9878321899752
 30
0.0
 10
92.55731541644394
 20
-128.5402983011984
 30
0.0
 10
92.0047243194306
 20
-128.5402983011984
 30
0.0
 10
92.0047243194306
 20
-128.5402983011984
 30
0.0
 10
87.00501666920599
 20
-128.5402983011984
 30
0.0
 10
87.00501666920599
 20
-128.5402983011984
 30
0.0
 10
87.00501666920599
 20
-128.5402983011984
 30
0.0
 10
87.00466389143722
 20
-123.5404494135594
 30
0.0
 10
87.00466389143722
 20
-123.5404494135594
 30
0.0
  0
POLYLINE
  5
D3
330
1F
100
AcDbEntity
  8
_U+30EC_U+30A4_U+30E4_U+30FC 1
 62
   179
420
  2234388
370
     9
100
AcDb2dPolyline
 66
     1
 10
0.0
 20
0.0
 30
0.0
  0
VERTEX
  5
D4
330
D3
100
AcDbEntity
  8
_U+30EC_U+30A4_U+30E4_U+30FC 1
 62
   179
420
  2234388
370
     9
100
AcDbVertex
100
AcDb2dVertex
 10
85.00515477578227
 20
-125.4962141352925
 30
0.0
  0
VERTEX
  5
D5
330
D3
100
AcDbEntity
  8
_U+30EC_U+30A4_U+30E4_U+30FC 1
 62
   179
420
  2234388
370
     9
100
AcDbVertex
100
AcDb2dVertex
 10
89.62569688012465
 20
-125.4962141352925
 30
0.0
  0
SEQEND
  5
D6
330
D3
100
AcDbEntity
  8
_U+30EC_U+30A4_U+30E4_U+30FC 1
 62
   179
420
  2234388
370
     9
  0
INSERT
  5
D8
330
1F
100
AcDbEntity
  8
_U+30EC_U+30A4_U+30E4_U+30FC 1
100
AcDbBlockReference
  2
block 7
 10
0.0
 20
0.0
 30
0.0
  0
ENDSEC
  0
SECTION
  2
OBJECTS
  0
DICTIONARY
  5
C
330
0
100
AcDbDictionary
281
     1
  3
ACAD_GROUP
350
D
  3
ACAD_LAYOUT
350
1A
  3
ACAD_MATERIAL
350
3B
  3
ACAD_MLEADERSTYLE
350
DE
  3
ACAD_MLINESTYLE
350
17
  3
ACAD_PLOTSETTINGS
350
19
  3
ACAD_PLOTSTYLENAME
350
E
  3
ACAD_TABLESTYLE
350
DD
  3
ACAD_VISUALSTYLE
350
2A
  0
SUN
  5
3F
330
29
100
AcDbSun
 90
        1
290
     0
 63
     7
421
 16777215
 40
1.0
291
     1
 91
  2455826
 92
 54000000
292
     0
 70
     2
 71
   256
280
     1
  0
DICTIONARY
  5
D
102
{ACAD_REACTORS
330
C
102
}
330
C
100
AcDbDictionary
281
     1
  0
DICTIONARY
  5
1A
102
{ACAD_REACTORS
330
C
102
}
330
C
100
AcDbDictionary
281
     1
  3
Layout1
350
1E
  3
Layout2
350
26
  3
Model
350
22
  0
DICTIONARY
  5
3B
102
{ACAD_REACTORS
330
C
102
}
330
C
100
AcDbDictionary
281
     1
  3
ByBlock
350
3D
  3
ByLayer
350
3C
  3
Global
350
3E
  0
DICTIONARY
  5
DE
102
{ACAD_REACTORS
330
C
102
}
330
C
100
AcDbDictionary
281
     1
  0
DICTIONARY
  5
17
102
{ACAD_REACTORS
330
C
102
}
330
C
100
AcDbDictionary
281
     1
  3
Standard
350
18
  0
DICTIONARY
  5
19
102
{ACAD_REACTORS
330
C
102
}
330
C
100
AcDbDictionary
281
     1
  0
ACDBDICTIONARYWDFLT
  5
E
102
{ACAD_REACTORS
330
C
102
}
330
C
100
AcDbDictionary
281
     1
  3
Normal
350
F
100
AcDbDictionaryWithDefault
340
F
  0
DICTIONARY
  5
DD
102
{ACAD_REACTORS
330
C
102
}
330
C
100
AcDbDictionary
281
     1
  0
DICTIONARY
  5
2A
102
{ACAD_REACTORS
330
C
102
}
330
C
100
AcDbDictionary
281
     1
  3
2dWireframe
350
2F
  3
3D Hidden
350
31
  3
3dWireframe
350
30
  3
Basic
350
32
  3
Brighten
350
36
  3
ColorChange
350
3A
  3
Conceptual
350
34
  3
Dim
350
35
  3
Facepattern
350
39
  3
Flat
350
2B
  3
FlatWithEdges
350
2C
  3
Gouraud
350
2D
  3
GouraudWithEdges
350
2E
  3
Linepattern
350
38
  3
Realistic
350
33
  3
Thicken
350
37
  0
LAYOUT
  5
1E
102
{ACAD_REACTORS
330
1A
102
}
330
1A
100
AcDbPlotSettings
  1

  2
none_device
  4

  6

 40
0.0
 41
0.0
 42
0.0
 43
0.0
 44
0.0
 45
0.0
 46
0.0
 47
0.0
 48
0.0
 49
0.0
140
0.0
141
0.0
142
1.0
143
1.0
 70
   688
 72
     0
 73
     0
 74
     5
  7

 75
    16
 76
     0
 77
     2
 78
   300
147
1.0
148
0.0
149
0.0
100
AcDbLayout
  1
Layout1
 70
     1
 71
     1
 10
0.0
 20
0.0
 11
12.0
 21
9.0
 12
0.0
 22
0.0
 32
0.0
 14
1.000000000000000E+20
 24
1.000000000000000E+20
 34
1.000000000000000E+20
 15
-1.000000000000000E+20
 25
-1.000000000000000E+20
 35
-1.000000000000000E+20
146
0.0
 13
0.0
 23
0.0
 33
0.0
 16
1.0
 26
0.0
 36
0.0
 17
0.0
 27
1.0
 37
0.0
 76
     0
330
1B
  0
LAYOUT
  5
26
102
{ACAD_REACTORS
330
1A
102
}
330
1A
100
AcDbPlotSettings
  1

  2
none_device
  4

  6

 40
0.0
 41
0.0
 42
0.0
 43
0.0
 44
0.0
 45
0.0
 46
0.0
 47
0.0
 48
0.0
 49
0.0
140
0.0
141
0.0
142
1.0
143
1.0
 70
   688
 72
     0
 73
     0
 74
     5
  7

 75
    16
 76
     0
 77
     2
 78
   300
147
1.0
148
0.0
149
0.0
100
AcDbLayout
  1
Layout2
 70
     1
 71
     2
 10
0.0
 20
0.0
 11
0.0
 21
0.0
 12
0.0
 22
0.0
 32
0.0
 14
0.0
 24
0.0
 34
0.0
 15
0.0
 25
0.0
 35
0.0
146
0.0
 13
0.0
 23
0.0
 33
0.0
 16
1.0
 26
0.0
 36
0.0
 17
0.0
 27
1.0
 37
0.0
 76
     0
330
23
  0
LAYOUT
  5
22
102
{ACAD_REACTORS
330
1A
102
}
330
1A
100
AcDbPlotSettings
  1

  2
none_device
  4

  6

 40
0.0
 41
0.0
 42
0.0
 43
0.0
 44
0.0
 45
0.0
 46
0.0
 47
0.0
 48
0.0
 49
0.0
140
0.0
141
0.0
142
1.0
143
1.0
 70
  1712
 72
     0
 73
     0
 74
     0
  7

 75
     0
 76
     0
 77
     2
 78
   300
147
1.0
148
0.0
149
0.0
100
AcDbLayout
  1
Model
 70
     1
 71
     0
 10
0.0
 20
0.0
 11
12.0
 21
9.0
 12
0.0
 22
0.0
 32
0.0
 14
1.000000000000000E+20
 24
1.000000000000000E+20
 34
1.000000000000000E+20
 15
-1.000000000000000E+20
 25
-1.000000000000000E+20
 35
-1.000000000000000E+20
146
0.0
 13
0.0
 23
0.0
 33
0.0
 16
1.0
 26
0.0
 36
0.0
 17
0.0
 27
1.0
 37
0.0
 76
     0
330
1F
331
29
  0
MATERIAL
  5
3D
102
{ACAD_REACTORS
330
3B
102
}
330
3B
100
AcDbMaterial
  1
ByBlock
 72
     1
 94
      127
  0
MATERIAL
  5
3C
102
{ACAD_REACTORS
330
3B
102
}
330
3B
100
AcDbMaterial
  1
ByLayer
 72
     1
 94
      127
  0
MATERIAL
  5
3E
102
{ACAD_REACTORS
330
3B
102
}
330
3B
100
AcDbMaterial
  1
Global
 72
     1
 94
      127
  0
MLINESTYLE
  5
18
102
{ACAD_REACTORS
330
17
102
}
330
17
100
AcDbMlineStyle
  2
Standard
 70
     0
  3

 62
   256
 51
90.0
 52
90.0
 71
     2
 49
0.5
 62
   256
  6
BYLAYER
 49
-0.5
 62
   256
  6
BYLAYER
  0
ACDBPLACEHOLDER
  5
F
102
{ACAD_REACTORS
330
E
102
}
330
E
  0
VISUALSTYLE
  5
2F
102
{ACAD_REACTORS
330
2A
102
}
330
2A
100
AcDbVisualStyle
  2
2dWireframe
 70
     4
177
     2
291
     0
 71
     0
176
     1
 72
     2
176
     1
 73
     0
176
     1
 90
        0
176
     1
 40
-0.6
176
     1
 41
-30.0
176
     1
 62
     5
 63
     7
421
 16777215
176
     1
 74
     1
176
     1
 91
        4
176
     1
 64
     7
176
     1
 65
   257
176
     1
 75
     1
176
     1
175
     1
176
     1
 42
1.0
176
     1
 92
        0
176
     1
 66
   257
176
     1
 43
1.0
176
     1
 76
     1
176
     1
 77
     6
176
     1
 78
     2
176
     1
 67
     7
176
     1
 79
     5
176
     1
170
     0
176
     1
171
     0
176
     1
290
     0
176
     1
 93
        1
176
     1
 44
0.0
176
     1
173
     0
176
     1
  0
VISUALSTYLE
  5
31
102
{ACAD_REACTORS
330
2A
102
}
330
2A
100
AcDbVisualStyle
  2
3D Hidden
 70
     6
177
     2
291
     0
 71
     1
176
     1
 72
     2
176
     1
 73
     2
176
     1
 90
        0
176
     1
 40
-0.6
176
     1
 41
-30.0
176
     1
 62
     5
 63
     7
421
 16777215
176
     1
 74
     2
176
     1
 91
        2
176
     1
 64
     7
176
     1
 65
   257
176
     1
 75
     2
176
     1
175
     1
176
     1
 42
40.0
176
     1
 92
        0
176
     1
 66
   257
176
     1
 43
1.0
176
     1
 76
     1
176
     1
 77
     6
176
     1
 78
     2
176
     1
 67
     7
176
     1
 79
     3
176
     1
170
     0
176
     1
171
     0
176
     1
290
     0
176
     1
 93
        1
176
     1
 44
0.0
176
     1
173
     0
176
     1
  0
VISUALSTYLE
  5
30
102
{ACAD_REACTORS
330
2A
102
}
330
2A
100
AcDbVisualStyle
  2
3dWireframe
 70
     5
177
     2
291
     0
 71
     0
176
     1
 72
     2
176
     1
 73
     0
176
     1
 90
        0
176
     1
 40
-0.6
176
     1
 41
-30.0
176
     1
 62
     5
 63
     7
421
 16777215
176
     1
 74
     1
176
     1
 91
        4
176
     1
 64
     7
176
     1
 65
   257
176
     1
 75
     1
176
     1
175
     1
176
     1
 42
1.0
176
     1
 92
        0
176
     1
 66
   257
176
     1
 43
1.0
176
     1
 76
     1
176
     1
 77
     6
176
     1
 78
     2
176
     1
 67
     7
176
     1
 79
     5
176
     1
170
     0
176
     1
171
     0
176
     1
290
     0
176
     1
 93
        1
176
     1
 44
0.0
176
     1
173
     0
176
     1
  0
VISUALSTYLE
  5
32
102
{ACAD_REACTORS
330
2A
102
}
330
2A
100
AcDbVisualStyle
  2
Basic
 70
     7
177
     2
291
     1
 71
     1
176
     1
 72
     0
176
     1
 73
     1
176
     1
 90
        0
176
     1
 40
-0.6
176
     1
 41
-30.0
176
     1
 62
     5
 63
     7
421
 16777215
176
     1
 74
     0
176
     1
 91
        4
176
     1
 64
     7
176
     1
 65
   257
176
     1
 75
     1
176
     1
175
     1
176
     1
 42
1.0
176
     1
 92
        8
176
     1
 66
     7
176
     1
 43
1.0
176
     1
 76
     1
176
     1
 77
     6
176
     1
 78
     2
176
     1
 67
     7
176
     1
 79
     5
176
     1
170
     0
176
     1
171
     0
176
     1
290
     0
176
     1
 93
        1
176
     1
 44
0.0
176
     1
173
     0
176
     1
  0
VISUALSTYLE
  5
36
102
{ACAD_REACTORS
330
2A
102
}
330
2A
100
AcDbVisualStyle
  2
Brighten
 70
    12
177
     2
291
     1
 71
     2
176
     1
 72
     2
176
     1
 73
     0
176
     1
 90
        0
176
     1
 40
-0.6
176
     1
 41
-30.0
176
     1
 62
     5
 63
     7
421
 16777215
176
     1
 74
     1
176
     1
 91
        4
176
     1
 64
     7
176
     1
 65
   257
176
     1
 75
     1
176
     1
175
     1
176
     1
 42
1.0
176
     1
 92
        8
176
     1
 66
     7
176
     1
 43
1.0
176
     1
 76
     1
176
     1
 77
     6
176
     1
 78
     2
176
     1
 67
     7
176
     1
 79
     5
176
     1
170
     0
176
     1
171
     0
176
     1
290
     0
176
     1
 93
        1
176
     1
 44
50.0
176
     1
173
     0
176
     1
  0
VISUALSTYLE
  5
3A
102
{ACAD_REACTORS
330
2A
102
}
330
2A
100
AcDbVisualStyle
  2
ColorChange
 70
    16
177
     2
291
     1
 71
     2
176
     1
 72
     2
176
     1
 73
     3
176
     1
 90
        0
176
     1
 40
-0.6
176
     1
 41
-30.0
176
     1
 62
     5
 63
     8
421
  8421504
176
     1
 74
     1
176
     1
 91
        4
176
     1
 64
     7
176
     1
 65
   257
176
     1
 75
     1
176
     1
175
     1
176
     1
 42
1.0
176
     1
 92
        8
176
     1
 66
     8
424
  8421504
176
     1
 43
1.0
176
     1
 76
     1
176
     1
 77
     6
176
     1
 78
     2
176
     1
 67
     7
176
     1
 79
     5
176
     1
170
     0
176
     1
171
     0
176
     1
290
     0
176
     1
 93
        1
176
     1
 44
0.0
176
     1
173
     0
176
     1
  0
VISUALSTYLE
  5
34
102
{ACAD_REACTORS
330
2A
102
}
330
2A
100
AcDbVisualStyle
  2
Conceptual
 70
     9
177
     2
291
     0
 71
     3
176
     1
 72
     2
176
     1
 73
     0
176
     1
 90
        0
176
     1
 40
-0.6
176
     1
 41
-30.0
176
     1
 62
     5
 63
     7
421
 16777215
176
     1
 74
     2
176
     1
 91
        2
176
     1
 64
     7
176
     1
 65
   257
176
     1
 75
     1
176
     1
175
     1
176
     1
 42
40.0
176
     1
 92
        8
176
     1
 66
     7
176
     1
 43
1.0
176
     1
 76
     1
176
     1
 77
     6
176
     1
 78
     2
176
     1
 67
     7
176
     1
 79
     3
176
     1
170
     0
176
     1
171
     0
176
     1
290
     0
176
     1
 93
        1
176
     1
 44
0.0
176
     1
173
     0
176
     1
  0
VISUALSTYLE
  5
35
102
{ACAD_REACTORS
330
2A
102
}
330
2A
100
AcDbVisualStyle
  2
Dim
 70
    11
177
     2
291
     1
 71
     2
176
     1
 72
     2
176
     1
 73
     0
176
     1
 90
        0
176
     1
 40
-0.6
176
     1
 41
-30.0
176
     1
 62
     5
 63
     7
421
 16777215
176
     1
 74
     1
176
     1
 91
        4
176
     1
 64
     7
176
     1
 65
   257
176
     1
 75
     1
176
     1
175
     1
176
     1
 42
1.0
176
     1
 92
        8
176
     1
 66
     7
176
     1
 43
1.0
176
     1
 76
     1
176
     1
 77
     6
176
     1
 78
     2
176
     1
 67
     7
176
     1
 79
     5
176
     1
170
     0
176
     1
171
     0
176
     1
290
     0
176
     1
 93
        1
176
     1
 44
-50.0
176
     1
173
     0
176
     1
  0
VISUALSTYLE
  5
39
102
{ACAD_REACTORS
330
2A
102
}
330
2A
100
AcDbVisualStyle
  2
Facepattern
 70
    15
177
     2
291
     1
 71
     2
176
     1
 72
     2
176
     1
 73
     0
176
     1
 90
        0
176
     1
 40
-0.6
176
     1
 41
-30.0
176
     1
 62
     5
 63
     7
421
 16777215
176
     1
 74
     1
176
     1
 91
        4
176
     1
 64
     7
176
     1
 65
   257
176
     1
 75
     1
176
     1
175
     1
176
     1
 42
1.0
176
     1
 92
        8
176
     1
 66
     7
176
     1
 43
1.0
176
     1
 76
     1
176
     1
 77
     6
176
     1
 78
     2
176
     1
 67
     7
176
     1
 79
     5
176
     1
170
     0
176
     1
171
     0
176
     1
290
     0
176
     1
 93
        1
176
     1
 44
0.0
176
     1
173
     0
176
     1
  0
VISUALSTYLE
  5
2B
102
{ACAD_REACTORS
330
2A
102
}
330
2A
100
AcDbVisualStyle
  2
Flat
 70
     0
177
     2
291
     1
 71
     2
176
     1
 72
     1
176
     1
 73
     1
176
     1
 90
        2
176
     1
 40
-0.6
176
     1
 41
30.0
176
     1
 62
     5
 63
     7
421
 16777215
176
     1
 74
     0
176
     1
 91
        4
176
     1
 64
     7
176
     1
 65
   257
176
     1
 75
     1
176
     1
175
     1
176
     1
 42
1.0
176
     1
 92
        8
176
     1
 66
     7
176
     1
 43
1.0
176
     1
 76
     1
176
     1
 77
     6
176
     1
 78
     2
176
     1
 67
     7
176
     1
 79
     5
176
     1
170
     0
176
     1
171
     0
176
     1
290
     0
176
     1
 93
       13
176
     1
 44
0.0
176
     1
173
     0
176
     1
  0
VISUALSTYLE
  5
2C
102
{ACAD_REACTORS
330
2A
102
}
330
2A
100
AcDbVisualStyle
  2
FlatWithEdges
 70
     1
177
     2
291
     1
 71
     2
176
     1
 72
     1
176
     1
 73
     1
176
     1
 90
        2
176
     1
 40
-0.6
176
     1
 41
30.0
176
     1
 62
     5
 63
     7
421
 16777215
176
     1
 74
     1
176
     1
 91
        4
176
     1
 64
     7
176
     1
 65
   257
176
     1
 75
     1
176
     1
175
     1
176
     1
 42
1.0
176
     1
 92
        0
176
     1
 66
   257
176
     1
 43
1.0
176
     1
 76
     1
176
     1
 77
     6
176
     1
 78
     2
176
     1
 67
     7
176
     1
 79
     5
176
     1
170
     0
176
     1
171
     0
176
     1
290
     0
176
     1
 93
       13
176
     1
 44
0.0
176
     1
173
     0
176
     1
  0
VISUALSTYLE
  5
2D
102
{ACAD_REACTORS
330
2A
102
}
330
2A
100
AcDbVisualStyle
  2
Gouraud
 70
     2
177
     2
291
     1
 71
     2
176
     1
 72
     2
176
     1
 73
     1
176
     1
 90
        2
176
     1
 40
-0.6
176
     1
 41
30.0
176
     1
 62
     5
 63
     7
421
 16777215
176
     1
 74
     0
176
     1
 91
        4
176
     1
 64
     7
176
     1
 65
   257
176
     1
 75
     1
176
     1
175
     1
176
     1
 42
1.0
176
     1
 92
        0
176
     1
 66
     7
176
     1
 43
1.0
176
     1
 76
     1
176
     1
 77
     6
176
     1
 78
     2
176
     1
 67
     7
176
     1
 79
     5
176
     1
170
     0
176
     1
171
     0
176
     1
290
     0
176
     1
 93
       13
176
     1
 44
0.0
176
     1
173
     0
176
     1
  0
VISUALSTYLE
  5
2E
102
{ACAD_REACTORS
330
2A
102
}
330
2A
100
AcDbVisualStyle
  2
GouraudWithEdges
 70
     3
177
     2
291
     1
 71
     2
176
     1
 72
     2
176
     1
 73
     1
176
     1
 90
        2
176
     1
 40
-0.6
176
     1
 41
30.0
176
     1
 62
     5
 63
     7
421
 16777215
176
     1
 74
     1
176
     1
 91
        4
176
     1
 64
     7
176
     1
 65
   257
176
     1
 75
     1
176
     1
175
     1
176
     1
 42
1.0
176
     1
 92
        0
176
     1
 66
   257
176
     1
 43
1.0
176
     1
 76
     1
176
     1
 77
     6
176
     1
 78
     2
176
     1
 67
     7
176
     1
 79
     5
176
     1
170
     0
176
     1
171
     0
176
     1
290
     0
176
     1
 93
       13
176
     1
 44
0.0
176
     1
173
     0
176
     1
  0
VISUALSTYLE
  5
38
102
{ACAD_REACTORS
330
2A
102
}
330
2A
100
AcDbVisualStyle
  2
Linepattern
 70
    14
177
     2
291
     1
 71
     2
176
     1
 72
     2
176
     1
 73
     0
176
     1
 90
        0
176
     1
 40
-0.6
176
     1
 41
-30.0
176
     1
 62
     5
 63
     7
421
 16777215
176
     1
 74
     1
176
     1
 91
        4
176
     1
 64
     7
176
     1
 65
   257
176
     1
 75
     7
176
     1
175
     7
176
     1
 42
1.0
176
     1
 92
        8
176
     1
 66
     7
176
     1
 43
1.0
176
     1
 76
     1
176
     1
 77
     6
176
     1
 78
     2
176
     1
 67
     7
176
     1
 79
     5
176
     1
170
     0
176
     1
171
     0
176
     1
290
     0
176
     1
 93
        1
176
     1
 44
0.0
176
     1
173
     0
176
     1
  0
VISUALSTYLE
  5
33
102
{ACAD_REACTORS
330
2A
102
}
330
2A
100
AcDbVisualStyle
  2
Realistic
 70
     8
177
     2
291
     0
 71
     2
176
     1
 72
     2
176
     1
 73
     0
176
     1
 90
        0
176
     1
 40
-0.6
176
     1
 41
-30.0
176
     1
 62
     5
 63
     7
421
 16777215
176
     1
 74
     1
176
     1
 91
        0
176
     1
 64
     7
176
     1
 65
   257
176
     1
 75
     1
176
     1
175
     1
176
     1
 42
1.0
176
     1
 92
        8
176
     1
 66
     8
424
  7895160
176
     1
 43
1.0
176
     1
 76
     1
176
     1
 77
     6
176
     1
 78
     2
176
     1
 67
     7
176
     1
 79
     5
176
     1
170
     0
176
     1
171
     0
176
     1
290
     0
176
     1
 93
       13
176
     1
 44
0.0
176
     1
173
     0
176
     1
  0
VISUALSTYLE
  5
37
102
{ACAD_REACTORS
330
2A
102
}
330
2A
100
AcDbVisualStyle
  2
Thicken
 70
    13
177
     2
291
     1
 71
     2
176
     1
 72
     2
176
     1
 73
     0
176
     1
 90
        0
176
     1
 40
-0.6
176
     1
 41
-30.0
176
     1
 62
     5
 63
     7
421
 16777215
176
     1
 74
     1
176
     1
 91
        4
176
     1
 64
     7
176
     1
 65
   257
176
     1
 75
     1
176
     1
175
     1
176
     1
 42
1.0
176
     1
 92
       12
176
     1
 66
     7
176
     1
 43
1.0
176
     1
 76
     1
176
     1
 77
     6
176
     1
 78
     2
176
     1
 67
     7
176
     1
 79
     5
176
     1
170
     0
176
     1
171
     0
176
     1
290
     0
176
     1
 93
        1
176
     1
 44
0.0
176
     1
173
     0
176
     1
  0
ENDSEC
  0
EOF
