  0
SECTION
  2
HEADER
  9
$ACADVER
  1
AC1024
  9
$ACADMAINTVER
 70
     6
  9
$DWGCODEPAGE
  3
UNDEFINED
  9
$INSBASE
 10
0.0
 20
0.0
 30
0.0
  9
$EXTMIN
 10
1.000000000000000E+20
 20
1.000000000000000E+20
 30
1.000000000000000E+20
  9
$EXTMAX
 10
-1.000000000000000E+20
 20
-1.000000000000000E+20
 30
-1.000000000000000E+20
  9
$LIMMIN
 10
0.0
 20
0.0
  9
$LIMMAX
 10
12.0
 20
9.0
  9
$ORTHOMODE
 70
     0
  9
$REGENMODE
 70
     1
  9
$FILLMODE
 70
     1
  9
$QTEXTMODE
 70
     0
  9
$MIRRTEXT
 70
     1
  9
$LTSCALE
 40
1.0
  9
$ATTMODE
 70
     1
  9
$TEXTSIZE
 40
0.2
  9
$TRACEWID
 40
0.05
  9
$TEXTSTYLE
  7
Standard
  9
$CLAYER
  8
0
  9
$CELTYPE
  6
ByLayer
  9
$CECOLOR
 62
   256
  9
$CELTSCALE
 40
1.0
  9
$DISPSILH
 70
     0
  9
$DIMSCALE
 40
1.0
  9
$DIMASZ
 40
0.18
  9
$DIMEXO
 40
0.0625
  9
$DIMDLI
 40
0.38
  9
$DIMRND
 40
0.0
  9
$DIMDLE
 40
0.0
  9
$DIMEXE
 40
0.18
  9
$DIMTP
 40
0.0
  9
$DIMTM
 40
0.0
  9
$DIMTXT
 40
0.18
  9
$DIMCEN
 40
0.09
  9
$DIMTSZ
 40
0.0
  9
$DIMTOL
 70
     0
  9
$DIMLIM
 70
     0
  9
$DIMTIH
 70
     1
  9
$DIMTOH
 70
     1
  9
$DIMSE1
 70
     0
  9
$DIMSE2
 70
     0
  9
$DIMTAD
 70
     0
  9
$DIMZIN
 70
     0
  9
$DIMBLK
  1

  9
$DIMASO
 70
     1
  9
$DIMSHO
 70
     1
  9
$DIMPOST
  1

  9
$DIMAPOST
  1

  9
$DIMALT
 70
     0
  9
$DIMALTD
 70
     2
  9
$DIMALTF
 40
25.4
  9
$DIMLFAC
 40
1.0
  9
$DIMTOFL
 70
     0
  9
$DIMTVP
 40
0.0
  9
$DIMTIX
 70
     0
  9
$DIMSOXD
 70
     0
  9
$DIMSAH
 70
     0
  9
$DIMBLK1
  1

  9
$DIMBLK2
  1

  9
$DIMSTYLE
  2
Standard
  9
$DIMCLRD
 70
     0
  9
$DIMCLRE
 70
     0
  9
$DIMCLRT
 70
     0
  9
$DIMTFAC
 40
1.0
  9
$DIMGAP
 40
0.09
  9
$DIMJUST
 70
     0
  9
$DIMSD1
 70
     0
  9
$DIMSD2
 70
     0
  9
$DIMTOLJ
 70
     1
  9
$DIMTZIN
 70
     0
  9
$DIMALTZ
 70
     0
  9
$DIMALTTZ
 70
     0
  9
$DIMUPT
 70
     0
  9
$DIMDEC
 70
     4
  9
$DIMTDEC
 70
     4
  9
$DIMALTU
 70
     2
  9
$DIMALTTD
 70
     2
  9
$DIMTXSTY
  7
Standard
  9
$DIMAUNIT
 70
     0
  9
$DIMADEC
 70
     0
  9
$DIMALTRND
 40
0.0
  9
$DIMAZIN
 70
     0
  9
$DIMDSEP
 70
    46
  9
$DIMATFIT
 70
     3
  9
$DIMFRAC
 70
     0
  9
$DIMLDRBLK
  1

  9
$DIMLUNIT
 70
     2
  9
$DIMLWD
 70
    -2
  9
$DIMLWE
 70
    -2
  9
$DIMTMOVE
 70
     0
  9
$DIMFXL
 40
1.0
  9
$DIMFXLON
 70
     0
  9
$DIMJOGANG
 40
0.7853981633974483
  9
$DIMTFILL
 70
     0
  9
$DIMTFILLCLR
 70
     0
  9
$DIMARCSYM
 70
     0
  9
$DIMLTYPE
  6

  9
$DIMLTEX1
  6

  9
$DIMLTEX2
  6

  9
$DIMTXTDIRECTION
 70
     0
  9
$LUNITS
 70
     2
  9
$LUPREC
 70
     4
  9
$SKETCHINC
 40
0.1
  9
$FILLETRAD
 40
0.5
  9
$AUNITS
 70
     0
  9
$AUPREC
 70
     0
  9
$MENU
  1
.
  9
$ELEVATION
 40
0.0
  9
$PELEVATION
 40
0.0
  9
$THICKNESS
 40
0.0
  9
$LIMCHECK
 70
     0
  9
$CHAMFERA
 40
0.5
  9
$CHAMFERB
 40
0.5
  9
$CHAMFERC
 40
1.0
  9
$CHAMFERD
 40
0.0
  9
$SKPOLY
 70
     0
  9
$TDCREATE
 40
2457917.595185185
  9
$TDUCREATE
 40
2457917.220185185
  9
$TDUPDATE
 40
2457917.595196759
  9
$TDUUPDATE
 40
2457917.220196759
  9
$TDINDWG
 40
0.0000000116
  9
$TDUSRTIMER
 40
0.0000000116
  9
$USRTIMER
 70
     1
  9
$ANGBASE
 50
0.0
  9
$ANGDIR
 70
     0
  9
$PDMODE
 70
     0
  9
$PDSIZE
 40
0.0
  9
$PLINEWID
 40
0.0
  9
$SPLFRAME
 70
     0
  9
$SPLINETYPE
 70
     6
  9
$SPLINESEGS
 70
     8
  9
$HANDSEED
  5
FD
  9
$SURFTAB1
 70
     6
  9
$SURFTAB2
 70
     6
  9
$SURFTYPE
 70
     6
  9
$SURFU
 70
     6
  9
$SURFV
 70
     6
  9
$UCSBASE
  2

  9
$UCSNAME
  2

  9
$UCSORG
 10
0.0
 20
0.0
 30
0.0
  9
$UCSXDIR
 10
1.0
 20
0.0
 30
0.0
  9
$UCSYDIR
 10
0.0
 20
1.0
 30
0.0
  9
$UCSORTHOREF
  2

  9
$UCSORTHOVIEW
 70
     0
  9
$UCSORGTOP
 10
0.0
 20
0.0
 30
0.0
  9
$UCSORGBOTTOM
 10
0.0
 20
0.0
 30
0.0
  9
$UCSORGLEFT
 10
0.0
 20
0.0
 30
0.0
  9
$UCSORGRIGHT
 10
0.0
 20
0.0
 30
0.0
  9
$UCSORGFRONT
 10
0.0
 20
0.0
 30
0.0
  9
$UCSORGBACK
 10
0.0
 20
0.0
 30
0.0
  9
$PUCSBASE
  2

  9
$PUCSNAME
  2

  9
$PUCSORG
 10
0.0
 20
0.0
 30
0.0
  9
$PUCSXDIR
 10
1.0
 20
0.0
 30
0.0
  9
$PUCSYDIR
 10
0.0
 20
1.0
 30
0.0
  9
$PUCSORTHOREF
  2

  9
$PUCSORTHOVIEW
 70
     0
  9
$PUCSORGTOP
 10
0.0
 20
0.0
 30
0.0
  9
$PUCSORGBOTTOM
 10
0.0
 20
0.0
 30
0.0
  9
$PUCSORGLEFT
 10
0.0
 20
0.0
 30
0.0
  9
$PUCSORGRIGHT
 10
0.0
 20
0.0
 30
0.0
  9
$PUCSORGFRONT
 10
0.0
 20
0.0
 30
0.0
  9
$PUCSORGBACK
 10
0.0
 20
0.0
 30
0.0
  9
$USERI1
 70
     0
  9
$USERI2
 70
     0
  9
$USERI3
 70
     0
  9
$USERI4
 70
     0
  9
$USERI5
 70
     0
  9
$USERR1
 40
0.0
  9
$USERR2
 40
0.0
  9
$USERR3
 40
0.0
  9
$USERR4
 40
0.0
  9
$USERR5
 40
0.0
  9
$WORLDVIEW
 70
     1
  9
$SHADEDGE
 70
     3
  9
$SHADEDIF
 70
    70
  9
$TILEMODE
 70
     1
  9
$MAXACTVP
 70
    64
  9
$PINSBASE
 10
0.0
 20
0.0
 30
0.0
  9
$PLIMCHECK
 70
     0
  9
$PEXTMIN
 10
1.000000000000000E+20
 20
1.000000000000000E+20
 30
1.000000000000000E+20
  9
$PEXTMAX
 10
-1.000000000000000E+20
 20
-1.000000000000000E+20
 30
-1.000000000000000E+20
  9
$PLIMMIN
 10
0.0
 20
0.0
  9
$PLIMMAX
 10
12.0
 20
9.0
  9
$UNITMODE
 70
     0
  9
$VISRETAIN
 70
     1
  9
$PLINEGEN
 70
     0
  9
$PSLTSCALE
 70
     1
  9
$TREEDEPTH
 70
  3020
  9
$CMLSTYLE
  2
Standard
  9
$CMLJUST
 70
     0
  9
$CMLSCALE
 40
1.0
  9
$PROXYGRAPHICS
 70
     1
  9
$MEASUREMENT
 70
     0
  9
$CELWEIGHT
370
    -1
  9
$ENDCAPS
280
     0
  9
$JOINSTYLE
280
     0
  9
$LWDISPLAY
290
     1
  9
$INSUNITS
 70
     1
  9
$HYPERLINKBASE
  1

  9
$STYLESHEET
  1

  9
$XEDIT
290
     1
  9
$CEPSNTYPE
380
     0
  9
$PSTYLEMODE
290
     1
  9
$FINGERPRINTGUID
  2
{EA9F8FD8-9D98-128F-51BF-1D4B623A351E}
  9
$VERSIONGUID
  2
{FAEB1C32-E019-11D5-929B-00C0DF256EC4}
  9
$EXTNAMES
290
     1
  9
$PSVPSCALE
 40
0.0
  9
$OLESTARTUP
290
     0
  9
$SORTENTS
280
   127
  9
$INDEXCTL
280
     0
  9
$HIDETEXT
280
     1
  9
$XCLIPFRAME
280
     2
  9
$HALOGAP
280
     0
  9
$OBSCOLOR
 70
   257
  9
$OBSLTYPE
280
     0
  9
$INTERSECTIONDISPLAY
280
     0
  9
$INTERSECTIONCOLOR
 70
   257
  9
$DIMASSOC
280
     2
  9
$PROJECTNAME
  1

  9
$CAMERADISPLAY
290
     0
  9
$LENSLENGTH
 40
50.0
  9
$CAMERAHEIGHT
 40
0.0
  9
$STEPSPERSEC
 40
2.0
  9
$STEPSIZE
 40
6.0
  9
$3DDWFPREC
 40
2.0
  9
$PSOLWIDTH
 40
0.25
  9
$PSOLHEIGHT
 40
4.0
  9
$LOFTANG1
 40
1.570796326794897
  9
$LOFTANG2
 40
1.570796326794897
  9
$LOFTMAG1
 40
0.0
  9
$LOFTMAG2
 40
0.0
  9
$LOFTPARAM
 70
     7
  9
$LOFTNORMALS
280
     1
  9
$LATITUDE
 40
37.795
  9
$LONGITUDE
 40
-122.394
  9
$NORTHDIRECTION
 40
0.0
  9
$TIMEZONE
 70
 -8000
  9
$LIGHTGLYPHDISPLAY
280
     1
  9
$TILEMODELIGHTSYNCH
280
     1
  9
$CMATERIAL
347
3C
  9
$SOLIDHIST
280
     1
  9
$SHOWHIST
280
     1
  9
$DWFFRAME
280
     2
  9
$DGNFRAME
280
     2
  9
$REALWORLDSCALE
290
     1
  9
$INTERFERECOLOR
 62
   256
  9
$CSHADOW
280
     0
  9
$SHADOWPLANELOCATION
 40
0.0
  0
ENDSEC
  0
SECTION
  2
CLASSES
  0
CLASS
  1
ACDBDICTIONARYWDFLT
  2
AcDbDictionaryWithDefault
  3
ObjectDBX Classes
 90
        0
 91
        4
280
     0
281
     0
  0
CLASS
  1
VISUALSTYLE
  2
AcDbVisualStyle
  3
ObjectDBX Classes
 90
     4095
 91
        4
280
     0
281
     0
  0
CLASS
  1
MATERIAL
  2
AcDbMaterial
  3
ObjectDBX Classes
 90
     1153
 91
        4
280
     0
281
     0
  0
CLASS
  1
SUN
  2
AcDbSun
  3
SCENEOE
 90
     1024
 91
        4
280
     0
281
     0
  0
ENDSEC
  0
SECTION
  2
TABLES
  0
TABLE
  2
VPORT
  5
8
330
0
100
AcDbSymbolTable
 70
     1
  0
VPORT
  5
29
330
8
100
AcDbSymbolTableRecord
100
AcDbViewportTableRecord
  2
*Active
 70
     0
 10
0.0
 20
0.0
 11
1.0
 21
1.0
 12
0.0
 22
0.0
 13
0.0
 23
0.0
 14
0.5
 24
0.5
 15
0.5
 25
0.5
 16
0.0
 26
0.0
 36
1.0
 17
91.00082462281999
 27
-128.4993055234307
 37
0.0
 40
256.9986110468615
 41
0.7081814508812795
 42
50.0
 43
0.0
 44
0.0
 50
0.0
 51
0.0
 71
     0
 72
   100
 73
     1
 74
     3
 75
     0
 76
     0
 77
     0
 78
     0
281
     0
 65
     1
110
0.0
120
0.0
130
0.0
111
1.0
121
0.0
131
0.0
112
0.0
122
1.0
132
0.0
 79
     0
146
0.0
 60
     3
 61
     5
292
     1
282
     1
141
0.0
142
0.0
 63
   250
361
3F
  0
ENDTAB
  0
TABLE
  2
LTYPE
  5
5
330
0
100
AcDbSymbolTable
 70
     1
  0
LTYPE
  5
14
330
5
100
AcDbSymbolTableRecord
100
AcDbLinetypeTableRecord
  2
ByBlock
 70
     0
  3

 72
    65
 73
     0
 40
0.0
  0
LTYPE
  5
15
330
5
100
AcDbSymbolTableRecord
100
AcDbLinetypeTableRecord
  2
ByLayer
 70
     0
  3

 72
    65
 73
     0
 40
0.0
  0
LTYPE
  5
16
330
5
100
AcDbSymbolTableRecord
100
AcDbLinetypeTableRecord
  2
Continuous
 70
     0
  3
Solid line
 72
    65
 73
     0
 40
0.0
  0
ENDTAB
  0
TABLE
  2
LAYER
  5
2
330
0
100
AcDbSymbolTable
 70
     2
  0
LAYER
  5
10
330
2
100
AcDbSymbolTableRecord
100
AcDbLayerTableRecord
  2
0
 70
     0
 62
     7
  6
Continuous
370
    -3
390
F
347
3E
  0
LAYER
  5
40
330
2
100
AcDbSymbolTableRecord
100
AcDbLayerTableRecord
  2
_U+30EC_U+30A4_U+30E4_U+30FC 1
 70
     0
 62
     7
  6
Continuous
370
    -3
390
F
347
3E
  0
ENDTAB
  0
TABLE
  2
STYLE
  5
3
330
0
100
AcDbSymbolTable
 70
     1
  0
STYLE
  5
11
330
3
100
AcDbSymbolTableRecord
100
AcDbTextStyleTableRecord
  2
Standard
 70
     0
 40
0.0
 41
1.0
 50
0.0
 71
     0
 42
0.2
  3
txt
  4

  0
ENDTAB
  0
TABLE
  2
VIEW
  5
6
330
0
100
AcDbSymbolTable
 70
     0
  0
ENDTAB
  0
TABLE
  2
UCS
  5
7
330
0
100
AcDbSymbolTable
 70
     0
  0
ENDTAB
  0
TABLE
  2
APPID
  5
9
330
0
100
AcDbSymbolTable
 70
     1
  0
APPID
  5
12
330
9
100
AcDbSymbolTableRecord
100
AcDbRegAppTableRecord
  2
ACAD
 70
     0
  0
ENDTAB
  0
TABLE
  2
DIMSTYLE
  5
A
330
0
100
AcDbSymbolTable
 70
     1
100
AcDbDimStyleTable
  0
DIMSTYLE
105
27
330
A
100
AcDbSymbolTableRecord
100
AcDbDimStyleTableRecord
  2
Standard
 70
     0
178
     0
340
11
  0
ENDTAB
  0
TABLE
  2
BLOCK_RECORD
  5
1
330
0
100
AcDbSymbolTable
 70
     7
  0
BLOCK_RECORD
  5
1F
330
1
100
AcDbSymbolTableRecord
100
AcDbBlockTableRecord
  2
*Model_Space
340
22
 70
     0
280
     1
281
     0
  0
BLOCK_RECORD
  5
1B
330
1
100
AcDbSymbolTableRecord
100
AcDbBlockTableRecord
  2
*Paper_Space
340
1E
 70
     0
280
     1
281
     0
  0
BLOCK_RECORD
  5
23
330
1
100
AcDbSymbolTableRecord
100
AcDbBlockTableRecord
  2
*Paper_Space0
340
26
 70
     0
280
     1
281
     0
  0
BLOCK_RECORD
  5
7A
330
1
100
AcDbSymbolTableRecord
100
AcDbBlockTableRecord
  2
block 2
340
0
102
{BLKREFS
331
7B
102
}
 70
     0
280
     1
281
     0
  0
BLOCK_RECORD
  5
8C
330
1
100
AcDbSymbolTableRecord
100
AcDbBlockTableRecord
  2
block 3
340
0
102
{BLKREFS
331
8D
102
}
 70
     0
280
     1
281
     0
  0
BLOCK_RECORD
  5
B5
330
1
100
AcDbSymbolTableRecord
100
AcDbBlockTableRecord
  2
block 4
340
0
102
{BLKREFS
331
B6
102
}
 70
     0
280
     1
281
     0
  0
BLOCK_RECORD
  5
C8
330
1
100
AcDbSymbolTableRecord
100
AcDbBlockTableRecord
  2
block 5
340
0
102
{BLKREFS
331
C9
102
}
 70
     0
280
     1
281
     0
  0
BLOCK_RECORD
  5
E3
330
1
100
AcDbSymbolTableRecord
100
AcDbBlockTableRecord
  2
block 6
340
0
102
{BLKREFS
331
E4
102
}
 70
     0
280
     1
281
     0
  0
BLOCK_RECORD
  5
F4
330
1
100
AcDbSymbolTableRecord
100
AcDbBlockTableRecord
  2
block 7
340
0
102
{BLKREFS
331
F5
102
}
 70
     0
280
     1
281
     0
  0
ENDTAB
  0
ENDSEC
  0
SECTION
  2
BLOCKS
  0
BLOCK
  5
20
330
1F
100
AcDbEntity
  8
0
100
AcDbBlockBegin
  2
*Model_Space
 70
     0
 10
0.0
 20
0.0
 30
0.0
  3
*Model_Space
  1

  0
ENDBLK
  5
21
330
1F
100
AcDbEntity
  8
0
100
AcDbBlockEnd
  0
BLOCK
  5
1C
330
1B
100
AcDbEntity
 67
     1
  8
0
100
AcDbBlockBegin
  2
*Paper_Space
 70
     0
 10
0.0
 20
0.0
 30
0.0
  3
*Paper_Space
  1

  0
ENDBLK
  5
1D
330
1B
100
AcDbEntity
 67
     1
  8
0
100
AcDbBlockEnd
  0
BLOCK
  5
24
330
23
100
AcDbEntity
  8
0
100
AcDbBlockBegin
  2
*Paper_Space0
 70
     0
 10
0.0
 20
0.0
 30
0.0
  3
*Paper_Space0
  1

  0
ENDBLK
  5
25
330
23
100
AcDbEntity
  8
0
100
AcDbBlockEnd
  0
BLOCK
  5
7C
330
7A
100
AcDbEntity
  8
0
100
AcDbBlockBegin
  2
block 2
 70
     0
 10
0.0
 20
0.0
 30
0.0
  3
block 2
  1

  0
SPLINE
  5
7E
330
7A
100
AcDbEntity
  8
_U+30EC_U+30A4_U+30E4_U+30FC 1
370
     0
100
AcDbSpline
210
0.0
220
0.0
230
1.0
 70
    11
 71
     3
 72
    26
 73
    22
 74
     0
 42
0.0000000001
 43
0.0000000001
 12
1.0
 22
0.0
 32
0.0
 13
1.0
 23
0.0
 33
0.0
 40
0.0
 40
0.0
 40
0.0
 40
0.0
 40
1.0
 40
1.0
 40
1.0
 40
2.0
 40
2.0
 40
2.0
 40
3.0
 40
3.0
 40
3.0
 40
4.0
 40
4.0
 40
4.0
 40
5.0
 40
5.0
 40
5.0
 40
6.0
 40
6.0
 40
6.0
 40
7.0
 40
7.0
 40
7.0
 40
7.0
 10
89.99950220189248
 20
-123.1180663754705
 30
0.0
 10
89.99950220189248
 20
-123.1180663754705
 30
0.0
 10
89.99950220189248
 20
-122.0137410176737
 30
0.0
 10
89.99950220189248
 20
-122.0137410176737
 30
0.0
 10
89.99950220189248
 20
-122.0137410176737
 30
0.0
 10
89.6467244242029
 20
-122.0137410176737
 30
0.0
 10
89.6467244242029
 20
-122.0137410176737
 30
0.0
 10
89.6467244242029
 20
-122.0137410176737
 30
0.0
 10
89.6467244242029
 20
-121.8657741665822
 30
0.0
 10
89.6467244242029
 20
-121.8657741665822
 30
0.0
 10
90.0017415139579
 20
-121.8509602559956
 30
0.0
 10
90.05152314371976
 20
-121.6880072395433
 30
0.0
 10
90.0830457674098
 20
-121.5738023242073
 30
0.0
 10
90.0830457674098
 20
-121.5738023242073
 30
0.0
 10
90.23910859289161
 20
-121.5738023242073
 30
0.0
 10
90.23910859289161
 20
-121.5738023242073
 30
0.0
 10
90.23910859289161
 20
-121.5738023242073
 30
0.0
 10
90.23910859289161
 20
-123.1180663754705
 30
0.0
 10
90.23910859289161
 20
-123.1180663754705
 30
0.0
 10
90.23910859289161
 20
-123.1180663754705
 30
0.0
 10
89.99950220189248
 20
-123.1180663754705
 30
0.0
 10
89.99950220189248
 20
-123.1180663754705
 30
0.0
  0
HATCH
  5
7F
330
7A
100
AcDbEntity
  8
_U+30EC_U+30A4_U+30E4_U+30FC 1
 62
     7
420
 16777215
100
AcDbHatch
 10
0.0
 20
0.0
 30
0.0
210
0.0
220
0.0
230
1.0
  2
SOLID
 70
     1
 71
     0
 91
        1
 92
        1
 93
        1
 72
     4
 94
        3
 73
     0
 74
     1
 95
       26
 96
       22
 40
0.0
 40
0.0
 40
0.0
 40
0.0
 40
1.0
 40
1.0
 40
1.0
 40
2.0
 40
2.0
 40
2.0
 40
3.0
 40
3.0
 40
3.0
 40
4.0
 40
4.0
 40
4.0
 40
5.0
 40
5.0
 40
5.0
 40
6.0
 40
6.0
 40
6.0
 40
7.0
 40
7.0
 40
7.0
 40
7.0
 10
89.99950220189248
 20
-123.1180663754705
 10
89.99950220189248
 20
-123.1180663754705
 10
89.99950220189248
 20
-122.0137410176737
 10
89.99950220189248
 20
-122.0137410176737
 10
89.99950220189248
 20
-122.0137410176737
 10
89.6467244242029
 20
-122.0137410176737
 10
89.6467244242029
 20
-122.0137410176737
 10
89.6467244242029
 20
-122.0137410176737
 10
89.6467244242029
 20
-121.8657741665822
 10
89.6467244242029
 20
-121.8657741665822
 10
90.0017415139579
 20
-121.8509602559956
 10
90.05152314371976
 20
-121.6880072395433
 10
90.0830457674098
 20
-121.5738023242073
 10
90.0830457674098
 20
-121.5738023242073
 10
90.23910859289161
 20
-121.5738023242073
 10
90.23910859289161
 20
-121.5738023242073
 10
90.23910859289161
 20
-121.5738023242073
 10
90.23910859289161
 20
-123.1180663754705
 10
90.23910859289161
 20
-123.1180663754705
 10
90.23910859289161
 20
-123.1180663754705
 10
89.99950220189248
 20
-123.1180663754705
 10
89.99950220189248
 20
-123.1180663754705
 97
        0
 97
        0
 75
     2
 76
     1
 98
        0
  0
ENDBLK
  5
7D
330
7A
100
AcDbEntity
  8
0
100
AcDbBlockEnd
  0
BLOCK
  5
8E
330
8C
100
AcDbEntity
  8
0
100
AcDbBlockBegin
  2
block 3
 70
     0
 10
0.0
 20
0.0
 30
0.0
  3
block 3
  1

  0
SPLINE
  5
90
330
8C
100
AcDbEntity
  8
_U+30EC_U+30A4_U+30E4_U+30FC 1
370
     0
100
AcDbSpline
210
0.0
220
0.0
230
1.0
 70
    11
 71
     3
 72
    26
 73
    22
 74
     0
 42
0.0000000001
 43
0.0000000001
 12
1.0
 22
0.0
 32
0.0
 13
1.0
 23
0.0
 33
0.0
 40
0.0
 40
0.0
 40
0.0
 40
0.0
 40
1.0
 40
1.0
 40
1.0
 40
2.0
 40
2.0
 40
2.0
 40
3.0
 40
3.0
 40
3.0
 40
4.0
 40
4.0
 40
4.0
 40
5.0
 40
5.0
 40
5.0
 40
6.0
 40
6.0
 40
6.0
 40
7.0
 40
7.0
 40
7.0
 40
7.0
 10
92.32752547605007
 20
-140.7369737061352
 30
0.0
 10
92.32752547605007
 20
-140.7369737061352
 30
0.0
 10
92.32752547605007
 20
-139.6328206031126
 30
0.0
 10
92.32752547605007
 20
-139.6328206031126
 30
0.0
 10
92.32752547605007
 20
-139.6328206031126
 30
0.0
 10
91.97509220790901
 20
-139.6328206031126
 30
0.0
 10
91.97509220790901
 20
-139.6328206031126
 30
0.0
 10
91.97509220790901
 20
-139.6328206031126
 30
0.0
 10
91.97509220790901
 20
-139.4846814972469
 30
0.0
 10
91.97509220790901
 20
-139.4846814972469
 30
0.0
 10
92.32993704288974
 20
-139.4698675866603
 30
0.0
 10
92.37954641787734
 20
-139.306914570208
 30
0.0
 10
92.41124129634164
 20
-139.1925374000977
 30
0.0
 10
92.41124129634164
 20
-139.1925374000977
 30
0.0
 10
92.56730412182345
 20
-139.1925374000977
 30
0.0
 10
92.56730412182345
 20
-139.1925374000977
 30
0.0
 10
92.56730412182345
 20
-139.1925374000977
 30
0.0
 10
92.56730412182345
 20
-140.7369737061352
 30
0.0
 10
92.56730412182345
 20
-140.7369737061352
 30
0.0
 10
92.56730412182345
 20
-140.7369737061352
 30
0.0
 10
92.32752547605007
 20
-140.7369737061352
 30
0.0
 10
92.32752547605007
 20
-140.7369737061352
 30
0.0
  0
HATCH
  5
91
330
8C
100
AcDbEntity
  8
_U+30EC_U+30A4_U+30E4_U+30FC 1
 62
     7
420
 16777215
100
AcDbHatch
 10
0.0
 20
0.0
 30
0.0
210
0.0
220
0.0
230
1.0
  2
SOLID
 70
     1
 71
     0
 91
        1
 92
        1
 93
        1
 72
     4
 94
        3
 73
     0
 74
     1
 95
       26
 96
       22
 40
0.0
 40
0.0
 40
0.0
 40
0.0
 40
1.0
 40
1.0
 40
1.0
 40
2.0
 40
2.0
 40
2.0
 40
3.0
 40
3.0
 40
3.0
 40
4.0
 40
4.0
 40
4.0
 40
5.0
 40
5.0
 40
5.0
 40
6.0
 40
6.0
 40
6.0
 40
7.0
 40
7.0
 40
7.0
 40
7.0
 10
92.32752547605007
 20
-140.7369737061352
 10
92.32752547605007
 20
-140.7369737061352
 10
92.32752547605007
 20
-139.6328206031126
 10
92.32752547605007
 20
-139.6328206031126
 10
92.32752547605007
 20
-139.6328206031126
 10
91.97509220790901
 20
-139.6328206031126
 10
91.97509220790901
 20
-139.6328206031126
 10
91.97509220790901
 20
-139.6328206031126
 10
91.97509220790901
 20
-139.4846814972469
 10
91.97509220790901
 20
-139.4846814972469
 10
92.32993704288974
 20
-139.4698675866603
 10
92.37954641787734
 20
-139.306914570208
 10
92.41124129634164
 20
-139.1925374000977
 10
92.41124129634164
 20
-139.1925374000977
 10
92.56730412182345
 20
-139.1925374000977
 10
92.56730412182345
 20
-139.1925374000977
 10
92.56730412182345
 20
-139.1925374000977
 10
92.56730412182345
 20
-140.7369737061352
 10
92.56730412182345
 20
-140.7369737061352
 10
92.56730412182345
 20
-140.7369737061352
 10
92.32752547605007
 20
-140.7369737061352
 10
92.32752547605007
 20
-140.7369737061352
 97
        0
 97
        0
 75
     2
 76
     1
 98
        0
  0
POLYLINE
  5
92
330
8C
100
AcDbEntity
  8
_U+30EC_U+30A4_U+30E4_U+30FC 1
370
     0
100
AcDb2dPolyline
 66
     1
 10
0.0
 20
0.0
 30
0.0
  0
VERTEX
  5
93
330
92
100
AcDbEntity
  8
_U+30EC_U+30A4_U+30E4_U+30FC 1
370
     0
100
AcDbVertex
100
AcDb2dVertex
 10
93.99254012407131
 20
-140.3900525907706
 30
0.0
  0
VERTEX
  5
94
330
92
100
AcDbEntity
  8
_U+30EC_U+30A4_U+30E4_U+30FC 1
370
     0
100
AcDbVertex
100
AcDb2dVertex
 10
93.99254012407131
 20
-140.7369737061352
 30
0.0
  0
VERTEX
  5
95
330
92
100
AcDbEntity
  8
_U+30EC_U+30A4_U+30E4_U+30FC 1
370
     0
100
AcDbVertex
100
AcDb2dVertex
 10
93.75965166926842
 20
-140.7369737061352
 30
0.0
  0
VERTEX
  5
96
330
92
100
AcDbEntity
  8
_U+30EC_U+30A4_U+30E4_U+30FC 1
370
     0
100
AcDbVertex
100
AcDb2dVertex
 10
93.75965166926842
 20
-140.3900525907706
 30
0.0
  0
VERTEX
  5
97
330
92
100
AcDbEntity
  8
_U+30EC_U+30A4_U+30E4_U+30FC 1
370
     0
100
AcDbVertex
100
AcDb2dVertex
 10
93.05857473802008
 20
-140.3900525907706
 30
0.0
  0
VERTEX
  5
98
330
92
100
AcDbEntity
  8
_U+30EC_U+30A4_U+30E4_U+30FC 1
370
     0
100
AcDbVertex
100
AcDb2dVertex
 10
93.05857473802008
 20
-140.1657768746808
 30
0.0
  0
VERTEX
  5
99
330
92
100
AcDbEntity
  8
_U+30EC_U+30A4_U+30E4_U+30FC 1
370
     0
100
AcDbVertex
100
AcDb2dVertex
 10
93.78445635676222
 20
-139.1925374000977
 30
0.0
  0
VERTEX
  5
9A
330
92
100
AcDbEntity
  8
_U+30EC_U+30A4_U+30E4_U+30FC 1
370
     0
100
AcDbVertex
100
AcDb2dVertex
 10
93.99254012407131
 20
-139.1925374000977
 30
0.0
  0
VERTEX
  5
9B
330
92
100
AcDbEntity
  8
_U+30EC_U+30A4_U+30E4_U+30FC 1
370
     0
100
AcDbVertex
100
AcDb2dVertex
 10
93.99254012407131
 20
-140.1912705812716
 30
0.0
  0
VERTEX
  5
9C
330
92
100
AcDbEntity
  8
_U+30EC_U+30A4_U+30E4_U+30FC 1
370
     0
100
AcDbVertex
100
AcDb2dVertex
 10
94.21405976377288
 20
-140.1912705812716
 30
0.0
  0
VERTEX
  5
9D
330
92
100
AcDbEntity
  8
_U+30EC_U+30A4_U+30E4_U+30FC 1
370
     0
100
AcDbVertex
100
AcDb2dVertex
 10
94.21405976377288
 20
-140.3900525907706
 30
0.0
  0
VERTEX
  5
9E
330
92
100
AcDbEntity
  8
_U+30EC_U+30A4_U+30E4_U+30FC 1
370
     0
100
AcDbVertex
100
AcDb2dVertex
 10
93.99254012407131
 20
-140.3900525907706
 30
0.0
  0
SEQEND
  5
9F
330
92
100
AcDbEntity
  8
_U+30EC_U+30A4_U+30E4_U+30FC 1
370
     0
  0
POLYLINE
  5
A0
330
8C
100
AcDbEntity
  8
_U+30EC_U+30A4_U+30E4_U+30FC 1
370
     0
100
AcDb2dPolyline
 66
     1
 10
0.0
 20
0.0
 30
0.0
  0
VERTEX
  5
A1
330
A0
100
AcDbEntity
  8
_U+30EC_U+30A4_U+30E4_U+30FC 1
370
     0
100
AcDbVertex
100
AcDb2dVertex
 10
93.75965166926842
 20
-139.5353244008801
 30
0.0
  0
VERTEX
  5
A2
330
A0
100
AcDbEntity
  8
_U+30EC_U+30A4_U+30E4_U+30FC 1
370
     0
100
AcDbVertex
100
AcDb2dVertex
 10
93.27113712946
 20
-140.1912705812716
 30
0.0
  0
VERTEX
  5
A3
330
A0
100
AcDbEntity
  8
_U+30EC_U+30A4_U+30E4_U+30FC 1
370
     0
100
AcDbVertex
100
AcDb2dVertex
 10
93.75965166926842
 20
-140.1912705812716
 30
0.0
  0
VERTEX
  5
A4
330
A0
100
AcDbEntity
  8
_U+30EC_U+30A4_U+30E4_U+30FC 1
370
     0
100
AcDbVertex
100
AcDb2dVertex
 10
93.75965166926842
 20
-139.5353244008801
 30
0.0
  0
SEQEND
  5
A5
330
A0
100
AcDbEntity
  8
_U+30EC_U+30A4_U+30E4_U+30FC 1
370
     0
  0
HATCH
  5
A6
330
8C
100
AcDbEntity
  8
_U+30EC_U+30A4_U+30E4_U+30FC 1
 62
     7
420
 16777215
100
AcDbHatch
 10
0.0
 20
0.0
 30
0.0
210
0.0
220
0.0
230
1.0
  2
SOLID
 70
     1
 71
     0
 91
        2
 92
        1
 93
       11
 72
     1
 10
93.99254012407131
 20
-140.3900525907706
 11
93.99254012407131
 21
-140.7369737061352
 72
     1
 10
93.99254012407131
 20
-140.7369737061352
 11
93.75965166926842
 21
-140.7369737061352
 72
     1
 10
93.75965166926842
 20
-140.7369737061352
 11
93.75965166926842
 21
-140.3900525907706
 72
     1
 10
93.75965166926842
 20
-140.3900525907706
 11
93.05857473802008
 21
-140.3900525907706
 72
     1
 10
93.05857473802008
 20
-140.3900525907706
 11
93.05857473802008
 21
-140.1657768746808
 72
     1
 10
93.05857473802008
 20
-140.1657768746808
 11
93.78445635676222
 21
-139.1925374000977
 72
     1
 10
93.78445635676222
 20
-139.1925374000977
 11
93.99254012407131
 21
-139.1925374000977
 72
     1
 10
93.99254012407131
 20
-139.1925374000977
 11
93.99254012407131
 21
-140.1912705812716
 72
     1
 10
93.99254012407131
 20
-140.1912705812716
 11
94.21405976377288
 21
-140.1912705812716
 72
     1
 10
94.21405976377288
 20
-140.1912705812716
 11
94.21405976377288
 21
-140.3900525907706
 72
     1
 10
94.21405976377288
 20
-140.3900525907706
 11
93.99254012407131
 21
-140.3900525907706
 97
        0
 92
        1
 93
        3
 72
     1
 10
93.75965166926842
 20
-139.5353244008801
 11
93.27113712946
 21
-140.1912705812716
 72
     1
 10
93.27113712946
 20
-140.1912705812716
 11
93.75965166926842
 21
-140.1912705812716
 72
     1
 10
93.75965166926842
 20
-140.1912705812716
 11
93.75965166926842
 21
-139.5353244008801
 97
        0
 75
     2
 76
     1
 98
        0
  0
ENDBLK
  5
8F
330
8C
100
AcDbEntity
  8
0
100
AcDbBlockEnd
  0
BLOCK
  5
B7
330
B5
100
AcDbEntity
  8
0
100
AcDbBlockBegin
  2
block 4
 70
     0
 10
0.0
 20
0.0
 30
0.0
  3
block 4
  1

  0
SPLINE
  5
B9
330
B5
100
AcDbEntity
  8
_U+30EC_U+30A4_U+30E4_U+30FC 1
370
     0
100
AcDbSpline
210
0.0
220
0.0
230
1.0
 70
    11
 71
     3
 72
    32
 73
    28
 74
     0
 42
0.0000000001
 43
0.0000000001
 12
1.0
 22
0.0
 32
0.0
 13
1.0
 23
0.0
 33
0.0
 40
0.0
 40
0.0
 40
0.0
 40
0.0
 40
1.0
 40
1.0
 40
1.0
 40
2.0
 40
2.0
 40
2.0
 40
3.0
 40
3.0
 40
3.0
 40
4.0
 40
4.0
 40
4.0
 40
5.0
 40
5.0
 40
5.0
 40
6.0
 40
6.0
 40
6.0
 40
7.0
 40
7.0
 40
7.0
 40
8.0
 40
8.0
 40
8.0
 40
9.0
 40
9.0
 40
9.0
 40
9.0
 10
90.11301809813148
 20
-116.6812499708297
 30
0.0
 10
89.56145831094297
 20
-116.6812499708297
 30
0.0
 10
89.55250106268133
 20
-116.1272786168015
 30
0.0
 10
89.55250106268133
 20
-115.9133381871675
 30
0.0
 10
89.55250106268133
 20
-115.6828612992043
 30
0.0
 10
89.5728271260443
 20
-115.0355278575258
 30
0.0
 10
90.15401473440595
 20
-115.0355278575258
 30
0.0
 10
90.33936087151238
 20
-115.0355278575258
 30
0.0
 10
90.6015326379399
 20
-115.1054632958764
 30
0.0
 10
90.64218476466584
 20
-115.4375705006545
 30
0.0
 10
90.64218476466584
 20
-115.4375705006545
 30
0.0
 10
90.41377493399378
 20
-115.4375705006545
 30
0.0
 10
90.41377493399378
 20
-115.4375705006545
 30
0.0
 10
90.40240611889246
 20
-115.3803819155994
 30
0.0
 10
90.36864418313701
 20
-115.2322428097336
 30
0.0
 10
90.15160316756626
 20
-115.2322428097336
 30
0.0
 10
89.83947751660263
 20
-115.2322428097336
 30
0.0
 10
89.79675833258554
 20
-115.5602158999294
 30
0.0
 10
89.78297795064454
 20
-115.7651990813018
 30
0.0
 10
89.88254121016826
 20
-115.6869954137866
 30
0.0
 10
89.95488821535851
 20
-115.6277397714403
 30
0.0
 10
90.14953611027512
 20
-115.6277397714403
 30
0.0
 10
90.34142792880354
 20
-115.6277397714403
 30
0.0
 10
90.6649223948685
 20
-115.7359157696771
 30
0.0
 10
90.6649223948685
 20
-116.1420925273881
 30
0.0
 10
90.6649223948685
 20
-116.4614528788708
 30
0.0
 10
90.45236000342858
 20
-116.6812499708297
 30
0.0
 10
90.11301809813148
 20
-116.6812499708297
 30
0.0
  0
SPLINE
  5
BA
330
B5
100
AcDbEntity
  8
_U+30EC_U+30A4_U+30E4_U+30FC 1
370
     0
100
AcDbSpline
210
0.0
220
0.0
230
1.0
 70
    11
 71
     3
 72
    17
 73
    13
 74
     0
 42
0.0000000001
 43
0.0000000001
 12
1.0
 22
0.0
 32
0.0
 13
1.0
 23
0.0
 33
0.0
 40
0.0
 40
0.0
 40
0.0
 40
0.0
 40
1.0
 40
1.0
 40
1.0
 40
2.0
 40
2.0
 40
2.0
 40
3.0
 40
3.0
 40
3.0
 40
4.0
 40
4.0
 40
4.0
 40
4.0
 10
90.13127710420329
 20
-115.8223876663569
 30
0.0
 10
89.85084633170396
 20
-115.8223876663569
 30
0.0
 10
89.81019420497802
 20
-116.0339165291512
 30
0.0
 10
89.81019420497802
 20
-116.1503607565527
 30
0.0
 10
89.81019420497802
 20
-116.3260606263004
 30
0.0
 10
89.91182452179288
 20
-116.4890136427528
 30
0.0
 10
90.10853947400065
 20
-116.4890136427528
 30
0.0
 10
90.237386045149
 20
-116.4890136427528
 30
0.0
 10
90.42514374909511
 20
-116.4297580004065
 30
0.0
 10
90.42514374909511
 20
-116.1441595846792
 30
0.0
 10
90.42514374909511
 20
-115.9198838685895
 30
0.0
 10
90.27597111458378
 20
-115.8223876663569
 30
0.0
 10
90.13127710420329
 20
-115.8223876663569
 30
0.0
  0
HATCH
  5
BB
330
B5
100
AcDbEntity
  8
_U+30EC_U+30A4_U+30E4_U+30FC 1
 62
     7
420
 16777215
100
AcDbHatch
 10
0.0
 20
0.0
 30
0.0
210
0.0
220
0.0
230
1.0
  2
SOLID
 70
     1
 71
     0
 91
        2
 92
        1
 93
        1
 72
     4
 94
        3
 73
     0
 74
     1
 95
       32
 96
       28
 40
0.0
 40
0.0
 40
0.0
 40
0.0
 40
1.0
 40
1.0
 40
1.0
 40
2.0
 40
2.0
 40
2.0
 40
3.0
 40
3.0
 40
3.0
 40
4.0
 40
4.0
 40
4.0
 40
5.0
 40
5.0
 40
5.0
 40
6.0
 40
6.0
 40
6.0
 40
7.0
 40
7.0
 40
7.0
 40
8.0
 40
8.0
 40
8.0
 40
9.0
 40
9.0
 40
9.0
 40
9.0
 10
90.11301809813148
 20
-116.6812499708297
 10
89.56145831094297
 20
-116.6812499708297
 10
89.55250106268133
 20
-116.1272786168015
 10
89.55250106268133
 20
-115.9133381871675
 10
89.55250106268133
 20
-115.6828612992043
 10
89.5728271260443
 20
-115.0355278575258
 10
90.15401473440595
 20
-115.0355278575258
 10
90.33936087151238
 20
-115.0355278575258
 10
90.6015326379399
 20
-115.1054632958764
 10
90.64218476466584
 20
-115.4375705006545
 10
90.64218476466584
 20
-115.4375705006545
 10
90.41377493399378
 20
-115.4375705006545
 10
90.41377493399378
 20
-115.4375705006545
 10
90.40240611889246
 20
-115.3803819155994
 10
90.36864418313701
 20
-115.2322428097336
 10
90.15160316756626
 20
-115.2322428097336
 10
89.83947751660263
 20
-115.2322428097336
 10
89.79675833258554
 20
-115.5602158999294
 10
89.78297795064454
 20
-115.7651990813018
 10
89.88254121016826
 20
-115.6869954137866
 10
89.95488821535851
 20
-115.6277397714403
 10
90.14953611027512
 20
-115.6277397714403
 10
90.34142792880354
 20
-115.6277397714403
 10
90.6649223948685
 20
-115.7359157696771
 10
90.6649223948685
 20
-116.1420925273881
 10
90.6649223948685
 20
-116.4614528788708
 10
90.45236000342858
 20
-116.6812499708297
 10
90.11301809813148
 20
-116.6812499708297
 97
        0
 97
        0
 92
        1
 93
        1
 72
     4
 94
        3
 73
     0
 74
     1
 95
       17
 96
       13
 40
0.0
 40
0.0
 40
0.0
 40
0.0
 40
1.0
 40
1.0
 40
1.0
 40
2.0
 40
2.0
 40
2.0
 40
3.0
 40
3.0
 40
3.0
 40
4.0
 40
4.0
 40
4.0
 40
4.0
 10
90.13127710420329
 20
-115.8223876663569
 10
89.85084633170396
 20
-115.8223876663569
 10
89.81019420497802
 20
-116.0339165291512
 10
89.81019420497802
 20
-116.1503607565527
 10
89.81019420497802
 20
-116.3260606263004
 10
89.91182452179288
 20
-116.4890136427528
 10
90.10853947400065
 20
-116.4890136427528
 10
90.237386045149
 20
-116.4890136427528
 10
90.42514374909511
 20
-116.4297580004065
 10
90.42514374909511
 20
-116.1441595846792
 10
90.42514374909511
 20
-115.9198838685895
 10
90.27597111458378
 20
-115.8223876663569
 10
90.13127710420329
 20
-115.8223876663569
 97
        0
 97
        0
 75
     2
 76
     1
 98
        0
  0
ENDBLK
  5
B8
330
B5
100
AcDbEntity
  8
0
100
AcDbBlockEnd
  0
BLOCK
  5
CA
330
C8
100
AcDbEntity
  8
0
100
AcDbBlockBegin
  2
block 5
 70
     0
 10
0.0
 20
0.0
 30
0.0
  3
block 5
  1

  0
SPLINE
  5
CC
330
C8
100
AcDbEntity
  8
_U+30EC_U+30A4_U+30E4_U+30FC 1
370
     0
100
AcDbSpline
210
0.0
220
0.0
230
1.0
 70
    11
 71
     3
 72
    26
 73
    22
 74
     0
 42
0.0000000001
 43
0.0000000001
 12
1.0
 22
0.0
 32
0.0
 13
1.0
 23
0.0
 33
0.0
 40
0.0
 40
0.0
 40
0.0
 40
0.0
 40
1.0
 40
1.0
 40
1.0
 40
2.0
 40
2.0
 40
2.0
 40
3.0
 40
3.0
 40
3.0
 40
4.0
 40
4.0
 40
4.0
 40
5.0
 40
5.0
 40
5.0
 40
6.0
 40
6.0
 40
6.0
 40
7.0
 40
7.0
 40
7.0
 40
7.0
 10
81.412429450133
 20
-129.0143472984756
 30
0.0
 10
81.412429450133
 20
-129.0143472984756
 30
0.0
 10
80.30810409233617
 20
-129.0143472984756
 30
0.0
 10
80.30810409233617
 20
-129.0143472984756
 30
0.0
 10
80.30810409233617
 20
-129.0143472984756
 30
0.0
 10
80.30810409233617
 20
-129.3671250761652
 30
0.0
 10
80.30810409233617
 20
-129.3671250761652
 30
0.0
 10
80.30810409233617
 20
-129.3671250761652
 30
0.0
 10
80.15996498647043
 20
-129.3671250761652
 30
0.0
 10
80.15996498647043
 20
-129.3671250761652
 30
0.0
 10
80.14532333065812
 20
-129.0122802411844
 30
0.0
 10
79.9823703142058
 20
-128.9623263566483
 30
0.0
 10
79.86816539886976
 20
-128.930631478184
 30
0.0
 10
79.86816539886976
 20
-128.930631478184
 30
0.0
 10
79.86816539886976
 20
-128.7749131622507
 30
0.0
 10
79.86816539886976
 20
-128.7749131622507
 30
0.0
 10
79.86816539886976
 20
-128.7749131622507
 30
0.0
 10
81.412429450133
 20
-128.7749131622507
 30
0.0
 10
81.412429450133
 20
-128.7749131622507
 30
0.0
 10
81.412429450133
 20
-128.7749131622507
 30
0.0
 10
81.412429450133
 20
-129.0143472984756
 30
0.0
 10
81.412429450133
 20
-129.0143472984756
 30
0.0
  0
HATCH
  5
CD
330
C8
100
AcDbEntity
  8
_U+30EC_U+30A4_U+30E4_U+30FC 1
 62
     7
420
 16777215
100
AcDbHatch
 10
0.0
 20
0.0
 30
0.0
210
0.0
220
0.0
230
1.0
  2
SOLID
 70
     1
 71
     0
 91
        1
 92
        1
 93
        1
 72
     4
 94
        3
 73
     0
 74
     1
 95
       26
 96
       22
 40
0.0
 40
0.0
 40
0.0
 40
0.0
 40
1.0
 40
1.0
 40
1.0
 40
2.0
 40
2.0
 40
2.0
 40
3.0
 40
3.0
 40
3.0
 40
4.0
 40
4.0
 40
4.0
 40
5.0
 40
5.0
 40
5.0
 40
6.0
 40
6.0
 40
6.0
 40
7.0
 40
7.0
 40
7.0
 40
7.0
 10
81.412429450133
 20
-129.0143472984756
 10
81.412429450133
 20
-129.0143472984756
 10
80.30810409233617
 20
-129.0143472984756
 10
80.30810409233617
 20
-129.0143472984756
 10
80.30810409233617
 20
-129.0143472984756
 10
80.30810409233617
 20
-129.3671250761652
 10
80.30810409233617
 20
-129.3671250761652
 10
80.30810409233617
 20
-129.3671250761652
 10
80.15996498647043
 20
-129.3671250761652
 10
80.15996498647043
 20
-129.3671250761652
 10
80.14532333065812
 20
-129.0122802411844
 10
79.9823703142058
 20
-128.9623263566483
 10
79.86816539886976
 20
-128.930631478184
 10
79.86816539886976
 20
-128.930631478184
 10
79.86816539886976
 20
-128.7749131622507
 10
79.86816539886976
 20
-128.7749131622507
 10
79.86816539886976
 20
-128.7749131622507
 10
81.412429450133
 20
-128.7749131622507
 10
81.412429450133
 20
-128.7749131622507
 10
81.412429450133
 20
-128.7749131622507
 10
81.412429450133
 20
-129.0143472984756
 10
81.412429450133
 20
-129.0143472984756
 97
        0
 97
        0
 75
     2
 76
     1
 98
        0
  0
SPLINE
  5
CE
330
C8
100
AcDbEntity
  8
_U+30EC_U+30A4_U+30E4_U+30FC 1
370
     0
100
AcDbSpline
210
0.0
220
0.0
230
1.0
 70
    11
 71
     3
 72
    29
 73
    25
 74
     0
 42
0.0000000001
 43
0.0000000001
 12
1.0
 22
0.0
 32
0.0
 13
1.0
 23
0.0
 33
0.0
 40
0.0
 40
0.0
 40
0.0
 40
0.0
 40
1.0
 40
1.0
 40
1.0
 40
2.0
 40
2.0
 40
2.0
 40
3.0
 40
3.0
 40
3.0
 40
4.0
 40
4.0
 40
4.0
 40
5.0
 40
5.0
 40
5.0
 40
6.0
 40
6.0
 40
6.0
 40
7.0
 40
7.0
 40
7.0
 40
8.0
 40
8.0
 40
8.0
 40
8.0
 10
81.46324460854045
 20
-127.7045219949836
 30
0.0
 10
81.46324460854045
 20
-127.9894313916138
 30
0.0
 10
81.32561304390471
 20
-128.2607326610772
 30
0.0
 10
80.9766248712489
 20
-128.2607326610772
 30
0.0
 10
80.72065427669484
 20
-128.2607326610772
 30
0.0
 10
80.62539738652768
 20
-128.1093207145005
 30
0.0
 10
80.56407468689024
 20
-127.99614932781
 30
0.0
 10
80.50481904454394
 20
-128.1296467778634
 30
0.0
 10
80.3906141292079
 20
-128.2109510313153
 30
0.0
 10
80.229900424821
 20
-128.2109510313153
 30
0.0
 10
79.9548095503238
 20
-128.2109510313153
 30
0.0
 10
79.81941729775349
 20
-127.9983886398754
 30
0.0
 10
79.81941729775349
 20
-127.7045219949836
 30
0.0
 10
79.81941729775349
 20
-127.4016981018301
 30
0.0
 10
79.96325003426266
 20
-127.1980929586519
 30
0.0
 10
80.229900424821
 20
-127.1980929586519
 30
0.0
 10
80.3906141292079
 20
-127.1980929586519
 30
0.0
 10
80.50481904454394
 20
-127.2818087789434
 30
0.0
 10
80.56407468689024
 20
-127.4151339742226
 30
0.0
 10
80.61488984529767
 20
-127.320221593604
 30
0.0
 10
80.71014673546483
 20
-127.1507228957297
 30
0.0
 10
80.97231850189235
 20
-127.1507228957297
 30
0.0
 10
81.346800381139
 20
-127.1507228957297
 30
0.0
 10
81.46324460854045
 20
-127.4490681647523
 30
0.0
 10
81.46324460854045
 20
-127.7045219949836
 30
0.0
  0
SPLINE
  5
CF
330
C8
100
AcDbEntity
  8
_U+30EC_U+30A4_U+30E4_U+30FC 1
370
     0
100
AcDbSpline
210
0.0
220
0.0
230
1.0
 70
    11
 71
     3
 72
    17
 73
    13
 74
     0
 42
0.0000000001
 43
0.0000000001
 12
1.0
 22
0.0
 32
0.0
 13
1.0
 23
0.0
 33
0.0
 40
0.0
 40
0.0
 40
0.0
 40
0.0
 40
1.0
 40
1.0
 40
1.0
 40
2.0
 40
2.0
 40
2.0
 40
3.0
 40
3.0
 40
3.0
 40
4.0
 40
4.0
 40
4.0
 40
4.0
 10
80.01199813537895
 20
-127.7045219949836
 30
0.0
 10
80.01199813537895
 20
-127.8809108838284
 30
0.0
 10
80.10708277077184
 20
-127.9713446403162
 30
0.0
 10
80.24247502334217
 20
-127.9713446403162
 30
0.0
 10
80.36529267739132
 20
-127.9713446403162
 30
0.0
 10
80.48380396208391
 20
-127.8945190109951
 30
0.0
 10
80.48380396208391
 20
-127.7045219949836
 30
0.0
 10
80.48380396208391
 20
-127.5146972337463
 30
0.0
 10
80.36529267739132
 20
-127.4378716044253
 30
0.0
 10
80.24247502334217
 20
-127.4378716044253
 30
0.0
 10
80.10708277077184
 20
-127.4378716044253
 30
0.0
 10
80.01199813537895
 20
-127.5305446729785
 30
0.0
 10
80.01199813537895
 20
-127.7045219949836
 30
0.0
  0
SPLINE
  5
D0
330
C8
100
AcDbEntity
  8
_U+30EC_U+30A4_U+30E4_U+30FC 1
370
     0
100
AcDbSpline
210
0.0
220
0.0
230
1.0
 70
    11
 71
     3
 72
    17
 73
    13
 74
     0
 42
0.0000000001
 43
0.0000000001
 12
1.0
 22
0.0
 32
0.0
 13
1.0
 23
0.0
 33
0.0
 40
0.0
 40
0.0
 40
0.0
 40
0.0
 40
1.0
 40
1.0
 40
1.0
 40
2.0
 40
2.0
 40
2.0
 40
3.0
 40
3.0
 40
3.0
 40
4.0
 40
4.0
 40
4.0
 40
4.0
 10
80.67207843035281
 20
-127.7045219949836
 30
0.0
 10
80.67207843035281
 20
-127.8583455084
 30
0.0
 10
80.75872258180685
 20
-128.0211262700781
 30
0.0
 10
80.96181096066233
 20
-128.0211262700781
 30
0.0
 10
81.16696639680896
 20
-128.0211262700781
 30
0.0
 10
81.26859671362382
 20
-127.8853895079592
 30
0.0
 10
81.26859671362382
 20
-127.7045219949836
 30
0.0
 10
81.26859671362382
 20
-127.5055677307104
 30
0.0
 10
81.14595131434893
 20
-127.3880899746634
 30
0.0
 10
80.96818438731005
 20
-127.3880899746634
 30
0.0
 10
80.74597572851143
 20
-127.3880899746634
 30
0.0
 10
80.67207843035281
 20
-127.5620672966685
 30
0.0
 10
80.67207843035281
 20
-127.7045219949836
 30
0.0
  0
HATCH
  5
D1
330
C8
100
AcDbEntity
  8
_U+30EC_U+30A4_U+30E4_U+30FC 1
 62
     7
420
 16777215
100
AcDbHatch
 10
0.0
 20
0.0
 30
0.0
210
0.0
220
0.0
230
1.0
  2
SOLID
 70
     1
 71
     0
 91
        3
 92
        1
 93
        1
 72
     4
 94
        3
 73
     0
 74
     1
 95
       29
 96
       25
 40
0.0
 40
0.0
 40
0.0
 40
0.0
 40
1.0
 40
1.0
 40
1.0
 40
2.0
 40
2.0
 40
2.0
 40
3.0
 40
3.0
 40
3.0
 40
4.0
 40
4.0
 40
4.0
 40
5.0
 40
5.0
 40
5.0
 40
6.0
 40
6.0
 40
6.0
 40
7.0
 40
7.0
 40
7.0
 40
8.0
 40
8.0
 40
8.0
 40
8.0
 10
81.46324460854045
 20
-127.7045219949836
 10
81.46324460854045
 20
-127.9894313916138
 10
81.32561304390471
 20
-128.2607326610772
 10
80.9766248712489
 20
-128.2607326610772
 10
80.72065427669484
 20
-128.2607326610772
 10
80.62539738652768
 20
-128.1093207145005
 10
80.56407468689024
 20
-127.99614932781
 10
80.50481904454394
 20
-128.1296467778634
 10
80.3906141292079
 20
-128.2109510313153
 10
80.229900424821
 20
-128.2109510313153
 10
79.9548095503238
 20
-128.2109510313153
 10
79.81941729775349
 20
-127.9983886398754
 10
79.81941729775349
 20
-127.7045219949836
 10
79.81941729775349
 20
-127.4016981018301
 10
79.96325003426266
 20
-127.1980929586519
 10
80.229900424821
 20
-127.1980929586519
 10
80.3906141292079
 20
-127.1980929586519
 10
80.50481904454394
 20
-127.2818087789434
 10
80.56407468689024
 20
-127.4151339742226
 10
80.61488984529767
 20
-127.320221593604
 10
80.71014673546483
 20
-127.1507228957297
 10
80.97231850189235
 20
-127.1507228957297
 10
81.346800381139
 20
-127.1507228957297
 10
81.46324460854045
 20
-127.4490681647523
 10
81.46324460854045
 20
-127.7045219949836
 97
        0
 97
        0
 92
        1
 93
        1
 72
     4
 94
        3
 73
     0
 74
     1
 95
       17
 96
       13
 40
0.0
 40
0.0
 40
0.0
 40
0.0
 40
1.0
 40
1.0
 40
1.0
 40
2.0
 40
2.0
 40
2.0
 40
3.0
 40
3.0
 40
3.0
 40
4.0
 40
4.0
 40
4.0
 40
4.0
 10
80.01199813537895
 20
-127.7045219949836
 10
80.01199813537895
 20
-127.8809108838284
 10
80.10708277077184
 20
-127.9713446403162
 10
80.24247502334217
 20
-127.9713446403162
 10
80.36529267739132
 20
-127.9713446403162
 10
80.48380396208391
 20
-127.8945190109951
 10
80.48380396208391
 20
-127.7045219949836
 10
80.48380396208391
 20
-127.5146972337463
 10
80.36529267739132
 20
-127.4378716044253
 10
80.24247502334217
 20
-127.4378716044253
 10
80.10708277077184
 20
-127.4378716044253
 10
80.01199813537895
 20
-127.5305446729785
 10
80.01199813537895
 20
-127.7045219949836
 97
        0
 97
        0
 92
        1
 93
        1
 72
     4
 94
        3
 73
     0
 74
     1
 95
       17
 96
       13
 40
0.0
 40
0.0
 40
0.0
 40
0.0
 40
1.0
 40
1.0
 40
1.0
 40
2.0
 40
2.0
 40
2.0
 40
3.0
 40
3.0
 40
3.0
 40
4.0
 40
4.0
 40
4.0
 40
4.0
 10
80.67207843035281
 20
-127.7045219949836
 10
80.67207843035281
 20
-127.8583455084
 10
80.75872258180685
 20
-128.0211262700781
 10
80.96181096066233
 20
-128.0211262700781
 10
81.16696639680896
 20
-128.0211262700781
 10
81.26859671362382
 20
-127.8853895079592
 10
81.26859671362382
 20
-127.7045219949836
 10
81.26859671362382
 20
-127.5055677307104
 10
81.14595131434893
 20
-127.3880899746634
 10
80.96818438731005
 20
-127.3880899746634
 10
80.74597572851143
 20
-127.3880899746634
 10
80.67207843035281
 20
-127.5620672966685
 10
80.67207843035281
 20
-127.7045219949836
 97
        0
 97
        0
 75
     2
 76
     1
 98
        0
  0
ENDBLK
  5
CB
330
C8
100
AcDbEntity
  8
0
100
AcDbBlockEnd
  0
BLOCK
  5
E5
330
E3
100
AcDbEntity
  8
0
100
AcDbBlockBegin
  2
block 6
 70
     0
 10
0.0
 20
0.0
 30
0.0
  3
block 6
  1

  0
SPLINE
  5
E7
330
E3
100
AcDbEntity
  8
_U+30EC_U+30A4_U+30E4_U+30FC 1
370
     0
100
AcDbSpline
210
0.0
220
0.0
230
1.0
 70
    11
 71
     3
 72
    26
 73
    22
 74
     0
 42
0.0000000001
 43
0.0000000001
 12
1.0
 22
0.0
 32
0.0
 13
1.0
 23
0.0
 33
0.0
 40
0.0
 40
0.0
 40
0.0
 40
0.0
 40
1.0
 40
1.0
 40
1.0
 40
2.0
 40
2.0
 40
2.0
 40
3.0
 40
3.0
 40
3.0
 40
4.0
 40
4.0
 40
4.0
 40
5.0
 40
5.0
 40
5.0
 40
6.0
 40
6.0
 40
6.0
 40
7.0
 40
7.0
 40
7.0
 40
7.0
 10
101.8249647097868
 20
-132.0146809565797
 30
0.0
 10
101.8249647097868
 20
-132.0146809565797
 30
0.0
 10
100.7208116067642
 20
-132.0146809565797
 30
0.0
 10
100.7208116067642
 20
-132.0146809565797
 30
0.0
 10
100.7208116067642
 20
-132.0146809565797
 30
0.0
 10
100.7208116067642
 20
-132.3671142247207
 30
0.0
 10
100.7208116067642
 20
-132.3671142247207
 30
0.0
 10
100.7208116067642
 20
-132.3671142247207
 30
0.0
 10
100.5726725008985
 20
-132.3671142247207
 30
0.0
 10
100.5726725008985
 20
-132.3671142247207
 30
0.0
 10
100.5578585903119
 20
-132.01226938974
 30
0.0
 10
100.3949055738596
 20
-131.9626600147524
 30
0.0
 10
100.2805284037493
 20
-131.9309651362881
 30
0.0
 10
100.2805284037493
 20
-131.9309651362881
 30
0.0
 10
100.2805284037493
 20
-131.7749023108063
 30
0.0
 10
100.2805284037493
 20
-131.7749023108063
 30
0.0
 10
100.2805284037493
 20
-131.7749023108063
 30
0.0
 10
101.8249647097868
 20
-131.7749023108063
 30
0.0
 10
101.8249647097868
 20
-131.7749023108063
 30
0.0
 10
101.8249647097868
 20
-131.7749023108063
 30
0.0
 10
101.8249647097868
 20
-132.0146809565797
 30
0.0
 10
101.8249647097868
 20
-132.0146809565797
 30
0.0
  0
HATCH
  5
E8
330
E3
100
AcDbEntity
  8
_U+30EC_U+30A4_U+30E4_U+30FC 1
 62
     7
420
 16777215
100
AcDbHatch
 10
0.0
 20
0.0
 30
0.0
210
0.0
220
0.0
230
1.0
  2
SOLID
 70
     1
 71
     0
 91
        1
 92
        1
 93
        1
 72
     4
 94
        3
 73
     0
 74
     1
 95
       26
 96
       22
 40
0.0
 40
0.0
 40
0.0
 40
0.0
 40
1.0
 40
1.0
 40
1.0
 40
2.0
 40
2.0
 40
2.0
 40
3.0
 40
3.0
 40
3.0
 40
4.0
 40
4.0
 40
4.0
 40
5.0
 40
5.0
 40
5.0
 40
6.0
 40
6.0
 40
6.0
 40
7.0
 40
7.0
 40
7.0
 40
7.0
 10
101.8249647097868
 20
-132.0146809565797
 10
101.8249647097868
 20
-132.0146809565797
 10
100.7208116067642
 20
-132.0146809565797
 10
100.7208116067642
 20
-132.0146809565797
 10
100.7208116067642
 20
-132.0146809565797
 10
100.7208116067642
 20
-132.3671142247207
 10
100.7208116067642
 20
-132.3671142247207
 10
100.7208116067642
 20
-132.3671142247207
 10
100.5726725008985
 20
-132.3671142247207
 10
100.5726725008985
 20
-132.3671142247207
 10
100.5578585903119
 20
-132.01226938974
 10
100.3949055738596
 20
-131.9626600147524
 10
100.2805284037493
 20
-131.9309651362881
 10
100.2805284037493
 20
-131.9309651362881
 10
100.2805284037493
 20
-131.7749023108063
 10
100.2805284037493
 20
-131.7749023108063
 10
100.2805284037493
 20
-131.7749023108063
 10
101.8249647097868
 20
-131.7749023108063
 10
101.8249647097868
 20
-131.7749023108063
 10
101.8249647097868
 20
-131.7749023108063
 10
101.8249647097868
 20
-132.0146809565797
 10
101.8249647097868
 20
-132.0146809565797
 97
        0
 97
        0
 75
     2
 76
     1
 98
        0
  0
SPLINE
  5
E9
330
E3
100
AcDbEntity
  8
_U+30EC_U+30A4_U+30E4_U+30FC 1
370
     0
100
AcDbSpline
210
0.0
220
0.0
230
1.0
 70
    11
 71
     3
 72
    29
 73
    25
 74
     0
 42
0.0000000001
 43
0.0000000001
 12
1.0
 22
0.0
 32
0.0
 13
1.0
 23
0.0
 33
0.0
 40
0.0
 40
0.0
 40
0.0
 40
0.0
 40
1.0
 40
1.0
 40
1.0
 40
2.0
 40
2.0
 40
2.0
 40
3.0
 40
3.0
 40
3.0
 40
4.0
 40
4.0
 40
4.0
 40
5.0
 40
5.0
 40
5.0
 40
6.0
 40
6.0
 40
6.0
 40
7.0
 40
7.0
 40
7.0
 40
8.0
 40
8.0
 40
8.0
 40
8.0
 10
101.6471977827479
 20
-130.2797308702079
 30
0.0
 10
101.8566595882511
 20
-130.3951415689637
 30
0.0
 10
101.87560761342
 20
-130.5804877060702
 30
0.0
 10
101.87560761342
 20
-130.7048556530877
 30
0.0
 10
101.87560761342
 20
-130.8764214082531
 30
0.0
 10
101.8290988243691
 20
-131.0280056096041
 30
0.0
 10
101.6471977827479
 20
-131.129635926419
 30
0.0
 10
101.4525498878313
 20
-131.240568001044
 30
0.0
 10
101.2155273184461
 20
-131.260894064407
 30
0.0
 10
101.0529188115423
 20
-131.260894064407
 30
0.0
 10
100.9089138202589
 20
-131.260894064407
 30
0.0
 10
100.6570773402871
 20
-131.2426350583352
 30
0.0
 10
100.4582953307882
 20
-131.129635926419
 30
0.0
 10
100.255379206707
 20
-131.0145697372116
 30
0.0
 10
100.2319525574073
 20
-130.8426594724977
 30
0.0
 10
100.2319525574073
 20
-130.7048556530877
 30
0.0
 10
100.2319525574073
 20
-130.5350124456649
 30
0.0
 10
100.276394289167
 20
-130.3813611870227
 30
0.0
 10
100.4582953307882
 20
-130.2797308702079
 30
0.0
 10
100.6508761684137
 20
-130.1732774197136
 30
0.0
 10
100.8792859990857
 20
-130.1484727322198
 30
0.0
 10
101.0529188115423
 20
-130.1484727322198
 30
0.0
 10
101.2241400571592
 20
-130.1484727322198
 30
0.0
 10
101.4546169451225
 20
-130.1712103624225
 30
0.0
 10
101.6471977827479
 20
-130.2797308702079
 30
0.0
  0
SPLINE
  5
EA
330
E3
100
AcDbEntity
  8
_U+30EC_U+30A4_U+30E4_U+30FC 1
370
     0
100
AcDbSpline
210
0.0
220
0.0
230
1.0
 70
    11
 71
     3
 72
    17
 73
    13
 74
     0
 42
0.0000000001
 43
0.0000000001
 12
1.0
 22
0.0
 32
0.0
 13
1.0
 23
0.0
 33
0.0
 40
0.0
 40
0.0
 40
0.0
 40
0.0
 40
1.0
 40
1.0
 40
1.0
 40
2.0
 40
2.0
 40
2.0
 40
3.0
 40
3.0
 40
3.0
 40
4.0
 40
4.0
 40
4.0
 40
4.0
 10
100.4245333950328
 20
-130.7048556530877
 30
0.0
 10
100.4245333950328
 20
-130.971506043646
 30
0.0
 10
100.7080647534688
 20
-131.0211154186336
 30
0.0
 10
101.0529188115423
 20
-131.0211154186336
 30
0.0
 10
101.372279163025
 20
-131.0211154186336
 30
0.0
 10
101.6809597185034
 20
-130.9828748587474
 30
0.0
 10
101.6809597185034
 20
-130.7048556530877
 30
0.0
 10
101.6809597185034
 20
-130.4402723198205
 30
0.0
 10
101.399839926907
 20
-130.3882513779932
 30
0.0
 10
101.0529188115423
 20
-130.3882513779932
 30
0.0
 10
100.7332139505111
 20
-130.3882513779932
 30
0.0
 10
100.4245333950328
 20
-130.4289035047192
 30
0.0
 10
100.4245333950328
 20
-130.7048556530877
 30
0.0
  0
HATCH
  5
EB
330
E3
100
AcDbEntity
  8
_U+30EC_U+30A4_U+30E4_U+30FC 1
 62
     7
420
 16777215
100
AcDbHatch
 10
0.0
 20
0.0
 30
0.0
210
0.0
220
0.0
230
1.0
  2
SOLID
 70
     1
 71
     0
 91
        2
 92
        1
 93
        1
 72
     4
 94
        3
 73
     0
 74
     1
 95
       29
 96
       25
 40
0.0
 40
0.0
 40
0.0
 40
0.0
 40
1.0
 40
1.0
 40
1.0
 40
2.0
 40
2.0
 40
2.0
 40
3.0
 40
3.0
 40
3.0
 40
4.0
 40
4.0
 40
4.0
 40
5.0
 40
5.0
 40
5.0
 40
6.0
 40
6.0
 40
6.0
 40
7.0
 40
7.0
 40
7.0
 40
8.0
 40
8.0
 40
8.0
 40
8.0
 10
101.6471977827479
 20
-130.2797308702079
 10
101.8566595882511
 20
-130.3951415689637
 10
101.87560761342
 20
-130.5804877060702
 10
101.87560761342
 20
-130.7048556530877
 10
101.87560761342
 20
-130.8764214082531
 10
101.8290988243691
 20
-131.0280056096041
 10
101.6471977827479
 20
-131.129635926419
 10
101.4525498878313
 20
-131.240568001044
 10
101.2155273184461
 20
-131.260894064407
 10
101.0529188115423
 20
-131.260894064407
 10
100.9089138202589
 20
-131.260894064407
 10
100.6570773402871
 20
-131.2426350583352
 10
100.4582953307882
 20
-131.129635926419
 10
100.255379206707
 20
-131.0145697372116
 10
100.2319525574073
 20
-130.8426594724977
 10
100.2319525574073
 20
-130.7048556530877
 10
100.2319525574073
 20
-130.5350124456649
 10
100.276394289167
 20
-130.3813611870227
 10
100.4582953307882
 20
-130.2797308702079
 10
100.6508761684137
 20
-130.1732774197136
 10
100.8792859990857
 20
-130.1484727322198
 10
101.0529188115423
 20
-130.1484727322198
 10
101.2241400571592
 20
-130.1484727322198
 10
101.4546169451225
 20
-130.1712103624225
 10
101.6471977827479
 20
-130.2797308702079
 97
        0
 97
        0
 92
        1
 93
        1
 72
     4
 94
        3
 73
     0
 74
     1
 95
       17
 96
       13
 40
0.0
 40
0.0
 40
0.0
 40
0.0
 40
1.0
 40
1.0
 40
1.0
 40
2.0
 40
2.0
 40
2.0
 40
3.0
 40
3.0
 40
3.0
 40
4.0
 40
4.0
 40
4.0
 40
4.0
 10
100.4245333950328
 20
-130.7048556530877
 10
100.4245333950328
 20
-130.971506043646
 10
100.7080647534688
 20
-131.0211154186336
 10
101.0529188115423
 20
-131.0211154186336
 10
101.372279163025
 20
-131.0211154186336
 10
101.6809597185034
 20
-130.9828748587474
 10
101.6809597185034
 20
-130.7048556530877
 10
101.6809597185034
 20
-130.4402723198205
 10
101.399839926907
 20
-130.3882513779932
 10
101.0529188115423
 20
-130.3882513779932
 10
100.7332139505111
 20
-130.3882513779932
 10
100.4245333950328
 20
-130.4289035047192
 10
100.4245333950328
 20
-130.7048556530877
 97
        0
 97
        0
 75
     2
 76
     1
 98
        0
  0
ENDBLK
  5
E6
330
E3
100
AcDbEntity
  8
0
100
AcDbBlockEnd
  0
BLOCK
  5
F6
330
F4
100
AcDbEntity
  8
0
100
AcDbBlockBegin
  2
block 7
 70
     0
 10
0.0
 20
0.0
 30
0.0
  3
block 7
  1

  0
SPLINE
  5
F8
330
F4
100
AcDbEntity
  8
_U+30EC_U+30A4_U+30E4_U+30FC 1
370
     0
100
AcDbSpline
210
0.0
220
0.0
230
1.0
 70
    11
 71
     3
 72
    32
 73
    28
 74
     0
 42
0.0000000001
 43
0.0000000001
 12
1.0
 22
0.0
 32
0.0
 13
1.0
 23
0.0
 33
0.0
 40
0.0
 40
0.0
 40
0.0
 40
0.0
 40
1.0
 40
1.0
 40
1.0
 40
2.0
 40
2.0
 40
2.0
 40
3.0
 40
3.0
 40
3.0
 40
4.0
 40
4.0
 40
4.0
 40
5.0
 40
5.0
 40
5.0
 40
6.0
 40
6.0
 40
6.0
 40
7.0
 40
7.0
 40
7.0
 40
8.0
 40
8.0
 40
8.0
 40
9.0
 40
9.0
 40
9.0
 40
9.0
 10
101.8759521229685
 20
-122.487786156444
 30
0.0
 10
101.8759521229685
 20
-123.0395181984068
 30
0.0
 10
101.3219807689403
 20
-123.0484754466684
 30
0.0
 10
101.1080403393063
 20
-123.0484754466684
 30
0.0
 10
100.8775634513431
 20
-123.0484754466684
 30
0.0
 10
100.2302300096647
 20
-123.0281493833055
 30
0.0
 10
100.2302300096647
 20
-122.4471340297181
 30
0.0
 10
100.2302300096647
 20
-122.2616156378374
 30
0.0
 10
100.3001654480152
 20
-121.9994438714099
 30
0.0
 10
100.6322726527933
 20
-121.9587917446839
 30
0.0
 10
100.6322726527933
 20
-121.9587917446839
 30
0.0
 10
100.6322726527933
 20
-122.1870293205817
 30
0.0
 10
100.6322726527933
 20
-122.1870293205817
 30
0.0
 10
100.5750840677382
 20
-122.198398135683
 30
0.0
 10
100.4269449618724
 20
-122.2323323262128
 30
0.0
 10
100.4269449618724
 20
-122.4493733417835
 30
0.0
 10
100.4269449618724
 20
-122.7613267379729
 30
0.0
 10
100.7549180520682
 20
-122.8042181767642
 30
0.0
 10
100.9599012334406
 20
-122.817826303931
 30
0.0
 10
100.8816975659254
 20
-122.7184352991815
 30
0.0
 10
100.8224419235791
 20
-122.6460882939913
 30
0.0
 10
100.8224419235791
 20
-122.4516126538489
 30
0.0
 10
100.8224419235791
 20
-122.259376325772
 30
0.0
 10
100.930617921816
 20
-121.9360541144813
 30
0.0
 10
101.3367946795269
 20
-121.9360541144813
 30
0.0
 10
101.6561550310096
 20
-121.9360541144813
 30
0.0
 10
101.8759521229685
 20
-122.1486165059212
 30
0.0
 10
101.8759521229685
 20
-122.487786156444
 30
0.0
  0
SPLINE
  5
F9
330
F4
100
AcDbEntity
  8
_U+30EC_U+30A4_U+30E4_U+30FC 1
370
     0
100
AcDbSpline
210
0.0
220
0.0
230
1.0
 70
    11
 71
     3
 72
    17
 73
    13
 74
     0
 42
0.0000000001
 43
0.0000000001
 12
1.0
 22
0.0
 32
0.0
 13
1.0
 23
0.0
 33
0.0
 40
0.0
 40
0.0
 40
0.0
 40
0.0
 40
1.0
 40
1.0
 40
1.0
 40
2.0
 40
2.0
 40
2.0
 40
3.0
 40
3.0
 40
3.0
 40
4.0
 40
4.0
 40
4.0
 40
4.0
 10
101.0170898184957
 20
-122.4696994051465
 30
0.0
 10
101.0170898184957
 20
-122.7501301776458
 30
0.0
 10
101.2286186812901
 20
-122.7907823043718
 30
0.0
 10
101.3450629086915
 20
-122.7907823043718
 30
0.0
 10
101.5207627784393
 20
-122.7907823043718
 30
0.0
 10
101.6837157948916
 20
-122.6889797327826
 30
0.0
 10
101.6837157948916
 20
-122.4922647805749
 30
0.0
 10
101.6837157948916
 20
-122.3634182094265
 30
0.0
 10
101.6244601525453
 20
-122.1758327602547
 30
0.0
 10
101.3388617368181
 20
-122.1758327602547
 30
0.0
 10
101.1145860207283
 20
-122.1758327602547
 30
0.0
 10
101.0170898184957
 20
-122.325005394766
 30
0.0
 10
101.0170898184957
 20
-122.4696994051465
 30
0.0
  0
HATCH
  5
FA
330
F4
100
AcDbEntity
  8
_U+30EC_U+30A4_U+30E4_U+30FC 1
 62
     7
420
 16777215
100
AcDbHatch
 10
0.0
 20
0.0
 30
0.0
210
0.0
220
0.0
230
1.0
  2
SOLID
 70
     1
 71
     0
 91
        2
 92
        1
 93
        1
 72
     4
 94
        3
 73
     0
 74
     1
 95
       32
 96
       28
 40
0.0
 40
0.0
 40
0.0
 40
0.0
 40
1.0
 40
1.0
 40
1.0
 40
2.0
 40
2.0
 40
2.0
 40
3.0
 40
3.0
 40
3.0
 40
4.0
 40
4.0
 40
4.0
 40
5.0
 40
5.0
 40
5.0
 40
6.0
 40
6.0
 40
6.0
 40
7.0
 40
7.0
 40
7.0
 40
8.0
 40
8.0
 40
8.0
 40
9.0
 40
9.0
 40
9.0
 40
9.0
 10
101.8759521229685
 20
-122.487786156444
 10
101.8759521229685
 20
-123.0395181984068
 10
101.3219807689403
 20
-123.0484754466684
 10
101.1080403393063
 20
-123.0484754466684
 10
100.8775634513431
 20
-123.0484754466684
 10
100.2302300096647
 20
-123.0281493833055
 10
100.2302300096647
 20
-122.4471340297181
 10
100.2302300096647
 20
-122.2616156378374
 10
100.3001654480152
 20
-121.9994438714099
 10
100.6322726527933
 20
-121.9587917446839
 10
100.6322726527933
 20
-121.9587917446839
 10
100.6322726527933
 20
-122.1870293205817
 10
100.6322726527933
 20
-122.1870293205817
 10
100.5750840677382
 20
-122.198398135683
 10
100.4269449618724
 20
-122.2323323262128
 10
100.4269449618724
 20
-122.4493733417835
 10
100.4269449618724
 20
-122.7613267379729
 10
100.7549180520682
 20
-122.8042181767642
 10
100.9599012334406
 20
-122.817826303931
 10
100.8816975659254
 20
-122.7184352991815
 10
100.8224419235791
 20
-122.6460882939913
 10
100.8224419235791
 20
-122.4516126538489
 10
100.8224419235791
 20
-122.259376325772
 10
100.930617921816
 20
-121.9360541144813
 10
101.3367946795269
 20
-121.9360541144813
 10
101.6561550310096
 20
-121.9360541144813
 10
101.8759521229685
 20
-122.1486165059212
 10
101.8759521229685
 20
-122.487786156444
 97
        0
 97
        0
 92
        1
 93
        1
 72
     4
 94
        3
 73
     0
 74
     1
 95
       17
 96
       13
 40
0.0
 40
0.0
 40
0.0
 40
0.0
 40
1.0
 40
1.0
 40
1.0
 40
2.0
 40
2.0
 40
2.0
 40
3.0
 40
3.0
 40
3.0
 40
4.0
 40
4.0
 40
4.0
 40
4.0
 10
101.0170898184957
 20
-122.4696994051465
 10
101.0170898184957
 20
-122.7501301776458
 10
101.2286186812901
 20
-122.7907823043718
 10
101.3450629086915
 20
-122.7907823043718
 10
101.5207627784393
 20
-122.7907823043718
 10
101.6837157948916
 20
-122.6889797327826
 10
101.6837157948916
 20
-122.4922647805749
 10
101.6837157948916
 20
-122.3634182094265
 10
101.6244601525453
 20
-122.1758327602547
 10
101.3388617368181
 20
-122.1758327602547
 10
101.1145860207283
 20
-122.1758327602547
 10
101.0170898184957
 20
-122.325005394766
 10
101.0170898184957
 20
-122.4696994051465
 97
        0
 97
        0
 75
     2
 76
     1
 98
        0
  0
ENDBLK
  5
F7
330
F4
100
AcDbEntity
  8
0
100
AcDbBlockEnd
  0
ENDSEC
  0
SECTION
  2
ENTITIES
  0
POLYLINE
  5
41
330
1F
100
AcDbEntity
  8
_U+30EC_U+30A4_U+30E4_U+30FC 1
 62
     7
420
 16777215
370
    25
100
AcDb2dPolyline
 66
     1
 10
0.0
 20
0.0
 30
0.0
  0
VERTEX
  5
42
330
41
100
AcDbEntity
  8
_U+30EC_U+30A4_U+30E4_U+30FC 1
 62
     7
420
 16777215
370
    25
100
AcDbVertex
100
AcDb2dVertex
 10
87.00847389134002
 20
-136.3331241325832
 30
0.0
  0
VERTEX
  5
43
330
41
100
AcDbEntity
  8
_U+30EC_U+30A4_U+30E4_U+30FC 1
 62
     7
420
 16777215
370
    25
100
AcDbVertex
100
AcDb2dVertex
 10
93.00862401604121
 20
-136.3331241325832
 30
0.0
  0
SEQEND
  5
44
330
41
100
AcDbEntity
  8
_U+30EC_U+30A4_U+30E4_U+30FC 1
 62
     7
420
 16777215
370
    25
  0
POLYLINE
  5
45
330
1F
100
AcDbEntity
  8
_U+30EC_U+30A4_U+30E4_U+30FC 1
 62
     7
420
 16777215
370
    25
100
AcDb2dPolyline
 66
     1
 10
0.0
 20
0.0
 30
0.0
  0
VERTEX
  5
46
330
45
100
AcDbEntity
  8
_U+30EC_U+30A4_U+30E4_U+30FC 1
 62
     7
420
 16777215
370
    25
100
AcDbVertex
100
AcDb2dVertex
 10
87.00847389134002
 20
-126.3330383017502
 30
0.0
  0
VERTEX
  5
47
330
45
100
AcDbEntity
  8
_U+30EC_U+30A4_U+30E4_U+30FC 1
 62
     7
420
 16777215
370
    25
100
AcDbVertex
100
AcDb2dVertex
 10
93.00862401604121
 20
-126.3330383017502
 30
0.0
  0
SEQEND
  5
48
330
45
100
AcDbEntity
  8
_U+30EC_U+30A4_U+30E4_U+30FC 1
 62
     7
420
 16777215
370
    25
  0
POLYLINE
  5
49
330
1F
100
AcDbEntity
  8
_U+30EC_U+30A4_U+30E4_U+30FC 1
 62
     7
420
 16777215
370
    25
100
AcDb2dPolyline
 66
     1
 10
0.0
 20
0.0
 30
0.0
  0
VERTEX
  5
4A
330
49
100
AcDbEntity
  8
_U+30EC_U+30A4_U+30E4_U+30FC 1
 62
     7
420
 16777215
370
    25
100
AcDbVertex
100
AcDb2dVertex
 10
87.00847389134002
 20
-137.3332138545553
 30
0.0
  0
VERTEX
  5
4B
330
49
100
AcDbEntity
  8
_U+30EC_U+30A4_U+30E4_U+30FC 1
 62
     7
420
 16777215
370
    25
100
AcDbVertex
100
AcDb2dVertex
 10
100.0083699485739
 20
-137.3332138545553
 30
0.0
  0
SEQEND
  5
4C
330
49
100
AcDbEntity
  8
_U+30EC_U+30A4_U+30E4_U+30FC 1
 62
     7
420
 16777215
370
    25
  0
POLYLINE
  5
4D
330
1F
100
AcDbEntity
  8
_U+30EC_U+30A4_U+30E4_U+30FC 1
 62
     7
420
 16777215
370
    25
100
AcDb2dPolyline
 66
     1
 10
0.0
 20
0.0
 30
0.0
  0
VERTEX
  5
4E
330
4D
100
AcDbEntity
  8
_U+30EC_U+30A4_U+30E4_U+30FC 1
 62
     7
420
 16777215
370
    25
100
AcDbVertex
100
AcDb2dVertex
 10
86.00799613908654
 20
-119.333292192389
 30
0.0
  0
VERTEX
  5
4F
330
4D
100
AcDbEntity
  8
_U+30EC_U+30A4_U+30E4_U+30FC 1
 62
     7
420
 16777215
370
    25
100
AcDbVertex
100
AcDb2dVertex
 10
86.00799613908654
 20
-136.3331241325832
 30
0.0
  0
SEQEND
  5
50
330
4D
100
AcDbEntity
  8
_U+30EC_U+30A4_U+30E4_U+30FC 1
 62
     7
420
 16777215
370
    25
  0
POLYLINE
  5
51
330
1F
100
AcDbEntity
  8
_U+30EC_U+30A4_U+30E4_U+30FC 1
 62
     7
420
 16777215
370
    25
100
AcDb2dPolyline
 66
     1
 10
0.0
 20
0.0
 30
0.0
  0
VERTEX
  5
52
330
51
100
AcDbEntity
  8
_U+30EC_U+30A4_U+30E4_U+30FC 1
 62
     7
420
 16777215
370
    25
100
AcDbVertex
100
AcDb2dVertex
 10
87.00847389134002
 20
-120.3330644143612
 30
0.0
  0
VERTEX
  5
53
330
51
100
AcDbEntity
  8
_U+30EC_U+30A4_U+30E4_U+30FC 1
 62
     7
420
 16777215
370
    25
100
AcDbVertex
100
AcDb2dVertex
 10
87.00847389134002
 20
-125.3329133020002
 30
0.0
  0
SEQEND
  5
54
330
51
100
AcDbEntity
  8
_U+30EC_U+30A4_U+30E4_U+30FC 1
 62
     7
420
 16777215
370
    25
  0
POLYLINE
  5
55
330
1F
100
AcDbEntity
  8
_U+30EC_U+30A4_U+30E4_U+30FC 1
 62
     7
420
 16777215
370
    25
100
AcDb2dPolyline
 66
     1
 10
0.0
 20
0.0
 30
0.0
  0
VERTEX
  5
56
330
55
100
AcDbEntity
  8
_U+30EC_U+30A4_U+30E4_U+30FC 1
 62
     7
420
 16777215
370
    25
100
AcDbVertex
100
AcDb2dVertex
 10
87.00847389134002
 20
-125.3329133020002
 30
0.0
  0
VERTEX
  5
57
330
55
100
AcDbEntity
  8
_U+30EC_U+30A4_U+30E4_U+30FC 1
 62
     7
420
 16777215
370
    25
100
AcDbVertex
100
AcDb2dVertex
 10
92.00814626378774
 20
-125.3329133020002
 30
0.0
  0
SEQEND
  5
58
330
55
100
AcDbEntity
  8
_U+30EC_U+30A4_U+30E4_U+30FC 1
 62
     7
420
 16777215
370
    25
  0
POLYLINE
  5
59
330
1F
100
AcDbEntity
  8
_U+30EC_U+30A4_U+30E4_U+30FC 1
 62
     7
420
 16777215
370
    25
100
AcDb2dPolyline
 66
     1
 10
0.0
 20
0.0
 30
0.0
  0
VERTEX
  5
5A
330
59
100
AcDbEntity
  8
_U+30EC_U+30A4_U+30E4_U+30FC 1
 62
     7
420
 16777215
370
    25
100
AcDbVertex
100
AcDb2dVertex
 10
87.00847389134002
 20
-126.3330383017502
 30
0.0
  0
VERTEX
  5
5B
330
59
100
AcDbEntity
  8
_U+30EC_U+30A4_U+30E4_U+30FC 1
 62
     7
420
 16777215
370
    25
100
AcDbVertex
100
AcDb2dVertex
 10
87.00847389134002
 20
-136.3331241325832
 30
0.0
  0
SEQEND
  5
5C
330
59
100
AcDbEntity
  8
_U+30EC_U+30A4_U+30E4_U+30FC 1
 62
     7
420
 16777215
370
    25
  0
POLYLINE
  5
5D
330
1F
100
AcDbEntity
  8
_U+30EC_U+30A4_U+30E4_U+30FC 1
 62
     7
420
 16777215
370
    25
100
AcDb2dPolyline
 66
     1
 10
0.0
 20
0.0
 30
0.0
  0
VERTEX
  5
5E
330
5D
100
AcDbEntity
  8
_U+30EC_U+30A4_U+30E4_U+30FC 1
 62
     7
420
 16777215
370
    25
100
AcDbVertex
100
AcDb2dVertex
 10
93.3669051180118
 20
-136.5332549658667
 30
0.0
  0
VERTEX
  5
5F
330
5D
100
AcDbEntity
  8
_U+30EC_U+30A4_U+30E4_U+30FC 1
 62
     7
420
 16777215
370
    25
100
AcDbVertex
100
AcDb2dVertex
 10
99.20841108009368
 20
-136.5332549658667
 30
0.0
  0
SEQEND
  5
60
330
5D
100
AcDbEntity
  8
_U+30EC_U+30A4_U+30E4_U+30FC 1
 62
     7
420
 16777215
370
    25
  0
POLYLINE
  5
61
330
1F
100
AcDbEntity
  8
_U+30EC_U+30A4_U+30E4_U+30FC 1
 62
     7
420
 16777215
370
    25
100
AcDb2dPolyline
 66
     1
 10
0.0
 20
0.0
 30
0.0
  0
VERTEX
  5
62
330
61
100
AcDbEntity
  8
_U+30EC_U+30A4_U+30E4_U+30FC 1
 62
     7
420
 16777215
370
    25
100
AcDbVertex
100
AcDb2dVertex
 10
93.00862401604121
 20
-136.3331241325832
 30
0.0
  0
VERTEX
  5
63
330
61
100
AcDbEntity
  8
_U+30EC_U+30A4_U+30E4_U+30FC 1
 62
     7
420
 16777215
370
    25
100
AcDbVertex
100
AcDb2dVertex
 10
93.35452497666152
 20
-136.5332549658667
 30
0.0
  0
SEQEND
  5
64
330
61
100
AcDbEntity
  8
_U+30EC_U+30A4_U+30E4_U+30FC 1
 62
     7
420
 16777215
370
    25
  0
SPLINE
  5
65
330
1F
100
AcDbEntity
  8
_U+30EC_U+30A4_U+30E4_U+30FC 1
 62
     7
420
 16777215
370
    25
100
AcDbSpline
210
0.0
220
0.0
230
1.0
 70
     8
 71
     3
 72
     8
 73
     4
 74
     0
 42
0.0000000001
 43
0.0000000001
 12
1.0
 22
0.0
 32
0.0
 13
1.0
 23
0.0
 33
0.0
 40
0.0
 40
0.0
 40
0.0
 40
0.0
 40
1.0
 40
1.0
 40
1.0
 40
1.0
 10
86.00799613908654
 20
-136.3331241325832
 30
0.0
 10
86.00799613908654
 20
-136.885715243556
 30
0.0
 10
86.45588279432667
 20
-137.3332138545553
 30
0.0
 10
87.00847389134002
 20
-137.3332138545553
 30
0.0
  0
SPLINE
  5
66
330
1F
100
AcDbEntity
  8
_U+30EC_U+30A4_U+30E4_U+30FC 1
 62
     7
420
 16777215
370
     9
100
AcDbSpline
210
0.0
220
0.0
230
1.0
 70
    11
 71
     3
 72
    17
 73
    13
 74
     0
 42
0.0000000001
 43
0.0000000001
 12
1.0
 22
0.0
 32
0.0
 13
1.0
 23
0.0
 33
0.0
 40
0.0
 40
0.0
 40
0.0
 40
0.0
 40
1.0
 40
1.0
 40
1.0
 40
2.0
 40
2.0
 40
2.0
 40
3.0
 40
3.0
 40
3.0
 40
4.0
 40
4.0
 40
4.0
 40
4.0
 10
86.10790280320438
 20
-123.5672958024416
 30
0.0
 10
86.10790280320438
 20
-123.5121919135664
 30
0.0
 10
86.0631353043465
 20
-123.4673891358
 30
0.0
 10
86.00799613908654
 20
-123.4673891358
 30
0.0
 10
85.95289442295613
 20
-123.4673891358
 30
0.0
 10
85.90809164518973
 20
-123.5121919135664
 30
0.0
 10
85.90809164518973
 20
-123.5672958024416
 30
0.0
 10
85.90809164518973
 20
-123.6224349690944
 30
0.0
 10
85.95289442295613
 20
-123.6672024690833
 30
0.0
 10
86.00799613908654
 20
-123.6672024690833
 30
0.0
 10
86.0631353043465
 20
-123.6672024690833
 30
0.0
 10
86.10790280320438
 20
-123.6224349690944
 30
0.0
 10
86.10790280320438
 20
-123.5672958024416
 30
0.0
  0
SPLINE
  5
67
330
1F
100
AcDbEntity
  8
_U+30EC_U+30A4_U+30E4_U+30FC 1
 62
     7
420
 16777215
370
     9
100
AcDbSpline
210
0.0
220
0.0
230
1.0
 70
    11
 71
     3
 72
    17
 73
    13
 74
     0
 42
0.0000000001
 43
0.0000000001
 12
1.0
 22
0.0
 32
0.0
 13
1.0
 23
0.0
 33
0.0
 40
0.0
 40
0.0
 40
0.0
 40
0.0
 40
1.0
 40
1.0
 40
1.0
 40
2.0
 40
2.0
 40
2.0
 40
3.0
 40
3.0
 40
3.0
 40
4.0
 40
4.0
 40
4.0
 40
4.0
 10
87.10838055545784
 20
-123.5672958024416
 30
0.0
 10
87.10838055545784
 20
-123.5121919135664
 30
0.0
 10
87.06357777882309
 20
-123.4673891358
 30
0.0
 10
87.00847389134002
 20
-123.4673891358
 30
0.0
 10
86.95266664492836
 20
-123.4673891358
 30
0.0
 10
86.90786386716195
 20
-123.5121919135664
 30
0.0
 10
86.90786386716195
 20
-123.5672958024416
 30
0.0
 10
86.90786386716195
 20
-123.6224349690944
 30
0.0
 10
86.95266664492836
 20
-123.6672024690833
 30
0.0
 10
87.00847389134002
 20
-123.6672024690833
 30
0.0
 10
87.06357777882309
 20
-123.6672024690833
 30
0.0
 10
87.10838055545784
 20
-123.6224349690944
 30
0.0
 10
87.10838055545784
 20
-123.5672958024416
 30
0.0
  0
SPLINE
  5
68
330
1F
100
AcDbEntity
  8
_U+30EC_U+30A4_U+30E4_U+30FC 1
 62
     7
420
 16777215
370
     9
100
AcDbSpline
210
0.0
220
0.0
230
1.0
 70
    11
 71
     3
 72
    17
 73
    13
 74
     0
 42
0.0000000001
 43
0.0000000001
 12
1.0
 22
0.0
 32
0.0
 13
1.0
 23
0.0
 33
0.0
 40
0.0
 40
0.0
 40
0.0
 40
0.0
 40
1.0
 40
1.0
 40
1.0
 40
2.0
 40
2.0
 40
2.0
 40
3.0
 40
3.0
 40
3.0
 40
4.0
 40
4.0
 40
4.0
 40
4.0
 10
100.0083699485739
 20
-141.333325798
 30
0.0
 10
100.0083699485739
 20
-141.2781866313469
 30
0.0
 10
99.96356717193916
 20
-141.2334191313583
 30
0.0
 10
99.90846328445609
 20
-141.2334191313583
 30
0.0
 10
99.85332411919613
 20
-141.2334191313583
 30
0.0
 10
99.80855662033825
 20
-141.2781866313469
 30
0.0
 10
99.80855662033825
 20
-141.333325798
 30
0.0
 10
99.80855662033825
 20
-141.3884296868749
 30
0.0
 10
99.85332411919613
 20
-141.4332324646416
 30
0.0
 10
99.90846328445609
 20
-141.4332324646416
 30
0.0
 10
99.96356717193916
 20
-141.4332324646416
 30
0.0
 10
100.0083699485739
 20
-141.3884296868749
 30
0.0
 10
100.0083699485739
 20
-141.333325798
 30
0.0
  0
SPLINE
  5
69
330
1F
100
AcDbEntity
  8
_U+30EC_U+30A4_U+30E4_U+30FC 1
 62
     7
420
 16777215
370
     9
100
AcDbSpline
210
0.0
220
0.0
230
1.0
 70
    11
 71
     3
 72
    17
 73
    13
 74
     0
 42
0.0000000001
 43
0.0000000001
 12
1.0
 22
0.0
 32
0.0
 13
1.0
 23
0.0
 33
0.0
 40
0.0
 40
0.0
 40
0.0
 40
0.0
 40
1.0
 40
1.0
 40
1.0
 40
2.0
 40
2.0
 40
2.0
 40
3.0
 40
3.0
 40
3.0
 40
4.0
 40
4.0
 40
4.0
 40
4.0
 10
86.10790280320438
 20
-141.333325798
 30
0.0
 10
86.10790280320438
 20
-141.2781866313469
 30
0.0
 10
86.0631353043465
 20
-141.2334191313583
 30
0.0
 10
86.00799613908654
 20
-141.2334191313583
 30
0.0
 10
85.95289442295613
 20
-141.2334191313583
 30
0.0
 10
85.90809164518973
 20
-141.2781866313469
 30
0.0
 10
85.90809164518973
 20
-141.333325798
 30
0.0
 10
85.90809164518973
 20
-141.3884296868749
 30
0.0
 10
85.95289442295613
 20
-141.4332324646416
 30
0.0
 10
86.00799613908654
 20
-141.4332324646416
 30
0.0
 10
86.0631353043465
 20
-141.4332324646416
 30
0.0
 10
86.10790280320438
 20
-141.3884296868749
 30
0.0
 10
86.10790280320438
 20
-141.333325798
 30
0.0
  0
SPLINE
  5
6A
330
1F
100
AcDbEntity
  8
_U+30EC_U+30A4_U+30E4_U+30FC 1
 62
     7
420
 16777215
370
    25
100
AcDbSpline
210
0.0
220
0.0
230
1.0
 70
     8
 71
     3
 72
     8
 73
     4
 74
     0
 42
0.0000000001
 43
0.0000000001
 12
1.0
 22
0.0
 32
0.0
 13
1.0
 23
0.0
 33
0.0
 40
0.0
 40
0.0
 40
0.0
 40
0.0
 40
1.0
 40
1.0
 40
1.0
 40
1.0
 10
87.00847389134002
 20
-120.3330644143612
 30
0.0
 10
87.00847389134002
 20
-119.7811435811657
 30
0.0
 10
86.56062251387677
 20
-119.333292192389
 30
0.0
 10
86.00799613908654
 20
-119.333292192389
 30
0.0
  0
SPLINE
  5
6B
330
1F
100
AcDbEntity
  8
_U+30EC_U+30A4_U+30E4_U+30FC 1
 62
     7
420
 16777215
370
    25
100
AcDbSpline
210
0.0
220
0.0
230
1.0
 70
     8
 71
     3
 72
     8
 73
     4
 74
     0
 42
0.0000000001
 43
0.0000000001
 12
1.0
 22
0.0
 32
0.0
 13
1.0
 23
0.0
 33
0.0
 40
0.0
 40
0.0
 40
0.0
 40
0.0
 40
1.0
 40
1.0
 40
1.0
 40
1.0
 10
93.00862401604121
 20
-126.3330383017502
 30
0.0
 10
93.00862401604121
 20
-125.7807646907769
 30
0.0
 10
92.56077497685996
 20
-125.3329133020002
 30
0.0
 10
92.00814626378774
 20
-125.3329133020002
 30
0.0
  0
SPLINE
  5
6C
330
1F
100
AcDbEntity
  8
_U+30EC_U+30A4_U+30E4_U+30FC 1
 62
     7
420
 16777215
370
    25
100
AcDbSpline
210
0.0
220
0.0
230
1.0
 70
     8
 71
     3
 72
     8
 73
     4
 74
     0
 42
0.0000000001
 43
0.0000000001
 12
1.0
 22
0.0
 32
0.0
 13
1.0
 23
0.0
 33
0.0
 40
0.0
 40
0.0
 40
0.0
 40
0.0
 40
1.0
 40
1.0
 40
1.0
 40
1.0
 10
100.0083699485739
 20
-137.3332138545553
 30
0.0
 10
100.0083699485739
 20
-136.891571354666
 30
0.0
 10
99.65008884660332
 20
-136.5332549658667
 30
0.0
 10
99.20841108009368
 20
-136.5332549658667
 30
0.0
  0
SPLINE
  5
6D
330
1F
100
AcDbEntity
  8
_U+30EC_U+30A4_U+30E4_U+30FC 1
 62
     7
420
 16777215
370
     9
100
AcDbSpline
210
0.0
220
0.0
230
1.0
 70
    11
 71
     3
 72
    17
 73
    13
 74
     0
 42
0.0000000001
 43
0.0000000001
 12
1.0
 22
0.0
 32
0.0
 13
1.0
 23
0.0
 33
0.0
 40
0.0
 40
0.0
 40
0.0
 40
0.0
 40
1.0
 40
1.0
 40
1.0
 40
2.0
 40
2.0
 40
2.0
 40
3.0
 40
3.0
 40
3.0
 40
4.0
 40
4.0
 40
4.0
 40
4.0
 10
82.10817901635694
 20
-119.333292192389
 30
0.0
 10
82.10817901635694
 20
-119.2781530257362
 30
0.0
 10
82.06337623972219
 20
-119.2333855257473
 30
0.0
 10
82.00827235223912
 20
-119.2333855257473
 30
0.0
 10
81.95313318697916
 20
-119.2333855257473
 30
0.0
 10
81.90836568812128
 20
-119.2781530257362
 30
0.0
 10
81.90836568812128
 20
-119.333292192389
 30
0.0
 10
81.90836568812128
 20
-119.3883960812642
 30
0.0
 10
81.95313318697916
 20
-119.4331988590306
 30
0.0
 10
82.00827235223912
 20
-119.4331988590306
 30
0.0
 10
82.06337623972219
 20
-119.4331988590306
 30
0.0
 10
82.10817901635694
 20
-119.3883960812642
 30
0.0
 10
82.10817901635694
 20
-119.333292192389
 30
0.0
  0
SPLINE
  5
6E
330
1F
100
AcDbEntity
  8
_U+30EC_U+30A4_U+30E4_U+30FC 1
 62
     7
420
 16777215
370
     9
100
AcDbSpline
210
0.0
220
0.0
230
1.0
 70
    11
 71
     3
 72
    17
 73
    13
 74
     0
 42
0.0000000001
 43
0.0000000001
 12
1.0
 22
0.0
 32
0.0
 13
1.0
 23
0.0
 33
0.0
 40
0.0
 40
0.0
 40
0.0
 40
0.0
 40
1.0
 40
1.0
 40
1.0
 40
2.0
 40
2.0
 40
2.0
 40
3.0
 40
3.0
 40
3.0
 40
4.0
 40
4.0
 40
4.0
 40
4.0
 10
82.10817901635694
 20
-137.3332138545553
 30
0.0
 10
82.10817901635694
 20
-137.2781099656804
 30
0.0
 10
82.06337623972219
 20
-137.2333071879137
 30
0.0
 10
82.00827235223912
 20
-137.2333071879137
 30
0.0
 10
81.95313318697916
 20
-137.2333071879137
 30
0.0
 10
81.90836568812128
 20
-137.2781099656804
 30
0.0
 10
81.90836568812128
 20
-137.3332138545553
 30
0.0
 10
81.90836568812128
 20
-137.3886705212086
 30
0.0
 10
81.95313318697916
 20
-137.4334732989747
 30
0.0
 10
82.00827235223912
 20
-137.4334732989747
 30
0.0
 10
82.06337623972219
 20
-137.4334732989747
 30
0.0
 10
82.10817901635694
 20
-137.3886705212086
 30
0.0
 10
82.10817901635694
 20
-137.3332138545553
 30
0.0
  0
SPLINE
  5
6F
330
1F
100
AcDbEntity
  8
_U+30EC_U+30A4_U+30E4_U+30FC 1
 62
     7
420
 16777215
370
     9
100
AcDbSpline
210
0.0
220
0.0
230
1.0
 70
    11
 71
     3
 72
    17
 73
    13
 74
     0
 42
0.0000000001
 43
0.0000000001
 12
1.0
 22
0.0
 32
0.0
 13
1.0
 23
0.0
 33
0.0
 40
0.0
 40
0.0
 40
0.0
 40
0.0
 40
1.0
 40
1.0
 40
1.0
 40
2.0
 40
2.0
 40
2.0
 40
3.0
 40
3.0
 40
3.0
 40
4.0
 40
4.0
 40
4.0
 40
4.0
 10
102.5205357178166
 20
-136.3331241325832
 30
0.0
 10
102.5205357178166
 20
-136.2779849659308
 30
0.0
 10
102.4757329411818
 20
-136.2332174659416
 30
0.0
 10
102.4206290536987
 20
-136.2332174659416
 30
0.0
 10
102.3654898884388
 20
-136.2332174659416
 30
0.0
 10
102.3207249744197
 20
-136.2779849659308
 30
0.0
 10
102.3207249744197
 20
-136.3331241325832
 30
0.0
 10
102.3207249744197
 20
-136.3885807992365
 30
0.0
 10
102.3654898884388
 20
-136.4333482992251
 30
0.0
 10
102.4206290536987
 20
-136.4333482992251
 30
0.0
 10
102.4757329411818
 20
-136.4333482992251
 30
0.0
 10
102.5205357178166
 20
-136.3885807992365
 30
0.0
 10
102.5205357178166
 20
-136.3331241325832
 30
0.0
  0
SPLINE
  5
70
330
1F
100
AcDbEntity
  8
_U+30EC_U+30A4_U+30E4_U+30FC 1
 62
     7
420
 16777215
370
     9
100
AcDbSpline
210
0.0
220
0.0
230
1.0
 70
    11
 71
     3
 72
    17
 73
    13
 74
     0
 42
0.0000000001
 43
0.0000000001
 12
1.0
 22
0.0
 32
0.0
 13
1.0
 23
0.0
 33
0.0
 40
0.0
 40
0.0
 40
0.0
 40
0.0
 40
1.0
 40
1.0
 40
1.0
 40
2.0
 40
2.0
 40
2.0
 40
3.0
 40
3.0
 40
3.0
 40
4.0
 40
4.0
 40
4.0
 40
4.0
 10
102.5205357178166
 20
-126.4329449683918
 30
0.0
 10
102.5205357178166
 20
-126.3778058017391
 30
0.0
 10
102.4757329411818
 20
-126.3330383017502
 30
0.0
 10
102.4206290536987
 20
-126.3330383017502
 30
0.0
 10
102.3654898884388
 20
-126.3330383017502
 30
0.0
 10
102.3207249744197
 20
-126.3778058017391
 30
0.0
 10
102.3207249744197
 20
-126.4329449683918
 30
0.0
 10
102.3207249744197
 20
-126.4887544128223
 30
0.0
 10
102.3654898884388
 20
-126.5335219128111
 30
0.0
 10
102.4206290536987
 20
-126.5335219128111
 30
0.0
 10
102.4757329411818
 20
-126.5335219128111
 30
0.0
 10
102.5205357178166
 20
-126.4887544128223
 30
0.0
 10
102.5205357178166
 20
-126.4329449683918
 30
0.0
  0
SPLINE
  5
71
330
1F
100
AcDbEntity
  8
_U+30EC_U+30A4_U+30E4_U+30FC 1
 62
     7
420
 16777215
370
     9
100
AcDbSpline
210
0.0
220
0.0
230
1.0
 70
    11
 71
     3
 72
    17
 73
    13
 74
     0
 42
0.0000000001
 43
0.0000000001
 12
1.0
 22
0.0
 32
0.0
 13
1.0
 23
0.0
 33
0.0
 40
0.0
 40
0.0
 40
0.0
 40
0.0
 40
1.0
 40
1.0
 40
1.0
 40
2.0
 40
2.0
 40
2.0
 40
3.0
 40
3.0
 40
3.0
 40
4.0
 40
4.0
 40
4.0
 40
4.0
 10
102.5205357178166
 20
-119.4331988590306
 30
0.0
 10
102.5205357178166
 20
-119.3780596923778
 30
0.0
 10
102.4757329411818
 20
-119.333292192389
 30
0.0
 10
102.4206290536987
 20
-119.333292192389
 30
0.0
 10
102.3654898884388
 20
-119.333292192389
 30
0.0
 10
102.3207249744197
 20
-119.3780596923778
 30
0.0
 10
102.3207249744197
 20
-119.4331988590306
 30
0.0
 10
102.3207249744197
 20
-119.4883027479058
 30
0.0
 10
102.3654898884388
 20
-119.5331055256722
 30
0.0
 10
102.4206290536987
 20
-119.5331055256722
 30
0.0
 10
102.4757329411818
 20
-119.5331055256722
 30
0.0
 10
102.5205357178166
 20
-119.4883027479058
 30
0.0
 10
102.5205357178166
 20
-119.4331988590306
 30
0.0
  0
POLYLINE
  5
72
330
1F
100
AcDbEntity
  8
_U+30EC_U+30A4_U+30E4_U+30FC 1
 62
     7
420
 16777215
370
     9
100
AcDb2dPolyline
 66
     1
 10
0.0
 20
0.0
 30
0.0
  0
VERTEX
  5
73
330
72
100
AcDbEntity
  8
_U+30EC_U+30A4_U+30E4_U+30FC 1
 62
     7
420
 16777215
370
     9
100
AcDbVertex
100
AcDb2dVertex
 10
87.00847389134002
 20
-123.5672958024416
 30
0.0
  0
VERTEX
  5
74
330
72
100
AcDbEntity
  8
_U+30EC_U+30A4_U+30E4_U+30FC 1
 62
     7
420
 16777215
370
     9
100
AcDbVertex
100
AcDb2dVertex
 10
90.77878629515133
 20
-123.5672958024416
 30
0.0
  0
SEQEND
  5
75
330
72
100
AcDbEntity
  8
_U+30EC_U+30A4_U+30E4_U+30FC 1
 62
     7
420
 16777215
370
     9
  0
POLYLINE
  5
76
330
1F
100
AcDbEntity
  8
_U+30EC_U+30A4_U+30E4_U+30FC 1
 62
     7
420
 16777215
370
     9
100
AcDb2dPolyline
 66
     1
 10
0.0
 20
0.0
 30
0.0
  0
VERTEX
  5
77
330
76
100
AcDbEntity
  8
_U+30EC_U+30A4_U+30E4_U+30FC 1
 62
     7
420
 16777215
370
     9
100
AcDbVertex
100
AcDb2dVertex
 10
85.00825922014752
 20
-123.5672958024416
 30
0.0
  0
VERTEX
  5
78
330
76
100
AcDbEntity
  8
_U+30EC_U+30A4_U+30E4_U+30FC 1
 62
     7
420
 16777215
370
     9
100
AcDbVertex
100
AcDb2dVertex
 10
87.00847389134002
 20
-123.5672958024416
 30
0.0
  0
SEQEND
  5
79
330
76
100
AcDbEntity
  8
_U+30EC_U+30A4_U+30E4_U+30FC 1
 62
     7
420
 16777215
370
     9
  0
INSERT
  5
7B
330
1F
100
AcDbEntity
  8
_U+30EC_U+30A4_U+30E4_U+30FC 1
100
AcDbBlockReference
  2
block 2
 10
0.0
 20
0.0
 30
0.0
  0
POLYLINE
  5
80
330
1F
100
AcDbEntity
  8
_U+30EC_U+30A4_U+30E4_U+30FC 1
 62
     7
420
 16777215
370
     9
100
AcDb2dPolyline
 66
     1
 10
0.0
 20
0.0
 30
0.0
  0
VERTEX
  5
81
330
80
100
AcDbEntity
  8
_U+30EC_U+30A4_U+30E4_U+30FC 1
 62
     7
420
 16777215
370
     9
100
AcDbVertex
100
AcDb2dVertex
 10
86.00799613908654
 20
-141.333325798
 30
0.0
  0
VERTEX
  5
82
330
80
100
AcDbEntity
  8
_U+30EC_U+30A4_U+30E4_U+30FC 1
 62
     7
420
 16777215
370
     9
100
AcDbVertex
100
AcDb2dVertex
 10
100.0083699485739
 20
-141.333325798
 30
0.0
  0
SEQEND
  5
83
330
80
100
AcDbEntity
  8
_U+30EC_U+30A4_U+30E4_U+30FC 1
 62
     7
420
 16777215
370
     9
  0
POLYLINE
  5
84
330
1F
100
AcDbEntity
  8
_U+30EC_U+30A4_U+30E4_U+30FC 1
 62
     7
420
 16777215
370
     9
100
AcDb2dPolyline
 66
     1
 10
0.0
 20
0.0
 30
0.0
  0
VERTEX
  5
85
330
84
100
AcDbEntity
  8
_U+30EC_U+30A4_U+30E4_U+30FC 1
 62
     7
420
 16777215
370
     9
100
AcDbVertex
100
AcDb2dVertex
 10
86.00799613908654
 20
-138.8731946875041
 30
0.0
  0
VERTEX
  5
86
330
84
100
AcDbEntity
  8
_U+30EC_U+30A4_U+30E4_U+30FC 1
 62
     7
420
 16777215
370
     9
100
AcDbVertex
100
AcDb2dVertex
 10
86.00799613908654
 20
-142.3334155199721
 30
0.0
  0
SEQEND
  5
87
330
84
100
AcDbEntity
  8
_U+30EC_U+30A4_U+30E4_U+30FC 1
 62
     7
420
 16777215
370
     9
  0
POLYLINE
  5
88
330
1F
100
AcDbEntity
  8
_U+30EC_U+30A4_U+30E4_U+30FC 1
 62
     7
420
 16777215
370
     9
100
AcDb2dPolyline
 66
     1
 10
0.0
 20
0.0
 30
0.0
  0
VERTEX
  5
89
330
88
100
AcDbEntity
  8
_U+30EC_U+30A4_U+30E4_U+30FC 1
 62
     7
420
 16777215
370
     9
100
AcDbVertex
100
AcDb2dVertex
 10
99.90846328445609
 20
-138.8731946875041
 30
0.0
  0
VERTEX
  5
8A
330
88
100
AcDbEntity
  8
_U+30EC_U+30A4_U+30E4_U+30FC 1
 62
     7
420
 16777215
370
     9
100
AcDbVertex
100
AcDb2dVertex
 10
99.90846328445609
 20
-142.3334155199721
 30
0.0
  0
SEQEND
  5
8B
330
88
100
AcDbEntity
  8
_U+30EC_U+30A4_U+30E4_U+30FC 1
 62
     7
420
 16777215
370
     9
  0
INSERT
  5
8D
330
1F
100
AcDbEntity
  8
_U+30EC_U+30A4_U+30E4_U+30FC 1
100
AcDbBlockReference
  2
block 3
 10
0.0
 20
0.0
 30
0.0
  0
SPLINE
  5
A7
330
1F
100
AcDbEntity
  8
_U+30EC_U+30A4_U+30E4_U+30FC 1
 62
     7
420
 16777215
370
     9
100
AcDbSpline
210
0.0
220
0.0
230
1.0
 70
    11
 71
     3
 72
    17
 73
    13
 74
     0
 42
0.0000000001
 43
0.0000000001
 12
1.0
 22
0.0
 32
0.0
 13
1.0
 23
0.0
 33
0.0
 40
0.0
 40
0.0
 40
0.0
 40
0.0
 40
1.0
 40
1.0
 40
1.0
 40
2.0
 40
2.0
 40
2.0
 40
3.0
 40
3.0
 40
3.0
 40
4.0
 40
4.0
 40
4.0
 40
4.0
 10
93.20843734427687
 20
-117.2269619151378
 30
0.0
 10
93.20843734427687
 20
-117.1718227484847
 30
0.0
 10
93.16363456764212
 20
-117.1270552484962
 30
0.0
 10
93.10853068015903
 20
-117.1270552484962
 30
0.0
 10
93.05339151489909
 20
-117.1270552484962
 30
0.0
 10
93.00862401604121
 20
-117.1718227484847
 30
0.0
 10
93.00862401604121
 20
-117.2269619151378
 30
0.0
 10
93.00862401604121
 20
-117.2820658040127
 30
0.0
 10
93.05339151489909
 20
-117.3268685817795
 30
0.0
 10
93.10853068015903
 20
-117.3268685817795
 30
0.0
 10
93.16363456764212
 20
-117.3268685817795
 30
0.0
 10
93.20843734427687
 20
-117.2820658040127
 30
0.0
 10
93.20843734427687
 20
-117.2269619151378
 30
0.0
  0
SPLINE
  5
A8
330
1F
100
AcDbEntity
  8
_U+30EC_U+30A4_U+30E4_U+30FC 1
 62
     7
420
 16777215
370
     9
100
AcDbSpline
210
0.0
220
0.0
230
1.0
 70
    11
 71
     3
 72
    17
 73
    13
 74
     0
 42
0.0000000001
 43
0.0000000001
 12
1.0
 22
0.0
 32
0.0
 13
1.0
 23
0.0
 33
0.0
 40
0.0
 40
0.0
 40
0.0
 40
0.0
 40
1.0
 40
1.0
 40
1.0
 40
2.0
 40
2.0
 40
2.0
 40
3.0
 40
3.0
 40
3.0
 40
4.0
 40
4.0
 40
4.0
 40
4.0
 10
87.20828721957568
 20
-117.2269619151378
 30
0.0
 10
87.20828721957568
 20
-117.1718227484847
 30
0.0
 10
87.16348444294091
 20
-117.1270552484962
 30
0.0
 10
87.10838055545784
 20
-117.1270552484962
 30
0.0
 10
87.0532413901979
 20
-117.1270552484962
 30
0.0
 10
87.00847389134002
 20
-117.1718227484847
 30
0.0
 10
87.00847389134002
 20
-117.2269619151378
 30
0.0
 10
87.00847389134002
 20
-117.2820658040127
 30
0.0
 10
87.0532413901979
 20
-117.3268685817795
 30
0.0
 10
87.10838055545784
 20
-117.3268685817795
 30
0.0
 10
87.16348444294091
 20
-117.3268685817795
 30
0.0
 10
87.20828721957568
 20
-117.2820658040127
 30
0.0
 10
87.20828721957568
 20
-117.2269619151378
 30
0.0
  0
POLYLINE
  5
A9
330
1F
100
AcDbEntity
  8
_U+30EC_U+30A4_U+30E4_U+30FC 1
 62
     7
420
 16777215
370
     9
100
AcDb2dPolyline
 66
     1
 10
0.0
 20
0.0
 30
0.0
  0
VERTEX
  5
AA
330
A9
100
AcDbEntity
  8
_U+30EC_U+30A4_U+30E4_U+30FC 1
 62
     7
420
 16777215
370
     9
100
AcDbVertex
100
AcDb2dVertex
 10
87.10838055545784
 20
-117.2269619151378
 30
0.0
  0
VERTEX
  5
AB
330
A9
100
AcDbEntity
  8
_U+30EC_U+30A4_U+30E4_U+30FC 1
 62
     7
420
 16777215
370
     9
100
AcDbVertex
100
AcDb2dVertex
 10
93.10853068015903
 20
-117.2269619151378
 30
0.0
  0
SEQEND
  5
AC
330
A9
100
AcDbEntity
  8
_U+30EC_U+30A4_U+30E4_U+30FC 1
 62
     7
420
 16777215
370
     9
  0
POLYLINE
  5
AD
330
1F
100
AcDbEntity
  8
_U+30EC_U+30A4_U+30E4_U+30FC 1
 62
     7
420
 16777215
370
     9
100
AcDb2dPolyline
 66
     1
 10
0.0
 20
0.0
 30
0.0
  0
VERTEX
  5
AE
330
AD
100
AcDbEntity
  8
_U+30EC_U+30A4_U+30E4_U+30FC 1
 62
     7
420
 16777215
370
     9
100
AcDbVertex
100
AcDb2dVertex
 10
87.10838055545784
 20
-115.7669205266138
 30
0.0
  0
VERTEX
  5
AF
330
AD
100
AcDbEntity
  8
_U+30EC_U+30A4_U+30E4_U+30FC 1
 62
     7
420
 16777215
370
     9
100
AcDbVertex
100
AcDb2dVertex
 10
87.10838055545784
 20
-118.22705163711
 30
0.0
  0
SEQEND
  5
B0
330
AD
100
AcDbEntity
  8
_U+30EC_U+30A4_U+30E4_U+30FC 1
 62
     7
420
 16777215
370
     9
  0
POLYLINE
  5
B1
330
1F
100
AcDbEntity
  8
_U+30EC_U+30A4_U+30E4_U+30FC 1
 62
     7
420
 16777215
370
     9
100
AcDb2dPolyline
 66
     1
 10
0.0
 20
0.0
 30
0.0
  0
VERTEX
  5
B2
330
B1
100
AcDbEntity
  8
_U+30EC_U+30A4_U+30E4_U+30FC 1
 62
     7
420
 16777215
370
     9
100
AcDbVertex
100
AcDb2dVertex
 10
93.10853068015903
 20
-115.7669205266138
 30
0.0
  0
VERTEX
  5
B3
330
B1
100
AcDbEntity
  8
_U+30EC_U+30A4_U+30E4_U+30FC 1
 62
     7
420
 16777215
370
     9
100
AcDbVertex
100
AcDb2dVertex
 10
93.10853068015903
 20
-118.22705163711
 30
0.0
  0
SEQEND
  5
B4
330
B1
100
AcDbEntity
  8
_U+30EC_U+30A4_U+30E4_U+30FC 1
 62
     7
420
 16777215
370
     9
  0
INSERT
  5
B6
330
1F
100
AcDbEntity
  8
_U+30EC_U+30A4_U+30E4_U+30FC 1
100
AcDbBlockReference
  2
block 4
 10
0.0
 20
0.0
 30
0.0
  0
POLYLINE
  5
BC
330
1F
100
AcDbEntity
  8
_U+30EC_U+30A4_U+30E4_U+30FC 1
 62
     7
420
 16777215
370
     9
100
AcDb2dPolyline
 66
     1
 10
0.0
 20
0.0
 30
0.0
  0
VERTEX
  5
BD
330
BC
100
AcDbEntity
  8
_U+30EC_U+30A4_U+30E4_U+30FC 1
 62
     7
420
 16777215
370
     9
100
AcDbVertex
100
AcDb2dVertex
 10
82.00827235223912
 20
-137.3332138545553
 30
0.0
  0
VERTEX
  5
BE
330
BC
100
AcDbEntity
  8
_U+30EC_U+30A4_U+30E4_U+30FC 1
 62
     7
420
 16777215
370
     9
100
AcDbVertex
100
AcDb2dVertex
 10
82.00827235223912
 20
-119.333292192389
 30
0.0
  0
SEQEND
  5
BF
330
BC
100
AcDbEntity
  8
_U+30EC_U+30A4_U+30E4_U+30FC 1
 62
     7
420
 16777215
370
     9
  0
POLYLINE
  5
C0
330
1F
100
AcDbEntity
  8
_U+30EC_U+30A4_U+30E4_U+30FC 1
 62
     7
420
 16777215
370
     9
100
AcDb2dPolyline
 66
     1
 10
0.0
 20
0.0
 30
0.0
  0
VERTEX
  5
C1
330
C0
100
AcDbEntity
  8
_U+30EC_U+30A4_U+30E4_U+30FC 1
 62
     7
420
 16777215
370
     9
100
AcDbVertex
100
AcDb2dVertex
 10
84.46805275666074
 20
-137.3332138545553
 30
0.0
  0
VERTEX
  5
C2
330
C0
100
AcDbEntity
  8
_U+30EC_U+30A4_U+30E4_U+30FC 1
 62
     7
420
 16777215
370
     9
100
AcDbVertex
100
AcDb2dVertex
 10
81.00850015552321
 20
-137.3332138545553
 30
0.0
  0
SEQEND
  5
C3
330
C0
100
AcDbEntity
  8
_U+30EC_U+30A4_U+30E4_U+30FC 1
 62
     7
420
 16777215
370
     9
  0
POLYLINE
  5
C4
330
1F
100
AcDbEntity
  8
_U+30EC_U+30A4_U+30E4_U+30FC 1
 62
     7
420
 16777215
370
     9
100
AcDb2dPolyline
 66
     1
 10
0.0
 20
0.0
 30
0.0
  0
VERTEX
  5
C5
330
C4
100
AcDbEntity
  8
_U+30EC_U+30A4_U+30E4_U+30FC 1
 62
     7
420
 16777215
370
     9
100
AcDbVertex
100
AcDb2dVertex
 10
83.46828053468852
 20
-119.333292192389
 30
0.0
  0
VERTEX
  5
C6
330
C4
100
AcDbEntity
  8
_U+30EC_U+30A4_U+30E4_U+30FC 1
 62
     7
420
 16777215
370
     9
100
AcDbVertex
100
AcDb2dVertex
 10
81.00850015552321
 20
-119.333292192389
 30
0.0
  0
SEQEND
  5
C7
330
C4
100
AcDbEntity
  8
_U+30EC_U+30A4_U+30E4_U+30FC 1
 62
     7
420
 16777215
370
     9
  0
INSERT
  5
C9
330
1F
100
AcDbEntity
  8
_U+30EC_U+30A4_U+30E4_U+30FC 1
100
AcDbBlockReference
  2
block 5
 10
0.0
 20
0.0
 30
0.0
  0
POLYLINE
  5
D2
330
1F
100
AcDbEntity
  8
_U+30EC_U+30A4_U+30E4_U+30FC 1
 62
     7
420
 16777215
370
     9
100
AcDb2dPolyline
 66
     1
 10
0.0
 20
0.0
 30
0.0
  0
VERTEX
  5
D3
330
D2
100
AcDbEntity
  8
_U+30EC_U+30A4_U+30E4_U+30FC 1
 62
     7
420
 16777215
370
     9
100
AcDbVertex
100
AcDb2dVertex
 10
102.4206290536987
 20
-136.3331241325832
 30
0.0
  0
VERTEX
  5
D4
330
D2
100
AcDbEntity
  8
_U+30EC_U+30A4_U+30E4_U+30FC 1
 62
     7
420
 16777215
370
     9
100
AcDbVertex
100
AcDb2dVertex
 10
102.4206290536987
 20
-126.3330383017502
 30
0.0
  0
SEQEND
  5
D5
330
D2
100
AcDbEntity
  8
_U+30EC_U+30A4_U+30E4_U+30FC 1
 62
     7
420
 16777215
370
     9
  0
POLYLINE
  5
D6
330
1F
100
AcDbEntity
  8
_U+30EC_U+30A4_U+30E4_U+30FC 1
 62
     7
420
 16777215
370
     9
100
AcDb2dPolyline
 66
     1
 10
0.0
 20
0.0
 30
0.0
  0
VERTEX
  5
D7
330
D6
100
AcDbEntity
  8
_U+30EC_U+30A4_U+30E4_U+30FC 1
 62
     7
420
 16777215
370
     9
100
AcDbVertex
100
AcDb2dVertex
 10
95.9603861629577
 20
-136.3331241325832
 30
0.0
  0
VERTEX
  5
D8
330
D6
100
AcDbEntity
  8
_U+30EC_U+30A4_U+30E4_U+30FC 1
 62
     7
420
 16777215
370
     9
100
AcDbVertex
100
AcDb2dVertex
 10
103.4204012504146
 20
-136.3331241325832
 30
0.0
  0
SEQEND
  5
D9
330
D6
100
AcDbEntity
  8
_U+30EC_U+30A4_U+30E4_U+30FC 1
 62
     7
420
 16777215
370
     9
  0
POLYLINE
  5
DA
330
1F
100
AcDbEntity
  8
_U+30EC_U+30A4_U+30E4_U+30FC 1
 62
     7
420
 16777215
370
     9
100
AcDb2dPolyline
 66
     1
 10
0.0
 20
0.0
 30
0.0
  0
VERTEX
  5
DB
330
DA
100
AcDbEntity
  8
_U+30EC_U+30A4_U+30E4_U+30FC 1
 62
     7
420
 16777215
370
     9
100
AcDbVertex
100
AcDb2dVertex
 10
95.9603861629577
 20
-126.4329449683918
 30
0.0
  0
VERTEX
  5
DC
330
DA
100
AcDbEntity
  8
_U+30EC_U+30A4_U+30E4_U+30FC 1
 62
     7
420
 16777215
370
     9
100
AcDbVertex
100
AcDb2dVertex
 10
103.4204012504146
 20
-126.4329449683918
 30
0.0
  0
SEQEND
  5
DD
330
DA
100
AcDbEntity
  8
_U+30EC_U+30A4_U+30E4_U+30FC 1
 62
     7
420
 16777215
370
     9
  0
SPLINE
  5
DE
330
1F
100
AcDbEntity
  8
_U+30EC_U+30A4_U+30E4_U+30FC 1
 62
     7
420
 16777215
370
     9
100
AcDbSpline
210
0.0
220
0.0
230
1.0
 70
    11
 71
     3
 72
    17
 73
    13
 74
     0
 42
0.0000000001
 43
0.0000000001
 12
1.0
 22
0.0
 32
0.0
 13
1.0
 23
0.0
 33
0.0
 40
0.0
 40
0.0
 40
0.0
 40
0.0
 40
1.0
 40
1.0
 40
1.0
 40
2.0
 40
2.0
 40
2.0
 40
3.0
 40
3.0
 40
3.0
 40
4.0
 40
4.0
 40
4.0
 40
4.0
 10
102.5205357178166
 20
-125.3325605242224
 30
0.0
 10
102.5205357178166
 20
-125.2774566353472
 30
0.0
 10
102.4757329411818
 20
-125.2326538575808
 30
0.0
 10
102.4206290536987
 20
-125.2326538575808
 30
0.0
 10
102.3654898884388
 20
-125.2326538575808
 30
0.0
 10
102.3207249744197
 20
-125.2774566353472
 30
0.0
 10
102.3207249744197
 20
-125.3325605242224
 30
0.0
 10
102.3207249744197
 20
-125.3883699686529
 30
0.0
 10
102.3654898884388
 20
-125.4331727464196
 30
0.0
 10
102.4206290536987
 20
-125.4331727464196
 30
0.0
 10
102.4757329411818
 20
-125.4331727464196
 30
0.0
 10
102.5205357178166
 20
-125.3883699686529
 30
0.0
 10
102.5205357178166
 20
-125.3325605242224
 30
0.0
  0
POLYLINE
  5
DF
330
1F
100
AcDbEntity
  8
_U+30EC_U+30A4_U+30E4_U+30FC 1
 62
     7
420
 16777215
370
     9
100
AcDb2dPolyline
 66
     1
 10
0.0
 20
0.0
 30
0.0
  0
VERTEX
  5
E0
330
DF
100
AcDbEntity
  8
_U+30EC_U+30A4_U+30E4_U+30FC 1
 62
     7
420
 16777215
370
     9
100
AcDbVertex
100
AcDb2dVertex
 10
95.9603861629577
 20
-125.3325605242224
 30
0.0
  0
VERTEX
  5
E1
330
DF
100
AcDbEntity
  8
_U+30EC_U+30A4_U+30E4_U+30FC 1
 62
     7
420
 16777215
370
     9
100
AcDbVertex
100
AcDb2dVertex
 10
103.4204012504146
 20
-125.3325605242224
 30
0.0
  0
SEQEND
  5
E2
330
DF
100
AcDbEntity
  8
_U+30EC_U+30A4_U+30E4_U+30FC 1
 62
     7
420
 16777215
370
     9
  0
INSERT
  5
E4
330
1F
100
AcDbEntity
  8
_U+30EC_U+30A4_U+30E4_U+30FC 1
100
AcDbBlockReference
  2
block 6
 10
0.0
 20
0.0
 30
0.0
  0
POLYLINE
  5
EC
330
1F
100
AcDbEntity
  8
_U+30EC_U+30A4_U+30E4_U+30FC 1
 62
     7
420
 16777215
370
     9
100
AcDb2dPolyline
 66
     1
 10
0.0
 20
0.0
 30
0.0
  0
VERTEX
  5
ED
330
EC
100
AcDbEntity
  8
_U+30EC_U+30A4_U+30E4_U+30FC 1
 62
     7
420
 16777215
370
     9
100
AcDbVertex
100
AcDb2dVertex
 10
102.4206290536987
 20
-126.4329449683918
 30
0.0
  0
VERTEX
  5
EE
330
EC
100
AcDbEntity
  8
_U+30EC_U+30A4_U+30E4_U+30FC 1
 62
     7
420
 16777215
370
     9
100
AcDbVertex
100
AcDb2dVertex
 10
102.4206290536987
 20
-119.4331988590306
 30
0.0
  0
SEQEND
  5
EF
330
EC
100
AcDbEntity
  8
_U+30EC_U+30A4_U+30E4_U+30FC 1
 62
     7
420
 16777215
370
     9
  0
POLYLINE
  5
F0
330
1F
100
AcDbEntity
  8
_U+30EC_U+30A4_U+30E4_U+30FC 1
 62
     7
420
 16777215
370
     9
100
AcDb2dPolyline
 66
     1
 10
0.0
 20
0.0
 30
0.0
  0
VERTEX
  5
F1
330
F0
100
AcDbEntity
  8
_U+30EC_U+30A4_U+30E4_U+30FC 1
 62
     7
420
 16777215
370
     9
100
AcDbVertex
100
AcDb2dVertex
 10
95.9603861629577
 20
-119.4331988590306
 30
0.0
  0
VERTEX
  5
F2
330
F0
100
AcDbEntity
  8
_U+30EC_U+30A4_U+30E4_U+30FC 1
 62
     7
420
 16777215
370
     9
100
AcDbVertex
100
AcDb2dVertex
 10
103.4204012504146
 20
-119.4331988590306
 30
0.0
  0
SEQEND
  5
F3
330
F0
100
AcDbEntity
  8
_U+30EC_U+30A4_U+30E4_U+30FC 1
 62
     7
420
 16777215
370
     9
  0
INSERT
  5
F5
330
1F
100
AcDbEntity
  8
_U+30EC_U+30A4_U+30E4_U+30FC 1
100
AcDbBlockReference
  2
block 7
 10
0.0
 20
0.0
 30
0.0
  0
ENDSEC
  0
SECTION
  2
OBJECTS
  0
DICTIONARY
  5
C
330
0
100
AcDbDictionary
281
     1
  3
ACAD_GROUP
350
D
  3
ACAD_LAYOUT
350
1A
  3
ACAD_MATERIAL
350
3B
  3
ACAD_MLEADERSTYLE
350
FC
  3
ACAD_MLINESTYLE
350
17
  3
ACAD_PLOTSETTINGS
350
19
  3
ACAD_PLOTSTYLENAME
350
E
  3
ACAD_TABLESTYLE
350
FB
  3
ACAD_VISUALSTYLE
350
2A
  0
SUN
  5
3F
330
29
100
AcDbSun
 90
        1
290
     0
 63
     7
421
 16777215
 40
1.0
291
     1
 91
  2455826
 92
 54000000
292
     0
 70
     2
 71
   256
280
     1
  0
DICTIONARY
  5
D
102
{ACAD_REACTORS
330
C
102
}
330
C
100
AcDbDictionary
281
     1
  0
DICTIONARY
  5
1A
102
{ACAD_REACTORS
330
C
102
}
330
C
100
AcDbDictionary
281
     1
  3
Layout1
350
1E
  3
Layout2
350
26
  3
Model
350
22
  0
DICTIONARY
  5
3B
102
{ACAD_REACTORS
330
C
102
}
330
C
100
AcDbDictionary
281
     1
  3
ByBlock
350
3D
  3
ByLayer
350
3C
  3
Global
350
3E
  0
DICTIONARY
  5
FC
102
{ACAD_REACTORS
330
C
102
}
330
C
100
AcDbDictionary
281
     1
  0
DICTIONARY
  5
17
102
{ACAD_REACTORS
330
C
102
}
330
C
100
AcDbDictionary
281
     1
  3
Standard
350
18
  0
DICTIONARY
  5
19
102
{ACAD_REACTORS
330
C
102
}
330
C
100
AcDbDictionary
281
     1
  0
ACDBDICTIONARYWDFLT
  5
E
102
{ACAD_REACTORS
330
C
102
}
330
C
100
AcDbDictionary
281
     1
  3
Normal
350
F
100
AcDbDictionaryWithDefault
340
F
  0
DICTIONARY
  5
FB
102
{ACAD_REACTORS
330
C
102
}
330
C
100
AcDbDictionary
281
     1
  0
DICTIONARY
  5
2A
102
{ACAD_REACTORS
330
C
102
}
330
C
100
AcDbDictionary
281
     1
  3
2dWireframe
350
2F
  3
3D Hidden
350
31
  3
3dWireframe
350
30
  3
Basic
350
32
  3
Brighten
350
36
  3
ColorChange
350
3A
  3
Conceptual
350
34
  3
Dim
350
35
  3
Facepattern
350
39
  3
Flat
350
2B
  3
FlatWithEdges
350
2C
  3
Gouraud
350
2D
  3
GouraudWithEdges
350
2E
  3
Linepattern
350
38
  3
Realistic
350
33
  3
Thicken
350
37
  0
LAYOUT
  5
1E
102
{ACAD_REACTORS
330
1A
102
}
330
1A
100
AcDbPlotSettings
  1

  2
none_device
  4

  6

 40
0.0
 41
0.0
 42
0.0
 43
0.0
 44
0.0
 45
0.0
 46
0.0
 47
0.0
 48
0.0
 49
0.0
140
0.0
141
0.0
142
1.0
143
1.0
 70
   688
 72
     0
 73
     0
 74
     5
  7

 75
    16
 76
     0
 77
     2
 78
   300
147
1.0
148
0.0
149
0.0
100
AcDbLayout
  1
Layout1
 70
     1
 71
     1
 10
0.0
 20
0.0
 11
12.0
 21
9.0
 12
0.0
 22
0.0
 32
0.0
 14
1.000000000000000E+20
 24
1.000000000000000E+20
 34
1.000000000000000E+20
 15
-1.000000000000000E+20
 25
-1.000000000000000E+20
 35
-1.000000000000000E+20
146
0.0
 13
0.0
 23
0.0
 33
0.0
 16
1.0
 26
0.0
 36
0.0
 17
0.0
 27
1.0
 37
0.0
 76
     0
330
1B
  0
LAYOUT
  5
26
102
{ACAD_REACTORS
330
1A
102
}
330
1A
100
AcDbPlotSettings
  1

  2
none_device
  4

  6

 40
0.0
 41
0.0
 42
0.0
 43
0.0
 44
0.0
 45
0.0
 46
0.0
 47
0.0
 48
0.0
 49
0.0
140
0.0
141
0.0
142
1.0
143
1.0
 70
   688
 72
     0
 73
     0
 74
     5
  7

 75
    16
 76
     0
 77
     2
 78
   300
147
1.0
148
0.0
149
0.0
100
AcDbLayout
  1
Layout2
 70
     1
 71
     2
 10
0.0
 20
0.0
 11
0.0
 21
0.0
 12
0.0
 22
0.0
 32
0.0
 14
0.0
 24
0.0
 34
0.0
 15
0.0
 25
0.0
 35
0.0
146
0.0
 13
0.0
 23
0.0
 33
0.0
 16
1.0
 26
0.0
 36
0.0
 17
0.0
 27
1.0
 37
0.0
 76
     0
330
23
  0
LAYOUT
  5
22
102
{ACAD_REACTORS
330
1A
102
}
330
1A
100
AcDbPlotSettings
  1

  2
none_device
  4

  6

 40
0.0
 41
0.0
 42
0.0
 43
0.0
 44
0.0
 45
0.0
 46
0.0
 47
0.0
 48
0.0
 49
0.0
140
0.0
141
0.0
142
1.0
143
1.0
 70
  1712
 72
     0
 73
     0
 74
     0
  7

 75
     0
 76
     0
 77
     2
 78
   300
147
1.0
148
0.0
149
0.0
100
AcDbLayout
  1
Model
 70
     1
 71
     0
 10
0.0
 20
0.0
 11
12.0
 21
9.0
 12
0.0
 22
0.0
 32
0.0
 14
1.000000000000000E+20
 24
1.000000000000000E+20
 34
1.000000000000000E+20
 15
-1.000000000000000E+20
 25
-1.000000000000000E+20
 35
-1.000000000000000E+20
146
0.0
 13
0.0
 23
0.0
 33
0.0
 16
1.0
 26
0.0
 36
0.0
 17
0.0
 27
1.0
 37
0.0
 76
     0
330
1F
331
29
  0
MATERIAL
  5
3D
102
{ACAD_REACTORS
330
3B
102
}
330
3B
100
AcDbMaterial
  1
ByBlock
 72
     1
 94
      127
  0
MATERIAL
  5
3C
102
{ACAD_REACTORS
330
3B
102
}
330
3B
100
AcDbMaterial
  1
ByLayer
 72
     1
 94
      127
  0
MATERIAL
  5
3E
102
{ACAD_REACTORS
330
3B
102
}
330
3B
100
AcDbMaterial
  1
Global
 72
     1
 94
      127
  0
MLINESTYLE
  5
18
102
{ACAD_REACTORS
330
17
102
}
330
17
100
AcDbMlineStyle
  2
Standard
 70
     0
  3

 62
   256
 51
90.0
 52
90.0
 71
     2
 49
0.5
 62
   256
  6
BYLAYER
 49
-0.5
 62
   256
  6
BYLAYER
  0
ACDBPLACEHOLDER
  5
F
102
{ACAD_REACTORS
330
E
102
}
330
E
  0
VISUALSTYLE
  5
2F
102
{ACAD_REACTORS
330
2A
102
}
330
2A
100
AcDbVisualStyle
  2
2dWireframe
 70
     4
177
     2
291
     0
 71
     0
176
     1
 72
     2
176
     1
 73
     0
176
     1
 90
        0
176
     1
 40
-0.6
176
     1
 41
-30.0
176
     1
 62
     5
 63
     7
421
 16777215
176
     1
 74
     1
176
     1
 91
        4
176
     1
 64
     7
176
     1
 65
   257
176
     1
 75
     1
176
     1
175
     1
176
     1
 42
1.0
176
     1
 92
        0
176
     1
 66
   257
176
     1
 43
1.0
176
     1
 76
     1
176
     1
 77
     6
176
     1
 78
     2
176
     1
 67
     7
176
     1
 79
     5
176
     1
170
     0
176
     1
171
     0
176
     1
290
     0
176
     1
 93
        1
176
     1
 44
0.0
176
     1
173
     0
176
     1
  0
VISUALSTYLE
  5
31
102
{ACAD_REACTORS
330
2A
102
}
330
2A
100
AcDbVisualStyle
  2
3D Hidden
 70
     6
177
     2
291
     0
 71
     1
176
     1
 72
     2
176
     1
 73
     2
176
     1
 90
        0
176
     1
 40
-0.6
176
     1
 41
-30.0
176
     1
 62
     5
 63
     7
421
 16777215
176
     1
 74
     2
176
     1
 91
        2
176
     1
 64
     7
176
     1
 65
   257
176
     1
 75
     2
176
     1
175
     1
176
     1
 42
40.0
176
     1
 92
        0
176
     1
 66
   257
176
     1
 43
1.0
176
     1
 76
     1
176
     1
 77
     6
176
     1
 78
     2
176
     1
 67
     7
176
     1
 79
     3
176
     1
170
     0
176
     1
171
     0
176
     1
290
     0
176
     1
 93
        1
176
     1
 44
0.0
176
     1
173
     0
176
     1
  0
VISUALSTYLE
  5
30
102
{ACAD_REACTORS
330
2A
102
}
330
2A
100
AcDbVisualStyle
  2
3dWireframe
 70
     5
177
     2
291
     0
 71
     0
176
     1
 72
     2
176
     1
 73
     0
176
     1
 90
        0
176
     1
 40
-0.6
176
     1
 41
-30.0
176
     1
 62
     5
 63
     7
421
 16777215
176
     1
 74
     1
176
     1
 91
        4
176
     1
 64
     7
176
     1
 65
   257
176
     1
 75
     1
176
     1
175
     1
176
     1
 42
1.0
176
     1
 92
        0
176
     1
 66
   257
176
     1
 43
1.0
176
     1
 76
     1
176
     1
 77
     6
176
     1
 78
     2
176
     1
 67
     7
176
     1
 79
     5
176
     1
170
     0
176
     1
171
     0
176
     1
290
     0
176
     1
 93
        1
176
     1
 44
0.0
176
     1
173
     0
176
     1
  0
VISUALSTYLE
  5
32
102
{ACAD_REACTORS
330
2A
102
}
330
2A
100
AcDbVisualStyle
  2
Basic
 70
     7
177
     2
291
     1
 71
     1
176
     1
 72
     0
176
     1
 73
     1
176
     1
 90
        0
176
     1
 40
-0.6
176
     1
 41
-30.0
176
     1
 62
     5
 63
     7
421
 16777215
176
     1
 74
     0
176
     1
 91
        4
176
     1
 64
     7
176
     1
 65
   257
176
     1
 75
     1
176
     1
175
     1
176
     1
 42
1.0
176
     1
 92
        8
176
     1
 66
     7
176
     1
 43
1.0
176
     1
 76
     1
176
     1
 77
     6
176
     1
 78
     2
176
     1
 67
     7
176
     1
 79
     5
176
     1
170
     0
176
     1
171
     0
176
     1
290
     0
176
     1
 93
        1
176
     1
 44
0.0
176
     1
173
     0
176
     1
  0
VISUALSTYLE
  5
36
102
{ACAD_REACTORS
330
2A
102
}
330
2A
100
AcDbVisualStyle
  2
Brighten
 70
    12
177
     2
291
     1
 71
     2
176
     1
 72
     2
176
     1
 73
     0
176
     1
 90
        0
176
     1
 40
-0.6
176
     1
 41
-30.0
176
     1
 62
     5
 63
     7
421
 16777215
176
     1
 74
     1
176
     1
 91
        4
176
     1
 64
     7
176
     1
 65
   257
176
     1
 75
     1
176
     1
175
     1
176
     1
 42
1.0
176
     1
 92
        8
176
     1
 66
     7
176
     1
 43
1.0
176
     1
 76
     1
176
     1
 77
     6
176
     1
 78
     2
176
     1
 67
     7
176
     1
 79
     5
176
     1
170
     0
176
     1
171
     0
176
     1
290
     0
176
     1
 93
        1
176
     1
 44
50.0
176
     1
173
     0
176
     1
  0
VISUALSTYLE
  5
3A
102
{ACAD_REACTORS
330
2A
102
}
330
2A
100
AcDbVisualStyle
  2
ColorChange
 70
    16
177
     2
291
     1
 71
     2
176
     1
 72
     2
176
     1
 73
     3
176
     1
 90
        0
176
     1
 40
-0.6
176
     1
 41
-30.0
176
     1
 62
     5
 63
     8
421
  8421504
176
     1
 74
     1
176
     1
 91
        4
176
     1
 64
     7
176
     1
 65
   257
176
     1
 75
     1
176
     1
175
     1
176
     1
 42
1.0
176
     1
 92
        8
176
     1
 66
     8
424
  8421504
176
     1
 43
1.0
176
     1
 76
     1
176
     1
 77
     6
176
     1
 78
     2
176
     1
 67
     7
176
     1
 79
     5
176
     1
170
     0
176
     1
171
     0
176
     1
290
     0
176
     1
 93
        1
176
     1
 44
0.0
176
     1
173
     0
176
     1
  0
VISUALSTYLE
  5
34
102
{ACAD_REACTORS
330
2A
102
}
330
2A
100
AcDbVisualStyle
  2
Conceptual
 70
     9
177
     2
291
     0
 71
     3
176
     1
 72
     2
176
     1
 73
     0
176
     1
 90
        0
176
     1
 40
-0.6
176
     1
 41
-30.0
176
     1
 62
     5
 63
     7
421
 16777215
176
     1
 74
     2
176
     1
 91
        2
176
     1
 64
     7
176
     1
 65
   257
176
     1
 75
     1
176
     1
175
     1
176
     1
 42
40.0
176
     1
 92
        8
176
     1
 66
     7
176
     1
 43
1.0
176
     1
 76
     1
176
     1
 77
     6
176
     1
 78
     2
176
     1
 67
     7
176
     1
 79
     3
176
     1
170
     0
176
     1
171
     0
176
     1
290
     0
176
     1
 93
        1
176
     1
 44
0.0
176
     1
173
     0
176
     1
  0
VISUALSTYLE
  5
35
102
{ACAD_REACTORS
330
2A
102
}
330
2A
100
AcDbVisualStyle
  2
Dim
 70
    11
177
     2
291
     1
 71
     2
176
     1
 72
     2
176
     1
 73
     0
176
     1
 90
        0
176
     1
 40
-0.6
176
     1
 41
-30.0
176
     1
 62
     5
 63
     7
421
 16777215
176
     1
 74
     1
176
     1
 91
        4
176
     1
 64
     7
176
     1
 65
   257
176
     1
 75
     1
176
     1
175
     1
176
     1
 42
1.0
176
     1
 92
        8
176
     1
 66
     7
176
     1
 43
1.0
176
     1
 76
     1
176
     1
 77
     6
176
     1
 78
     2
176
     1
 67
     7
176
     1
 79
     5
176
     1
170
     0
176
     1
171
     0
176
     1
290
     0
176
     1
 93
        1
176
     1
 44
-50.0
176
     1
173
     0
176
     1
  0
VISUALSTYLE
  5
39
102
{ACAD_REACTORS
330
2A
102
}
330
2A
100
AcDbVisualStyle
  2
Facepattern
 70
    15
177
     2
291
     1
 71
     2
176
     1
 72
     2
176
     1
 73
     0
176
     1
 90
        0
176
     1
 40
-0.6
176
     1
 41
-30.0
176
     1
 62
     5
 63
     7
421
 16777215
176
     1
 74
     1
176
     1
 91
        4
176
     1
 64
     7
176
     1
 65
   257
176
     1
 75
     1
176
     1
175
     1
176
     1
 42
1.0
176
     1
 92
        8
176
     1
 66
     7
176
     1
 43
1.0
176
     1
 76
     1
176
     1
 77
     6
176
     1
 78
     2
176
     1
 67
     7
176
     1
 79
     5
176
     1
170
     0
176
     1
171
     0
176
     1
290
     0
176
     1
 93
        1
176
     1
 44
0.0
176
     1
173
     0
176
     1
  0
VISUALSTYLE
  5
2B
102
{ACAD_REACTORS
330
2A
102
}
330
2A
100
AcDbVisualStyle
  2
Flat
 70
     0
177
     2
291
     1
 71
     2
176
     1
 72
     1
176
     1
 73
     1
176
     1
 90
        2
176
     1
 40
-0.6
176
     1
 41
30.0
176
     1
 62
     5
 63
     7
421
 16777215
176
     1
 74
     0
176
     1
 91
        4
176
     1
 64
     7
176
     1
 65
   257
176
     1
 75
     1
176
     1
175
     1
176
     1
 42
1.0
176
     1
 92
        8
176
     1
 66
     7
176
     1
 43
1.0
176
     1
 76
     1
176
     1
 77
     6
176
     1
 78
     2
176
     1
 67
     7
176
     1
 79
     5
176
     1
170
     0
176
     1
171
     0
176
     1
290
     0
176
     1
 93
       13
176
     1
 44
0.0
176
     1
173
     0
176
     1
  0
VISUALSTYLE
  5
2C
102
{ACAD_REACTORS
330
2A
102
}
330
2A
100
AcDbVisualStyle
  2
FlatWithEdges
 70
     1
177
     2
291
     1
 71
     2
176
     1
 72
     1
176
     1
 73
     1
176
     1
 90
        2
176
     1
 40
-0.6
176
     1
 41
30.0
176
     1
 62
     5
 63
     7
421
 16777215
176
     1
 74
     1
176
     1
 91
        4
176
     1
 64
     7
176
     1
 65
   257
176
     1
 75
     1
176
     1
175
     1
176
     1
 42
1.0
176
     1
 92
        0
176
     1
 66
   257
176
     1
 43
1.0
176
     1
 76
     1
176
     1
 77
     6
176
     1
 78
     2
176
     1
 67
     7
176
     1
 79
     5
176
     1
170
     0
176
     1
171
     0
176
     1
290
     0
176
     1
 93
       13
176
     1
 44
0.0
176
     1
173
     0
176
     1
  0
VISUALSTYLE
  5
2D
102
{ACAD_REACTORS
330
2A
102
}
330
2A
100
AcDbVisualStyle
  2
Gouraud
 70
     2
177
     2
291
     1
 71
     2
176
     1
 72
     2
176
     1
 73
     1
176
     1
 90
        2
176
     1
 40
-0.6
176
     1
 41
30.0
176
     1
 62
     5
 63
     7
421
 16777215
176
     1
 74
     0
176
     1
 91
        4
176
     1
 64
     7
176
     1
 65
   257
176
     1
 75
     1
176
     1
175
     1
176
     1
 42
1.0
176
     1
 92
        0
176
     1
 66
     7
176
     1
 43
1.0
176
     1
 76
     1
176
     1
 77
     6
176
     1
 78
     2
176
     1
 67
     7
176
     1
 79
     5
176
     1
170
     0
176
     1
171
     0
176
     1
290
     0
176
     1
 93
       13
176
     1
 44
0.0
176
     1
173
     0
176
     1
  0
VISUALSTYLE
  5
2E
102
{ACAD_REACTORS
330
2A
102
}
330
2A
100
AcDbVisualStyle
  2
GouraudWithEdges
 70
     3
177
     2
291
     1
 71
     2
176
     1
 72
     2
176
     1
 73
     1
176
     1
 90
        2
176
     1
 40
-0.6
176
     1
 41
30.0
176
     1
 62
     5
 63
     7
421
 16777215
176
     1
 74
     1
176
     1
 91
        4
176
     1
 64
     7
176
     1
 65
   257
176
     1
 75
     1
176
     1
175
     1
176
     1
 42
1.0
176
     1
 92
        0
176
     1
 66
   257
176
     1
 43
1.0
176
     1
 76
     1
176
     1
 77
     6
176
     1
 78
     2
176
     1
 67
     7
176
     1
 79
     5
176
     1
170
     0
176
     1
171
     0
176
     1
290
     0
176
     1
 93
       13
176
     1
 44
0.0
176
     1
173
     0
176
     1
  0
VISUALSTYLE
  5
38
102
{ACAD_REACTORS
330
2A
102
}
330
2A
100
AcDbVisualStyle
  2
Linepattern
 70
    14
177
     2
291
     1
 71
     2
176
     1
 72
     2
176
     1
 73
     0
176
     1
 90
        0
176
     1
 40
-0.6
176
     1
 41
-30.0
176
     1
 62
     5
 63
     7
421
 16777215
176
     1
 74
     1
176
     1
 91
        4
176
     1
 64
     7
176
     1
 65
   257
176
     1
 75
     7
176
     1
175
     7
176
     1
 42
1.0
176
     1
 92
        8
176
     1
 66
     7
176
     1
 43
1.0
176
     1
 76
     1
176
     1
 77
     6
176
     1
 78
     2
176
     1
 67
     7
176
     1
 79
     5
176
     1
170
     0
176
     1
171
     0
176
     1
290
     0
176
     1
 93
        1
176
     1
 44
0.0
176
     1
173
     0
176
     1
  0
VISUALSTYLE
  5
33
102
{ACAD_REACTORS
330
2A
102
}
330
2A
100
AcDbVisualStyle
  2
Realistic
 70
     8
177
     2
291
     0
 71
     2
176
     1
 72
     2
176
     1
 73
     0
176
     1
 90
        0
176
     1
 40
-0.6
176
     1
 41
-30.0
176
     1
 62
     5
 63
     7
421
 16777215
176
     1
 74
     1
176
     1
 91
        0
176
     1
 64
     7
176
     1
 65
   257
176
     1
 75
     1
176
     1
175
     1
176
     1
 42
1.0
176
     1
 92
        8
176
     1
 66
     8
424
  7895160
176
     1
 43
1.0
176
     1
 76
     1
176
     1
 77
     6
176
     1
 78
     2
176
     1
 67
     7
176
     1
 79
     5
176
     1
170
     0
176
     1
171
     0
176
     1
290
     0
176
     1
 93
       13
176
     1
 44
0.0
176
     1
173
     0
176
     1
  0
VISUALSTYLE
  5
37
102
{ACAD_REACTORS
330
2A
102
}
330
2A
100
AcDbVisualStyle
  2
Thicken
 70
    13
177
     2
291
     1
 71
     2
176
     1
 72
     2
176
     1
 73
     0
176
     1
 90
        0
176
     1
 40
-0.6
176
     1
 41
-30.0
176
     1
 62
     5
 63
     7
421
 16777215
176
     1
 74
     1
176
     1
 91
        4
176
     1
 64
     7
176
     1
 65
   257
176
     1
 75
     1
176
     1
175
     1
176
     1
 42
1.0
176
     1
 92
       12
176
     1
 66
     7
176
     1
 43
1.0
176
     1
 76
     1
176
     1
 77
     6
176
     1
 78
     2
176
     1
 67
     7
176
     1
 79
     5
176
     1
170
     0
176
     1
171
     0
176
     1
290
     0
176
     1
 93
        1
176
     1
 44
0.0
176
     1
173
     0
176
     1
  0
ENDSEC
  0
EOF
