  0
SECTION
  2
HEADER
  9
$ACADVER
  1
AC1024
  9
$ACADMAINTVER
 70
     6
  9
$DWGCODEPAGE
  3
UNDEFINED
  9
$INSBASE
 10
0.0
 20
0.0
 30
0.0
  9
$EXTMIN
 10
1.000000000000000E+20
 20
1.000000000000000E+20
 30
1.000000000000000E+20
  9
$EXTMAX
 10
-1.000000000000000E+20
 20
-1.000000000000000E+20
 30
-1.000000000000000E+20
  9
$LIMMIN
 10
0.0
 20
0.0
  9
$LIMMAX
 10
12.0
 20
9.0
  9
$ORTHOMODE
 70
     0
  9
$REGENMODE
 70
     1
  9
$FILLMODE
 70
     1
  9
$QTEXTMODE
 70
     0
  9
$MIRRTEXT
 70
     1
  9
$LTSCALE
 40
1.0
  9
$ATTMODE
 70
     1
  9
$TEXTSIZE
 40
0.2
  9
$TRACEWID
 40
0.05
  9
$TEXTSTYLE
  7
Standard
  9
$CLAYER
  8
0
  9
$CELTYPE
  6
ByLayer
  9
$CECOLOR
 62
   256
  9
$CELTSCALE
 40
1.0
  9
$DISPSILH
 70
     0
  9
$DIMSCALE
 40
1.0
  9
$DIMASZ
 40
0.18
  9
$DIMEXO
 40
0.0625
  9
$DIMDLI
 40
0.38
  9
$DIMRND
 40
0.0
  9
$DIMDLE
 40
0.0
  9
$DIMEXE
 40
0.18
  9
$DIMTP
 40
0.0
  9
$DIMTM
 40
0.0
  9
$DIMTXT
 40
0.18
  9
$DIMCEN
 40
0.09
  9
$DIMTSZ
 40
0.0
  9
$DIMTOL
 70
     0
  9
$DIMLIM
 70
     0
  9
$DIMTIH
 70
     1
  9
$DIMTOH
 70
     1
  9
$DIMSE1
 70
     0
  9
$DIMSE2
 70
     0
  9
$DIMTAD
 70
     0
  9
$DIMZIN
 70
     0
  9
$DIMBLK
  1

  9
$DIMASO
 70
     1
  9
$DIMSHO
 70
     1
  9
$DIMPOST
  1

  9
$DIMAPOST
  1

  9
$DIMALT
 70
     0
  9
$DIMALTD
 70
     2
  9
$DIMALTF
 40
25.4
  9
$DIMLFAC
 40
1.0
  9
$DIMTOFL
 70
     0
  9
$DIMTVP
 40
0.0
  9
$DIMTIX
 70
     0
  9
$DIMSOXD
 70
     0
  9
$DIMSAH
 70
     0
  9
$DIMBLK1
  1

  9
$DIMBLK2
  1

  9
$DIMSTYLE
  2
Standard
  9
$DIMCLRD
 70
     0
  9
$DIMCLRE
 70
     0
  9
$DIMCLRT
 70
     0
  9
$DIMTFAC
 40
1.0
  9
$DIMGAP
 40
0.09
  9
$DIMJUST
 70
     0
  9
$DIMSD1
 70
     0
  9
$DIMSD2
 70
     0
  9
$DIMTOLJ
 70
     1
  9
$DIMTZIN
 70
     0
  9
$DIMALTZ
 70
     0
  9
$DIMALTTZ
 70
     0
  9
$DIMUPT
 70
     0
  9
$DIMDEC
 70
     4
  9
$DIMTDEC
 70
     4
  9
$DIMALTU
 70
     2
  9
$DIMALTTD
 70
     2
  9
$DIMTXSTY
  7
Standard
  9
$DIMAUNIT
 70
     0
  9
$DIMADEC
 70
     0
  9
$DIMALTRND
 40
0.0
  9
$DIMAZIN
 70
     0
  9
$DIMDSEP
 70
    46
  9
$DIMATFIT
 70
     3
  9
$DIMFRAC
 70
     0
  9
$DIMLDRBLK
  1

  9
$DIMLUNIT
 70
     2
  9
$DIMLWD
 70
    -2
  9
$DIMLWE
 70
    -2
  9
$DIMTMOVE
 70
     0
  9
$DIMFXL
 40
1.0
  9
$DIMFXLON
 70
     0
  9
$DIMJOGANG
 40
0.7853981633974483
  9
$DIMTFILL
 70
     0
  9
$DIMTFILLCLR
 70
     0
  9
$DIMARCSYM
 70
     0
  9
$DIMLTYPE
  6

  9
$DIMLTEX1
  6

  9
$DIMLTEX2
  6

  9
$DIMTXTDIRECTION
 70
     0
  9
$LUNITS
 70
     2
  9
$LUPREC
 70
     4
  9
$SKETCHINC
 40
0.1
  9
$FILLETRAD
 40
0.5
  9
$AUNITS
 70
     0
  9
$AUPREC
 70
     0
  9
$MENU
  1
.
  9
$ELEVATION
 40
0.0
  9
$PELEVATION
 40
0.0
  9
$THICKNESS
 40
0.0
  9
$LIMCHECK
 70
     0
  9
$CHAMFERA
 40
0.5
  9
$CHAMFERB
 40
0.5
  9
$CHAMFERC
 40
1.0
  9
$CHAMFERD
 40
0.0
  9
$SKPOLY
 70
     0
  9
$TDCREATE
 40
2457917.595150451
  9
$TDUCREATE
 40
2457917.220150463
  9
$TDUPDATE
 40
2457917.595150451
  9
$TDUUPDATE
 40
2457917.220150463
  9
$TDINDWG
 40
0.0000000116
  9
$TDUSRTIMER
 40
0.0000000116
  9
$USRTIMER
 70
     1
  9
$ANGBASE
 50
0.0
  9
$ANGDIR
 70
     0
  9
$PDMODE
 70
     0
  9
$PDSIZE
 40
0.0
  9
$PLINEWID
 40
0.0
  9
$SPLFRAME
 70
     0
  9
$SPLINETYPE
 70
     6
  9
$SPLINESEGS
 70
     8
  9
$HANDSEED
  5
BD
  9
$SURFTAB1
 70
     6
  9
$SURFTAB2
 70
     6
  9
$SURFTYPE
 70
     6
  9
$SURFU
 70
     6
  9
$SURFV
 70
     6
  9
$UCSBASE
  2

  9
$UCSNAME
  2

  9
$UCSORG
 10
0.0
 20
0.0
 30
0.0
  9
$UCSXDIR
 10
1.0
 20
0.0
 30
0.0
  9
$UCSYDIR
 10
0.0
 20
1.0
 30
0.0
  9
$UCSORTHOREF
  2

  9
$UCSORTHOVIEW
 70
     0
  9
$UCSORGTOP
 10
0.0
 20
0.0
 30
0.0
  9
$UCSORGBOTTOM
 10
0.0
 20
0.0
 30
0.0
  9
$UCSORGLEFT
 10
0.0
 20
0.0
 30
0.0
  9
$UCSORGRIGHT
 10
0.0
 20
0.0
 30
0.0
  9
$UCSORGFRONT
 10
0.0
 20
0.0
 30
0.0
  9
$UCSORGBACK
 10
0.0
 20
0.0
 30
0.0
  9
$PUCSBASE
  2

  9
$PUCSNAME
  2

  9
$PUCSORG
 10
0.0
 20
0.0
 30
0.0
  9
$PUCSXDIR
 10
1.0
 20
0.0
 30
0.0
  9
$PUCSYDIR
 10
0.0
 20
1.0
 30
0.0
  9
$PUCSORTHOREF
  2

  9
$PUCSORTHOVIEW
 70
     0
  9
$PUCSORGTOP
 10
0.0
 20
0.0
 30
0.0
  9
$PUCSORGBOTTOM
 10
0.0
 20
0.0
 30
0.0
  9
$PUCSORGLEFT
 10
0.0
 20
0.0
 30
0.0
  9
$PUCSORGRIGHT
 10
0.0
 20
0.0
 30
0.0
  9
$PUCSORGFRONT
 10
0.0
 20
0.0
 30
0.0
  9
$PUCSORGBACK
 10
0.0
 20
0.0
 30
0.0
  9
$USERI1
 70
     0
  9
$USERI2
 70
     0
  9
$USERI3
 70
     0
  9
$USERI4
 70
     0
  9
$USERI5
 70
     0
  9
$USERR1
 40
0.0
  9
$USERR2
 40
0.0
  9
$USERR3
 40
0.0
  9
$USERR4
 40
0.0
  9
$USERR5
 40
0.0
  9
$WORLDVIEW
 70
     1
  9
$SHADEDGE
 70
     3
  9
$SHADEDIF
 70
    70
  9
$TILEMODE
 70
     1
  9
$MAXACTVP
 70
    64
  9
$PINSBASE
 10
0.0
 20
0.0
 30
0.0
  9
$PLIMCHECK
 70
     0
  9
$PEXTMIN
 10
1.000000000000000E+20
 20
1.000000000000000E+20
 30
1.000000000000000E+20
  9
$PEXTMAX
 10
-1.000000000000000E+20
 20
-1.000000000000000E+20
 30
-1.000000000000000E+20
  9
$PLIMMIN
 10
0.0
 20
0.0
  9
$PLIMMAX
 10
12.0
 20
9.0
  9
$UNITMODE
 70
     0
  9
$VISRETAIN
 70
     1
  9
$PLINEGEN
 70
     0
  9
$PSLTSCALE
 70
     1
  9
$TREEDEPTH
 70
  3020
  9
$CMLSTYLE
  2
Standard
  9
$CMLJUST
 70
     0
  9
$CMLSCALE
 40
1.0
  9
$PROXYGRAPHICS
 70
     1
  9
$MEASUREMENT
 70
     0
  9
$CELWEIGHT
370
    -1
  9
$ENDCAPS
280
     0
  9
$JOINSTYLE
280
     0
  9
$LWDISPLAY
290
     1
  9
$INSUNITS
 70
     1
  9
$HYPERLINKBASE
  1

  9
$STYLESHEET
  1

  9
$XEDIT
290
     1
  9
$CEPSNTYPE
380
     0
  9
$PSTYLEMODE
290
     1
  9
$FINGERPRINTGUID
  2
{C1E54105-25AB-D314-E4C2-6C2C5FEF9930}
  9
$VERSIONGUID
  2
{FAEB1C32-E019-11D5-929B-00C0DF256EC4}
  9
$EXTNAMES
290
     1
  9
$PSVPSCALE
 40
0.0
  9
$OLESTARTUP
290
     0
  9
$SORTENTS
280
   127
  9
$INDEXCTL
280
     0
  9
$HIDETEXT
280
     1
  9
$XCLIPFRAME
280
     2
  9
$HALOGAP
280
     0
  9
$OBSCOLOR
 70
   257
  9
$OBSLTYPE
280
     0
  9
$INTERSECTIONDISPLAY
280
     0
  9
$INTERSECTIONCOLOR
 70
   257
  9
$DIMASSOC
280
     2
  9
$PROJECTNAME
  1

  9
$CAMERADISPLAY
290
     0
  9
$LENSLENGTH
 40
50.0
  9
$CAMERAHEIGHT
 40
0.0
  9
$STEPSPERSEC
 40
2.0
  9
$STEPSIZE
 40
6.0
  9
$3DDWFPREC
 40
2.0
  9
$PSOLWIDTH
 40
0.25
  9
$PSOLHEIGHT
 40
4.0
  9
$LOFTANG1
 40
1.570796326794897
  9
$LOFTANG2
 40
1.570796326794897
  9
$LOFTMAG1
 40
0.0
  9
$LOFTMAG2
 40
0.0
  9
$LOFTPARAM
 70
     7
  9
$LOFTNORMALS
280
     1
  9
$LATITUDE
 40
37.795
  9
$LONGITUDE
 40
-122.394
  9
$NORTHDIRECTION
 40
0.0
  9
$TIMEZONE
 70
 -8000
  9
$LIGHTGLYPHDISPLAY
280
     1
  9
$TILEMODELIGHTSYNCH
280
     1
  9
$CMATERIAL
347
3C
  9
$SOLIDHIST
280
     1
  9
$SHOWHIST
280
     1
  9
$DWFFRAME
280
     2
  9
$DGNFRAME
280
     2
  9
$REALWORLDSCALE
290
     1
  9
$INTERFERECOLOR
 62
   256
  9
$CSHADOW
280
     0
  9
$SHADOWPLANELOCATION
 40
0.0
  0
ENDSEC
  0
SECTION
  2
CLASSES
  0
CLASS
  1
ACDBDICTIONARYWDFLT
  2
AcDbDictionaryWithDefault
  3
ObjectDBX Classes
 90
        0
 91
        4
280
     0
281
     0
  0
CLASS
  1
VISUALSTYLE
  2
AcDbVisualStyle
  3
ObjectDBX Classes
 90
     4095
 91
        4
280
     0
281
     0
  0
CLASS
  1
MATERIAL
  2
AcDbMaterial
  3
ObjectDBX Classes
 90
     1153
 91
        4
280
     0
281
     0
  0
CLASS
  1
SUN
  2
AcDbSun
  3
SCENEOE
 90
     1024
 91
        4
280
     0
281
     0
  0
ENDSEC
  0
SECTION
  2
TABLES
  0
TABLE
  2
VPORT
  5
8
330
0
100
AcDbSymbolTable
 70
     1
  0
VPORT
  5
29
330
8
100
AcDbSymbolTableRecord
100
AcDbViewportTableRecord
  2
*Active
 70
     0
 10
0.0
 20
0.0
 11
1.0
 21
1.0
 12
0.0
 22
0.0
 13
0.0
 23
0.0
 14
0.5
 24
0.5
 15
0.5
 25
0.5
 16
0.0
 26
0.0
 36
1.0
 17
91.00082462281999
 27
-128.4993055234307
 37
0.0
 40
256.9986110468615
 41
0.7081814508812795
 42
50.0
 43
0.0
 44
0.0
 50
0.0
 51
0.0
 71
     0
 72
   100
 73
     1
 74
     3
 75
     0
 76
     0
 77
     0
 78
     0
281
     0
 65
     1
110
0.0
120
0.0
130
0.0
111
1.0
121
0.0
131
0.0
112
0.0
122
1.0
132
0.0
 79
     0
146
0.0
 60
     3
 61
     5
292
     1
282
     1
141
0.0
142
0.0
 63
   250
361
3F
  0
ENDTAB
  0
TABLE
  2
LTYPE
  5
5
330
0
100
AcDbSymbolTable
 70
     1
  0
LTYPE
  5
14
330
5
100
AcDbSymbolTableRecord
100
AcDbLinetypeTableRecord
  2
ByBlock
 70
     0
  3

 72
    65
 73
     0
 40
0.0
  0
LTYPE
  5
15
330
5
100
AcDbSymbolTableRecord
100
AcDbLinetypeTableRecord
  2
ByLayer
 70
     0
  3

 72
    65
 73
     0
 40
0.0
  0
LTYPE
  5
16
330
5
100
AcDbSymbolTableRecord
100
AcDbLinetypeTableRecord
  2
Continuous
 70
     0
  3
Solid line
 72
    65
 73
     0
 40
0.0
  0
ENDTAB
  0
TABLE
  2
LAYER
  5
2
330
0
100
AcDbSymbolTable
 70
     2
  0
LAYER
  5
10
330
2
100
AcDbSymbolTableRecord
100
AcDbLayerTableRecord
  2
0
 70
     0
 62
     7
  6
Continuous
370
    -3
390
F
347
3E
  0
LAYER
  5
40
330
2
100
AcDbSymbolTableRecord
100
AcDbLayerTableRecord
  2
_U+30EC_U+30A4_U+30E4_U+30FC 1
 70
     0
 62
     7
  6
Continuous
370
    -3
390
F
347
3E
  0
ENDTAB
  0
TABLE
  2
STYLE
  5
3
330
0
100
AcDbSymbolTable
 70
     1
  0
STYLE
  5
11
330
3
100
AcDbSymbolTableRecord
100
AcDbTextStyleTableRecord
  2
Standard
 70
     0
 40
0.0
 41
1.0
 50
0.0
 71
     0
 42
0.2
  3
txt
  4

  0
ENDTAB
  0
TABLE
  2
VIEW
  5
6
330
0
100
AcDbSymbolTable
 70
     0
  0
ENDTAB
  0
TABLE
  2
UCS
  5
7
330
0
100
AcDbSymbolTable
 70
     0
  0
ENDTAB
  0
TABLE
  2
APPID
  5
9
330
0
100
AcDbSymbolTable
 70
     1
  0
APPID
  5
12
330
9
100
AcDbSymbolTableRecord
100
AcDbRegAppTableRecord
  2
ACAD
 70
     0
  0
ENDTAB
  0
TABLE
  2
DIMSTYLE
  5
A
330
0
100
AcDbSymbolTable
 70
     1
100
AcDbDimStyleTable
  0
DIMSTYLE
105
27
330
A
100
AcDbSymbolTableRecord
100
AcDbDimStyleTableRecord
  2
Standard
 70
     0
178
     0
340
11
  0
ENDTAB
  0
TABLE
  2
BLOCK_RECORD
  5
1
330
0
100
AcDbSymbolTable
 70
     6
  0
BLOCK_RECORD
  5
1F
330
1
100
AcDbSymbolTableRecord
100
AcDbBlockTableRecord
  2
*Model_Space
340
22
 70
     0
280
     1
281
     0
  0
BLOCK_RECORD
  5
1B
330
1
100
AcDbSymbolTableRecord
100
AcDbBlockTableRecord
  2
*Paper_Space
340
1E
 70
     0
280
     1
281
     0
  0
BLOCK_RECORD
  5
23
330
1
100
AcDbSymbolTableRecord
100
AcDbBlockTableRecord
  2
*Paper_Space0
340
26
 70
     0
280
     1
281
     0
  0
BLOCK_RECORD
  5
44
330
1
100
AcDbSymbolTableRecord
100
AcDbBlockTableRecord
  2
block 2
340
0
102
{BLKREFS
331
45
102
}
 70
     0
280
     1
281
     0
  0
BLOCK_RECORD
  5
68
330
1
100
AcDbSymbolTableRecord
100
AcDbBlockTableRecord
  2
block 3
340
0
102
{BLKREFS
331
69
102
}
 70
     0
280
     1
281
     0
  0
BLOCK_RECORD
  5
70
330
1
100
AcDbSymbolTableRecord
100
AcDbBlockTableRecord
  2
block 4
340
0
102
{BLKREFS
331
71
102
}
 70
     0
280
     1
281
     0
  0
BLOCK_RECORD
  5
86
330
1
100
AcDbSymbolTableRecord
100
AcDbBlockTableRecord
  2
block 5
340
0
102
{BLKREFS
331
87
102
}
 70
     0
280
     1
281
     0
  0
BLOCK_RECORD
  5
99
330
1
100
AcDbSymbolTableRecord
100
AcDbBlockTableRecord
  2
block 6
340
0
102
{BLKREFS
331
9A
102
}
 70
     0
280
     1
281
     0
  0
ENDTAB
  0
ENDSEC
  0
SECTION
  2
BLOCKS
  0
BLOCK
  5
20
330
1F
100
AcDbEntity
  8
0
100
AcDbBlockBegin
  2
*Model_Space
 70
     0
 10
0.0
 20
0.0
 30
0.0
  3
*Model_Space
  1

  0
ENDBLK
  5
21
330
1F
100
AcDbEntity
  8
0
100
AcDbBlockEnd
  0
BLOCK
  5
1C
330
1B
100
AcDbEntity
 67
     1
  8
0
100
AcDbBlockBegin
  2
*Paper_Space
 70
     0
 10
0.0
 20
0.0
 30
0.0
  3
*Paper_Space
  1

  0
ENDBLK
  5
1D
330
1B
100
AcDbEntity
 67
     1
  8
0
100
AcDbBlockEnd
  0
BLOCK
  5
24
330
23
100
AcDbEntity
  8
0
100
AcDbBlockBegin
  2
*Paper_Space0
 70
     0
 10
0.0
 20
0.0
 30
0.0
  3
*Paper_Space0
  1

  0
ENDBLK
  5
25
330
23
100
AcDbEntity
  8
0
100
AcDbBlockEnd
  0
BLOCK
  5
46
330
44
100
AcDbEntity
  8
0
100
AcDbBlockBegin
  2
block 2
 70
     0
 10
0.0
 20
0.0
 30
0.0
  3
block 2
  1

  0
SPLINE
  5
48
330
44
100
AcDbEntity
  8
_U+30EC_U+30A4_U+30E4_U+30FC 1
370
     0
100
AcDbSpline
210
0.0
220
0.0
230
1.0
 70
    11
 71
     3
 72
    26
 73
    22
 74
     0
 42
0.0000000001
 43
0.0000000001
 12
1.0
 22
0.0
 32
0.0
 13
1.0
 23
0.0
 33
0.0
 40
0.0
 40
0.0
 40
0.0
 40
0.0
 40
1.0
 40
1.0
 40
1.0
 40
2.0
 40
2.0
 40
2.0
 40
3.0
 40
3.0
 40
3.0
 40
4.0
 40
4.0
 40
4.0
 40
5.0
 40
5.0
 40
5.0
 40
6.0
 40
6.0
 40
6.0
 40
7.0
 40
7.0
 40
7.0
 40
7.0
 10
92.75712888306072
 20
-122.1325968119148
 30
0.0
 10
92.75712888306072
 20
-122.1325968119148
 30
0.0
 10
93.17984209910088
 20
-121.1121595291838
 30
0.0
 10
93.17984209910088
 20
-121.1121595291838
 30
0.0
 10
93.17984209910088
 20
-121.1121595291838
 30
0.0
 10
92.85428057574477
 20
-120.977111786162
 30
0.0
 10
92.85428057574477
 20
-120.977111786162
 30
0.0
 10
92.85428057574477
 20
-120.977111786162
 30
0.0
 10
92.91078014170286
 20
-120.8406860049461
 30
0.0
 10
92.91078014170286
 20
-120.8406860049461
 30
0.0
 10
93.24426538467505
 20
-120.9626423851239
 30
0.0
 10
93.35244138291189
 20
-120.8310397375874
 30
0.0
 10
93.4254774071992
 20
-120.7380221594856
 30
0.0
 10
93.4254774071992
 20
-120.7380221594856
 30
0.0
 10
93.56948239848263
 20
-120.7972778018319
 30
0.0
 10
93.56948239848263
 20
-120.7972778018319
 30
0.0
 10
93.56948239848263
 20
-120.7972778018319
 30
0.0
 10
92.97864852276228
 20
-122.2242363518224
 30
0.0
 10
92.97864852276228
 20
-122.2242363518224
 30
0.0
 10
92.97864852276228
 20
-122.2242363518224
 30
0.0
 10
92.75712888306072
 20
-122.1325968119148
 30
0.0
 10
92.75712888306072
 20
-122.1325968119148
 30
0.0
  0
HATCH
  5
49
330
44
100
AcDbEntity
  8
_U+30EC_U+30A4_U+30E4_U+30FC 1
 62
     7
420
 16777215
100
AcDbHatch
 10
0.0
 20
0.0
 30
0.0
210
0.0
220
0.0
230
1.0
  2
SOLID
 70
     1
 71
     0
 91
        1
 92
        1
 93
        1
 72
     4
 94
        3
 73
     0
 74
     1
 95
       26
 96
       22
 40
0.0
 40
0.0
 40
0.0
 40
0.0
 40
1.0
 40
1.0
 40
1.0
 40
2.0
 40
2.0
 40
2.0
 40
3.0
 40
3.0
 40
3.0
 40
4.0
 40
4.0
 40
4.0
 40
5.0
 40
5.0
 40
5.0
 40
6.0
 40
6.0
 40
6.0
 40
7.0
 40
7.0
 40
7.0
 40
7.0
 10
92.75712888306072
 20
-122.1325968119148
 10
92.75712888306072
 20
-122.1325968119148
 10
93.17984209910088
 20
-121.1121595291838
 10
93.17984209910088
 20
-121.1121595291838
 10
93.17984209910088
 20
-121.1121595291838
 10
92.85428057574477
 20
-120.977111786162
 10
92.85428057574477
 20
-120.977111786162
 10
92.85428057574477
 20
-120.977111786162
 10
92.91078014170286
 20
-120.8406860049461
 10
92.91078014170286
 20
-120.8406860049461
 10
93.24426538467505
 20
-120.9626423851239
 10
93.35244138291189
 20
-120.8310397375874
 10
93.4254774071992
 20
-120.7380221594856
 10
93.4254774071992
 20
-120.7380221594856
 10
93.56948239848263
 20
-120.7972778018319
 10
93.56948239848263
 20
-120.7972778018319
 10
93.56948239848263
 20
-120.7972778018319
 10
92.97864852276228
 20
-122.2242363518224
 10
92.97864852276228
 20
-122.2242363518224
 10
92.97864852276228
 20
-122.2242363518224
 10
92.75712888306072
 20
-122.1325968119148
 10
92.75712888306072
 20
-122.1325968119148
 97
        0
 97
        0
 75
     2
 76
     1
 98
        0
  0
SPLINE
  5
4A
330
44
100
AcDbEntity
  8
_U+30EC_U+30A4_U+30E4_U+30FC 1
370
     0
100
AcDbSpline
210
0.0
220
0.0
230
1.0
 70
    11
 71
     3
 72
    62
 73
    58
 74
     0
 42
0.0000000001
 43
0.0000000001
 12
1.0
 22
0.0
 32
0.0
 13
1.0
 23
0.0
 33
0.0
 40
0.0
 40
0.0
 40
0.0
 40
0.0
 40
1.0
 40
1.0
 40
1.0
 40
2.0
 40
2.0
 40
2.0
 40
3.0
 40
3.0
 40
3.0
 40
4.0
 40
4.0
 40
4.0
 40
5.0
 40
5.0
 40
5.0
 40
6.0
 40
6.0
 40
6.0
 40
7.0
 40
7.0
 40
7.0
 40
8.0
 40
8.0
 40
8.0
 40
9.0
 40
9.0
 40
9.0
 40
10.0
 40
10.0
 40
10.0
 40
11.0
 40
11.0
 40
11.0
 40
12.0
 40
12.0
 40
12.0
 40
13.0
 40
13.0
 40
13.0
 40
14.0
 40
14.0
 40
14.0
 40
15.0
 40
15.0
 40
15.0
 40
16.0
 40
16.0
 40
16.0
 40
17.0
 40
17.0
 40
17.0
 40
18.0
 40
18.0
 40
18.0
 40
19.0
 40
19.0
 40
19.0
 40
19.0
 10
93.93948565359847
 20
-122.6769218985843
 30
0.0
 10
93.84577905639966
 20
-122.6383368291495
 30
0.0
 10
93.63872881773615
 20
-122.5294718118156
 30
0.0
 10
93.58670787590889
 20
-122.3065741339199
 30
0.0
 10
93.55639103563868
 20
-122.1725599195437
 30
0.0
 10
93.59049748094266
 20
-122.0788533223449
 30
0.0
 10
93.6187472639217
 20
-121.9989271070871
 30
0.0
 10
93.6187472639217
 20
-121.9989271070871
 30
0.0
 10
93.83578827949245
 20
-122.0891886088006
 30
0.0
 10
93.83578827949245
 20
-122.0891886088006
 30
0.0
 10
93.80926104425602
 20
-122.1584350280541
 30
0.0
 10
93.7303683576438
 20
-122.3799546677557
 30
0.0
 10
94.01011011104609
 20
-122.4957098760601
 30
0.0
 10
94.14584687316493
 20
-122.5518649324697
 30
0.0
 10
94.32258027155825
 20
-122.54945336563
 30
0.0
 10
94.4100856968836
 20
-122.3386135219327
 30
0.0
 10
94.45452742864332
 20
-122.2311265427929
 30
0.0
 10
94.43557940347445
 20
-122.1704928622525
 30
0.0
 10
94.41663137830557
 20
-122.128118187784
 30
0.0
 10
94.37184513699732
 20
-122.0292439473573
 30
0.0
 10
94.26194659101785
 20
-121.9703328145595
 30
0.0
 10
94.2075140823509
 20
-121.9479396939054
 30
0.0
 10
94.18856605718203
 20
-121.9400159742893
 30
0.0
 10
94.15273706413544
 20
-121.9272691209939
 30
0.0
 10
94.12345375251081
 20
-121.9196899109263
 30
0.0
 10
94.12345375251081
 20
-121.9196899109263
 30
0.0
 10
94.19786781499221
 20
-121.7398559265963
 30
0.0
 10
94.19786781499221
 20
-121.7398559265963
 30
0.0
 10
94.23300778894175
 20
-121.7612155186048
 30
0.0
 10
94.27434893476475
 20
-121.7805080533222
 30
0.0
 10
94.2805501066382
 20
-121.7832641297104
 30
0.0
 10
94.3453179017609
 20
-121.8101358744954
 30
0.0
 10
94.54961206403621
 20
-121.8721475932299
 30
0.0
 10
94.64021807529828
 20
-121.653039520368
 30
0.0
 10
94.70843096590623
 20
-121.4890529752701
 30
0.0
 10
94.59991045812086
 20
-121.3843220725185
 30
0.0
 10
94.49138995033549
 20
-121.3395358312103
 30
0.0
 10
94.23025171255355
 20
-121.2310153234249
 30
0.0
 10
94.1331000198695
 20
-121.4428886957677
 30
0.0
 10
94.10140514140521
 20
-121.5076564908905
 30
0.0
 10
94.10140514140521
 20
-121.5076564908905
 30
0.0
 10
93.90090058416367
 20
-121.4242851801474
 30
0.0
 10
93.90090058416367
 20
-121.4242851801474
 30
0.0
 10
93.95671113102472
 20
-121.3126640864253
 30
0.0
 10
94.12758786709311
 20
-120.9757337479679
 30
0.0
 10
94.57889537566084
 20
-121.1628024328169
 30
0.0
 10
94.80075952491093
 20
-121.2544419727246
 30
0.0
 10
94.99023977659967
 20
-121.4704494596498
 30
0.0
 10
94.87689613513494
 20
-121.7439900411786
 30
0.0
 10
94.80558265859028
 20
-121.9162448154411
 30
0.0
 10
94.67983667337866
 20
-121.9534518466818
 30
0.0
 10
94.55822480274934
 20
-121.9692992859139
 30
0.0
 10
94.60817868728546
 20
-122.0195976799986
 30
0.0
 10
94.75735132179678
 20
-122.1684258049614
 30
0.0
 10
94.65124238085109
 20
-122.424740909064
 30
0.0
 10
94.52170679060569
 20
-122.7375555791246
 30
0.0
 10
94.2130262351273
 20
-122.7906100495975
 30
0.0
 10
93.93948565359847
 20
-122.6769218985843
 30
0.0
  0
HATCH
  5
4B
330
44
100
AcDbEntity
  8
_U+30EC_U+30A4_U+30E4_U+30FC 1
 62
     7
420
 16777215
100
AcDbHatch
 10
0.0
 20
0.0
 30
0.0
210
0.0
220
0.0
230
1.0
  2
SOLID
 70
     1
 71
     0
 91
        1
 92
        1
 93
        1
 72
     4
 94
        3
 73
     0
 74
     1
 95
       62
 96
       58
 40
0.0
 40
0.0
 40
0.0
 40
0.0
 40
1.0
 40
1.0
 40
1.0
 40
2.0
 40
2.0
 40
2.0
 40
3.0
 40
3.0
 40
3.0
 40
4.0
 40
4.0
 40
4.0
 40
5.0
 40
5.0
 40
5.0
 40
6.0
 40
6.0
 40
6.0
 40
7.0
 40
7.0
 40
7.0
 40
8.0
 40
8.0
 40
8.0
 40
9.0
 40
9.0
 40
9.0
 40
10.0
 40
10.0
 40
10.0
 40
11.0
 40
11.0
 40
11.0
 40
12.0
 40
12.0
 40
12.0
 40
13.0
 40
13.0
 40
13.0
 40
14.0
 40
14.0
 40
14.0
 40
15.0
 40
15.0
 40
15.0
 40
16.0
 40
16.0
 40
16.0
 40
17.0
 40
17.0
 40
17.0
 40
18.0
 40
18.0
 40
18.0
 40
19.0
 40
19.0
 40
19.0
 40
19.0
 10
93.93948565359847
 20
-122.6769218985843
 10
93.84577905639966
 20
-122.6383368291495
 10
93.63872881773615
 20
-122.5294718118156
 10
93.58670787590889
 20
-122.3065741339199
 10
93.55639103563868
 20
-122.1725599195437
 10
93.59049748094266
 20
-122.0788533223449
 10
93.6187472639217
 20
-121.9989271070871
 10
93.6187472639217
 20
-121.9989271070871
 10
93.83578827949245
 20
-122.0891886088006
 10
93.83578827949245
 20
-122.0891886088006
 10
93.80926104425602
 20
-122.1584350280541
 10
93.7303683576438
 20
-122.3799546677557
 10
94.01011011104609
 20
-122.4957098760601
 10
94.14584687316493
 20
-122.5518649324697
 10
94.32258027155825
 20
-122.54945336563
 10
94.4100856968836
 20
-122.3386135219327
 10
94.45452742864332
 20
-122.2311265427929
 10
94.43557940347445
 20
-122.1704928622525
 10
94.41663137830557
 20
-122.128118187784
 10
94.37184513699732
 20
-122.0292439473573
 10
94.26194659101785
 20
-121.9703328145595
 10
94.2075140823509
 20
-121.9479396939054
 10
94.18856605718203
 20
-121.9400159742893
 10
94.15273706413544
 20
-121.9272691209939
 10
94.12345375251081
 20
-121.9196899109263
 10
94.12345375251081
 20
-121.9196899109263
 10
94.19786781499221
 20
-121.7398559265963
 10
94.19786781499221
 20
-121.7398559265963
 10
94.23300778894175
 20
-121.7612155186048
 10
94.27434893476475
 20
-121.7805080533222
 10
94.2805501066382
 20
-121.7832641297104
 10
94.3453179017609
 20
-121.8101358744954
 10
94.54961206403621
 20
-121.8721475932299
 10
94.64021807529828
 20
-121.653039520368
 10
94.70843096590623
 20
-121.4890529752701
 10
94.59991045812086
 20
-121.3843220725185
 10
94.49138995033549
 20
-121.3395358312103
 10
94.23025171255355
 20
-121.2310153234249
 10
94.1331000198695
 20
-121.4428886957677
 10
94.10140514140521
 20
-121.5076564908905
 10
94.10140514140521
 20
-121.5076564908905
 10
93.90090058416367
 20
-121.4242851801474
 10
93.90090058416367
 20
-121.4242851801474
 10
93.95671113102472
 20
-121.3126640864253
 10
94.12758786709311
 20
-120.9757337479679
 10
94.57889537566084
 20
-121.1628024328169
 10
94.80075952491093
 20
-121.2544419727246
 10
94.99023977659967
 20
-121.4704494596498
 10
94.87689613513494
 20
-121.7439900411786
 10
94.80558265859028
 20
-121.9162448154411
 10
94.67983667337866
 20
-121.9534518466818
 10
94.55822480274934
 20
-121.9692992859139
 10
94.60817868728546
 20
-122.0195976799986
 10
94.75735132179678
 20
-122.1684258049614
 10
94.65124238085109
 20
-122.424740909064
 10
94.52170679060569
 20
-122.7375555791246
 10
94.2130262351273
 20
-122.7906100495975
 10
93.93948565359847
 20
-122.6769218985843
 97
        0
 97
        0
 75
     2
 76
     1
 98
        0
  0
SPLINE
  5
4C
330
44
100
AcDbEntity
  8
_U+30EC_U+30A4_U+30E4_U+30FC 1
370
     0
100
AcDbSpline
210
0.0
220
0.0
230
1.0
 70
    11
 71
     3
 72
    53
 73
    49
 74
     0
 42
0.0000000001
 43
0.0000000001
 12
1.0
 22
0.0
 32
0.0
 13
1.0
 23
0.0
 33
0.0
 40
0.0
 40
0.0
 40
0.0
 40
0.0
 40
1.0
 40
1.0
 40
1.0
 40
2.0
 40
2.0
 40
2.0
 40
3.0
 40
3.0
 40
3.0
 40
4.0
 40
4.0
 40
4.0
 40
5.0
 40
5.0
 40
5.0
 40
6.0
 40
6.0
 40
6.0
 40
7.0
 40
7.0
 40
7.0
 40
8.0
 40
8.0
 40
8.0
 40
9.0
 40
9.0
 40
9.0
 40
10.0
 40
10.0
 40
10.0
 40
11.0
 40
11.0
 40
11.0
 40
12.0
 40
12.0
 40
12.0
 40
13.0
 40
13.0
 40
13.0
 40
14.0
 40
14.0
 40
14.0
 40
15.0
 40
15.0
 40
15.0
 40
16.0
 40
16.0
 40
16.0
 40
16.0
 10
95.09152558386602
 20
-123.1540676232914
 30
0.0
 10
95.01366642589936
 20
-123.1220282352785
 30
0.0
 10
94.9203043382491
 20
-123.0648396502234
 30
0.0
 10
94.84416772802507
 20
-122.9649318811511
 30
0.0
 10
94.7149766473282
 20
-122.7919880877916
 30
0.0
 10
94.74460446850135
 20
-122.6624524975462
 30
0.0
 10
94.76699758915548
 20
-122.5549655184064
 30
0.0
 10
94.76699758915548
 20
-122.5549655184064
 30
0.0
 10
94.98610566201737
 20
-122.645916039217
 30
0.0
 10
94.98610566201737
 20
-122.645916039217
 30
0.0
 10
94.96440156046029
 20
-122.8519327492349
 30
0.0
 10
95.07843422102206
 20
-122.9311699453957
 30
0.0
 10
95.17041827047824
 20
-122.9690659957334
 30
0.0
 10
95.30822208988823
 20
-123.0262545807886
 30
0.0
 10
95.49666881293139
 20
-122.996971269164
 30
0.0
 10
95.58589678599937
 20
-122.7816528013358
 30
0.0
 10
95.68373749778046
 20
-122.5453192510477
 30
0.0
 10
95.53318682507503
 20
-122.4075154316377
 30
0.0
 10
95.4139865212854
 20
-122.3579060566501
 30
0.0
 10
95.3822916428211
 20
-122.3448146938062
 30
0.0
 10
95.24242076611995
 20
-122.286937089654
 30
0.0
 10
95.105305965807
 20
-122.3696193813
 30
0.0
 10
95.105305965807
 20
-122.3696193813
 30
0.0
 10
94.93925236341796
 20
-122.280391408232
 30
0.0
 10
94.93925236341796
 20
-122.280391408232
 30
0.0
 10
94.93925236341796
 20
-122.280391408232
 30
0.0
 10
95.38194713327258
 20
-121.5483086176164
 30
0.0
 10
95.38194713327258
 20
-121.5483086176164
 30
0.0
 10
95.38194713327258
 20
-121.5483086176164
 30
0.0
 10
96.15054793603181
 20
-121.8666354404535
 30
0.0
 10
96.15054793603181
 20
-121.8666354404535
 30
0.0
 10
96.15054793603181
 20
-121.8666354404535
 30
0.0
 10
96.07613387355042
 20
-122.0464694247835
 30
0.0
 10
96.07613387355042
 20
-122.0464694247835
 30
0.0
 10
96.07613387355042
 20
-122.0464694247835
 30
0.0
 10
95.46841902995234
 20
-121.7946329448118
 30
0.0
 10
95.46841902995234
 20
-121.7946329448118
 30
0.0
 10
95.46841902995234
 20
-121.7946329448118
 30
0.0
 10
95.24173174702291
 20
-122.1587795376027
 30
0.0
 10
95.24173174702291
 20
-122.1587795376027
 30
0.0
 10
95.31545679040725
 20
-122.1522338561807
 30
0.0
 10
95.41191946399425
 20
-122.1487887606955
 30
0.0
 10
95.52905271049273
 20
-122.1973646070375
 30
0.0
 10
95.77985566181893
 20
-122.3010619811435
 30
0.0
 10
95.94246416872272
 20
-122.5701239385415
 30
0.0
 10
95.82257484583603
 20
-122.859167449754
 30
0.0
 10
95.7009629752067
 20
-123.1523450755487
 30
0.0
 10
95.38987085288865
 20
-123.2777465512118
 30
0.0
 10
95.09152558386602
 20
-123.1540676232914
 30
0.0
  0
HATCH
  5
4D
330
44
100
AcDbEntity
  8
_U+30EC_U+30A4_U+30E4_U+30FC 1
 62
     7
420
 16777215
100
AcDbHatch
 10
0.0
 20
0.0
 30
0.0
210
0.0
220
0.0
230
1.0
  2
SOLID
 70
     1
 71
     0
 91
        1
 92
        1
 93
        1
 72
     4
 94
        3
 73
     0
 74
     1
 95
       53
 96
       49
 40
0.0
 40
0.0
 40
0.0
 40
0.0
 40
1.0
 40
1.0
 40
1.0
 40
2.0
 40
2.0
 40
2.0
 40
3.0
 40
3.0
 40
3.0
 40
4.0
 40
4.0
 40
4.0
 40
5.0
 40
5.0
 40
5.0
 40
6.0
 40
6.0
 40
6.0
 40
7.0
 40
7.0
 40
7.0
 40
8.0
 40
8.0
 40
8.0
 40
9.0
 40
9.0
 40
9.0
 40
10.0
 40
10.0
 40
10.0
 40
11.0
 40
11.0
 40
11.0
 40
12.0
 40
12.0
 40
12.0
 40
13.0
 40
13.0
 40
13.0
 40
14.0
 40
14.0
 40
14.0
 40
15.0
 40
15.0
 40
15.0
 40
16.0
 40
16.0
 40
16.0
 40
16.0
 10
95.09152558386602
 20
-123.1540676232914
 10
95.01366642589936
 20
-123.1220282352785
 10
94.9203043382491
 20
-123.0648396502234
 10
94.84416772802507
 20
-122.9649318811511
 10
94.7149766473282
 20
-122.7919880877916
 10
94.74460446850135
 20
-122.6624524975462
 10
94.76699758915548
 20
-122.5549655184064
 10
94.76699758915548
 20
-122.5549655184064
 10
94.98610566201737
 20
-122.645916039217
 10
94.98610566201737
 20
-122.645916039217
 10
94.96440156046029
 20
-122.8519327492349
 10
95.07843422102206
 20
-122.9311699453957
 10
95.17041827047824
 20
-122.9690659957334
 10
95.30822208988823
 20
-123.0262545807886
 10
95.49666881293139
 20
-122.996971269164
 10
95.58589678599937
 20
-122.7816528013358
 10
95.68373749778046
 20
-122.5453192510477
 10
95.53318682507503
 20
-122.4075154316377
 10
95.4139865212854
 20
-122.3579060566501
 10
95.3822916428211
 20
-122.3448146938062
 10
95.24242076611995
 20
-122.286937089654
 10
95.105305965807
 20
-122.3696193813
 10
95.105305965807
 20
-122.3696193813
 10
94.93925236341796
 20
-122.280391408232
 10
94.93925236341796
 20
-122.280391408232
 10
94.93925236341796
 20
-122.280391408232
 10
95.38194713327258
 20
-121.5483086176164
 10
95.38194713327258
 20
-121.5483086176164
 10
95.38194713327258
 20
-121.5483086176164
 10
96.15054793603181
 20
-121.8666354404535
 10
96.15054793603181
 20
-121.8666354404535
 10
96.15054793603181
 20
-121.8666354404535
 10
96.07613387355042
 20
-122.0464694247835
 10
96.07613387355042
 20
-122.0464694247835
 10
96.07613387355042
 20
-122.0464694247835
 10
95.46841902995234
 20
-121.7946329448118
 10
95.46841902995234
 20
-121.7946329448118
 10
95.46841902995234
 20
-121.7946329448118
 10
95.24173174702291
 20
-122.1587795376027
 10
95.24173174702291
 20
-122.1587795376027
 10
95.31545679040725
 20
-122.1522338561807
 10
95.41191946399425
 20
-122.1487887606955
 10
95.52905271049273
 20
-122.1973646070375
 10
95.77985566181893
 20
-122.3010619811435
 10
95.94246416872272
 20
-122.5701239385415
 10
95.82257484583603
 20
-122.859167449754
 10
95.7009629752067
 20
-123.1523450755487
 10
95.38987085288865
 20
-123.2777465512118
 10
95.09152558386602
 20
-123.1540676232914
 97
        0
 97
        0
 75
     2
 76
     1
 98
        0
  0
SPLINE
  5
4E
330
44
100
AcDbEntity
  8
_U+30EC_U+30A4_U+30E4_U+30FC 1
370
     0
100
AcDbSpline
210
0.0
220
0.0
230
1.0
 70
    11
 71
     3
 72
    17
 73
    13
 74
     0
 42
0.0000000001
 43
0.0000000001
 12
1.0
 22
0.0
 32
0.0
 13
1.0
 23
0.0
 33
0.0
 40
0.0
 40
0.0
 40
0.0
 40
0.0
 40
1.0
 40
1.0
 40
1.0
 40
2.0
 40
2.0
 40
2.0
 40
3.0
 40
3.0
 40
3.0
 40
4.0
 40
4.0
 40
4.0
 40
4.0
 10
96.90984698098087
 20
-122.4578138257224
 30
0.0
 10
96.8468017336008
 20
-122.6100870461704
 30
0.0
 10
96.66214461559142
 20
-122.6845011086518
 30
0.0
 10
96.49264591771713
 20
-122.6145656703012
 30
0.0
 10
96.3255587866825
 20
-122.5453192510477
 30
0.0
 10
96.2442545332306
 20
-122.363073699878
 30
0.0
 10
96.30833330925626
 20
-122.2087334221388
 30
0.0
 10
96.37241208528191
 20
-122.0540486348511
 30
0.0
 10
96.5584472414854
 20
-121.9823906487579
 30
0.0
 10
96.72587888206853
 20
-122.0516370680114
 30
0.0
 10
96.89537757994283
 20
-122.121572506362
 30
0.0
 10
96.97289222836095
 20
-122.3051960957258
 30
0.0
 10
96.90984698098087
 20
-122.4578138257224
 30
0.0
  0
SPLINE
  5
4F
330
44
100
AcDbEntity
  8
_U+30EC_U+30A4_U+30E4_U+30FC 1
370
     0
100
AcDbSpline
210
0.0
220
0.0
230
1.0
 70
    11
 71
     3
 72
    17
 73
    13
 74
     0
 42
0.0000000001
 43
0.0000000001
 12
1.0
 22
0.0
 32
0.0
 13
1.0
 23
0.0
 33
0.0
 40
0.0
 40
0.0
 40
0.0
 40
0.0
 40
1.0
 40
1.0
 40
1.0
 40
2.0
 40
2.0
 40
2.0
 40
3.0
 40
3.0
 40
3.0
 40
4.0
 40
4.0
 40
4.0
 40
4.0
 10
96.4316677276282
 20
-122.2597208353205
 30
0.0
 10
96.39377167729045
 20
-122.3517048847767
 30
0.0
 10
96.44234752363248
 20
-122.4588473543679
 30
0.0
 10
96.54018823541357
 20
-122.4991549715454
 30
0.0
 10
96.6383734567432
 20
-122.5398070982713
 30
0.0
 10
96.74896102181971
 20
-122.4984659524483
 30
0.0
 10
96.78685707215746
 20
-122.4068264125407
 30
0.0
 10
96.82509763204374
 20
-122.3148423630845
 30
0.0
 10
96.77824433344433
 20
-122.2083889125903
 30
0.0
 10
96.67799205482356
 20
-122.1670477667673
 30
0.0
 10
96.57773977620279
 20
-122.1257066209443
 30
0.0
 10
96.46990828751447
 20
-122.1677367858643
 30
0.0
 10
96.4316677276282
 20
-122.2597208353205
 30
0.0
  0
HATCH
  5
50
330
44
100
AcDbEntity
  8
_U+30EC_U+30A4_U+30E4_U+30FC 1
 62
     7
420
 16777215
100
AcDbHatch
 10
0.0
 20
0.0
 30
0.0
210
0.0
220
0.0
230
1.0
  2
SOLID
 70
     1
 71
     0
 91
        2
 92
        1
 93
        1
 72
     4
 94
        3
 73
     0
 74
     1
 95
       17
 96
       13
 40
0.0
 40
0.0
 40
0.0
 40
0.0
 40
1.0
 40
1.0
 40
1.0
 40
2.0
 40
2.0
 40
2.0
 40
3.0
 40
3.0
 40
3.0
 40
4.0
 40
4.0
 40
4.0
 40
4.0
 10
96.90984698098087
 20
-122.4578138257224
 10
96.8468017336008
 20
-122.6100870461704
 10
96.66214461559142
 20
-122.6845011086518
 10
96.49264591771713
 20
-122.6145656703012
 10
96.3255587866825
 20
-122.5453192510477
 10
96.2442545332306
 20
-122.363073699878
 10
96.30833330925626
 20
-122.2087334221388
 10
96.37241208528191
 20
-122.0540486348511
 10
96.5584472414854
 20
-121.9823906487579
 10
96.72587888206853
 20
-122.0516370680114
 10
96.89537757994283
 20
-122.121572506362
 10
96.97289222836095
 20
-122.3051960957258
 10
96.90984698098087
 20
-122.4578138257224
 97
        0
 97
        0
 92
        1
 93
        1
 72
     4
 94
        3
 73
     0
 74
     1
 95
       17
 96
       13
 40
0.0
 40
0.0
 40
0.0
 40
0.0
 40
1.0
 40
1.0
 40
1.0
 40
2.0
 40
2.0
 40
2.0
 40
3.0
 40
3.0
 40
3.0
 40
4.0
 40
4.0
 40
4.0
 40
4.0
 10
96.4316677276282
 20
-122.2597208353205
 10
96.39377167729045
 20
-122.3517048847767
 10
96.44234752363248
 20
-122.4588473543679
 10
96.54018823541357
 20
-122.4991549715454
 10
96.6383734567432
 20
-122.5398070982713
 10
96.74896102181971
 20
-122.4984659524483
 10
96.78685707215746
 20
-122.4068264125407
 10
96.82509763204374
 20
-122.3148423630845
 10
96.77824433344433
 20
-122.2083889125903
 10
96.67799205482356
 20
-122.1670477667673
 10
96.57773977620279
 20
-122.1257066209443
 10
96.46990828751447
 20
-122.1677367858643
 10
96.4316677276282
 20
-122.2597208353205
 97
        0
 97
        0
 75
     2
 76
     1
 98
        0
  0
ENDBLK
  5
47
330
44
100
AcDbEntity
  8
0
100
AcDbBlockEnd
  0
BLOCK
  5
6A
330
68
100
AcDbEntity
  8
0
100
AcDbBlockBegin
  2
block 3
 70
     0
 10
0.0
 20
0.0
 30
0.0
  3
block 3
  1

  0
SPLINE
  5
6C
330
68
100
AcDbEntity
  8
_U+30EC_U+30A4_U+30E4_U+30FC 1
370
     0
100
AcDbSpline
210
0.0
220
0.0
230
1.0
 70
    11
 71
     3
 72
    26
 73
    22
 74
     0
 42
0.0000000001
 43
0.0000000001
 12
1.0
 22
0.0
 32
0.0
 13
1.0
 23
0.0
 33
0.0
 40
0.0
 40
0.0
 40
0.0
 40
0.0
 40
1.0
 40
1.0
 40
1.0
 40
2.0
 40
2.0
 40
2.0
 40
3.0
 40
3.0
 40
3.0
 40
4.0
 40
4.0
 40
4.0
 40
5.0
 40
5.0
 40
5.0
 40
6.0
 40
6.0
 40
6.0
 40
7.0
 40
7.0
 40
7.0
 40
7.0
 10
103.4324462632044
 20
-135.4752793715131
 30
0.0
 10
103.4324462632044
 20
-135.4752793715131
 30
0.0
 10
102.3282931601818
 20
-135.4752793715131
 30
0.0
 10
102.3282931601818
 20
-135.4752793715131
 30
0.0
 10
102.3282931601818
 20
-135.4752793715131
 30
0.0
 10
102.3282931601818
 20
-135.8277126396542
 30
0.0
 10
102.3282931601818
 20
-135.8277126396542
 30
0.0
 10
102.3282931601818
 20
-135.8277126396542
 30
0.0
 10
102.1801540543161
 20
-135.8277126396542
 30
0.0
 10
102.1801540543161
 20
-135.8277126396542
 30
0.0
 10
102.1653401437295
 20
-135.4728678046735
 30
0.0
 10
102.0023871272772
 20
-135.4232584296859
 30
0.0
 10
101.8880099571669
 20
-135.3915635512216
 30
0.0
 10
101.8880099571669
 20
-135.3915635512216
 30
0.0
 10
101.8880099571669
 20
-135.2355007257397
 30
0.0
 10
101.8880099571669
 20
-135.2355007257397
 30
0.0
 10
101.8880099571669
 20
-135.2355007257397
 30
0.0
 10
103.4324462632044
 20
-135.2355007257397
 30
0.0
 10
103.4324462632044
 20
-135.2355007257397
 30
0.0
 10
103.4324462632044
 20
-135.2355007257397
 30
0.0
 10
103.4324462632044
 20
-135.4752793715131
 30
0.0
 10
103.4324462632044
 20
-135.4752793715131
 30
0.0
  0
HATCH
  5
6D
330
68
100
AcDbEntity
  8
_U+30EC_U+30A4_U+30E4_U+30FC 1
 62
     7
420
 16777215
100
AcDbHatch
 10
0.0
 20
0.0
 30
0.0
210
0.0
220
0.0
230
1.0
  2
SOLID
 70
     1
 71
     0
 91
        1
 92
        1
 93
        1
 72
     4
 94
        3
 73
     0
 74
     1
 95
       26
 96
       22
 40
0.0
 40
0.0
 40
0.0
 40
0.0
 40
1.0
 40
1.0
 40
1.0
 40
2.0
 40
2.0
 40
2.0
 40
3.0
 40
3.0
 40
3.0
 40
4.0
 40
4.0
 40
4.0
 40
5.0
 40
5.0
 40
5.0
 40
6.0
 40
6.0
 40
6.0
 40
7.0
 40
7.0
 40
7.0
 40
7.0
 10
103.4324462632044
 20
-135.4752793715131
 10
103.4324462632044
 20
-135.4752793715131
 10
102.3282931601818
 20
-135.4752793715131
 10
102.3282931601818
 20
-135.4752793715131
 10
102.3282931601818
 20
-135.4752793715131
 10
102.3282931601818
 20
-135.8277126396542
 10
102.3282931601818
 20
-135.8277126396542
 10
102.3282931601818
 20
-135.8277126396542
 10
102.1801540543161
 20
-135.8277126396542
 10
102.1801540543161
 20
-135.8277126396542
 10
102.1653401437295
 20
-135.4728678046735
 10
102.0023871272772
 20
-135.4232584296859
 10
101.8880099571669
 20
-135.3915635512216
 10
101.8880099571669
 20
-135.3915635512216
 10
101.8880099571669
 20
-135.2355007257397
 10
101.8880099571669
 20
-135.2355007257397
 10
101.8880099571669
 20
-135.2355007257397
 10
103.4324462632044
 20
-135.2355007257397
 10
103.4324462632044
 20
-135.2355007257397
 10
103.4324462632044
 20
-135.2355007257397
 10
103.4324462632044
 20
-135.4752793715131
 10
103.4324462632044
 20
-135.4752793715131
 97
        0
 97
        0
 75
     2
 76
     1
 98
        0
  0
SPLINE
  5
6E
330
68
100
AcDbEntity
  8
_U+30EC_U+30A4_U+30E4_U+30FC 1
370
     0
100
AcDbSpline
210
0.0
220
0.0
230
1.0
 70
    11
 71
     3
 72
    62
 73
    58
 74
     0
 42
0.0000000001
 43
0.0000000001
 12
1.0
 22
0.0
 32
0.0
 13
1.0
 23
0.0
 33
0.0
 40
0.0
 40
0.0
 40
0.0
 40
0.0
 40
1.0
 40
1.0
 40
1.0
 40
2.0
 40
2.0
 40
2.0
 40
3.0
 40
3.0
 40
3.0
 40
4.0
 40
4.0
 40
4.0
 40
5.0
 40
5.0
 40
5.0
 40
6.0
 40
6.0
 40
6.0
 40
7.0
 40
7.0
 40
7.0
 40
8.0
 40
8.0
 40
8.0
 40
9.0
 40
9.0
 40
9.0
 40
10.0
 40
10.0
 40
10.0
 40
11.0
 40
11.0
 40
11.0
 40
12.0
 40
12.0
 40
12.0
 40
13.0
 40
13.0
 40
13.0
 40
14.0
 40
14.0
 40
14.0
 40
15.0
 40
15.0
 40
15.0
 40
16.0
 40
16.0
 40
16.0
 40
17.0
 40
17.0
 40
17.0
 40
18.0
 40
18.0
 40
18.0
 40
19.0
 40
19.0
 40
19.0
 40
19.0
 10
103.4830891668376
 20
-134.1744113162828
 30
0.0
 10
103.4830891668376
 20
-134.2760416330977
 30
0.0
 10
103.4620740843775
 20
-134.5089300879006
 30
0.0
 10
103.276038928174
 20
-134.6422552831797
 30
0.0
 10
103.1637288153549
 20
-134.7214924793405
 30
0.0
 10
103.0645100653797
 20
-134.7259711034713
 30
0.0
 10
102.9797607164426
 20
-134.7304497276021
 30
0.0
 10
102.9797607164426
 20
-134.7304497276021
 30
0.0
 10
102.9797607164426
 20
-134.4954942155081
 30
0.0
 10
102.9797607164426
 20
-134.4954942155081
 30
0.0
 10
103.0538302693754
 20
-134.4930826486684
 30
0.0
 10
103.2884412719209
 20
-134.4817138335671
 30
0.0
 10
103.2884412719209
 20
-134.1788899404136
 30
0.0
 10
103.2884412719209
 20
-134.0317843631935
 30
0.0
 10
103.2188503431189
 20
-133.8691758562896
 30
0.0
 10
102.9904405124468
 20
-133.8691758562896
 30
0.0
 10
102.8739962850454
 20
-133.8691758562896
 30
0.0
 10
102.8254204387034
 20
-133.9098279830156
 30
0.0
 10
102.7937255602391
 20
-133.9439344283196
 30
0.0
 10
102.7196560073062
 20
-134.0228271149318
 30
0.0
 10
102.7069091540108
 20
-134.1471950619493
 30
0.0
 10
102.7069091540108
 20
-134.2061061947471
 30
0.0
 10
102.7069091540108
 20
-134.2264322581101
 30
0.0
 10
102.7089762113019
 20
-134.2646728179963
 30
0.0
 10
102.7131103258842
 20
-134.2943006391695
 30
0.0
 10
102.7131103258842
 20
-134.2943006391695
 30
0.0
 10
102.5184624309676
 20
-134.2943006391695
 30
0.0
 10
102.5184624309676
 20
-134.2943006391695
 30
0.0
 10
102.5250081123896
 20
-134.2536485124435
 30
0.0
 10
102.5270751696807
 20
-134.2081732520383
 30
0.0
 10
102.5270751696807
 20
-134.2016275706163
 30
0.0
 10
102.5270751696807
 20
-134.1313476227172
 30
0.0
 10
102.5057155776722
 20
-133.9187852312772
 30
0.0
 10
102.2690375178355
 20
-133.9187852312772
 30
0.0
 10
102.0912705907966
 20
-133.9187852312772
 30
0.0
 10
102.0361490630326
 20
-134.0590006175269
 30
0.0
 10
102.0361490630326
 20
-134.1764783735739
 30
0.0
 10
102.0361490630326
 20
-134.459320712913
 30
0.0
 10
102.2690375178355
 20
-134.4682779611746
 30
0.0
 10
102.3406955039287
 20
-134.4727565853054
 30
0.0
 10
102.3406955039287
 20
-134.4727565853054
 30
0.0
 10
102.3406955039287
 20
-134.6897976008762
 30
0.0
 10
102.3406955039287
 20
-134.6897976008762
 30
0.0
 10
102.2159830473627
 20
-134.6808403526145
 30
0.0
 10
101.8394341108249
 20
-134.6515570409899
 30
0.0
 10
101.8394341108249
 20
-134.1630425011815
 30
0.0
 10
101.8394341108249
 20
-133.9232638554081
 30
0.0
 10
101.9665581342306
 20
-133.6655707131114
 30
0.0
 10
102.2624918364135
 20
-133.6655707131114
 30
0.0
 10
102.4488715021656
 20
-133.6655707131114
 30
0.0
 10
102.531209284263
 20
-133.7675455394748
 30
0.0
 10
102.5925319839005
 20
-133.8736544804205
 30
0.0
 10
102.6200927477825
 20
-133.8081976662007
 30
0.0
 10
102.7003634725888
 20
-133.6135497712841
 30
0.0
 10
102.9776936591514
 20
-133.6135497712841
 30
0.0
 10
103.316002035803
 20
-133.6135497712841
 30
0.0
 10
103.4830891668376
 20
-133.8781331045513
 30
0.0
 10
103.4830891668376
 20
-134.1744113162828
 30
0.0
  0
HATCH
  5
6F
330
68
100
AcDbEntity
  8
_U+30EC_U+30A4_U+30E4_U+30FC 1
 62
     7
420
 16777215
100
AcDbHatch
 10
0.0
 20
0.0
 30
0.0
210
0.0
220
0.0
230
1.0
  2
SOLID
 70
     1
 71
     0
 91
        1
 92
        1
 93
        1
 72
     4
 94
        3
 73
     0
 74
     1
 95
       62
 96
       58
 40
0.0
 40
0.0
 40
0.0
 40
0.0
 40
1.0
 40
1.0
 40
1.0
 40
2.0
 40
2.0
 40
2.0
 40
3.0
 40
3.0
 40
3.0
 40
4.0
 40
4.0
 40
4.0
 40
5.0
 40
5.0
 40
5.0
 40
6.0
 40
6.0
 40
6.0
 40
7.0
 40
7.0
 40
7.0
 40
8.0
 40
8.0
 40
8.0
 40
9.0
 40
9.0
 40
9.0
 40
10.0
 40
10.0
 40
10.0
 40
11.0
 40
11.0
 40
11.0
 40
12.0
 40
12.0
 40
12.0
 40
13.0
 40
13.0
 40
13.0
 40
14.0
 40
14.0
 40
14.0
 40
15.0
 40
15.0
 40
15.0
 40
16.0
 40
16.0
 40
16.0
 40
17.0
 40
17.0
 40
17.0
 40
18.0
 40
18.0
 40
18.0
 40
19.0
 40
19.0
 40
19.0
 40
19.0
 10
103.4830891668376
 20
-134.1744113162828
 10
103.4830891668376
 20
-134.2760416330977
 10
103.4620740843775
 20
-134.5089300879006
 10
103.276038928174
 20
-134.6422552831797
 10
103.1637288153549
 20
-134.7214924793405
 10
103.0645100653797
 20
-134.7259711034713
 10
102.9797607164426
 20
-134.7304497276021
 10
102.9797607164426
 20
-134.7304497276021
 10
102.9797607164426
 20
-134.4954942155081
 10
102.9797607164426
 20
-134.4954942155081
 10
103.0538302693754
 20
-134.4930826486684
 10
103.2884412719209
 20
-134.4817138335671
 10
103.2884412719209
 20
-134.1788899404136
 10
103.2884412719209
 20
-134.0317843631935
 10
103.2188503431189
 20
-133.8691758562896
 10
102.9904405124468
 20
-133.8691758562896
 10
102.8739962850454
 20
-133.8691758562896
 10
102.8254204387034
 20
-133.9098279830156
 10
102.7937255602391
 20
-133.9439344283196
 10
102.7196560073062
 20
-134.0228271149318
 10
102.7069091540108
 20
-134.1471950619493
 10
102.7069091540108
 20
-134.2061061947471
 10
102.7069091540108
 20
-134.2264322581101
 10
102.7089762113019
 20
-134.2646728179963
 10
102.7131103258842
 20
-134.2943006391695
 10
102.7131103258842
 20
-134.2943006391695
 10
102.5184624309676
 20
-134.2943006391695
 10
102.5184624309676
 20
-134.2943006391695
 10
102.5250081123896
 20
-134.2536485124435
 10
102.5270751696807
 20
-134.2081732520383
 10
102.5270751696807
 20
-134.2016275706163
 10
102.5270751696807
 20
-134.1313476227172
 10
102.5057155776722
 20
-133.9187852312772
 10
102.2690375178355
 20
-133.9187852312772
 10
102.0912705907966
 20
-133.9187852312772
 10
102.0361490630326
 20
-134.0590006175269
 10
102.0361490630326
 20
-134.1764783735739
 10
102.0361490630326
 20
-134.459320712913
 10
102.2690375178355
 20
-134.4682779611746
 10
102.3406955039287
 20
-134.4727565853054
 10
102.3406955039287
 20
-134.4727565853054
 10
102.3406955039287
 20
-134.6897976008762
 10
102.3406955039287
 20
-134.6897976008762
 10
102.2159830473627
 20
-134.6808403526145
 10
101.8394341108249
 20
-134.6515570409899
 10
101.8394341108249
 20
-134.1630425011815
 10
101.8394341108249
 20
-133.9232638554081
 10
101.9665581342306
 20
-133.6655707131114
 10
102.2624918364135
 20
-133.6655707131114
 10
102.4488715021656
 20
-133.6655707131114
 10
102.531209284263
 20
-133.7675455394748
 10
102.5925319839005
 20
-133.8736544804205
 10
102.6200927477825
 20
-133.8081976662007
 10
102.7003634725888
 20
-133.6135497712841
 10
102.9776936591514
 20
-133.6135497712841
 10
103.316002035803
 20
-133.6135497712841
 10
103.4830891668376
 20
-133.8781331045513
 10
103.4830891668376
 20
-134.1744113162828
 97
        0
 97
        0
 75
     2
 76
     1
 98
        0
  0
ENDBLK
  5
6B
330
68
100
AcDbEntity
  8
0
100
AcDbBlockEnd
  0
BLOCK
  5
72
330
70
100
AcDbEntity
  8
0
100
AcDbBlockBegin
  2
block 4
 70
     0
 10
0.0
 20
0.0
 30
0.0
  3
block 4
  1

  0
SPLINE
  5
74
330
70
100
AcDbEntity
  8
_U+30EC_U+30A4_U+30E4_U+30FC 1
370
     0
100
AcDbSpline
210
0.0
220
0.0
230
1.0
 70
    11
 71
     3
 72
    26
 73
    22
 74
     0
 42
0.0000000001
 43
0.0000000001
 12
1.0
 22
0.0
 32
0.0
 13
1.0
 23
0.0
 33
0.0
 40
0.0
 40
0.0
 40
0.0
 40
0.0
 40
1.0
 40
1.0
 40
1.0
 40
2.0
 40
2.0
 40
2.0
 40
3.0
 40
3.0
 40
3.0
 40
4.0
 40
4.0
 40
4.0
 40
5.0
 40
5.0
 40
5.0
 40
6.0
 40
6.0
 40
6.0
 40
7.0
 40
7.0
 40
7.0
 40
7.0
 10
103.4324462632044
 20
-143.9653726853628
 30
0.0
 10
103.4324462632044
 20
-143.9653726853628
 30
0.0
 10
102.3282931601818
 20
-143.9653726853628
 30
0.0
 10
102.3282931601818
 20
-143.9653726853628
 30
0.0
 10
102.3282931601818
 20
-143.9653726853628
 30
0.0
 10
102.3282931601818
 20
-144.3178059535039
 30
0.0
 10
102.3282931601818
 20
-144.3178059535039
 30
0.0
 10
102.3282931601818
 20
-144.3178059535039
 30
0.0
 10
102.1801540543161
 20
-144.3178059535039
 30
0.0
 10
102.1801540543161
 20
-144.3178059535039
 30
0.0
 10
102.1653401437295
 20
-143.9629611185232
 30
0.0
 10
102.0023871272772
 20
-143.9133517435356
 30
0.0
 10
101.8880099571669
 20
-143.8816568650712
 30
0.0
 10
101.8880099571669
 20
-143.8816568650712
 30
0.0
 10
101.8880099571669
 20
-143.7255940395895
 30
0.0
 10
101.8880099571669
 20
-143.7255940395895
 30
0.0
 10
101.8880099571669
 20
-143.7255940395895
 30
0.0
 10
103.4324462632044
 20
-143.7255940395895
 30
0.0
 10
103.4324462632044
 20
-143.7255940395895
 30
0.0
 10
103.4324462632044
 20
-143.7255940395895
 30
0.0
 10
103.4324462632044
 20
-143.9653726853628
 30
0.0
 10
103.4324462632044
 20
-143.9653726853628
 30
0.0
  0
HATCH
  5
75
330
70
100
AcDbEntity
  8
_U+30EC_U+30A4_U+30E4_U+30FC 1
 62
     7
420
 16777215
100
AcDbHatch
 10
0.0
 20
0.0
 30
0.0
210
0.0
220
0.0
230
1.0
  2
SOLID
 70
     1
 71
     0
 91
        1
 92
        1
 93
        1
 72
     4
 94
        3
 73
     0
 74
     1
 95
       26
 96
       22
 40
0.0
 40
0.0
 40
0.0
 40
0.0
 40
1.0
 40
1.0
 40
1.0
 40
2.0
 40
2.0
 40
2.0
 40
3.0
 40
3.0
 40
3.0
 40
4.0
 40
4.0
 40
4.0
 40
5.0
 40
5.0
 40
5.0
 40
6.0
 40
6.0
 40
6.0
 40
7.0
 40
7.0
 40
7.0
 40
7.0
 10
103.4324462632044
 20
-143.9653726853628
 10
103.4324462632044
 20
-143.9653726853628
 10
102.3282931601818
 20
-143.9653726853628
 10
102.3282931601818
 20
-143.9653726853628
 10
102.3282931601818
 20
-143.9653726853628
 10
102.3282931601818
 20
-144.3178059535039
 10
102.3282931601818
 20
-144.3178059535039
 10
102.3282931601818
 20
-144.3178059535039
 10
102.1801540543161
 20
-144.3178059535039
 10
102.1801540543161
 20
-144.3178059535039
 10
102.1653401437295
 20
-143.9629611185232
 10
102.0023871272772
 20
-143.9133517435356
 10
101.8880099571669
 20
-143.8816568650712
 10
101.8880099571669
 20
-143.8816568650712
 10
101.8880099571669
 20
-143.7255940395895
 10
101.8880099571669
 20
-143.7255940395895
 10
101.8880099571669
 20
-143.7255940395895
 10
103.4324462632044
 20
-143.7255940395895
 10
103.4324462632044
 20
-143.7255940395895
 10
103.4324462632044
 20
-143.7255940395895
 10
103.4324462632044
 20
-143.9653726853628
 10
103.4324462632044
 20
-143.9653726853628
 97
        0
 97
        0
 75
     2
 76
     1
 98
        0
  0
ENDBLK
  5
73
330
70
100
AcDbEntity
  8
0
100
AcDbBlockEnd
  0
BLOCK
  5
88
330
86
100
AcDbEntity
  8
0
100
AcDbBlockBegin
  2
block 5
 70
     0
 10
0.0
 20
0.0
 30
0.0
  3
block 5
  1

  0
SPLINE
  5
8A
330
86
100
AcDbEntity
  8
_U+30EC_U+30A4_U+30E4_U+30FC 1
370
     0
100
AcDbSpline
210
0.0
220
0.0
230
1.0
 70
    11
 71
     3
 72
    26
 73
    22
 74
     0
 42
0.0000000001
 43
0.0000000001
 12
1.0
 22
0.0
 32
0.0
 13
1.0
 23
0.0
 33
0.0
 40
0.0
 40
0.0
 40
0.0
 40
0.0
 40
1.0
 40
1.0
 40
1.0
 40
2.0
 40
2.0
 40
2.0
 40
3.0
 40
3.0
 40
3.0
 40
4.0
 40
4.0
 40
4.0
 40
5.0
 40
5.0
 40
5.0
 40
6.0
 40
6.0
 40
6.0
 40
7.0
 40
7.0
 40
7.0
 40
7.0
 10
80.62935924633572
 20
-139.8061089060207
 30
0.0
 10
80.62935924633572
 20
-139.8061089060207
 30
0.0
 10
81.41380748832711
 20
-139.0288953645483
 30
0.0
 10
81.41380748832711
 20
-139.0288953645483
 30
0.0
 10
81.41380748832711
 20
-139.0288953645483
 30
0.0
 10
81.16576061338912
 20
-138.7784369227707
 30
0.0
 10
81.16576061338912
 20
-138.7784369227707
 30
0.0
 10
81.16576061338912
 20
-138.7784369227707
 30
0.0
 10
81.2710082804635
 20
-138.6740505295676
 30
0.0
 10
81.2710082804635
 20
-138.6740505295676
 30
0.0
 10
81.53128524437413
 20
-138.9158962326322
 30
0.0
 10
81.68200817185381
 20
-138.8366590364714
 30
0.0
 10
81.7853610364113
 20
-138.7784369227707
 30
0.0
 10
81.7853610364113
 20
-138.7784369227707
 30
0.0
 10
81.89525958239078
 20
-138.8893689973957
 30
0.0
 10
81.89525958239078
 20
-138.8893689973957
 30
0.0
 10
81.89525958239078
 20
-138.8893689973957
 30
0.0
 10
80.79816892511296
 20
-139.976296622992
 30
0.0
 10
80.79816892511296
 20
-139.976296622992
 30
0.0
 10
80.79816892511296
 20
-139.976296622992
 30
0.0
 10
80.62935924633572
 20
-139.8061089060207
 30
0.0
 10
80.62935924633572
 20
-139.8061089060207
 30
0.0
  0
HATCH
  5
8B
330
86
100
AcDbEntity
  8
_U+30EC_U+30A4_U+30E4_U+30FC 1
 62
     7
420
 16777215
100
AcDbHatch
 10
0.0
 20
0.0
 30
0.0
210
0.0
220
0.0
230
1.0
  2
SOLID
 70
     1
 71
     0
 91
        1
 92
        1
 93
        1
 72
     4
 94
        3
 73
     0
 74
     1
 95
       26
 96
       22
 40
0.0
 40
0.0
 40
0.0
 40
0.0
 40
1.0
 40
1.0
 40
1.0
 40
2.0
 40
2.0
 40
2.0
 40
3.0
 40
3.0
 40
3.0
 40
4.0
 40
4.0
 40
4.0
 40
5.0
 40
5.0
 40
5.0
 40
6.0
 40
6.0
 40
6.0
 40
7.0
 40
7.0
 40
7.0
 40
7.0
 10
80.62935924633572
 20
-139.8061089060207
 10
80.62935924633572
 20
-139.8061089060207
 10
81.41380748832711
 20
-139.0288953645483
 10
81.41380748832711
 20
-139.0288953645483
 10
81.41380748832711
 20
-139.0288953645483
 10
81.16576061338912
 20
-138.7784369227707
 10
81.16576061338912
 20
-138.7784369227707
 10
81.16576061338912
 20
-138.7784369227707
 10
81.2710082804635
 20
-138.6740505295676
 10
81.2710082804635
 20
-138.6740505295676
 10
81.53128524437413
 20
-138.9158962326322
 10
81.68200817185381
 20
-138.8366590364714
 10
81.7853610364113
 20
-138.7784369227707
 10
81.7853610364113
 20
-138.7784369227707
 10
81.89525958239078
 20
-138.8893689973957
 10
81.89525958239078
 20
-138.8893689973957
 10
81.89525958239078
 20
-138.8893689973957
 10
80.79816892511296
 20
-139.976296622992
 10
80.79816892511296
 20
-139.976296622992
 10
80.79816892511296
 20
-139.976296622992
 10
80.62935924633572
 20
-139.8061089060207
 10
80.62935924633572
 20
-139.8061089060207
 97
        0
 97
        0
 75
     2
 76
     1
 98
        0
  0
SPLINE
  5
8C
330
86
100
AcDbEntity
  8
_U+30EC_U+30A4_U+30E4_U+30FC 1
370
     0
100
AcDbSpline
210
0.0
220
0.0
230
1.0
 70
    11
 71
     3
 72
    29
 73
    25
 74
     0
 42
0.0000000001
 43
0.0000000001
 12
1.0
 22
0.0
 32
0.0
 13
1.0
 23
0.0
 33
0.0
 40
0.0
 40
0.0
 40
0.0
 40
0.0
 40
1.0
 40
1.0
 40
1.0
 40
2.0
 40
2.0
 40
2.0
 40
3.0
 40
3.0
 40
3.0
 40
4.0
 40
4.0
 40
4.0
 40
5.0
 40
5.0
 40
5.0
 40
6.0
 40
6.0
 40
6.0
 40
7.0
 40
7.0
 40
7.0
 40
8.0
 40
8.0
 40
8.0
 40
8.0
 10
81.97673609061692
 20
-140.91336259498
 30
0.0
 10
81.74660371220224
 20
-140.9788194091998
 30
0.0
 10
81.60277097569306
 20
-140.8603081245072
 30
0.0
 10
81.51526555036772
 20
-140.7721136800847
 30
0.0
 10
81.39451495360971
 20
-140.6501572999069
 30
0.0
 10
81.32078991022536
 20
-140.5095974041087
 30
0.0
 10
81.3784952596033
 20
-140.3097818659642
 30
0.0
 10
81.43878443059516
 20
-140.0941188885876
 30
0.0
 10
81.59260794401158
 20
-139.9129068660635
 30
0.0
 10
81.70836315231597
 20
-139.7981851864046
 30
0.0
 10
81.81068248822788
 20
-139.6968993791383
 30
0.0
 10
82.00240205198205
 20
-139.5325683244919
 30
0.0
 10
82.22306041781229
 20
-139.472968172597
 30
0.0
 10
82.44819740777338
 20
-139.4119899825081
 30
0.0
 10
82.58600122718336
 20
-139.5174099043568
 30
0.0
 10
82.68298066509315
 20
-139.6152506161379
 30
0.0
 10
82.80252547843132
 20
-139.7361734676701
 30
0.0
 10
82.87900659820386
 20
-139.8763888539198
 30
0.0
 10
82.82130124882593
 20
-140.0768934111613
 30
0.0
 10
82.75946178486569
 20
-140.2877332548586
 30
0.0
 10
82.61459551971093
 20
-140.4661892009946
 30
0.0
 10
82.49126110133899
 20
-140.5884900907209
 30
0.0
 10
82.36964923070967
 20
-140.7090684327047
 30
0.0
 10
82.18981524637964
 20
-140.8547959717307
 30
0.0
 10
81.97673609061692
 20
-140.91336259498
 30
0.0
  0
SPLINE
  5
8D
330
86
100
AcDbEntity
  8
_U+30EC_U+30A4_U+30E4_U+30FC 1
370
     0
100
AcDbSpline
210
0.0
220
0.0
230
1.0
 70
    11
 71
     3
 72
    17
 73
    13
 74
     0
 42
0.0000000001
 43
0.0000000001
 12
1.0
 22
0.0
 32
0.0
 13
1.0
 23
0.0
 33
0.0
 40
0.0
 40
0.0
 40
0.0
 40
0.0
 40
1.0
 40
1.0
 40
1.0
 40
2.0
 40
2.0
 40
2.0
 40
3.0
 40
3.0
 40
3.0
 40
4.0
 40
4.0
 40
4.0
 40
4.0
 10
82.54621037432872
 20
-139.7509873782567
 30
0.0
 10
82.35845267038262
 20
-139.561507126568
 30
0.0
 10
82.12211912009447
 20
-139.7258381812144
 30
0.0
 10
81.8771728310932
 20
-139.9687174129245
 30
0.0
 10
81.6503132933895
 20
-140.1933376385628
 30
0.0
 10
81.4579047105383
 20
-140.437594908467
 30
0.0
 10
81.6535861341005
 20
-140.6349988797718
 30
0.0
 10
81.83979354507825
 20
-140.8231010932664
 30
0.0
 10
82.07595484059213
 20
-140.6625596436538
 30
0.0
 10
82.32245142256176
 20
-140.4179578642011
 30
0.0
 10
82.54948321503971
 20
-140.1933376385628
 30
0.0
 10
82.74034150492255
 20
-139.9470133113674
 30
0.0
 10
82.54621037432872
 20
-139.7509873782567
 30
0.0
  0
HATCH
  5
8E
330
86
100
AcDbEntity
  8
_U+30EC_U+30A4_U+30E4_U+30FC 1
 62
     7
420
 16777215
100
AcDbHatch
 10
0.0
 20
0.0
 30
0.0
210
0.0
220
0.0
230
1.0
  2
SOLID
 70
     1
 71
     0
 91
        2
 92
        1
 93
        1
 72
     4
 94
        3
 73
     0
 74
     1
 95
       29
 96
       25
 40
0.0
 40
0.0
 40
0.0
 40
0.0
 40
1.0
 40
1.0
 40
1.0
 40
2.0
 40
2.0
 40
2.0
 40
3.0
 40
3.0
 40
3.0
 40
4.0
 40
4.0
 40
4.0
 40
5.0
 40
5.0
 40
5.0
 40
6.0
 40
6.0
 40
6.0
 40
7.0
 40
7.0
 40
7.0
 40
8.0
 40
8.0
 40
8.0
 40
8.0
 10
81.97673609061692
 20
-140.91336259498
 10
81.74660371220224
 20
-140.9788194091998
 10
81.60277097569306
 20
-140.8603081245072
 10
81.51526555036772
 20
-140.7721136800847
 10
81.39451495360971
 20
-140.6501572999069
 10
81.32078991022536
 20
-140.5095974041087
 10
81.3784952596033
 20
-140.3097818659642
 10
81.43878443059516
 20
-140.0941188885876
 10
81.59260794401158
 20
-139.9129068660635
 10
81.70836315231597
 20
-139.7981851864046
 10
81.81068248822788
 20
-139.6968993791383
 10
82.00240205198205
 20
-139.5325683244919
 10
82.22306041781229
 20
-139.472968172597
 10
82.44819740777338
 20
-139.4119899825081
 10
82.58600122718336
 20
-139.5174099043568
 10
82.68298066509315
 20
-139.6152506161379
 10
82.80252547843132
 20
-139.7361734676701
 10
82.87900659820386
 20
-139.8763888539198
 10
82.82130124882593
 20
-140.0768934111613
 10
82.75946178486569
 20
-140.2877332548586
 10
82.61459551971093
 20
-140.4661892009946
 10
82.49126110133899
 20
-140.5884900907209
 10
82.36964923070967
 20
-140.7090684327047
 10
82.18981524637964
 20
-140.8547959717307
 10
81.97673609061692
 20
-140.91336259498
 97
        0
 97
        0
 92
        1
 93
        1
 72
     4
 94
        3
 73
     0
 74
     1
 95
       17
 96
       13
 40
0.0
 40
0.0
 40
0.0
 40
0.0
 40
1.0
 40
1.0
 40
1.0
 40
2.0
 40
2.0
 40
2.0
 40
3.0
 40
3.0
 40
3.0
 40
4.0
 40
4.0
 40
4.0
 40
4.0
 10
82.54621037432872
 20
-139.7509873782567
 10
82.35845267038262
 20
-139.561507126568
 10
82.12211912009447
 20
-139.7258381812144
 10
81.8771728310932
 20
-139.9687174129245
 10
81.6503132933895
 20
-140.1933376385628
 10
81.4579047105383
 20
-140.437594908467
 10
81.6535861341005
 20
-140.6349988797718
 10
81.83979354507825
 20
-140.8231010932664
 10
82.07595484059213
 20
-140.6625596436538
 10
82.32245142256176
 20
-140.4179578642011
 10
82.54948321503971
 20
-140.1933376385628
 10
82.74034150492255
 20
-139.9470133113674
 10
82.54621037432872
 20
-139.7509873782567
 97
        0
 97
        0
 75
     2
 76
     1
 98
        0
  0
ENDBLK
  5
89
330
86
100
AcDbEntity
  8
0
100
AcDbBlockEnd
  0
BLOCK
  5
9B
330
99
100
AcDbEntity
  8
0
100
AcDbBlockBegin
  2
block 6
 70
     0
 10
0.0
 20
0.0
 30
0.0
  3
block 6
  1

  0
SPLINE
  5
9D
330
99
100
AcDbEntity
  8
_U+30EC_U+30A4_U+30E4_U+30FC 1
370
     0
100
AcDbSpline
210
0.0
220
0.0
230
1.0
 70
    11
 71
     3
 72
    26
 73
    22
 74
     0
 42
0.0000000001
 43
0.0000000001
 12
1.0
 22
0.0
 32
0.0
 13
1.0
 23
0.0
 33
0.0
 40
0.0
 40
0.0
 40
0.0
 40
0.0
 40
1.0
 40
1.0
 40
1.0
 40
2.0
 40
2.0
 40
2.0
 40
3.0
 40
3.0
 40
3.0
 40
4.0
 40
4.0
 40
4.0
 40
5.0
 40
5.0
 40
5.0
 40
6.0
 40
6.0
 40
6.0
 40
7.0
 40
7.0
 40
7.0
 40
7.0
 10
86.87893471135318
 20
-118.3035454348338
 30
0.0
 10
86.87893471135318
 20
-118.3035454348338
 30
0.0
 10
87.66131589605342
 20
-117.5246093456189
 30
0.0
 10
87.66131589605342
 20
-117.5246093456189
 30
0.0
 10
87.66131589605342
 20
-117.5246093456189
 30
0.0
 10
87.41258000201839
 20
-117.2744954133897
 30
0.0
 10
87.41258000201839
 20
-117.2744954133897
 30
0.0
 10
87.41258000201839
 20
-117.2744954133897
 30
0.0
 10
87.51748315954424
 20
-117.1701090201866
 30
0.0
 10
87.51748315954424
 20
-117.1701090201866
 30
0.0
 10
87.77844914255192
 20
-117.4112657041541
 30
0.0
 10
87.92882756048307
 20
-117.3313394888963
 30
0.0
 10
88.03235267981484
 20
-117.2731173751956
 30
0.0
 10
88.03235267981484
 20
-117.2731173751956
 30
0.0
 10
88.14242348056857
 20
-117.3837049402721
 30
0.0
 10
88.14242348056857
 20
-117.3837049402721
 30
0.0
 10
88.14242348056857
 20
-117.3837049402721
 30
0.0
 10
87.04808889967896
 20
-118.4733886422567
 30
0.0
 10
87.04808889967896
 20
-118.4733886422567
 30
0.0
 10
87.04808889967896
 20
-118.4733886422567
 30
0.0
 10
86.87893471135318
 20
-118.3035454348338
 30
0.0
 10
86.87893471135318
 20
-118.3035454348338
 30
0.0
  0
HATCH
  5
9E
330
99
100
AcDbEntity
  8
_U+30EC_U+30A4_U+30E4_U+30FC 1
 62
     7
420
 16777215
100
AcDbHatch
 10
0.0
 20
0.0
 30
0.0
210
0.0
220
0.0
230
1.0
  2
SOLID
 70
     1
 71
     0
 91
        1
 92
        1
 93
        1
 72
     4
 94
        3
 73
     0
 74
     1
 95
       26
 96
       22
 40
0.0
 40
0.0
 40
0.0
 40
0.0
 40
1.0
 40
1.0
 40
1.0
 40
2.0
 40
2.0
 40
2.0
 40
3.0
 40
3.0
 40
3.0
 40
4.0
 40
4.0
 40
4.0
 40
5.0
 40
5.0
 40
5.0
 40
6.0
 40
6.0
 40
6.0
 40
7.0
 40
7.0
 40
7.0
 40
7.0
 10
86.87893471135318
 20
-118.3035454348338
 10
86.87893471135318
 20
-118.3035454348338
 10
87.66131589605342
 20
-117.5246093456189
 10
87.66131589605342
 20
-117.5246093456189
 10
87.66131589605342
 20
-117.5246093456189
 10
87.41258000201839
 20
-117.2744954133897
 10
87.41258000201839
 20
-117.2744954133897
 10
87.41258000201839
 20
-117.2744954133897
 10
87.51748315954424
 20
-117.1701090201866
 10
87.51748315954424
 20
-117.1701090201866
 10
87.77844914255192
 20
-117.4112657041541
 10
87.92882756048307
 20
-117.3313394888963
 10
88.03235267981484
 20
-117.2731173751956
 10
88.03235267981484
 20
-117.2731173751956
 10
88.14242348056857
 20
-117.3837049402721
 10
88.14242348056857
 20
-117.3837049402721
 10
88.14242348056857
 20
-117.3837049402721
 10
87.04808889967896
 20
-118.4733886422567
 10
87.04808889967896
 20
-118.4733886422567
 10
87.04808889967896
 20
-118.4733886422567
 10
86.87893471135318
 20
-118.3035454348338
 10
86.87893471135318
 20
-118.3035454348338
 97
        0
 97
        0
 75
     2
 76
     1
 98
        0
  0
SPLINE
  5
9F
330
99
100
AcDbEntity
  8
_U+30EC_U+30A4_U+30E4_U+30FC 1
370
     0
100
AcDbSpline
210
0.0
220
0.0
230
1.0
 70
    11
 71
     3
 72
    29
 73
    25
 74
     0
 42
0.0000000001
 43
0.0000000001
 12
1.0
 22
0.0
 32
0.0
 13
1.0
 23
0.0
 33
0.0
 40
0.0
 40
0.0
 40
0.0
 40
0.0
 40
1.0
 40
1.0
 40
1.0
 40
2.0
 40
2.0
 40
2.0
 40
3.0
 40
3.0
 40
3.0
 40
4.0
 40
4.0
 40
4.0
 40
5.0
 40
5.0
 40
5.0
 40
6.0
 40
6.0
 40
6.0
 40
7.0
 40
7.0
 40
7.0
 40
8.0
 40
8.0
 40
8.0
 40
8.0
 10
87.76725258222486
 20
-119.2674831516067
 30
0.0
 10
87.56623126066053
 20
-119.0656005561711
 30
0.0
 10
87.47235240868747
 20
-118.7765570449587
 30
0.0
 10
87.71953800975415
 20
-118.5302327177633
 30
0.0
 10
87.90092228705255
 20
-118.3497097143362
 30
0.0
 10
88.0752441186062
 20
-118.3900173315136
 30
0.0
 10
88.19857853697813
 20
-118.4265353436573
 30
0.0
 10
88.1463853403766
 20
-118.2904540719899
 30
0.0
 10
88.1698119896763
 20
-118.1519612334829
 30
0.0
 10
88.28384465023807
 20
-118.0382730824696
 30
0.0
 10
88.47866479992895
 20
-117.84431420665
 30
0.0
 10
88.72464461757579
 20
-117.899435734414
 30
0.0
 10
88.93203936578783
 20
-118.1075195017231
 30
0.0
 10
89.14597979542184
 20
-118.3224934600027
 30
0.0
 10
89.18714868647058
 20
-118.568128768101
 30
0.0
 10
88.99852970865315
 20
-118.7558864720472
 30
0.0
 10
88.88449704809138
 20
-118.8695746230604
 30
0.0
 10
88.74462617139024
 20
-118.8909342150689
 30
0.0
 10
88.6083726449486
 20
-118.8382242541446
 30
0.0
 10
88.63955075909011
 20
-118.9412326091536
 30
0.0
 10
88.69174395569165
 20
-119.1286458035512
 30
0.0
 10
88.50570879948816
 20
-119.3139919406576
 30
0.0
 10
88.24043644712393
 20
-119.5778862548278
 30
0.0
 10
87.94760333087768
 20
-119.4483506645824
 30
0.0
 10
87.76725258222486
 20
-119.2674831516067
 30
0.0
  0
SPLINE
  5
A0
330
99
100
AcDbEntity
  8
_U+30EC_U+30A4_U+30E4_U+30FC 1
370
     0
100
AcDbSpline
210
0.0
220
0.0
230
1.0
 70
    11
 71
     3
 72
    17
 73
    13
 74
     0
 42
0.0000000001
 43
0.0000000001
 12
1.0
 22
0.0
 32
0.0
 13
1.0
 23
0.0
 33
0.0
 40
0.0
 40
0.0
 40
0.0
 40
0.0
 40
1.0
 40
1.0
 40
1.0
 40
2.0
 40
2.0
 40
2.0
 40
3.0
 40
3.0
 40
3.0
 40
4.0
 40
4.0
 40
4.0
 40
4.0
 10
88.327769617675
 20
-118.7093776829963
 30
0.0
 10
88.21924910988963
 20
-118.6005126656624
 30
0.0
 10
88.0430324758191
 20
-118.546424666544
 30
0.0
 10
87.89919973930992
 20
-118.6897406387303
 30
0.0
 10
87.75381670983238
 20
-118.8344346491108
 30
0.0
 10
87.77758786868061
 20
-119.001866289694
 30
0.0
 10
87.90522865640911
 20
-119.1300238417453
 30
0.0
 10
88.04561629743304
 20
-119.2712727566405
 30
0.0
 10
88.21563175963013
 20
-119.2678276611553
 30
0.0
 10
88.341549999616
 20
-119.1424261854922
 30
0.0
 10
88.4986463537434
 20
-118.9860188504618
 30
0.0
 10
88.4283664058443
 20
-118.8103189807141
 30
0.0
 10
88.327769617675
 20
-118.7093776829963
 30
0.0
  0
SPLINE
  5
A1
330
99
100
AcDbEntity
  8
_U+30EC_U+30A4_U+30E4_U+30FC 1
370
     0
100
AcDbSpline
210
0.0
220
0.0
230
1.0
 70
    11
 71
     3
 72
    17
 73
    13
 74
     0
 42
0.0000000001
 43
0.0000000001
 12
1.0
 22
0.0
 32
0.0
 13
1.0
 23
0.0
 33
0.0
 40
0.0
 40
0.0
 40
0.0
 40
0.0
 40
1.0
 40
1.0
 40
1.0
 40
2.0
 40
2.0
 40
2.0
 40
3.0
 40
3.0
 40
3.0
 40
4.0
 40
4.0
 40
4.0
 40
4.0
 10
88.79544132979767
 20
-118.2436007733905
 30
0.0
 10
88.67124563755442
 20
-118.1188883168245
 30
0.0
 10
88.53981524479214
 20
-118.1216443932126
 30
0.0
 10
88.44386933552792
 20
-118.2170735381541
 30
0.0
 10
88.35705292929963
 20
-118.3038899443824
 30
0.0
 10
88.32725285335222
 20
-118.4416937637924
 30
0.0
 10
88.46126706772844
 20
-118.5763969972656
 30
0.0
 10
88.59545353687892
 20
-118.7111002307389
 30
0.0
 10
88.7337741206117
 20
-118.6818169191143
 30
0.0
 10
88.82059052684
 20
-118.5953450224345
 30
0.0
 10
88.91653643610421
 20
-118.4995713679446
 30
0.0
 10
88.9184312386211
 20
-118.367279701311
 30
0.0
 10
88.79544132979767
 20
-118.2436007733905
 30
0.0
  0
HATCH
  5
A2
330
99
100
AcDbEntity
  8
_U+30EC_U+30A4_U+30E4_U+30FC 1
 62
     7
420
 16777215
100
AcDbHatch
 10
0.0
 20
0.0
 30
0.0
210
0.0
220
0.0
230
1.0
  2
SOLID
 70
     1
 71
     0
 91
        3
 92
        1
 93
        1
 72
     4
 94
        3
 73
     0
 74
     1
 95
       29
 96
       25
 40
0.0
 40
0.0
 40
0.0
 40
0.0
 40
1.0
 40
1.0
 40
1.0
 40
2.0
 40
2.0
 40
2.0
 40
3.0
 40
3.0
 40
3.0
 40
4.0
 40
4.0
 40
4.0
 40
5.0
 40
5.0
 40
5.0
 40
6.0
 40
6.0
 40
6.0
 40
7.0
 40
7.0
 40
7.0
 40
8.0
 40
8.0
 40
8.0
 40
8.0
 10
87.76725258222486
 20
-119.2674831516067
 10
87.56623126066053
 20
-119.0656005561711
 10
87.47235240868747
 20
-118.7765570449587
 10
87.71953800975415
 20
-118.5302327177633
 10
87.90092228705255
 20
-118.3497097143362
 10
88.0752441186062
 20
-118.3900173315136
 10
88.19857853697813
 20
-118.4265353436573
 10
88.1463853403766
 20
-118.2904540719899
 10
88.1698119896763
 20
-118.1519612334829
 10
88.28384465023807
 20
-118.0382730824696
 10
88.47866479992895
 20
-117.84431420665
 10
88.72464461757579
 20
-117.899435734414
 10
88.93203936578783
 20
-118.1075195017231
 10
89.14597979542184
 20
-118.3224934600027
 10
89.18714868647058
 20
-118.568128768101
 10
88.99852970865315
 20
-118.7558864720472
 10
88.88449704809138
 20
-118.8695746230604
 10
88.74462617139024
 20
-118.8909342150689
 10
88.6083726449486
 20
-118.8382242541446
 10
88.63955075909011
 20
-118.9412326091536
 10
88.69174395569165
 20
-119.1286458035512
 10
88.50570879948816
 20
-119.3139919406576
 10
88.24043644712393
 20
-119.5778862548278
 10
87.94760333087768
 20
-119.4483506645824
 10
87.76725258222486
 20
-119.2674831516067
 97
        0
 97
        0
 92
        1
 93
        1
 72
     4
 94
        3
 73
     0
 74
     1
 95
       17
 96
       13
 40
0.0
 40
0.0
 40
0.0
 40
0.0
 40
1.0
 40
1.0
 40
1.0
 40
2.0
 40
2.0
 40
2.0
 40
3.0
 40
3.0
 40
3.0
 40
4.0
 40
4.0
 40
4.0
 40
4.0
 10
88.327769617675
 20
-118.7093776829963
 10
88.21924910988963
 20
-118.6005126656624
 10
88.0430324758191
 20
-118.546424666544
 10
87.89919973930992
 20
-118.6897406387303
 10
87.75381670983238
 20
-118.8344346491108
 10
87.77758786868061
 20
-119.001866289694
 10
87.90522865640911
 20
-119.1300238417453
 10
88.04561629743304
 20
-119.2712727566405
 10
88.21563175963013
 20
-119.2678276611553
 10
88.341549999616
 20
-119.1424261854922
 10
88.4986463537434
 20
-118.9860188504618
 10
88.4283664058443
 20
-118.8103189807141
 10
88.327769617675
 20
-118.7093776829963
 97
        0
 97
        0
 92
        1
 93
        1
 72
     4
 94
        3
 73
     0
 74
     1
 95
       17
 96
       13
 40
0.0
 40
0.0
 40
0.0
 40
0.0
 40
1.0
 40
1.0
 40
1.0
 40
2.0
 40
2.0
 40
2.0
 40
3.0
 40
3.0
 40
3.0
 40
4.0
 40
4.0
 40
4.0
 40
4.0
 10
88.79544132979767
 20
-118.2436007733905
 10
88.67124563755442
 20
-118.1188883168245
 10
88.53981524479214
 20
-118.1216443932126
 10
88.44386933552792
 20
-118.2170735381541
 10
88.35705292929963
 20
-118.3038899443824
 10
88.32725285335222
 20
-118.4416937637924
 10
88.46126706772844
 20
-118.5763969972656
 10
88.59545353687892
 20
-118.7111002307389
 10
88.7337741206117
 20
-118.6818169191143
 10
88.82059052684
 20
-118.5953450224345
 10
88.91653643610421
 20
-118.4995713679446
 10
88.9184312386211
 20
-118.367279701311
 10
88.79544132979767
 20
-118.2436007733905
 97
        0
 97
        0
 75
     2
 76
     1
 98
        0
  0
ENDBLK
  5
9C
330
99
100
AcDbEntity
  8
0
100
AcDbBlockEnd
  0
ENDSEC
  0
SECTION
  2
ENTITIES
  0
SPLINE
  5
41
330
1F
100
AcDbEntity
  8
_U+30EC_U+30A4_U+30E4_U+30FC 1
 62
     7
420
 16777215
370
     9
100
AcDbSpline
210
0.0
220
0.0
230
1.0
 70
    11
 71
     3
 72
    17
 73
    13
 74
     0
 42
0.0000000001
 43
0.0000000001
 12
1.0
 22
0.0
 32
0.0
 13
1.0
 23
0.0
 33
0.0
 40
0.0
 40
0.0
 40
0.0
 40
0.0
 40
1.0
 40
1.0
 40
1.0
 40
2.0
 40
2.0
 40
2.0
 40
3.0
 40
3.0
 40
3.0
 40
4.0
 40
4.0
 40
4.0
 40
4.0
 10
89.57867160354658
 20
-124.0997433023084
 30
0.0
 10
89.57867160354658
 20
-124.0446394134332
 30
0.0
 10
89.5339041046887
 20
-123.9998366356668
 30
0.0
 10
89.47809466166807
 20
-123.9998366356668
 30
0.0
 10
89.42295549640812
 20
-123.9998366356668
 30
0.0
 10
89.37818799755023
 20
-124.0446394134332
 30
0.0
 10
89.37818799755023
 20
-124.0997433023084
 30
0.0
 10
89.37818799755023
 20
-124.1555527467389
 30
0.0
 10
89.42295549640812
 20
-124.2003555245056
 30
0.0
 10
89.47809466166807
 20
-124.2003555245056
 30
0.0
 10
89.5339041046887
 20
-124.2003555245056
 30
0.0
 10
89.57867160354658
 20
-124.1555527467389
 30
0.0
 10
89.57867160354658
 20
-124.0997433023084
 30
0.0
  0
SPLINE
  5
42
330
1F
100
AcDbEntity
  8
_U+30EC_U+30A4_U+30E4_U+30FC 1
 62
     7
420
 16777215
370
     9
100
AcDbSpline
210
0.0
220
0.0
230
1.0
 70
    11
 71
     3
 72
    17
 73
    13
 74
     0
 42
0.0000000001
 43
0.0000000001
 12
1.0
 22
0.0
 32
0.0
 13
1.0
 23
0.0
 33
0.0
 40
0.0
 40
0.0
 40
0.0
 40
0.0
 40
1.0
 40
1.0
 40
1.0
 40
2.0
 40
2.0
 40
2.0
 40
3.0
 40
3.0
 40
3.0
 40
4.0
 40
4.0
 40
4.0
 40
4.0
 10
96.40686170712272
 20
-126.9281744127125
 30
0.0
 10
96.40686170712272
 20
-126.8730352460594
 30
0.0
 10
96.36205893048795
 20
-126.8282677460708
 30
0.0
 10
96.30695504300488
 20
-126.8282677460708
 30
0.0
 10
96.25181587774493
 20
-126.8282677460708
 30
0.0
 10
96.20704837888705
 20
-126.8730352460594
 30
0.0
 10
96.20704837888705
 20
-126.9281744127125
 30
0.0
 10
96.20704837888705
 20
-126.9839838571429
 30
0.0
 10
96.25181587774493
 20
-127.0287513571318
 30
0.0
 10
96.30695504300488
 20
-127.0287513571318
 30
0.0
 10
96.36205893048795
 20
-127.0287513571318
 30
0.0
 10
96.40686170712272
 20
-126.9839838571429
 30
0.0
 10
96.40686170712272
 20
-126.9281744127125
 30
0.0
  0
SPLINE
  5
43
330
1F
100
AcDbEntity
  8
_U+30EC_U+30A4_U+30E4_U+30FC 1
 62
     7
420
 16777215
370
     9
100
AcDbSpline
210
0.0
220
0.0
230
1.0
 70
     8
 71
     3
 72
    11
 73
     7
 74
     0
 42
0.0000000001
 43
0.0000000001
 12
1.0
 22
0.0
 32
0.0
 13
1.0
 23
0.0
 33
0.0
 40
0.0
 40
0.0
 40
0.0
 40
0.0
 40
1.0
 40
1.0
 40
1.0
 40
2.0
 40
2.0
 40
2.0
 40
2.0
 10
96.30695504300488
 20
-126.9281744127125
 30
0.0
 10
96.30695504300488
 20
-124.7191858021536
 30
0.0
 10
94.51618453313569
 20
-122.9284152470456
 30
0.0
 10
92.3065257006199
 20
-122.9284152470456
 30
0.0
 10
91.2461110054511
 20
-122.9284152470456
 30
0.0
 10
90.22841769808129
 20
-123.3500905247181
 30
0.0
 10
89.47809466166807
 20
-124.0997433023084
 30
0.0
  0
INSERT
  5
45
330
1F
100
AcDbEntity
  8
_U+30EC_U+30A4_U+30E4_U+30FC 1
100
AcDbBlockReference
  2
block 2
 10
0.0
 20
0.0
 30
0.0
  0
SPLINE
  5
51
330
1F
100
AcDbEntity
  8
_U+30EC_U+30A4_U+30E4_U+30FC 1
 62
     7
420
 16777215
370
     9
100
AcDbSpline
210
0.0
220
0.0
230
1.0
 70
    11
 71
     3
 72
    17
 73
    13
 74
     0
 42
0.0000000001
 43
0.0000000001
 12
1.0
 22
0.0
 32
0.0
 13
1.0
 23
0.0
 33
0.0
 40
0.0
 40
0.0
 40
0.0
 40
0.0
 40
1.0
 40
1.0
 40
1.0
 40
2.0
 40
2.0
 40
2.0
 40
3.0
 40
3.0
 40
3.0
 40
4.0
 40
4.0
 40
4.0
 40
4.0
 10
104.1287110850788
 20
-142.0536980200419
 30
0.0
 10
104.1287110850788
 20
-141.9985588533895
 30
0.0
 10
104.0846138628676
 20
-141.9537913534003
 30
0.0
 10
104.0288017904486
 20
-141.9537913534003
 30
0.0
 10
103.9736626251887
 20
-141.9537913534003
 30
0.0
 10
103.9288951263308
 20
-141.9985588533895
 30
0.0
 10
103.9288951263308
 20
-142.0536980200419
 30
0.0
 10
103.9288951263308
 20
-142.1088019089175
 30
0.0
 10
103.9736626251887
 20
-142.1536046866836
 30
0.0
 10
104.0288017904486
 20
-142.1536046866836
 30
0.0
 10
104.0846138628676
 20
-142.1536046866836
 30
0.0
 10
104.1287110850788
 20
-142.1088019089175
 30
0.0
 10
104.1287110850788
 20
-142.0536980200419
 30
0.0
  0
SPLINE
  5
52
330
1F
100
AcDbEntity
  8
_U+30EC_U+30A4_U+30E4_U+30FC 1
 62
     7
420
 16777215
370
     9
100
AcDbSpline
210
0.0
220
0.0
230
1.0
 70
    11
 71
     3
 72
    17
 73
    13
 74
     0
 42
0.0000000001
 43
0.0000000001
 12
1.0
 22
0.0
 32
0.0
 13
1.0
 23
0.0
 33
0.0
 40
0.0
 40
0.0
 40
0.0
 40
0.0
 40
1.0
 40
1.0
 40
1.0
 40
2.0
 40
2.0
 40
2.0
 40
3.0
 40
3.0
 40
3.0
 40
4.0
 40
4.0
 40
4.0
 40
4.0
 10
104.1287110850788
 20
-140.9526432980955
 30
0.0
 10
104.1287110850788
 20
-140.8975041314424
 30
0.0
 10
104.0846138628676
 20
-140.8527366314532
 30
0.0
 10
104.0288017904486
 20
-140.8527366314532
 30
0.0
 10
103.9736626251887
 20
-140.8527366314532
 30
0.0
 10
103.9288951263308
 20
-140.8975041314424
 30
0.0
 10
103.9288951263308
 20
-140.9526432980955
 30
0.0
 10
103.9288951263308
 20
-141.0084527425259
 30
0.0
 10
103.9736626251887
 20
-141.0532202425145
 30
0.0
 10
104.0288017904486
 20
-141.0532202425145
 30
0.0
 10
104.0846138628676
 20
-141.0532202425145
 30
0.0
 10
104.1287110850788
 20
-141.0084527425259
 30
0.0
 10
104.1287110850788
 20
-140.9526432980955
 30
0.0
  0
POLYLINE
  5
53
330
1F
100
AcDbEntity
  8
_U+30EC_U+30A4_U+30E4_U+30FC 1
 62
     7
420
 16777215
370
     9
100
AcDb2dPolyline
 66
     1
 10
0.0
 20
0.0
 30
0.0
  0
VERTEX
  5
54
330
53
100
AcDbEntity
  8
_U+30EC_U+30A4_U+30E4_U+30FC 1
 62
     7
420
 16777215
370
     9
100
AcDbVertex
100
AcDb2dVertex
 10
104.0288017904486
 20
-140.841024409234
 30
0.0
  0
VERTEX
  5
55
330
53
100
AcDbEntity
  8
_U+30EC_U+30A4_U+30E4_U+30FC 1
 62
     7
420
 16777215
370
     9
100
AcDbVertex
100
AcDb2dVertex
 10
104.0288017904486
 20
-127.9527469124564
 30
0.0
  0
SEQEND
  5
56
330
53
100
AcDbEntity
  8
_U+30EC_U+30A4_U+30E4_U+30FC 1
 62
     7
420
 16777215
370
     9
  0
POLYLINE
  5
57
330
1F
100
AcDbEntity
  8
_U+30EC_U+30A4_U+30E4_U+30FC 1
 62
     7
420
 16777215
370
     9
100
AcDb2dPolyline
 66
     1
 10
0.0
 20
0.0
 30
0.0
  0
VERTEX
  5
58
330
57
100
AcDbEntity
  8
_U+30EC_U+30A4_U+30E4_U+30FC 1
 62
     7
420
 16777215
370
     9
100
AcDbVertex
100
AcDb2dVertex
 10
104.0288017904486
 20
-145.1342946859387
 30
0.0
  0
VERTEX
  5
59
330
57
100
AcDbEntity
  8
_U+30EC_U+30A4_U+30E4_U+30FC 1
 62
     7
420
 16777215
370
     9
100
AcDbVertex
100
AcDb2dVertex
 10
104.0288017904486
 20
-140.841024409234
 30
0.0
  0
SEQEND
  5
5A
330
57
100
AcDbEntity
  8
_U+30EC_U+30A4_U+30E4_U+30FC 1
 62
     7
420
 16777215
370
     9
  0
POLYLINE
  5
5B
330
1F
100
AcDbEntity
  8
_U+30EC_U+30A4_U+30E4_U+30FC 1
 62
     7
420
 16777215
370
     9
100
AcDb2dPolyline
 66
     1
 10
0.0
 20
0.0
 30
0.0
  0
VERTEX
  5
5C
330
5B
100
AcDbEntity
  8
_U+30EC_U+30A4_U+30E4_U+30FC 1
 62
     7
420
 16777215
370
     9
100
AcDbVertex
100
AcDb2dVertex
 10
102.5687604388085
 20
-142.0536980200419
 30
0.0
  0
VERTEX
  5
5D
330
5B
100
AcDbEntity
  8
_U+30EC_U+30A4_U+30E4_U+30FC 1
 62
     7
420
 16777215
370
     9
100
AcDbVertex
100
AcDb2dVertex
 10
105.0292442649252
 20
-142.0536980200419
 30
0.0
  0
SEQEND
  5
5E
330
5B
100
AcDbEntity
  8
_U+30EC_U+30A4_U+30E4_U+30FC 1
 62
     7
420
 16777215
370
     9
  0
POLYLINE
  5
5F
330
1F
100
AcDbEntity
  8
_U+30EC_U+30A4_U+30E4_U+30FC 1
 62
     7
420
 16777215
370
     9
100
AcDb2dPolyline
 66
     1
 10
0.0
 20
0.0
 30
0.0
  0
VERTEX
  5
60
330
5F
100
AcDbEntity
  8
_U+30EC_U+30A4_U+30E4_U+30FC 1
 62
     7
420
 16777215
370
     9
100
AcDbVertex
100
AcDb2dVertex
 10
102.5687604388085
 20
-140.9526432980955
 30
0.0
  0
VERTEX
  5
61
330
5F
100
AcDbEntity
  8
_U+30EC_U+30A4_U+30E4_U+30FC 1
 62
     7
420
 16777215
370
     9
100
AcDbVertex
100
AcDb2dVertex
 10
105.0292442649252
 20
-140.9526432980955
 30
0.0
  0
SEQEND
  5
62
330
5F
100
AcDbEntity
  8
_U+30EC_U+30A4_U+30E4_U+30FC 1
 62
     7
420
 16777215
370
     9
  0
SPLINE
  5
63
330
1F
100
AcDbEntity
  8
_U+30EC_U+30A4_U+30E4_U+30FC 1
 62
     7
420
 16777215
370
     9
100
AcDbSpline
210
0.0
220
0.0
230
1.0
 70
    11
 71
     3
 72
    17
 73
    13
 74
     0
 42
0.0000000001
 43
0.0000000001
 12
1.0
 22
0.0
 32
0.0
 13
1.0
 23
0.0
 33
0.0
 40
0.0
 40
0.0
 40
0.0
 40
0.0
 40
1.0
 40
1.0
 40
1.0
 40
2.0
 40
2.0
 40
2.0
 40
3.0
 40
3.0
 40
3.0
 40
4.0
 40
4.0
 40
4.0
 40
4.0
 10
104.1287110850788
 20
-127.9527469124564
 30
0.0
 10
104.1287110850788
 20
-127.8976077458033
 30
0.0
 10
104.0846138628676
 20
-127.8528402458144
 30
0.0
 10
104.0288017904486
 20
-127.8528402458144
 30
0.0
 10
103.9736626251887
 20
-127.8528402458144
 30
0.0
 10
103.9288951263308
 20
-127.8976077458033
 30
0.0
 10
103.9288951263308
 20
-127.9527469124564
 30
0.0
 10
103.9288951263308
 20
-128.0085563568868
 30
0.0
 10
103.9736626251887
 20
-128.0533238568757
 30
0.0
 10
104.0288017904486
 20
-128.0533238568757
 30
0.0
 10
104.0846138628676
 20
-128.0533238568757
 30
0.0
 10
104.1287110850788
 20
-128.0085563568868
 30
0.0
 10
104.1287110850788
 20
-127.9527469124564
 30
0.0
  0
POLYLINE
  5
64
330
1F
100
AcDbEntity
  8
_U+30EC_U+30A4_U+30E4_U+30FC 1
 62
     7
420
 16777215
370
     9
100
AcDb2dPolyline
 66
     1
 10
0.0
 20
0.0
 30
0.0
  0
VERTEX
  5
65
330
64
100
AcDbEntity
  8
_U+30EC_U+30A4_U+30E4_U+30FC 1
 62
     7
420
 16777215
370
     9
100
AcDbVertex
100
AcDb2dVertex
 10
102.5687604388085
 20
-127.9527469124564
 30
0.0
  0
VERTEX
  5
66
330
64
100
AcDbEntity
  8
_U+30EC_U+30A4_U+30E4_U+30FC 1
 62
     7
420
 16777215
370
     9
100
AcDbVertex
100
AcDb2dVertex
 10
105.0292442649252
 20
-127.9527469124564
 30
0.0
  0
SEQEND
  5
67
330
64
100
AcDbEntity
  8
_U+30EC_U+30A4_U+30E4_U+30FC 1
 62
     7
420
 16777215
370
     9
  0
INSERT
  5
69
330
1F
100
AcDbEntity
  8
_U+30EC_U+30A4_U+30E4_U+30FC 1
100
AcDbBlockReference
  2
block 3
 10
0.0
 20
0.0
 30
0.0
  0
INSERT
  5
71
330
1F
100
AcDbEntity
  8
_U+30EC_U+30A4_U+30E4_U+30FC 1
100
AcDbBlockReference
  2
block 4
 10
0.0
 20
0.0
 30
0.0
  0
POLYLINE
  5
76
330
1F
100
AcDbEntity
  8
_U+30EC_U+30A4_U+30E4_U+30FC 1
 62
     7
420
 16777215
370
    25
100
AcDb2dPolyline
 66
     1
 10
0.0
 20
0.0
 30
0.0
  0
VERTEX
  5
77
330
76
100
AcDbEntity
  8
_U+30EC_U+30A4_U+30E4_U+30FC 1
 62
     7
420
 16777215
370
    25
100
AcDbVertex
100
AcDb2dVertex
 10
86.43986668362417
 20
-140.6508419092815
 30
0.0
  0
VERTEX
  5
78
330
76
100
AcDbEntity
  8
_U+30EC_U+30A4_U+30E4_U+30FC 1
 62
     7
420
 16777215
370
    25
100
AcDbVertex
100
AcDb2dVertex
 10
80.16014017716667
 20
-134.3283938553068
 30
0.0
  0
VERTEX
  5
79
330
76
100
AcDbEntity
  8
_U+30EC_U+30A4_U+30E4_U+30FC 1
 62
     7
420
 16777215
370
    25
100
AcDbVertex
100
AcDb2dVertex
 10
79.79565018646558
 20
-135.3157835772821
 30
0.0
  0
VERTEX
  5
7A
330
76
100
AcDbEntity
  8
_U+30EC_U+30A4_U+30E4_U+30FC 1
 62
     7
420
 16777215
370
    25
100
AcDbVertex
100
AcDb2dVertex
 10
86.44812168341356
 20
-141.9965127422786
 30
0.0
  0
SEQEND
  5
7B
330
76
100
AcDbEntity
  8
_U+30EC_U+30A4_U+30E4_U+30FC 1
 62
     7
420
 16777215
370
    25
  0
SPLINE
  5
7C
330
1F
100
AcDbEntity
  8
_U+30EC_U+30A4_U+30E4_U+30FC 1
 62
     7
420
 16777215
370
     9
100
AcDbSpline
210
0.0
220
0.0
230
1.0
 70
     8
 71
     3
 72
    17
 73
    13
 74
     0
 42
0.0000000001
 43
0.0000000001
 12
1.0
 22
0.0
 32
0.0
 13
1.0
 23
0.0
 33
0.0
 40
0.0
 40
0.0
 40
0.0
 40
0.0
 40
1.0
 40
1.0
 40
1.0
 40
2.0
 40
2.0
 40
2.0
 40
3.0
 40
3.0
 40
3.0
 40
4.0
 40
4.0
 40
4.0
 40
4.0
 10
84.45168173434699
 20
-144.2420138528284
 30
0.0
 10
84.45168173434699
 20
-144.1862044083979
 30
0.0
 10
84.40691423548911
 20
-144.1421071861868
 30
0.0
 10
84.35142229246038
 20
-144.1414016306312
 30
0.0
 10
84.29631840497731
 20
-144.1421071861868
 30
0.0
 10
84.25186840611133
 20
-144.1862044083979
 30
0.0
 10
84.25151562834255
 20
-144.2413082972729
 30
0.0
 10
84.25151562834255
 20
-144.2971530194815
 30
0.0
 10
84.29631840497731
 20
-144.34192051947
 30
0.0
 10
84.35177507022915
 20
-144.34192051947
 30
0.0
 10
84.37830395844124
 20
-144.34192051947
 30
0.0
 10
84.40380979112386
 20
-144.3309138528063
 30
0.0
 10
84.42240117953844
 20
-144.3122871861438
 30
0.0
  0
SPLINE
  5
7D
330
1F
100
AcDbEntity
  8
_U+30EC_U+30A4_U+30E4_U+30FC 1
 62
     7
420
 16777215
370
     9
100
AcDbSpline
210
0.0
220
0.0
230
1.0
 70
    11
 71
     3
 72
    17
 73
    13
 74
     0
 42
0.0000000001
 43
0.0000000001
 12
1.0
 22
0.0
 32
0.0
 13
1.0
 23
0.0
 33
0.0
 40
0.0
 40
0.0
 40
0.0
 40
0.0
 40
1.0
 40
1.0
 40
1.0
 40
2.0
 40
2.0
 40
2.0
 40
3.0
 40
3.0
 40
3.0
 40
4.0
 40
4.0
 40
4.0
 40
4.0
 10
77.354463304301
 20
-137.2471007990214
 30
0.0
 10
77.39372746996597
 20
-137.2078013545868
 30
0.0
 10
77.39372746996597
 20
-137.1444424657139
 30
0.0
 10
77.354463304301
 20
-137.1058485768349
 30
0.0
 10
77.31586941639674
 20
-137.0665844101779
 30
0.0
 10
77.25247525134738
 20
-137.0665844101779
 30
0.0
 10
77.21321108568243
 20
-137.1058485768349
 30
0.0
 10
77.1739116422406
 20
-137.1451127434913
 30
0.0
 10
77.1739116422406
 20
-137.2085069101423
 30
0.0
 10
77.21321108568243
 20
-137.2471007990214
 30
0.0
 10
77.25176969580983
 20
-137.2863649656784
 30
0.0
 10
77.31516386085917
 20
-137.2863649656784
 30
0.0
 10
77.354463304301
 20
-137.2471007990214
 30
0.0
  0
POLYLINE
  5
7E
330
1F
100
AcDbEntity
  8
_U+30EC_U+30A4_U+30E4_U+30FC 1
 62
     7
420
 16777215
370
     9
100
AcDb2dPolyline
 66
     1
 10
0.0
 20
0.0
 30
0.0
  0
VERTEX
  5
7F
330
7E
100
AcDbEntity
  8
_U+30EC_U+30A4_U+30E4_U+30FC 1
 62
     7
420
 16777215
370
     9
100
AcDbVertex
100
AcDb2dVertex
 10
78.31631386930974
 20
-136.1432944104085
 30
0.0
  0
VERTEX
  5
80
330
7E
100
AcDbEntity
  8
_U+30EC_U+30A4_U+30E4_U+30FC 1
 62
     7
420
 16777215
370
     9
100
AcDbVertex
100
AcDb2dVertex
 10
76.57655304636937
 20
-137.8837588544179
 30
0.0
  0
SEQEND
  5
81
330
7E
100
AcDbEntity
  8
_U+30EC_U+30A4_U+30E4_U+30FC 1
 62
     7
420
 16777215
370
     9
  0
POLYLINE
  5
82
330
1F
100
AcDbEntity
  8
_U+30EC_U+30A4_U+30E4_U+30FC 1
 62
     7
420
 16777215
370
     9
100
AcDb2dPolyline
 66
     1
 10
0.0
 20
0.0
 30
0.0
  0
VERTEX
  5
83
330
82
100
AcDbEntity
  8
_U+30EC_U+30A4_U+30E4_U+30FC 1
 62
     7
420
 16777215
370
     9
100
AcDbVertex
100
AcDb2dVertex
 10
85.38428504388763
 20
-143.208480797531
 30
0.0
  0
VERTEX
  5
84
330
82
100
AcDbEntity
  8
_U+30EC_U+30A4_U+30E4_U+30FC 1
 62
     7
420
 16777215
370
     9
100
AcDbVertex
100
AcDb2dVertex
 10
83.64449092160682
 20
-144.9489452415405
 30
0.0
  0
SEQEND
  5
85
330
82
100
AcDbEntity
  8
_U+30EC_U+30A4_U+30E4_U+30FC 1
 62
     7
420
 16777215
370
     9
  0
INSERT
  5
87
330
1F
100
AcDbEntity
  8
_U+30EC_U+30A4_U+30E4_U+30FC 1
100
AcDbBlockReference
  2
block 5
 10
0.0
 20
0.0
 30
0.0
  0
SPLINE
  5
8F
330
1F
100
AcDbEntity
  8
_U+30EC_U+30A4_U+30E4_U+30FC 1
 62
     7
420
 16777215
370
     9
100
AcDbSpline
210
0.0
220
0.0
230
1.0
 70
    11
 71
     3
 72
    20
 73
    16
 74
     0
 42
0.0000000001
 43
0.0000000001
 12
1.0
 22
0.0
 32
0.0
 13
1.0
 23
0.0
 33
0.0
 40
0.0
 40
0.0
 40
0.0
 40
0.0
 40
1.0
 40
1.0
 40
1.0
 40
2.0
 40
2.0
 40
2.0
 40
3.0
 40
3.0
 40
3.0
 40
4.0
 40
4.0
 40
4.0
 40
5.0
 40
5.0
 40
5.0
 40
5.0
 10
93.65318427737488
 20
-125.5480724686129
 30
0.0
 10
93.65318427737488
 20
-125.4926158019602
 30
0.0
 10
93.60908705627767
 20
-125.4481658019712
 30
0.0
 10
93.55363039102582
 20
-125.4478130241935
 30
0.0
 10
93.49817372577398
 20
-125.4478130241935
 30
0.0
 10
93.45337094913921
 20
-125.4922630241824
 30
0.0
 10
93.45337094913921
 20
-125.5477196908355
 30
0.0
 10
93.45337094913921
 20
-125.6031763574881
 30
0.0
 10
93.49746817023642
 20
-125.6476263574771
 30
0.0
 10
93.55327761325705
 20
-125.6476263574771
 30
0.0
 10
93.57945372370035
 20
-125.6479791352545
 30
0.0
 10
93.60531233415175
 20
-125.6376427463685
 30
0.0
 10
93.62425650033511
 20
-125.6186985797064
 30
0.0
 10
93.62425650033511
 20
-125.6186985797064
 30
0.0
 10
93.65318427737488
 20
-125.5480724686129
 30
0.0
 10
93.65318427737488
 20
-125.5480724686129
 30
0.0
  0
SPLINE
  5
90
330
1F
100
AcDbEntity
  8
_U+30EC_U+30A4_U+30E4_U+30FC 1
 62
     7
420
 16777215
370
     9
100
AcDbSpline
210
0.0
220
0.0
230
1.0
 70
    11
 71
     3
 72
    17
 73
    13
 74
     0
 42
0.0000000001
 43
0.0000000001
 12
1.0
 22
0.0
 32
0.0
 13
1.0
 23
0.0
 33
0.0
 40
0.0
 40
0.0
 40
0.0
 40
0.0
 40
1.0
 40
1.0
 40
1.0
 40
2.0
 40
2.0
 40
2.0
 40
3.0
 40
3.0
 40
3.0
 40
4.0
 40
4.0
 40
4.0
 40
4.0
 10
80.93529876850184
 20
-112.8490955273433
 30
0.0
 10
80.9745629341668
 20
-112.8098313606863
 30
0.0
 10
80.9745629341668
 20
-112.7464371940356
 30
0.0
 10
80.93561626849375
 20
-112.7078433051563
 30
0.0
 10
80.89670488059757
 20
-112.6685791384996
 30
0.0
 10
80.83331071554822
 20
-112.6685791384996
 30
0.0
 10
80.79436404987516
 20
-112.7071730273789
 30
0.0
 10
80.75474710644143
 20
-112.7464371940356
 30
0.0
 10
80.75474710644143
 20
-112.8098313606863
 30
0.0
 10
80.79334099434571
 20
-112.8490955273433
 30
0.0
 10
80.83260516001066
 20
-112.888359694
 30
0.0
 10
80.89564654729124
 20
-112.888359694
 30
0.0
 10
80.93529876850184
 20
-112.8490955273433
 30
0.0
  0
POLYLINE
  5
91
330
1F
100
AcDbEntity
  8
_U+30EC_U+30A4_U+30E4_U+30FC 1
 62
     7
420
 16777215
370
     9
100
AcDb2dPolyline
 66
     1
 10
0.0
 20
0.0
 30
0.0
  0
VERTEX
  5
92
330
91
100
AcDbEntity
  8
_U+30EC_U+30A4_U+30E4_U+30FC 1
 62
     7
420
 16777215
370
     9
100
AcDbVertex
100
AcDb2dVertex
 10
81.75864680305203
 20
-111.878956638697
 30
0.0
  0
VERTEX
  5
93
330
91
100
AcDbEntity
  8
_U+30EC_U+30A4_U+30E4_U+30FC 1
 62
     7
420
 16777215
370
     9
100
AcDbVertex
100
AcDb2dVertex
 10
80.01511323642217
 20
-113.6152935827074
 30
0.0
  0
SEQEND
  5
94
330
91
100
AcDbEntity
  8
_U+30EC_U+30A4_U+30E4_U+30FC 1
 62
     7
420
 16777215
370
     9
  0
POLYLINE
  5
95
330
1F
100
AcDbEntity
  8
_U+30EC_U+30A4_U+30E4_U+30FC 1
 62
     7
420
 16777215
370
     9
100
AcDb2dPolyline
 66
     1
 10
0.0
 20
0.0
 30
0.0
  0
VERTEX
  5
96
330
95
100
AcDbEntity
  8
_U+30EC_U+30A4_U+30E4_U+30FC 1
 62
     7
420
 16777215
370
     9
100
AcDbVertex
100
AcDb2dVertex
 10
94.42075814668134
 20
-124.6919513577161
 30
0.0
  0
VERTEX
  5
97
330
95
100
AcDbEntity
  8
_U+30EC_U+30A4_U+30E4_U+30FC 1
 62
     7
420
 16777215
370
     9
100
AcDbVertex
100
AcDb2dVertex
 10
92.67754442127526
 20
-126.4282883017262
 30
0.0
  0
SEQEND
  5
98
330
95
100
AcDbEntity
  8
_U+30EC_U+30A4_U+30E4_U+30FC 1
 62
     7
420
 16777215
370
     9
  0
INSERT
  5
9A
330
1F
100
AcDbEntity
  8
_U+30EC_U+30A4_U+30E4_U+30FC 1
100
AcDbBlockReference
  2
block 6
 10
0.0
 20
0.0
 30
0.0
  0
SPLINE
  5
A3
330
1F
100
AcDbEntity
  8
_U+30EC_U+30A4_U+30E4_U+30FC 1
 62
     7
420
 16777215
370
    25
100
AcDbSpline
210
0.0
220
0.0
230
1.0
 70
     8
 71
     3
 72
    29
 73
    25
 74
     0
 42
0.0000000001
 43
0.0000000001
 12
1.0
 22
0.0
 32
0.0
 13
1.0
 23
0.0
 33
0.0
 40
0.0
 40
0.0
 40
0.0
 40
0.0
 40
1.0
 40
1.0
 40
1.0
 40
2.0
 40
2.0
 40
2.0
 40
3.0
 40
3.0
 40
3.0
 40
4.0
 40
4.0
 40
4.0
 40
5.0
 40
5.0
 40
5.0
 40
6.0
 40
6.0
 40
6.0
 40
7.0
 40
7.0
 40
7.0
 40
8.0
 40
8.0
 40
8.0
 40
8.0
 10
79.53519435977704
 20
-114.2195666381118
 30
0.0
 10
79.53519435977704
 20
-114.2195666381118
 30
0.0
 10
92.19832875893579
 20
-126.9106060793836
 30
0.0
 10
92.19832875893579
 20
-126.9106060793836
 30
0.0
 10
92.19832875893579
 20
-126.9106060793836
 30
0.0
 10
102.2800471128408
 20
-126.9419327460423
 30
0.0
 10
102.2800471128408
 20
-126.9419327460423
 30
0.0
 10
102.0581851740566
 20
-128.2255852457215
 30
0.0
 10
100.5478729903656
 20
-127.9420577457923
 30
0.0
 10
100.5478729903656
 20
-127.9420577457923
 30
0.0
 10
100.5478729903656
 20
-127.9420577457923
 30
0.0
 10
92.27999681240782
 20
-128.0102849679974
 30
0.0
 10
92.27999681240782
 20
-128.0102849679974
 30
0.0
 10
92.27999681240782
 20
-128.0102849679974
 30
0.0
 10
87.58981637650872
 20
-141.0256682980767
 30
0.0
 10
87.58981637650872
 20
-141.0256682980767
 30
0.0
 10
87.58981637650872
 20
-141.0256682980767
 30
0.0
 10
96.38894059646881
 20
-140.9967405203067
 30
0.0
 10
96.38894059646881
 20
-140.9967405203067
 30
0.0
 10
96.38894059646881
 20
-140.9967405203067
 30
0.0
 10
95.94796838549672
 20
-141.9530857978448
 30
0.0
 10
95.94796838549672
 20
-141.9530857978448
 30
0.0
 10
95.94796838549672
 20
-141.9530857978448
 30
0.0
 10
86.44812168341356
 20
-141.997183020056
 30
0.0
 10
86.44812168341356
 20
-141.997183020056
 30
0.0
  0
POLYLINE
  5
A4
330
1F
100
AcDbEntity
  8
_U+30EC_U+30A4_U+30E4_U+30FC 1
 62
     7
420
 16777215
370
    25
100
AcDb2dPolyline
 66
     1
 10
0.0
 20
0.0
 30
0.0
  0
VERTEX
  5
A5
330
A4
100
AcDbEntity
  8
_U+30EC_U+30A4_U+30E4_U+30FC 1
 62
     7
420
 16777215
370
    25
100
AcDbVertex
100
AcDb2dVertex
 10
86.52806112581858
 20
-140.6797696870522
 30
0.0
  0
VERTEX
  5
A6
330
A4
100
AcDbEntity
  8
_U+30EC_U+30A4_U+30E4_U+30FC 1
 62
     7
420
 16777215
370
    25
100
AcDbVertex
100
AcDb2dVertex
 10
91.13897239707333
 20
-127.6226880236498
 30
0.0
  0
VERTEX
  5
A7
330
A4
100
AcDbEntity
  8
_U+30EC_U+30A4_U+30E4_U+30FC 1
 62
     7
420
 16777215
370
    25
100
AcDbVertex
100
AcDb2dVertex
 10
85.54896386750173
 20
-122.0144385806074
 30
0.0
  0
SEQEND
  5
A8
330
A4
100
AcDbEntity
  8
_U+30EC_U+30A4_U+30E4_U+30FC 1
 62
     7
420
 16777215
370
    25
  0
POLYLINE
  5
A9
330
1F
100
AcDbEntity
  8
_U+30EC_U+30A4_U+30E4_U+30FC 1
 62
     7
420
 16777215
370
     9
100
AcDb2dPolyline
 66
     1
 10
0.0
 20
0.0
 30
0.0
  0
VERTEX
  5
AA
330
A9
100
AcDbEntity
  8
_U+30EC_U+30A4_U+30E4_U+30FC 1
 62
     7
420
 16777215
370
     9
100
AcDbVertex
100
AcDb2dVertex
 10
77.29382080584813
 20
-137.1568249657105
 30
0.0
  0
VERTEX
  5
AB
330
A9
100
AcDbEntity
  8
_U+30EC_U+30A4_U+30E4_U+30FC 1
 62
     7
420
 16777215
370
     9
100
AcDbVertex
100
AcDb2dVertex
 10
84.35142229246038
 20
-144.2413082972729
 30
0.0
  0
SEQEND
  5
AC
330
A9
100
AcDbEntity
  8
_U+30EC_U+30A4_U+30E4_U+30FC 1
 62
     7
420
 16777215
370
     9
  0
POLYLINE
  5
AD
330
1F
100
AcDbEntity
  8
_U+30EC_U+30A4_U+30E4_U+30FC 1
 62
     7
420
 16777215
370
     9
100
AcDb2dPolyline
 66
     1
 10
0.0
 20
0.0
 30
0.0
  0
VERTEX
  5
AE
330
AD
100
AcDbEntity
  8
_U+30EC_U+30A4_U+30E4_U+30FC 1
 62
     7
420
 16777215
370
     9
100
AcDbVertex
100
AcDb2dVertex
 10
80.88224099207768
 20
-112.7640055273645
 30
0.0
  0
VERTEX
  5
AF
330
AD
100
AcDbEntity
  8
_U+30EC_U+30A4_U+30E4_U+30FC 1
 62
     7
420
 16777215
370
     9
100
AcDbVertex
100
AcDb2dVertex
 10
93.56019442105409
 20
-125.5418635797258
 30
0.0
  0
SEQEND
  5
B0
330
AD
100
AcDbEntity
  8
_U+30EC_U+30A4_U+30E4_U+30FC 1
 62
     7
420
 16777215
370
     9
  0
SPLINE
  5
B1
330
1F
100
AcDbEntity
  8
_U+30EC_U+30A4_U+30E4_U+30FC 1
 62
     7
420
 16777215
370
    25
100
AcDbSpline
210
0.0
220
0.0
230
1.0
 70
     8
 71
     3
 72
     8
 73
     4
 74
     0
 42
0.0000000001
 43
0.0000000001
 12
1.0
 22
0.0
 32
0.0
 13
1.0
 23
0.0
 33
0.0
 40
0.0
 40
0.0
 40
0.0
 40
0.0
 40
1.0
 40
1.0
 40
1.0
 40
1.0
 10
79.50005769400678
 20
-115.3157883045043
 30
0.0
 10
79.19723325728803
 20
-115.0133166379133
 30
0.0
 10
79.22065770113487
 20
-114.5341033046998
 30
0.0
 10
79.53519435977704
 20
-114.2195666381118
 30
0.0
  0
POLYLINE
  5
B2
330
1F
100
AcDbEntity
  8
_U+30EC_U+30A4_U+30E4_U+30FC 1
 62
     7
420
 16777215
370
    25
100
AcDb2dPolyline
 66
     1
 10
0.0
 20
0.0
 30
0.0
  0
VERTEX
  5
B3
330
B2
100
AcDbEntity
  8
_U+30EC_U+30A4_U+30E4_U+30FC 1
 62
     7
420
 16777215
370
    25
100
AcDbVertex
100
AcDb2dVertex
 10
85.3288305342235
 20
-121.1459349697137
 30
0.0
  0
VERTEX
  5
B4
330
B2
100
AcDbEntity
  8
_U+30EC_U+30A4_U+30E4_U+30FC 1
 62
     7
420
 16777215
370
    25
100
AcDbVertex
100
AcDb2dVertex
 10
79.50005769400678
 20
-115.3157883045043
 30
0.0
  0
SEQEND
  5
B5
330
B2
100
AcDbEntity
  8
_U+30EC_U+30A4_U+30E4_U+30FC 1
 62
     7
420
 16777215
370
    25
  0
POLYLINE
  5
B6
330
1F
100
AcDbEntity
  8
_U+30EC_U+30A4_U+30E4_U+30FC 1
 62
     7
420
 16777215
370
    25
100
AcDb2dPolyline
 66
     1
 10
0.0
 20
0.0
 30
0.0
  0
VERTEX
  5
B7
330
B6
100
AcDbEntity
  8
_U+30EC_U+30A4_U+30E4_U+30FC 1
 62
     7
420
 16777215
370
    25
100
AcDbVertex
100
AcDb2dVertex
 10
88.72120995875558
 20
-125.1866869131479
 30
0.0
  0
VERTEX
  5
B8
330
B6
100
AcDbEntity
  8
_U+30EC_U+30A4_U+30E4_U+30FC 1
 62
     7
420
 16777215
370
    25
100
AcDbVertex
100
AcDb2dVertex
 10
85.54896386750173
 20
-122.0144385806074
 30
0.0
  0
VERTEX
  5
B9
330
B6
100
AcDbEntity
  8
_U+30EC_U+30A4_U+30E4_U+30FC 1
 62
     7
420
 16777215
370
    25
100
AcDbVertex
100
AcDb2dVertex
 10
85.3288305342235
 20
-121.1459349697137
 30
0.0
  0
SEQEND
  5
BA
330
B6
100
AcDbEntity
  8
_U+30EC_U+30A4_U+30E4_U+30FC 1
 62
     7
420
 16777215
370
    25
  0
ENDSEC
  0
SECTION
  2
OBJECTS
  0
DICTIONARY
  5
C
330
0
100
AcDbDictionary
281
     1
  3
ACAD_GROUP
350
D
  3
ACAD_LAYOUT
350
1A
  3
ACAD_MATERIAL
350
3B
  3
ACAD_MLEADERSTYLE
350
BC
  3
ACAD_MLINESTYLE
350
17
  3
ACAD_PLOTSETTINGS
350
19
  3
ACAD_PLOTSTYLENAME
350
E
  3
ACAD_TABLESTYLE
350
BB
  3
ACAD_VISUALSTYLE
350
2A
  0
SUN
  5
3F
330
29
100
AcDbSun
 90
        1
290
     0
 63
     7
421
 16777215
 40
1.0
291
     1
 91
  2455826
 92
 54000000
292
     0
 70
     2
 71
   256
280
     1
  0
DICTIONARY
  5
D
102
{ACAD_REACTORS
330
C
102
}
330
C
100
AcDbDictionary
281
     1
  0
DICTIONARY
  5
1A
102
{ACAD_REACTORS
330
C
102
}
330
C
100
AcDbDictionary
281
     1
  3
Layout1
350
1E
  3
Layout2
350
26
  3
Model
350
22
  0
DICTIONARY
  5
3B
102
{ACAD_REACTORS
330
C
102
}
330
C
100
AcDbDictionary
281
     1
  3
ByBlock
350
3D
  3
ByLayer
350
3C
  3
Global
350
3E
  0
DICTIONARY
  5
BC
102
{ACAD_REACTORS
330
C
102
}
330
C
100
AcDbDictionary
281
     1
  0
DICTIONARY
  5
17
102
{ACAD_REACTORS
330
C
102
}
330
C
100
AcDbDictionary
281
     1
  3
Standard
350
18
  0
DICTIONARY
  5
19
102
{ACAD_REACTORS
330
C
102
}
330
C
100
AcDbDictionary
281
     1
  0
ACDBDICTIONARYWDFLT
  5
E
102
{ACAD_REACTORS
330
C
102
}
330
C
100
AcDbDictionary
281
     1
  3
Normal
350
F
100
AcDbDictionaryWithDefault
340
F
  0
DICTIONARY
  5
BB
102
{ACAD_REACTORS
330
C
102
}
330
C
100
AcDbDictionary
281
     1
  0
DICTIONARY
  5
2A
102
{ACAD_REACTORS
330
C
102
}
330
C
100
AcDbDictionary
281
     1
  3
2dWireframe
350
2F
  3
3D Hidden
350
31
  3
3dWireframe
350
30
  3
Basic
350
32
  3
Brighten
350
36
  3
ColorChange
350
3A
  3
Conceptual
350
34
  3
Dim
350
35
  3
Facepattern
350
39
  3
Flat
350
2B
  3
FlatWithEdges
350
2C
  3
Gouraud
350
2D
  3
GouraudWithEdges
350
2E
  3
Linepattern
350
38
  3
Realistic
350
33
  3
Thicken
350
37
  0
LAYOUT
  5
1E
102
{ACAD_REACTORS
330
1A
102
}
330
1A
100
AcDbPlotSettings
  1

  2
none_device
  4

  6

 40
0.0
 41
0.0
 42
0.0
 43
0.0
 44
0.0
 45
0.0
 46
0.0
 47
0.0
 48
0.0
 49
0.0
140
0.0
141
0.0
142
1.0
143
1.0
 70
   688
 72
     0
 73
     0
 74
     5
  7

 75
    16
 76
     0
 77
     2
 78
   300
147
1.0
148
0.0
149
0.0
100
AcDbLayout
  1
Layout1
 70
     1
 71
     1
 10
0.0
 20
0.0
 11
12.0
 21
9.0
 12
0.0
 22
0.0
 32
0.0
 14
1.000000000000000E+20
 24
1.000000000000000E+20
 34
1.000000000000000E+20
 15
-1.000000000000000E+20
 25
-1.000000000000000E+20
 35
-1.000000000000000E+20
146
0.0
 13
0.0
 23
0.0
 33
0.0
 16
1.0
 26
0.0
 36
0.0
 17
0.0
 27
1.0
 37
0.0
 76
     0
330
1B
  0
LAYOUT
  5
26
102
{ACAD_REACTORS
330
1A
102
}
330
1A
100
AcDbPlotSettings
  1

  2
none_device
  4

  6

 40
0.0
 41
0.0
 42
0.0
 43
0.0
 44
0.0
 45
0.0
 46
0.0
 47
0.0
 48
0.0
 49
0.0
140
0.0
141
0.0
142
1.0
143
1.0
 70
   688
 72
     0
 73
     0
 74
     5
  7

 75
    16
 76
     0
 77
     2
 78
   300
147
1.0
148
0.0
149
0.0
100
AcDbLayout
  1
Layout2
 70
     1
 71
     2
 10
0.0
 20
0.0
 11
0.0
 21
0.0
 12
0.0
 22
0.0
 32
0.0
 14
0.0
 24
0.0
 34
0.0
 15
0.0
 25
0.0
 35
0.0
146
0.0
 13
0.0
 23
0.0
 33
0.0
 16
1.0
 26
0.0
 36
0.0
 17
0.0
 27
1.0
 37
0.0
 76
     0
330
23
  0
LAYOUT
  5
22
102
{ACAD_REACTORS
330
1A
102
}
330
1A
100
AcDbPlotSettings
  1

  2
none_device
  4

  6

 40
0.0
 41
0.0
 42
0.0
 43
0.0
 44
0.0
 45
0.0
 46
0.0
 47
0.0
 48
0.0
 49
0.0
140
0.0
141
0.0
142
1.0
143
1.0
 70
  1712
 72
     0
 73
     0
 74
     0
  7

 75
     0
 76
     0
 77
     2
 78
   300
147
1.0
148
0.0
149
0.0
100
AcDbLayout
  1
Model
 70
     1
 71
     0
 10
0.0
 20
0.0
 11
12.0
 21
9.0
 12
0.0
 22
0.0
 32
0.0
 14
1.000000000000000E+20
 24
1.000000000000000E+20
 34
1.000000000000000E+20
 15
-1.000000000000000E+20
 25
-1.000000000000000E+20
 35
-1.000000000000000E+20
146
0.0
 13
0.0
 23
0.0
 33
0.0
 16
1.0
 26
0.0
 36
0.0
 17
0.0
 27
1.0
 37
0.0
 76
     0
330
1F
331
29
  0
MATERIAL
  5
3D
102
{ACAD_REACTORS
330
3B
102
}
330
3B
100
AcDbMaterial
  1
ByBlock
 72
     1
 94
      127
  0
MATERIAL
  5
3C
102
{ACAD_REACTORS
330
3B
102
}
330
3B
100
AcDbMaterial
  1
ByLayer
 72
     1
 94
      127
  0
MATERIAL
  5
3E
102
{ACAD_REACTORS
330
3B
102
}
330
3B
100
AcDbMaterial
  1
Global
 72
     1
 94
      127
  0
MLINESTYLE
  5
18
102
{ACAD_REACTORS
330
17
102
}
330
17
100
AcDbMlineStyle
  2
Standard
 70
     0
  3

 62
   256
 51
90.0
 52
90.0
 71
     2
 49
0.5
 62
   256
  6
BYLAYER
 49
-0.5
 62
   256
  6
BYLAYER
  0
ACDBPLACEHOLDER
  5
F
102
{ACAD_REACTORS
330
E
102
}
330
E
  0
VISUALSTYLE
  5
2F
102
{ACAD_REACTORS
330
2A
102
}
330
2A
100
AcDbVisualStyle
  2
2dWireframe
 70
     4
177
     2
291
     0
 71
     0
176
     1
 72
     2
176
     1
 73
     0
176
     1
 90
        0
176
     1
 40
-0.6
176
     1
 41
-30.0
176
     1
 62
     5
 63
     7
421
 16777215
176
     1
 74
     1
176
     1
 91
        4
176
     1
 64
     7
176
     1
 65
   257
176
     1
 75
     1
176
     1
175
     1
176
     1
 42
1.0
176
     1
 92
        0
176
     1
 66
   257
176
     1
 43
1.0
176
     1
 76
     1
176
     1
 77
     6
176
     1
 78
     2
176
     1
 67
     7
176
     1
 79
     5
176
     1
170
     0
176
     1
171
     0
176
     1
290
     0
176
     1
 93
        1
176
     1
 44
0.0
176
     1
173
     0
176
     1
  0
VISUALSTYLE
  5
31
102
{ACAD_REACTORS
330
2A
102
}
330
2A
100
AcDbVisualStyle
  2
3D Hidden
 70
     6
177
     2
291
     0
 71
     1
176
     1
 72
     2
176
     1
 73
     2
176
     1
 90
        0
176
     1
 40
-0.6
176
     1
 41
-30.0
176
     1
 62
     5
 63
     7
421
 16777215
176
     1
 74
     2
176
     1
 91
        2
176
     1
 64
     7
176
     1
 65
   257
176
     1
 75
     2
176
     1
175
     1
176
     1
 42
40.0
176
     1
 92
        0
176
     1
 66
   257
176
     1
 43
1.0
176
     1
 76
     1
176
     1
 77
     6
176
     1
 78
     2
176
     1
 67
     7
176
     1
 79
     3
176
     1
170
     0
176
     1
171
     0
176
     1
290
     0
176
     1
 93
        1
176
     1
 44
0.0
176
     1
173
     0
176
     1
  0
VISUALSTYLE
  5
30
102
{ACAD_REACTORS
330
2A
102
}
330
2A
100
AcDbVisualStyle
  2
3dWireframe
 70
     5
177
     2
291
     0
 71
     0
176
     1
 72
     2
176
     1
 73
     0
176
     1
 90
        0
176
     1
 40
-0.6
176
     1
 41
-30.0
176
     1
 62
     5
 63
     7
421
 16777215
176
     1
 74
     1
176
     1
 91
        4
176
     1
 64
     7
176
     1
 65
   257
176
     1
 75
     1
176
     1
175
     1
176
     1
 42
1.0
176
     1
 92
        0
176
     1
 66
   257
176
     1
 43
1.0
176
     1
 76
     1
176
     1
 77
     6
176
     1
 78
     2
176
     1
 67
     7
176
     1
 79
     5
176
     1
170
     0
176
     1
171
     0
176
     1
290
     0
176
     1
 93
        1
176
     1
 44
0.0
176
     1
173
     0
176
     1
  0
VISUALSTYLE
  5
32
102
{ACAD_REACTORS
330
2A
102
}
330
2A
100
AcDbVisualStyle
  2
Basic
 70
     7
177
     2
291
     1
 71
     1
176
     1
 72
     0
176
     1
 73
     1
176
     1
 90
        0
176
     1
 40
-0.6
176
     1
 41
-30.0
176
     1
 62
     5
 63
     7
421
 16777215
176
     1
 74
     0
176
     1
 91
        4
176
     1
 64
     7
176
     1
 65
   257
176
     1
 75
     1
176
     1
175
     1
176
     1
 42
1.0
176
     1
 92
        8
176
     1
 66
     7
176
     1
 43
1.0
176
     1
 76
     1
176
     1
 77
     6
176
     1
 78
     2
176
     1
 67
     7
176
     1
 79
     5
176
     1
170
     0
176
     1
171
     0
176
     1
290
     0
176
     1
 93
        1
176
     1
 44
0.0
176
     1
173
     0
176
     1
  0
VISUALSTYLE
  5
36
102
{ACAD_REACTORS
330
2A
102
}
330
2A
100
AcDbVisualStyle
  2
Brighten
 70
    12
177
     2
291
     1
 71
     2
176
     1
 72
     2
176
     1
 73
     0
176
     1
 90
        0
176
     1
 40
-0.6
176
     1
 41
-30.0
176
     1
 62
     5
 63
     7
421
 16777215
176
     1
 74
     1
176
     1
 91
        4
176
     1
 64
     7
176
     1
 65
   257
176
     1
 75
     1
176
     1
175
     1
176
     1
 42
1.0
176
     1
 92
        8
176
     1
 66
     7
176
     1
 43
1.0
176
     1
 76
     1
176
     1
 77
     6
176
     1
 78
     2
176
     1
 67
     7
176
     1
 79
     5
176
     1
170
     0
176
     1
171
     0
176
     1
290
     0
176
     1
 93
        1
176
     1
 44
50.0
176
     1
173
     0
176
     1
  0
VISUALSTYLE
  5
3A
102
{ACAD_REACTORS
330
2A
102
}
330
2A
100
AcDbVisualStyle
  2
ColorChange
 70
    16
177
     2
291
     1
 71
     2
176
     1
 72
     2
176
     1
 73
     3
176
     1
 90
        0
176
     1
 40
-0.6
176
     1
 41
-30.0
176
     1
 62
     5
 63
     8
421
  8421504
176
     1
 74
     1
176
     1
 91
        4
176
     1
 64
     7
176
     1
 65
   257
176
     1
 75
     1
176
     1
175
     1
176
     1
 42
1.0
176
     1
 92
        8
176
     1
 66
     8
424
  8421504
176
     1
 43
1.0
176
     1
 76
     1
176
     1
 77
     6
176
     1
 78
     2
176
     1
 67
     7
176
     1
 79
     5
176
     1
170
     0
176
     1
171
     0
176
     1
290
     0
176
     1
 93
        1
176
     1
 44
0.0
176
     1
173
     0
176
     1
  0
VISUALSTYLE
  5
34
102
{ACAD_REACTORS
330
2A
102
}
330
2A
100
AcDbVisualStyle
  2
Conceptual
 70
     9
177
     2
291
     0
 71
     3
176
     1
 72
     2
176
     1
 73
     0
176
     1
 90
        0
176
     1
 40
-0.6
176
     1
 41
-30.0
176
     1
 62
     5
 63
     7
421
 16777215
176
     1
 74
     2
176
     1
 91
        2
176
     1
 64
     7
176
     1
 65
   257
176
     1
 75
     1
176
     1
175
     1
176
     1
 42
40.0
176
     1
 92
        8
176
     1
 66
     7
176
     1
 43
1.0
176
     1
 76
     1
176
     1
 77
     6
176
     1
 78
     2
176
     1
 67
     7
176
     1
 79
     3
176
     1
170
     0
176
     1
171
     0
176
     1
290
     0
176
     1
 93
        1
176
     1
 44
0.0
176
     1
173
     0
176
     1
  0
VISUALSTYLE
  5
35
102
{ACAD_REACTORS
330
2A
102
}
330
2A
100
AcDbVisualStyle
  2
Dim
 70
    11
177
     2
291
     1
 71
     2
176
     1
 72
     2
176
     1
 73
     0
176
     1
 90
        0
176
     1
 40
-0.6
176
     1
 41
-30.0
176
     1
 62
     5
 63
     7
421
 16777215
176
     1
 74
     1
176
     1
 91
        4
176
     1
 64
     7
176
     1
 65
   257
176
     1
 75
     1
176
     1
175
     1
176
     1
 42
1.0
176
     1
 92
        8
176
     1
 66
     7
176
     1
 43
1.0
176
     1
 76
     1
176
     1
 77
     6
176
     1
 78
     2
176
     1
 67
     7
176
     1
 79
     5
176
     1
170
     0
176
     1
171
     0
176
     1
290
     0
176
     1
 93
        1
176
     1
 44
-50.0
176
     1
173
     0
176
     1
  0
VISUALSTYLE
  5
39
102
{ACAD_REACTORS
330
2A
102
}
330
2A
100
AcDbVisualStyle
  2
Facepattern
 70
    15
177
     2
291
     1
 71
     2
176
     1
 72
     2
176
     1
 73
     0
176
     1
 90
        0
176
     1
 40
-0.6
176
     1
 41
-30.0
176
     1
 62
     5
 63
     7
421
 16777215
176
     1
 74
     1
176
     1
 91
        4
176
     1
 64
     7
176
     1
 65
   257
176
     1
 75
     1
176
     1
175
     1
176
     1
 42
1.0
176
     1
 92
        8
176
     1
 66
     7
176
     1
 43
1.0
176
     1
 76
     1
176
     1
 77
     6
176
     1
 78
     2
176
     1
 67
     7
176
     1
 79
     5
176
     1
170
     0
176
     1
171
     0
176
     1
290
     0
176
     1
 93
        1
176
     1
 44
0.0
176
     1
173
     0
176
     1
  0
VISUALSTYLE
  5
2B
102
{ACAD_REACTORS
330
2A
102
}
330
2A
100
AcDbVisualStyle
  2
Flat
 70
     0
177
     2
291
     1
 71
     2
176
     1
 72
     1
176
     1
 73
     1
176
     1
 90
        2
176
     1
 40
-0.6
176
     1
 41
30.0
176
     1
 62
     5
 63
     7
421
 16777215
176
     1
 74
     0
176
     1
 91
        4
176
     1
 64
     7
176
     1
 65
   257
176
     1
 75
     1
176
     1
175
     1
176
     1
 42
1.0
176
     1
 92
        8
176
     1
 66
     7
176
     1
 43
1.0
176
     1
 76
     1
176
     1
 77
     6
176
     1
 78
     2
176
     1
 67
     7
176
     1
 79
     5
176
     1
170
     0
176
     1
171
     0
176
     1
290
     0
176
     1
 93
       13
176
     1
 44
0.0
176
     1
173
     0
176
     1
  0
VISUALSTYLE
  5
2C
102
{ACAD_REACTORS
330
2A
102
}
330
2A
100
AcDbVisualStyle
  2
FlatWithEdges
 70
     1
177
     2
291
     1
 71
     2
176
     1
 72
     1
176
     1
 73
     1
176
     1
 90
        2
176
     1
 40
-0.6
176
     1
 41
30.0
176
     1
 62
     5
 63
     7
421
 16777215
176
     1
 74
     1
176
     1
 91
        4
176
     1
 64
     7
176
     1
 65
   257
176
     1
 75
     1
176
     1
175
     1
176
     1
 42
1.0
176
     1
 92
        0
176
     1
 66
   257
176
     1
 43
1.0
176
     1
 76
     1
176
     1
 77
     6
176
     1
 78
     2
176
     1
 67
     7
176
     1
 79
     5
176
     1
170
     0
176
     1
171
     0
176
     1
290
     0
176
     1
 93
       13
176
     1
 44
0.0
176
     1
173
     0
176
     1
  0
VISUALSTYLE
  5
2D
102
{ACAD_REACTORS
330
2A
102
}
330
2A
100
AcDbVisualStyle
  2
Gouraud
 70
     2
177
     2
291
     1
 71
     2
176
     1
 72
     2
176
     1
 73
     1
176
     1
 90
        2
176
     1
 40
-0.6
176
     1
 41
30.0
176
     1
 62
     5
 63
     7
421
 16777215
176
     1
 74
     0
176
     1
 91
        4
176
     1
 64
     7
176
     1
 65
   257
176
     1
 75
     1
176
     1
175
     1
176
     1
 42
1.0
176
     1
 92
        0
176
     1
 66
     7
176
     1
 43
1.0
176
     1
 76
     1
176
     1
 77
     6
176
     1
 78
     2
176
     1
 67
     7
176
     1
 79
     5
176
     1
170
     0
176
     1
171
     0
176
     1
290
     0
176
     1
 93
       13
176
     1
 44
0.0
176
     1
173
     0
176
     1
  0
VISUALSTYLE
  5
2E
102
{ACAD_REACTORS
330
2A
102
}
330
2A
100
AcDbVisualStyle
  2
GouraudWithEdges
 70
     3
177
     2
291
     1
 71
     2
176
     1
 72
     2
176
     1
 73
     1
176
     1
 90
        2
176
     1
 40
-0.6
176
     1
 41
30.0
176
     1
 62
     5
 63
     7
421
 16777215
176
     1
 74
     1
176
     1
 91
        4
176
     1
 64
     7
176
     1
 65
   257
176
     1
 75
     1
176
     1
175
     1
176
     1
 42
1.0
176
     1
 92
        0
176
     1
 66
   257
176
     1
 43
1.0
176
     1
 76
     1
176
     1
 77
     6
176
     1
 78
     2
176
     1
 67
     7
176
     1
 79
     5
176
     1
170
     0
176
     1
171
     0
176
     1
290
     0
176
     1
 93
       13
176
     1
 44
0.0
176
     1
173
     0
176
     1
  0
VISUALSTYLE
  5
38
102
{ACAD_REACTORS
330
2A
102
}
330
2A
100
AcDbVisualStyle
  2
Linepattern
 70
    14
177
     2
291
     1
 71
     2
176
     1
 72
     2
176
     1
 73
     0
176
     1
 90
        0
176
     1
 40
-0.6
176
     1
 41
-30.0
176
     1
 62
     5
 63
     7
421
 16777215
176
     1
 74
     1
176
     1
 91
        4
176
     1
 64
     7
176
     1
 65
   257
176
     1
 75
     7
176
     1
175
     7
176
     1
 42
1.0
176
     1
 92
        8
176
     1
 66
     7
176
     1
 43
1.0
176
     1
 76
     1
176
     1
 77
     6
176
     1
 78
     2
176
     1
 67
     7
176
     1
 79
     5
176
     1
170
     0
176
     1
171
     0
176
     1
290
     0
176
     1
 93
        1
176
     1
 44
0.0
176
     1
173
     0
176
     1
  0
VISUALSTYLE
  5
33
102
{ACAD_REACTORS
330
2A
102
}
330
2A
100
AcDbVisualStyle
  2
Realistic
 70
     8
177
     2
291
     0
 71
     2
176
     1
 72
     2
176
     1
 73
     0
176
     1
 90
        0
176
     1
 40
-0.6
176
     1
 41
-30.0
176
     1
 62
     5
 63
     7
421
 16777215
176
     1
 74
     1
176
     1
 91
        0
176
     1
 64
     7
176
     1
 65
   257
176
     1
 75
     1
176
     1
175
     1
176
     1
 42
1.0
176
     1
 92
        8
176
     1
 66
     8
424
  7895160
176
     1
 43
1.0
176
     1
 76
     1
176
     1
 77
     6
176
     1
 78
     2
176
     1
 67
     7
176
     1
 79
     5
176
     1
170
     0
176
     1
171
     0
176
     1
290
     0
176
     1
 93
       13
176
     1
 44
0.0
176
     1
173
     0
176
     1
  0
VISUALSTYLE
  5
37
102
{ACAD_REACTORS
330
2A
102
}
330
2A
100
AcDbVisualStyle
  2
Thicken
 70
    13
177
     2
291
     1
 71
     2
176
     1
 72
     2
176
     1
 73
     0
176
     1
 90
        0
176
     1
 40
-0.6
176
     1
 41
-30.0
176
     1
 62
     5
 63
     7
421
 16777215
176
     1
 74
     1
176
     1
 91
        4
176
     1
 64
     7
176
     1
 65
   257
176
     1
 75
     1
176
     1
175
     1
176
     1
 42
1.0
176
     1
 92
       12
176
     1
 66
     7
176
     1
 43
1.0
176
     1
 76
     1
176
     1
 77
     6
176
     1
 78
     2
176
     1
 67
     7
176
     1
 79
     5
176
     1
170
     0
176
     1
171
     0
176
     1
290
     0
176
     1
 93
        1
176
     1
 44
0.0
176
     1
173
     0
176
     1
  0
ENDSEC
  0
EOF
