  0
SECTION
  2
HEADER
  9
$ACADVER
  1
AC1024
  9
$ACADMAINTVER
 70
     6
  9
$DWGCODEPAGE
  3
UNDEFINED
  9
$INSBASE
 10
0.0
 20
0.0
 30
0.0
  9
$EXTMIN
 10
1.000000000000000E+20
 20
1.000000000000000E+20
 30
1.000000000000000E+20
  9
$EXTMAX
 10
-1.000000000000000E+20
 20
-1.000000000000000E+20
 30
-1.000000000000000E+20
  9
$LIMMIN
 10
0.0
 20
0.0
  9
$LIMMAX
 10
12.0
 20
9.0
  9
$ORTHOMODE
 70
     0
  9
$REGENMODE
 70
     1
  9
$FILLMODE
 70
     1
  9
$QTEXTMODE
 70
     0
  9
$MIRRTEXT
 70
     1
  9
$LTSCALE
 40
1.0
  9
$ATTMODE
 70
     1
  9
$TEXTSIZE
 40
0.2
  9
$TRACEWID
 40
0.05
  9
$TEXTSTYLE
  7
Standard
  9
$CLAYER
  8
0
  9
$CELTYPE
  6
ByLayer
  9
$CECOLOR
 62
   256
  9
$CELTSCALE
 40
1.0
  9
$DISPSILH
 70
     0
  9
$DIMSCALE
 40
1.0
  9
$DIMASZ
 40
0.18
  9
$DIMEXO
 40
0.0625
  9
$DIMDLI
 40
0.38
  9
$DIMRND
 40
0.0
  9
$DIMDLE
 40
0.0
  9
$DIMEXE
 40
0.18
  9
$DIMTP
 40
0.0
  9
$DIMTM
 40
0.0
  9
$DIMTXT
 40
0.18
  9
$DIMCEN
 40
0.09
  9
$DIMTSZ
 40
0.0
  9
$DIMTOL
 70
     0
  9
$DIMLIM
 70
     0
  9
$DIMTIH
 70
     1
  9
$DIMTOH
 70
     1
  9
$DIMSE1
 70
     0
  9
$DIMSE2
 70
     0
  9
$DIMTAD
 70
     0
  9
$DIMZIN
 70
     0
  9
$DIMBLK
  1

  9
$DIMASO
 70
     1
  9
$DIMSHO
 70
     1
  9
$DIMPOST
  1

  9
$DIMAPOST
  1

  9
$DIMALT
 70
     0
  9
$DIMALTD
 70
     2
  9
$DIMALTF
 40
25.4
  9
$DIMLFAC
 40
1.0
  9
$DIMTOFL
 70
     0
  9
$DIMTVP
 40
0.0
  9
$DIMTIX
 70
     0
  9
$DIMSOXD
 70
     0
  9
$DIMSAH
 70
     0
  9
$DIMBLK1
  1

  9
$DIMBLK2
  1

  9
$DIMSTYLE
  2
Standard
  9
$DIMCLRD
 70
     0
  9
$DIMCLRE
 70
     0
  9
$DIMCLRT
 70
     0
  9
$DIMTFAC
 40
1.0
  9
$DIMGAP
 40
0.09
  9
$DIMJUST
 70
     0
  9
$DIMSD1
 70
     0
  9
$DIMSD2
 70
     0
  9
$DIMTOLJ
 70
     1
  9
$DIMTZIN
 70
     0
  9
$DIMALTZ
 70
     0
  9
$DIMALTTZ
 70
     0
  9
$DIMUPT
 70
     0
  9
$DIMDEC
 70
     4
  9
$DIMTDEC
 70
     4
  9
$DIMALTU
 70
     2
  9
$DIMALTTD
 70
     2
  9
$DIMTXSTY
  7
Standard
  9
$DIMAUNIT
 70
     0
  9
$DIMADEC
 70
     0
  9
$DIMALTRND
 40
0.0
  9
$DIMAZIN
 70
     0
  9
$DIMDSEP
 70
    46
  9
$DIMATFIT
 70
     3
  9
$DIMFRAC
 70
     0
  9
$DIMLDRBLK
  1

  9
$DIMLUNIT
 70
     2
  9
$DIMLWD
 70
    -2
  9
$DIMLWE
 70
    -2
  9
$DIMTMOVE
 70
     0
  9
$DIMFXL
 40
1.0
  9
$DIMFXLON
 70
     0
  9
$DIMJOGANG
 40
0.7853981633974483
  9
$DIMTFILL
 70
     0
  9
$DIMTFILLCLR
 70
     0
  9
$DIMARCSYM
 70
     0
  9
$DIMLTYPE
  6

  9
$DIMLTEX1
  6

  9
$DIMLTEX2
  6

  9
$DIMTXTDIRECTION
 70
     0
  9
$LUNITS
 70
     2
  9
$LUPREC
 70
     4
  9
$SKETCHINC
 40
0.1
  9
$FILLETRAD
 40
0.5
  9
$AUNITS
 70
     0
  9
$AUPREC
 70
     0
  9
$MENU
  1
.
  9
$ELEVATION
 40
0.0
  9
$PELEVATION
 40
0.0
  9
$THICKNESS
 40
0.0
  9
$LIMCHECK
 70
     0
  9
$CHAMFERA
 40
0.5
  9
$CHAMFERB
 40
0.5
  9
$CHAMFERC
 40
1.0
  9
$CHAMFERD
 40
0.0
  9
$SKPOLY
 70
     0
  9
$TDCREATE
 40
2457917.595127303
  9
$TDUCREATE
 40
2457917.220127315
  9
$TDUPDATE
 40
2457917.595127303
  9
$TDUUPDATE
 40
2457917.220127315
  9
$TDINDWG
 40
0.0000000116
  9
$TDUSRTIMER
 40
0.0000000116
  9
$USRTIMER
 70
     1
  9
$ANGBASE
 50
0.0
  9
$ANGDIR
 70
     0
  9
$PDMODE
 70
     0
  9
$PDSIZE
 40
0.0
  9
$PLINEWID
 40
0.0
  9
$SPLFRAME
 70
     0
  9
$SPLINETYPE
 70
     6
  9
$SPLINESEGS
 70
     8
  9
$HANDSEED
  5
BE
  9
$SURFTAB1
 70
     6
  9
$SURFTAB2
 70
     6
  9
$SURFTYPE
 70
     6
  9
$SURFU
 70
     6
  9
$SURFV
 70
     6
  9
$UCSBASE
  2

  9
$UCSNAME
  2

  9
$UCSORG
 10
0.0
 20
0.0
 30
0.0
  9
$UCSXDIR
 10
1.0
 20
0.0
 30
0.0
  9
$UCSYDIR
 10
0.0
 20
1.0
 30
0.0
  9
$UCSORTHOREF
  2

  9
$UCSORTHOVIEW
 70
     0
  9
$UCSORGTOP
 10
0.0
 20
0.0
 30
0.0
  9
$UCSORGBOTTOM
 10
0.0
 20
0.0
 30
0.0
  9
$UCSORGLEFT
 10
0.0
 20
0.0
 30
0.0
  9
$UCSORGRIGHT
 10
0.0
 20
0.0
 30
0.0
  9
$UCSORGFRONT
 10
0.0
 20
0.0
 30
0.0
  9
$UCSORGBACK
 10
0.0
 20
0.0
 30
0.0
  9
$PUCSBASE
  2

  9
$PUCSNAME
  2

  9
$PUCSORG
 10
0.0
 20
0.0
 30
0.0
  9
$PUCSXDIR
 10
1.0
 20
0.0
 30
0.0
  9
$PUCSYDIR
 10
0.0
 20
1.0
 30
0.0
  9
$PUCSORTHOREF
  2

  9
$PUCSORTHOVIEW
 70
     0
  9
$PUCSORGTOP
 10
0.0
 20
0.0
 30
0.0
  9
$PUCSORGBOTTOM
 10
0.0
 20
0.0
 30
0.0
  9
$PUCSORGLEFT
 10
0.0
 20
0.0
 30
0.0
  9
$PUCSORGRIGHT
 10
0.0
 20
0.0
 30
0.0
  9
$PUCSORGFRONT
 10
0.0
 20
0.0
 30
0.0
  9
$PUCSORGBACK
 10
0.0
 20
0.0
 30
0.0
  9
$USERI1
 70
     0
  9
$USERI2
 70
     0
  9
$USERI3
 70
     0
  9
$USERI4
 70
     0
  9
$USERI5
 70
     0
  9
$USERR1
 40
0.0
  9
$USERR2
 40
0.0
  9
$USERR3
 40
0.0
  9
$USERR4
 40
0.0
  9
$USERR5
 40
0.0
  9
$WORLDVIEW
 70
     1
  9
$SHADEDGE
 70
     3
  9
$SHADEDIF
 70
    70
  9
$TILEMODE
 70
     1
  9
$MAXACTVP
 70
    64
  9
$PINSBASE
 10
0.0
 20
0.0
 30
0.0
  9
$PLIMCHECK
 70
     0
  9
$PEXTMIN
 10
1.000000000000000E+20
 20
1.000000000000000E+20
 30
1.000000000000000E+20
  9
$PEXTMAX
 10
-1.000000000000000E+20
 20
-1.000000000000000E+20
 30
-1.000000000000000E+20
  9
$PLIMMIN
 10
0.0
 20
0.0
  9
$PLIMMAX
 10
12.0
 20
9.0
  9
$UNITMODE
 70
     0
  9
$VISRETAIN
 70
     1
  9
$PLINEGEN
 70
     0
  9
$PSLTSCALE
 70
     1
  9
$TREEDEPTH
 70
  3020
  9
$CMLSTYLE
  2
Standard
  9
$CMLJUST
 70
     0
  9
$CMLSCALE
 40
1.0
  9
$PROXYGRAPHICS
 70
     1
  9
$MEASUREMENT
 70
     0
  9
$CELWEIGHT
370
    -1
  9
$ENDCAPS
280
     0
  9
$JOINSTYLE
280
     0
  9
$LWDISPLAY
290
     1
  9
$INSUNITS
 70
     1
  9
$HYPERLINKBASE
  1

  9
$STYLESHEET
  1

  9
$XEDIT
290
     1
  9
$CEPSNTYPE
380
     0
  9
$PSTYLEMODE
290
     1
  9
$FINGERPRINTGUID
  2
{B4307FC5-D1F5-2B12-AA52-AAF734CD6294}
  9
$VERSIONGUID
  2
{FAEB1C32-E019-11D5-929B-00C0DF256EC4}
  9
$EXTNAMES
290
     1
  9
$PSVPSCALE
 40
0.0
  9
$OLESTARTUP
290
     0
  9
$SORTENTS
280
   127
  9
$INDEXCTL
280
     0
  9
$HIDETEXT
280
     1
  9
$XCLIPFRAME
280
     2
  9
$HALOGAP
280
     0
  9
$OBSCOLOR
 70
   257
  9
$OBSLTYPE
280
     0
  9
$INTERSECTIONDISPLAY
280
     0
  9
$INTERSECTIONCOLOR
 70
   257
  9
$DIMASSOC
280
     2
  9
$PROJECTNAME
  1

  9
$CAMERADISPLAY
290
     0
  9
$LENSLENGTH
 40
50.0
  9
$CAMERAHEIGHT
 40
0.0
  9
$STEPSPERSEC
 40
2.0
  9
$STEPSIZE
 40
6.0
  9
$3DDWFPREC
 40
2.0
  9
$PSOLWIDTH
 40
0.25
  9
$PSOLHEIGHT
 40
4.0
  9
$LOFTANG1
 40
1.570796326794897
  9
$LOFTANG2
 40
1.570796326794897
  9
$LOFTMAG1
 40
0.0
  9
$LOFTMAG2
 40
0.0
  9
$LOFTPARAM
 70
     7
  9
$LOFTNORMALS
280
     1
  9
$LATITUDE
 40
37.795
  9
$LONGITUDE
 40
-122.394
  9
$NORTHDIRECTION
 40
0.0
  9
$TIMEZONE
 70
 -8000
  9
$LIGHTGLYPHDISPLAY
280
     1
  9
$TILEMODELIGHTSYNCH
280
     1
  9
$CMATERIAL
347
3C
  9
$SOLIDHIST
280
     1
  9
$SHOWHIST
280
     1
  9
$DWFFRAME
280
     2
  9
$DGNFRAME
280
     2
  9
$REALWORLDSCALE
290
     1
  9
$INTERFERECOLOR
 62
   256
  9
$CSHADOW
280
     0
  9
$SHADOWPLANELOCATION
 40
0.0
  0
ENDSEC
  0
SECTION
  2
CLASSES
  0
CLASS
  1
ACDBDICTIONARYWDFLT
  2
AcDbDictionaryWithDefault
  3
ObjectDBX Classes
 90
        0
 91
        4
280
     0
281
     0
  0
CLASS
  1
VISUALSTYLE
  2
AcDbVisualStyle
  3
ObjectDBX Classes
 90
     4095
 91
        4
280
     0
281
     0
  0
CLASS
  1
MATERIAL
  2
AcDbMaterial
  3
ObjectDBX Classes
 90
     1153
 91
        4
280
     0
281
     0
  0
CLASS
  1
SUN
  2
AcDbSun
  3
SCENEOE
 90
     1024
 91
        4
280
     0
281
     0
  0
ENDSEC
  0
SECTION
  2
TABLES
  0
TABLE
  2
VPORT
  5
8
330
0
100
AcDbSymbolTable
 70
     1
  0
VPORT
  5
29
330
8
100
AcDbSymbolTableRecord
100
AcDbViewportTableRecord
  2
*Active
 70
     0
 10
0.0
 20
0.0
 11
1.0
 21
1.0
 12
0.0
 22
0.0
 13
0.0
 23
0.0
 14
0.5
 24
0.5
 15
0.5
 25
0.5
 16
0.0
 26
0.0
 36
1.0
 17
91.00082462281999
 27
-128.4993055234307
 37
0.0
 40
256.9986110468615
 41
0.7081814508812795
 42
50.0
 43
0.0
 44
0.0
 50
0.0
 51
0.0
 71
     0
 72
   100
 73
     1
 74
     3
 75
     0
 76
     0
 77
     0
 78
     0
281
     0
 65
     1
110
0.0
120
0.0
130
0.0
111
1.0
121
0.0
131
0.0
112
0.0
122
1.0
132
0.0
 79
     0
146
0.0
 60
     3
 61
     5
292
     1
282
     1
141
0.0
142
0.0
 63
   250
361
3F
  0
ENDTAB
  0
TABLE
  2
LTYPE
  5
5
330
0
100
AcDbSymbolTable
 70
     1
  0
LTYPE
  5
14
330
5
100
AcDbSymbolTableRecord
100
AcDbLinetypeTableRecord
  2
ByBlock
 70
     0
  3

 72
    65
 73
     0
 40
0.0
  0
LTYPE
  5
15
330
5
100
AcDbSymbolTableRecord
100
AcDbLinetypeTableRecord
  2
ByLayer
 70
     0
  3

 72
    65
 73
     0
 40
0.0
  0
LTYPE
  5
16
330
5
100
AcDbSymbolTableRecord
100
AcDbLinetypeTableRecord
  2
Continuous
 70
     0
  3
Solid line
 72
    65
 73
     0
 40
0.0
  0
ENDTAB
  0
TABLE
  2
LAYER
  5
2
330
0
100
AcDbSymbolTable
 70
     2
  0
LAYER
  5
10
330
2
100
AcDbSymbolTableRecord
100
AcDbLayerTableRecord
  2
0
 70
     0
 62
     7
  6
Continuous
370
    -3
390
F
347
3E
  0
LAYER
  5
40
330
2
100
AcDbSymbolTableRecord
100
AcDbLayerTableRecord
  2
_U+30EC_U+30A4_U+30E4_U+30FC 1
 70
     0
 62
     7
  6
Continuous
370
    -3
390
F
347
3E
  0
ENDTAB
  0
TABLE
  2
STYLE
  5
3
330
0
100
AcDbSymbolTable
 70
     1
  0
STYLE
  5
11
330
3
100
AcDbSymbolTableRecord
100
AcDbTextStyleTableRecord
  2
Standard
 70
     0
 40
0.0
 41
1.0
 50
0.0
 71
     0
 42
0.2
  3
txt
  4

  0
ENDTAB
  0
TABLE
  2
VIEW
  5
6
330
0
100
AcDbSymbolTable
 70
     0
  0
ENDTAB
  0
TABLE
  2
UCS
  5
7
330
0
100
AcDbSymbolTable
 70
     0
  0
ENDTAB
  0
TABLE
  2
APPID
  5
9
330
0
100
AcDbSymbolTable
 70
     1
  0
APPID
  5
12
330
9
100
AcDbSymbolTableRecord
100
AcDbRegAppTableRecord
  2
ACAD
 70
     0
  0
ENDTAB
  0
TABLE
  2
DIMSTYLE
  5
A
330
0
100
AcDbSymbolTable
 70
     1
100
AcDbDimStyleTable
  0
DIMSTYLE
105
27
330
A
100
AcDbSymbolTableRecord
100
AcDbDimStyleTableRecord
  2
Standard
 70
     0
178
     0
340
11
  0
ENDTAB
  0
TABLE
  2
BLOCK_RECORD
  5
1
330
0
100
AcDbSymbolTable
 70
     6
  0
BLOCK_RECORD
  5
1F
330
1
100
AcDbSymbolTableRecord
100
AcDbBlockTableRecord
  2
*Model_Space
340
22
 70
     0
280
     1
281
     0
  0
BLOCK_RECORD
  5
1B
330
1
100
AcDbSymbolTableRecord
100
AcDbBlockTableRecord
  2
*Paper_Space
340
1E
 70
     0
280
     1
281
     0
  0
BLOCK_RECORD
  5
23
330
1
100
AcDbSymbolTableRecord
100
AcDbBlockTableRecord
  2
*Paper_Space0
340
26
 70
     0
280
     1
281
     0
  0
BLOCK_RECORD
  5
44
330
1
100
AcDbSymbolTableRecord
100
AcDbBlockTableRecord
  2
block 2
340
0
102
{BLKREFS
331
45
102
}
 70
     0
280
     1
281
     0
  0
BLOCK_RECORD
  5
68
330
1
100
AcDbSymbolTableRecord
100
AcDbBlockTableRecord
  2
block 3
340
0
102
{BLKREFS
331
69
102
}
 70
     0
280
     1
281
     0
  0
BLOCK_RECORD
  5
71
330
1
100
AcDbSymbolTableRecord
100
AcDbBlockTableRecord
  2
block 4
340
0
102
{BLKREFS
331
72
102
}
 70
     0
280
     1
281
     0
  0
BLOCK_RECORD
  5
87
330
1
100
AcDbSymbolTableRecord
100
AcDbBlockTableRecord
  2
block 5
340
0
102
{BLKREFS
331
88
102
}
 70
     0
280
     1
281
     0
  0
BLOCK_RECORD
  5
9A
330
1
100
AcDbSymbolTableRecord
100
AcDbBlockTableRecord
  2
block 6
340
0
102
{BLKREFS
331
9B
102
}
 70
     0
280
     1
281
     0
  0
ENDTAB
  0
ENDSEC
  0
SECTION
  2
BLOCKS
  0
BLOCK
  5
20
330
1F
100
AcDbEntity
  8
0
100
AcDbBlockBegin
  2
*Model_Space
 70
     0
 10
0.0
 20
0.0
 30
0.0
  3
*Model_Space
  1

  0
ENDBLK
  5
21
330
1F
100
AcDbEntity
  8
0
100
AcDbBlockEnd
  0
BLOCK
  5
1C
330
1B
100
AcDbEntity
 67
     1
  8
0
100
AcDbBlockBegin
  2
*Paper_Space
 70
     0
 10
0.0
 20
0.0
 30
0.0
  3
*Paper_Space
  1

  0
ENDBLK
  5
1D
330
1B
100
AcDbEntity
 67
     1
  8
0
100
AcDbBlockEnd
  0
BLOCK
  5
24
330
23
100
AcDbEntity
  8
0
100
AcDbBlockBegin
  2
*Paper_Space0
 70
     0
 10
0.0
 20
0.0
 30
0.0
  3
*Paper_Space0
  1

  0
ENDBLK
  5
25
330
23
100
AcDbEntity
  8
0
100
AcDbBlockEnd
  0
BLOCK
  5
46
330
44
100
AcDbEntity
  8
0
100
AcDbBlockBegin
  2
block 2
 70
     0
 10
0.0
 20
0.0
 30
0.0
  3
block 2
  1

  0
SPLINE
  5
48
330
44
100
AcDbEntity
  8
_U+30EC_U+30A4_U+30E4_U+30FC 1
370
     0
100
AcDbSpline
210
0.0
220
0.0
230
1.0
 70
    11
 71
     3
 72
    26
 73
    22
 74
     0
 42
0.0000000001
 43
0.0000000001
 12
1.0
 22
0.0
 32
0.0
 13
1.0
 23
0.0
 33
0.0
 40
0.0
 40
0.0
 40
0.0
 40
0.0
 40
1.0
 40
1.0
 40
1.0
 40
2.0
 40
2.0
 40
2.0
 40
3.0
 40
3.0
 40
3.0
 40
4.0
 40
4.0
 40
4.0
 40
5.0
 40
5.0
 40
5.0
 40
6.0
 40
6.0
 40
6.0
 40
7.0
 40
7.0
 40
7.0
 40
7.0
 10
92.41399737272984
 20
-123.6632527360113
 30
0.0
 10
92.41399737272984
 20
-123.6632527360113
 30
0.0
 10
92.83671058876999
 20
-122.6428154532803
 30
0.0
 10
92.83671058876999
 20
-122.6428154532803
 30
0.0
 10
92.83671058876999
 20
-122.6428154532803
 30
0.0
 10
92.51114906541389
 20
-122.5077677102585
 30
0.0
 10
92.51114906541389
 20
-122.5077677102585
 30
0.0
 10
92.51114906541389
 20
-122.5077677102585
 30
0.0
 10
92.56764863137198
 20
-122.3713419290426
 30
0.0
 10
92.56764863137198
 20
-122.3713419290426
 30
0.0
 10
92.90113387434417
 20
-122.4932983092204
 30
0.0
 10
93.00930987258101
 20
-122.3616956616839
 30
0.0
 10
93.0823458968683
 20
-122.2686780835821
 30
0.0
 10
93.0823458968683
 20
-122.2686780835821
 30
0.0
 10
93.22635088815176
 20
-122.3279337259284
 30
0.0
 10
93.22635088815176
 20
-122.3279337259284
 30
0.0
 10
93.22635088815176
 20
-122.3279337259284
 30
0.0
 10
92.63551701243141
 20
-123.7548922759189
 30
0.0
 10
92.63551701243141
 20
-123.7548922759189
 30
0.0
 10
92.63551701243141
 20
-123.7548922759189
 30
0.0
 10
92.41399737272984
 20
-123.6632527360113
 30
0.0
 10
92.41399737272984
 20
-123.6632527360113
 30
0.0
  0
HATCH
  5
49
330
44
100
AcDbEntity
  8
_U+30EC_U+30A4_U+30E4_U+30FC 1
 62
     7
420
 16777215
100
AcDbHatch
 10
0.0
 20
0.0
 30
0.0
210
0.0
220
0.0
230
1.0
  2
SOLID
 70
     1
 71
     0
 91
        1
 92
        1
 93
        1
 72
     4
 94
        3
 73
     0
 74
     1
 95
       26
 96
       22
 40
0.0
 40
0.0
 40
0.0
 40
0.0
 40
1.0
 40
1.0
 40
1.0
 40
2.0
 40
2.0
 40
2.0
 40
3.0
 40
3.0
 40
3.0
 40
4.0
 40
4.0
 40
4.0
 40
5.0
 40
5.0
 40
5.0
 40
6.0
 40
6.0
 40
6.0
 40
7.0
 40
7.0
 40
7.0
 40
7.0
 10
92.41399737272984
 20
-123.6632527360113
 10
92.41399737272984
 20
-123.6632527360113
 10
92.83671058876999
 20
-122.6428154532803
 10
92.83671058876999
 20
-122.6428154532803
 10
92.83671058876999
 20
-122.6428154532803
 10
92.51114906541389
 20
-122.5077677102585
 10
92.51114906541389
 20
-122.5077677102585
 10
92.51114906541389
 20
-122.5077677102585
 10
92.56764863137198
 20
-122.3713419290426
 10
92.56764863137198
 20
-122.3713419290426
 10
92.90113387434417
 20
-122.4932983092204
 10
93.00930987258101
 20
-122.3616956616839
 10
93.0823458968683
 20
-122.2686780835821
 10
93.0823458968683
 20
-122.2686780835821
 10
93.22635088815176
 20
-122.3279337259284
 10
93.22635088815176
 20
-122.3279337259284
 10
93.22635088815176
 20
-122.3279337259284
 10
92.63551701243141
 20
-123.7548922759189
 10
92.63551701243141
 20
-123.7548922759189
 10
92.63551701243141
 20
-123.7548922759189
 10
92.41399737272984
 20
-123.6632527360113
 10
92.41399737272984
 20
-123.6632527360113
 97
        0
 97
        0
 75
     2
 76
     1
 98
        0
  0
SPLINE
  5
4A
330
44
100
AcDbEntity
  8
_U+30EC_U+30A4_U+30E4_U+30FC 1
370
     0
100
AcDbSpline
210
0.0
220
0.0
230
1.0
 70
    11
 71
     3
 72
    62
 73
    58
 74
     0
 42
0.0000000001
 43
0.0000000001
 12
1.0
 22
0.0
 32
0.0
 13
1.0
 23
0.0
 33
0.0
 40
0.0
 40
0.0
 40
0.0
 40
0.0
 40
1.0
 40
1.0
 40
1.0
 40
2.0
 40
2.0
 40
2.0
 40
3.0
 40
3.0
 40
3.0
 40
4.0
 40
4.0
 40
4.0
 40
5.0
 40
5.0
 40
5.0
 40
6.0
 40
6.0
 40
6.0
 40
7.0
 40
7.0
 40
7.0
 40
8.0
 40
8.0
 40
8.0
 40
9.0
 40
9.0
 40
9.0
 40
10.0
 40
10.0
 40
10.0
 40
11.0
 40
11.0
 40
11.0
 40
12.0
 40
12.0
 40
12.0
 40
13.0
 40
13.0
 40
13.0
 40
14.0
 40
14.0
 40
14.0
 40
15.0
 40
15.0
 40
15.0
 40
16.0
 40
16.0
 40
16.0
 40
17.0
 40
17.0
 40
17.0
 40
18.0
 40
18.0
 40
18.0
 40
19.0
 40
19.0
 40
19.0
 40
19.0
 10
93.59635414326758
 20
-124.2075778226807
 30
0.0
 10
93.50264754606879
 20
-124.1689927532459
 30
0.0
 10
93.29559730740527
 20
-124.0601277359121
 30
0.0
 10
93.243576365578
 20
-123.8372300580164
 30
0.0
 10
93.2132595253078
 20
-123.7032158436402
 30
0.0
 10
93.24736597061177
 20
-123.6095092464414
 30
0.0
 10
93.27561575359083
 20
-123.5295830311836
 30
0.0
 10
93.27561575359083
 20
-123.5295830311836
 30
0.0
 10
93.49265676916156
 20
-123.6198445328971
 30
0.0
 10
93.49265676916156
 20
-123.6198445328971
 30
0.0
 10
93.46612953392514
 20
-123.6890909521507
 30
0.0
 10
93.38723684731292
 20
-123.9106105918522
 30
0.0
 10
93.6669786007152
 20
-124.0263658001566
 30
0.0
 10
93.80271536283405
 20
-124.0825208565662
 30
0.0
 10
93.97944876122736
 20
-124.0801092897265
 30
0.0
 10
94.0669541865527
 20
-123.8692694460292
 30
0.0
 10
94.11139591831244
 20
-123.7617824668894
 30
0.0
 10
94.09244789314356
 20
-123.701148786349
 30
0.0
 10
94.07349986797469
 20
-123.6587741118804
 30
0.0
 10
94.02871362666643
 20
-123.5598998714538
 30
0.0
 10
93.91881508068697
 20
-123.500988738656
 30
0.0
 10
93.86438257202002
 20
-123.4785956180019
 30
0.0
 10
93.84543454685115
 20
-123.4706718983858
 30
0.0
 10
93.80960555380454
 20
-123.4579250450904
 30
0.0
 10
93.78032224217992
 20
-123.4503458350228
 30
0.0
 10
93.78032224217992
 20
-123.4503458350228
 30
0.0
 10
93.85473630466132
 20
-123.2705118506928
 30
0.0
 10
93.85473630466132
 20
-123.2705118506928
 30
0.0
 10
93.88987627861087
 20
-123.2918714427013
 30
0.0
 10
93.93121742443387
 20
-123.3111639774187
 30
0.0
 10
93.93741859630731
 20
-123.3139200538069
 30
0.0
 10
94.00218639143002
 20
-123.3407917985919
 30
0.0
 10
94.20648055370533
 20
-123.4028035173264
 30
0.0
 10
94.2970865649674
 20
-123.1836954444645
 30
0.0
 10
94.36529945557534
 20
-123.0197088993666
 30
0.0
 10
94.25677894778998
 20
-122.914977996615
 30
0.0
 10
94.14825844000461
 20
-122.8701917553068
 30
0.0
 10
93.88712020222268
 20
-122.7616712475214
 30
0.0
 10
93.78996850953862
 20
-122.9735446198643
 30
0.0
 10
93.75827363107433
 20
-123.038312414987
 30
0.0
 10
93.75827363107433
 20
-123.038312414987
 30
0.0
 10
93.55776907383279
 20
-122.9549411042439
 30
0.0
 10
93.55776907383279
 20
-122.9549411042439
 30
0.0
 10
93.61357962069383
 20
-122.8433200105218
 30
0.0
 10
93.78445635676222
 20
-122.5063896720644
 30
0.0
 10
94.23576386532996
 20
-122.6934583569135
 30
0.0
 10
94.45762801458004
 20
-122.7850978968211
 30
0.0
 10
94.64710826626879
 20
-123.0011053837463
 30
0.0
 10
94.53376462480406
 20
-123.2746459652751
 30
0.0
 10
94.46245114825939
 20
-123.4469007395376
 30
0.0
 10
94.33670516304777
 20
-123.4841077707783
 30
0.0
 10
94.21509329241846
 20
-123.4999552100104
 30
0.0
 10
94.26504717695458
 20
-123.5502536040951
 30
0.0
 10
94.4142198114659
 20
-123.6990817290579
 30
0.0
 10
94.3081108705202
 20
-123.9553968331605
 30
0.0
 10
94.1785752802748
 20
-124.2682115032212
 30
0.0
 10
93.86989472479642
 20
-124.321265973694
 30
0.0
 10
93.59635414326758
 20
-124.2075778226807
 30
0.0
  0
HATCH
  5
4B
330
44
100
AcDbEntity
  8
_U+30EC_U+30A4_U+30E4_U+30FC 1
 62
     7
420
 16777215
100
AcDbHatch
 10
0.0
 20
0.0
 30
0.0
210
0.0
220
0.0
230
1.0
  2
SOLID
 70
     1
 71
     0
 91
        1
 92
        1
 93
        1
 72
     4
 94
        3
 73
     0
 74
     1
 95
       62
 96
       58
 40
0.0
 40
0.0
 40
0.0
 40
0.0
 40
1.0
 40
1.0
 40
1.0
 40
2.0
 40
2.0
 40
2.0
 40
3.0
 40
3.0
 40
3.0
 40
4.0
 40
4.0
 40
4.0
 40
5.0
 40
5.0
 40
5.0
 40
6.0
 40
6.0
 40
6.0
 40
7.0
 40
7.0
 40
7.0
 40
8.0
 40
8.0
 40
8.0
 40
9.0
 40
9.0
 40
9.0
 40
10.0
 40
10.0
 40
10.0
 40
11.0
 40
11.0
 40
11.0
 40
12.0
 40
12.0
 40
12.0
 40
13.0
 40
13.0
 40
13.0
 40
14.0
 40
14.0
 40
14.0
 40
15.0
 40
15.0
 40
15.0
 40
16.0
 40
16.0
 40
16.0
 40
17.0
 40
17.0
 40
17.0
 40
18.0
 40
18.0
 40
18.0
 40
19.0
 40
19.0
 40
19.0
 40
19.0
 10
93.59635414326758
 20
-124.2075778226807
 10
93.50264754606879
 20
-124.1689927532459
 10
93.29559730740527
 20
-124.0601277359121
 10
93.243576365578
 20
-123.8372300580164
 10
93.2132595253078
 20
-123.7032158436402
 10
93.24736597061177
 20
-123.6095092464414
 10
93.27561575359083
 20
-123.5295830311836
 10
93.27561575359083
 20
-123.5295830311836
 10
93.49265676916156
 20
-123.6198445328971
 10
93.49265676916156
 20
-123.6198445328971
 10
93.46612953392514
 20
-123.6890909521507
 10
93.38723684731292
 20
-123.9106105918522
 10
93.6669786007152
 20
-124.0263658001566
 10
93.80271536283405
 20
-124.0825208565662
 10
93.97944876122736
 20
-124.0801092897265
 10
94.0669541865527
 20
-123.8692694460292
 10
94.11139591831244
 20
-123.7617824668894
 10
94.09244789314356
 20
-123.701148786349
 10
94.07349986797469
 20
-123.6587741118804
 10
94.02871362666643
 20
-123.5598998714538
 10
93.91881508068697
 20
-123.500988738656
 10
93.86438257202002
 20
-123.4785956180019
 10
93.84543454685115
 20
-123.4706718983858
 10
93.80960555380454
 20
-123.4579250450904
 10
93.78032224217992
 20
-123.4503458350228
 10
93.78032224217992
 20
-123.4503458350228
 10
93.85473630466132
 20
-123.2705118506928
 10
93.85473630466132
 20
-123.2705118506928
 10
93.88987627861087
 20
-123.2918714427013
 10
93.93121742443387
 20
-123.3111639774187
 10
93.93741859630731
 20
-123.3139200538069
 10
94.00218639143002
 20
-123.3407917985919
 10
94.20648055370533
 20
-123.4028035173264
 10
94.2970865649674
 20
-123.1836954444645
 10
94.36529945557534
 20
-123.0197088993666
 10
94.25677894778998
 20
-122.914977996615
 10
94.14825844000461
 20
-122.8701917553068
 10
93.88712020222268
 20
-122.7616712475214
 10
93.78996850953862
 20
-122.9735446198643
 10
93.75827363107433
 20
-123.038312414987
 10
93.75827363107433
 20
-123.038312414987
 10
93.55776907383279
 20
-122.9549411042439
 10
93.55776907383279
 20
-122.9549411042439
 10
93.61357962069383
 20
-122.8433200105218
 10
93.78445635676222
 20
-122.5063896720644
 10
94.23576386532996
 20
-122.6934583569135
 10
94.45762801458004
 20
-122.7850978968211
 10
94.64710826626879
 20
-123.0011053837463
 10
94.53376462480406
 20
-123.2746459652751
 10
94.46245114825939
 20
-123.4469007395376
 10
94.33670516304777
 20
-123.4841077707783
 10
94.21509329241846
 20
-123.4999552100104
 10
94.26504717695458
 20
-123.5502536040951
 10
94.4142198114659
 20
-123.6990817290579
 10
94.3081108705202
 20
-123.9553968331605
 10
94.1785752802748
 20
-124.2682115032212
 10
93.86989472479642
 20
-124.321265973694
 10
93.59635414326758
 20
-124.2075778226807
 97
        0
 97
        0
 75
     2
 76
     1
 98
        0
  0
SPLINE
  5
4C
330
44
100
AcDbEntity
  8
_U+30EC_U+30A4_U+30E4_U+30FC 1
370
     0
100
AcDbSpline
210
0.0
220
0.0
230
1.0
 70
    11
 71
     3
 72
    53
 73
    49
 74
     0
 42
0.0000000001
 43
0.0000000001
 12
1.0
 22
0.0
 32
0.0
 13
1.0
 23
0.0
 33
0.0
 40
0.0
 40
0.0
 40
0.0
 40
0.0
 40
1.0
 40
1.0
 40
1.0
 40
2.0
 40
2.0
 40
2.0
 40
3.0
 40
3.0
 40
3.0
 40
4.0
 40
4.0
 40
4.0
 40
5.0
 40
5.0
 40
5.0
 40
6.0
 40
6.0
 40
6.0
 40
7.0
 40
7.0
 40
7.0
 40
8.0
 40
8.0
 40
8.0
 40
9.0
 40
9.0
 40
9.0
 40
10.0
 40
10.0
 40
10.0
 40
11.0
 40
11.0
 40
11.0
 40
12.0
 40
12.0
 40
12.0
 40
13.0
 40
13.0
 40
13.0
 40
14.0
 40
14.0
 40
14.0
 40
15.0
 40
15.0
 40
15.0
 40
16.0
 40
16.0
 40
16.0
 40
16.0
 10
94.74839407353512
 20
-124.6847235473878
 30
0.0
 10
94.67053491556848
 20
-124.652684159375
 30
0.0
 10
94.5771728279182
 20
-124.5954955743199
 30
0.0
 10
94.50103621769419
 20
-124.4955878052476
 30
0.0
 10
94.37184513699732
 20
-124.3226440118881
 30
0.0
 10
94.40147295817047
 20
-124.1931084216427
 30
0.0
 10
94.42386607882459
 20
-124.0856214425029
 30
0.0
 10
94.42386607882459
 20
-124.0856214425029
 30
0.0
 10
94.64297415168649
 20
-124.1765719633135
 30
0.0
 10
94.64297415168649
 20
-124.1765719633135
 30
0.0
 10
94.62127005012941
 20
-124.3825886733314
 30
0.0
 10
94.73530271069117
 20
-124.4618258694922
 30
0.0
 10
94.82728676014735
 20
-124.4997219198299
 30
0.0
 10
94.96509057955734
 20
-124.5569105048851
 30
0.0
 10
95.15353730260051
 20
-124.5276271932605
 30
0.0
 10
95.24276527566848
 20
-124.3123087254323
 30
0.0
 10
95.34060598744958
 20
-124.0759751751442
 30
0.0
 10
95.19005531474416
 20
-123.9381713557342
 30
0.0
 10
95.07085501095452
 20
-123.8885619807466
 30
0.0
 10
95.03916013249021
 20
-123.8754706179027
 30
0.0
 10
94.89928925578907
 20
-123.8175930137505
 30
0.0
 10
94.76217445547613
 20
-123.9002753053965
 30
0.0
 10
94.76217445547613
 20
-123.9002753053965
 30
0.0
 10
94.59612085308709
 20
-123.8110473323285
 30
0.0
 10
94.59612085308709
 20
-123.8110473323285
 30
0.0
 10
94.59612085308709
 20
-123.8110473323285
 30
0.0
 10
95.03881562294168
 20
-123.0789645417129
 30
0.0
 10
95.03881562294168
 20
-123.0789645417129
 30
0.0
 10
95.03881562294168
 20
-123.0789645417129
 30
0.0
 10
95.80741642570092
 20
-123.39729136455
 30
0.0
 10
95.80741642570092
 20
-123.39729136455
 30
0.0
 10
95.80741642570092
 20
-123.39729136455
 30
0.0
 10
95.73300236321953
 20
-123.57712534888
 30
0.0
 10
95.73300236321953
 20
-123.57712534888
 30
0.0
 10
95.73300236321953
 20
-123.57712534888
 30
0.0
 10
95.12528751962147
 20
-123.3252888689083
 30
0.0
 10
95.12528751962147
 20
-123.3252888689083
 30
0.0
 10
95.12528751962147
 20
-123.3252888689083
 30
0.0
 10
94.89860023669202
 20
-123.6894354616992
 30
0.0
 10
94.89860023669202
 20
-123.6894354616992
 30
0.0
 10
94.97232528007636
 20
-123.6828897802772
 30
0.0
 10
95.06878795366336
 20
-123.6794446847919
 30
0.0
 10
95.18592120016186
 20
-123.728020531134
 30
0.0
 10
95.43672415148805
 20
-123.83171790524
 30
0.0
 10
95.59933265839184
 20
-124.100779862638
 30
0.0
 10
95.47944333550514
 20
-124.3898233738505
 30
0.0
 10
95.35783146487583
 20
-124.6830009996452
 30
0.0
 10
95.04673934255776
 20
-124.8084024753083
 30
0.0
 10
94.74839407353512
 20
-124.6847235473878
 30
0.0
  0
HATCH
  5
4D
330
44
100
AcDbEntity
  8
_U+30EC_U+30A4_U+30E4_U+30FC 1
 62
     7
420
 16777215
100
AcDbHatch
 10
0.0
 20
0.0
 30
0.0
210
0.0
220
0.0
230
1.0
  2
SOLID
 70
     1
 71
     0
 91
        1
 92
        1
 93
        1
 72
     4
 94
        3
 73
     0
 74
     1
 95
       53
 96
       49
 40
0.0
 40
0.0
 40
0.0
 40
0.0
 40
1.0
 40
1.0
 40
1.0
 40
2.0
 40
2.0
 40
2.0
 40
3.0
 40
3.0
 40
3.0
 40
4.0
 40
4.0
 40
4.0
 40
5.0
 40
5.0
 40
5.0
 40
6.0
 40
6.0
 40
6.0
 40
7.0
 40
7.0
 40
7.0
 40
8.0
 40
8.0
 40
8.0
 40
9.0
 40
9.0
 40
9.0
 40
10.0
 40
10.0
 40
10.0
 40
11.0
 40
11.0
 40
11.0
 40
12.0
 40
12.0
 40
12.0
 40
13.0
 40
13.0
 40
13.0
 40
14.0
 40
14.0
 40
14.0
 40
15.0
 40
15.0
 40
15.0
 40
16.0
 40
16.0
 40
16.0
 40
16.0
 10
94.74839407353512
 20
-124.6847235473878
 10
94.67053491556848
 20
-124.652684159375
 10
94.5771728279182
 20
-124.5954955743199
 10
94.50103621769419
 20
-124.4955878052476
 10
94.37184513699732
 20
-124.3226440118881
 10
94.40147295817047
 20
-124.1931084216427
 10
94.42386607882459
 20
-124.0856214425029
 10
94.42386607882459
 20
-124.0856214425029
 10
94.64297415168649
 20
-124.1765719633135
 10
94.64297415168649
 20
-124.1765719633135
 10
94.62127005012941
 20
-124.3825886733314
 10
94.73530271069117
 20
-124.4618258694922
 10
94.82728676014735
 20
-124.4997219198299
 10
94.96509057955734
 20
-124.5569105048851
 10
95.15353730260051
 20
-124.5276271932605
 10
95.24276527566848
 20
-124.3123087254323
 10
95.34060598744958
 20
-124.0759751751442
 10
95.19005531474416
 20
-123.9381713557342
 10
95.07085501095452
 20
-123.8885619807466
 10
95.03916013249021
 20
-123.8754706179027
 10
94.89928925578907
 20
-123.8175930137505
 10
94.76217445547613
 20
-123.9002753053965
 10
94.76217445547613
 20
-123.9002753053965
 10
94.59612085308709
 20
-123.8110473323285
 10
94.59612085308709
 20
-123.8110473323285
 10
94.59612085308709
 20
-123.8110473323285
 10
95.03881562294168
 20
-123.0789645417129
 10
95.03881562294168
 20
-123.0789645417129
 10
95.03881562294168
 20
-123.0789645417129
 10
95.80741642570092
 20
-123.39729136455
 10
95.80741642570092
 20
-123.39729136455
 10
95.80741642570092
 20
-123.39729136455
 10
95.73300236321953
 20
-123.57712534888
 10
95.73300236321953
 20
-123.57712534888
 10
95.73300236321953
 20
-123.57712534888
 10
95.12528751962147
 20
-123.3252888689083
 10
95.12528751962147
 20
-123.3252888689083
 10
95.12528751962147
 20
-123.3252888689083
 10
94.89860023669202
 20
-123.6894354616992
 10
94.89860023669202
 20
-123.6894354616992
 10
94.97232528007636
 20
-123.6828897802772
 10
95.06878795366336
 20
-123.6794446847919
 10
95.18592120016186
 20
-123.728020531134
 10
95.43672415148805
 20
-123.83171790524
 10
95.59933265839184
 20
-124.100779862638
 10
95.47944333550514
 20
-124.3898233738505
 10
95.35783146487583
 20
-124.6830009996452
 10
95.04673934255776
 20
-124.8084024753083
 10
94.74839407353512
 20
-124.6847235473878
 97
        0
 97
        0
 75
     2
 76
     1
 98
        0
  0
SPLINE
  5
4E
330
44
100
AcDbEntity
  8
_U+30EC_U+30A4_U+30E4_U+30FC 1
370
     0
100
AcDbSpline
210
0.0
220
0.0
230
1.0
 70
    11
 71
     3
 72
    17
 73
    13
 74
     0
 42
0.0000000001
 43
0.0000000001
 12
1.0
 22
0.0
 32
0.0
 13
1.0
 23
0.0
 33
0.0
 40
0.0
 40
0.0
 40
0.0
 40
0.0
 40
1.0
 40
1.0
 40
1.0
 40
2.0
 40
2.0
 40
2.0
 40
3.0
 40
3.0
 40
3.0
 40
4.0
 40
4.0
 40
4.0
 40
4.0
 10
96.56671547065
 20
-123.9884697498189
 30
0.0
 10
96.50367022326992
 20
-124.1407429702669
 30
0.0
 10
96.31901310526052
 20
-124.2151570327483
 30
0.0
 10
96.14951440738623
 20
-124.1452215943977
 30
0.0
 10
95.98242727635161
 20
-124.0759751751442
 30
0.0
 10
95.90112302289972
 20
-123.8937296239745
 30
0.0
 10
95.96520179892536
 20
-123.7393893462353
 30
0.0
 10
96.02928057495102
 20
-123.5847045589476
 30
0.0
 10
96.2153157311545
 20
-123.5130465728544
 30
0.0
 10
96.38274737173765
 20
-123.5822929921079
 30
0.0
 10
96.55224606961194
 20
-123.6522284304585
 30
0.0
 10
96.62976071803007
 20
-123.8358520198223
 30
0.0
 10
96.56671547065
 20
-123.9884697498189
 30
0.0
  0
SPLINE
  5
4F
330
44
100
AcDbEntity
  8
_U+30EC_U+30A4_U+30E4_U+30FC 1
370
     0
100
AcDbSpline
210
0.0
220
0.0
230
1.0
 70
    11
 71
     3
 72
    17
 73
    13
 74
     0
 42
0.0000000001
 43
0.0000000001
 12
1.0
 22
0.0
 32
0.0
 13
1.0
 23
0.0
 33
0.0
 40
0.0
 40
0.0
 40
0.0
 40
0.0
 40
1.0
 40
1.0
 40
1.0
 40
2.0
 40
2.0
 40
2.0
 40
3.0
 40
3.0
 40
3.0
 40
4.0
 40
4.0
 40
4.0
 40
4.0
 10
96.08853621729732
 20
-123.790376759417
 30
0.0
 10
96.05064016695957
 20
-123.8823608088732
 30
0.0
 10
96.09921601330159
 20
-123.9895032784644
 30
0.0
 10
96.19705672508269
 20
-124.0298108956419
 30
0.0
 10
96.2952419464123
 20
-124.0704630223678
 30
0.0
 10
96.40582951148882
 20
-124.0291218765448
 30
0.0
 10
96.44372556182657
 20
-123.9374823366372
 30
0.0
 10
96.48196612171284
 20
-123.845498287181
 30
0.0
 10
96.43511282311344
 20
-123.7390448366868
 30
0.0
 10
96.33486054449268
 20
-123.6977036908638
 30
0.0
 10
96.23460826587191
 20
-123.6563625450408
 30
0.0
 10
96.1267767771836
 20
-123.6983927099608
 30
0.0
 10
96.08853621729732
 20
-123.790376759417
 30
0.0
  0
HATCH
  5
50
330
44
100
AcDbEntity
  8
_U+30EC_U+30A4_U+30E4_U+30FC 1
 62
     7
420
 16777215
100
AcDbHatch
 10
0.0
 20
0.0
 30
0.0
210
0.0
220
0.0
230
1.0
  2
SOLID
 70
     1
 71
     0
 91
        2
 92
        1
 93
        1
 72
     4
 94
        3
 73
     0
 74
     1
 95
       17
 96
       13
 40
0.0
 40
0.0
 40
0.0
 40
0.0
 40
1.0
 40
1.0
 40
1.0
 40
2.0
 40
2.0
 40
2.0
 40
3.0
 40
3.0
 40
3.0
 40
4.0
 40
4.0
 40
4.0
 40
4.0
 10
96.56671547065
 20
-123.9884697498189
 10
96.50367022326992
 20
-124.1407429702669
 10
96.31901310526052
 20
-124.2151570327483
 10
96.14951440738623
 20
-124.1452215943977
 10
95.98242727635161
 20
-124.0759751751442
 10
95.90112302289972
 20
-123.8937296239745
 10
95.96520179892536
 20
-123.7393893462353
 10
96.02928057495102
 20
-123.5847045589476
 10
96.2153157311545
 20
-123.5130465728544
 10
96.38274737173765
 20
-123.5822929921079
 10
96.55224606961194
 20
-123.6522284304585
 10
96.62976071803007
 20
-123.8358520198223
 10
96.56671547065
 20
-123.9884697498189
 97
        0
 97
        0
 92
        1
 93
        1
 72
     4
 94
        3
 73
     0
 74
     1
 95
       17
 96
       13
 40
0.0
 40
0.0
 40
0.0
 40
0.0
 40
1.0
 40
1.0
 40
1.0
 40
2.0
 40
2.0
 40
2.0
 40
3.0
 40
3.0
 40
3.0
 40
4.0
 40
4.0
 40
4.0
 40
4.0
 10
96.08853621729732
 20
-123.790376759417
 10
96.05064016695957
 20
-123.8823608088732
 10
96.09921601330159
 20
-123.9895032784644
 10
96.19705672508269
 20
-124.0298108956419
 10
96.2952419464123
 20
-124.0704630223678
 10
96.40582951148882
 20
-124.0291218765448
 10
96.44372556182657
 20
-123.9374823366372
 10
96.48196612171284
 20
-123.845498287181
 10
96.43511282311344
 20
-123.7390448366868
 10
96.33486054449268
 20
-123.6977036908638
 10
96.23460826587191
 20
-123.6563625450408
 10
96.1267767771836
 20
-123.6983927099608
 10
96.08853621729732
 20
-123.790376759417
 97
        0
 97
        0
 75
     2
 76
     1
 98
        0
  0
ENDBLK
  5
47
330
44
100
AcDbEntity
  8
0
100
AcDbBlockEnd
  0
BLOCK
  5
6A
330
68
100
AcDbEntity
  8
0
100
AcDbBlockBegin
  2
block 3
 70
     0
 10
0.0
 20
0.0
 30
0.0
  3
block 3
  1

  0
SPLINE
  5
6C
330
68
100
AcDbEntity
  8
_U+30EC_U+30A4_U+30E4_U+30FC 1
370
     0
100
AcDbSpline
210
0.0
220
0.0
230
1.0
 70
    11
 71
     3
 72
    26
 73
    22
 74
     0
 42
0.0000000001
 43
0.0000000001
 12
1.0
 22
0.0
 32
0.0
 13
1.0
 23
0.0
 33
0.0
 40
0.0
 40
0.0
 40
0.0
 40
0.0
 40
1.0
 40
1.0
 40
1.0
 40
2.0
 40
2.0
 40
2.0
 40
3.0
 40
3.0
 40
3.0
 40
4.0
 40
4.0
 40
4.0
 40
5.0
 40
5.0
 40
5.0
 40
6.0
 40
6.0
 40
6.0
 40
7.0
 40
7.0
 40
7.0
 40
7.0
 10
103.0893147528735
 20
-135.5055962117833
 30
0.0
 10
103.0893147528735
 20
-135.5055962117833
 30
0.0
 10
101.9851616498509
 20
-135.5055962117833
 30
0.0
 10
101.9851616498509
 20
-135.5055962117833
 30
0.0
 10
101.9851616498509
 20
-135.5055962117833
 30
0.0
 10
101.9851616498509
 20
-135.8580294799244
 30
0.0
 10
101.9851616498509
 20
-135.8580294799244
 30
0.0
 10
101.9851616498509
 20
-135.8580294799244
 30
0.0
 10
101.8370225439852
 20
-135.8580294799244
 30
0.0
 10
101.8370225439852
 20
-135.8580294799244
 30
0.0
 10
101.8222086333986
 20
-135.5031846449436
 30
0.0
 10
101.6592556169463
 20
-135.453575269956
 30
0.0
 10
101.544878446836
 20
-135.4218803914918
 30
0.0
 10
101.544878446836
 20
-135.4218803914918
 30
0.0
 10
101.544878446836
 20
-135.2658175660099
 30
0.0
 10
101.544878446836
 20
-135.2658175660099
 30
0.0
 10
101.544878446836
 20
-135.2658175660099
 30
0.0
 10
103.0893147528735
 20
-135.2658175660099
 30
0.0
 10
103.0893147528735
 20
-135.2658175660099
 30
0.0
 10
103.0893147528735
 20
-135.2658175660099
 30
0.0
 10
103.0893147528735
 20
-135.5055962117833
 30
0.0
 10
103.0893147528735
 20
-135.5055962117833
 30
0.0
  0
HATCH
  5
6D
330
68
100
AcDbEntity
  8
_U+30EC_U+30A4_U+30E4_U+30FC 1
 62
     7
420
 16777215
100
AcDbHatch
 10
0.0
 20
0.0
 30
0.0
210
0.0
220
0.0
230
1.0
  2
SOLID
 70
     1
 71
     0
 91
        1
 92
        1
 93
        1
 72
     4
 94
        3
 73
     0
 74
     1
 95
       26
 96
       22
 40
0.0
 40
0.0
 40
0.0
 40
0.0
 40
1.0
 40
1.0
 40
1.0
 40
2.0
 40
2.0
 40
2.0
 40
3.0
 40
3.0
 40
3.0
 40
4.0
 40
4.0
 40
4.0
 40
5.0
 40
5.0
 40
5.0
 40
6.0
 40
6.0
 40
6.0
 40
7.0
 40
7.0
 40
7.0
 40
7.0
 10
103.0893147528735
 20
-135.5055962117833
 10
103.0893147528735
 20
-135.5055962117833
 10
101.9851616498509
 20
-135.5055962117833
 10
101.9851616498509
 20
-135.5055962117833
 10
101.9851616498509
 20
-135.5055962117833
 10
101.9851616498509
 20
-135.8580294799244
 10
101.9851616498509
 20
-135.8580294799244
 10
101.9851616498509
 20
-135.8580294799244
 10
101.8370225439852
 20
-135.8580294799244
 10
101.8370225439852
 20
-135.8580294799244
 10
101.8222086333986
 20
-135.5031846449436
 10
101.6592556169463
 20
-135.453575269956
 10
101.544878446836
 20
-135.4218803914918
 10
101.544878446836
 20
-135.4218803914918
 10
101.544878446836
 20
-135.2658175660099
 10
101.544878446836
 20
-135.2658175660099
 10
101.544878446836
 20
-135.2658175660099
 10
103.0893147528735
 20
-135.2658175660099
 10
103.0893147528735
 20
-135.2658175660099
 10
103.0893147528735
 20
-135.2658175660099
 10
103.0893147528735
 20
-135.5055962117833
 10
103.0893147528735
 20
-135.5055962117833
 97
        0
 97
        0
 75
     2
 76
     1
 98
        0
  0
SPLINE
  5
6E
330
68
100
AcDbEntity
  8
_U+30EC_U+30A4_U+30E4_U+30FC 1
370
     0
100
AcDbSpline
210
0.0
220
0.0
230
1.0
 70
    11
 71
     3
 72
    29
 73
    25
 74
     0
 42
0.0000000001
 43
0.0000000001
 12
1.0
 22
0.0
 32
0.0
 13
1.0
 23
0.0
 33
0.0
 40
0.0
 40
0.0
 40
0.0
 40
0.0
 40
1.0
 40
1.0
 40
1.0
 40
2.0
 40
2.0
 40
2.0
 40
3.0
 40
3.0
 40
3.0
 40
4.0
 40
4.0
 40
4.0
 40
5.0
 40
5.0
 40
5.0
 40
6.0
 40
6.0
 40
6.0
 40
7.0
 40
7.0
 40
7.0
 40
8.0
 40
8.0
 40
8.0
 40
8.0
 10
102.9115478258346
 20
-133.7706461254115
 30
0.0
 10
103.1210096313378
 20
-133.8860568241674
 30
0.0
 10
103.1399576565067
 20
-134.0714029612738
 30
0.0
 10
103.1399576565067
 20
-134.1957709082913
 30
0.0
 10
103.1399576565067
 20
-134.3673366634568
 30
0.0
 10
103.0934488674558
 20
-134.5189208648078
 30
0.0
 10
102.9115478258346
 20
-134.6205511816227
 30
0.0
 10
102.716899930918
 20
-134.7314832562477
 30
0.0
 10
102.4802218710813
 20
-134.7518093196107
 30
0.0
 10
102.317268854629
 20
-134.7518093196107
 30
0.0
 10
102.1732638633456
 20
-134.7518093196107
 30
0.0
 10
101.9214273833738
 20
-134.7335503135388
 30
0.0
 10
101.7226453738749
 20
-134.6205511816227
 30
0.0
 10
101.5197292497937
 20
-134.5054849924153
 30
0.0
 10
101.496302600494
 20
-134.3335747277013
 30
0.0
 10
101.496302600494
 20
-134.1957709082913
 30
0.0
 10
101.496302600494
 20
-134.0259277008685
 30
0.0
 10
101.5407443322537
 20
-133.8722764422264
 30
0.0
 10
101.7226453738749
 20
-133.7706461254115
 30
0.0
 10
101.9152262115004
 20
-133.6641926749173
 30
0.0
 10
102.1436360421724
 20
-133.6393879874235
 30
0.0
 10
102.317268854629
 20
-133.6393879874235
 30
0.0
 10
102.4884901002459
 20
-133.6393879874235
 30
0.0
 10
102.7189669882091
 20
-133.6621256176261
 30
0.0
 10
102.9115478258346
 20
-133.7706461254115
 30
0.0
  0
SPLINE
  5
6F
330
68
100
AcDbEntity
  8
_U+30EC_U+30A4_U+30E4_U+30FC 1
370
     0
100
AcDbSpline
210
0.0
220
0.0
230
1.0
 70
    11
 71
     3
 72
    17
 73
    13
 74
     0
 42
0.0000000001
 43
0.0000000001
 12
1.0
 22
0.0
 32
0.0
 13
1.0
 23
0.0
 33
0.0
 40
0.0
 40
0.0
 40
0.0
 40
0.0
 40
1.0
 40
1.0
 40
1.0
 40
2.0
 40
2.0
 40
2.0
 40
3.0
 40
3.0
 40
3.0
 40
4.0
 40
4.0
 40
4.0
 40
4.0
 10
101.6888834381194
 20
-134.1957709082913
 30
0.0
 10
101.6888834381194
 20
-134.4624212988497
 30
0.0
 10
101.9724147965555
 20
-134.5120306738373
 30
0.0
 10
102.317268854629
 20
-134.5120306738373
 30
0.0
 10
102.6366292061117
 20
-134.5120306738373
 30
0.0
 10
102.9453097615901
 20
-134.473790113951
 30
0.0
 10
102.9453097615901
 20
-134.1957709082913
 30
0.0
 10
102.9453097615901
 20
-133.9311875750242
 30
0.0
 10
102.6641899699937
 20
-133.8791666331969
 30
0.0
 10
102.317268854629
 20
-133.8791666331969
 30
0.0
 10
101.9975639935978
 20
-133.8791666331969
 30
0.0
 10
101.6888834381194
 20
-133.9198187599228
 30
0.0
 10
101.6888834381194
 20
-134.1957709082913
 30
0.0
  0
HATCH
  5
70
330
68
100
AcDbEntity
  8
_U+30EC_U+30A4_U+30E4_U+30FC 1
 62
     7
420
 16777215
100
AcDbHatch
 10
0.0
 20
0.0
 30
0.0
210
0.0
220
0.0
230
1.0
  2
SOLID
 70
     1
 71
     0
 91
        2
 92
        1
 93
        1
 72
     4
 94
        3
 73
     0
 74
     1
 95
       29
 96
       25
 40
0.0
 40
0.0
 40
0.0
 40
0.0
 40
1.0
 40
1.0
 40
1.0
 40
2.0
 40
2.0
 40
2.0
 40
3.0
 40
3.0
 40
3.0
 40
4.0
 40
4.0
 40
4.0
 40
5.0
 40
5.0
 40
5.0
 40
6.0
 40
6.0
 40
6.0
 40
7.0
 40
7.0
 40
7.0
 40
8.0
 40
8.0
 40
8.0
 40
8.0
 10
102.9115478258346
 20
-133.7706461254115
 10
103.1210096313378
 20
-133.8860568241674
 10
103.1399576565067
 20
-134.0714029612738
 10
103.1399576565067
 20
-134.1957709082913
 10
103.1399576565067
 20
-134.3673366634568
 10
103.0934488674558
 20
-134.5189208648078
 10
102.9115478258346
 20
-134.6205511816227
 10
102.716899930918
 20
-134.7314832562477
 10
102.4802218710813
 20
-134.7518093196107
 10
102.317268854629
 20
-134.7518093196107
 10
102.1732638633456
 20
-134.7518093196107
 10
101.9214273833738
 20
-134.7335503135388
 10
101.7226453738749
 20
-134.6205511816227
 10
101.5197292497937
 20
-134.5054849924153
 10
101.496302600494
 20
-134.3335747277013
 10
101.496302600494
 20
-134.1957709082913
 10
101.496302600494
 20
-134.0259277008685
 10
101.5407443322537
 20
-133.8722764422264
 10
101.7226453738749
 20
-133.7706461254115
 10
101.9152262115004
 20
-133.6641926749173
 10
102.1436360421724
 20
-133.6393879874235
 10
102.317268854629
 20
-133.6393879874235
 10
102.4884901002459
 20
-133.6393879874235
 10
102.7189669882091
 20
-133.6621256176261
 10
102.9115478258346
 20
-133.7706461254115
 97
        0
 97
        0
 92
        1
 93
        1
 72
     4
 94
        3
 73
     0
 74
     1
 95
       17
 96
       13
 40
0.0
 40
0.0
 40
0.0
 40
0.0
 40
1.0
 40
1.0
 40
1.0
 40
2.0
 40
2.0
 40
2.0
 40
3.0
 40
3.0
 40
3.0
 40
4.0
 40
4.0
 40
4.0
 40
4.0
 10
101.6888834381194
 20
-134.1957709082913
 10
101.6888834381194
 20
-134.4624212988497
 10
101.9724147965555
 20
-134.5120306738373
 10
102.317268854629
 20
-134.5120306738373
 10
102.6366292061117
 20
-134.5120306738373
 10
102.9453097615901
 20
-134.473790113951
 10
102.9453097615901
 20
-134.1957709082913
 10
102.9453097615901
 20
-133.9311875750242
 10
102.6641899699937
 20
-133.8791666331969
 10
102.317268854629
 20
-133.8791666331969
 10
101.9975639935978
 20
-133.8791666331969
 10
101.6888834381194
 20
-133.9198187599228
 10
101.6888834381194
 20
-134.1957709082913
 97
        0
 97
        0
 75
     2
 76
     1
 98
        0
  0
ENDBLK
  5
6B
330
68
100
AcDbEntity
  8
0
100
AcDbBlockEnd
  0
BLOCK
  5
73
330
71
100
AcDbEntity
  8
0
100
AcDbBlockBegin
  2
block 4
 70
     0
 10
0.0
 20
0.0
 30
0.0
  3
block 4
  1

  0
SPLINE
  5
75
330
71
100
AcDbEntity
  8
_U+30EC_U+30A4_U+30E4_U+30FC 1
370
     0
100
AcDbSpline
210
0.0
220
0.0
230
1.0
 70
    11
 71
     3
 72
    26
 73
    22
 74
     0
 42
0.0000000001
 43
0.0000000001
 12
1.0
 22
0.0
 32
0.0
 13
1.0
 23
0.0
 33
0.0
 40
0.0
 40
0.0
 40
0.0
 40
0.0
 40
1.0
 40
1.0
 40
1.0
 40
2.0
 40
2.0
 40
2.0
 40
3.0
 40
3.0
 40
3.0
 40
4.0
 40
4.0
 40
4.0
 40
5.0
 40
5.0
 40
5.0
 40
6.0
 40
6.0
 40
6.0
 40
7.0
 40
7.0
 40
7.0
 40
7.0
 10
103.0893147528735
 20
-142.4960394609038
 30
0.0
 10
103.0893147528735
 20
-142.4960394609038
 30
0.0
 10
101.9851616498509
 20
-142.4960394609038
 30
0.0
 10
101.9851616498509
 20
-142.4960394609038
 30
0.0
 10
101.9851616498509
 20
-142.4960394609038
 30
0.0
 10
101.9851616498509
 20
-142.8484727290448
 30
0.0
 10
101.9851616498509
 20
-142.8484727290448
 30
0.0
 10
101.9851616498509
 20
-142.8484727290448
 30
0.0
 10
101.8370225439852
 20
-142.8484727290448
 30
0.0
 10
101.8370225439852
 20
-142.8484727290448
 30
0.0
 10
101.8222086333986
 20
-142.4936278940641
 30
0.0
 10
101.6592556169463
 20
-142.4440185190765
 30
0.0
 10
101.544878446836
 20
-142.4123236406122
 30
0.0
 10
101.544878446836
 20
-142.4123236406122
 30
0.0
 10
101.544878446836
 20
-142.2562608151304
 30
0.0
 10
101.544878446836
 20
-142.2562608151304
 30
0.0
 10
101.544878446836
 20
-142.2562608151304
 30
0.0
 10
103.0893147528735
 20
-142.2562608151304
 30
0.0
 10
103.0893147528735
 20
-142.2562608151304
 30
0.0
 10
103.0893147528735
 20
-142.2562608151304
 30
0.0
 10
103.0893147528735
 20
-142.4960394609038
 30
0.0
 10
103.0893147528735
 20
-142.4960394609038
 30
0.0
  0
HATCH
  5
76
330
71
100
AcDbEntity
  8
_U+30EC_U+30A4_U+30E4_U+30FC 1
 62
     7
420
 16777215
100
AcDbHatch
 10
0.0
 20
0.0
 30
0.0
210
0.0
220
0.0
230
1.0
  2
SOLID
 70
     1
 71
     0
 91
        1
 92
        1
 93
        1
 72
     4
 94
        3
 73
     0
 74
     1
 95
       26
 96
       22
 40
0.0
 40
0.0
 40
0.0
 40
0.0
 40
1.0
 40
1.0
 40
1.0
 40
2.0
 40
2.0
 40
2.0
 40
3.0
 40
3.0
 40
3.0
 40
4.0
 40
4.0
 40
4.0
 40
5.0
 40
5.0
 40
5.0
 40
6.0
 40
6.0
 40
6.0
 40
7.0
 40
7.0
 40
7.0
 40
7.0
 10
103.0893147528735
 20
-142.4960394609038
 10
103.0893147528735
 20
-142.4960394609038
 10
101.9851616498509
 20
-142.4960394609038
 10
101.9851616498509
 20
-142.4960394609038
 10
101.9851616498509
 20
-142.4960394609038
 10
101.9851616498509
 20
-142.8484727290448
 10
101.9851616498509
 20
-142.8484727290448
 10
101.9851616498509
 20
-142.8484727290448
 10
101.8370225439852
 20
-142.8484727290448
 10
101.8370225439852
 20
-142.8484727290448
 10
101.8222086333986
 20
-142.4936278940641
 10
101.6592556169463
 20
-142.4440185190765
 10
101.544878446836
 20
-142.4123236406122
 10
101.544878446836
 20
-142.4123236406122
 10
101.544878446836
 20
-142.2562608151304
 10
101.544878446836
 20
-142.2562608151304
 10
101.544878446836
 20
-142.2562608151304
 10
103.0893147528735
 20
-142.2562608151304
 10
103.0893147528735
 20
-142.2562608151304
 10
103.0893147528735
 20
-142.2562608151304
 10
103.0893147528735
 20
-142.4960394609038
 10
103.0893147528735
 20
-142.4960394609038
 97
        0
 97
        0
 75
     2
 76
     1
 98
        0
  0
ENDBLK
  5
74
330
71
100
AcDbEntity
  8
0
100
AcDbBlockEnd
  0
BLOCK
  5
89
330
87
100
AcDbEntity
  8
0
100
AcDbBlockBegin
  2
block 5
 70
     0
 10
0.0
 20
0.0
 30
0.0
  3
block 5
  1

  0
SPLINE
  5
8B
330
87
100
AcDbEntity
  8
_U+30EC_U+30A4_U+30E4_U+30FC 1
370
     0
100
AcDbSpline
210
0.0
220
0.0
230
1.0
 70
    11
 71
     3
 72
    26
 73
    22
 74
     0
 42
0.0000000001
 43
0.0000000001
 12
1.0
 22
0.0
 32
0.0
 13
1.0
 23
0.0
 33
0.0
 40
0.0
 40
0.0
 40
0.0
 40
0.0
 40
1.0
 40
1.0
 40
1.0
 40
2.0
 40
2.0
 40
2.0
 40
3.0
 40
3.0
 40
3.0
 40
4.0
 40
4.0
 40
4.0
 40
5.0
 40
5.0
 40
5.0
 40
6.0
 40
6.0
 40
6.0
 40
7.0
 40
7.0
 40
7.0
 40
7.0
 10
81.08066675490345
 20
-138.293022968899
 30
0.0
 10
81.08066675490345
 20
-138.293022968899
 30
0.0
 10
81.86511499689483
 20
-137.5158094274266
 30
0.0
 10
81.86511499689483
 20
-137.5158094274266
 30
0.0
 10
81.86511499689483
 20
-137.5158094274266
 30
0.0
 10
81.61706812195685
 20
-137.265350985649
 30
0.0
 10
81.61706812195685
 20
-137.265350985649
 30
0.0
 10
81.61706812195685
 20
-137.265350985649
 30
0.0
 10
81.72231578903123
 20
-137.1609645924459
 30
0.0
 10
81.72231578903123
 20
-137.1609645924459
 30
0.0
 10
81.98259275294185
 20
-137.4028102955104
 30
0.0
 10
82.13331568042153
 20
-137.3235730993497
 30
0.0
 10
82.23666854497903
 20
-137.265350985649
 30
0.0
 10
82.23666854497903
 20
-137.265350985649
 30
0.0
 10
82.3465670909585
 20
-137.376283060274
 30
0.0
 10
82.3465670909585
 20
-137.376283060274
 30
0.0
 10
82.3465670909585
 20
-137.376283060274
 30
0.0
 10
81.24947643368068
 20
-138.4632106858703
 30
0.0
 10
81.24947643368068
 20
-138.4632106858703
 30
0.0
 10
81.24947643368068
 20
-138.4632106858703
 30
0.0
 10
81.08066675490345
 20
-138.293022968899
 30
0.0
 10
81.08066675490345
 20
-138.293022968899
 30
0.0
  0
HATCH
  5
8C
330
87
100
AcDbEntity
  8
_U+30EC_U+30A4_U+30E4_U+30FC 1
 62
     7
420
 16777215
100
AcDbHatch
 10
0.0
 20
0.0
 30
0.0
210
0.0
220
0.0
230
1.0
  2
SOLID
 70
     1
 71
     0
 91
        1
 92
        1
 93
        1
 72
     4
 94
        3
 73
     0
 74
     1
 95
       26
 96
       22
 40
0.0
 40
0.0
 40
0.0
 40
0.0
 40
1.0
 40
1.0
 40
1.0
 40
2.0
 40
2.0
 40
2.0
 40
3.0
 40
3.0
 40
3.0
 40
4.0
 40
4.0
 40
4.0
 40
5.0
 40
5.0
 40
5.0
 40
6.0
 40
6.0
 40
6.0
 40
7.0
 40
7.0
 40
7.0
 40
7.0
 10
81.08066675490345
 20
-138.293022968899
 10
81.08066675490345
 20
-138.293022968899
 10
81.86511499689483
 20
-137.5158094274266
 10
81.86511499689483
 20
-137.5158094274266
 10
81.86511499689483
 20
-137.5158094274266
 10
81.61706812195685
 20
-137.265350985649
 10
81.61706812195685
 20
-137.265350985649
 10
81.61706812195685
 20
-137.265350985649
 10
81.72231578903123
 20
-137.1609645924459
 10
81.72231578903123
 20
-137.1609645924459
 10
81.98259275294185
 20
-137.4028102955104
 10
82.13331568042153
 20
-137.3235730993497
 10
82.23666854497903
 20
-137.265350985649
 10
82.23666854497903
 20
-137.265350985649
 10
82.3465670909585
 20
-137.376283060274
 10
82.3465670909585
 20
-137.376283060274
 10
82.3465670909585
 20
-137.376283060274
 10
81.24947643368068
 20
-138.4632106858703
 10
81.24947643368068
 20
-138.4632106858703
 10
81.24947643368068
 20
-138.4632106858703
 10
81.08066675490345
 20
-138.293022968899
 10
81.08066675490345
 20
-138.293022968899
 97
        0
 97
        0
 75
     2
 76
     1
 98
        0
  0
SPLINE
  5
8D
330
87
100
AcDbEntity
  8
_U+30EC_U+30A4_U+30E4_U+30FC 1
370
     0
100
AcDbSpline
210
0.0
220
0.0
230
1.0
 70
    11
 71
     3
 72
    29
 73
    25
 74
     0
 42
0.0000000001
 43
0.0000000001
 12
1.0
 22
0.0
 32
0.0
 13
1.0
 23
0.0
 33
0.0
 40
0.0
 40
0.0
 40
0.0
 40
0.0
 40
1.0
 40
1.0
 40
1.0
 40
2.0
 40
2.0
 40
2.0
 40
3.0
 40
3.0
 40
3.0
 40
4.0
 40
4.0
 40
4.0
 40
5.0
 40
5.0
 40
5.0
 40
6.0
 40
6.0
 40
6.0
 40
7.0
 40
7.0
 40
7.0
 40
8.0
 40
8.0
 40
8.0
 40
8.0
 10
82.42804359918466
 20
-139.4002766578583
 30
0.0
 10
82.19791122076997
 20
-139.465733472078
 30
0.0
 10
82.05407848426078
 20
-139.3472221873854
 30
0.0
 10
81.96657305893544
 20
-139.259027742963
 30
0.0
 10
81.84582246217744
 20
-139.1370713627852
 30
0.0
 10
81.7720974187931
 20
-138.996511466987
 30
0.0
 10
81.82980276817102
 20
-138.7966959288425
 30
0.0
 10
81.8900919391629
 20
-138.5810329514659
 30
0.0
 10
82.0439154525793
 20
-138.3998209289417
 30
0.0
 10
82.15967066088369
 20
-138.2850992492829
 30
0.0
 10
82.26198999679562
 20
-138.1838134420165
 30
0.0
 10
82.45370956054977
 20
-138.0194823873701
 30
0.0
 10
82.67436792638003
 20
-137.9598822354753
 30
0.0
 10
82.8995049163411
 20
-137.8989040453864
 30
0.0
 10
83.0373087357511
 20
-138.004323967235
 30
0.0
 10
83.13428817366088
 20
-138.1021646790161
 30
0.0
 10
83.25383298699904
 20
-138.2230875305484
 30
0.0
 10
83.3303141067716
 20
-138.3633029167981
 30
0.0
 10
83.27260875739366
 20
-138.5638074740396
 30
0.0
 10
83.21076929343343
 20
-138.7746473177369
 30
0.0
 10
83.06590302827867
 20
-138.9531032638728
 30
0.0
 10
82.94256860990673
 20
-139.0754041535992
 30
0.0
 10
82.8209567392774
 20
-139.195982495583
 30
0.0
 10
82.64112275494736
 20
-139.341710034609
 30
0.0
 10
82.42804359918466
 20
-139.4002766578583
 30
0.0
  0
SPLINE
  5
8E
330
87
100
AcDbEntity
  8
_U+30EC_U+30A4_U+30E4_U+30FC 1
370
     0
100
AcDbSpline
210
0.0
220
0.0
230
1.0
 70
    11
 71
     3
 72
    17
 73
    13
 74
     0
 42
0.0000000001
 43
0.0000000001
 12
1.0
 22
0.0
 32
0.0
 13
1.0
 23
0.0
 33
0.0
 40
0.0
 40
0.0
 40
0.0
 40
0.0
 40
1.0
 40
1.0
 40
1.0
 40
2.0
 40
2.0
 40
2.0
 40
3.0
 40
3.0
 40
3.0
 40
4.0
 40
4.0
 40
4.0
 40
4.0
 10
82.99751788289646
 20
-138.237901441135
 30
0.0
 10
82.80976017895034
 20
-138.0484211894462
 30
0.0
 10
82.5734266286622
 20
-138.2127522440927
 30
0.0
 10
82.32848033966094
 20
-138.4556314758028
 30
0.0
 10
82.10162080195724
 20
-138.6802517014411
 30
0.0
 10
81.90921221910604
 20
-138.9245089713453
 30
0.0
 10
82.10489364266823
 20
-139.1219129426501
 30
0.0
 10
82.29110105364597
 20
-139.3100151561447
 30
0.0
 10
82.52726234915986
 20
-139.1494737065321
 30
0.0
 10
82.77375893112948
 20
-138.9048719270793
 30
0.0
 10
83.00079072360745
 20
-138.6802517014411
 30
0.0
 10
83.19164901349029
 20
-138.4339273742457
 30
0.0
 10
82.99751788289646
 20
-138.237901441135
 30
0.0
  0
HATCH
  5
8F
330
87
100
AcDbEntity
  8
_U+30EC_U+30A4_U+30E4_U+30FC 1
 62
     7
420
 16777215
100
AcDbHatch
 10
0.0
 20
0.0
 30
0.0
210
0.0
220
0.0
230
1.0
  2
SOLID
 70
     1
 71
     0
 91
        2
 92
        1
 93
        1
 72
     4
 94
        3
 73
     0
 74
     1
 95
       29
 96
       25
 40
0.0
 40
0.0
 40
0.0
 40
0.0
 40
1.0
 40
1.0
 40
1.0
 40
2.0
 40
2.0
 40
2.0
 40
3.0
 40
3.0
 40
3.0
 40
4.0
 40
4.0
 40
4.0
 40
5.0
 40
5.0
 40
5.0
 40
6.0
 40
6.0
 40
6.0
 40
7.0
 40
7.0
 40
7.0
 40
8.0
 40
8.0
 40
8.0
 40
8.0
 10
82.42804359918466
 20
-139.4002766578583
 10
82.19791122076997
 20
-139.465733472078
 10
82.05407848426078
 20
-139.3472221873854
 10
81.96657305893544
 20
-139.259027742963
 10
81.84582246217744
 20
-139.1370713627852
 10
81.7720974187931
 20
-138.996511466987
 10
81.82980276817102
 20
-138.7966959288425
 10
81.8900919391629
 20
-138.5810329514659
 10
82.0439154525793
 20
-138.3998209289417
 10
82.15967066088369
 20
-138.2850992492829
 10
82.26198999679562
 20
-138.1838134420165
 10
82.45370956054977
 20
-138.0194823873701
 10
82.67436792638003
 20
-137.9598822354753
 10
82.8995049163411
 20
-137.8989040453864
 10
83.0373087357511
 20
-138.004323967235
 10
83.13428817366088
 20
-138.1021646790161
 10
83.25383298699904
 20
-138.2230875305484
 10
83.3303141067716
 20
-138.3633029167981
 10
83.27260875739366
 20
-138.5638074740396
 10
83.21076929343343
 20
-138.7746473177369
 10
83.06590302827867
 20
-138.9531032638728
 10
82.94256860990673
 20
-139.0754041535992
 10
82.8209567392774
 20
-139.195982495583
 10
82.64112275494736
 20
-139.341710034609
 10
82.42804359918466
 20
-139.4002766578583
 97
        0
 97
        0
 92
        1
 93
        1
 72
     4
 94
        3
 73
     0
 74
     1
 95
       17
 96
       13
 40
0.0
 40
0.0
 40
0.0
 40
0.0
 40
1.0
 40
1.0
 40
1.0
 40
2.0
 40
2.0
 40
2.0
 40
3.0
 40
3.0
 40
3.0
 40
4.0
 40
4.0
 40
4.0
 40
4.0
 10
82.99751788289646
 20
-138.237901441135
 10
82.80976017895034
 20
-138.0484211894462
 10
82.5734266286622
 20
-138.2127522440927
 10
82.32848033966094
 20
-138.4556314758028
 10
82.10162080195724
 20
-138.6802517014411
 10
81.90921221910604
 20
-138.9245089713453
 10
82.10489364266823
 20
-139.1219129426501
 10
82.29110105364597
 20
-139.3100151561447
 10
82.52726234915986
 20
-139.1494737065321
 10
82.77375893112948
 20
-138.9048719270793
 10
83.00079072360745
 20
-138.6802517014411
 10
83.19164901349029
 20
-138.4339273742457
 10
82.99751788289646
 20
-138.237901441135
 97
        0
 97
        0
 75
     2
 76
     1
 98
        0
  0
ENDBLK
  5
8A
330
87
100
AcDbEntity
  8
0
100
AcDbBlockEnd
  0
BLOCK
  5
9C
330
9A
100
AcDbEntity
  8
0
100
AcDbBlockBegin
  2
block 6
 70
     0
 10
0.0
 20
0.0
 30
0.0
  3
block 6
  1

  0
SPLINE
  5
9E
330
9A
100
AcDbEntity
  8
_U+30EC_U+30A4_U+30E4_U+30FC 1
370
     0
100
AcDbSpline
210
0.0
220
0.0
230
1.0
 70
    11
 71
     3
 72
    26
 73
    22
 74
     0
 42
0.0000000001
 43
0.0000000001
 12
1.0
 22
0.0
 32
0.0
 13
1.0
 23
0.0
 33
0.0
 40
0.0
 40
0.0
 40
0.0
 40
0.0
 40
1.0
 40
1.0
 40
1.0
 40
2.0
 40
2.0
 40
2.0
 40
3.0
 40
3.0
 40
3.0
 40
4.0
 40
4.0
 40
4.0
 40
5.0
 40
5.0
 40
5.0
 40
6.0
 40
6.0
 40
6.0
 40
7.0
 40
7.0
 40
7.0
 40
7.0
 10
86.53545869147378
 20
-119.8345458684789
 30
0.0
 10
86.53545869147378
 20
-119.8345458684789
 30
0.0
 10
87.31783987617402
 20
-119.0556097792639
 30
0.0
 10
87.31783987617402
 20
-119.0556097792639
 30
0.0
 10
87.31783987617402
 20
-119.0556097792639
 30
0.0
 10
87.06910398213898
 20
-118.8054958470347
 30
0.0
 10
87.06910398213898
 20
-118.8054958470347
 30
0.0
 10
87.06910398213898
 20
-118.8054958470347
 30
0.0
 10
87.17400713966484
 20
-118.7011094538317
 30
0.0
 10
87.17400713966484
 20
-118.7011094538317
 30
0.0
 10
87.43497312267252
 20
-118.9422661377992
 30
0.0
 10
87.58535154060367
 20
-118.8623399225414
 30
0.0
 10
87.68887665993542
 20
-118.8041178088406
 30
0.0
 10
87.68887665993542
 20
-118.8041178088406
 30
0.0
 10
87.79894746068915
 20
-118.9147053739172
 30
0.0
 10
87.79894746068915
 20
-118.9147053739172
 30
0.0
 10
87.79894746068915
 20
-118.9147053739172
 30
0.0
 10
86.70461287979954
 20
-120.0043890759017
 30
0.0
 10
86.70461287979954
 20
-120.0043890759017
 30
0.0
 10
86.70461287979954
 20
-120.0043890759017
 30
0.0
 10
86.53545869147378
 20
-119.8345458684789
 30
0.0
 10
86.53545869147378
 20
-119.8345458684789
 30
0.0
  0
HATCH
  5
9F
330
9A
100
AcDbEntity
  8
_U+30EC_U+30A4_U+30E4_U+30FC 1
 62
     7
420
 16777215
100
AcDbHatch
 10
0.0
 20
0.0
 30
0.0
210
0.0
220
0.0
230
1.0
  2
SOLID
 70
     1
 71
     0
 91
        1
 92
        1
 93
        1
 72
     4
 94
        3
 73
     0
 74
     1
 95
       26
 96
       22
 40
0.0
 40
0.0
 40
0.0
 40
0.0
 40
1.0
 40
1.0
 40
1.0
 40
2.0
 40
2.0
 40
2.0
 40
3.0
 40
3.0
 40
3.0
 40
4.0
 40
4.0
 40
4.0
 40
5.0
 40
5.0
 40
5.0
 40
6.0
 40
6.0
 40
6.0
 40
7.0
 40
7.0
 40
7.0
 40
7.0
 10
86.53545869147378
 20
-119.8345458684789
 10
86.53545869147378
 20
-119.8345458684789
 10
87.31783987617402
 20
-119.0556097792639
 10
87.31783987617402
 20
-119.0556097792639
 10
87.31783987617402
 20
-119.0556097792639
 10
87.06910398213898
 20
-118.8054958470347
 10
87.06910398213898
 20
-118.8054958470347
 10
87.06910398213898
 20
-118.8054958470347
 10
87.17400713966484
 20
-118.7011094538317
 10
87.17400713966484
 20
-118.7011094538317
 10
87.43497312267252
 20
-118.9422661377992
 10
87.58535154060367
 20
-118.8623399225414
 10
87.68887665993542
 20
-118.8041178088406
 10
87.68887665993542
 20
-118.8041178088406
 10
87.79894746068915
 20
-118.9147053739172
 10
87.79894746068915
 20
-118.9147053739172
 10
87.79894746068915
 20
-118.9147053739172
 10
86.70461287979954
 20
-120.0043890759017
 10
86.70461287979954
 20
-120.0043890759017
 10
86.70461287979954
 20
-120.0043890759017
 10
86.53545869147378
 20
-119.8345458684789
 10
86.53545869147378
 20
-119.8345458684789
 97
        0
 97
        0
 75
     2
 76
     1
 98
        0
  0
SPLINE
  5
A0
330
9A
100
AcDbEntity
  8
_U+30EC_U+30A4_U+30E4_U+30FC 1
370
     0
100
AcDbSpline
210
0.0
220
0.0
230
1.0
 70
    11
 71
     3
 72
    29
 73
    25
 74
     0
 42
0.0000000001
 43
0.0000000001
 12
1.0
 22
0.0
 32
0.0
 13
1.0
 23
0.0
 33
0.0
 40
0.0
 40
0.0
 40
0.0
 40
0.0
 40
1.0
 40
1.0
 40
1.0
 40
2.0
 40
2.0
 40
2.0
 40
3.0
 40
3.0
 40
3.0
 40
4.0
 40
4.0
 40
4.0
 40
5.0
 40
5.0
 40
5.0
 40
6.0
 40
6.0
 40
6.0
 40
7.0
 40
7.0
 40
7.0
 40
8.0
 40
8.0
 40
8.0
 40
8.0
 10
87.42377656234545
 20
-120.7984835852518
 30
0.0
 10
87.22275524078113
 20
-120.5966009898161
 30
0.0
 10
87.12887638880807
 20
-120.3075574786037
 30
0.0
 10
87.37606198987474
 20
-120.0612331514083
 30
0.0
 10
87.55744626717315
 20
-119.8807101479812
 30
0.0
 10
87.73176809872679
 20
-119.9210177651586
 30
0.0
 10
87.85510251709873
 20
-119.9575357773023
 30
0.0
 10
87.80290932049719
 20
-119.8214545056349
 30
0.0
 10
87.82633596979689
 20
-119.6829616671279
 30
0.0
 10
87.94036863035866
 20
-119.5692735161146
 30
0.0
 10
88.13518878004955
 20
-119.3753146402951
 30
0.0
 10
88.38116859769637
 20
-119.4304361680591
 30
0.0
 10
88.58856334590841
 20
-119.6385199353682
 30
0.0
 10
88.80250377554243
 20
-119.8534938936477
 30
0.0
 10
88.84367266659117
 20
-120.0991292017461
 30
0.0
 10
88.65505368877373
 20
-120.2868869056922
 30
0.0
 10
88.54102102821197
 20
-120.4005750567054
 30
0.0
 10
88.40115015151083
 20
-120.421934648714
 30
0.0
 10
88.2648966250692
 20
-120.3692246877896
 30
0.0
 10
88.29607473921071
 20
-120.4722330427986
 30
0.0
 10
88.34826793581225
 20
-120.6596462371962
 30
0.0
 10
88.16223277960876
 20
-120.8449923743026
 30
0.0
 10
87.89696042724451
 20
-121.1088866884728
 30
0.0
 10
87.60412731099828
 20
-120.9793510982274
 30
0.0
 10
87.42377656234545
 20
-120.7984835852518
 30
0.0
  0
SPLINE
  5
A1
330
9A
100
AcDbEntity
  8
_U+30EC_U+30A4_U+30E4_U+30FC 1
370
     0
100
AcDbSpline
210
0.0
220
0.0
230
1.0
 70
    11
 71
     3
 72
    17
 73
    13
 74
     0
 42
0.0000000001
 43
0.0000000001
 12
1.0
 22
0.0
 32
0.0
 13
1.0
 23
0.0
 33
0.0
 40
0.0
 40
0.0
 40
0.0
 40
0.0
 40
1.0
 40
1.0
 40
1.0
 40
2.0
 40
2.0
 40
2.0
 40
3.0
 40
3.0
 40
3.0
 40
4.0
 40
4.0
 40
4.0
 40
4.0
 10
87.9842935977956
 20
-120.2403781166413
 30
0.0
 10
87.87577309001023
 20
-120.1315130993074
 30
0.0
 10
87.6995564559397
 20
-120.077425100189
 30
0.0
 10
87.55572371943052
 20
-120.2207410723754
 30
0.0
 10
87.41034068995297
 20
-120.3654350827559
 30
0.0
 10
87.4341118488012
 20
-120.532866723339
 30
0.0
 10
87.5617526365297
 20
-120.6610242753903
 30
0.0
 10
87.70214027755364
 20
-120.8022731902855
 30
0.0
 10
87.87215573975071
 20
-120.7988280948003
 30
0.0
 10
87.9980739797366
 20
-120.6734266191372
 30
0.0
 10
88.15517033386399
 20
-120.5170192841069
 30
0.0
 10
88.0848903859649
 20
-120.3413194143591
 30
0.0
 10
87.9842935977956
 20
-120.2403781166413
 30
0.0
  0
SPLINE
  5
A2
330
9A
100
AcDbEntity
  8
_U+30EC_U+30A4_U+30E4_U+30FC 1
370
     0
100
AcDbSpline
210
0.0
220
0.0
230
1.0
 70
    11
 71
     3
 72
    17
 73
    13
 74
     0
 42
0.0000000001
 43
0.0000000001
 12
1.0
 22
0.0
 32
0.0
 13
1.0
 23
0.0
 33
0.0
 40
0.0
 40
0.0
 40
0.0
 40
0.0
 40
1.0
 40
1.0
 40
1.0
 40
2.0
 40
2.0
 40
2.0
 40
3.0
 40
3.0
 40
3.0
 40
4.0
 40
4.0
 40
4.0
 40
4.0
 10
88.45196530991826
 20
-119.7746012070355
 30
0.0
 10
88.327769617675
 20
-119.6498887504695
 30
0.0
 10
88.19633922491272
 20
-119.6526448268577
 30
0.0
 10
88.10039331564852
 20
-119.7480739717991
 30
0.0
 10
88.01357690942022
 20
-119.8348903780274
 30
0.0
 10
87.98377683347282
 20
-119.9726941974374
 30
0.0
 10
88.11779104784902
 20
-120.1073974309107
 30
0.0
 10
88.2519775169995
 20
-120.2421006643839
 30
0.0
 10
88.3902981007323
 20
-120.2128173527593
 30
0.0
 10
88.47711450696059
 20
-120.1263454560795
 30
0.0
 10
88.57306041622479
 20
-120.0305718015896
 30
0.0
 10
88.57495521874168
 20
-119.898280134956
 30
0.0
 10
88.45196530991826
 20
-119.7746012070355
 30
0.0
  0
HATCH
  5
A3
330
9A
100
AcDbEntity
  8
_U+30EC_U+30A4_U+30E4_U+30FC 1
 62
     7
420
 16777215
100
AcDbHatch
 10
0.0
 20
0.0
 30
0.0
210
0.0
220
0.0
230
1.0
  2
SOLID
 70
     1
 71
     0
 91
        3
 92
        1
 93
        1
 72
     4
 94
        3
 73
     0
 74
     1
 95
       29
 96
       25
 40
0.0
 40
0.0
 40
0.0
 40
0.0
 40
1.0
 40
1.0
 40
1.0
 40
2.0
 40
2.0
 40
2.0
 40
3.0
 40
3.0
 40
3.0
 40
4.0
 40
4.0
 40
4.0
 40
5.0
 40
5.0
 40
5.0
 40
6.0
 40
6.0
 40
6.0
 40
7.0
 40
7.0
 40
7.0
 40
8.0
 40
8.0
 40
8.0
 40
8.0
 10
87.42377656234545
 20
-120.7984835852518
 10
87.22275524078113
 20
-120.5966009898161
 10
87.12887638880807
 20
-120.3075574786037
 10
87.37606198987474
 20
-120.0612331514083
 10
87.55744626717315
 20
-119.8807101479812
 10
87.73176809872679
 20
-119.9210177651586
 10
87.85510251709873
 20
-119.9575357773023
 10
87.80290932049719
 20
-119.8214545056349
 10
87.82633596979689
 20
-119.6829616671279
 10
87.94036863035866
 20
-119.5692735161146
 10
88.13518878004955
 20
-119.3753146402951
 10
88.38116859769637
 20
-119.4304361680591
 10
88.58856334590841
 20
-119.6385199353682
 10
88.80250377554243
 20
-119.8534938936477
 10
88.84367266659117
 20
-120.0991292017461
 10
88.65505368877373
 20
-120.2868869056922
 10
88.54102102821197
 20
-120.4005750567054
 10
88.40115015151083
 20
-120.421934648714
 10
88.2648966250692
 20
-120.3692246877896
 10
88.29607473921071
 20
-120.4722330427986
 10
88.34826793581225
 20
-120.6596462371962
 10
88.16223277960876
 20
-120.8449923743026
 10
87.89696042724451
 20
-121.1088866884728
 10
87.60412731099828
 20
-120.9793510982274
 10
87.42377656234545
 20
-120.7984835852518
 97
        0
 97
        0
 92
        1
 93
        1
 72
     4
 94
        3
 73
     0
 74
     1
 95
       17
 96
       13
 40
0.0
 40
0.0
 40
0.0
 40
0.0
 40
1.0
 40
1.0
 40
1.0
 40
2.0
 40
2.0
 40
2.0
 40
3.0
 40
3.0
 40
3.0
 40
4.0
 40
4.0
 40
4.0
 40
4.0
 10
87.9842935977956
 20
-120.2403781166413
 10
87.87577309001023
 20
-120.1315130993074
 10
87.6995564559397
 20
-120.077425100189
 10
87.55572371943052
 20
-120.2207410723754
 10
87.41034068995297
 20
-120.3654350827559
 10
87.4341118488012
 20
-120.532866723339
 10
87.5617526365297
 20
-120.6610242753903
 10
87.70214027755364
 20
-120.8022731902855
 10
87.87215573975071
 20
-120.7988280948003
 10
87.9980739797366
 20
-120.6734266191372
 10
88.15517033386399
 20
-120.5170192841069
 10
88.0848903859649
 20
-120.3413194143591
 10
87.9842935977956
 20
-120.2403781166413
 97
        0
 97
        0
 92
        1
 93
        1
 72
     4
 94
        3
 73
     0
 74
     1
 95
       17
 96
       13
 40
0.0
 40
0.0
 40
0.0
 40
0.0
 40
1.0
 40
1.0
 40
1.0
 40
2.0
 40
2.0
 40
2.0
 40
3.0
 40
3.0
 40
3.0
 40
4.0
 40
4.0
 40
4.0
 40
4.0
 10
88.45196530991826
 20
-119.7746012070355
 10
88.327769617675
 20
-119.6498887504695
 10
88.19633922491272
 20
-119.6526448268577
 10
88.10039331564852
 20
-119.7480739717991
 10
88.01357690942022
 20
-119.8348903780274
 10
87.98377683347282
 20
-119.9726941974374
 10
88.11779104784902
 20
-120.1073974309107
 10
88.2519775169995
 20
-120.2421006643839
 10
88.3902981007323
 20
-120.2128173527593
 10
88.47711450696059
 20
-120.1263454560795
 10
88.57306041622479
 20
-120.0305718015896
 10
88.57495521874168
 20
-119.898280134956
 10
88.45196530991826
 20
-119.7746012070355
 97
        0
 97
        0
 75
     2
 76
     1
 98
        0
  0
ENDBLK
  5
9D
330
9A
100
AcDbEntity
  8
0
100
AcDbBlockEnd
  0
ENDSEC
  0
SECTION
  2
ENTITIES
  0
SPLINE
  5
41
330
1F
100
AcDbEntity
  8
_U+30EC_U+30A4_U+30E4_U+30FC 1
 62
     7
420
 16777215
370
     9
100
AcDbSpline
210
0.0
220
0.0
230
1.0
 70
    11
 71
     3
 72
    17
 73
    13
 74
     0
 42
0.0000000001
 43
0.0000000001
 12
1.0
 22
0.0
 32
0.0
 13
1.0
 23
0.0
 33
0.0
 40
0.0
 40
0.0
 40
0.0
 40
0.0
 40
1.0
 40
1.0
 40
1.0
 40
2.0
 40
2.0
 40
2.0
 40
3.0
 40
3.0
 40
3.0
 40
4.0
 40
4.0
 40
4.0
 40
4.0
 10
89.23538355674903
 20
-125.6304108019257
 30
0.0
 10
89.23538355674903
 20
-125.5752716352729
 30
0.0
 10
89.19058078011427
 20
-125.530504135284
 30
0.0
 10
89.13477133709364
 20
-125.530504135284
 30
0.0
 10
89.07966744961057
 20
-125.530504135284
 30
0.0
 10
89.03486467297581
 20
-125.5752716352729
 30
0.0
 10
89.03486467297581
 20
-125.6304108019257
 30
0.0
 10
89.03486467297581
 20
-125.6862202463561
 30
0.0
 10
89.07966744961057
 20
-125.730987746345
 30
0.0
 10
89.13477133709364
 20
-125.730987746345
 30
0.0
 10
89.19058078011427
 20
-125.730987746345
 30
0.0
 10
89.23538355674903
 20
-125.6862202463561
 30
0.0
 10
89.23538355674903
 20
-125.6304108019257
 30
0.0
  0
SPLINE
  5
42
330
1F
100
AcDbEntity
  8
_U+30EC_U+30A4_U+30E4_U+30FC 1
 62
     7
420
 16777215
370
     9
100
AcDbSpline
210
0.0
220
0.0
230
1.0
 70
    11
 71
     3
 72
    17
 73
    13
 74
     0
 42
0.0000000001
 43
0.0000000001
 12
1.0
 22
0.0
 32
0.0
 13
1.0
 23
0.0
 33
0.0
 40
0.0
 40
0.0
 40
0.0
 40
0.0
 40
1.0
 40
1.0
 40
1.0
 40
2.0
 40
2.0
 40
2.0
 40
3.0
 40
3.0
 40
3.0
 40
4.0
 40
4.0
 40
4.0
 40
4.0
 10
96.06371477143269
 20
-128.4588419123297
 30
0.0
 10
96.06371477143269
 20
-128.403702745677
 30
0.0
 10
96.01894727257479
 20
-128.3589352456881
 30
0.0
 10
95.96380810731485
 20
-128.3589352456881
 30
0.0
 10
95.90870421983178
 20
-128.3589352456881
 30
0.0
 10
95.86390144319701
 20
-128.403702745677
 30
0.0
 10
95.86390144319701
 20
-128.4588419123297
 30
0.0
 10
95.86390144319701
 20
-128.5146513567601
 30
0.0
 10
95.90870421983178
 20
-128.559418856749
 30
0.0
 10
95.96380810731485
 20
-128.559418856749
 30
0.0
 10
96.01894727257479
 20
-128.559418856749
 30
0.0
 10
96.06371477143269
 20
-128.5146513567601
 30
0.0
 10
96.06371477143269
 20
-128.4588419123297
 30
0.0
  0
SPLINE
  5
43
330
1F
100
AcDbEntity
  8
_U+30EC_U+30A4_U+30E4_U+30FC 1
 62
     7
420
 16777215
370
     9
100
AcDbSpline
210
0.0
220
0.0
230
1.0
 70
     8
 71
     3
 72
    11
 73
     7
 74
     0
 42
0.0000000001
 43
0.0000000001
 12
1.0
 22
0.0
 32
0.0
 13
1.0
 23
0.0
 33
0.0
 40
0.0
 40
0.0
 40
0.0
 40
0.0
 40
1.0
 40
1.0
 40
1.0
 40
2.0
 40
2.0
 40
2.0
 40
2.0
 10
95.96380810731485
 20
-128.4588419123297
 30
0.0
 10
95.96380810731485
 20
-126.249818023993
 30
0.0
 10
94.17307287522253
 20
-124.4590827466631
 30
0.0
 10
91.96337876492986
 20
-124.4590827466631
 30
0.0
 10
90.90278768087668
 20
-124.4590827466631
 30
0.0
 10
89.88512965128375
 20
-124.8807580243353
 30
0.0
 10
89.13477133709364
 20
-125.6304108019257
 30
0.0
  0
INSERT
  5
45
330
1F
100
AcDbEntity
  8
_U+30EC_U+30A4_U+30E4_U+30FC 1
100
AcDbBlockReference
  2
block 2
 10
0.0
 20
0.0
 30
0.0
  0
SPLINE
  5
51
330
1F
100
AcDbEntity
  8
_U+30EC_U+30A4_U+30E4_U+30FC 1
 62
     7
420
 16777215
370
     9
100
AcDbSpline
210
0.0
220
0.0
230
1.0
 70
    11
 71
     3
 72
    17
 73
    13
 74
     0
 42
0.0000000001
 43
0.0000000001
 12
1.0
 22
0.0
 32
0.0
 13
1.0
 23
0.0
 33
0.0
 40
0.0
 40
0.0
 40
0.0
 40
0.0
 40
1.0
 40
1.0
 40
1.0
 40
2.0
 40
2.0
 40
2.0
 40
3.0
 40
3.0
 40
3.0
 40
4.0
 40
4.0
 40
4.0
 40
4.0
 10
103.7855615188764
 20
-140.5846960759647
 30
0.0
 10
103.7855615188764
 20
-140.5295921870898
 30
0.0
 10
103.7414642977792
 20
-140.4847894093231
 30
0.0
 10
103.6856548547586
 20
-140.4847894093231
 30
0.0
 10
103.6305509672755
 20
-140.4847894093231
 30
0.0
 10
103.5857481906407
 20
-140.5295921870898
 30
0.0
 10
103.5857481906407
 20
-140.5846960759647
 30
0.0
 10
103.5857481906407
 20
-140.6398352426178
 30
0.0
 10
103.6305509672755
 20
-140.6846027426064
 30
0.0
 10
103.6856548547586
 20
-140.6846027426064
 30
0.0
 10
103.7414642977792
 20
-140.6846027426064
 30
0.0
 10
103.7855615188764
 20
-140.6398352426178
 30
0.0
 10
103.7855615188764
 20
-140.5846960759647
 30
0.0
  0
SPLINE
  5
52
330
1F
100
AcDbEntity
  8
_U+30EC_U+30A4_U+30E4_U+30FC 1
 62
     7
420
 16777215
370
     9
100
AcDbSpline
210
0.0
220
0.0
230
1.0
 70
    11
 71
     3
 72
    17
 73
    13
 74
     0
 42
0.0000000001
 43
0.0000000001
 12
1.0
 22
0.0
 32
0.0
 13
1.0
 23
0.0
 33
0.0
 40
0.0
 40
0.0
 40
0.0
 40
0.0
 40
1.0
 40
1.0
 40
1.0
 40
2.0
 40
2.0
 40
2.0
 40
3.0
 40
3.0
 40
3.0
 40
4.0
 40
4.0
 40
4.0
 40
4.0
 10
103.7855615188764
 20
-139.4836413540177
 30
0.0
 10
103.7855615188764
 20
-139.4285374651428
 30
0.0
 10
103.7414642977792
 20
-139.383734687376
 30
0.0
 10
103.6856548547586
 20
-139.383734687376
 30
0.0
 10
103.6305509672755
 20
-139.383734687376
 30
0.0
 10
103.5857481906407
 20
-139.4285374651428
 30
0.0
 10
103.5857481906407
 20
-139.4836413540177
 30
0.0
 10
103.5857481906407
 20
-139.5394507984487
 30
0.0
 10
103.6305509672755
 20
-139.5842535762148
 30
0.0
 10
103.6856548547586
 20
-139.5842535762148
 30
0.0
 10
103.7414642977792
 20
-139.5842535762148
 30
0.0
 10
103.7855615188764
 20
-139.5394507984487
 30
0.0
 10
103.7855615188764
 20
-139.4836413540177
 30
0.0
  0
POLYLINE
  5
53
330
1F
100
AcDbEntity
  8
_U+30EC_U+30A4_U+30E4_U+30FC 1
 62
     7
420
 16777215
370
     9
100
AcDb2dPolyline
 66
     1
 10
0.0
 20
0.0
 30
0.0
  0
VERTEX
  5
54
330
53
100
AcDbEntity
  8
_U+30EC_U+30A4_U+30E4_U+30FC 1
 62
     7
420
 16777215
370
     9
100
AcDbVertex
100
AcDb2dVertex
 10
103.6856548547586
 20
-139.3720224651568
 30
0.0
  0
VERTEX
  5
55
330
53
100
AcDbEntity
  8
_U+30EC_U+30A4_U+30E4_U+30FC 1
 62
     7
420
 16777215
370
     9
100
AcDbVertex
100
AcDb2dVertex
 10
103.6856548547586
 20
-129.4832380231847
 30
0.0
  0
SEQEND
  5
56
330
53
100
AcDbEntity
  8
_U+30EC_U+30A4_U+30E4_U+30FC 1
 62
     7
420
 16777215
370
     9
  0
POLYLINE
  5
57
330
1F
100
AcDbEntity
  8
_U+30EC_U+30A4_U+30E4_U+30FC 1
 62
     7
420
 16777215
370
     9
100
AcDb2dPolyline
 66
     1
 10
0.0
 20
0.0
 30
0.0
  0
VERTEX
  5
58
330
57
100
AcDbEntity
  8
_U+30EC_U+30A4_U+30E4_U+30FC 1
 62
     7
420
 16777215
370
     9
100
AcDbVertex
100
AcDb2dVertex
 10
103.6856548547586
 20
-143.6646224640842
 30
0.0
  0
VERTEX
  5
59
330
57
100
AcDbEntity
  8
_U+30EC_U+30A4_U+30E4_U+30FC 1
 62
     7
420
 16777215
370
     9
100
AcDbVertex
100
AcDb2dVertex
 10
103.6856548547586
 20
-139.3720224651568
 30
0.0
  0
SEQEND
  5
5A
330
57
100
AcDbEntity
  8
_U+30EC_U+30A4_U+30E4_U+30FC 1
 62
     7
420
 16777215
370
     9
  0
POLYLINE
  5
5B
330
1F
100
AcDbEntity
  8
_U+30EC_U+30A4_U+30E4_U+30FC 1
 62
     7
420
 16777215
370
     9
100
AcDb2dPolyline
 66
     1
 10
0.0
 20
0.0
 30
0.0
  0
VERTEX
  5
5C
330
5B
100
AcDbEntity
  8
_U+30EC_U+30A4_U+30E4_U+30FC 1
 62
     7
420
 16777215
370
     9
100
AcDbVertex
100
AcDb2dVertex
 10
102.2256135031184
 20
-140.5846960759647
 30
0.0
  0
VERTEX
  5
5D
330
5B
100
AcDbEntity
  8
_U+30EC_U+30A4_U+30E4_U+30FC 1
 62
     7
420
 16777215
370
     9
100
AcDbVertex
100
AcDb2dVertex
 10
104.6860999738283
 20
-140.5846960759647
 30
0.0
  0
SEQEND
  5
5E
330
5B
100
AcDbEntity
  8
_U+30EC_U+30A4_U+30E4_U+30FC 1
 62
     7
420
 16777215
370
     9
  0
POLYLINE
  5
5F
330
1F
100
AcDbEntity
  8
_U+30EC_U+30A4_U+30E4_U+30FC 1
 62
     7
420
 16777215
370
     9
100
AcDb2dPolyline
 66
     1
 10
0.0
 20
0.0
 30
0.0
  0
VERTEX
  5
60
330
5F
100
AcDbEntity
  8
_U+30EC_U+30A4_U+30E4_U+30FC 1
 62
     7
420
 16777215
370
     9
100
AcDbVertex
100
AcDb2dVertex
 10
102.2256135031184
 20
-139.4836413540177
 30
0.0
  0
VERTEX
  5
61
330
5F
100
AcDbEntity
  8
_U+30EC_U+30A4_U+30E4_U+30FC 1
 62
     7
420
 16777215
370
     9
100
AcDbVertex
100
AcDb2dVertex
 10
104.6860999738283
 20
-139.4836413540177
 30
0.0
  0
SEQEND
  5
62
330
5F
100
AcDbEntity
  8
_U+30EC_U+30A4_U+30E4_U+30FC 1
 62
     7
420
 16777215
370
     9
  0
SPLINE
  5
63
330
1F
100
AcDbEntity
  8
_U+30EC_U+30A4_U+30E4_U+30FC 1
 62
     7
420
 16777215
370
     9
100
AcDbSpline
210
0.0
220
0.0
230
1.0
 70
    11
 71
     3
 72
    17
 73
    13
 74
     0
 42
0.0000000001
 43
0.0000000001
 12
1.0
 22
0.0
 32
0.0
 13
1.0
 23
0.0
 33
0.0
 40
0.0
 40
0.0
 40
0.0
 40
0.0
 40
1.0
 40
1.0
 40
1.0
 40
2.0
 40
2.0
 40
2.0
 40
3.0
 40
3.0
 40
3.0
 40
4.0
 40
4.0
 40
4.0
 40
4.0
 10
103.7855615188764
 20
-129.4832380231847
 30
0.0
 10
103.7855615188764
 20
-129.4280988565316
 30
0.0
 10
103.7414642977792
 20
-129.3833313565431
 30
0.0
 10
103.6856548547586
 20
-129.3833313565431
 30
0.0
 10
103.6305509672755
 20
-129.3833313565431
 30
0.0
 10
103.5857481906407
 20
-129.4280988565316
 30
0.0
 10
103.5857481906407
 20
-129.4832380231847
 30
0.0
 10
103.5857481906407
 20
-129.5390474676152
 30
0.0
 10
103.6305509672755
 20
-129.5838149676037
 30
0.0
 10
103.6856548547586
 20
-129.5838149676037
 30
0.0
 10
103.7414642977792
 20
-129.5838149676037
 30
0.0
 10
103.7855615188764
 20
-129.5390474676152
 30
0.0
 10
103.7855615188764
 20
-129.4832380231847
 30
0.0
  0
POLYLINE
  5
64
330
1F
100
AcDbEntity
  8
_U+30EC_U+30A4_U+30E4_U+30FC 1
 62
     7
420
 16777215
370
     9
100
AcDb2dPolyline
 66
     1
 10
0.0
 20
0.0
 30
0.0
  0
VERTEX
  5
65
330
64
100
AcDbEntity
  8
_U+30EC_U+30A4_U+30E4_U+30FC 1
 62
     7
420
 16777215
370
     9
100
AcDbVertex
100
AcDb2dVertex
 10
102.2256135031184
 20
-129.4832380231847
 30
0.0
  0
VERTEX
  5
66
330
64
100
AcDbEntity
  8
_U+30EC_U+30A4_U+30E4_U+30FC 1
 62
     7
420
 16777215
370
     9
100
AcDbVertex
100
AcDb2dVertex
 10
104.6860999738283
 20
-129.4832380231847
 30
0.0
  0
SEQEND
  5
67
330
64
100
AcDbEntity
  8
_U+30EC_U+30A4_U+30E4_U+30FC 1
 62
     7
420
 16777215
370
     9
  0
INSERT
  5
69
330
1F
100
AcDbEntity
  8
_U+30EC_U+30A4_U+30E4_U+30FC 1
100
AcDbBlockReference
  2
block 3
 10
0.0
 20
0.0
 30
0.0
  0
INSERT
  5
72
330
1F
100
AcDbEntity
  8
_U+30EC_U+30A4_U+30E4_U+30FC 1
100
AcDbBlockReference
  2
block 4
 10
0.0
 20
0.0
 30
0.0
  0
POLYLINE
  5
77
330
1F
100
AcDbEntity
  8
_U+30EC_U+30A4_U+30E4_U+30FC 1
 62
     7
420
 16777215
370
    25
100
AcDb2dPolyline
 66
     1
 10
0.0
 20
0.0
 30
0.0
  0
VERTEX
  5
78
330
77
100
AcDbEntity
  8
_U+30EC_U+30A4_U+30E4_U+30FC 1
 62
     7
420
 16777215
370
    25
100
AcDbVertex
100
AcDb2dVertex
 10
86.8902933387995
 20
-139.1370724652158
 30
0.0
  0
VERTEX
  5
79
330
77
100
AcDbEntity
  8
_U+30EC_U+30A4_U+30E4_U+30FC 1
 62
     7
420
 16777215
370
    25
100
AcDbVertex
100
AcDb2dVertex
 10
80.61042775762532
 20
-132.8015363556883
 30
0.0
  0
VERTEX
  5
7A
330
77
100
AcDbEntity
  8
_U+30EC_U+30A4_U+30E4_U+30FC 1
 62
     7
420
 16777215
370
    25
100
AcDbVertex
100
AcDb2dVertex
 10
80.2459357305334
 20
-133.7888907998861
 30
0.0
  0
VERTEX
  5
7B
330
77
100
AcDbEntity
  8
_U+30EC_U+30A4_U+30E4_U+30FC 1
 62
     7
420
 16777215
370
    25
100
AcDbVertex
100
AcDb2dVertex
 10
86.89858361636577
 20
-140.4834135759902
 30
0.0
  0
SEQEND
  5
7C
330
77
100
AcDbEntity
  8
_U+30EC_U+30A4_U+30E4_U+30FC 1
 62
     7
420
 16777215
370
    25
  0
SPLINE
  5
7D
330
1F
100
AcDbEntity
  8
_U+30EC_U+30A4_U+30E4_U+30FC 1
 62
     7
420
 16777215
370
     9
100
AcDbSpline
210
0.0
220
0.0
230
1.0
 70
     8
 71
     3
 72
    17
 73
    13
 74
     0
 42
0.0000000001
 43
0.0000000001
 12
1.0
 22
0.0
 32
0.0
 13
1.0
 23
0.0
 33
0.0
 40
0.0
 40
0.0
 40
0.0
 40
0.0
 40
1.0
 40
1.0
 40
1.0
 40
2.0
 40
2.0
 40
2.0
 40
3.0
 40
3.0
 40
3.0
 40
4.0
 40
4.0
 40
4.0
 40
4.0
 10
84.90249644506797
 20
-142.72891468654
 30
0.0
 10
84.90249644506797
 20
-142.6731052421096
 30
0.0
 10
84.85769366843321
 20
-142.628337742121
 30
0.0
 10
84.80188422541258
 20
-142.628337742121
 30
0.0
 10
84.74678033792951
 20
-142.628337742121
 30
0.0
 10
84.7026831168323
 20
-142.6731052421096
 30
0.0
 10
84.70197756129474
 20
-142.7282444087627
 30
0.0
 10
84.70197756129474
 20
-142.7833482976376
 30
0.0
 10
84.74678033792951
 20
-142.8281510754043
 30
0.0
 10
84.80258978095014
 20
-142.8281510754043
 30
0.0
 10
84.82876589139345
 20
-142.8281510754043
 30
0.0
 10
84.85423644629918
 20
-142.8178146865179
 30
0.0
 10
84.87286311249065
 20
-142.7985177420781
 30
0.0
  0
SPLINE
  5
7E
330
1F
100
AcDbEntity
  8
_U+30EC_U+30A4_U+30E4_U+30FC 1
 62
     7
420
 16777215
370
     9
100
AcDbSpline
210
0.0
220
0.0
230
1.0
 70
    11
 71
     3
 72
    17
 73
    13
 74
     0
 42
0.0000000001
 43
0.0000000001
 12
1.0
 22
0.0
 32
0.0
 13
1.0
 23
0.0
 33
0.0
 40
0.0
 40
0.0
 40
0.0
 40
0.0
 40
1.0
 40
1.0
 40
1.0
 40
2.0
 40
2.0
 40
2.0
 40
3.0
 40
3.0
 40
3.0
 40
4.0
 40
4.0
 40
4.0
 40
4.0
 10
77.80524273724511
 20
-135.7333313549556
 30
0.0
 10
77.84433051402567
 20
-135.6947374660766
 30
0.0
 10
77.84433051402567
 20
-135.6313432994256
 30
0.0
 10
77.80524273724511
 20
-135.5920791327685
 30
0.0
 10
77.76629607157206
 20
-135.5534852438895
 30
0.0
 10
77.70293718429959
 20
-135.5534852438895
 30
0.0
 10
77.66399051862653
 20
-135.5920791327685
 30
0.0
 10
77.62454996407719
 20
-135.6313432994256
 30
0.0
 10
77.62454996407719
 20
-135.6947374660766
 30
0.0
 10
77.66363774085775
 20
-135.734001632733
 30
0.0
 10
77.7025844065308
 20
-135.7725955216126
 30
0.0
 10
77.76598053611417
 20
-135.7725955216126
 30
0.0
 10
77.80524273724511
 20
-135.7333313549556
 30
0.0
  0
POLYLINE
  5
7F
330
1F
100
AcDbEntity
  8
_U+30EC_U+30A4_U+30E4_U+30FC 1
 62
     7
420
 16777215
370
     9
100
AcDb2dPolyline
 66
     1
 10
0.0
 20
0.0
 30
0.0
  0
VERTEX
  5
80
330
7F
100
AcDbEntity
  8
_U+30EC_U+30A4_U+30E4_U+30FC 1
 62
     7
420
 16777215
370
     9
100
AcDbVertex
100
AcDb2dVertex
 10
78.76695021270992
 20
-134.6301952441201
 30
0.0
  0
VERTEX
  5
81
330
7F
100
AcDbEntity
  8
_U+30EC_U+30A4_U+30E4_U+30FC 1
 62
     7
420
 16777215
370
     9
100
AcDbVertex
100
AcDb2dVertex
 10
77.02733247931347
 20
-136.3706596881296
 30
0.0
  0
SEQEND
  5
82
330
7F
100
AcDbEntity
  8
_U+30EC_U+30A4_U+30E4_U+30FC 1
 62
     7
420
 16777215
370
     9
  0
POLYLINE
  5
83
330
1F
100
AcDbEntity
  8
_U+30EC_U+30A4_U+30E4_U+30FC 1
 62
     7
420
 16777215
370
     9
100
AcDb2dPolyline
 66
     1
 10
0.0
 20
0.0
 30
0.0
  0
VERTEX
  5
84
330
83
100
AcDbEntity
  8
_U+30EC_U+30A4_U+30E4_U+30FC 1
 62
     7
420
 16777215
370
     9
100
AcDbVertex
100
AcDb2dVertex
 10
85.83471386743011
 20
-141.6954169090208
 30
0.0
  0
VERTEX
  5
85
330
83
100
AcDbEntity
  8
_U+30EC_U+30A4_U+30E4_U+30FC 1
 62
     7
420
 16777215
370
     9
100
AcDbVertex
100
AcDb2dVertex
 10
84.0953056323278
 20
-143.4358460752521
 30
0.0
  0
SEQEND
  5
86
330
83
100
AcDbEntity
  8
_U+30EC_U+30A4_U+30E4_U+30FC 1
 62
     7
420
 16777215
370
     9
  0
INSERT
  5
88
330
1F
100
AcDbEntity
  8
_U+30EC_U+30A4_U+30E4_U+30FC 1
100
AcDbBlockReference
  2
block 5
 10
0.0
 20
0.0
 30
0.0
  0
SPLINE
  5
90
330
1F
100
AcDbEntity
  8
_U+30EC_U+30A4_U+30E4_U+30FC 1
 62
     7
420
 16777215
370
     9
100
AcDbSpline
210
0.0
220
0.0
230
1.0
 70
    11
 71
     3
 72
    20
 73
    16
 74
     0
 42
0.0000000001
 43
0.0000000001
 12
1.0
 22
0.0
 32
0.0
 13
1.0
 23
0.0
 33
0.0
 40
0.0
 40
0.0
 40
0.0
 40
0.0
 40
1.0
 40
1.0
 40
1.0
 40
2.0
 40
2.0
 40
2.0
 40
3.0
 40
3.0
 40
3.0
 40
4.0
 40
4.0
 40
4.0
 40
5.0
 40
5.0
 40
5.0
 40
5.0
 10
93.30972219889479
 20
-127.0787046904526
 30
0.0
 10
93.30972219889479
 20
-127.0232480237996
 30
0.0
 10
93.2656249766836
 20
-126.978798023811
 30
0.0
 10
93.21051873311266
 20
-126.978480523811
 30
0.0
 10
93.15467401231516
 20
-126.978480523811
 30
0.0
 10
93.10990651345728
 20
-127.0228952460222
 30
0.0
 10
93.10990651345728
 20
-127.0783871904527
 30
0.0
 10
93.10990651345728
 20
-127.1338438571054
 30
0.0
 10
93.15400373455448
 20
-127.1782938570943
 30
0.0
 10
93.20981317757511
 20
-127.1782938570943
 30
0.0
 10
93.23599164335741
 20
-127.1786113570942
 30
0.0
 10
93.26216539846172
 20
-127.1683102459857
 30
0.0
 10
93.28079442112413
 20
-127.1493308015461
 30
0.0
 10
93.28079442112413
 20
-127.1493308015461
 30
0.0
 10
93.30972219889479
 20
-127.0787046904526
 30
0.0
 10
93.30972219889479
 20
-127.0787046904526
 30
0.0
  0
SPLINE
  5
91
330
1F
100
AcDbEntity
  8
_U+30EC_U+30A4_U+30E4_U+30FC 1
 62
     7
420
 16777215
370
     9
100
AcDbSpline
210
0.0
220
0.0
230
1.0
 70
    11
 71
     3
 72
    17
 73
    13
 74
     0
 42
0.0000000001
 43
0.0000000001
 12
1.0
 22
0.0
 32
0.0
 13
1.0
 23
0.0
 33
0.0
 40
0.0
 40
0.0
 40
0.0
 40
0.0
 40
1.0
 40
1.0
 40
1.0
 40
2.0
 40
2.0
 40
2.0
 40
3.0
 40
3.0
 40
3.0
 40
4.0
 40
4.0
 40
4.0
 40
4.0
 10
80.59197544392741
 20
-114.3797630269606
 30
0.0
 10
80.63106322070797
 20
-114.340463582526
 30
0.0
 10
80.63124164650876
 20
-114.2771046936528
 30
0.0
 10
80.59232822169619
 20
-114.2385108047738
 30
0.0
 10
80.55338155602314
 20
-114.1992466381168
 30
0.0
 10
80.49016377985818
 20
-114.1992466381168
 30
0.0
 10
80.45107600307762
 20
-114.2378052492183
 30
0.0
 10
80.41146109100829
 20
-114.2771046936528
 30
0.0
 10
80.41128267075949
 20
-114.340463582526
 30
0.0
 10
80.45022933643254
 20
-114.3797630269606
 30
0.0
 10
80.48914072432872
 20
-114.4190271936176
 30
0.0
 10
80.55235850049368
 20
-114.4190271936176
 30
0.0
 10
80.59197544392741
 20
-114.3797630269606
 30
0.0
  0
POLYLINE
  5
92
330
1F
100
AcDbEntity
  8
_U+30EC_U+30A4_U+30E4_U+30FC 1
 62
     7
420
 16777215
370
     9
100
AcDb2dPolyline
 66
     1
 10
0.0
 20
0.0
 30
0.0
  0
VERTEX
  5
93
330
92
100
AcDbEntity
  8
_U+30EC_U+30A4_U+30E4_U+30FC 1
 62
     7
420
 16777215
370
     9
100
AcDbVertex
100
AcDb2dVertex
 10
81.4151823673701
 20
-113.4096241383142
 30
0.0
  0
VERTEX
  5
94
330
92
100
AcDbEntity
  8
_U+30EC_U+30A4_U+30E4_U+30FC 1
 62
     7
420
 16777215
370
     9
100
AcDbVertex
100
AcDb2dVertex
 10
79.67178991184775
 20
-115.1459258045468
 30
0.0
  0
SEQEND
  5
95
330
92
100
AcDbEntity
  8
_U+30EC_U+30A4_U+30E4_U+30FC 1
 62
     7
420
 16777215
370
     9
  0
POLYLINE
  5
96
330
1F
100
AcDbEntity
  8
_U+30EC_U+30A4_U+30E4_U+30FC 1
 62
     7
420
 16777215
370
     9
100
AcDb2dPolyline
 66
     1
 10
0.0
 20
0.0
 30
0.0
  0
VERTEX
  5
97
330
96
100
AcDbEntity
  8
_U+30EC_U+30A4_U+30E4_U+30FC 1
 62
     7
420
 16777215
370
     9
100
AcDbVertex
100
AcDb2dVertex
 10
94.0772937109994
 20
-126.2226188573333
 30
0.0
  0
VERTEX
  5
98
330
96
100
AcDbEntity
  8
_U+30EC_U+30A4_U+30E4_U+30FC 1
 62
     7
420
 16777215
370
     9
100
AcDbVertex
100
AcDb2dVertex
 10
92.33407764436143
 20
-127.9589558013438
 30
0.0
  0
SEQEND
  5
99
330
96
100
AcDbEntity
  8
_U+30EC_U+30A4_U+30E4_U+30FC 1
 62
     7
420
 16777215
370
     9
  0
INSERT
  5
9B
330
1F
100
AcDbEntity
  8
_U+30EC_U+30A4_U+30E4_U+30FC 1
100
AcDbBlockReference
  2
block 6
 10
0.0
 20
0.0
 30
0.0
  0
SPLINE
  5
A4
330
1F
100
AcDbEntity
  8
_U+30EC_U+30A4_U+30E4_U+30FC 1
 62
     7
420
 16777215
370
    25
100
AcDbSpline
210
0.0
220
0.0
230
1.0
 70
     8
 71
     3
 72
    29
 73
    25
 74
     0
 42
0.0000000001
 43
0.0000000001
 12
1.0
 22
0.0
 32
0.0
 13
1.0
 23
0.0
 33
0.0
 40
0.0
 40
0.0
 40
0.0
 40
0.0
 40
1.0
 40
1.0
 40
1.0
 40
2.0
 40
2.0
 40
2.0
 40
3.0
 40
3.0
 40
3.0
 40
4.0
 40
4.0
 40
4.0
 40
5.0
 40
5.0
 40
5.0
 40
6.0
 40
6.0
 40
6.0
 40
7.0
 40
7.0
 40
7.0
 40
8.0
 40
8.0
 40
8.0
 40
8.0
 10
79.19190831353528
 20
-115.7501988599515
 30
0.0
 10
79.19190831353528
 20
-115.7501988599515
 30
0.0
 10
91.85521942148078
 20
-128.441238301223
 30
0.0
 10
91.85521942148078
 20
-128.441238301223
 30
0.0
 10
91.85521942148078
 20
-128.441238301223
 30
0.0
 10
101.9369354549277
 20
-128.4726002456595
 30
0.0
 10
101.9369354549277
 20
-128.4726002456595
 30
0.0
 10
101.7150735161434
 20
-129.7560763564499
 30
0.0
 10
100.2047260546756
 20
-129.4729016342984
 30
0.0
 10
100.2047260546756
 20
-129.4729016342984
 30
0.0
 10
100.2047260546756
 20
-129.4729016342984
 30
0.0
 10
91.936497098949
 20
-129.5410935787261
 30
0.0
 10
91.936497098949
 20
-129.5410935787261
 30
0.0
 10
91.936497098949
 20
-129.5410935787261
 30
0.0
 10
88.04028053354553
 20
-139.5126044095665
 30
0.0
 10
88.04028053354553
 20
-139.5126044095665
 30
0.0
 10
88.04028053354553
 20
-139.5126044095665
 30
0.0
 10
96.8395789183054
 20
-139.4836413540177
 30
0.0
 10
96.8395789183054
 20
-139.4836413540177
 30
0.0
 10
96.8395789183054
 20
-139.4836413540177
 30
0.0
 10
96.39860670733331
 20
-140.439316353779
 30
0.0
 10
96.39860670733331
 20
-140.439316353779
 30
0.0
 10
96.39860670733331
 20
-140.439316353779
 30
0.0
 10
86.89858361636577
 20
-140.4834135759902
 30
0.0
 10
86.89858361636577
 20
-140.4834135759902
 30
0.0
  0
POLYLINE
  5
A5
330
1F
100
AcDbEntity
  8
_U+30EC_U+30A4_U+30E4_U+30FC 1
 62
     7
420
 16777215
370
    25
100
AcDb2dPolyline
 66
     1
 10
0.0
 20
0.0
 30
0.0
  0
VERTEX
  5
A6
330
A5
100
AcDbEntity
  8
_U+30EC_U+30A4_U+30E4_U+30FC 1
 62
     7
420
 16777215
370
    25
100
AcDbVertex
100
AcDb2dVertex
 10
86.97848778099392
 20
-139.1660002429865
 30
0.0
  0
VERTEX
  5
A7
330
A5
100
AcDbEntity
  8
_U+30EC_U+30A4_U+30E4_U+30FC 1
 62
     7
420
 16777215
370
    25
100
AcDbVertex
100
AcDb2dVertex
 10
90.7956490724989
 20
-129.1531791343781
 30
0.0
  0
VERTEX
  5
A8
330
A5
100
AcDbEntity
  8
_U+30EC_U+30A4_U+30E4_U+30FC 1
 62
     7
420
 16777215
370
    25
100
AcDbVertex
100
AcDb2dVertex
 10
85.2061675484318
 20
-123.5450708024472
 30
0.0
  0
SEQEND
  5
A9
330
A5
100
AcDbEntity
  8
_U+30EC_U+30A4_U+30E4_U+30FC 1
 62
     7
420
 16777215
370
    25
  0
POLYLINE
  5
AA
330
1F
100
AcDbEntity
  8
_U+30EC_U+30A4_U+30E4_U+30FC 1
 62
     7
420
 16777215
370
     9
100
AcDb2dPolyline
 66
     1
 10
0.0
 20
0.0
 30
0.0
  0
VERTEX
  5
AB
330
AA
100
AcDbEntity
  8
_U+30EC_U+30A4_U+30E4_U+30FC 1
 62
     7
420
 16777215
370
     9
100
AcDbVertex
100
AcDb2dVertex
 10
77.74460023879223
 20
-135.6437610772003
 30
0.0
  0
VERTEX
  5
AC
330
AA
100
AcDbEntity
  8
_U+30EC_U+30A4_U+30E4_U+30FC 1
 62
     7
420
 16777215
370
     9
100
AcDbVertex
100
AcDb2dVertex
 10
84.80223700318136
 20
-142.7282444087627
 30
0.0
  0
SEQEND
  5
AD
330
AA
100
AcDbEntity
  8
_U+30EC_U+30A4_U+30E4_U+30FC 1
 62
     7
420
 16777215
370
     9
  0
POLYLINE
  5
AE
330
1F
100
AcDbEntity
  8
_U+30EC_U+30A4_U+30E4_U+30FC 1
 62
     7
420
 16777215
370
     9
100
AcDb2dPolyline
 66
     1
 10
0.0
 20
0.0
 30
0.0
  0
VERTEX
  5
AF
330
AE
100
AcDbEntity
  8
_U+30EC_U+30A4_U+30E4_U+30FC 1
 62
     7
420
 16777215
370
     9
100
AcDbVertex
100
AcDb2dVertex
 10
80.53909405638764
 20
-114.294673026982
 30
0.0
  0
VERTEX
  5
B0
330
AE
100
AcDbEntity
  8
_U+30EC_U+30A4_U+30E4_U+30FC 1
 62
     7
420
 16777215
370
     9
100
AcDbVertex
100
AcDb2dVertex
 10
93.21669234406627
 20
-127.0725310793431
 30
0.0
  0
SEQEND
  5
B1
330
AE
100
AcDbEntity
  8
_U+30EC_U+30A4_U+30E4_U+30FC 1
 62
     7
420
 16777215
370
     9
  0
SPLINE
  5
B2
330
1F
100
AcDbEntity
  8
_U+30EC_U+30A4_U+30E4_U+30FC 1
 62
     7
420
 16777215
370
    25
100
AcDbSpline
210
0.0
220
0.0
230
1.0
 70
     8
 71
     3
 72
     8
 73
     4
 74
     0
 42
0.0000000001
 43
0.0000000001
 12
1.0
 22
0.0
 32
0.0
 13
1.0
 23
0.0
 33
0.0
 40
0.0
 40
0.0
 40
0.0
 40
0.0
 40
1.0
 40
1.0
 40
1.0
 40
1.0
 10
79.15691075831674
 20
-116.8464558041219
 30
0.0
 10
78.85426271048239
 20
-116.543948859753
 30
0.0
 10
78.87768715432922
 20
-116.0644180265396
 30
0.0
 10
79.19190831353528
 20
-115.7501988599515
 30
0.0
  0
POLYLINE
  5
B3
330
1F
100
AcDbEntity
  8
_U+30EC_U+30A4_U+30E4_U+30FC 1
 62
     7
420
 16777215
370
    25
100
AcDb2dPolyline
 66
     1
 10
0.0
 20
0.0
 30
0.0
  0
VERTEX
  5
B4
330
B3
100
AcDbEntity
  8
_U+30EC_U+30A4_U+30E4_U+30FC 1
 62
     7
420
 16777215
370
    25
100
AcDbVertex
100
AcDb2dVertex
 10
84.98585783183013
 20
-122.6762496915532
 30
0.0
  0
VERTEX
  5
B5
330
B3
100
AcDbEntity
  8
_U+30EC_U+30A4_U+30E4_U+30FC 1
 62
     7
420
 16777215
370
    25
100
AcDbVertex
100
AcDb2dVertex
 10
79.15691075831674
 20
-116.8464558041219
 30
0.0
  0
SEQEND
  5
B6
330
B3
100
AcDbEntity
  8
_U+30EC_U+30A4_U+30E4_U+30FC 1
 62
     7
420
 16777215
370
    25
  0
POLYLINE
  5
B7
330
1F
100
AcDbEntity
  8
_U+30EC_U+30A4_U+30E4_U+30FC 1
 62
     7
420
 16777215
370
    25
100
AcDb2dPolyline
 66
     1
 10
0.0
 20
0.0
 30
0.0
  0
VERTEX
  5
B8
330
B7
100
AcDbEntity
  8
_U+30EC_U+30A4_U+30E4_U+30FC 1
 62
     7
420
 16777215
370
    25
100
AcDbVertex
100
AcDb2dVertex
 10
88.37806302306555
 20
-126.7170016349874
 30
0.0
  0
VERTEX
  5
B9
330
B7
100
AcDbEntity
  8
_U+30EC_U+30A4_U+30E4_U+30FC 1
 62
     7
420
 16777215
370
    25
100
AcDbVertex
100
AcDb2dVertex
 10
85.2061675484318
 20
-123.5450708024472
 30
0.0
  0
VERTEX
  5
BA
330
B7
100
AcDbEntity
  8
_U+30EC_U+30A4_U+30E4_U+30FC 1
 62
     7
420
 16777215
370
    25
100
AcDbVertex
100
AcDb2dVertex
 10
84.98585783183013
 20
-122.6762496915532
 30
0.0
  0
SEQEND
  5
BB
330
B7
100
AcDbEntity
  8
_U+30EC_U+30A4_U+30E4_U+30FC 1
 62
     7
420
 16777215
370
    25
  0
ENDSEC
  0
SECTION
  2
OBJECTS
  0
DICTIONARY
  5
C
330
0
100
AcDbDictionary
281
     1
  3
ACAD_GROUP
350
D
  3
ACAD_LAYOUT
350
1A
  3
ACAD_MATERIAL
350
3B
  3
ACAD_MLEADERSTYLE
350
BD
  3
ACAD_MLINESTYLE
350
17
  3
ACAD_PLOTSETTINGS
350
19
  3
ACAD_PLOTSTYLENAME
350
E
  3
ACAD_TABLESTYLE
350
BC
  3
ACAD_VISUALSTYLE
350
2A
  0
SUN
  5
3F
330
29
100
AcDbSun
 90
        1
290
     0
 63
     7
421
 16777215
 40
1.0
291
     1
 91
  2455826
 92
 54000000
292
     0
 70
     2
 71
   256
280
     1
  0
DICTIONARY
  5
D
102
{ACAD_REACTORS
330
C
102
}
330
C
100
AcDbDictionary
281
     1
  0
DICTIONARY
  5
1A
102
{ACAD_REACTORS
330
C
102
}
330
C
100
AcDbDictionary
281
     1
  3
Layout1
350
1E
  3
Layout2
350
26
  3
Model
350
22
  0
DICTIONARY
  5
3B
102
{ACAD_REACTORS
330
C
102
}
330
C
100
AcDbDictionary
281
     1
  3
ByBlock
350
3D
  3
ByLayer
350
3C
  3
Global
350
3E
  0
DICTIONARY
  5
BD
102
{ACAD_REACTORS
330
C
102
}
330
C
100
AcDbDictionary
281
     1
  0
DICTIONARY
  5
17
102
{ACAD_REACTORS
330
C
102
}
330
C
100
AcDbDictionary
281
     1
  3
Standard
350
18
  0
DICTIONARY
  5
19
102
{ACAD_REACTORS
330
C
102
}
330
C
100
AcDbDictionary
281
     1
  0
ACDBDICTIONARYWDFLT
  5
E
102
{ACAD_REACTORS
330
C
102
}
330
C
100
AcDbDictionary
281
     1
  3
Normal
350
F
100
AcDbDictionaryWithDefault
340
F
  0
DICTIONARY
  5
BC
102
{ACAD_REACTORS
330
C
102
}
330
C
100
AcDbDictionary
281
     1
  0
DICTIONARY
  5
2A
102
{ACAD_REACTORS
330
C
102
}
330
C
100
AcDbDictionary
281
     1
  3
2dWireframe
350
2F
  3
3D Hidden
350
31
  3
3dWireframe
350
30
  3
Basic
350
32
  3
Brighten
350
36
  3
ColorChange
350
3A
  3
Conceptual
350
34
  3
Dim
350
35
  3
Facepattern
350
39
  3
Flat
350
2B
  3
FlatWithEdges
350
2C
  3
Gouraud
350
2D
  3
GouraudWithEdges
350
2E
  3
Linepattern
350
38
  3
Realistic
350
33
  3
Thicken
350
37
  0
LAYOUT
  5
1E
102
{ACAD_REACTORS
330
1A
102
}
330
1A
100
AcDbPlotSettings
  1

  2
none_device
  4

  6

 40
0.0
 41
0.0
 42
0.0
 43
0.0
 44
0.0
 45
0.0
 46
0.0
 47
0.0
 48
0.0
 49
0.0
140
0.0
141
0.0
142
1.0
143
1.0
 70
   688
 72
     0
 73
     0
 74
     5
  7

 75
    16
 76
     0
 77
     2
 78
   300
147
1.0
148
0.0
149
0.0
100
AcDbLayout
  1
Layout1
 70
     1
 71
     1
 10
0.0
 20
0.0
 11
12.0
 21
9.0
 12
0.0
 22
0.0
 32
0.0
 14
1.000000000000000E+20
 24
1.000000000000000E+20
 34
1.000000000000000E+20
 15
-1.000000000000000E+20
 25
-1.000000000000000E+20
 35
-1.000000000000000E+20
146
0.0
 13
0.0
 23
0.0
 33
0.0
 16
1.0
 26
0.0
 36
0.0
 17
0.0
 27
1.0
 37
0.0
 76
     0
330
1B
  0
LAYOUT
  5
26
102
{ACAD_REACTORS
330
1A
102
}
330
1A
100
AcDbPlotSettings
  1

  2
none_device
  4

  6

 40
0.0
 41
0.0
 42
0.0
 43
0.0
 44
0.0
 45
0.0
 46
0.0
 47
0.0
 48
0.0
 49
0.0
140
0.0
141
0.0
142
1.0
143
1.0
 70
   688
 72
     0
 73
     0
 74
     5
  7

 75
    16
 76
     0
 77
     2
 78
   300
147
1.0
148
0.0
149
0.0
100
AcDbLayout
  1
Layout2
 70
     1
 71
     2
 10
0.0
 20
0.0
 11
0.0
 21
0.0
 12
0.0
 22
0.0
 32
0.0
 14
0.0
 24
0.0
 34
0.0
 15
0.0
 25
0.0
 35
0.0
146
0.0
 13
0.0
 23
0.0
 33
0.0
 16
1.0
 26
0.0
 36
0.0
 17
0.0
 27
1.0
 37
0.0
 76
     0
330
23
  0
LAYOUT
  5
22
102
{ACAD_REACTORS
330
1A
102
}
330
1A
100
AcDbPlotSettings
  1

  2
none_device
  4

  6

 40
0.0
 41
0.0
 42
0.0
 43
0.0
 44
0.0
 45
0.0
 46
0.0
 47
0.0
 48
0.0
 49
0.0
140
0.0
141
0.0
142
1.0
143
1.0
 70
  1712
 72
     0
 73
     0
 74
     0
  7

 75
     0
 76
     0
 77
     2
 78
   300
147
1.0
148
0.0
149
0.0
100
AcDbLayout
  1
Model
 70
     1
 71
     0
 10
0.0
 20
0.0
 11
12.0
 21
9.0
 12
0.0
 22
0.0
 32
0.0
 14
1.000000000000000E+20
 24
1.000000000000000E+20
 34
1.000000000000000E+20
 15
-1.000000000000000E+20
 25
-1.000000000000000E+20
 35
-1.000000000000000E+20
146
0.0
 13
0.0
 23
0.0
 33
0.0
 16
1.0
 26
0.0
 36
0.0
 17
0.0
 27
1.0
 37
0.0
 76
     0
330
1F
331
29
  0
MATERIAL
  5
3D
102
{ACAD_REACTORS
330
3B
102
}
330
3B
100
AcDbMaterial
  1
ByBlock
 72
     1
 94
      127
  0
MATERIAL
  5
3C
102
{ACAD_REACTORS
330
3B
102
}
330
3B
100
AcDbMaterial
  1
ByLayer
 72
     1
 94
      127
  0
MATERIAL
  5
3E
102
{ACAD_REACTORS
330
3B
102
}
330
3B
100
AcDbMaterial
  1
Global
 72
     1
 94
      127
  0
MLINESTYLE
  5
18
102
{ACAD_REACTORS
330
17
102
}
330
17
100
AcDbMlineStyle
  2
Standard
 70
     0
  3

 62
   256
 51
90.0
 52
90.0
 71
     2
 49
0.5
 62
   256
  6
BYLAYER
 49
-0.5
 62
   256
  6
BYLAYER
  0
ACDBPLACEHOLDER
  5
F
102
{ACAD_REACTORS
330
E
102
}
330
E
  0
VISUALSTYLE
  5
2F
102
{ACAD_REACTORS
330
2A
102
}
330
2A
100
AcDbVisualStyle
  2
2dWireframe
 70
     4
177
     2
291
     0
 71
     0
176
     1
 72
     2
176
     1
 73
     0
176
     1
 90
        0
176
     1
 40
-0.6
176
     1
 41
-30.0
176
     1
 62
     5
 63
     7
421
 16777215
176
     1
 74
     1
176
     1
 91
        4
176
     1
 64
     7
176
     1
 65
   257
176
     1
 75
     1
176
     1
175
     1
176
     1
 42
1.0
176
     1
 92
        0
176
     1
 66
   257
176
     1
 43
1.0
176
     1
 76
     1
176
     1
 77
     6
176
     1
 78
     2
176
     1
 67
     7
176
     1
 79
     5
176
     1
170
     0
176
     1
171
     0
176
     1
290
     0
176
     1
 93
        1
176
     1
 44
0.0
176
     1
173
     0
176
     1
  0
VISUALSTYLE
  5
31
102
{ACAD_REACTORS
330
2A
102
}
330
2A
100
AcDbVisualStyle
  2
3D Hidden
 70
     6
177
     2
291
     0
 71
     1
176
     1
 72
     2
176
     1
 73
     2
176
     1
 90
        0
176
     1
 40
-0.6
176
     1
 41
-30.0
176
     1
 62
     5
 63
     7
421
 16777215
176
     1
 74
     2
176
     1
 91
        2
176
     1
 64
     7
176
     1
 65
   257
176
     1
 75
     2
176
     1
175
     1
176
     1
 42
40.0
176
     1
 92
        0
176
     1
 66
   257
176
     1
 43
1.0
176
     1
 76
     1
176
     1
 77
     6
176
     1
 78
     2
176
     1
 67
     7
176
     1
 79
     3
176
     1
170
     0
176
     1
171
     0
176
     1
290
     0
176
     1
 93
        1
176
     1
 44
0.0
176
     1
173
     0
176
     1
  0
VISUALSTYLE
  5
30
102
{ACAD_REACTORS
330
2A
102
}
330
2A
100
AcDbVisualStyle
  2
3dWireframe
 70
     5
177
     2
291
     0
 71
     0
176
     1
 72
     2
176
     1
 73
     0
176
     1
 90
        0
176
     1
 40
-0.6
176
     1
 41
-30.0
176
     1
 62
     5
 63
     7
421
 16777215
176
     1
 74
     1
176
     1
 91
        4
176
     1
 64
     7
176
     1
 65
   257
176
     1
 75
     1
176
     1
175
     1
176
     1
 42
1.0
176
     1
 92
        0
176
     1
 66
   257
176
     1
 43
1.0
176
     1
 76
     1
176
     1
 77
     6
176
     1
 78
     2
176
     1
 67
     7
176
     1
 79
     5
176
     1
170
     0
176
     1
171
     0
176
     1
290
     0
176
     1
 93
        1
176
     1
 44
0.0
176
     1
173
     0
176
     1
  0
VISUALSTYLE
  5
32
102
{ACAD_REACTORS
330
2A
102
}
330
2A
100
AcDbVisualStyle
  2
Basic
 70
     7
177
     2
291
     1
 71
     1
176
     1
 72
     0
176
     1
 73
     1
176
     1
 90
        0
176
     1
 40
-0.6
176
     1
 41
-30.0
176
     1
 62
     5
 63
     7
421
 16777215
176
     1
 74
     0
176
     1
 91
        4
176
     1
 64
     7
176
     1
 65
   257
176
     1
 75
     1
176
     1
175
     1
176
     1
 42
1.0
176
     1
 92
        8
176
     1
 66
     7
176
     1
 43
1.0
176
     1
 76
     1
176
     1
 77
     6
176
     1
 78
     2
176
     1
 67
     7
176
     1
 79
     5
176
     1
170
     0
176
     1
171
     0
176
     1
290
     0
176
     1
 93
        1
176
     1
 44
0.0
176
     1
173
     0
176
     1
  0
VISUALSTYLE
  5
36
102
{ACAD_REACTORS
330
2A
102
}
330
2A
100
AcDbVisualStyle
  2
Brighten
 70
    12
177
     2
291
     1
 71
     2
176
     1
 72
     2
176
     1
 73
     0
176
     1
 90
        0
176
     1
 40
-0.6
176
     1
 41
-30.0
176
     1
 62
     5
 63
     7
421
 16777215
176
     1
 74
     1
176
     1
 91
        4
176
     1
 64
     7
176
     1
 65
   257
176
     1
 75
     1
176
     1
175
     1
176
     1
 42
1.0
176
     1
 92
        8
176
     1
 66
     7
176
     1
 43
1.0
176
     1
 76
     1
176
     1
 77
     6
176
     1
 78
     2
176
     1
 67
     7
176
     1
 79
     5
176
     1
170
     0
176
     1
171
     0
176
     1
290
     0
176
     1
 93
        1
176
     1
 44
50.0
176
     1
173
     0
176
     1
  0
VISUALSTYLE
  5
3A
102
{ACAD_REACTORS
330
2A
102
}
330
2A
100
AcDbVisualStyle
  2
ColorChange
 70
    16
177
     2
291
     1
 71
     2
176
     1
 72
     2
176
     1
 73
     3
176
     1
 90
        0
176
     1
 40
-0.6
176
     1
 41
-30.0
176
     1
 62
     5
 63
     8
421
  8421504
176
     1
 74
     1
176
     1
 91
        4
176
     1
 64
     7
176
     1
 65
   257
176
     1
 75
     1
176
     1
175
     1
176
     1
 42
1.0
176
     1
 92
        8
176
     1
 66
     8
424
  8421504
176
     1
 43
1.0
176
     1
 76
     1
176
     1
 77
     6
176
     1
 78
     2
176
     1
 67
     7
176
     1
 79
     5
176
     1
170
     0
176
     1
171
     0
176
     1
290
     0
176
     1
 93
        1
176
     1
 44
0.0
176
     1
173
     0
176
     1
  0
VISUALSTYLE
  5
34
102
{ACAD_REACTORS
330
2A
102
}
330
2A
100
AcDbVisualStyle
  2
Conceptual
 70
     9
177
     2
291
     0
 71
     3
176
     1
 72
     2
176
     1
 73
     0
176
     1
 90
        0
176
     1
 40
-0.6
176
     1
 41
-30.0
176
     1
 62
     5
 63
     7
421
 16777215
176
     1
 74
     2
176
     1
 91
        2
176
     1
 64
     7
176
     1
 65
   257
176
     1
 75
     1
176
     1
175
     1
176
     1
 42
40.0
176
     1
 92
        8
176
     1
 66
     7
176
     1
 43
1.0
176
     1
 76
     1
176
     1
 77
     6
176
     1
 78
     2
176
     1
 67
     7
176
     1
 79
     3
176
     1
170
     0
176
     1
171
     0
176
     1
290
     0
176
     1
 93
        1
176
     1
 44
0.0
176
     1
173
     0
176
     1
  0
VISUALSTYLE
  5
35
102
{ACAD_REACTORS
330
2A
102
}
330
2A
100
AcDbVisualStyle
  2
Dim
 70
    11
177
     2
291
     1
 71
     2
176
     1
 72
     2
176
     1
 73
     0
176
     1
 90
        0
176
     1
 40
-0.6
176
     1
 41
-30.0
176
     1
 62
     5
 63
     7
421
 16777215
176
     1
 74
     1
176
     1
 91
        4
176
     1
 64
     7
176
     1
 65
   257
176
     1
 75
     1
176
     1
175
     1
176
     1
 42
1.0
176
     1
 92
        8
176
     1
 66
     7
176
     1
 43
1.0
176
     1
 76
     1
176
     1
 77
     6
176
     1
 78
     2
176
     1
 67
     7
176
     1
 79
     5
176
     1
170
     0
176
     1
171
     0
176
     1
290
     0
176
     1
 93
        1
176
     1
 44
-50.0
176
     1
173
     0
176
     1
  0
VISUALSTYLE
  5
39
102
{ACAD_REACTORS
330
2A
102
}
330
2A
100
AcDbVisualStyle
  2
Facepattern
 70
    15
177
     2
291
     1
 71
     2
176
     1
 72
     2
176
     1
 73
     0
176
     1
 90
        0
176
     1
 40
-0.6
176
     1
 41
-30.0
176
     1
 62
     5
 63
     7
421
 16777215
176
     1
 74
     1
176
     1
 91
        4
176
     1
 64
     7
176
     1
 65
   257
176
     1
 75
     1
176
     1
175
     1
176
     1
 42
1.0
176
     1
 92
        8
176
     1
 66
     7
176
     1
 43
1.0
176
     1
 76
     1
176
     1
 77
     6
176
     1
 78
     2
176
     1
 67
     7
176
     1
 79
     5
176
     1
170
     0
176
     1
171
     0
176
     1
290
     0
176
     1
 93
        1
176
     1
 44
0.0
176
     1
173
     0
176
     1
  0
VISUALSTYLE
  5
2B
102
{ACAD_REACTORS
330
2A
102
}
330
2A
100
AcDbVisualStyle
  2
Flat
 70
     0
177
     2
291
     1
 71
     2
176
     1
 72
     1
176
     1
 73
     1
176
     1
 90
        2
176
     1
 40
-0.6
176
     1
 41
30.0
176
     1
 62
     5
 63
     7
421
 16777215
176
     1
 74
     0
176
     1
 91
        4
176
     1
 64
     7
176
     1
 65
   257
176
     1
 75
     1
176
     1
175
     1
176
     1
 42
1.0
176
     1
 92
        8
176
     1
 66
     7
176
     1
 43
1.0
176
     1
 76
     1
176
     1
 77
     6
176
     1
 78
     2
176
     1
 67
     7
176
     1
 79
     5
176
     1
170
     0
176
     1
171
     0
176
     1
290
     0
176
     1
 93
       13
176
     1
 44
0.0
176
     1
173
     0
176
     1
  0
VISUALSTYLE
  5
2C
102
{ACAD_REACTORS
330
2A
102
}
330
2A
100
AcDbVisualStyle
  2
FlatWithEdges
 70
     1
177
     2
291
     1
 71
     2
176
     1
 72
     1
176
     1
 73
     1
176
     1
 90
        2
176
     1
 40
-0.6
176
     1
 41
30.0
176
     1
 62
     5
 63
     7
421
 16777215
176
     1
 74
     1
176
     1
 91
        4
176
     1
 64
     7
176
     1
 65
   257
176
     1
 75
     1
176
     1
175
     1
176
     1
 42
1.0
176
     1
 92
        0
176
     1
 66
   257
176
     1
 43
1.0
176
     1
 76
     1
176
     1
 77
     6
176
     1
 78
     2
176
     1
 67
     7
176
     1
 79
     5
176
     1
170
     0
176
     1
171
     0
176
     1
290
     0
176
     1
 93
       13
176
     1
 44
0.0
176
     1
173
     0
176
     1
  0
VISUALSTYLE
  5
2D
102
{ACAD_REACTORS
330
2A
102
}
330
2A
100
AcDbVisualStyle
  2
Gouraud
 70
     2
177
     2
291
     1
 71
     2
176
     1
 72
     2
176
     1
 73
     1
176
     1
 90
        2
176
     1
 40
-0.6
176
     1
 41
30.0
176
     1
 62
     5
 63
     7
421
 16777215
176
     1
 74
     0
176
     1
 91
        4
176
     1
 64
     7
176
     1
 65
   257
176
     1
 75
     1
176
     1
175
     1
176
     1
 42
1.0
176
     1
 92
        0
176
     1
 66
     7
176
     1
 43
1.0
176
     1
 76
     1
176
     1
 77
     6
176
     1
 78
     2
176
     1
 67
     7
176
     1
 79
     5
176
     1
170
     0
176
     1
171
     0
176
     1
290
     0
176
     1
 93
       13
176
     1
 44
0.0
176
     1
173
     0
176
     1
  0
VISUALSTYLE
  5
2E
102
{ACAD_REACTORS
330
2A
102
}
330
2A
100
AcDbVisualStyle
  2
GouraudWithEdges
 70
     3
177
     2
291
     1
 71
     2
176
     1
 72
     2
176
     1
 73
     1
176
     1
 90
        2
176
     1
 40
-0.6
176
     1
 41
30.0
176
     1
 62
     5
 63
     7
421
 16777215
176
     1
 74
     1
176
     1
 91
        4
176
     1
 64
     7
176
     1
 65
   257
176
     1
 75
     1
176
     1
175
     1
176
     1
 42
1.0
176
     1
 92
        0
176
     1
 66
   257
176
     1
 43
1.0
176
     1
 76
     1
176
     1
 77
     6
176
     1
 78
     2
176
     1
 67
     7
176
     1
 79
     5
176
     1
170
     0
176
     1
171
     0
176
     1
290
     0
176
     1
 93
       13
176
     1
 44
0.0
176
     1
173
     0
176
     1
  0
VISUALSTYLE
  5
38
102
{ACAD_REACTORS
330
2A
102
}
330
2A
100
AcDbVisualStyle
  2
Linepattern
 70
    14
177
     2
291
     1
 71
     2
176
     1
 72
     2
176
     1
 73
     0
176
     1
 90
        0
176
     1
 40
-0.6
176
     1
 41
-30.0
176
     1
 62
     5
 63
     7
421
 16777215
176
     1
 74
     1
176
     1
 91
        4
176
     1
 64
     7
176
     1
 65
   257
176
     1
 75
     7
176
     1
175
     7
176
     1
 42
1.0
176
     1
 92
        8
176
     1
 66
     7
176
     1
 43
1.0
176
     1
 76
     1
176
     1
 77
     6
176
     1
 78
     2
176
     1
 67
     7
176
     1
 79
     5
176
     1
170
     0
176
     1
171
     0
176
     1
290
     0
176
     1
 93
        1
176
     1
 44
0.0
176
     1
173
     0
176
     1
  0
VISUALSTYLE
  5
33
102
{ACAD_REACTORS
330
2A
102
}
330
2A
100
AcDbVisualStyle
  2
Realistic
 70
     8
177
     2
291
     0
 71
     2
176
     1
 72
     2
176
     1
 73
     0
176
     1
 90
        0
176
     1
 40
-0.6
176
     1
 41
-30.0
176
     1
 62
     5
 63
     7
421
 16777215
176
     1
 74
     1
176
     1
 91
        0
176
     1
 64
     7
176
     1
 65
   257
176
     1
 75
     1
176
     1
175
     1
176
     1
 42
1.0
176
     1
 92
        8
176
     1
 66
     8
424
  7895160
176
     1
 43
1.0
176
     1
 76
     1
176
     1
 77
     6
176
     1
 78
     2
176
     1
 67
     7
176
     1
 79
     5
176
     1
170
     0
176
     1
171
     0
176
     1
290
     0
176
     1
 93
       13
176
     1
 44
0.0
176
     1
173
     0
176
     1
  0
VISUALSTYLE
  5
37
102
{ACAD_REACTORS
330
2A
102
}
330
2A
100
AcDbVisualStyle
  2
Thicken
 70
    13
177
     2
291
     1
 71
     2
176
     1
 72
     2
176
     1
 73
     0
176
     1
 90
        0
176
     1
 40
-0.6
176
     1
 41
-30.0
176
     1
 62
     5
 63
     7
421
 16777215
176
     1
 74
     1
176
     1
 91
        4
176
     1
 64
     7
176
     1
 65
   257
176
     1
 75
     1
176
     1
175
     1
176
     1
 42
1.0
176
     1
 92
       12
176
     1
 66
     7
176
     1
 43
1.0
176
     1
 76
     1
176
     1
 77
     6
176
     1
 78
     2
176
     1
 67
     7
176
     1
 79
     5
176
     1
170
     0
176
     1
171
     0
176
     1
290
     0
176
     1
 93
        1
176
     1
 44
0.0
176
     1
173
     0
176
     1
  0
ENDSEC
  0
EOF
