  0
SECTION
  2
HEADER
  9
$ACADVER
  1
AC1024
  9
$ACADMAINTVER
 70
     6
  9
$DWGCODEPAGE
  3
UNDEFINED
  9
$INSBASE
 10
0.0
 20
0.0
 30
0.0
  9
$EXTMIN
 10
1.000000000000000E+20
 20
1.000000000000000E+20
 30
1.000000000000000E+20
  9
$EXTMAX
 10
-1.000000000000000E+20
 20
-1.000000000000000E+20
 30
-1.000000000000000E+20
  9
$LIMMIN
 10
0.0
 20
0.0
  9
$LIMMAX
 10
12.0
 20
9.0
  9
$ORTHOMODE
 70
     0
  9
$REGENMODE
 70
     1
  9
$FILLMODE
 70
     1
  9
$QTEXTMODE
 70
     0
  9
$MIRRTEXT
 70
     1
  9
$LTSCALE
 40
1.0
  9
$ATTMODE
 70
     1
  9
$TEXTSIZE
 40
0.2
  9
$TRACEWID
 40
0.05
  9
$TEXTSTYLE
  7
Standard
  9
$CLAYER
  8
0
  9
$CELTYPE
  6
ByLayer
  9
$CECOLOR
 62
   256
  9
$CELTSCALE
 40
1.0
  9
$DISPSILH
 70
     0
  9
$DIMSCALE
 40
1.0
  9
$DIMASZ
 40
0.18
  9
$DIMEXO
 40
0.0625
  9
$DIMDLI
 40
0.38
  9
$DIMRND
 40
0.0
  9
$DIMDLE
 40
0.0
  9
$DIMEXE
 40
0.18
  9
$DIMTP
 40
0.0
  9
$DIMTM
 40
0.0
  9
$DIMTXT
 40
0.18
  9
$DIMCEN
 40
0.09
  9
$DIMTSZ
 40
0.0
  9
$DIMTOL
 70
     0
  9
$DIMLIM
 70
     0
  9
$DIMTIH
 70
     1
  9
$DIMTOH
 70
     1
  9
$DIMSE1
 70
     0
  9
$DIMSE2
 70
     0
  9
$DIMTAD
 70
     0
  9
$DIMZIN
 70
     0
  9
$DIMBLK
  1

  9
$DIMASO
 70
     1
  9
$DIMSHO
 70
     1
  9
$DIMPOST
  1

  9
$DIMAPOST
  1

  9
$DIMALT
 70
     0
  9
$DIMALTD
 70
     2
  9
$DIMALTF
 40
25.4
  9
$DIMLFAC
 40
1.0
  9
$DIMTOFL
 70
     0
  9
$DIMTVP
 40
0.0
  9
$DIMTIX
 70
     0
  9
$DIMSOXD
 70
     0
  9
$DIMSAH
 70
     0
  9
$DIMBLK1
  1

  9
$DIMBLK2
  1

  9
$DIMSTYLE
  2
Standard
  9
$DIMCLRD
 70
     0
  9
$DIMCLRE
 70
     0
  9
$DIMCLRT
 70
     0
  9
$DIMTFAC
 40
1.0
  9
$DIMGAP
 40
0.09
  9
$DIMJUST
 70
     0
  9
$DIMSD1
 70
     0
  9
$DIMSD2
 70
     0
  9
$DIMTOLJ
 70
     1
  9
$DIMTZIN
 70
     0
  9
$DIMALTZ
 70
     0
  9
$DIMALTTZ
 70
     0
  9
$DIMUPT
 70
     0
  9
$DIMDEC
 70
     4
  9
$DIMTDEC
 70
     4
  9
$DIMALTU
 70
     2
  9
$DIMALTTD
 70
     2
  9
$DIMTXSTY
  7
Standard
  9
$DIMAUNIT
 70
     0
  9
$DIMADEC
 70
     0
  9
$DIMALTRND
 40
0.0
  9
$DIMAZIN
 70
     0
  9
$DIMDSEP
 70
    46
  9
$DIMATFIT
 70
     3
  9
$DIMFRAC
 70
     0
  9
$DIMLDRBLK
  1

  9
$DIMLUNIT
 70
     2
  9
$DIMLWD
 70
    -2
  9
$DIMLWE
 70
    -2
  9
$DIMTMOVE
 70
     0
  9
$DIMFXL
 40
1.0
  9
$DIMFXLON
 70
     0
  9
$DIMJOGANG
 40
0.7853981633974483
  9
$DIMTFILL
 70
     0
  9
$DIMTFILLCLR
 70
     0
  9
$DIMARCSYM
 70
     0
  9
$DIMLTYPE
  6

  9
$DIMLTEX1
  6

  9
$DIMLTEX2
  6

  9
$DIMTXTDIRECTION
 70
     0
  9
$LUNITS
 70
     2
  9
$LUPREC
 70
     4
  9
$SKETCHINC
 40
0.1
  9
$FILLETRAD
 40
0.5
  9
$AUNITS
 70
     0
  9
$AUPREC
 70
     0
  9
$MENU
  1
.
  9
$ELEVATION
 40
0.0
  9
$PELEVATION
 40
0.0
  9
$THICKNESS
 40
0.0
  9
$LIMCHECK
 70
     0
  9
$CHAMFERA
 40
0.5
  9
$CHAMFERB
 40
0.5
  9
$CHAMFERC
 40
1.0
  9
$CHAMFERD
 40
0.0
  9
$SKPOLY
 70
     0
  9
$TDCREATE
 40
2457917.595092593
  9
$TDUCREATE
 40
2457917.220092593
  9
$TDUPDATE
 40
2457917.595092593
  9
$TDUUPDATE
 40
2457917.220092593
  9
$TDINDWG
 40
0.0000000116
  9
$TDUSRTIMER
 40
0.0000000116
  9
$USRTIMER
 70
     1
  9
$ANGBASE
 50
0.0
  9
$ANGDIR
 70
     0
  9
$PDMODE
 70
     0
  9
$PDSIZE
 40
0.0
  9
$PLINEWID
 40
0.0
  9
$SPLFRAME
 70
     0
  9
$SPLINETYPE
 70
     6
  9
$SPLINESEGS
 70
     8
  9
$HANDSEED
  5
F6
  9
$SURFTAB1
 70
     6
  9
$SURFTAB2
 70
     6
  9
$SURFTYPE
 70
     6
  9
$SURFU
 70
     6
  9
$SURFV
 70
     6
  9
$UCSBASE
  2

  9
$UCSNAME
  2

  9
$UCSORG
 10
0.0
 20
0.0
 30
0.0
  9
$UCSXDIR
 10
1.0
 20
0.0
 30
0.0
  9
$UCSYDIR
 10
0.0
 20
1.0
 30
0.0
  9
$UCSORTHOREF
  2

  9
$UCSORTHOVIEW
 70
     0
  9
$UCSORGTOP
 10
0.0
 20
0.0
 30
0.0
  9
$UCSORGBOTTOM
 10
0.0
 20
0.0
 30
0.0
  9
$UCSORGLEFT
 10
0.0
 20
0.0
 30
0.0
  9
$UCSORGRIGHT
 10
0.0
 20
0.0
 30
0.0
  9
$UCSORGFRONT
 10
0.0
 20
0.0
 30
0.0
  9
$UCSORGBACK
 10
0.0
 20
0.0
 30
0.0
  9
$PUCSBASE
  2

  9
$PUCSNAME
  2

  9
$PUCSORG
 10
0.0
 20
0.0
 30
0.0
  9
$PUCSXDIR
 10
1.0
 20
0.0
 30
0.0
  9
$PUCSYDIR
 10
0.0
 20
1.0
 30
0.0
  9
$PUCSORTHOREF
  2

  9
$PUCSORTHOVIEW
 70
     0
  9
$PUCSORGTOP
 10
0.0
 20
0.0
 30
0.0
  9
$PUCSORGBOTTOM
 10
0.0
 20
0.0
 30
0.0
  9
$PUCSORGLEFT
 10
0.0
 20
0.0
 30
0.0
  9
$PUCSORGRIGHT
 10
0.0
 20
0.0
 30
0.0
  9
$PUCSORGFRONT
 10
0.0
 20
0.0
 30
0.0
  9
$PUCSORGBACK
 10
0.0
 20
0.0
 30
0.0
  9
$USERI1
 70
     0
  9
$USERI2
 70
     0
  9
$USERI3
 70
     0
  9
$USERI4
 70
     0
  9
$USERI5
 70
     0
  9
$USERR1
 40
0.0
  9
$USERR2
 40
0.0
  9
$USERR3
 40
0.0
  9
$USERR4
 40
0.0
  9
$USERR5
 40
0.0
  9
$WORLDVIEW
 70
     1
  9
$SHADEDGE
 70
     3
  9
$SHADEDIF
 70
    70
  9
$TILEMODE
 70
     1
  9
$MAXACTVP
 70
    64
  9
$PINSBASE
 10
0.0
 20
0.0
 30
0.0
  9
$PLIMCHECK
 70
     0
  9
$PEXTMIN
 10
1.000000000000000E+20
 20
1.000000000000000E+20
 30
1.000000000000000E+20
  9
$PEXTMAX
 10
-1.000000000000000E+20
 20
-1.000000000000000E+20
 30
-1.000000000000000E+20
  9
$PLIMMIN
 10
0.0
 20
0.0
  9
$PLIMMAX
 10
12.0
 20
9.0
  9
$UNITMODE
 70
     0
  9
$VISRETAIN
 70
     1
  9
$PLINEGEN
 70
     0
  9
$PSLTSCALE
 70
     1
  9
$TREEDEPTH
 70
  3020
  9
$CMLSTYLE
  2
Standard
  9
$CMLJUST
 70
     0
  9
$CMLSCALE
 40
1.0
  9
$PROXYGRAPHICS
 70
     1
  9
$MEASUREMENT
 70
     0
  9
$CELWEIGHT
370
    -1
  9
$ENDCAPS
280
     0
  9
$JOINSTYLE
280
     0
  9
$LWDISPLAY
290
     1
  9
$INSUNITS
 70
     1
  9
$HYPERLINKBASE
  1

  9
$STYLESHEET
  1

  9
$XEDIT
290
     1
  9
$CEPSNTYPE
380
     0
  9
$PSTYLEMODE
290
     1
  9
$FINGERPRINTGUID
  2
{4A9F6BFB-9E33-19B0-F043-4F91DC50ACC4}
  9
$VERSIONGUID
  2
{FAEB1C32-E019-11D5-929B-00C0DF256EC4}
  9
$EXTNAMES
290
     1
  9
$PSVPSCALE
 40
0.0
  9
$OLESTARTUP
290
     0
  9
$SORTENTS
280
   127
  9
$INDEXCTL
280
     0
  9
$HIDETEXT
280
     1
  9
$XCLIPFRAME
280
     2
  9
$HALOGAP
280
     0
  9
$OBSCOLOR
 70
   257
  9
$OBSLTYPE
280
     0
  9
$INTERSECTIONDISPLAY
280
     0
  9
$INTERSECTIONCOLOR
 70
   257
  9
$DIMASSOC
280
     2
  9
$PROJECTNAME
  1

  9
$CAMERADISPLAY
290
     0
  9
$LENSLENGTH
 40
50.0
  9
$CAMERAHEIGHT
 40
0.0
  9
$STEPSPERSEC
 40
2.0
  9
$STEPSIZE
 40
6.0
  9
$3DDWFPREC
 40
2.0
  9
$PSOLWIDTH
 40
0.25
  9
$PSOLHEIGHT
 40
4.0
  9
$LOFTANG1
 40
1.570796326794897
  9
$LOFTANG2
 40
1.570796326794897
  9
$LOFTMAG1
 40
0.0
  9
$LOFTMAG2
 40
0.0
  9
$LOFTPARAM
 70
     7
  9
$LOFTNORMALS
280
     1
  9
$LATITUDE
 40
37.795
  9
$LONGITUDE
 40
-122.394
  9
$NORTHDIRECTION
 40
0.0
  9
$TIMEZONE
 70
 -8000
  9
$LIGHTGLYPHDISPLAY
280
     1
  9
$TILEMODELIGHTSYNCH
280
     1
  9
$CMATERIAL
347
3C
  9
$SOLIDHIST
280
     1
  9
$SHOWHIST
280
     1
  9
$DWFFRAME
280
     2
  9
$DGNFRAME
280
     2
  9
$REALWORLDSCALE
290
     1
  9
$INTERFERECOLOR
 62
   256
  9
$CSHADOW
280
     0
  9
$SHADOWPLANELOCATION
 40
0.0
  0
ENDSEC
  0
SECTION
  2
CLASSES
  0
CLASS
  1
ACDBDICTIONARYWDFLT
  2
AcDbDictionaryWithDefault
  3
ObjectDBX Classes
 90
        0
 91
        4
280
     0
281
     0
  0
CLASS
  1
VISUALSTYLE
  2
AcDbVisualStyle
  3
ObjectDBX Classes
 90
     4095
 91
        4
280
     0
281
     0
  0
CLASS
  1
MATERIAL
  2
AcDbMaterial
  3
ObjectDBX Classes
 90
     1153
 91
        4
280
     0
281
     0
  0
CLASS
  1
SUN
  2
AcDbSun
  3
SCENEOE
 90
     1024
 91
        4
280
     0
281
     0
  0
ENDSEC
  0
SECTION
  2
TABLES
  0
TABLE
  2
VPORT
  5
8
330
0
100
AcDbSymbolTable
 70
     1
  0
VPORT
  5
29
330
8
100
AcDbSymbolTableRecord
100
AcDbViewportTableRecord
  2
*Active
 70
     0
 10
0.0
 20
0.0
 11
1.0
 21
1.0
 12
0.0
 22
0.0
 13
0.0
 23
0.0
 14
0.5
 24
0.5
 15
0.5
 25
0.5
 16
0.0
 26
0.0
 36
1.0
 17
91.00082462281999
 27
-128.4993055234307
 37
0.0
 40
256.9986110468615
 41
0.7081814508812795
 42
50.0
 43
0.0
 44
0.0
 50
0.0
 51
0.0
 71
     0
 72
   100
 73
     1
 74
     3
 75
     0
 76
     0
 77
     0
 78
     0
281
     0
 65
     1
110
0.0
120
0.0
130
0.0
111
1.0
121
0.0
131
0.0
112
0.0
122
1.0
132
0.0
 79
     0
146
0.0
 60
     3
 61
     5
292
     1
282
     1
141
0.0
142
0.0
 63
   250
361
3F
  0
ENDTAB
  0
TABLE
  2
LTYPE
  5
5
330
0
100
AcDbSymbolTable
 70
     1
  0
LTYPE
  5
14
330
5
100
AcDbSymbolTableRecord
100
AcDbLinetypeTableRecord
  2
ByBlock
 70
     0
  3

 72
    65
 73
     0
 40
0.0
  0
LTYPE
  5
15
330
5
100
AcDbSymbolTableRecord
100
AcDbLinetypeTableRecord
  2
ByLayer
 70
     0
  3

 72
    65
 73
     0
 40
0.0
  0
LTYPE
  5
16
330
5
100
AcDbSymbolTableRecord
100
AcDbLinetypeTableRecord
  2
Continuous
 70
     0
  3
Solid line
 72
    65
 73
     0
 40
0.0
  0
ENDTAB
  0
TABLE
  2
LAYER
  5
2
330
0
100
AcDbSymbolTable
 70
     2
  0
LAYER
  5
10
330
2
100
AcDbSymbolTableRecord
100
AcDbLayerTableRecord
  2
0
 70
     0
 62
     7
  6
Continuous
370
    -3
390
F
347
3E
  0
LAYER
  5
40
330
2
100
AcDbSymbolTableRecord
100
AcDbLayerTableRecord
  2
_U+30EC_U+30A4_U+30E4_U+30FC 1
 70
     0
 62
     7
  6
Continuous
370
    -3
390
F
347
3E
  0
ENDTAB
  0
TABLE
  2
STYLE
  5
3
330
0
100
AcDbSymbolTable
 70
     1
  0
STYLE
  5
11
330
3
100
AcDbSymbolTableRecord
100
AcDbTextStyleTableRecord
  2
Standard
 70
     0
 40
0.0
 41
1.0
 50
0.0
 71
     0
 42
0.2
  3
txt
  4

  0
ENDTAB
  0
TABLE
  2
VIEW
  5
6
330
0
100
AcDbSymbolTable
 70
     0
  0
ENDTAB
  0
TABLE
  2
UCS
  5
7
330
0
100
AcDbSymbolTable
 70
     0
  0
ENDTAB
  0
TABLE
  2
APPID
  5
9
330
0
100
AcDbSymbolTable
 70
     1
  0
APPID
  5
12
330
9
100
AcDbSymbolTableRecord
100
AcDbRegAppTableRecord
  2
ACAD
 70
     0
  0
ENDTAB
  0
TABLE
  2
DIMSTYLE
  5
A
330
0
100
AcDbSymbolTable
 70
     1
100
AcDbDimStyleTable
  0
DIMSTYLE
105
27
330
A
100
AcDbSymbolTableRecord
100
AcDbDimStyleTableRecord
  2
Standard
 70
     0
178
     0
340
11
  0
ENDTAB
  0
TABLE
  2
BLOCK_RECORD
  5
1
330
0
100
AcDbSymbolTable
 70
     7
  0
BLOCK_RECORD
  5
1F
330
1
100
AcDbSymbolTableRecord
100
AcDbBlockTableRecord
  2
*Model_Space
340
22
 70
     0
280
     1
281
     0
  0
BLOCK_RECORD
  5
1B
330
1
100
AcDbSymbolTableRecord
100
AcDbBlockTableRecord
  2
*Paper_Space
340
1E
 70
     0
280
     1
281
     0
  0
BLOCK_RECORD
  5
23
330
1
100
AcDbSymbolTableRecord
100
AcDbBlockTableRecord
  2
*Paper_Space0
340
26
 70
     0
280
     1
281
     0
  0
BLOCK_RECORD
  5
83
330
1
100
AcDbSymbolTableRecord
100
AcDbBlockTableRecord
  2
block 2
340
0
102
{BLKREFS
331
84
102
}
 70
     0
280
     1
281
     0
  0
BLOCK_RECORD
  5
98
330
1
100
AcDbSymbolTableRecord
100
AcDbBlockTableRecord
  2
block 3
340
0
102
{BLKREFS
331
99
102
}
 70
     0
280
     1
281
     0
  0
BLOCK_RECORD
  5
A8
330
1
100
AcDbSymbolTableRecord
100
AcDbBlockTableRecord
  2
block 4
340
0
102
{BLKREFS
331
A9
102
}
 70
     0
280
     1
281
     0
  0
BLOCK_RECORD
  5
BA
330
1
100
AcDbSymbolTableRecord
100
AcDbBlockTableRecord
  2
block 5
340
0
102
{BLKREFS
331
BB
102
}
 70
     0
280
     1
281
     0
  0
BLOCK_RECORD
  5
CE
330
1
100
AcDbSymbolTableRecord
100
AcDbBlockTableRecord
  2
block 6
340
0
102
{BLKREFS
331
CF
102
}
 70
     0
280
     1
281
     0
  0
BLOCK_RECORD
  5
E2
330
1
100
AcDbSymbolTableRecord
100
AcDbBlockTableRecord
  2
block 7
340
0
102
{BLKREFS
331
E3
102
}
 70
     0
280
     1
281
     0
  0
ENDTAB
  0
ENDSEC
  0
SECTION
  2
BLOCKS
  0
BLOCK
  5
20
330
1F
100
AcDbEntity
  8
0
100
AcDbBlockBegin
  2
*Model_Space
 70
     0
 10
0.0
 20
0.0
 30
0.0
  3
*Model_Space
  1

  0
ENDBLK
  5
21
330
1F
100
AcDbEntity
  8
0
100
AcDbBlockEnd
  0
BLOCK
  5
1C
330
1B
100
AcDbEntity
 67
     1
  8
0
100
AcDbBlockBegin
  2
*Paper_Space
 70
     0
 10
0.0
 20
0.0
 30
0.0
  3
*Paper_Space
  1

  0
ENDBLK
  5
1D
330
1B
100
AcDbEntity
 67
     1
  8
0
100
AcDbBlockEnd
  0
BLOCK
  5
24
330
23
100
AcDbEntity
  8
0
100
AcDbBlockBegin
  2
*Paper_Space0
 70
     0
 10
0.0
 20
0.0
 30
0.0
  3
*Paper_Space0
  1

  0
ENDBLK
  5
25
330
23
100
AcDbEntity
  8
0
100
AcDbBlockEnd
  0
BLOCK
  5
85
330
83
100
AcDbEntity
  8
0
100
AcDbBlockBegin
  2
block 2
 70
     0
 10
0.0
 20
0.0
 30
0.0
  3
block 2
  1

  0
SPLINE
  5
87
330
83
100
AcDbEntity
  8
_U+30EC_U+30A4_U+30E4_U+30FC 1
370
     0
100
AcDbSpline
210
0.0
220
0.0
230
1.0
 70
    11
 71
     3
 72
    26
 73
    22
 74
     0
 42
0.0000000001
 43
0.0000000001
 12
1.0
 22
0.0
 32
0.0
 13
1.0
 23
0.0
 33
0.0
 40
0.0
 40
0.0
 40
0.0
 40
0.0
 40
1.0
 40
1.0
 40
1.0
 40
2.0
 40
2.0
 40
2.0
 40
3.0
 40
3.0
 40
3.0
 40
4.0
 40
4.0
 40
4.0
 40
5.0
 40
5.0
 40
5.0
 40
6.0
 40
6.0
 40
6.0
 40
7.0
 40
7.0
 40
7.0
 40
7.0
 10
73.44237329978178
 20
-143.0689588401008
 30
0.0
 10
73.44237329978178
 20
-143.0689588401008
 30
0.0
 10
73.44237329978178
 20
-141.9648057370783
 30
0.0
 10
73.44237329978178
 20
-141.9648057370783
 30
0.0
 10
73.44237329978178
 20
-141.9648057370783
 30
0.0
 10
73.08959552209218
 20
-141.9648057370783
 30
0.0
 10
73.08959552209218
 20
-141.9648057370783
 30
0.0
 10
73.08959552209218
 20
-141.9648057370783
 30
0.0
 10
73.08959552209218
 20
-141.8166666312125
 30
0.0
 10
73.08959552209218
 20
-141.8166666312125
 30
0.0
 10
73.44461261184718
 20
-141.8018527206259
 30
0.0
 10
73.49439424160904
 20
-141.6388997041736
 30
0.0
 10
73.52591686529908
 20
-141.5245225340633
 30
0.0
 10
73.52591686529908
 20
-141.5245225340633
 30
0.0
 10
73.68197969078089
 20
-141.5245225340633
 30
0.0
 10
73.68197969078089
 20
-141.5245225340633
 30
0.0
 10
73.68197969078089
 20
-141.5245225340633
 30
0.0
 10
73.68197969078089
 20
-143.0689588401008
 30
0.0
 10
73.68197969078089
 20
-143.0689588401008
 30
0.0
 10
73.68197969078089
 20
-143.0689588401008
 30
0.0
 10
73.44237329978178
 20
-143.0689588401008
 30
0.0
 10
73.44237329978178
 20
-143.0689588401008
 30
0.0
  0
HATCH
  5
88
330
83
100
AcDbEntity
  8
_U+30EC_U+30A4_U+30E4_U+30FC 1
 62
     7
420
 16777215
100
AcDbHatch
 10
0.0
 20
0.0
 30
0.0
210
0.0
220
0.0
230
1.0
  2
SOLID
 70
     1
 71
     0
 91
        1
 92
        1
 93
        1
 72
     4
 94
        3
 73
     0
 74
     1
 95
       26
 96
       22
 40
0.0
 40
0.0
 40
0.0
 40
0.0
 40
1.0
 40
1.0
 40
1.0
 40
2.0
 40
2.0
 40
2.0
 40
3.0
 40
3.0
 40
3.0
 40
4.0
 40
4.0
 40
4.0
 40
5.0
 40
5.0
 40
5.0
 40
6.0
 40
6.0
 40
6.0
 40
7.0
 40
7.0
 40
7.0
 40
7.0
 10
73.44237329978178
 20
-143.0689588401008
 10
73.44237329978178
 20
-143.0689588401008
 10
73.44237329978178
 20
-141.9648057370783
 10
73.44237329978178
 20
-141.9648057370783
 10
73.44237329978178
 20
-141.9648057370783
 10
73.08959552209218
 20
-141.9648057370783
 10
73.08959552209218
 20
-141.9648057370783
 10
73.08959552209218
 20
-141.9648057370783
 10
73.08959552209218
 20
-141.8166666312125
 10
73.08959552209218
 20
-141.8166666312125
 10
73.44461261184718
 20
-141.8018527206259
 10
73.49439424160904
 20
-141.6388997041736
 10
73.52591686529908
 20
-141.5245225340633
 10
73.52591686529908
 20
-141.5245225340633
 10
73.68197969078089
 20
-141.5245225340633
 10
73.68197969078089
 20
-141.5245225340633
 10
73.68197969078089
 20
-141.5245225340633
 10
73.68197969078089
 20
-143.0689588401008
 10
73.68197969078089
 20
-143.0689588401008
 10
73.68197969078089
 20
-143.0689588401008
 10
73.44237329978178
 20
-143.0689588401008
 10
73.44237329978178
 20
-143.0689588401008
 97
        0
 97
        0
 75
     2
 76
     1
 98
        0
  0
SPLINE
  5
89
330
83
100
AcDbEntity
  8
_U+30EC_U+30A4_U+30E4_U+30FC 1
370
     0
100
AcDbSpline
210
0.0
220
0.0
230
1.0
 70
    11
 71
     3
 72
    44
 73
    40
 74
     0
 42
0.0000000001
 43
0.0000000001
 12
1.0
 22
0.0
 32
0.0
 13
1.0
 23
0.0
 33
0.0
 40
0.0
 40
0.0
 40
0.0
 40
0.0
 40
1.0
 40
1.0
 40
1.0
 40
2.0
 40
2.0
 40
2.0
 40
3.0
 40
3.0
 40
3.0
 40
4.0
 40
4.0
 40
4.0
 40
5.0
 40
5.0
 40
5.0
 40
6.0
 40
6.0
 40
6.0
 40
7.0
 40
7.0
 40
7.0
 40
8.0
 40
8.0
 40
8.0
 40
9.0
 40
9.0
 40
9.0
 40
10.0
 40
10.0
 40
10.0
 40
11.0
 40
11.0
 40
11.0
 40
12.0
 40
12.0
 40
12.0
 40
13.0
 40
13.0
 40
13.0
 40
13.0
 10
75.30151907839685
 20
-143.0689588401008
 30
0.0
 10
75.27671439090305
 20
-143.0245171083411
 30
0.0
 10
75.2539767607004
 20
-142.9718071474168
 30
0.0
 10
75.25173744863498
 20
-142.740985749905
 30
0.0
 10
75.24725882450416
 20
-142.4977620086464
 30
0.0
 10
75.18404132234983
 20
-142.4278265702958
 30
0.0
 10
74.9940443063383
 20
-142.4278265702958
 30
0.0
 10
74.9940443063383
 20
-142.4278265702958
 30
0.0
 10
74.55772296313141
 20
-142.4278265702958
 30
0.0
 10
74.55772296313141
 20
-142.4278265702958
 30
0.0
 10
74.55772296313141
 20
-142.4278265702958
 30
0.0
 10
74.55772296313141
 20
-143.0689588401008
 30
0.0
 10
74.55772296313141
 20
-143.0689588401008
 30
0.0
 10
74.55772296313141
 20
-143.0689588401008
 30
0.0
 10
74.30674775703096
 20
-143.0689588401008
 30
0.0
 10
74.30674775703096
 20
-143.0689588401008
 30
0.0
 10
74.30674775703096
 20
-143.0689588401008
 30
0.0
 10
74.30674775703096
 20
-141.5245225340633
 30
0.0
 10
74.30674775703096
 20
-141.5245225340633
 30
0.0
 10
74.30674775703096
 20
-141.5245225340633
 30
0.0
 10
75.027978496868
 20
-141.5245225340633
 30
0.0
 10
75.027978496868
 20
-141.5245225340633
 30
0.0
 10
75.35577933228953
 20
-141.5245225340633
 30
0.0
 10
75.53440753319974
 20
-141.6960882892288
 30
0.0
 10
75.53440753319974
 20
-141.9520588837828
 30
0.0
 10
75.53440753319974
 20
-142.002701787416
 30
0.0
 10
75.52545028493809
 20
-142.085384079062
 30
0.0
 10
75.47790796724163
 20
-142.1656548038683
 30
0.0
 10
75.41451821031303
 20
-142.2693521779743
 30
0.0
 10
75.34458277196246
 20
-142.2883002031432
 30
0.0
 10
75.27895370296847
 20
-142.3051811710209
 30
0.0
 10
75.42588702541437
 20
-142.3475558454895
 30
0.0
 10
75.4982340306046
 20
-142.3961316918315
 30
0.0
 10
75.50271265473543
 20
-142.7113579287319
 30
0.0
 10
75.50719127886626
 20
-142.9821424338725
 30
0.0
 10
75.54577634830106
 20
-143.0138373123368
 30
0.0
 10
75.6181233534913
 20
-143.0689588401008
 30
0.0
 10
75.6181233534913
 20
-143.0689588401008
 30
0.0
 10
75.30151907839685
 20
-143.0689588401008
 30
0.0
 10
75.30151907839685
 20
-143.0689588401008
 30
0.0
  0
SPLINE
  5
8A
330
83
100
AcDbEntity
  8
_U+30EC_U+30A4_U+30E4_U+30FC 1
370
     0
100
AcDbSpline
210
0.0
220
0.0
230
1.0
 70
    11
 71
     3
 72
    20
 73
    16
 74
     0
 42
0.0000000001
 43
0.0000000001
 12
1.0
 22
0.0
 32
0.0
 13
1.0
 23
0.0
 33
0.0
 40
0.0
 40
0.0
 40
0.0
 40
0.0
 40
1.0
 40
1.0
 40
1.0
 40
2.0
 40
2.0
 40
2.0
 40
3.0
 40
3.0
 40
3.0
 40
4.0
 40
4.0
 40
4.0
 40
5.0
 40
5.0
 40
5.0
 40
5.0
 10
75.03245712099883
 20
-141.7360513968576
 30
0.0
 10
75.03245712099883
 20
-141.7360513968576
 30
0.0
 10
74.55772296313141
 20
-141.7360513968576
 30
0.0
 10
74.55772296313141
 20
-141.7360513968576
 30
0.0
 10
74.55772296313141
 20
-141.7360513968576
 30
0.0
 10
74.55772296313141
 20
-142.2162977075015
 30
0.0
 10
74.55772296313141
 20
-142.2162977075015
 30
0.0
 10
74.55772296313141
 20
-142.2162977075015
 30
0.0
 10
75.03021780893341
 20
-142.2162977075015
 30
0.0
 10
75.03021780893341
 20
-142.2162977075015
 30
0.0
 10
75.13649900465337
 20
-142.2162977075015
 30
0.0
 10
75.28119301503388
 20
-142.1401610972775
 30
0.0
 10
75.28119301503388
 20
-141.9689398516605
 30
0.0
 10
75.28119301503388
 20
-141.8907361841454
 30
0.0
 10
75.24501951243874
 20
-141.7360513968576
 30
0.0
 10
75.03245712099883
 20
-141.7360513968576
 30
0.0
  0
HATCH
  5
8B
330
83
100
AcDbEntity
  8
_U+30EC_U+30A4_U+30E4_U+30FC 1
 62
     7
420
 16777215
100
AcDbHatch
 10
0.0
 20
0.0
 30
0.0
210
0.0
220
0.0
230
1.0
  2
SOLID
 70
     1
 71
     0
 91
        2
 92
        1
 93
        1
 72
     4
 94
        3
 73
     0
 74
     1
 95
       44
 96
       40
 40
0.0
 40
0.0
 40
0.0
 40
0.0
 40
1.0
 40
1.0
 40
1.0
 40
2.0
 40
2.0
 40
2.0
 40
3.0
 40
3.0
 40
3.0
 40
4.0
 40
4.0
 40
4.0
 40
5.0
 40
5.0
 40
5.0
 40
6.0
 40
6.0
 40
6.0
 40
7.0
 40
7.0
 40
7.0
 40
8.0
 40
8.0
 40
8.0
 40
9.0
 40
9.0
 40
9.0
 40
10.0
 40
10.0
 40
10.0
 40
11.0
 40
11.0
 40
11.0
 40
12.0
 40
12.0
 40
12.0
 40
13.0
 40
13.0
 40
13.0
 40
13.0
 10
75.30151907839685
 20
-143.0689588401008
 10
75.27671439090305
 20
-143.0245171083411
 10
75.2539767607004
 20
-142.9718071474168
 10
75.25173744863498
 20
-142.740985749905
 10
75.24725882450416
 20
-142.4977620086464
 10
75.18404132234983
 20
-142.4278265702958
 10
74.9940443063383
 20
-142.4278265702958
 10
74.9940443063383
 20
-142.4278265702958
 10
74.55772296313141
 20
-142.4278265702958
 10
74.55772296313141
 20
-142.4278265702958
 10
74.55772296313141
 20
-142.4278265702958
 10
74.55772296313141
 20
-143.0689588401008
 10
74.55772296313141
 20
-143.0689588401008
 10
74.55772296313141
 20
-143.0689588401008
 10
74.30674775703096
 20
-143.0689588401008
 10
74.30674775703096
 20
-143.0689588401008
 10
74.30674775703096
 20
-143.0689588401008
 10
74.30674775703096
 20
-141.5245225340633
 10
74.30674775703096
 20
-141.5245225340633
 10
74.30674775703096
 20
-141.5245225340633
 10
75.027978496868
 20
-141.5245225340633
 10
75.027978496868
 20
-141.5245225340633
 10
75.35577933228953
 20
-141.5245225340633
 10
75.53440753319974
 20
-141.6960882892288
 10
75.53440753319974
 20
-141.9520588837828
 10
75.53440753319974
 20
-142.002701787416
 10
75.52545028493809
 20
-142.085384079062
 10
75.47790796724163
 20
-142.1656548038683
 10
75.41451821031303
 20
-142.2693521779743
 10
75.34458277196246
 20
-142.2883002031432
 10
75.27895370296847
 20
-142.3051811710209
 10
75.42588702541437
 20
-142.3475558454895
 10
75.4982340306046
 20
-142.3961316918315
 10
75.50271265473543
 20
-142.7113579287319
 10
75.50719127886626
 20
-142.9821424338725
 10
75.54577634830106
 20
-143.0138373123368
 10
75.6181233534913
 20
-143.0689588401008
 10
75.6181233534913
 20
-143.0689588401008
 10
75.30151907839685
 20
-143.0689588401008
 10
75.30151907839685
 20
-143.0689588401008
 97
        0
 97
        0
 92
        1
 93
        1
 72
     4
 94
        3
 73
     0
 74
     1
 95
       20
 96
       16
 40
0.0
 40
0.0
 40
0.0
 40
0.0
 40
1.0
 40
1.0
 40
1.0
 40
2.0
 40
2.0
 40
2.0
 40
3.0
 40
3.0
 40
3.0
 40
4.0
 40
4.0
 40
4.0
 40
5.0
 40
5.0
 40
5.0
 40
5.0
 10
75.03245712099883
 20
-141.7360513968576
 10
75.03245712099883
 20
-141.7360513968576
 10
74.55772296313141
 20
-141.7360513968576
 10
74.55772296313141
 20
-141.7360513968576
 10
74.55772296313141
 20
-141.7360513968576
 10
74.55772296313141
 20
-142.2162977075015
 10
74.55772296313141
 20
-142.2162977075015
 10
74.55772296313141
 20
-142.2162977075015
 10
75.03021780893341
 20
-142.2162977075015
 10
75.03021780893341
 20
-142.2162977075015
 10
75.13649900465337
 20
-142.2162977075015
 10
75.28119301503388
 20
-142.1401610972775
 10
75.28119301503388
 20
-141.9689398516605
 10
75.28119301503388
 20
-141.8907361841454
 10
75.24501951243874
 20
-141.7360513968576
 10
75.03245712099883
 20
-141.7360513968576
 97
        0
 97
        0
 75
     2
 76
     1
 98
        0
  0
ENDBLK
  5
86
330
83
100
AcDbEntity
  8
0
100
AcDbBlockEnd
  0
BLOCK
  5
9A
330
98
100
AcDbEntity
  8
0
100
AcDbBlockBegin
  2
block 3
 70
     0
 10
0.0
 20
0.0
 30
0.0
  3
block 3
  1

  0
SPLINE
  5
9C
330
98
100
AcDbEntity
  8
_U+30EC_U+30A4_U+30E4_U+30FC 1
370
     0
100
AcDbSpline
210
0.0
220
0.0
230
1.0
 70
    11
 71
     3
 72
    44
 73
    40
 74
     0
 42
0.0000000001
 43
0.0000000001
 12
1.0
 22
0.0
 32
0.0
 13
1.0
 23
0.0
 33
0.0
 40
0.0
 40
0.0
 40
0.0
 40
0.0
 40
1.0
 40
1.0
 40
1.0
 40
2.0
 40
2.0
 40
2.0
 40
3.0
 40
3.0
 40
3.0
 40
4.0
 40
4.0
 40
4.0
 40
5.0
 40
5.0
 40
5.0
 40
6.0
 40
6.0
 40
6.0
 40
7.0
 40
7.0
 40
7.0
 40
8.0
 40
8.0
 40
8.0
 40
9.0
 40
9.0
 40
9.0
 40
10.0
 40
10.0
 40
10.0
 40
11.0
 40
11.0
 40
11.0
 40
12.0
 40
12.0
 40
12.0
 40
13.0
 40
13.0
 40
13.0
 40
13.0
 10
94.90617944675957
 20
-113.8569606920219
 30
0.0
 10
94.67329099195668
 20
-114.0156073391176
 30
0.0
 10
94.57338322288443
 20
-114.0896768920505
 30
0.0
 10
94.52170679060569
 20
-114.2333373737854
 30
0.0
 10
94.52170679060569
 20
-114.2333373737854
 30
0.0
 10
95.353352840745
 20
-114.2333373737854
 30
0.0
 10
95.353352840745
 20
-114.2333373737854
 30
0.0
 10
95.353352840745
 20
-114.2333373737854
 30
0.0
 10
95.353352840745
 20
-114.4386650647063
 30
0.0
 10
95.353352840745
 20
-114.4386650647063
 30
0.0
 10
95.353352840745
 20
-114.4386650647063
 30
0.0
 10
94.25505640004735
 20
-114.4386650647063
 30
0.0
 10
94.25505640004735
 20
-114.4386650647063
 30
0.0
 10
94.2888183358028
 20
-114.0810641533374
 30
0.0
 10
94.3590982837019
 20
-114.0028604858222
 30
0.0
 10
94.77044268464073
 20
-113.7045152167996
 30
0.0
 10
95.04398326616956
 20
-113.5057332073007
 30
0.0
 10
95.11426321406866
 20
-113.4380370810155
 30
0.0
 10
95.11426321406866
 20
-113.300577771154
 30
0.0
 10
95.11426321406866
 20
-113.1820664864614
 30
0.0
 10
95.03709307519907
 20
-113.0509806032477
 30
0.0
 10
94.82694225059882
 20
-113.0509806032477
 30
0.0
 10
94.54857853539063
 20
-113.0509806032477
 30
0.0
 10
94.539621287129
 20
-113.2814574912109
 30
0.0
 10
94.5354871725467
 20
-113.3979017186123
 30
0.0
 10
94.5354871725467
 20
-113.3979017186123
 30
0.0
 10
94.2957085267733
 20
-113.3979017186123
 30
0.0
 10
94.2957085267733
 20
-113.3979017186123
 30
0.0
 10
94.30466577503495
 20
-113.2709499499809
 30
0.0
 10
94.31569008058774
 20
-113.158812091936
 30
0.0
 10
94.401817467719
 20
-113.0403008072434
 30
0.0
 10
94.51963973331453
 20
-112.8795871028565
 30
0.0
 10
94.71807723326494
 20
-112.8456529123268
 30
0.0
 10
94.84278968983098
 20
-112.8456529123268
 30
0.0
 10
95.13906790156246
 20
-112.8456529123268
 30
0.0
 10
95.3602430317155
 20
-113.0297932660134
 30
0.0
 10
95.3602430317155
 20
-113.3026448284452
 30
0.0
 10
95.3602430317155
 20
-113.5310546591172
 30
0.0
 10
95.2362195942465
 20
-113.630617918641
 30
0.0
 10
94.90617944675957
 20
-113.8569606920219
 30
0.0
  0
HATCH
  5
9D
330
98
100
AcDbEntity
  8
_U+30EC_U+30A4_U+30E4_U+30FC 1
 62
     7
420
 16777215
100
AcDbHatch
 10
0.0
 20
0.0
 30
0.0
210
0.0
220
0.0
230
1.0
  2
SOLID
 70
     1
 71
     0
 91
        1
 92
        1
 93
        1
 72
     4
 94
        3
 73
     0
 74
     1
 95
       44
 96
       40
 40
0.0
 40
0.0
 40
0.0
 40
0.0
 40
1.0
 40
1.0
 40
1.0
 40
2.0
 40
2.0
 40
2.0
 40
3.0
 40
3.0
 40
3.0
 40
4.0
 40
4.0
 40
4.0
 40
5.0
 40
5.0
 40
5.0
 40
6.0
 40
6.0
 40
6.0
 40
7.0
 40
7.0
 40
7.0
 40
8.0
 40
8.0
 40
8.0
 40
9.0
 40
9.0
 40
9.0
 40
10.0
 40
10.0
 40
10.0
 40
11.0
 40
11.0
 40
11.0
 40
12.0
 40
12.0
 40
12.0
 40
13.0
 40
13.0
 40
13.0
 40
13.0
 10
94.90617944675957
 20
-113.8569606920219
 10
94.67329099195668
 20
-114.0156073391176
 10
94.57338322288443
 20
-114.0896768920505
 10
94.52170679060569
 20
-114.2333373737854
 10
94.52170679060569
 20
-114.2333373737854
 10
95.353352840745
 20
-114.2333373737854
 10
95.353352840745
 20
-114.2333373737854
 10
95.353352840745
 20
-114.2333373737854
 10
95.353352840745
 20
-114.4386650647063
 10
95.353352840745
 20
-114.4386650647063
 10
95.353352840745
 20
-114.4386650647063
 10
94.25505640004735
 20
-114.4386650647063
 10
94.25505640004735
 20
-114.4386650647063
 10
94.2888183358028
 20
-114.0810641533374
 10
94.3590982837019
 20
-114.0028604858222
 10
94.77044268464073
 20
-113.7045152167996
 10
95.04398326616956
 20
-113.5057332073007
 10
95.11426321406866
 20
-113.4380370810155
 10
95.11426321406866
 20
-113.300577771154
 10
95.11426321406866
 20
-113.1820664864614
 10
95.03709307519907
 20
-113.0509806032477
 10
94.82694225059882
 20
-113.0509806032477
 10
94.54857853539063
 20
-113.0509806032477
 10
94.539621287129
 20
-113.2814574912109
 10
94.5354871725467
 20
-113.3979017186123
 10
94.5354871725467
 20
-113.3979017186123
 10
94.2957085267733
 20
-113.3979017186123
 10
94.2957085267733
 20
-113.3979017186123
 10
94.30466577503495
 20
-113.2709499499809
 10
94.31569008058774
 20
-113.158812091936
 10
94.401817467719
 20
-113.0403008072434
 10
94.51963973331453
 20
-112.8795871028565
 10
94.71807723326494
 20
-112.8456529123268
 10
94.84278968983098
 20
-112.8456529123268
 10
95.13906790156246
 20
-112.8456529123268
 10
95.3602430317155
 20
-113.0297932660134
 10
95.3602430317155
 20
-113.3026448284452
 10
95.3602430317155
 20
-113.5310546591172
 10
95.2362195942465
 20
-113.630617918641
 10
94.90617944675957
 20
-113.8569606920219
 97
        0
 97
        0
 75
     2
 76
     1
 98
        0
  0
SPLINE
  5
9E
330
98
100
AcDbEntity
  8
_U+30EC_U+30A4_U+30E4_U+30FC 1
370
     0
100
AcDbSpline
210
0.0
220
0.0
230
1.0
 70
    11
 71
     3
 72
    26
 73
    22
 74
     0
 42
0.0000000001
 43
0.0000000001
 12
1.0
 22
0.0
 32
0.0
 13
1.0
 23
0.0
 33
0.0
 40
0.0
 40
0.0
 40
0.0
 40
0.0
 40
1.0
 40
1.0
 40
1.0
 40
2.0
 40
2.0
 40
2.0
 40
3.0
 40
3.0
 40
3.0
 40
4.0
 40
4.0
 40
4.0
 40
5.0
 40
5.0
 40
5.0
 40
6.0
 40
6.0
 40
6.0
 40
7.0
 40
7.0
 40
7.0
 40
7.0
 10
95.96933591350766
 20
-114.4386650647063
 30
0.0
 10
95.96933591350766
 20
-114.4386650647063
 30
0.0
 10
95.71646590489033
 20
-114.4386650647063
 30
0.0
 10
95.71646590489033
 20
-114.4386650647063
 30
0.0
 10
95.74333764967528
 20
-114.1298122544537
 30
0.0
 10
95.94935435969322
 20
-113.6114976386978
 30
0.0
 10
96.3834363908347
 20
-113.1059298762374
 30
0.0
 10
96.3834363908347
 20
-113.1059298762374
 30
0.0
 10
95.48771156466974
 20
-113.1059298762374
 30
0.0
 10
95.48771156466974
 20
-113.1059298762374
 30
0.0
 10
95.48771156466974
 20
-113.1059298762374
 30
0.0
 10
95.48771156466974
 20
-112.8944010134431
 30
0.0
 10
95.48771156466974
 20
-112.8944010134431
 30
0.0
 10
95.48771156466974
 20
-112.8944010134431
 30
0.0
 10
96.63630639945204
 20
-112.8944010134431
 30
0.0
 10
96.63630639945204
 20
-112.8944010134431
 30
0.0
 10
96.63630639945204
 20
-112.8944010134431
 30
0.0
 10
96.63630639945204
 20
-113.1059298762374
 30
0.0
 10
96.63630639945204
 20
-113.1059298762374
 30
0.0
 10
96.29041881273295
 20
-113.3956624065469
 30
0.0
 10
96.00585392565132
 20
-113.9880465752356
 30
0.0
 10
95.96933591350766
 20
-114.4386650647063
 30
0.0
  0
HATCH
  5
9F
330
98
100
AcDbEntity
  8
_U+30EC_U+30A4_U+30E4_U+30FC 1
 62
     7
420
 16777215
100
AcDbHatch
 10
0.0
 20
0.0
 30
0.0
210
0.0
220
0.0
230
1.0
  2
SOLID
 70
     1
 71
     0
 91
        1
 92
        1
 93
        1
 72
     4
 94
        3
 73
     0
 74
     1
 95
       26
 96
       22
 40
0.0
 40
0.0
 40
0.0
 40
0.0
 40
1.0
 40
1.0
 40
1.0
 40
2.0
 40
2.0
 40
2.0
 40
3.0
 40
3.0
 40
3.0
 40
4.0
 40
4.0
 40
4.0
 40
5.0
 40
5.0
 40
5.0
 40
6.0
 40
6.0
 40
6.0
 40
7.0
 40
7.0
 40
7.0
 40
7.0
 10
95.96933591350766
 20
-114.4386650647063
 10
95.96933591350766
 20
-114.4386650647063
 10
95.71646590489033
 20
-114.4386650647063
 10
95.71646590489033
 20
-114.4386650647063
 10
95.74333764967528
 20
-114.1298122544537
 10
95.94935435969322
 20
-113.6114976386978
 10
96.3834363908347
 20
-113.1059298762374
 10
96.3834363908347
 20
-113.1059298762374
 10
95.48771156466974
 20
-113.1059298762374
 10
95.48771156466974
 20
-113.1059298762374
 10
95.48771156466974
 20
-113.1059298762374
 10
95.48771156466974
 20
-112.8944010134431
 10
95.48771156466974
 20
-112.8944010134431
 10
95.48771156466974
 20
-112.8944010134431
 10
96.63630639945204
 20
-112.8944010134431
 10
96.63630639945204
 20
-112.8944010134431
 10
96.63630639945204
 20
-112.8944010134431
 10
96.63630639945204
 20
-113.1059298762374
 10
96.63630639945204
 20
-113.1059298762374
 10
96.29041881273295
 20
-113.3956624065469
 10
96.00585392565132
 20
-113.9880465752356
 10
95.96933591350766
 20
-114.4386650647063
 97
        0
 97
        0
 75
     2
 76
     1
 98
        0
  0
ENDBLK
  5
9B
330
98
100
AcDbEntity
  8
0
100
AcDbBlockEnd
  0
BLOCK
  5
AA
330
A8
100
AcDbEntity
  8
0
100
AcDbBlockBegin
  2
block 4
 70
     0
 10
0.0
 20
0.0
 30
0.0
  3
block 4
  1

  0
SPLINE
  5
AC
330
A8
100
AcDbEntity
  8
_U+30EC_U+30A4_U+30E4_U+30FC 1
370
     0
100
AcDbSpline
210
0.0
220
0.0
230
1.0
 70
    11
 71
     3
 72
    26
 73
    22
 74
     0
 42
0.0000000001
 43
0.0000000001
 12
1.0
 22
0.0
 32
0.0
 13
1.0
 23
0.0
 33
0.0
 40
0.0
 40
0.0
 40
0.0
 40
0.0
 40
1.0
 40
1.0
 40
1.0
 40
2.0
 40
2.0
 40
2.0
 40
3.0
 40
3.0
 40
3.0
 40
4.0
 40
4.0
 40
4.0
 40
5.0
 40
5.0
 40
5.0
 40
6.0
 40
6.0
 40
6.0
 40
7.0
 40
7.0
 40
7.0
 40
7.0
 10
83.1630547209627
 20
-119.6197441649735
 30
0.0
 10
83.1630547209627
 20
-119.6197441649735
 30
0.0
 10
83.1630547209627
 20
-118.5154188071767
 30
0.0
 10
83.1630547209627
 20
-118.5154188071767
 30
0.0
 10
83.1630547209627
 20
-118.5154188071767
 30
0.0
 10
82.81027694327312
 20
-118.5154188071767
 30
0.0
 10
82.81027694327312
 20
-118.5154188071767
 30
0.0
 10
82.81027694327312
 20
-118.5154188071767
 30
0.0
 10
82.81027694327312
 20
-118.367279701311
 30
0.0
 10
82.81027694327312
 20
-118.367279701311
 30
0.0
 10
83.16529403302812
 20
-118.3526380454987
 30
0.0
 10
83.21507566278999
 20
-118.1896850290463
 30
0.0
 10
83.24659828648002
 20
-118.0754801137103
 30
0.0
 10
83.24659828648002
 20
-118.0754801137103
 30
0.0
 10
83.40266111196183
 20
-118.0754801137103
 30
0.0
 10
83.40266111196183
 20
-118.0754801137103
 30
0.0
 10
83.40266111196183
 20
-118.0754801137103
 30
0.0
 10
83.40266111196183
 20
-119.6197441649735
 30
0.0
 10
83.40266111196183
 20
-119.6197441649735
 30
0.0
 10
83.40266111196183
 20
-119.6197441649735
 30
0.0
 10
83.1630547209627
 20
-119.6197441649735
 30
0.0
 10
83.1630547209627
 20
-119.6197441649735
 30
0.0
  0
HATCH
  5
AD
330
A8
100
AcDbEntity
  8
_U+30EC_U+30A4_U+30E4_U+30FC 1
 62
     7
420
 16777215
100
AcDbHatch
 10
0.0
 20
0.0
 30
0.0
210
0.0
220
0.0
230
1.0
  2
SOLID
 70
     1
 71
     0
 91
        1
 92
        1
 93
        1
 72
     4
 94
        3
 73
     0
 74
     1
 95
       26
 96
       22
 40
0.0
 40
0.0
 40
0.0
 40
0.0
 40
1.0
 40
1.0
 40
1.0
 40
2.0
 40
2.0
 40
2.0
 40
3.0
 40
3.0
 40
3.0
 40
4.0
 40
4.0
 40
4.0
 40
5.0
 40
5.0
 40
5.0
 40
6.0
 40
6.0
 40
6.0
 40
7.0
 40
7.0
 40
7.0
 40
7.0
 10
83.1630547209627
 20
-119.6197441649735
 10
83.1630547209627
 20
-119.6197441649735
 10
83.1630547209627
 20
-118.5154188071767
 10
83.1630547209627
 20
-118.5154188071767
 10
83.1630547209627
 20
-118.5154188071767
 10
82.81027694327312
 20
-118.5154188071767
 10
82.81027694327312
 20
-118.5154188071767
 10
82.81027694327312
 20
-118.5154188071767
 10
82.81027694327312
 20
-118.367279701311
 10
82.81027694327312
 20
-118.367279701311
 10
83.16529403302812
 20
-118.3526380454987
 10
83.21507566278999
 20
-118.1896850290463
 10
83.24659828648002
 20
-118.0754801137103
 10
83.24659828648002
 20
-118.0754801137103
 10
83.40266111196183
 20
-118.0754801137103
 10
83.40266111196183
 20
-118.0754801137103
 10
83.40266111196183
 20
-118.0754801137103
 10
83.40266111196183
 20
-119.6197441649735
 10
83.40266111196183
 20
-119.6197441649735
 10
83.40266111196183
 20
-119.6197441649735
 10
83.1630547209627
 20
-119.6197441649735
 10
83.1630547209627
 20
-119.6197441649735
 97
        0
 97
        0
 75
     2
 76
     1
 98
        0
  0
ENDBLK
  5
AB
330
A8
100
AcDbEntity
  8
0
100
AcDbBlockEnd
  0
BLOCK
  5
BC
330
BA
100
AcDbEntity
  8
0
100
AcDbBlockBegin
  2
block 5
 70
     0
 10
0.0
 20
0.0
 30
0.0
  3
block 5
  1

  0
SPLINE
  5
BE
330
BA
100
AcDbEntity
  8
_U+30EC_U+30A4_U+30E4_U+30FC 1
370
     0
100
AcDbSpline
210
0.0
220
0.0
230
1.0
 70
    11
 71
     3
 72
    44
 73
    40
 74
     0
 42
0.0000000001
 43
0.0000000001
 12
1.0
 22
0.0
 32
0.0
 13
1.0
 23
0.0
 33
0.0
 40
0.0
 40
0.0
 40
0.0
 40
0.0
 40
1.0
 40
1.0
 40
1.0
 40
2.0
 40
2.0
 40
2.0
 40
3.0
 40
3.0
 40
3.0
 40
4.0
 40
4.0
 40
4.0
 40
5.0
 40
5.0
 40
5.0
 40
6.0
 40
6.0
 40
6.0
 40
7.0
 40
7.0
 40
7.0
 40
8.0
 40
8.0
 40
8.0
 40
9.0
 40
9.0
 40
9.0
 40
10.0
 40
10.0
 40
10.0
 40
11.0
 40
11.0
 40
11.0
 40
12.0
 40
12.0
 40
12.0
 40
13.0
 40
13.0
 40
13.0
 40
13.0
 10
75.75713295632114
 20
-129.7457410699941
 30
0.0
 10
75.9157796034169
 20
-129.978629524797
 30
0.0
 10
75.98984915634976
 20
-130.0785372938693
 30
0.0
 10
76.13368189285895
 20
-130.130213726148
 30
0.0
 10
76.13368189285895
 20
-130.130213726148
 30
0.0
 10
76.13368189285895
 20
-129.2985676760087
 30
0.0
 10
76.13368189285895
 20
-129.2985676760087
 30
0.0
 10
76.13368189285895
 20
-129.2985676760087
 30
0.0
 10
76.33883732900557
 20
-129.2985676760087
 30
0.0
 10
76.33883732900557
 20
-129.2985676760087
 30
0.0
 10
76.33883732900557
 20
-129.2985676760087
 30
0.0
 10
76.33883732900557
 20
-130.3968641167064
 30
0.0
 10
76.33883732900557
 20
-130.3968641167064
 30
0.0
 10
75.98123641763664
 20
-130.3631021809509
 30
0.0
 10
75.90303275012147
 20
-130.2928222330518
 30
0.0
 10
75.60468748109884
 20
-129.881477832113
 30
0.0
 10
75.40590547159992
 20
-129.6079372505841
 30
0.0
 10
75.33820934531475
 20
-129.537657302685
 30
0.0
 10
75.20075003545328
 20
-129.537657302685
 30
0.0
 10
75.0822387507607
 20
-129.537657302685
 30
0.0
 10
74.95098061277268
 20
-129.6148274415546
 30
0.0
 10
74.95098061277268
 20
-129.8249782661549
 30
0.0
 10
74.95098061277268
 20
-130.1033419813631
 30
0.0
 10
75.18162975551016
 20
-130.1122992296247
 30
0.0
 10
75.29807398291159
 20
-130.116433344207
 30
0.0
 10
75.29807398291159
 20
-130.116433344207
 30
0.0
 10
75.29807398291159
 20
-130.3562119899804
 30
0.0
 10
75.29807398291159
 20
-130.3562119899804
 30
0.0
 10
75.17112221428015
 20
-130.3472547417188
 30
0.0
 10
75.05898435623526
 20
-130.3362304361659
 30
0.0
 10
74.94047307154267
 20
-130.2501030490347
 30
0.0
 10
74.77975936715576
 20
-130.1322807834392
 30
0.0
 10
74.74582517662604
 20
-129.9338432834888
 30
0.0
 10
74.74582517662604
 20
-129.8091308269227
 30
0.0
 10
74.74582517662604
 20
-129.5128526151912
 30
0.0
 10
74.92996553031266
 20
-129.2916774850382
 30
0.0
 10
75.20281709274444
 20
-129.2916774850382
 30
0.0
 10
75.4312269234165
 20
-129.2916774850382
 30
0.0
 10
75.53079018294022
 20
-129.4157009225072
 30
0.0
 10
75.75713295632114
 20
-129.7457410699941
 30
0.0
  0
HATCH
  5
BF
330
BA
100
AcDbEntity
  8
_U+30EC_U+30A4_U+30E4_U+30FC 1
 62
     7
420
 16777215
100
AcDbHatch
 10
0.0
 20
0.0
 30
0.0
210
0.0
220
0.0
230
1.0
  2
SOLID
 70
     1
 71
     0
 91
        1
 92
        1
 93
        1
 72
     4
 94
        3
 73
     0
 74
     1
 95
       44
 96
       40
 40
0.0
 40
0.0
 40
0.0
 40
0.0
 40
1.0
 40
1.0
 40
1.0
 40
2.0
 40
2.0
 40
2.0
 40
3.0
 40
3.0
 40
3.0
 40
4.0
 40
4.0
 40
4.0
 40
5.0
 40
5.0
 40
5.0
 40
6.0
 40
6.0
 40
6.0
 40
7.0
 40
7.0
 40
7.0
 40
8.0
 40
8.0
 40
8.0
 40
9.0
 40
9.0
 40
9.0
 40
10.0
 40
10.0
 40
10.0
 40
11.0
 40
11.0
 40
11.0
 40
12.0
 40
12.0
 40
12.0
 40
13.0
 40
13.0
 40
13.0
 40
13.0
 10
75.75713295632114
 20
-129.7457410699941
 10
75.9157796034169
 20
-129.978629524797
 10
75.98984915634976
 20
-130.0785372938693
 10
76.13368189285895
 20
-130.130213726148
 10
76.13368189285895
 20
-130.130213726148
 10
76.13368189285895
 20
-129.2985676760087
 10
76.13368189285895
 20
-129.2985676760087
 10
76.13368189285895
 20
-129.2985676760087
 10
76.33883732900557
 20
-129.2985676760087
 10
76.33883732900557
 20
-129.2985676760087
 10
76.33883732900557
 20
-129.2985676760087
 10
76.33883732900557
 20
-130.3968641167064
 10
76.33883732900557
 20
-130.3968641167064
 10
75.98123641763664
 20
-130.3631021809509
 10
75.90303275012147
 20
-130.2928222330518
 10
75.60468748109884
 20
-129.881477832113
 10
75.40590547159992
 20
-129.6079372505841
 10
75.33820934531475
 20
-129.537657302685
 10
75.20075003545328
 20
-129.537657302685
 10
75.0822387507607
 20
-129.537657302685
 10
74.95098061277268
 20
-129.6148274415546
 10
74.95098061277268
 20
-129.8249782661549
 10
74.95098061277268
 20
-130.1033419813631
 10
75.18162975551016
 20
-130.1122992296247
 10
75.29807398291159
 20
-130.116433344207
 10
75.29807398291159
 20
-130.116433344207
 10
75.29807398291159
 20
-130.3562119899804
 10
75.29807398291159
 20
-130.3562119899804
 10
75.17112221428015
 20
-130.3472547417188
 10
75.05898435623526
 20
-130.3362304361659
 10
74.94047307154267
 20
-130.2501030490347
 10
74.77975936715576
 20
-130.1322807834392
 10
74.74582517662604
 20
-129.9338432834888
 10
74.74582517662604
 20
-129.8091308269227
 10
74.74582517662604
 20
-129.5128526151912
 10
74.92996553031266
 20
-129.2916774850382
 10
75.20281709274444
 20
-129.2916774850382
 10
75.4312269234165
 20
-129.2916774850382
 10
75.53079018294022
 20
-129.4157009225072
 10
75.75713295632114
 20
-129.7457410699941
 97
        0
 97
        0
 75
     2
 76
     1
 98
        0
  0
SPLINE
  5
C0
330
BA
100
AcDbEntity
  8
_U+30EC_U+30A4_U+30E4_U+30FC 1
370
     0
100
AcDbSpline
210
0.0
220
0.0
230
1.0
 70
    11
 71
     3
 72
    44
 73
    40
 74
     0
 42
0.0000000001
 43
0.0000000001
 12
1.0
 22
0.0
 32
0.0
 13
1.0
 23
0.0
 33
0.0
 40
0.0
 40
0.0
 40
0.0
 40
0.0
 40
1.0
 40
1.0
 40
1.0
 40
2.0
 40
2.0
 40
2.0
 40
3.0
 40
3.0
 40
3.0
 40
4.0
 40
4.0
 40
4.0
 40
5.0
 40
5.0
 40
5.0
 40
6.0
 40
6.0
 40
6.0
 40
7.0
 40
7.0
 40
7.0
 40
8.0
 40
8.0
 40
8.0
 40
9.0
 40
9.0
 40
9.0
 40
10.0
 40
10.0
 40
10.0
 40
11.0
 40
11.0
 40
11.0
 40
12.0
 40
12.0
 40
12.0
 40
13.0
 40
13.0
 40
13.0
 40
13.0
 10
75.75713295632114
 20
-128.4881089631037
 30
0.0
 10
75.9157796034169
 20
-128.7209974179066
 30
0.0
 10
75.98984915634976
 20
-128.820388422656
 30
0.0
 10
76.13368189285895
 20
-128.8727538740318
 30
0.0
 10
76.13368189285895
 20
-128.8727538740318
 30
0.0
 10
76.13368189285895
 20
-128.0402465500212
 30
0.0
 10
76.13368189285895
 20
-128.0402465500212
 30
0.0
 10
76.13368189285895
 20
-128.0402465500212
 30
0.0
 10
76.33883732900557
 20
-128.0402465500212
 30
0.0
 10
76.33883732900557
 20
-128.0402465500212
 30
0.0
 10
76.33883732900557
 20
-128.0402465500212
 30
0.0
 10
76.33883732900557
 20
-129.1394042645902
 30
0.0
 10
76.33883732900557
 20
-129.1394042645902
 30
0.0
 10
75.98123641763664
 20
-129.1049533097377
 30
0.0
 10
75.90303275012147
 20
-129.0353623809356
 30
0.0
 10
75.60468748109884
 20
-128.6238457252225
 30
0.0
 10
75.40590547159992
 20
-128.3503051436937
 30
0.0
 10
75.33820934531475
 20
-128.2800251957946
 30
0.0
 10
75.20075003545328
 20
-128.2800251957946
 30
0.0
 10
75.0822387507607
 20
-128.2800251957946
 30
0.0
 10
74.95098061277268
 20
-128.3568508251157
 30
0.0
 10
74.95098061277268
 20
-128.5673461592644
 30
0.0
 10
74.95098061277268
 20
-128.8451931101498
 30
0.0
 10
75.18162975551016
 20
-128.8541503584115
 30
0.0
 10
75.29807398291159
 20
-128.8589734920908
 30
0.0
 10
75.29807398291159
 20
-128.8589734920908
 30
0.0
 10
75.29807398291159
 20
-129.0987521378642
 30
0.0
 10
75.29807398291159
 20
-129.0987521378642
 30
0.0
 10
75.17112221428015
 20
-129.0897948896026
 30
0.0
 10
75.05898435623526
 20
-129.0780815649527
 30
0.0
 10
74.94047307154267
 20
-128.9919541778215
 30
0.0
 10
74.77975936715576
 20
-128.874820931323
 30
0.0
 10
74.74582517662604
 20
-128.6758666670498
 30
0.0
 10
74.74582517662604
 20
-128.5514987200323
 30
0.0
 10
74.74582517662604
 20
-128.2552205083008
 30
0.0
 10
74.92996553031266
 20
-128.0337008685992
 30
0.0
 10
75.20281709274444
 20
-128.0337008685992
 30
0.0
 10
75.4312269234165
 20
-128.0337008685992
 30
0.0
 10
75.53079018294022
 20
-128.1580688156167
 30
0.0
 10
75.75713295632114
 20
-128.4881089631037
 30
0.0
  0
HATCH
  5
C1
330
BA
100
AcDbEntity
  8
_U+30EC_U+30A4_U+30E4_U+30FC 1
 62
     7
420
 16777215
100
AcDbHatch
 10
0.0
 20
0.0
 30
0.0
210
0.0
220
0.0
230
1.0
  2
SOLID
 70
     1
 71
     0
 91
        1
 92
        1
 93
        1
 72
     4
 94
        3
 73
     0
 74
     1
 95
       44
 96
       40
 40
0.0
 40
0.0
 40
0.0
 40
0.0
 40
1.0
 40
1.0
 40
1.0
 40
2.0
 40
2.0
 40
2.0
 40
3.0
 40
3.0
 40
3.0
 40
4.0
 40
4.0
 40
4.0
 40
5.0
 40
5.0
 40
5.0
 40
6.0
 40
6.0
 40
6.0
 40
7.0
 40
7.0
 40
7.0
 40
8.0
 40
8.0
 40
8.0
 40
9.0
 40
9.0
 40
9.0
 40
10.0
 40
10.0
 40
10.0
 40
11.0
 40
11.0
 40
11.0
 40
12.0
 40
12.0
 40
12.0
 40
13.0
 40
13.0
 40
13.0
 40
13.0
 10
75.75713295632114
 20
-128.4881089631037
 10
75.9157796034169
 20
-128.7209974179066
 10
75.98984915634976
 20
-128.820388422656
 10
76.13368189285895
 20
-128.8727538740318
 10
76.13368189285895
 20
-128.8727538740318
 10
76.13368189285895
 20
-128.0402465500212
 10
76.13368189285895
 20
-128.0402465500212
 10
76.13368189285895
 20
-128.0402465500212
 10
76.33883732900557
 20
-128.0402465500212
 10
76.33883732900557
 20
-128.0402465500212
 10
76.33883732900557
 20
-128.0402465500212
 10
76.33883732900557
 20
-129.1394042645902
 10
76.33883732900557
 20
-129.1394042645902
 10
75.98123641763664
 20
-129.1049533097377
 10
75.90303275012147
 20
-129.0353623809356
 10
75.60468748109884
 20
-128.6238457252225
 10
75.40590547159992
 20
-128.3503051436937
 10
75.33820934531475
 20
-128.2800251957946
 10
75.20075003545328
 20
-128.2800251957946
 10
75.0822387507607
 20
-128.2800251957946
 10
74.95098061277268
 20
-128.3568508251157
 10
74.95098061277268
 20
-128.5673461592644
 10
74.95098061277268
 20
-128.8451931101498
 10
75.18162975551016
 20
-128.8541503584115
 10
75.29807398291159
 20
-128.8589734920908
 10
75.29807398291159
 20
-128.8589734920908
 10
75.29807398291159
 20
-129.0987521378642
 10
75.29807398291159
 20
-129.0987521378642
 10
75.17112221428015
 20
-129.0897948896026
 10
75.05898435623526
 20
-129.0780815649527
 10
74.94047307154267
 20
-128.9919541778215
 10
74.77975936715576
 20
-128.874820931323
 10
74.74582517662604
 20
-128.6758666670498
 10
74.74582517662604
 20
-128.5514987200323
 10
74.74582517662604
 20
-128.2552205083008
 10
74.92996553031266
 20
-128.0337008685992
 10
75.20281709274444
 20
-128.0337008685992
 10
75.4312269234165
 20
-128.0337008685992
 10
75.53079018294022
 20
-128.1580688156167
 10
75.75713295632114
 20
-128.4881089631037
 97
        0
 97
        0
 75
     2
 76
     1
 98
        0
  0
ENDBLK
  5
BD
330
BA
100
AcDbEntity
  8
0
100
AcDbBlockEnd
  0
BLOCK
  5
D0
330
CE
100
AcDbEntity
  8
0
100
AcDbBlockBegin
  2
block 6
 70
     0
 10
0.0
 20
0.0
 30
0.0
  3
block 6
  1

  0
SPLINE
  5
D2
330
CE
100
AcDbEntity
  8
_U+30EC_U+30A4_U+30E4_U+30FC 1
370
     0
100
AcDbSpline
210
0.0
220
0.0
230
1.0
 70
    11
 71
     3
 72
    44
 73
    40
 74
     0
 42
0.0000000001
 43
0.0000000001
 12
1.0
 22
0.0
 32
0.0
 13
1.0
 23
0.0
 33
0.0
 40
0.0
 40
0.0
 40
0.0
 40
0.0
 40
1.0
 40
1.0
 40
1.0
 40
2.0
 40
2.0
 40
2.0
 40
3.0
 40
3.0
 40
3.0
 40
4.0
 40
4.0
 40
4.0
 40
5.0
 40
5.0
 40
5.0
 40
6.0
 40
6.0
 40
6.0
 40
7.0
 40
7.0
 40
7.0
 40
8.0
 40
8.0
 40
8.0
 40
9.0
 40
9.0
 40
9.0
 40
10.0
 40
10.0
 40
10.0
 40
11.0
 40
11.0
 40
11.0
 40
12.0
 40
12.0
 40
12.0
 40
13.0
 40
13.0
 40
13.0
 40
13.0
 10
91.40630694329425
 20
-143.0372639616365
 30
0.0
 10
91.17341848849138
 20
-143.1960828635065
 30
0.0
 10
91.07385522896764
 20
-143.2701524164394
 30
0.0
 10
91.02183428714038
 20
-143.4138128981743
 30
0.0
 10
91.02183428714038
 20
-143.4138128981743
 30
0.0
 10
91.85416935637674
 20
-143.4138128981743
 30
0.0
 10
91.85416935637674
 20
-143.4138128981743
 30
0.0
 10
91.85416935637674
 20
-143.4138128981743
 30
0.0
 10
91.85416935637674
 20
-143.6191405890952
 30
0.0
 10
91.85416935637674
 20
-143.6191405890952
 30
0.0
 10
91.85416935637674
 20
-143.6191405890952
 30
0.0
 10
90.75518389658204
 20
-143.6191405890952
 30
0.0
 10
90.75518389658204
 20
-143.6191405890952
 30
0.0
 10
90.78929034188602
 20
-143.2615396777263
 30
0.0
 10
90.85922578023659
 20
-143.1833360102111
 30
0.0
 10
91.27057018117542
 20
-142.8849907411885
 30
0.0
 10
91.54411076270425
 20
-142.6862087316896
 30
0.0
 10
91.61439071060335
 20
-142.6183403506301
 30
0.0
 10
91.61439071060335
 20
-142.4808810407687
 30
0.0
 10
91.61439071060335
 20
-142.3623697560761
 30
0.0
 10
91.53756508128228
 20
-142.2314561276366
 30
0.0
 10
91.32706974713352
 20
-142.2314561276366
 30
0.0
 10
91.04905054147385
 20
-142.2314561276366
 30
0.0
 10
91.04009329321221
 20
-142.4619330155998
 30
0.0
 10
91.03561466908138
 20
-142.5783772430013
 30
0.0
 10
91.03561466908138
 20
-142.5783772430013
 30
0.0
 10
90.79583602330798
 20
-142.5783772430013
 30
0.0
 10
90.79583602330798
 20
-142.5783772430013
 30
0.0
 10
90.80479327156964
 20
-142.4512532195955
 30
0.0
 10
90.81616208667096
 20
-142.3392876163249
 30
0.0
 10
90.90228947380221
 20
-142.2207763316323
 30
0.0
 10
91.01976722984922
 20
-142.0598903724712
 30
0.0
 10
91.21854923934815
 20
-142.0261284367157
 30
0.0
 10
91.34291718636567
 20
-142.0261284367157
 30
0.0
 10
91.63919539809714
 20
-142.0261284367157
 30
0.0
 10
91.86071503779871
 20
-142.210096535628
 30
0.0
 10
91.86071503779871
 20
-142.4829480980598
 30
0.0
 10
91.86071503779871
 20
-142.7117024382804
 30
0.0
 10
91.7363470907812
 20
-142.8109211882556
 30
0.0
 10
91.40630694329425
 20
-143.0372639616365
 30
0.0
  0
HATCH
  5
D3
330
CE
100
AcDbEntity
  8
_U+30EC_U+30A4_U+30E4_U+30FC 1
 62
     7
420
 16777215
100
AcDbHatch
 10
0.0
 20
0.0
 30
0.0
210
0.0
220
0.0
230
1.0
  2
SOLID
 70
     1
 71
     0
 91
        1
 92
        1
 93
        1
 72
     4
 94
        3
 73
     0
 74
     1
 95
       44
 96
       40
 40
0.0
 40
0.0
 40
0.0
 40
0.0
 40
1.0
 40
1.0
 40
1.0
 40
2.0
 40
2.0
 40
2.0
 40
3.0
 40
3.0
 40
3.0
 40
4.0
 40
4.0
 40
4.0
 40
5.0
 40
5.0
 40
5.0
 40
6.0
 40
6.0
 40
6.0
 40
7.0
 40
7.0
 40
7.0
 40
8.0
 40
8.0
 40
8.0
 40
9.0
 40
9.0
 40
9.0
 40
10.0
 40
10.0
 40
10.0
 40
11.0
 40
11.0
 40
11.0
 40
12.0
 40
12.0
 40
12.0
 40
13.0
 40
13.0
 40
13.0
 40
13.0
 10
91.40630694329425
 20
-143.0372639616365
 10
91.17341848849138
 20
-143.1960828635065
 10
91.07385522896764
 20
-143.2701524164394
 10
91.02183428714038
 20
-143.4138128981743
 10
91.02183428714038
 20
-143.4138128981743
 10
91.85416935637674
 20
-143.4138128981743
 10
91.85416935637674
 20
-143.4138128981743
 10
91.85416935637674
 20
-143.4138128981743
 10
91.85416935637674
 20
-143.6191405890952
 10
91.85416935637674
 20
-143.6191405890952
 10
91.85416935637674
 20
-143.6191405890952
 10
90.75518389658204
 20
-143.6191405890952
 10
90.75518389658204
 20
-143.6191405890952
 10
90.78929034188602
 20
-143.2615396777263
 10
90.85922578023659
 20
-143.1833360102111
 10
91.27057018117542
 20
-142.8849907411885
 10
91.54411076270425
 20
-142.6862087316896
 10
91.61439071060335
 20
-142.6183403506301
 10
91.61439071060335
 20
-142.4808810407687
 10
91.61439071060335
 20
-142.3623697560761
 10
91.53756508128228
 20
-142.2314561276366
 10
91.32706974713352
 20
-142.2314561276366
 10
91.04905054147385
 20
-142.2314561276366
 10
91.04009329321221
 20
-142.4619330155998
 10
91.03561466908138
 20
-142.5783772430013
 10
91.03561466908138
 20
-142.5783772430013
 10
90.79583602330798
 20
-142.5783772430013
 10
90.79583602330798
 20
-142.5783772430013
 10
90.80479327156964
 20
-142.4512532195955
 10
90.81616208667096
 20
-142.3392876163249
 10
90.90228947380221
 20
-142.2207763316323
 10
91.01976722984922
 20
-142.0598903724712
 10
91.21854923934815
 20
-142.0261284367157
 10
91.34291718636567
 20
-142.0261284367157
 10
91.63919539809714
 20
-142.0261284367157
 10
91.86071503779871
 20
-142.210096535628
 10
91.86071503779871
 20
-142.4829480980598
 10
91.86071503779871
 20
-142.7117024382804
 10
91.7363470907812
 20
-142.8109211882556
 10
91.40630694329425
 20
-143.0372639616365
 97
        0
 97
        0
 75
     2
 76
     1
 98
        0
  0
SPLINE
  5
D4
330
CE
100
AcDbEntity
  8
_U+30EC_U+30A4_U+30E4_U+30FC 1
370
     0
100
AcDbSpline
210
0.0
220
0.0
230
1.0
 70
    11
 71
     3
 72
    44
 73
    40
 74
     0
 42
0.0000000001
 43
0.0000000001
 12
1.0
 22
0.0
 32
0.0
 13
1.0
 23
0.0
 33
0.0
 40
0.0
 40
0.0
 40
0.0
 40
0.0
 40
1.0
 40
1.0
 40
1.0
 40
2.0
 40
2.0
 40
2.0
 40
3.0
 40
3.0
 40
3.0
 40
4.0
 40
4.0
 40
4.0
 40
5.0
 40
5.0
 40
5.0
 40
6.0
 40
6.0
 40
6.0
 40
7.0
 40
7.0
 40
7.0
 40
8.0
 40
8.0
 40
8.0
 40
9.0
 40
9.0
 40
9.0
 40
10.0
 40
10.0
 40
10.0
 40
11.0
 40
11.0
 40
11.0
 40
12.0
 40
12.0
 40
12.0
 40
13.0
 40
13.0
 40
13.0
 40
13.0
 10
92.66411130495898
 20
-143.0372639616365
 30
0.0
 10
92.43122285015609
 20
-143.1960828635065
 30
0.0
 10
92.33165959063237
 20
-143.2701524164394
 30
0.0
 10
92.27998315835362
 20
-143.4138128981743
 30
0.0
 10
92.27998315835362
 20
-143.4138128981743
 30
0.0
 10
93.11162920849293
 20
-143.4138128981743
 30
0.0
 10
93.11162920849293
 20
-143.4138128981743
 30
0.0
 10
93.11162920849293
 20
-143.4138128981743
 30
0.0
 10
93.11162920849293
 20
-143.6191405890952
 30
0.0
 10
93.11162920849293
 20
-143.6191405890952
 30
0.0
 10
93.11162920849293
 20
-143.6191405890952
 30
0.0
 10
92.01298825824675
 20
-143.6191405890952
 30
0.0
 10
92.01298825824675
 20
-143.6191405890952
 30
0.0
 10
92.04709470355073
 20
-143.2615396777263
 30
0.0
 10
92.1170301419013
 20
-143.1833360102111
 30
0.0
 10
92.52837454284013
 20
-142.8849907411885
 30
0.0
 10
92.80191512436897
 20
-142.6862087316896
 30
0.0
 10
92.87219507226807
 20
-142.6183403506301
 30
0.0
 10
92.87219507226807
 20
-142.4808810407687
 30
0.0
 10
92.87219507226807
 20
-142.3623697560761
 30
0.0
 10
92.79536944294699
 20
-142.2314561276366
 30
0.0
 10
92.58487410879823
 20
-142.2314561276366
 30
0.0
 10
92.30685490313857
 20
-142.2314561276366
 30
0.0
 10
92.29789765487692
 20
-142.4619330155998
 30
0.0
 10
92.2934190307461
 20
-142.5783772430013
 30
0.0
 10
92.2934190307461
 20
-142.5783772430013
 30
0.0
 10
92.05364038497271
 20
-142.5783772430013
 30
0.0
 10
92.05364038497271
 20
-142.5783772430013
 30
0.0
 10
92.06294214278287
 20
-142.4512532195955
 30
0.0
 10
92.07396644833568
 20
-142.3392876163249
 30
0.0
 10
92.16009383546692
 20
-142.2207763316323
 30
0.0
 10
92.27757159151395
 20
-142.0598903724712
 30
0.0
 10
92.47635360101286
 20
-142.0261284367157
 30
0.0
 10
92.60072154803038
 20
-142.0261284367157
 30
0.0
 10
92.89699975976187
 20
-142.0261284367157
 30
0.0
 10
93.11851939946342
 20
-142.210096535628
 30
0.0
 10
93.11851939946342
 20
-142.4829480980598
 30
0.0
 10
93.11851939946342
 20
-142.7117024382804
 30
0.0
 10
92.9941514524459
 20
-142.8109211882556
 30
0.0
 10
92.66411130495898
 20
-143.0372639616365
 30
0.0
  0
HATCH
  5
D5
330
CE
100
AcDbEntity
  8
_U+30EC_U+30A4_U+30E4_U+30FC 1
 62
     7
420
 16777215
100
AcDbHatch
 10
0.0
 20
0.0
 30
0.0
210
0.0
220
0.0
230
1.0
  2
SOLID
 70
     1
 71
     0
 91
        1
 92
        1
 93
        1
 72
     4
 94
        3
 73
     0
 74
     1
 95
       44
 96
       40
 40
0.0
 40
0.0
 40
0.0
 40
0.0
 40
1.0
 40
1.0
 40
1.0
 40
2.0
 40
2.0
 40
2.0
 40
3.0
 40
3.0
 40
3.0
 40
4.0
 40
4.0
 40
4.0
 40
5.0
 40
5.0
 40
5.0
 40
6.0
 40
6.0
 40
6.0
 40
7.0
 40
7.0
 40
7.0
 40
8.0
 40
8.0
 40
8.0
 40
9.0
 40
9.0
 40
9.0
 40
10.0
 40
10.0
 40
10.0
 40
11.0
 40
11.0
 40
11.0
 40
12.0
 40
12.0
 40
12.0
 40
13.0
 40
13.0
 40
13.0
 40
13.0
 10
92.66411130495898
 20
-143.0372639616365
 10
92.43122285015609
 20
-143.1960828635065
 10
92.33165959063237
 20
-143.2701524164394
 10
92.27998315835362
 20
-143.4138128981743
 10
92.27998315835362
 20
-143.4138128981743
 10
93.11162920849293
 20
-143.4138128981743
 10
93.11162920849293
 20
-143.4138128981743
 10
93.11162920849293
 20
-143.4138128981743
 10
93.11162920849293
 20
-143.6191405890952
 10
93.11162920849293
 20
-143.6191405890952
 10
93.11162920849293
 20
-143.6191405890952
 10
92.01298825824675
 20
-143.6191405890952
 10
92.01298825824675
 20
-143.6191405890952
 10
92.04709470355073
 20
-143.2615396777263
 10
92.1170301419013
 20
-143.1833360102111
 10
92.52837454284013
 20
-142.8849907411885
 10
92.80191512436897
 20
-142.6862087316896
 10
92.87219507226807
 20
-142.6183403506301
 10
92.87219507226807
 20
-142.4808810407687
 10
92.87219507226807
 20
-142.3623697560761
 10
92.79536944294699
 20
-142.2314561276366
 10
92.58487410879823
 20
-142.2314561276366
 10
92.30685490313857
 20
-142.2314561276366
 10
92.29789765487692
 20
-142.4619330155998
 10
92.2934190307461
 20
-142.5783772430013
 10
92.2934190307461
 20
-142.5783772430013
 10
92.05364038497271
 20
-142.5783772430013
 10
92.05364038497271
 20
-142.5783772430013
 10
92.06294214278287
 20
-142.4512532195955
 10
92.07396644833568
 20
-142.3392876163249
 10
92.16009383546692
 20
-142.2207763316323
 10
92.27757159151395
 20
-142.0598903724712
 10
92.47635360101286
 20
-142.0261284367157
 10
92.60072154803038
 20
-142.0261284367157
 10
92.89699975976187
 20
-142.0261284367157
 10
93.11851939946342
 20
-142.210096535628
 10
93.11851939946342
 20
-142.4829480980598
 10
93.11851939946342
 20
-142.7117024382804
 10
92.9941514524459
 20
-142.8109211882556
 10
92.66411130495898
 20
-143.0372639616365
 97
        0
 97
        0
 75
     2
 76
     1
 98
        0
  0
ENDBLK
  5
D1
330
CE
100
AcDbEntity
  8
0
100
AcDbBlockEnd
  0
BLOCK
  5
E4
330
E2
100
AcDbEntity
  8
0
100
AcDbBlockBegin
  2
block 7
 70
     0
 10
0.0
 20
0.0
 30
0.0
  3
block 7
  1

  0
SPLINE
  5
E6
330
E2
100
AcDbEntity
  8
_U+30EC_U+30A4_U+30E4_U+30FC 1
370
     0
100
AcDbSpline
210
0.0
220
0.0
230
1.0
 70
    11
 71
     3
 72
    26
 73
    22
 74
     0
 42
0.0000000001
 43
0.0000000001
 12
1.0
 22
0.0
 32
0.0
 13
1.0
 23
0.0
 33
0.0
 40
0.0
 40
0.0
 40
0.0
 40
0.0
 40
1.0
 40
1.0
 40
1.0
 40
2.0
 40
2.0
 40
2.0
 40
3.0
 40
3.0
 40
3.0
 40
4.0
 40
4.0
 40
4.0
 40
5.0
 40
5.0
 40
5.0
 40
6.0
 40
6.0
 40
6.0
 40
7.0
 40
7.0
 40
7.0
 40
7.0
 10
106.3394178336582
 20
-133.0692246846147
 30
0.0
 10
106.3394178336582
 20
-133.0692246846147
 30
0.0
 10
105.2352647306356
 20
-133.0692246846147
 30
0.0
 10
105.2352647306356
 20
-133.0692246846147
 30
0.0
 10
105.2352647306356
 20
-133.0692246846147
 30
0.0
 10
105.2352647306356
 20
-133.4216579527557
 30
0.0
 10
105.2352647306356
 20
-133.4216579527557
 30
0.0
 10
105.2352647306356
 20
-133.4216579527557
 30
0.0
 10
105.0871256247699
 20
-133.4216579527557
 30
0.0
 10
105.0871256247699
 20
-133.4216579527557
 30
0.0
 10
105.0723117141833
 20
-133.066813117775
 30
0.0
 10
104.909358697731
 20
-133.0172037427874
 30
0.0
 10
104.7949815276207
 20
-132.9855088643231
 30
0.0
 10
104.7949815276207
 20
-132.9855088643231
 30
0.0
 10
104.7949815276207
 20
-132.8294460388413
 30
0.0
 10
104.7949815276207
 20
-132.8294460388413
 30
0.0
 10
104.7949815276207
 20
-132.8294460388413
 30
0.0
 10
106.3394178336582
 20
-132.8294460388413
 30
0.0
 10
106.3394178336582
 20
-132.8294460388413
 30
0.0
 10
106.3394178336582
 20
-132.8294460388413
 30
0.0
 10
106.3394178336582
 20
-133.0692246846147
 30
0.0
 10
106.3394178336582
 20
-133.0692246846147
 30
0.0
  0
HATCH
  5
E7
330
E2
100
AcDbEntity
  8
_U+30EC_U+30A4_U+30E4_U+30FC 1
 62
     7
420
 16777215
100
AcDbHatch
 10
0.0
 20
0.0
 30
0.0
210
0.0
220
0.0
230
1.0
  2
SOLID
 70
     1
 71
     0
 91
        1
 92
        1
 93
        1
 72
     4
 94
        3
 73
     0
 74
     1
 95
       26
 96
       22
 40
0.0
 40
0.0
 40
0.0
 40
0.0
 40
1.0
 40
1.0
 40
1.0
 40
2.0
 40
2.0
 40
2.0
 40
3.0
 40
3.0
 40
3.0
 40
4.0
 40
4.0
 40
4.0
 40
5.0
 40
5.0
 40
5.0
 40
6.0
 40
6.0
 40
6.0
 40
7.0
 40
7.0
 40
7.0
 40
7.0
 10
106.3394178336582
 20
-133.0692246846147
 10
106.3394178336582
 20
-133.0692246846147
 10
105.2352647306356
 20
-133.0692246846147
 10
105.2352647306356
 20
-133.0692246846147
 10
105.2352647306356
 20
-133.0692246846147
 10
105.2352647306356
 20
-133.4216579527557
 10
105.2352647306356
 20
-133.4216579527557
 10
105.2352647306356
 20
-133.4216579527557
 10
105.0871256247699
 20
-133.4216579527557
 10
105.0871256247699
 20
-133.4216579527557
 10
105.0723117141833
 20
-133.066813117775
 10
104.909358697731
 20
-133.0172037427874
 10
104.7949815276207
 20
-132.9855088643231
 10
104.7949815276207
 20
-132.9855088643231
 10
104.7949815276207
 20
-132.8294460388413
 10
104.7949815276207
 20
-132.8294460388413
 10
104.7949815276207
 20
-132.8294460388413
 10
106.3394178336582
 20
-132.8294460388413
 10
106.3394178336582
 20
-132.8294460388413
 10
106.3394178336582
 20
-132.8294460388413
 10
106.3394178336582
 20
-133.0692246846147
 10
106.3394178336582
 20
-133.0692246846147
 97
        0
 97
        0
 75
     2
 76
     1
 98
        0
  0
SPLINE
  5
E8
330
E2
100
AcDbEntity
  8
_U+30EC_U+30A4_U+30E4_U+30FC 1
370
     0
100
AcDbSpline
210
0.0
220
0.0
230
1.0
 70
    11
 71
     3
 72
    53
 73
    49
 74
     0
 42
0.0000000001
 43
0.0000000001
 12
1.0
 22
0.0
 32
0.0
 13
1.0
 23
0.0
 33
0.0
 40
0.0
 40
0.0
 40
0.0
 40
0.0
 40
1.0
 40
1.0
 40
1.0
 40
2.0
 40
2.0
 40
2.0
 40
3.0
 40
3.0
 40
3.0
 40
4.0
 40
4.0
 40
4.0
 40
5.0
 40
5.0
 40
5.0
 40
6.0
 40
6.0
 40
6.0
 40
7.0
 40
7.0
 40
7.0
 40
8.0
 40
8.0
 40
8.0
 40
9.0
 40
9.0
 40
9.0
 40
10.0
 40
10.0
 40
10.0
 40
11.0
 40
11.0
 40
11.0
 40
12.0
 40
12.0
 40
12.0
 40
13.0
 40
13.0
 40
13.0
 40
14.0
 40
14.0
 40
14.0
 40
15.0
 40
15.0
 40
15.0
 40
16.0
 40
16.0
 40
16.0
 40
16.0
 10
106.3900607372914
 20
-131.7797254444856
 30
0.0
 10
106.3900607372914
 20
-131.8630967552287
 30
0.0
 10
106.3731797694137
 20
-131.9719617725626
 30
0.0
 10
106.3097900124851
 20
-132.0801377707994
 30
0.0
 10
106.1998914665056
 20
-132.2658284174544
 30
0.0
 10
106.0686333285176
 20
-132.2882215381085
 30
0.0
 10
105.9608018398292
 20
-132.3085476014715
 30
0.0
 10
105.9608018398292
 20
-132.3085476014715
 30
0.0
 10
105.9608018398292
 20
-132.0711805225378
 30
0.0
 10
105.9608018398292
 20
-132.0711805225378
 30
0.0
 10
106.1595838493282
 20
-132.0126138992885
 30
0.0
 10
106.1892116705013
 20
-131.8768771371697
 30
0.0
 10
106.1892116705013
 20
-131.777313877646
 30
0.0
 10
106.1892116705013
 20
-131.6281412431346
 30
0.0
 10
106.0896484109776
 20
-131.4655327362308
 30
0.0
 10
105.8571044657232
 20
-131.4655327362308
 30
0.0
 10
105.6011338711692
 20
-131.4655327362308
 30
0.0
 10
105.5311984328186
 20
-131.6574245547593
 30
0.0
 10
105.5311984328186
 20
-131.7862711259076
 30
0.0
 10
105.5311984328186
 20
-131.8203775712116
 30
0.0
 10
105.5311984328186
 20
-131.9719617725626
 30
0.0
 10
105.6603895135155
 20
-132.0667018984069
 30
0.0
 10
105.6603895135155
 20
-132.0667018984069
 30
0.0
 10
105.6414414883466
 20
-132.2544596023531
 30
0.0
 10
105.6414414883466
 20
-132.2544596023531
 30
0.0
 10
105.6414414883466
 20
-132.2544596023531
 30
0.0
 10
104.7949815276207
 20
-132.1256130312047
 30
0.0
 10
104.7949815276207
 20
-132.1256130312047
 30
0.0
 10
104.7949815276207
 20
-132.1256130312047
 30
0.0
 10
104.7949815276207
 20
-131.2936224715169
 30
0.0
 10
104.7949815276207
 20
-131.2936224715169
 30
0.0
 10
104.7949815276207
 20
-131.2936224715169
 30
0.0
 10
104.9896294225373
 20
-131.2936224715169
 30
0.0
 10
104.9896294225373
 20
-131.2936224715169
 30
0.0
 10
104.9896294225373
 20
-131.2936224715169
 30
0.0
 10
104.9896294225373
 20
-131.9512911996511
 30
0.0
 10
104.9896294225373
 20
-131.9512911996511
 30
0.0
 10
104.9896294225373
 20
-131.9512911996511
 30
0.0
 10
105.412687148126
 20
-132.0215711475502
 30
0.0
 10
105.412687148126
 20
-132.0215711475502
 30
0.0
 10
105.3789252123705
 20
-131.9561143333304
 30
0.0
 10
105.3386175951931
 20
-131.867919888908
 30
0.0
 10
105.3386175951931
 20
-131.7411403750508
 30
0.0
 10
105.3386175951931
 20
-131.4700113603617
 30
0.0
 10
105.5249972609451
 20
-131.2167968421958
 30
0.0
 10
105.8381564405544
 20
-131.2167968421958
 30
0.0
 10
106.1554497347459
 20
-131.2167968421958
 30
0.0
 10
106.3900607372914
 20
-131.4562309784207
 30
0.0
 10
106.3900607372914
 20
-131.7797254444856
 30
0.0
  0
HATCH
  5
E9
330
E2
100
AcDbEntity
  8
_U+30EC_U+30A4_U+30E4_U+30FC 1
 62
     7
420
 16777215
100
AcDbHatch
 10
0.0
 20
0.0
 30
0.0
210
0.0
220
0.0
230
1.0
  2
SOLID
 70
     1
 71
     0
 91
        1
 92
        1
 93
        1
 72
     4
 94
        3
 73
     0
 74
     1
 95
       53
 96
       49
 40
0.0
 40
0.0
 40
0.0
 40
0.0
 40
1.0
 40
1.0
 40
1.0
 40
2.0
 40
2.0
 40
2.0
 40
3.0
 40
3.0
 40
3.0
 40
4.0
 40
4.0
 40
4.0
 40
5.0
 40
5.0
 40
5.0
 40
6.0
 40
6.0
 40
6.0
 40
7.0
 40
7.0
 40
7.0
 40
8.0
 40
8.0
 40
8.0
 40
9.0
 40
9.0
 40
9.0
 40
10.0
 40
10.0
 40
10.0
 40
11.0
 40
11.0
 40
11.0
 40
12.0
 40
12.0
 40
12.0
 40
13.0
 40
13.0
 40
13.0
 40
14.0
 40
14.0
 40
14.0
 40
15.0
 40
15.0
 40
15.0
 40
16.0
 40
16.0
 40
16.0
 40
16.0
 10
106.3900607372914
 20
-131.7797254444856
 10
106.3900607372914
 20
-131.8630967552287
 10
106.3731797694137
 20
-131.9719617725626
 10
106.3097900124851
 20
-132.0801377707994
 10
106.1998914665056
 20
-132.2658284174544
 10
106.0686333285176
 20
-132.2882215381085
 10
105.9608018398292
 20
-132.3085476014715
 10
105.9608018398292
 20
-132.3085476014715
 10
105.9608018398292
 20
-132.0711805225378
 10
105.9608018398292
 20
-132.0711805225378
 10
106.1595838493282
 20
-132.0126138992885
 10
106.1892116705013
 20
-131.8768771371697
 10
106.1892116705013
 20
-131.777313877646
 10
106.1892116705013
 20
-131.6281412431346
 10
106.0896484109776
 20
-131.4655327362308
 10
105.8571044657232
 20
-131.4655327362308
 10
105.6011338711692
 20
-131.4655327362308
 10
105.5311984328186
 20
-131.6574245547593
 10
105.5311984328186
 20
-131.7862711259076
 10
105.5311984328186
 20
-131.8203775712116
 10
105.5311984328186
 20
-131.9719617725626
 10
105.6603895135155
 20
-132.0667018984069
 10
105.6603895135155
 20
-132.0667018984069
 10
105.6414414883466
 20
-132.2544596023531
 10
105.6414414883466
 20
-132.2544596023531
 10
105.6414414883466
 20
-132.2544596023531
 10
104.7949815276207
 20
-132.1256130312047
 10
104.7949815276207
 20
-132.1256130312047
 10
104.7949815276207
 20
-132.1256130312047
 10
104.7949815276207
 20
-131.2936224715169
 10
104.7949815276207
 20
-131.2936224715169
 10
104.7949815276207
 20
-131.2936224715169
 10
104.9896294225373
 20
-131.2936224715169
 10
104.9896294225373
 20
-131.2936224715169
 10
104.9896294225373
 20
-131.2936224715169
 10
104.9896294225373
 20
-131.9512911996511
 10
104.9896294225373
 20
-131.9512911996511
 10
104.9896294225373
 20
-131.9512911996511
 10
105.412687148126
 20
-132.0215711475502
 10
105.412687148126
 20
-132.0215711475502
 10
105.3789252123705
 20
-131.9561143333304
 10
105.3386175951931
 20
-131.867919888908
 10
105.3386175951931
 20
-131.7411403750508
 10
105.3386175951931
 20
-131.4700113603617
 10
105.5249972609451
 20
-131.2167968421958
 10
105.8381564405544
 20
-131.2167968421958
 10
106.1554497347459
 20
-131.2167968421958
 10
106.3900607372914
 20
-131.4562309784207
 10
106.3900607372914
 20
-131.7797254444856
 97
        0
 97
        0
 75
     2
 76
     1
 98
        0
  0
POLYLINE
  5
EA
330
E2
100
AcDbEntity
  8
_U+30EC_U+30A4_U+30E4_U+30FC 1
370
     0
100
AcDb2dPolyline
 66
     1
 10
0.0
 20
0.0
 30
0.0
  0
VERTEX
  5
EB
330
EA
100
AcDbEntity
  8
_U+30EC_U+30A4_U+30E4_U+30FC 1
370
     0
100
AcDbVertex
100
AcDb2dVertex
 10
106.3394178336582
 20
-130.9718505531945
 30
0.0
  0
VERTEX
  5
EC
330
EA
100
AcDbEntity
  8
_U+30EC_U+30A4_U+30E4_U+30FC 1
370
     0
100
AcDbVertex
100
AcDb2dVertex
 10
106.0875813536864
 20
-130.9718505531945
 30
0.0
  0
VERTEX
  5
ED
330
EA
100
AcDbEntity
  8
_U+30EC_U+30A4_U+30E4_U+30FC 1
370
     0
100
AcDbVertex
100
AcDb2dVertex
 10
106.0875813536864
 20
-130.7027885957965
 30
0.0
  0
VERTEX
  5
EE
330
EA
100
AcDbEntity
  8
_U+30EC_U+30A4_U+30E4_U+30FC 1
370
     0
100
AcDbVertex
100
AcDb2dVertex
 10
106.3394178336582
 20
-130.7027885957965
 30
0.0
  0
VERTEX
  5
EF
330
EA
100
AcDbEntity
  8
_U+30EC_U+30A4_U+30E4_U+30FC 1
370
     0
100
AcDbVertex
100
AcDb2dVertex
 10
106.3394178336582
 20
-130.9718505531945
 30
0.0
  0
SEQEND
  5
F0
330
EA
100
AcDbEntity
  8
_U+30EC_U+30A4_U+30E4_U+30FC 1
370
     0
  0
HATCH
  5
F1
330
E2
100
AcDbEntity
  8
_U+30EC_U+30A4_U+30E4_U+30FC 1
 62
     7
420
 16777215
100
AcDbHatch
 10
0.0
 20
0.0
 30
0.0
210
0.0
220
0.0
230
1.0
  2
SOLID
 70
     1
 71
     0
 91
        1
 92
        1
 93
        4
 72
     1
 10
106.3394178336582
 20
-130.9718505531945
 11
106.0875813536864
 21
-130.9718505531945
 72
     1
 10
106.0875813536864
 20
-130.9718505531945
 11
106.0875813536864
 21
-130.7027885957965
 72
     1
 10
106.0875813536864
 20
-130.7027885957965
 11
106.3394178336582
 21
-130.7027885957965
 72
     1
 10
106.3394178336582
 20
-130.7027885957965
 11
106.3394178336582
 21
-130.9718505531945
 97
        0
 75
     2
 76
     1
 98
        0
  0
SPLINE
  5
F2
330
E2
100
AcDbEntity
  8
_U+30EC_U+30A4_U+30E4_U+30FC 1
370
     0
100
AcDbSpline
210
0.0
220
0.0
230
1.0
 70
    11
 71
     3
 72
    53
 73
    49
 74
     0
 42
0.0000000001
 43
0.0000000001
 12
1.0
 22
0.0
 32
0.0
 13
1.0
 23
0.0
 33
0.0
 40
0.0
 40
0.0
 40
0.0
 40
0.0
 40
1.0
 40
1.0
 40
1.0
 40
2.0
 40
2.0
 40
2.0
 40
3.0
 40
3.0
 40
3.0
 40
4.0
 40
4.0
 40
4.0
 40
5.0
 40
5.0
 40
5.0
 40
6.0
 40
6.0
 40
6.0
 40
7.0
 40
7.0
 40
7.0
 40
8.0
 40
8.0
 40
8.0
 40
9.0
 40
9.0
 40
9.0
 40
10.0
 40
10.0
 40
10.0
 40
11.0
 40
11.0
 40
11.0
 40
12.0
 40
12.0
 40
12.0
 40
13.0
 40
13.0
 40
13.0
 40
14.0
 40
14.0
 40
14.0
 40
15.0
 40
15.0
 40
15.0
 40
16.0
 40
16.0
 40
16.0
 40
16.0
 10
106.3900607372914
 20
-129.9359103407799
 30
0.0
 10
106.3900607372914
 20
-130.019281651523
 30
0.0
 10
106.3731797694137
 20
-130.1281466688569
 30
0.0
 10
106.3097900124851
 20
-130.2363226670937
 30
0.0
 10
106.1998914665056
 20
-130.4220133137487
 30
0.0
 10
106.0686333285176
 20
-130.4444064344028
 30
0.0
 10
105.9608018398292
 20
-130.4647324977658
 30
0.0
 10
105.9608018398292
 20
-130.4647324977658
 30
0.0
 10
105.9608018398292
 20
-130.2273654188321
 30
0.0
 10
105.9608018398292
 20
-130.2273654188321
 30
0.0
 10
106.1595838493282
 20
-130.1687987955828
 30
0.0
 10
106.1892116705013
 20
-130.0330620334639
 30
0.0
 10
106.1892116705013
 20
-129.9334987739402
 30
0.0
 10
106.1892116705013
 20
-129.7843261394289
 30
0.0
 10
106.0896484109776
 20
-129.6217176325251
 30
0.0
 10
105.8571044657232
 20
-129.6217176325251
 30
0.0
 10
105.6011338711692
 20
-129.6217176325251
 30
0.0
 10
105.5311984328186
 20
-129.8136094510535
 30
0.0
 10
105.5311984328186
 20
-129.9424560222019
 30
0.0
 10
105.5311984328186
 20
-129.9765624675059
 30
0.0
 10
105.5311984328186
 20
-130.1281466688569
 30
0.0
 10
105.6603895135155
 20
-130.2228867947012
 30
0.0
 10
105.6603895135155
 20
-130.2228867947012
 30
0.0
 10
105.6414414883466
 20
-130.4106444986473
 30
0.0
 10
105.6414414883466
 20
-130.4106444986473
 30
0.0
 10
105.6414414883466
 20
-130.4106444986473
 30
0.0
 10
104.7949815276207
 20
-130.281797927499
 30
0.0
 10
104.7949815276207
 20
-130.281797927499
 30
0.0
 10
104.7949815276207
 20
-130.281797927499
 30
0.0
 10
104.7949815276207
 20
-129.4498073678112
 30
0.0
 10
104.7949815276207
 20
-129.4498073678112
 30
0.0
 10
104.7949815276207
 20
-129.4498073678112
 30
0.0
 10
104.9896294225373
 20
-129.4498073678112
 30
0.0
 10
104.9896294225373
 20
-129.4498073678112
 30
0.0
 10
104.9896294225373
 20
-129.4498073678112
 30
0.0
 10
104.9896294225373
 20
-130.1074760959454
 30
0.0
 10
104.9896294225373
 20
-130.1074760959454
 30
0.0
 10
104.9896294225373
 20
-130.1074760959454
 30
0.0
 10
105.412687148126
 20
-130.1777560438445
 30
0.0
 10
105.412687148126
 20
-130.1777560438445
 30
0.0
 10
105.3789252123705
 20
-130.1122992296247
 30
0.0
 10
105.3386175951931
 20
-130.0241047852023
 30
0.0
 10
105.3386175951931
 20
-129.8973252713451
 30
0.0
 10
105.3386175951931
 20
-129.626196256656
 30
0.0
 10
105.5249972609451
 20
-129.3729817384901
 30
0.0
 10
105.8381564405544
 20
-129.3729817384901
 30
0.0
 10
106.1554497347459
 20
-129.3729817384901
 30
0.0
 10
106.3900607372914
 20
-129.612415874715
 30
0.0
 10
106.3900607372914
 20
-129.9359103407799
 30
0.0
  0
HATCH
  5
F3
330
E2
100
AcDbEntity
  8
_U+30EC_U+30A4_U+30E4_U+30FC 1
 62
     7
420
 16777215
100
AcDbHatch
 10
0.0
 20
0.0
 30
0.0
210
0.0
220
0.0
230
1.0
  2
SOLID
 70
     1
 71
     0
 91
        1
 92
        1
 93
        1
 72
     4
 94
        3
 73
     0
 74
     1
 95
       53
 96
       49
 40
0.0
 40
0.0
 40
0.0
 40
0.0
 40
1.0
 40
1.0
 40
1.0
 40
2.0
 40
2.0
 40
2.0
 40
3.0
 40
3.0
 40
3.0
 40
4.0
 40
4.0
 40
4.0
 40
5.0
 40
5.0
 40
5.0
 40
6.0
 40
6.0
 40
6.0
 40
7.0
 40
7.0
 40
7.0
 40
8.0
 40
8.0
 40
8.0
 40
9.0
 40
9.0
 40
9.0
 40
10.0
 40
10.0
 40
10.0
 40
11.0
 40
11.0
 40
11.0
 40
12.0
 40
12.0
 40
12.0
 40
13.0
 40
13.0
 40
13.0
 40
14.0
 40
14.0
 40
14.0
 40
15.0
 40
15.0
 40
15.0
 40
16.0
 40
16.0
 40
16.0
 40
16.0
 10
106.3900607372914
 20
-129.9359103407799
 10
106.3900607372914
 20
-130.019281651523
 10
106.3731797694137
 20
-130.1281466688569
 10
106.3097900124851
 20
-130.2363226670937
 10
106.1998914665056
 20
-130.4220133137487
 10
106.0686333285176
 20
-130.4444064344028
 10
105.9608018398292
 20
-130.4647324977658
 10
105.9608018398292
 20
-130.4647324977658
 10
105.9608018398292
 20
-130.2273654188321
 10
105.9608018398292
 20
-130.2273654188321
 10
106.1595838493282
 20
-130.1687987955828
 10
106.1892116705013
 20
-130.0330620334639
 10
106.1892116705013
 20
-129.9334987739402
 10
106.1892116705013
 20
-129.7843261394289
 10
106.0896484109776
 20
-129.6217176325251
 10
105.8571044657232
 20
-129.6217176325251
 10
105.6011338711692
 20
-129.6217176325251
 10
105.5311984328186
 20
-129.8136094510535
 10
105.5311984328186
 20
-129.9424560222019
 10
105.5311984328186
 20
-129.9765624675059
 10
105.5311984328186
 20
-130.1281466688569
 10
105.6603895135155
 20
-130.2228867947012
 10
105.6603895135155
 20
-130.2228867947012
 10
105.6414414883466
 20
-130.4106444986473
 10
105.6414414883466
 20
-130.4106444986473
 10
105.6414414883466
 20
-130.4106444986473
 10
104.7949815276207
 20
-130.281797927499
 10
104.7949815276207
 20
-130.281797927499
 10
104.7949815276207
 20
-130.281797927499
 10
104.7949815276207
 20
-129.4498073678112
 10
104.7949815276207
 20
-129.4498073678112
 10
104.7949815276207
 20
-129.4498073678112
 10
104.9896294225373
 20
-129.4498073678112
 10
104.9896294225373
 20
-129.4498073678112
 10
104.9896294225373
 20
-129.4498073678112
 10
104.9896294225373
 20
-130.1074760959454
 10
104.9896294225373
 20
-130.1074760959454
 10
104.9896294225373
 20
-130.1074760959454
 10
105.412687148126
 20
-130.1777560438445
 10
105.412687148126
 20
-130.1777560438445
 10
105.3789252123705
 20
-130.1122992296247
 10
105.3386175951931
 20
-130.0241047852023
 10
105.3386175951931
 20
-129.8973252713451
 10
105.3386175951931
 20
-129.626196256656
 10
105.5249972609451
 20
-129.3729817384901
 10
105.8381564405544
 20
-129.3729817384901
 10
106.1554497347459
 20
-129.3729817384901
 10
106.3900607372914
 20
-129.612415874715
 10
106.3900607372914
 20
-129.9359103407799
 97
        0
 97
        0
 75
     2
 76
     1
 98
        0
  0
ENDBLK
  5
E5
330
E2
100
AcDbEntity
  8
0
100
AcDbBlockEnd
  0
ENDSEC
  0
SECTION
  2
ENTITIES
  0
POLYLINE
  5
41
330
1F
100
AcDbEntity
  8
_U+30EC_U+30A4_U+30E4_U+30FC 1
 62
     7
420
 16777215
370
    25
100
AcDb2dPolyline
 66
     1
 10
0.0
 20
0.0
 30
0.0
  0
VERTEX
  5
42
330
41
100
AcDbEntity
  8
_U+30EC_U+30A4_U+30E4_U+30FC 1
 62
     7
420
 16777215
370
    25
100
AcDbVertex
100
AcDb2dVertex
 10
81.9360940207472
 20
-139.2156360763074
 30
0.0
  0
VERTEX
  5
43
330
41
100
AcDbEntity
  8
_U+30EC_U+30A4_U+30E4_U+30FC 1
 62
     7
420
 16777215
370
    25
100
AcDbVertex
100
AcDb2dVertex
 10
103.936447196238
 20
-139.2156360763074
 30
0.0
  0
SEQEND
  5
44
330
41
100
AcDbEntity
  8
_U+30EC_U+30A4_U+30E4_U+30FC 1
 62
     7
420
 16777215
370
    25
  0
POLYLINE
  5
45
330
1F
100
AcDbEntity
  8
_U+30EC_U+30A4_U+30E4_U+30FC 1
 62
     7
420
 16777215
370
    25
100
AcDb2dPolyline
 66
     1
 10
0.0
 20
0.0
 30
0.0
  0
VERTEX
  5
46
330
45
100
AcDbEntity
  8
_U+30EC_U+30A4_U+30E4_U+30FC 1
 62
     7
420
 16777215
370
    25
100
AcDbVertex
100
AcDb2dVertex
 10
81.9360940207472
 20
-123.7159563579598
 30
0.0
  0
VERTEX
  5
47
330
45
100
AcDbEntity
  8
_U+30EC_U+30A4_U+30E4_U+30FC 1
 62
     7
420
 16777215
370
    25
100
AcDbVertex
100
AcDb2dVertex
 10
103.4169440282806
 20
-123.7159563579598
 30
0.0
  0
SEQEND
  5
48
330
45
100
AcDbEntity
  8
_U+30EC_U+30A4_U+30E4_U+30FC 1
 62
     7
420
 16777215
370
    25
  0
POLYLINE
  5
49
330
1F
100
AcDbEntity
  8
_U+30EC_U+30A4_U+30E4_U+30FC 1
 62
     7
420
 16777215
370
    25
100
AcDb2dPolyline
 66
     1
 10
0.0
 20
0.0
 30
0.0
  0
VERTEX
  5
4A
330
49
100
AcDbEntity
  8
_U+30EC_U+30A4_U+30E4_U+30FC 1
 62
     7
420
 16777215
370
    25
100
AcDbVertex
100
AcDb2dVertex
 10
81.9360940207472
 20
-140.2160785760572
 30
0.0
  0
VERTEX
  5
4B
330
49
100
AcDbEntity
  8
_U+30EC_U+30A4_U+30E4_U+30FC 1
 62
     7
420
 16777215
370
    25
100
AcDbVertex
100
AcDb2dVertex
 10
102.936002096106
 20
-140.2160785760572
 30
0.0
  0
SEQEND
  5
4C
330
49
100
AcDbEntity
  8
_U+30EC_U+30A4_U+30E4_U+30FC 1
 62
     7
420
 16777215
370
    25
  0
POLYLINE
  5
4D
330
1F
100
AcDbEntity
  8
_U+30EC_U+30A4_U+30E4_U+30FC 1
 62
     7
420
 16777215
370
    25
100
AcDb2dPolyline
 66
     1
 10
0.0
 20
0.0
 30
0.0
  0
VERTEX
  5
4E
330
4D
100
AcDbEntity
  8
_U+30EC_U+30A4_U+30E4_U+30FC 1
 62
     7
420
 16777215
370
    25
100
AcDbVertex
100
AcDb2dVertex
 10
80.9363218240313
 20
-119.2161346924181
 30
0.0
  0
VERTEX
  5
4F
330
4D
100
AcDbEntity
  8
_U+30EC_U+30A4_U+30E4_U+30FC 1
 62
     7
420
 16777215
370
    25
100
AcDbVertex
100
AcDb2dVertex
 10
80.9363218240313
 20
-139.2156360763074
 30
0.0
  0
SEQEND
  5
50
330
4D
100
AcDbEntity
  8
_U+30EC_U+30A4_U+30E4_U+30FC 1
 62
     7
420
 16777215
370
    25
  0
POLYLINE
  5
51
330
1F
100
AcDbEntity
  8
_U+30EC_U+30A4_U+30E4_U+30FC 1
 62
     7
420
 16777215
370
    25
100
AcDb2dPolyline
 66
     1
 10
0.0
 20
0.0
 30
0.0
  0
VERTEX
  5
52
330
51
100
AcDbEntity
  8
_U+30EC_U+30A4_U+30E4_U+30FC 1
 62
     7
420
 16777215
370
    25
100
AcDbVertex
100
AcDb2dVertex
 10
81.9360940207472
 20
-118.2160449704459
 30
0.0
  0
VERTEX
  5
53
330
51
100
AcDbEntity
  8
_U+30EC_U+30A4_U+30E4_U+30FC 1
 62
     7
420
 16777215
370
    25
100
AcDbVertex
100
AcDb2dVertex
 10
81.9360940207472
 20
-122.7158666359876
 30
0.0
  0
SEQEND
  5
54
330
51
100
AcDbEntity
  8
_U+30EC_U+30A4_U+30E4_U+30FC 1
 62
     7
420
 16777215
370
    25
  0
POLYLINE
  5
55
330
1F
100
AcDbEntity
  8
_U+30EC_U+30A4_U+30E4_U+30FC 1
 62
     7
420
 16777215
370
    25
100
AcDb2dPolyline
 66
     1
 10
0.0
 20
0.0
 30
0.0
  0
VERTEX
  5
56
330
55
100
AcDbEntity
  8
_U+30EC_U+30A4_U+30E4_U+30FC 1
 62
     7
420
 16777215
370
    25
100
AcDbVertex
100
AcDb2dVertex
 10
81.9360940207472
 20
-122.7158666359876
 30
0.0
  0
VERTEX
  5
57
330
55
100
AcDbEntity
  8
_U+30EC_U+30A4_U+30E4_U+30FC 1
 62
     7
420
 16777215
370
    25
100
AcDbVertex
100
AcDb2dVertex
 10
108.9359758319228
 20
-122.7158666359876
 30
0.0
  0
SEQEND
  5
58
330
55
100
AcDbEntity
  8
_U+30EC_U+30A4_U+30E4_U+30FC 1
 62
     7
420
 16777215
370
    25
  0
POLYLINE
  5
59
330
1F
100
AcDbEntity
  8
_U+30EC_U+30A4_U+30E4_U+30FC 1
 62
     7
420
 16777215
370
    25
100
AcDb2dPolyline
 66
     1
 10
0.0
 20
0.0
 30
0.0
  0
VERTEX
  5
5A
330
59
100
AcDbEntity
  8
_U+30EC_U+30A4_U+30E4_U+30FC 1
 62
     7
420
 16777215
370
    25
100
AcDbVertex
100
AcDb2dVertex
 10
81.9360940207472
 20
-123.7159563579598
 30
0.0
  0
VERTEX
  5
5B
330
59
100
AcDbEntity
  8
_U+30EC_U+30A4_U+30E4_U+30FC 1
 62
     7
420
 16777215
370
    25
100
AcDbVertex
100
AcDb2dVertex
 10
81.9360940207472
 20
-139.2156360763074
 30
0.0
  0
SEQEND
  5
5C
330
59
100
AcDbEntity
  8
_U+30EC_U+30A4_U+30E4_U+30FC 1
 62
     7
420
 16777215
370
    25
  0
POLYLINE
  5
5D
330
1F
100
AcDbEntity
  8
_U+30EC_U+30A4_U+30E4_U+30FC 1
 62
     7
420
 16777215
370
    25
100
AcDb2dPolyline
 66
     1
 10
0.0
 20
0.0
 30
0.0
  0
VERTEX
  5
5E
330
5D
100
AcDbEntity
  8
_U+30EC_U+30A4_U+30E4_U+30FC 1
 62
     7
420
 16777215
370
    25
100
AcDbVertex
100
AcDb2dVertex
 10
103.936447196238
 20
-123.4158835802571
 30
0.0
  0
VERTEX
  5
5F
330
5D
100
AcDbEntity
  8
_U+30EC_U+30A4_U+30E4_U+30FC 1
 62
     7
420
 16777215
370
    25
100
AcDbVertex
100
AcDb2dVertex
 10
108.2359236275604
 20
-123.4158835802571
 30
0.0
  0
SEQEND
  5
60
330
5D
100
AcDbEntity
  8
_U+30EC_U+30A4_U+30E4_U+30FC 1
 62
     7
420
 16777215
370
    25
  0
POLYLINE
  5
61
330
1F
100
AcDbEntity
  8
_U+30EC_U+30A4_U+30E4_U+30FC 1
 62
     7
420
 16777215
370
    25
100
AcDb2dPolyline
 66
     1
 10
0.0
 20
0.0
 30
0.0
  0
VERTEX
  5
62
330
61
100
AcDbEntity
  8
_U+30EC_U+30A4_U+30E4_U+30FC 1
 62
     7
420
 16777215
370
    25
100
AcDbVertex
100
AcDb2dVertex
 10
103.4169440282806
 20
-123.7159563579598
 30
0.0
  0
VERTEX
  5
63
330
61
100
AcDbEntity
  8
_U+30EC_U+30A4_U+30E4_U+30FC 1
 62
     7
420
 16777215
370
    25
100
AcDbVertex
100
AcDb2dVertex
 10
103.936447196238
 20
-123.4158835802571
 30
0.0
  0
SEQEND
  5
64
330
61
100
AcDbEntity
  8
_U+30EC_U+30A4_U+30E4_U+30FC 1
 62
     7
420
 16777215
370
    25
  0
POLYLINE
  5
65
330
1F
100
AcDbEntity
  8
_U+30EC_U+30A4_U+30E4_U+30FC 1
 62
     7
420
 16777215
370
     9
100
AcDb2dPolyline
 66
     1
 10
0.0
 20
0.0
 30
0.0
  0
VERTEX
  5
66
330
65
100
AcDbEntity
  8
_U+30EC_U+30A4_U+30E4_U+30FC 1
 62
     7
420
 16777215
370
     9
100
AcDbVertex
100
AcDb2dVertex
 10
81.22916264989364
 20
-139.9232377427968
 30
0.0
  0
VERTEX
  5
67
330
65
100
AcDbEntity
  8
_U+30EC_U+30A4_U+30E4_U+30FC 1
 62
     7
420
 16777215
370
     9
100
AcDbVertex
100
AcDb2dVertex
 10
76.93656275940698
 20
-144.2158377417241
 30
0.0
  0
SEQEND
  5
68
330
65
100
AcDbEntity
  8
_U+30EC_U+30A4_U+30E4_U+30FC 1
 62
     7
420
 16777215
370
     9
  0
POLYLINE
  5
69
330
1F
100
AcDbEntity
  8
_U+30EC_U+30A4_U+30E4_U+30FC 1
 62
     7
420
 16777215
370
     9
100
AcDb2dPolyline
 66
     1
 10
0.0
 20
0.0
 30
0.0
  0
VERTEX
  5
6A
330
69
100
AcDbEntity
  8
_U+30EC_U+30A4_U+30E4_U+30FC 1
 62
     7
420
 16777215
370
     9
100
AcDbVertex
100
AcDb2dVertex
 10
72.72390231132535
 20
-144.2158377417241
 30
0.0
  0
VERTEX
  5
6B
330
69
100
AcDbEntity
  8
_U+30EC_U+30A4_U+30E4_U+30FC 1
 62
     7
420
 16777215
370
     9
100
AcDbVertex
100
AcDb2dVertex
 10
76.93656275940698
 20
-144.2158377417241
 30
0.0
  0
SEQEND
  5
6C
330
69
100
AcDbEntity
  8
_U+30EC_U+30A4_U+30E4_U+30FC 1
 62
     7
420
 16777215
370
     9
  0
POLYLINE
  5
6D
330
1F
100
AcDbEntity
  8
_U+30EC_U+30A4_U+30E4_U+30FC 1
 62
     7
420
 16777215
370
     9
100
AcDb2dPolyline
 66
     1
 10
0.0
 20
0.0
 30
0.0
  0
VERTEX
  5
6E
330
6D
100
AcDbEntity
  8
_U+30EC_U+30A4_U+30E4_U+30FC 1
 62
     7
420
 16777215
370
     9
100
AcDbVertex
100
AcDb2dVertex
 10
81.22916264989364
 20
-139.9232377427968
 30
0.0
  0
VERTEX
  5
6F
330
6D
100
AcDbEntity
  8
_U+30EC_U+30A4_U+30E4_U+30FC 1
 62
     7
420
 16777215
370
     9
100
AcDbVertex
100
AcDb2dVertex
 10
79.9303407385849
 20
-140.6728905203871
 30
0.0
  0
SEQEND
  5
70
330
6D
100
AcDbEntity
  8
_U+30EC_U+30A4_U+30E4_U+30FC 1
 62
     7
420
 16777215
370
     9
  0
POLYLINE
  5
71
330
1F
100
AcDbEntity
  8
_U+30EC_U+30A4_U+30E4_U+30FC 1
 62
     7
420
 16777215
370
     9
100
AcDb2dPolyline
 66
     1
 10
0.0
 20
0.0
 30
0.0
  0
VERTEX
  5
72
330
71
100
AcDbEntity
  8
_U+30EC_U+30A4_U+30E4_U+30FC 1
 62
     7
420
 16777215
370
     9
100
AcDbVertex
100
AcDb2dVertex
 10
81.22916264989364
 20
-139.9232377427968
 30
0.0
  0
VERTEX
  5
73
330
71
100
AcDbEntity
  8
_U+30EC_U+30A4_U+30E4_U+30FC 1
 62
     7
420
 16777215
370
     9
100
AcDbVertex
100
AcDb2dVertex
 10
80.4795098912411
 20
-141.2220596869169
 30
0.0
  0
SEQEND
  5
74
330
71
100
AcDbEntity
  8
_U+30EC_U+30A4_U+30E4_U+30FC 1
 62
     7
420
 16777215
370
     9
  0
SPLINE
  5
75
330
1F
100
AcDbEntity
  8
_U+30EC_U+30A4_U+30E4_U+30FC 1
 62
     7
420
 16777215
370
    25
100
AcDbSpline
210
0.0
220
0.0
230
1.0
 70
     8
 71
     3
 72
     8
 73
     4
 74
     0
 42
0.0000000001
 43
0.0000000001
 12
1.0
 22
0.0
 32
0.0
 13
1.0
 23
0.0
 33
0.0
 40
0.0
 40
0.0
 40
0.0
 40
0.0
 40
1.0
 40
1.0
 40
1.0
 40
1.0
 10
80.9363218240313
 20
-139.2156360763074
 30
0.0
 10
80.9363218240313
 20
-139.7682271872802
 30
0.0
 10
81.38417320149455
 20
-140.2160785760572
 30
0.0
 10
81.9360940207472
 20
-140.2160785760572
 30
0.0
  0
SPLINE
  5
76
330
1F
100
AcDbEntity
  8
_U+30EC_U+30A4_U+30E4_U+30FC 1
 62
     7
420
 16777215
370
    25
100
AcDbSpline
210
0.0
220
0.0
230
1.0
 70
     8
 71
     3
 72
     8
 73
     4
 74
     0
 42
0.0000000001
 43
0.0000000001
 12
1.0
 22
0.0
 32
0.0
 13
1.0
 23
0.0
 33
0.0
 40
0.0
 40
0.0
 40
0.0
 40
0.0
 40
1.0
 40
1.0
 40
1.0
 40
1.0
 10
81.9360940207472
 20
-118.2160449704459
 30
0.0
 10
81.38417320149455
 20
-118.2160449704459
 30
0.0
 10
80.9363218240313
 20
-118.663896359223
 30
0.0
 10
80.9363218240313
 20
-119.2161346924181
 30
0.0
  0
SPLINE
  5
77
330
1F
100
AcDbEntity
  8
_U+30EC_U+30A4_U+30E4_U+30FC 1
 62
     7
420
 16777215
370
    25
100
AcDbSpline
210
0.0
220
0.0
230
1.0
 70
     8
 71
     3
 72
     8
 73
     4
 74
     0
 42
0.0000000001
 43
0.0000000001
 12
1.0
 22
0.0
 32
0.0
 13
1.0
 23
0.0
 33
0.0
 40
0.0
 40
0.0
 40
0.0
 40
0.0
 40
1.0
 40
1.0
 40
1.0
 40
1.0
 10
102.936002096106
 20
-140.2160785760572
 30
0.0
 10
103.4885931931194
 20
-140.2160785760572
 30
0.0
 10
103.936447196238
 20
-139.7682271872802
 30
0.0
 10
103.936447196238
 20
-139.2156360763074
 30
0.0
  0
SPLINE
  5
78
330
1F
100
AcDbEntity
  8
_U+30EC_U+30A4_U+30E4_U+30FC 1
 62
     7
420
 16777215
370
    25
100
AcDbSpline
210
0.0
220
0.0
230
1.0
 70
     8
 71
     3
 72
     8
 73
     4
 74
     0
 42
0.0000000001
 43
0.0000000001
 12
1.0
 22
0.0
 32
0.0
 13
1.0
 23
0.0
 33
0.0
 40
0.0
 40
0.0
 40
0.0
 40
0.0
 40
1.0
 40
1.0
 40
1.0
 40
1.0
 10
108.2359236275604
 20
-123.4158835802571
 30
0.0
 10
108.622497506587
 20
-123.4158835802571
 30
0.0
 10
108.9359758319228
 20
-123.1024052470021
 30
0.0
 10
108.9359758319228
 20
-122.7158666359876
 30
0.0
  0
SPLINE
  5
79
330
1F
100
AcDbEntity
  8
_U+30EC_U+30A4_U+30E4_U+30FC 1
 62
     7
420
 16777215
370
     9
100
AcDbSpline
210
0.0
220
0.0
230
1.0
 70
    11
 71
     3
 72
    17
 73
    13
 74
     0
 42
0.0000000001
 43
0.0000000001
 12
1.0
 22
0.0
 32
0.0
 13
1.0
 23
0.0
 33
0.0
 40
0.0
 40
0.0
 40
0.0
 40
0.0
 40
1.0
 40
1.0
 40
1.0
 40
2.0
 40
2.0
 40
2.0
 40
3.0
 40
3.0
 40
3.0
 40
4.0
 40
4.0
 40
4.0
 40
4.0
 10
109.0358824960407
 20
-115.0353652490189
 30
0.0
 10
109.0358824960407
 20
-114.9802260823662
 30
0.0
 10
108.9911149971828
 20
-114.9354585823773
 30
0.0
 10
108.9359758319228
 20
-114.9354585823773
 30
0.0
 10
108.8808719444398
 20
-114.9354585823773
 30
0.0
 10
108.836069167805
 20
-114.9802260823662
 30
0.0
 10
108.836069167805
 20
-115.0353652490189
 30
0.0
 10
108.836069167805
 20
-115.0904691378942
 30
0.0
 10
108.8808719444398
 20
-115.1352719156606
 30
0.0
 10
108.9359758319228
 20
-115.1352719156606
 30
0.0
 10
108.9911149971828
 20
-115.1352719156606
 30
0.0
 10
109.0358824960407
 20
-115.0904691378942
 30
0.0
 10
109.0358824960407
 20
-115.0353652490189
 30
0.0
  0
SPLINE
  5
7A
330
1F
100
AcDbEntity
  8
_U+30EC_U+30A4_U+30E4_U+30FC 1
 62
     7
420
 16777215
370
     9
100
AcDbSpline
210
0.0
220
0.0
230
1.0
 70
    11
 71
     3
 72
    17
 73
    13
 74
     0
 42
0.0000000001
 43
0.0000000001
 12
1.0
 22
0.0
 32
0.0
 13
1.0
 23
0.0
 33
0.0
 40
0.0
 40
0.0
 40
0.0
 40
0.0
 40
1.0
 40
1.0
 40
1.0
 40
2.0
 40
2.0
 40
2.0
 40
3.0
 40
3.0
 40
3.0
 40
4.0
 40
4.0
 40
4.0
 40
4.0
 10
82.13590734898287
 20
-115.0353652490189
 30
0.0
 10
82.13590734898287
 20
-114.9802260823662
 30
0.0
 10
82.09110457234812
 20
-114.9354585823773
 30
0.0
 10
82.03600275726866
 20
-114.9354585823773
 30
0.0
 10
81.98086151960509
 20
-114.9354585823773
 30
0.0
 10
81.9360940207472
 20
-114.9802260823662
 30
0.0
 10
81.9360940207472
 20
-115.0353652490189
 30
0.0
 10
81.9360940207472
 20
-115.0904691378942
 30
0.0
 10
81.98086151960509
 20
-115.1352719156606
 30
0.0
 10
82.03600275726866
 20
-115.1352719156606
 30
0.0
 10
82.09110457234812
 20
-115.1352719156606
 30
0.0
 10
82.13590734898287
 20
-115.0904691378942
 30
0.0
 10
82.13590734898287
 20
-115.0353652490189
 30
0.0
  0
SPLINE
  5
7B
330
1F
100
AcDbEntity
  8
_U+30EC_U+30A4_U+30E4_U+30FC 1
 62
     7
420
 16777215
370
     9
100
AcDbSpline
210
0.0
220
0.0
230
1.0
 70
    11
 71
     3
 72
    17
 73
    13
 74
     0
 42
0.0000000001
 43
0.0000000001
 12
1.0
 22
0.0
 32
0.0
 13
1.0
 23
0.0
 33
0.0
 40
0.0
 40
0.0
 40
0.0
 40
0.0
 40
1.0
 40
1.0
 40
1.0
 40
2.0
 40
2.0
 40
2.0
 40
3.0
 40
3.0
 40
3.0
 40
4.0
 40
4.0
 40
4.0
 40
4.0
 10
81.03623053529644
 20
-120.2160833032795
 30
0.0
 10
81.03623053529644
 20
-120.1609794144042
 30
0.0
 10
80.99142775753005
 20
-120.1161766366375
 30
0.0
 10
80.9363218240313
 20
-120.1161766366375
 30
0.0
 10
80.88118265877135
 20
-120.1161766366375
 30
0.0
 10
80.83641515991346
 20
-120.1609794144042
 30
0.0
 10
80.83641515991346
 20
-120.2160833032795
 30
0.0
 10
80.83641515991346
 20
-120.2715399699321
 30
0.0
 10
80.88118265877135
 20
-120.3163427476989
 30
0.0
 10
80.9363218240313
 20
-120.3163427476989
 30
0.0
 10
80.99142775753005
 20
-120.3163427476989
 30
0.0
 10
81.03623053529644
 20
-120.2715399699321
 30
0.0
 10
81.03623053529644
 20
-120.2160833032795
 30
0.0
  0
SPLINE
  5
7C
330
1F
100
AcDbEntity
  8
_U+30EC_U+30A4_U+30E4_U+30FC 1
 62
     7
420
 16777215
370
     9
100
AcDbSpline
210
0.0
220
0.0
230
1.0
 70
    11
 71
     3
 72
    17
 73
    13
 74
     0
 42
0.0000000001
 43
0.0000000001
 12
1.0
 22
0.0
 32
0.0
 13
1.0
 23
0.0
 33
0.0
 40
0.0
 40
0.0
 40
0.0
 40
0.0
 40
1.0
 40
1.0
 40
1.0
 40
2.0
 40
2.0
 40
2.0
 40
3.0
 40
3.0
 40
3.0
 40
4.0
 40
4.0
 40
4.0
 40
4.0
 10
82.03600275726866
 20
-120.2160833032795
 30
0.0
 10
82.03600275726866
 20
-120.1609794144042
 30
0.0
 10
81.99119997950227
 20
-120.1161766366375
 30
0.0
 10
81.9360940207472
 20
-120.1161766366375
 30
0.0
 10
81.88095485548725
 20
-120.1161766366375
 30
0.0
 10
81.83618735662937
 20
-120.1609794144042
 30
0.0
 10
81.83618735662937
 20
-120.2160833032795
 30
0.0
 10
81.83618735662937
 20
-120.2715399699321
 30
0.0
 10
81.88095485548725
 20
-120.3163427476989
 30
0.0
 10
81.9360940207472
 20
-120.3163427476989
 30
0.0
 10
81.99119997950227
 20
-120.3163427476989
 30
0.0
 10
82.03600275726866
 20
-120.2715399699321
 30
0.0
 10
82.03600275726866
 20
-120.2160833032795
 30
0.0
  0
SPLINE
  5
7D
330
1F
100
AcDbEntity
  8
_U+30EC_U+30A4_U+30E4_U+30FC 1
 62
     7
420
 16777215
370
     9
100
AcDbSpline
210
0.0
220
0.0
230
1.0
 70
    11
 71
     3
 72
    17
 73
    13
 74
     0
 42
0.0000000001
 43
0.0000000001
 12
1.0
 22
0.0
 32
0.0
 13
1.0
 23
0.0
 33
0.0
 40
0.0
 40
0.0
 40
0.0
 40
0.0
 40
1.0
 40
1.0
 40
1.0
 40
2.0
 40
2.0
 40
2.0
 40
3.0
 40
3.0
 40
3.0
 40
4.0
 40
4.0
 40
4.0
 40
4.0
 10
77.03646942352482
 20
-140.2160785760572
 30
0.0
 10
77.03646942352482
 20
-140.1609394094042
 30
0.0
 10
76.99166664689005
 20
-140.1161719094156
 30
0.0
 10
76.93656275940698
 20
-140.1161719094156
 30
0.0
 10
76.88075331638636
 20
-140.1161719094156
 30
0.0
 10
76.8359505397516
 20
-140.1609394094042
 30
0.0
 10
76.8359505397516
 20
-140.2160785760572
 30
0.0
 10
76.8359505397516
 20
-140.2711824649322
 30
0.0
 10
76.88075331638636
 20
-140.3159852426989
 30
0.0
 10
76.93656275940698
 20
-140.3159852426989
 30
0.0
 10
76.99166664689005
 20
-140.3159852426989
 30
0.0
 10
77.03646942352482
 20
-140.2711824649322
 30
0.0
 10
77.03646942352482
 20
-140.2160785760572
 30
0.0
  0
SPLINE
  5
7E
330
1F
100
AcDbEntity
  8
_U+30EC_U+30A4_U+30E4_U+30FC 1
 62
     7
420
 16777215
370
     9
100
AcDbSpline
210
0.0
220
0.0
230
1.0
 70
    11
 71
     3
 72
    17
 73
    13
 74
     0
 42
0.0000000001
 43
0.0000000001
 12
1.0
 22
0.0
 32
0.0
 13
1.0
 23
0.0
 33
0.0
 40
0.0
 40
0.0
 40
0.0
 40
0.0
 40
1.0
 40
1.0
 40
1.0
 40
2.0
 40
2.0
 40
2.0
 40
3.0
 40
3.0
 40
3.0
 40
4.0
 40
4.0
 40
4.0
 40
4.0
 10
77.03646942352482
 20
-118.2162213593348
 30
0.0
 10
77.03646942352482
 20
-118.161082192682
 30
0.0
 10
76.99166664689005
 20
-118.1163146926932
 30
0.0
 10
76.93656275940698
 20
-118.1163146926932
 30
0.0
 10
76.88075331638636
 20
-118.1163146926932
 30
0.0
 10
76.8359505397516
 20
-118.161082192682
 30
0.0
 10
76.8359505397516
 20
-118.2162213593348
 30
0.0
 10
76.8359505397516
 20
-118.27132524821
 30
0.0
 10
76.88075331638636
 20
-118.3161280259764
 30
0.0
 10
76.93656275940698
 20
-118.3161280259764
 30
0.0
 10
76.99166664689005
 20
-118.3161280259764
 30
0.0
 10
77.03646942352482
 20
-118.27132524821
 30
0.0
 10
77.03646942352482
 20
-118.2162213593348
 30
0.0
  0
SPLINE
  5
7F
330
1F
100
AcDbEntity
  8
_U+30EC_U+30A4_U+30E4_U+30FC 1
 62
     7
420
 16777215
370
     9
100
AcDbSpline
210
0.0
220
0.0
230
1.0
 70
    11
 71
     3
 72
    17
 73
    13
 74
     0
 42
0.0000000001
 43
0.0000000001
 12
1.0
 22
0.0
 32
0.0
 13
1.0
 23
0.0
 33
0.0
 40
0.0
 40
0.0
 40
0.0
 40
0.0
 40
1.0
 40
1.0
 40
1.0
 40
2.0
 40
2.0
 40
2.0
 40
3.0
 40
3.0
 40
3.0
 40
4.0
 40
4.0
 40
4.0
 40
4.0
 10
103.0359087602239
 20
-144.2158377417241
 30
0.0
 10
103.0359087602239
 20
-144.1606985750711
 30
0.0
 10
102.991141261366
 20
-144.1159310750818
 30
0.0
 10
102.936002096106
 20
-144.1159310750818
 30
0.0
 10
102.880898208623
 20
-144.1159310750818
 30
0.0
 10
102.8360954319882
 20
-144.1606985750711
 30
0.0
 10
102.8360954319882
 20
-144.2158377417241
 30
0.0
 10
102.8360954319882
 20
-144.2709416305991
 30
0.0
 10
102.880898208623
 20
-144.3157444083658
 30
0.0
 10
102.936002096106
 20
-144.3157444083658
 30
0.0
 10
102.991141261366
 20
-144.3157444083658
 30
0.0
 10
103.0359087602239
 20
-144.2709416305991
 30
0.0
 10
103.0359087602239
 20
-144.2158377417241
 30
0.0
  0
SPLINE
  5
80
330
1F
100
AcDbEntity
  8
_U+30EC_U+30A4_U+30E4_U+30FC 1
 62
     7
420
 16777215
370
     9
100
AcDbSpline
210
0.0
220
0.0
230
1.0
 70
    11
 71
     3
 72
    17
 73
    13
 74
     0
 42
0.0000000001
 43
0.0000000001
 12
1.0
 22
0.0
 32
0.0
 13
1.0
 23
0.0
 33
0.0
 40
0.0
 40
0.0
 40
0.0
 40
0.0
 40
1.0
 40
1.0
 40
1.0
 40
2.0
 40
2.0
 40
2.0
 40
3.0
 40
3.0
 40
3.0
 40
4.0
 40
4.0
 40
4.0
 40
4.0
 10
81.03623053529644
 20
-144.2158377417241
 30
0.0
 10
81.03623053529644
 20
-144.1606985750711
 30
0.0
 10
80.99142775753005
 20
-144.1159310750818
 30
0.0
 10
80.9363218240313
 20
-144.1159310750818
 30
0.0
 10
80.88118265877135
 20
-144.1159310750818
 30
0.0
 10
80.83641515991346
 20
-144.1606985750711
 30
0.0
 10
80.83641515991346
 20
-144.2158377417241
 30
0.0
 10
80.83641515991346
 20
-144.2709416305991
 30
0.0
 10
80.88118265877135
 20
-144.3157444083658
 30
0.0
 10
80.9363218240313
 20
-144.3157444083658
 30
0.0
 10
80.99142775753005
 20
-144.3157444083658
 30
0.0
 10
81.03623053529644
 20
-144.2709416305991
 30
0.0
 10
81.03623053529644
 20
-144.2158377417241
 30
0.0
  0
SPLINE
  5
81
330
1F
100
AcDbEntity
  8
_U+30EC_U+30A4_U+30E4_U+30FC 1
 62
     7
420
 16777215
370
     9
100
AcDbSpline
210
0.0
220
0.0
230
1.0
 70
    11
 71
     3
 72
    17
 73
    13
 74
     0
 42
0.0000000001
 43
0.0000000001
 12
1.0
 22
0.0
 32
0.0
 13
1.0
 23
0.0
 33
0.0
 40
0.0
 40
0.0
 40
0.0
 40
0.0
 40
1.0
 40
1.0
 40
1.0
 40
2.0
 40
2.0
 40
2.0
 40
3.0
 40
3.0
 40
3.0
 40
4.0
 40
4.0
 40
4.0
 40
4.0
 10
107.0363733803857
 20
-123.7159563579598
 30
0.0
 10
107.0363733803857
 20
-123.6608524690848
 30
0.0
 10
106.991570603751
 20
-123.6160496913181
 30
0.0
 10
106.9364694177105
 20
-123.6160496913181
 30
0.0
 10
106.8806572732473
 20
-123.6160496913181
 30
0.0
 10
106.8358544966125
 20
-123.6608524690848
 30
0.0
 10
106.8358544966125
 20
-123.7159563579598
 30
0.0
 10
106.8358544966125
 20
-123.7714130246128
 30
0.0
 10
106.8806572732473
 20
-123.8162158023792
 30
0.0
 10
106.9364694177105
 20
-123.8162158023792
 30
0.0
 10
106.991570603751
 20
-123.8162158023792
 30
0.0
 10
107.0363733803857
 20
-123.7714130246128
 30
0.0
 10
107.0363733803857
 20
-123.7159563579598
 30
0.0
  0
SPLINE
  5
82
330
1F
100
AcDbEntity
  8
_U+30EC_U+30A4_U+30E4_U+30FC 1
 62
     7
420
 16777215
370
     9
100
AcDbSpline
210
0.0
220
0.0
230
1.0
 70
    11
 71
     3
 72
    17
 73
    13
 74
     0
 42
0.0000000001
 43
0.0000000001
 12
1.0
 22
0.0
 32
0.0
 13
1.0
 23
0.0
 33
0.0
 40
0.0
 40
0.0
 40
0.0
 40
0.0
 40
1.0
 40
1.0
 40
1.0
 40
2.0
 40
2.0
 40
2.0
 40
3.0
 40
3.0
 40
3.0
 40
4.0
 40
4.0
 40
4.0
 40
4.0
 10
107.0363733803857
 20
-139.2156360763074
 30
0.0
 10
107.0363733803857
 20
-139.1604969096543
 30
0.0
 10
106.991570603751
 20
-139.1157294096657
 30
0.0
 10
106.9364694177105
 20
-139.1157294096657
 30
0.0
 10
106.8806572732473
 20
-139.1157294096657
 30
0.0
 10
106.8358544966125
 20
-139.1604969096543
 30
0.0
 10
106.8358544966125
 20
-139.2156360763074
 30
0.0
 10
106.8358544966125
 20
-139.2714455207378
 30
0.0
 10
106.8806572732473
 20
-139.3162130207263
 30
0.0
 10
106.9364694177105
 20
-139.3162130207263
 30
0.0
 10
106.991570603751
 20
-139.3162130207263
 30
0.0
 10
107.0363733803857
 20
-139.2714455207378
 30
0.0
 10
107.0363733803857
 20
-139.2156360763074
 30
0.0
  0
INSERT
  5
84
330
1F
100
AcDbEntity
  8
_U+30EC_U+30A4_U+30E4_U+30FC 1
100
AcDbBlockReference
  2
block 2
 10
0.0
 20
0.0
 30
0.0
  0
POLYLINE
  5
8C
330
1F
100
AcDbEntity
  8
_U+30EC_U+30A4_U+30E4_U+30FC 1
 62
     7
420
 16777215
370
     9
100
AcDb2dPolyline
 66
     1
 10
0.0
 20
0.0
 30
0.0
  0
VERTEX
  5
8D
330
8C
100
AcDbEntity
  8
_U+30EC_U+30A4_U+30E4_U+30FC 1
 62
     7
420
 16777215
370
     9
100
AcDbVertex
100
AcDb2dVertex
 10
81.9360940207472
 20
-115.0353652490189
 30
0.0
  0
VERTEX
  5
8E
330
8C
100
AcDbEntity
  8
_U+30EC_U+30A4_U+30E4_U+30FC 1
 62
     7
420
 16777215
370
     9
100
AcDbVertex
100
AcDb2dVertex
 10
108.9359758319228
 20
-115.0353652490189
 30
0.0
  0
SEQEND
  5
8F
330
8C
100
AcDbEntity
  8
_U+30EC_U+30A4_U+30E4_U+30FC 1
 62
     7
420
 16777215
370
     9
  0
POLYLINE
  5
90
330
1F
100
AcDbEntity
  8
_U+30EC_U+30A4_U+30E4_U+30FC 1
 62
     7
420
 16777215
370
     9
100
AcDb2dPolyline
 66
     1
 10
0.0
 20
0.0
 30
0.0
  0
VERTEX
  5
91
330
90
100
AcDbEntity
  8
_U+30EC_U+30A4_U+30E4_U+30FC 1
 62
     7
420
 16777215
370
     9
100
AcDbVertex
100
AcDb2dVertex
 10
82.03600275726866
 20
-117.4951435817373
 30
0.0
  0
VERTEX
  5
92
330
90
100
AcDbEntity
  8
_U+30EC_U+30A4_U+30E4_U+30FC 1
 62
     7
420
 16777215
370
     9
100
AcDbVertex
100
AcDb2dVertex
 10
82.03600275726866
 20
-114.0352402492689
 30
0.0
  0
SEQEND
  5
93
330
90
100
AcDbEntity
  8
_U+30EC_U+30A4_U+30E4_U+30FC 1
 62
     7
420
 16777215
370
     9
  0
POLYLINE
  5
94
330
1F
100
AcDbEntity
  8
_U+30EC_U+30A4_U+30E4_U+30FC 1
 62
     7
420
 16777215
370
     9
100
AcDb2dPolyline
 66
     1
 10
0.0
 20
0.0
 30
0.0
  0
VERTEX
  5
95
330
94
100
AcDbEntity
  8
_U+30EC_U+30A4_U+30E4_U+30FC 1
 62
     7
420
 16777215
370
     9
100
AcDbVertex
100
AcDb2dVertex
 10
108.9359758319228
 20
-121.4954319140705
 30
0.0
  0
VERTEX
  5
96
330
94
100
AcDbEntity
  8
_U+30EC_U+30A4_U+30E4_U+30FC 1
 62
     7
420
 16777215
370
     9
100
AcDbVertex
100
AcDb2dVertex
 10
108.9359758319228
 20
-114.0352402492689
 30
0.0
  0
SEQEND
  5
97
330
94
100
AcDbEntity
  8
_U+30EC_U+30A4_U+30E4_U+30FC 1
 62
     7
420
 16777215
370
     9
  0
INSERT
  5
99
330
1F
100
AcDbEntity
  8
_U+30EC_U+30A4_U+30E4_U+30FC 1
100
AcDbBlockReference
  2
block 3
 10
0.0
 20
0.0
 30
0.0
  0
POLYLINE
  5
A0
330
1F
100
AcDbEntity
  8
_U+30EC_U+30A4_U+30E4_U+30FC 1
 62
     7
420
 16777215
370
     9
100
AcDb2dPolyline
 66
     1
 10
0.0
 20
0.0
 30
0.0
  0
VERTEX
  5
A1
330
A0
100
AcDbEntity
  8
_U+30EC_U+30A4_U+30E4_U+30FC 1
 62
     7
420
 16777215
370
     9
100
AcDbVertex
100
AcDb2dVertex
 10
81.9360940207472
 20
-120.2160833032795
 30
0.0
  0
VERTEX
  5
A2
330
A0
100
AcDbEntity
  8
_U+30EC_U+30A4_U+30E4_U+30FC 1
 62
     7
420
 16777215
370
     9
100
AcDbVertex
100
AcDb2dVertex
 10
85.70640642455852
 20
-120.2160833032795
 30
0.0
  0
SEQEND
  5
A3
330
A0
100
AcDbEntity
  8
_U+30EC_U+30A4_U+30E4_U+30FC 1
 62
     7
420
 16777215
370
     9
  0
POLYLINE
  5
A4
330
1F
100
AcDbEntity
  8
_U+30EC_U+30A4_U+30E4_U+30FC 1
 62
     7
420
 16777215
370
     9
100
AcDb2dPolyline
 66
     1
 10
0.0
 20
0.0
 30
0.0
  0
VERTEX
  5
A5
330
A4
100
AcDbEntity
  8
_U+30EC_U+30A4_U+30E4_U+30FC 1
 62
     7
420
 16777215
370
     9
100
AcDbVertex
100
AcDb2dVertex
 10
79.93654962731539
 20
-120.2160833032795
 30
0.0
  0
VERTEX
  5
A6
330
A4
100
AcDbEntity
  8
_U+30EC_U+30A4_U+30E4_U+30FC 1
 62
     7
420
 16777215
370
     9
100
AcDbVertex
100
AcDb2dVertex
 10
81.9360940207472
 20
-120.2160833032795
 30
0.0
  0
SEQEND
  5
A7
330
A4
100
AcDbEntity
  8
_U+30EC_U+30A4_U+30E4_U+30FC 1
 62
     7
420
 16777215
370
     9
  0
INSERT
  5
A9
330
1F
100
AcDbEntity
  8
_U+30EC_U+30A4_U+30E4_U+30FC 1
100
AcDbBlockReference
  2
block 4
 10
0.0
 20
0.0
 30
0.0
  0
POLYLINE
  5
AE
330
1F
100
AcDbEntity
  8
_U+30EC_U+30A4_U+30E4_U+30FC 1
 62
     7
420
 16777215
370
     9
100
AcDb2dPolyline
 66
     1
 10
0.0
 20
0.0
 30
0.0
  0
VERTEX
  5
AF
330
AE
100
AcDbEntity
  8
_U+30EC_U+30A4_U+30E4_U+30FC 1
 62
     7
420
 16777215
370
     9
100
AcDbVertex
100
AcDb2dVertex
 10
76.93656275940698
 20
-140.2160785760572
 30
0.0
  0
VERTEX
  5
B0
330
AE
100
AcDbEntity
  8
_U+30EC_U+30A4_U+30E4_U+30FC 1
 62
     7
420
 16777215
370
     9
100
AcDbVertex
100
AcDb2dVertex
 10
76.93656275940698
 20
-118.2162213593348
 30
0.0
  0
SEQEND
  5
B1
330
AE
100
AcDbEntity
  8
_U+30EC_U+30A4_U+30E4_U+30FC 1
 62
     7
420
 16777215
370
     9
  0
POLYLINE
  5
B2
330
1F
100
AcDbEntity
  8
_U+30EC_U+30A4_U+30E4_U+30FC 1
 62
     7
420
 16777215
370
     9
100
AcDb2dPolyline
 66
     1
 10
0.0
 20
0.0
 30
0.0
  0
VERTEX
  5
B3
330
B2
100
AcDbEntity
  8
_U+30EC_U+30A4_U+30E4_U+30FC 1
 62
     7
420
 16777215
370
     9
100
AcDbVertex
100
AcDb2dVertex
 10
79.39634102998615
 20
-140.2160785760572
 30
0.0
  0
VERTEX
  5
B4
330
B2
100
AcDbEntity
  8
_U+30EC_U+30A4_U+30E4_U+30FC 1
 62
     7
420
 16777215
370
     9
100
AcDbVertex
100
AcDb2dVertex
 10
75.93612220323834
 20
-140.2160785760572
 30
0.0
  0
SEQEND
  5
B5
330
B2
100
AcDbEntity
  8
_U+30EC_U+30A4_U+30E4_U+30FC 1
 62
     7
420
 16777215
370
     9
  0
POLYLINE
  5
B6
330
1F
100
AcDbEntity
  8
_U+30EC_U+30A4_U+30E4_U+30FC 1
 62
     7
420
 16777215
370
     9
100
AcDb2dPolyline
 66
     1
 10
0.0
 20
0.0
 30
0.0
  0
VERTEX
  5
B7
330
B6
100
AcDbEntity
  8
_U+30EC_U+30A4_U+30E4_U+30FC 1
 62
     7
420
 16777215
370
     9
100
AcDbVertex
100
AcDb2dVertex
 10
79.39634102998615
 20
-118.2162213593348
 30
0.0
  0
VERTEX
  5
B8
330
B6
100
AcDbEntity
  8
_U+30EC_U+30A4_U+30E4_U+30FC 1
 62
     7
420
 16777215
370
     9
100
AcDbVertex
100
AcDb2dVertex
 10
75.93612220323834
 20
-118.2162213593348
 30
0.0
  0
SEQEND
  5
B9
330
B6
100
AcDbEntity
  8
_U+30EC_U+30A4_U+30E4_U+30FC 1
 62
     7
420
 16777215
370
     9
  0
INSERT
  5
BB
330
1F
100
AcDbEntity
  8
_U+30EC_U+30A4_U+30E4_U+30FC 1
100
AcDbBlockReference
  2
block 5
 10
0.0
 20
0.0
 30
0.0
  0
POLYLINE
  5
C2
330
1F
100
AcDbEntity
  8
_U+30EC_U+30A4_U+30E4_U+30FC 1
 62
     7
420
 16777215
370
     9
100
AcDb2dPolyline
 66
     1
 10
0.0
 20
0.0
 30
0.0
  0
VERTEX
  5
C3
330
C2
100
AcDbEntity
  8
_U+30EC_U+30A4_U+30E4_U+30FC 1
 62
     7
420
 16777215
370
     9
100
AcDbVertex
100
AcDb2dVertex
 10
80.9363218240313
 20
-144.2158377417241
 30
0.0
  0
VERTEX
  5
C4
330
C2
100
AcDbEntity
  8
_U+30EC_U+30A4_U+30E4_U+30FC 1
 62
     7
420
 16777215
370
     9
100
AcDbVertex
100
AcDb2dVertex
 10
102.936002096106
 20
-144.2158377417241
 30
0.0
  0
SEQEND
  5
C5
330
C2
100
AcDbEntity
  8
_U+30EC_U+30A4_U+30E4_U+30FC 1
 62
     7
420
 16777215
370
     9
  0
POLYLINE
  5
C6
330
1F
100
AcDbEntity
  8
_U+30EC_U+30A4_U+30E4_U+30FC 1
 62
     7
420
 16777215
370
     9
100
AcDb2dPolyline
 66
     1
 10
0.0
 20
0.0
 30
0.0
  0
VERTEX
  5
C7
330
C6
100
AcDbEntity
  8
_U+30EC_U+30A4_U+30E4_U+30FC 1
 62
     7
420
 16777215
370
     9
100
AcDbVertex
100
AcDb2dVertex
 10
80.9363218240313
 20
-141.7560241312279
 30
0.0
  0
VERTEX
  5
C8
330
C6
100
AcDbEntity
  8
_U+30EC_U+30A4_U+30E4_U+30FC 1
 62
     7
420
 16777215
370
     9
100
AcDbVertex
100
AcDb2dVertex
 10
80.9363218240313
 20
-145.2162802414734
 30
0.0
  0
SEQEND
  5
C9
330
C6
100
AcDbEntity
  8
_U+30EC_U+30A4_U+30E4_U+30FC 1
 62
     7
420
 16777215
370
     9
  0
POLYLINE
  5
CA
330
1F
100
AcDbEntity
  8
_U+30EC_U+30A4_U+30E4_U+30FC 1
 62
     7
420
 16777215
370
     9
100
AcDb2dPolyline
 66
     1
 10
0.0
 20
0.0
 30
0.0
  0
VERTEX
  5
CB
330
CA
100
AcDbEntity
  8
_U+30EC_U+30A4_U+30E4_U+30FC 1
 62
     7
420
 16777215
370
     9
100
AcDbVertex
100
AcDb2dVertex
 10
102.936002096106
 20
-141.7560241312279
 30
0.0
  0
VERTEX
  5
CC
330
CA
100
AcDbEntity
  8
_U+30EC_U+30A4_U+30E4_U+30FC 1
 62
     7
420
 16777215
370
     9
100
AcDbVertex
100
AcDb2dVertex
 10
102.936002096106
 20
-145.2162802414734
 30
0.0
  0
SEQEND
  5
CD
330
CA
100
AcDbEntity
  8
_U+30EC_U+30A4_U+30E4_U+30FC 1
 62
     7
420
 16777215
370
     9
  0
INSERT
  5
CF
330
1F
100
AcDbEntity
  8
_U+30EC_U+30A4_U+30E4_U+30FC 1
100
AcDbBlockReference
  2
block 6
 10
0.0
 20
0.0
 30
0.0
  0
POLYLINE
  5
D6
330
1F
100
AcDbEntity
  8
_U+30EC_U+30A4_U+30E4_U+30FC 1
 62
     7
420
 16777215
370
     9
100
AcDb2dPolyline
 66
     1
 10
0.0
 20
0.0
 30
0.0
  0
VERTEX
  5
D7
330
D6
100
AcDbEntity
  8
_U+30EC_U+30A4_U+30E4_U+30FC 1
 62
     7
420
 16777215
370
     9
100
AcDbVertex
100
AcDb2dVertex
 10
106.9364694177105
 20
-139.2156360763074
 30
0.0
  0
VERTEX
  5
D8
330
D6
100
AcDbEntity
  8
_U+30EC_U+30A4_U+30E4_U+30FC 1
 62
     7
420
 16777215
370
     9
100
AcDbVertex
100
AcDb2dVertex
 10
106.9364694177105
 20
-123.7161327468486
 30
0.0
  0
SEQEND
  5
D9
330
D6
100
AcDbEntity
  8
_U+30EC_U+30A4_U+30E4_U+30FC 1
 62
     7
420
 16777215
370
     9
  0
POLYLINE
  5
DA
330
1F
100
AcDbEntity
  8
_U+30EC_U+30A4_U+30E4_U+30FC 1
 62
     7
420
 16777215
370
     9
100
AcDb2dPolyline
 66
     1
 10
0.0
 20
0.0
 30
0.0
  0
VERTEX
  5
DB
330
DA
100
AcDbEntity
  8
_U+30EC_U+30A4_U+30E4_U+30FC 1
 62
     7
420
 16777215
370
     9
100
AcDbVertex
100
AcDb2dVertex
 10
105.4764253646278
 20
-139.2156360763074
 30
0.0
  0
VERTEX
  5
DC
330
DA
100
AcDbEntity
  8
_U+30EC_U+30A4_U+30E4_U+30FC 1
 62
     7
420
 16777215
370
     9
100
AcDbVertex
100
AcDb2dVertex
 10
107.9362036352069
 20
-139.2156360763074
 30
0.0
  0
SEQEND
  5
DD
330
DA
100
AcDbEntity
  8
_U+30EC_U+30A4_U+30E4_U+30FC 1
 62
     7
420
 16777215
370
     9
  0
POLYLINE
  5
DE
330
1F
100
AcDbEntity
  8
_U+30EC_U+30A4_U+30E4_U+30FC 1
 62
     7
420
 16777215
370
     9
100
AcDb2dPolyline
 66
     1
 10
0.0
 20
0.0
 30
0.0
  0
VERTEX
  5
DF
330
DE
100
AcDbEntity
  8
_U+30EC_U+30A4_U+30E4_U+30FC 1
 62
     7
420
 16777215
370
     9
100
AcDbVertex
100
AcDb2dVertex
 10
105.4764253646278
 20
-123.7159563579598
 30
0.0
  0
VERTEX
  5
E0
330
DE
100
AcDbEntity
  8
_U+30EC_U+30A4_U+30E4_U+30FC 1
 62
     7
420
 16777215
370
     9
100
AcDbVertex
100
AcDb2dVertex
 10
107.9362036352069
 20
-123.7159563579598
 30
0.0
  0
SEQEND
  5
E1
330
DE
100
AcDbEntity
  8
_U+30EC_U+30A4_U+30E4_U+30FC 1
 62
     7
420
 16777215
370
     9
  0
INSERT
  5
E3
330
1F
100
AcDbEntity
  8
_U+30EC_U+30A4_U+30E4_U+30FC 1
100
AcDbBlockReference
  2
block 7
 10
0.0
 20
0.0
 30
0.0
  0
ENDSEC
  0
SECTION
  2
OBJECTS
  0
DICTIONARY
  5
C
330
0
100
AcDbDictionary
281
     1
  3
ACAD_GROUP
350
D
  3
ACAD_LAYOUT
350
1A
  3
ACAD_MATERIAL
350
3B
  3
ACAD_MLEADERSTYLE
350
F5
  3
ACAD_MLINESTYLE
350
17
  3
ACAD_PLOTSETTINGS
350
19
  3
ACAD_PLOTSTYLENAME
350
E
  3
ACAD_TABLESTYLE
350
F4
  3
ACAD_VISUALSTYLE
350
2A
  0
SUN
  5
3F
330
29
100
AcDbSun
 90
        1
290
     0
 63
     7
421
 16777215
 40
1.0
291
     1
 91
  2455826
 92
 54000000
292
     0
 70
     2
 71
   256
280
     1
  0
DICTIONARY
  5
D
102
{ACAD_REACTORS
330
C
102
}
330
C
100
AcDbDictionary
281
     1
  0
DICTIONARY
  5
1A
102
{ACAD_REACTORS
330
C
102
}
330
C
100
AcDbDictionary
281
     1
  3
Layout1
350
1E
  3
Layout2
350
26
  3
Model
350
22
  0
DICTIONARY
  5
3B
102
{ACAD_REACTORS
330
C
102
}
330
C
100
AcDbDictionary
281
     1
  3
ByBlock
350
3D
  3
ByLayer
350
3C
  3
Global
350
3E
  0
DICTIONARY
  5
F5
102
{ACAD_REACTORS
330
C
102
}
330
C
100
AcDbDictionary
281
     1
  0
DICTIONARY
  5
17
102
{ACAD_REACTORS
330
C
102
}
330
C
100
AcDbDictionary
281
     1
  3
Standard
350
18
  0
DICTIONARY
  5
19
102
{ACAD_REACTORS
330
C
102
}
330
C
100
AcDbDictionary
281
     1
  0
ACDBDICTIONARYWDFLT
  5
E
102
{ACAD_REACTORS
330
C
102
}
330
C
100
AcDbDictionary
281
     1
  3
Normal
350
F
100
AcDbDictionaryWithDefault
340
F
  0
DICTIONARY
  5
F4
102
{ACAD_REACTORS
330
C
102
}
330
C
100
AcDbDictionary
281
     1
  0
DICTIONARY
  5
2A
102
{ACAD_REACTORS
330
C
102
}
330
C
100
AcDbDictionary
281
     1
  3
2dWireframe
350
2F
  3
3D Hidden
350
31
  3
3dWireframe
350
30
  3
Basic
350
32
  3
Brighten
350
36
  3
ColorChange
350
3A
  3
Conceptual
350
34
  3
Dim
350
35
  3
Facepattern
350
39
  3
Flat
350
2B
  3
FlatWithEdges
350
2C
  3
Gouraud
350
2D
  3
GouraudWithEdges
350
2E
  3
Linepattern
350
38
  3
Realistic
350
33
  3
Thicken
350
37
  0
LAYOUT
  5
1E
102
{ACAD_REACTORS
330
1A
102
}
330
1A
100
AcDbPlotSettings
  1

  2
none_device
  4

  6

 40
0.0
 41
0.0
 42
0.0
 43
0.0
 44
0.0
 45
0.0
 46
0.0
 47
0.0
 48
0.0
 49
0.0
140
0.0
141
0.0
142
1.0
143
1.0
 70
   688
 72
     0
 73
     0
 74
     5
  7

 75
    16
 76
     0
 77
     2
 78
   300
147
1.0
148
0.0
149
0.0
100
AcDbLayout
  1
Layout1
 70
     1
 71
     1
 10
0.0
 20
0.0
 11
12.0
 21
9.0
 12
0.0
 22
0.0
 32
0.0
 14
1.000000000000000E+20
 24
1.000000000000000E+20
 34
1.000000000000000E+20
 15
-1.000000000000000E+20
 25
-1.000000000000000E+20
 35
-1.000000000000000E+20
146
0.0
 13
0.0
 23
0.0
 33
0.0
 16
1.0
 26
0.0
 36
0.0
 17
0.0
 27
1.0
 37
0.0
 76
     0
330
1B
  0
LAYOUT
  5
26
102
{ACAD_REACTORS
330
1A
102
}
330
1A
100
AcDbPlotSettings
  1

  2
none_device
  4

  6

 40
0.0
 41
0.0
 42
0.0
 43
0.0
 44
0.0
 45
0.0
 46
0.0
 47
0.0
 48
0.0
 49
0.0
140
0.0
141
0.0
142
1.0
143
1.0
 70
   688
 72
     0
 73
     0
 74
     5
  7

 75
    16
 76
     0
 77
     2
 78
   300
147
1.0
148
0.0
149
0.0
100
AcDbLayout
  1
Layout2
 70
     1
 71
     2
 10
0.0
 20
0.0
 11
0.0
 21
0.0
 12
0.0
 22
0.0
 32
0.0
 14
0.0
 24
0.0
 34
0.0
 15
0.0
 25
0.0
 35
0.0
146
0.0
 13
0.0
 23
0.0
 33
0.0
 16
1.0
 26
0.0
 36
0.0
 17
0.0
 27
1.0
 37
0.0
 76
     0
330
23
  0
LAYOUT
  5
22
102
{ACAD_REACTORS
330
1A
102
}
330
1A
100
AcDbPlotSettings
  1

  2
none_device
  4

  6

 40
0.0
 41
0.0
 42
0.0
 43
0.0
 44
0.0
 45
0.0
 46
0.0
 47
0.0
 48
0.0
 49
0.0
140
0.0
141
0.0
142
1.0
143
1.0
 70
  1712
 72
     0
 73
     0
 74
     0
  7

 75
     0
 76
     0
 77
     2
 78
   300
147
1.0
148
0.0
149
0.0
100
AcDbLayout
  1
Model
 70
     1
 71
     0
 10
0.0
 20
0.0
 11
12.0
 21
9.0
 12
0.0
 22
0.0
 32
0.0
 14
1.000000000000000E+20
 24
1.000000000000000E+20
 34
1.000000000000000E+20
 15
-1.000000000000000E+20
 25
-1.000000000000000E+20
 35
-1.000000000000000E+20
146
0.0
 13
0.0
 23
0.0
 33
0.0
 16
1.0
 26
0.0
 36
0.0
 17
0.0
 27
1.0
 37
0.0
 76
     0
330
1F
331
29
  0
MATERIAL
  5
3D
102
{ACAD_REACTORS
330
3B
102
}
330
3B
100
AcDbMaterial
  1
ByBlock
 72
     1
 94
      127
  0
MATERIAL
  5
3C
102
{ACAD_REACTORS
330
3B
102
}
330
3B
100
AcDbMaterial
  1
ByLayer
 72
     1
 94
      127
  0
MATERIAL
  5
3E
102
{ACAD_REACTORS
330
3B
102
}
330
3B
100
AcDbMaterial
  1
Global
 72
     1
 94
      127
  0
MLINESTYLE
  5
18
102
{ACAD_REACTORS
330
17
102
}
330
17
100
AcDbMlineStyle
  2
Standard
 70
     0
  3

 62
   256
 51
90.0
 52
90.0
 71
     2
 49
0.5
 62
   256
  6
BYLAYER
 49
-0.5
 62
   256
  6
BYLAYER
  0
ACDBPLACEHOLDER
  5
F
102
{ACAD_REACTORS
330
E
102
}
330
E
  0
VISUALSTYLE
  5
2F
102
{ACAD_REACTORS
330
2A
102
}
330
2A
100
AcDbVisualStyle
  2
2dWireframe
 70
     4
177
     2
291
     0
 71
     0
176
     1
 72
     2
176
     1
 73
     0
176
     1
 90
        0
176
     1
 40
-0.6
176
     1
 41
-30.0
176
     1
 62
     5
 63
     7
421
 16777215
176
     1
 74
     1
176
     1
 91
        4
176
     1
 64
     7
176
     1
 65
   257
176
     1
 75
     1
176
     1
175
     1
176
     1
 42
1.0
176
     1
 92
        0
176
     1
 66
   257
176
     1
 43
1.0
176
     1
 76
     1
176
     1
 77
     6
176
     1
 78
     2
176
     1
 67
     7
176
     1
 79
     5
176
     1
170
     0
176
     1
171
     0
176
     1
290
     0
176
     1
 93
        1
176
     1
 44
0.0
176
     1
173
     0
176
     1
  0
VISUALSTYLE
  5
31
102
{ACAD_REACTORS
330
2A
102
}
330
2A
100
AcDbVisualStyle
  2
3D Hidden
 70
     6
177
     2
291
     0
 71
     1
176
     1
 72
     2
176
     1
 73
     2
176
     1
 90
        0
176
     1
 40
-0.6
176
     1
 41
-30.0
176
     1
 62
     5
 63
     7
421
 16777215
176
     1
 74
     2
176
     1
 91
        2
176
     1
 64
     7
176
     1
 65
   257
176
     1
 75
     2
176
     1
175
     1
176
     1
 42
40.0
176
     1
 92
        0
176
     1
 66
   257
176
     1
 43
1.0
176
     1
 76
     1
176
     1
 77
     6
176
     1
 78
     2
176
     1
 67
     7
176
     1
 79
     3
176
     1
170
     0
176
     1
171
     0
176
     1
290
     0
176
     1
 93
        1
176
     1
 44
0.0
176
     1
173
     0
176
     1
  0
VISUALSTYLE
  5
30
102
{ACAD_REACTORS
330
2A
102
}
330
2A
100
AcDbVisualStyle
  2
3dWireframe
 70
     5
177
     2
291
     0
 71
     0
176
     1
 72
     2
176
     1
 73
     0
176
     1
 90
        0
176
     1
 40
-0.6
176
     1
 41
-30.0
176
     1
 62
     5
 63
     7
421
 16777215
176
     1
 74
     1
176
     1
 91
        4
176
     1
 64
     7
176
     1
 65
   257
176
     1
 75
     1
176
     1
175
     1
176
     1
 42
1.0
176
     1
 92
        0
176
     1
 66
   257
176
     1
 43
1.0
176
     1
 76
     1
176
     1
 77
     6
176
     1
 78
     2
176
     1
 67
     7
176
     1
 79
     5
176
     1
170
     0
176
     1
171
     0
176
     1
290
     0
176
     1
 93
        1
176
     1
 44
0.0
176
     1
173
     0
176
     1
  0
VISUALSTYLE
  5
32
102
{ACAD_REACTORS
330
2A
102
}
330
2A
100
AcDbVisualStyle
  2
Basic
 70
     7
177
     2
291
     1
 71
     1
176
     1
 72
     0
176
     1
 73
     1
176
     1
 90
        0
176
     1
 40
-0.6
176
     1
 41
-30.0
176
     1
 62
     5
 63
     7
421
 16777215
176
     1
 74
     0
176
     1
 91
        4
176
     1
 64
     7
176
     1
 65
   257
176
     1
 75
     1
176
     1
175
     1
176
     1
 42
1.0
176
     1
 92
        8
176
     1
 66
     7
176
     1
 43
1.0
176
     1
 76
     1
176
     1
 77
     6
176
     1
 78
     2
176
     1
 67
     7
176
     1
 79
     5
176
     1
170
     0
176
     1
171
     0
176
     1
290
     0
176
     1
 93
        1
176
     1
 44
0.0
176
     1
173
     0
176
     1
  0
VISUALSTYLE
  5
36
102
{ACAD_REACTORS
330
2A
102
}
330
2A
100
AcDbVisualStyle
  2
Brighten
 70
    12
177
     2
291
     1
 71
     2
176
     1
 72
     2
176
     1
 73
     0
176
     1
 90
        0
176
     1
 40
-0.6
176
     1
 41
-30.0
176
     1
 62
     5
 63
     7
421
 16777215
176
     1
 74
     1
176
     1
 91
        4
176
     1
 64
     7
176
     1
 65
   257
176
     1
 75
     1
176
     1
175
     1
176
     1
 42
1.0
176
     1
 92
        8
176
     1
 66
     7
176
     1
 43
1.0
176
     1
 76
     1
176
     1
 77
     6
176
     1
 78
     2
176
     1
 67
     7
176
     1
 79
     5
176
     1
170
     0
176
     1
171
     0
176
     1
290
     0
176
     1
 93
        1
176
     1
 44
50.0
176
     1
173
     0
176
     1
  0
VISUALSTYLE
  5
3A
102
{ACAD_REACTORS
330
2A
102
}
330
2A
100
AcDbVisualStyle
  2
ColorChange
 70
    16
177
     2
291
     1
 71
     2
176
     1
 72
     2
176
     1
 73
     3
176
     1
 90
        0
176
     1
 40
-0.6
176
     1
 41
-30.0
176
     1
 62
     5
 63
     8
421
  8421504
176
     1
 74
     1
176
     1
 91
        4
176
     1
 64
     7
176
     1
 65
   257
176
     1
 75
     1
176
     1
175
     1
176
     1
 42
1.0
176
     1
 92
        8
176
     1
 66
     8
424
  8421504
176
     1
 43
1.0
176
     1
 76
     1
176
     1
 77
     6
176
     1
 78
     2
176
     1
 67
     7
176
     1
 79
     5
176
     1
170
     0
176
     1
171
     0
176
     1
290
     0
176
     1
 93
        1
176
     1
 44
0.0
176
     1
173
     0
176
     1
  0
VISUALSTYLE
  5
34
102
{ACAD_REACTORS
330
2A
102
}
330
2A
100
AcDbVisualStyle
  2
Conceptual
 70
     9
177
     2
291
     0
 71
     3
176
     1
 72
     2
176
     1
 73
     0
176
     1
 90
        0
176
     1
 40
-0.6
176
     1
 41
-30.0
176
     1
 62
     5
 63
     7
421
 16777215
176
     1
 74
     2
176
     1
 91
        2
176
     1
 64
     7
176
     1
 65
   257
176
     1
 75
     1
176
     1
175
     1
176
     1
 42
40.0
176
     1
 92
        8
176
     1
 66
     7
176
     1
 43
1.0
176
     1
 76
     1
176
     1
 77
     6
176
     1
 78
     2
176
     1
 67
     7
176
     1
 79
     3
176
     1
170
     0
176
     1
171
     0
176
     1
290
     0
176
     1
 93
        1
176
     1
 44
0.0
176
     1
173
     0
176
     1
  0
VISUALSTYLE
  5
35
102
{ACAD_REACTORS
330
2A
102
}
330
2A
100
AcDbVisualStyle
  2
Dim
 70
    11
177
     2
291
     1
 71
     2
176
     1
 72
     2
176
     1
 73
     0
176
     1
 90
        0
176
     1
 40
-0.6
176
     1
 41
-30.0
176
     1
 62
     5
 63
     7
421
 16777215
176
     1
 74
     1
176
     1
 91
        4
176
     1
 64
     7
176
     1
 65
   257
176
     1
 75
     1
176
     1
175
     1
176
     1
 42
1.0
176
     1
 92
        8
176
     1
 66
     7
176
     1
 43
1.0
176
     1
 76
     1
176
     1
 77
     6
176
     1
 78
     2
176
     1
 67
     7
176
     1
 79
     5
176
     1
170
     0
176
     1
171
     0
176
     1
290
     0
176
     1
 93
        1
176
     1
 44
-50.0
176
     1
173
     0
176
     1
  0
VISUALSTYLE
  5
39
102
{ACAD_REACTORS
330
2A
102
}
330
2A
100
AcDbVisualStyle
  2
Facepattern
 70
    15
177
     2
291
     1
 71
     2
176
     1
 72
     2
176
     1
 73
     0
176
     1
 90
        0
176
     1
 40
-0.6
176
     1
 41
-30.0
176
     1
 62
     5
 63
     7
421
 16777215
176
     1
 74
     1
176
     1
 91
        4
176
     1
 64
     7
176
     1
 65
   257
176
     1
 75
     1
176
     1
175
     1
176
     1
 42
1.0
176
     1
 92
        8
176
     1
 66
     7
176
     1
 43
1.0
176
     1
 76
     1
176
     1
 77
     6
176
     1
 78
     2
176
     1
 67
     7
176
     1
 79
     5
176
     1
170
     0
176
     1
171
     0
176
     1
290
     0
176
     1
 93
        1
176
     1
 44
0.0
176
     1
173
     0
176
     1
  0
VISUALSTYLE
  5
2B
102
{ACAD_REACTORS
330
2A
102
}
330
2A
100
AcDbVisualStyle
  2
Flat
 70
     0
177
     2
291
     1
 71
     2
176
     1
 72
     1
176
     1
 73
     1
176
     1
 90
        2
176
     1
 40
-0.6
176
     1
 41
30.0
176
     1
 62
     5
 63
     7
421
 16777215
176
     1
 74
     0
176
     1
 91
        4
176
     1
 64
     7
176
     1
 65
   257
176
     1
 75
     1
176
     1
175
     1
176
     1
 42
1.0
176
     1
 92
        8
176
     1
 66
     7
176
     1
 43
1.0
176
     1
 76
     1
176
     1
 77
     6
176
     1
 78
     2
176
     1
 67
     7
176
     1
 79
     5
176
     1
170
     0
176
     1
171
     0
176
     1
290
     0
176
     1
 93
       13
176
     1
 44
0.0
176
     1
173
     0
176
     1
  0
VISUALSTYLE
  5
2C
102
{ACAD_REACTORS
330
2A
102
}
330
2A
100
AcDbVisualStyle
  2
FlatWithEdges
 70
     1
177
     2
291
     1
 71
     2
176
     1
 72
     1
176
     1
 73
     1
176
     1
 90
        2
176
     1
 40
-0.6
176
     1
 41
30.0
176
     1
 62
     5
 63
     7
421
 16777215
176
     1
 74
     1
176
     1
 91
        4
176
     1
 64
     7
176
     1
 65
   257
176
     1
 75
     1
176
     1
175
     1
176
     1
 42
1.0
176
     1
 92
        0
176
     1
 66
   257
176
     1
 43
1.0
176
     1
 76
     1
176
     1
 77
     6
176
     1
 78
     2
176
     1
 67
     7
176
     1
 79
     5
176
     1
170
     0
176
     1
171
     0
176
     1
290
     0
176
     1
 93
       13
176
     1
 44
0.0
176
     1
173
     0
176
     1
  0
VISUALSTYLE
  5
2D
102
{ACAD_REACTORS
330
2A
102
}
330
2A
100
AcDbVisualStyle
  2
Gouraud
 70
     2
177
     2
291
     1
 71
     2
176
     1
 72
     2
176
     1
 73
     1
176
     1
 90
        2
176
     1
 40
-0.6
176
     1
 41
30.0
176
     1
 62
     5
 63
     7
421
 16777215
176
     1
 74
     0
176
     1
 91
        4
176
     1
 64
     7
176
     1
 65
   257
176
     1
 75
     1
176
     1
175
     1
176
     1
 42
1.0
176
     1
 92
        0
176
     1
 66
     7
176
     1
 43
1.0
176
     1
 76
     1
176
     1
 77
     6
176
     1
 78
     2
176
     1
 67
     7
176
     1
 79
     5
176
     1
170
     0
176
     1
171
     0
176
     1
290
     0
176
     1
 93
       13
176
     1
 44
0.0
176
     1
173
     0
176
     1
  0
VISUALSTYLE
  5
2E
102
{ACAD_REACTORS
330
2A
102
}
330
2A
100
AcDbVisualStyle
  2
GouraudWithEdges
 70
     3
177
     2
291
     1
 71
     2
176
     1
 72
     2
176
     1
 73
     1
176
     1
 90
        2
176
     1
 40
-0.6
176
     1
 41
30.0
176
     1
 62
     5
 63
     7
421
 16777215
176
     1
 74
     1
176
     1
 91
        4
176
     1
 64
     7
176
     1
 65
   257
176
     1
 75
     1
176
     1
175
     1
176
     1
 42
1.0
176
     1
 92
        0
176
     1
 66
   257
176
     1
 43
1.0
176
     1
 76
     1
176
     1
 77
     6
176
     1
 78
     2
176
     1
 67
     7
176
     1
 79
     5
176
     1
170
     0
176
     1
171
     0
176
     1
290
     0
176
     1
 93
       13
176
     1
 44
0.0
176
     1
173
     0
176
     1
  0
VISUALSTYLE
  5
38
102
{ACAD_REACTORS
330
2A
102
}
330
2A
100
AcDbVisualStyle
  2
Linepattern
 70
    14
177
     2
291
     1
 71
     2
176
     1
 72
     2
176
     1
 73
     0
176
     1
 90
        0
176
     1
 40
-0.6
176
     1
 41
-30.0
176
     1
 62
     5
 63
     7
421
 16777215
176
     1
 74
     1
176
     1
 91
        4
176
     1
 64
     7
176
     1
 65
   257
176
     1
 75
     7
176
     1
175
     7
176
     1
 42
1.0
176
     1
 92
        8
176
     1
 66
     7
176
     1
 43
1.0
176
     1
 76
     1
176
     1
 77
     6
176
     1
 78
     2
176
     1
 67
     7
176
     1
 79
     5
176
     1
170
     0
176
     1
171
     0
176
     1
290
     0
176
     1
 93
        1
176
     1
 44
0.0
176
     1
173
     0
176
     1
  0
VISUALSTYLE
  5
33
102
{ACAD_REACTORS
330
2A
102
}
330
2A
100
AcDbVisualStyle
  2
Realistic
 70
     8
177
     2
291
     0
 71
     2
176
     1
 72
     2
176
     1
 73
     0
176
     1
 90
        0
176
     1
 40
-0.6
176
     1
 41
-30.0
176
     1
 62
     5
 63
     7
421
 16777215
176
     1
 74
     1
176
     1
 91
        0
176
     1
 64
     7
176
     1
 65
   257
176
     1
 75
     1
176
     1
175
     1
176
     1
 42
1.0
176
     1
 92
        8
176
     1
 66
     8
424
  7895160
176
     1
 43
1.0
176
     1
 76
     1
176
     1
 77
     6
176
     1
 78
     2
176
     1
 67
     7
176
     1
 79
     5
176
     1
170
     0
176
     1
171
     0
176
     1
290
     0
176
     1
 93
       13
176
     1
 44
0.0
176
     1
173
     0
176
     1
  0
VISUALSTYLE
  5
37
102
{ACAD_REACTORS
330
2A
102
}
330
2A
100
AcDbVisualStyle
  2
Thicken
 70
    13
177
     2
291
     1
 71
     2
176
     1
 72
     2
176
     1
 73
     0
176
     1
 90
        0
176
     1
 40
-0.6
176
     1
 41
-30.0
176
     1
 62
     5
 63
     7
421
 16777215
176
     1
 74
     1
176
     1
 91
        4
176
     1
 64
     7
176
     1
 65
   257
176
     1
 75
     1
176
     1
175
     1
176
     1
 42
1.0
176
     1
 92
       12
176
     1
 66
     7
176
     1
 43
1.0
176
     1
 76
     1
176
     1
 77
     6
176
     1
 78
     2
176
     1
 67
     7
176
     1
 79
     5
176
     1
170
     0
176
     1
171
     0
176
     1
290
     0
176
     1
 93
        1
176
     1
 44
0.0
176
     1
173
     0
176
     1
  0
ENDSEC
  0
EOF
