  0
SECTION
  2
HEADER
  9
$ACADVER
  1
AC1024
  9
$ACADMAINTVER
 70
     6
  9
$DWGCODEPAGE
  3
UNDEFINED
  9
$INSBASE
 10
0.0
 20
0.0
 30
0.0
  9
$EXTMIN
 10
1.000000000000000E+20
 20
1.000000000000000E+20
 30
1.000000000000000E+20
  9
$EXTMAX
 10
-1.000000000000000E+20
 20
-1.000000000000000E+20
 30
-1.000000000000000E+20
  9
$LIMMIN
 10
0.0
 20
0.0
  9
$LIMMAX
 10
12.0
 20
9.0
  9
$ORTHOMODE
 70
     0
  9
$REGENMODE
 70
     1
  9
$FILLMODE
 70
     1
  9
$QTEXTMODE
 70
     0
  9
$MIRRTEXT
 70
     1
  9
$LTSCALE
 40
1.0
  9
$ATTMODE
 70
     1
  9
$TEXTSIZE
 40
0.2
  9
$TRACEWID
 40
0.05
  9
$TEXTSTYLE
  7
Standard
  9
$CLAYER
  8
0
  9
$CELTYPE
  6
ByLayer
  9
$CECOLOR
 62
   256
  9
$CELTSCALE
 40
1.0
  9
$DISPSILH
 70
     0
  9
$DIMSCALE
 40
1.0
  9
$DIMASZ
 40
0.18
  9
$DIMEXO
 40
0.0625
  9
$DIMDLI
 40
0.38
  9
$DIMRND
 40
0.0
  9
$DIMDLE
 40
0.0
  9
$DIMEXE
 40
0.18
  9
$DIMTP
 40
0.0
  9
$DIMTM
 40
0.0
  9
$DIMTXT
 40
0.18
  9
$DIMCEN
 40
0.09
  9
$DIMTSZ
 40
0.0
  9
$DIMTOL
 70
     0
  9
$DIMLIM
 70
     0
  9
$DIMTIH
 70
     1
  9
$DIMTOH
 70
     1
  9
$DIMSE1
 70
     0
  9
$DIMSE2
 70
     0
  9
$DIMTAD
 70
     0
  9
$DIMZIN
 70
     0
  9
$DIMBLK
  1

  9
$DIMASO
 70
     1
  9
$DIMSHO
 70
     1
  9
$DIMPOST
  1

  9
$DIMAPOST
  1

  9
$DIMALT
 70
     0
  9
$DIMALTD
 70
     2
  9
$DIMALTF
 40
25.4
  9
$DIMLFAC
 40
1.0
  9
$DIMTOFL
 70
     0
  9
$DIMTVP
 40
0.0
  9
$DIMTIX
 70
     0
  9
$DIMSOXD
 70
     0
  9
$DIMSAH
 70
     0
  9
$DIMBLK1
  1

  9
$DIMBLK2
  1

  9
$DIMSTYLE
  2
Standard
  9
$DIMCLRD
 70
     0
  9
$DIMCLRE
 70
     0
  9
$DIMCLRT
 70
     0
  9
$DIMTFAC
 40
1.0
  9
$DIMGAP
 40
0.09
  9
$DIMJUST
 70
     0
  9
$DIMSD1
 70
     0
  9
$DIMSD2
 70
     0
  9
$DIMTOLJ
 70
     1
  9
$DIMTZIN
 70
     0
  9
$DIMALTZ
 70
     0
  9
$DIMALTTZ
 70
     0
  9
$DIMUPT
 70
     0
  9
$DIMDEC
 70
     4
  9
$DIMTDEC
 70
     4
  9
$DIMALTU
 70
     2
  9
$DIMALTTD
 70
     2
  9
$DIMTXSTY
  7
Standard
  9
$DIMAUNIT
 70
     0
  9
$DIMADEC
 70
     0
  9
$DIMALTRND
 40
0.0
  9
$DIMAZIN
 70
     0
  9
$DIMDSEP
 70
    46
  9
$DIMATFIT
 70
     3
  9
$DIMFRAC
 70
     0
  9
$DIMLDRBLK
  1

  9
$DIMLUNIT
 70
     2
  9
$DIMLWD
 70
    -2
  9
$DIMLWE
 70
    -2
  9
$DIMTMOVE
 70
     0
  9
$DIMFXL
 40
1.0
  9
$DIMFXLON
 70
     0
  9
$DIMJOGANG
 40
0.7853981633974483
  9
$DIMTFILL
 70
     0
  9
$DIMTFILLCLR
 70
     0
  9
$DIMARCSYM
 70
     0
  9
$DIMLTYPE
  6

  9
$DIMLTEX1
  6

  9
$DIMLTEX2
  6

  9
$DIMTXTDIRECTION
 70
     0
  9
$LUNITS
 70
     2
  9
$LUPREC
 70
     4
  9
$SKETCHINC
 40
0.1
  9
$FILLETRAD
 40
0.5
  9
$AUNITS
 70
     0
  9
$AUPREC
 70
     0
  9
$MENU
  1
.
  9
$ELEVATION
 40
0.0
  9
$PELEVATION
 40
0.0
  9
$THICKNESS
 40
0.0
  9
$LIMCHECK
 70
     0
  9
$CHAMFERA
 40
0.5
  9
$CHAMFERB
 40
0.5
  9
$CHAMFERC
 40
1.0
  9
$CHAMFERD
 40
0.0
  9
$SKPOLY
 70
     0
  9
$TDCREATE
 40
2457917.595069433
  9
$TDUCREATE
 40
2457917.220069444
  9
$TDUPDATE
 40
2457917.595069433
  9
$TDUUPDATE
 40
2457917.220069444
  9
$TDINDWG
 40
0.0000000116
  9
$TDUSRTIMER
 40
0.0000000116
  9
$USRTIMER
 70
     1
  9
$ANGBASE
 50
0.0
  9
$ANGDIR
 70
     0
  9
$PDMODE
 70
     0
  9
$PDSIZE
 40
0.0
  9
$PLINEWID
 40
0.0
  9
$SPLFRAME
 70
     0
  9
$SPLINETYPE
 70
     6
  9
$SPLINESEGS
 70
     8
  9
$HANDSEED
  5
CA
  9
$SURFTAB1
 70
     6
  9
$SURFTAB2
 70
     6
  9
$SURFTYPE
 70
     6
  9
$SURFU
 70
     6
  9
$SURFV
 70
     6
  9
$UCSBASE
  2

  9
$UCSNAME
  2

  9
$UCSORG
 10
0.0
 20
0.0
 30
0.0
  9
$UCSXDIR
 10
1.0
 20
0.0
 30
0.0
  9
$UCSYDIR
 10
0.0
 20
1.0
 30
0.0
  9
$UCSORTHOREF
  2

  9
$UCSORTHOVIEW
 70
     0
  9
$UCSORGTOP
 10
0.0
 20
0.0
 30
0.0
  9
$UCSORGBOTTOM
 10
0.0
 20
0.0
 30
0.0
  9
$UCSORGLEFT
 10
0.0
 20
0.0
 30
0.0
  9
$UCSORGRIGHT
 10
0.0
 20
0.0
 30
0.0
  9
$UCSORGFRONT
 10
0.0
 20
0.0
 30
0.0
  9
$UCSORGBACK
 10
0.0
 20
0.0
 30
0.0
  9
$PUCSBASE
  2

  9
$PUCSNAME
  2

  9
$PUCSORG
 10
0.0
 20
0.0
 30
0.0
  9
$PUCSXDIR
 10
1.0
 20
0.0
 30
0.0
  9
$PUCSYDIR
 10
0.0
 20
1.0
 30
0.0
  9
$PUCSORTHOREF
  2

  9
$PUCSORTHOVIEW
 70
     0
  9
$PUCSORGTOP
 10
0.0
 20
0.0
 30
0.0
  9
$PUCSORGBOTTOM
 10
0.0
 20
0.0
 30
0.0
  9
$PUCSORGLEFT
 10
0.0
 20
0.0
 30
0.0
  9
$PUCSORGRIGHT
 10
0.0
 20
0.0
 30
0.0
  9
$PUCSORGFRONT
 10
0.0
 20
0.0
 30
0.0
  9
$PUCSORGBACK
 10
0.0
 20
0.0
 30
0.0
  9
$USERI1
 70
     0
  9
$USERI2
 70
     0
  9
$USERI3
 70
     0
  9
$USERI4
 70
     0
  9
$USERI5
 70
     0
  9
$USERR1
 40
0.0
  9
$USERR2
 40
0.0
  9
$USERR3
 40
0.0
  9
$USERR4
 40
0.0
  9
$USERR5
 40
0.0
  9
$WORLDVIEW
 70
     1
  9
$SHADEDGE
 70
     3
  9
$SHADEDIF
 70
    70
  9
$TILEMODE
 70
     1
  9
$MAXACTVP
 70
    64
  9
$PINSBASE
 10
0.0
 20
0.0
 30
0.0
  9
$PLIMCHECK
 70
     0
  9
$PEXTMIN
 10
1.000000000000000E+20
 20
1.000000000000000E+20
 30
1.000000000000000E+20
  9
$PEXTMAX
 10
-1.000000000000000E+20
 20
-1.000000000000000E+20
 30
-1.000000000000000E+20
  9
$PLIMMIN
 10
0.0
 20
0.0
  9
$PLIMMAX
 10
12.0
 20
9.0
  9
$UNITMODE
 70
     0
  9
$VISRETAIN
 70
     1
  9
$PLINEGEN
 70
     0
  9
$PSLTSCALE
 70
     1
  9
$TREEDEPTH
 70
  3020
  9
$CMLSTYLE
  2
Standard
  9
$CMLJUST
 70
     0
  9
$CMLSCALE
 40
1.0
  9
$PROXYGRAPHICS
 70
     1
  9
$MEASUREMENT
 70
     0
  9
$CELWEIGHT
370
    -1
  9
$ENDCAPS
280
     0
  9
$JOINSTYLE
280
     0
  9
$LWDISPLAY
290
     1
  9
$INSUNITS
 70
     1
  9
$HYPERLINKBASE
  1

  9
$STYLESHEET
  1

  9
$XEDIT
290
     1
  9
$CEPSNTYPE
380
     0
  9
$PSTYLEMODE
290
     1
  9
$FINGERPRINTGUID
  2
{2F6BE7E3-FFEB-4297-6285-76DFAC5670AD}
  9
$VERSIONGUID
  2
{FAEB1C32-E019-11D5-929B-00C0DF256EC4}
  9
$EXTNAMES
290
     1
  9
$PSVPSCALE
 40
0.0
  9
$OLESTARTUP
290
     0
  9
$SORTENTS
280
   127
  9
$INDEXCTL
280
     0
  9
$HIDETEXT
280
     1
  9
$XCLIPFRAME
280
     2
  9
$HALOGAP
280
     0
  9
$OBSCOLOR
 70
   257
  9
$OBSLTYPE
280
     0
  9
$INTERSECTIONDISPLAY
280
     0
  9
$INTERSECTIONCOLOR
 70
   257
  9
$DIMASSOC
280
     2
  9
$PROJECTNAME
  1

  9
$CAMERADISPLAY
290
     0
  9
$LENSLENGTH
 40
50.0
  9
$CAMERAHEIGHT
 40
0.0
  9
$STEPSPERSEC
 40
2.0
  9
$STEPSIZE
 40
6.0
  9
$3DDWFPREC
 40
2.0
  9
$PSOLWIDTH
 40
0.25
  9
$PSOLHEIGHT
 40
4.0
  9
$LOFTANG1
 40
1.570796326794897
  9
$LOFTANG2
 40
1.570796326794897
  9
$LOFTMAG1
 40
0.0
  9
$LOFTMAG2
 40
0.0
  9
$LOFTPARAM
 70
     7
  9
$LOFTNORMALS
280
     1
  9
$LATITUDE
 40
37.795
  9
$LONGITUDE
 40
-122.394
  9
$NORTHDIRECTION
 40
0.0
  9
$TIMEZONE
 70
 -8000
  9
$LIGHTGLYPHDISPLAY
280
     1
  9
$TILEMODELIGHTSYNCH
280
     1
  9
$CMATERIAL
347
3C
  9
$SOLIDHIST
280
     1
  9
$SHOWHIST
280
     1
  9
$DWFFRAME
280
     2
  9
$DGNFRAME
280
     2
  9
$REALWORLDSCALE
290
     1
  9
$INTERFERECOLOR
 62
   256
  9
$CSHADOW
280
     0
  9
$SHADOWPLANELOCATION
 40
0.0
  0
ENDSEC
  0
SECTION
  2
CLASSES
  0
CLASS
  1
ACDBDICTIONARYWDFLT
  2
AcDbDictionaryWithDefault
  3
ObjectDBX Classes
 90
        0
 91
        4
280
     0
281
     0
  0
CLASS
  1
VISUALSTYLE
  2
AcDbVisualStyle
  3
ObjectDBX Classes
 90
     4095
 91
        4
280
     0
281
     0
  0
CLASS
  1
MATERIAL
  2
AcDbMaterial
  3
ObjectDBX Classes
 90
     1153
 91
        4
280
     0
281
     0
  0
CLASS
  1
SUN
  2
AcDbSun
  3
SCENEOE
 90
     1024
 91
        4
280
     0
281
     0
  0
ENDSEC
  0
SECTION
  2
TABLES
  0
TABLE
  2
VPORT
  5
8
330
0
100
AcDbSymbolTable
 70
     1
  0
VPORT
  5
29
330
8
100
AcDbSymbolTableRecord
100
AcDbViewportTableRecord
  2
*Active
 70
     0
 10
0.0
 20
0.0
 11
1.0
 21
1.0
 12
0.0
 22
0.0
 13
0.0
 23
0.0
 14
0.5
 24
0.5
 15
0.5
 25
0.5
 16
0.0
 26
0.0
 36
1.0
 17
91.00082462281999
 27
-128.4993055234307
 37
0.0
 40
256.9986110468615
 41
0.7081814508812795
 42
50.0
 43
0.0
 44
0.0
 50
0.0
 51
0.0
 71
     0
 72
   100
 73
     1
 74
     3
 75
     0
 76
     0
 77
     0
 78
     0
281
     0
 65
     1
110
0.0
120
0.0
130
0.0
111
1.0
121
0.0
131
0.0
112
0.0
122
1.0
132
0.0
 79
     0
146
0.0
 60
     3
 61
     5
292
     1
282
     1
141
0.0
142
0.0
 63
   250
361
3F
  0
ENDTAB
  0
TABLE
  2
LTYPE
  5
5
330
0
100
AcDbSymbolTable
 70
     1
  0
LTYPE
  5
14
330
5
100
AcDbSymbolTableRecord
100
AcDbLinetypeTableRecord
  2
ByBlock
 70
     0
  3

 72
    65
 73
     0
 40
0.0
  0
LTYPE
  5
15
330
5
100
AcDbSymbolTableRecord
100
AcDbLinetypeTableRecord
  2
ByLayer
 70
     0
  3

 72
    65
 73
     0
 40
0.0
  0
LTYPE
  5
16
330
5
100
AcDbSymbolTableRecord
100
AcDbLinetypeTableRecord
  2
Continuous
 70
     0
  3
Solid line
 72
    65
 73
     0
 40
0.0
  0
ENDTAB
  0
TABLE
  2
LAYER
  5
2
330
0
100
AcDbSymbolTable
 70
     2
  0
LAYER
  5
10
330
2
100
AcDbSymbolTableRecord
100
AcDbLayerTableRecord
  2
0
 70
     0
 62
     7
  6
Continuous
370
    -3
390
F
347
3E
  0
LAYER
  5
40
330
2
100
AcDbSymbolTableRecord
100
AcDbLayerTableRecord
  2
_U+30EC_U+30A4_U+30E4_U+30FC 1
 70
     0
 62
     7
  6
Continuous
370
    -3
390
F
347
3E
  0
ENDTAB
  0
TABLE
  2
STYLE
  5
3
330
0
100
AcDbSymbolTable
 70
     1
  0
STYLE
  5
11
330
3
100
AcDbSymbolTableRecord
100
AcDbTextStyleTableRecord
  2
Standard
 70
     0
 40
0.0
 41
1.0
 50
0.0
 71
     0
 42
0.2
  3
txt
  4

  0
ENDTAB
  0
TABLE
  2
VIEW
  5
6
330
0
100
AcDbSymbolTable
 70
     0
  0
ENDTAB
  0
TABLE
  2
UCS
  5
7
330
0
100
AcDbSymbolTable
 70
     0
  0
ENDTAB
  0
TABLE
  2
APPID
  5
9
330
0
100
AcDbSymbolTable
 70
     1
  0
APPID
  5
12
330
9
100
AcDbSymbolTableRecord
100
AcDbRegAppTableRecord
  2
ACAD
 70
     0
  0
ENDTAB
  0
TABLE
  2
DIMSTYLE
  5
A
330
0
100
AcDbSymbolTable
 70
     1
100
AcDbDimStyleTable
  0
DIMSTYLE
105
27
330
A
100
AcDbSymbolTableRecord
100
AcDbDimStyleTableRecord
  2
Standard
 70
     0
178
     0
340
11
  0
ENDTAB
  0
TABLE
  2
BLOCK_RECORD
  5
1
330
0
100
AcDbSymbolTable
 70
     7
  0
BLOCK_RECORD
  5
1F
330
1
100
AcDbSymbolTableRecord
100
AcDbBlockTableRecord
  2
*Model_Space
340
22
 70
     0
280
     1
281
     0
  0
BLOCK_RECORD
  5
1B
330
1
100
AcDbSymbolTableRecord
100
AcDbBlockTableRecord
  2
*Paper_Space
340
1E
 70
     0
280
     1
281
     0
  0
BLOCK_RECORD
  5
23
330
1
100
AcDbSymbolTableRecord
100
AcDbBlockTableRecord
  2
*Paper_Space0
340
26
 70
     0
280
     1
281
     0
  0
BLOCK_RECORD
  5
51
330
1
100
AcDbSymbolTableRecord
100
AcDbBlockTableRecord
  2
block 2
340
0
102
{BLKREFS
331
52
102
}
 70
     0
280
     1
281
     0
  0
BLOCK_RECORD
  5
68
330
1
100
AcDbSymbolTableRecord
100
AcDbBlockTableRecord
  2
block 3
340
0
102
{BLKREFS
331
69
102
}
 70
     0
280
     1
281
     0
  0
BLOCK_RECORD
  5
7F
330
1
100
AcDbSymbolTableRecord
100
AcDbBlockTableRecord
  2
block 4
340
0
102
{BLKREFS
331
80
102
}
 70
     0
280
     1
281
     0
  0
BLOCK_RECORD
  5
95
330
1
100
AcDbSymbolTableRecord
100
AcDbBlockTableRecord
  2
block 5
340
0
102
{BLKREFS
331
96
102
}
 70
     0
280
     1
281
     0
  0
BLOCK_RECORD
  5
AA
330
1
100
AcDbSymbolTableRecord
100
AcDbBlockTableRecord
  2
block 6
340
0
102
{BLKREFS
331
AB
102
}
 70
     0
280
     1
281
     0
  0
BLOCK_RECORD
  5
BA
330
1
100
AcDbSymbolTableRecord
100
AcDbBlockTableRecord
  2
block 7
340
0
102
{BLKREFS
331
BB
102
}
 70
     0
280
     1
281
     0
  0
ENDTAB
  0
ENDSEC
  0
SECTION
  2
BLOCKS
  0
BLOCK
  5
20
330
1F
100
AcDbEntity
  8
0
100
AcDbBlockBegin
  2
*Model_Space
 70
     0
 10
0.0
 20
0.0
 30
0.0
  3
*Model_Space
  1

  0
ENDBLK
  5
21
330
1F
100
AcDbEntity
  8
0
100
AcDbBlockEnd
  0
BLOCK
  5
1C
330
1B
100
AcDbEntity
 67
     1
  8
0
100
AcDbBlockBegin
  2
*Paper_Space
 70
     0
 10
0.0
 20
0.0
 30
0.0
  3
*Paper_Space
  1

  0
ENDBLK
  5
1D
330
1B
100
AcDbEntity
 67
     1
  8
0
100
AcDbBlockEnd
  0
BLOCK
  5
24
330
23
100
AcDbEntity
  8
0
100
AcDbBlockBegin
  2
*Paper_Space0
 70
     0
 10
0.0
 20
0.0
 30
0.0
  3
*Paper_Space0
  1

  0
ENDBLK
  5
25
330
23
100
AcDbEntity
  8
0
100
AcDbBlockEnd
  0
BLOCK
  5
53
330
51
100
AcDbEntity
  8
0
100
AcDbBlockBegin
  2
block 2
 70
     0
 10
0.0
 20
0.0
 30
0.0
  3
block 2
  1

  0
SPLINE
  5
55
330
51
100
AcDbEntity
  8
_U+30EC_U+30A4_U+30E4_U+30FC 1
370
     0
100
AcDbSpline
210
0.0
220
0.0
230
1.0
 70
    11
 71
     3
 72
    26
 73
    22
 74
     0
 42
0.0000000001
 43
0.0000000001
 12
1.0
 22
0.0
 32
0.0
 13
1.0
 23
0.0
 33
0.0
 40
0.0
 40
0.0
 40
0.0
 40
0.0
 40
1.0
 40
1.0
 40
1.0
 40
2.0
 40
2.0
 40
2.0
 40
3.0
 40
3.0
 40
3.0
 40
4.0
 40
4.0
 40
4.0
 40
5.0
 40
5.0
 40
5.0
 40
6.0
 40
6.0
 40
6.0
 40
7.0
 40
7.0
 40
7.0
 40
7.0
 10
77.61145560125686
 20
-139.9883544571904
 30
0.0
 10
77.61145560125686
 20
-139.9883544571904
 30
0.0
 10
77.61145560125686
 20
-138.8842013541679
 30
0.0
 10
77.61145560125686
 20
-138.8842013541679
 30
0.0
 10
77.61145560125686
 20
-138.8842013541679
 30
0.0
 10
77.28141545376992
 20
-138.8842013541679
 30
0.0
 10
77.28141545376992
 20
-138.8842013541679
 30
0.0
 10
77.28141545376992
 20
-138.8842013541679
 30
0.0
 10
77.28141545376992
 20
-138.7360622483021
 30
0.0
 10
77.28141545376992
 20
-138.7360622483021
 30
0.0
 10
77.613522658548
 20
-138.7212483377155
 30
0.0
 10
77.66003144759888
 20
-138.5582953212632
 30
0.0
 10
77.68965926877203
 20
-138.4439181511529
 30
0.0
 10
77.68965926877203
 20
-138.4439181511529
 30
0.0
 10
77.83573131734663
 20
-138.4439181511529
 30
0.0
 10
77.83573131734663
 20
-138.4439181511529
 30
0.0
 10
77.83573131734663
 20
-138.4439181511529
 30
0.0
 10
77.83573131734663
 20
-139.9883544571904
 30
0.0
 10
77.83573131734663
 20
-139.9883544571904
 30
0.0
 10
77.83573131734663
 20
-139.9883544571904
 30
0.0
 10
77.61145560125686
 20
-139.9883544571904
 30
0.0
 10
77.61145560125686
 20
-139.9883544571904
 30
0.0
  0
HATCH
  5
56
330
51
100
AcDbEntity
  8
_U+30EC_U+30A4_U+30E4_U+30FC 1
 62
     7
420
 16777215
100
AcDbHatch
 10
0.0
 20
0.0
 30
0.0
210
0.0
220
0.0
230
1.0
  2
SOLID
 70
     1
 71
     0
 91
        1
 92
        1
 93
        1
 72
     4
 94
        3
 73
     0
 74
     1
 95
       26
 96
       22
 40
0.0
 40
0.0
 40
0.0
 40
0.0
 40
1.0
 40
1.0
 40
1.0
 40
2.0
 40
2.0
 40
2.0
 40
3.0
 40
3.0
 40
3.0
 40
4.0
 40
4.0
 40
4.0
 40
5.0
 40
5.0
 40
5.0
 40
6.0
 40
6.0
 40
6.0
 40
7.0
 40
7.0
 40
7.0
 40
7.0
 10
77.61145560125686
 20
-139.9883544571904
 10
77.61145560125686
 20
-139.9883544571904
 10
77.61145560125686
 20
-138.8842013541679
 10
77.61145560125686
 20
-138.8842013541679
 10
77.61145560125686
 20
-138.8842013541679
 10
77.28141545376992
 20
-138.8842013541679
 10
77.28141545376992
 20
-138.8842013541679
 10
77.28141545376992
 20
-138.8842013541679
 10
77.28141545376992
 20
-138.7360622483021
 10
77.28141545376992
 20
-138.7360622483021
 10
77.613522658548
 20
-138.7212483377155
 10
77.66003144759888
 20
-138.5582953212632
 10
77.68965926877203
 20
-138.4439181511529
 10
77.68965926877203
 20
-138.4439181511529
 10
77.83573131734663
 20
-138.4439181511529
 10
77.83573131734663
 20
-138.4439181511529
 10
77.83573131734663
 20
-138.4439181511529
 10
77.83573131734663
 20
-139.9883544571904
 10
77.83573131734663
 20
-139.9883544571904
 10
77.83573131734663
 20
-139.9883544571904
 10
77.61145560125686
 20
-139.9883544571904
 10
77.61145560125686
 20
-139.9883544571904
 97
        0
 97
        0
 75
     2
 76
     1
 98
        0
  0
SPLINE
  5
57
330
51
100
AcDbEntity
  8
_U+30EC_U+30A4_U+30E4_U+30FC 1
370
     0
100
AcDbSpline
210
0.0
220
0.0
230
1.0
 70
    11
 71
     3
 72
    44
 73
    40
 74
     0
 42
0.0000000001
 43
0.0000000001
 12
1.0
 22
0.0
 32
0.0
 13
1.0
 23
0.0
 33
0.0
 40
0.0
 40
0.0
 40
0.0
 40
0.0
 40
1.0
 40
1.0
 40
1.0
 40
2.0
 40
2.0
 40
2.0
 40
3.0
 40
3.0
 40
3.0
 40
4.0
 40
4.0
 40
4.0
 40
5.0
 40
5.0
 40
5.0
 40
6.0
 40
6.0
 40
6.0
 40
7.0
 40
7.0
 40
7.0
 40
8.0
 40
8.0
 40
8.0
 40
9.0
 40
9.0
 40
9.0
 40
10.0
 40
10.0
 40
10.0
 40
11.0
 40
11.0
 40
11.0
 40
12.0
 40
12.0
 40
12.0
 40
13.0
 40
13.0
 40
13.0
 40
13.0
 10
79.35105656653377
 20
-139.9883544571904
 30
0.0
 10
79.32762991723406
 20
-139.9439127254307
 30
0.0
 10
79.30661483477404
 20
-139.8912027645064
 30
0.0
 10
79.30437552270863
 20
-139.6603813669946
 30
0.0
 10
79.30024140812633
 20
-139.417157625736
 30
0.0
 10
79.24098576578004
 20
-139.3472221873854
 30
0.0
 10
79.06321883874115
 20
-139.3472221873854
 30
0.0
 10
79.06321883874115
 20
-139.3472221873854
 30
0.0
 10
78.65497502373904
 20
-139.3472221873854
 30
0.0
 10
78.65497502373904
 20
-139.3472221873854
 30
0.0
 10
78.65497502373904
 20
-139.3472221873854
 30
0.0
 10
78.65497502373904
 20
-139.9883544571904
 30
0.0
 10
78.65497502373904
 20
-139.9883544571904
 30
0.0
 10
78.65497502373904
 20
-139.9883544571904
 30
0.0
 10
78.42019176641926
 20
-139.9883544571904
 30
0.0
 10
78.42019176641926
 20
-139.9883544571904
 30
0.0
 10
78.42019176641926
 20
-139.9883544571904
 30
0.0
 10
78.42019176641926
 20
-138.4439181511529
 30
0.0
 10
78.42019176641926
 20
-138.4439181511529
 30
0.0
 10
78.42019176641926
 20
-138.4439181511529
 30
0.0
 10
79.09491371720544
 20
-138.4439181511529
 30
0.0
 10
79.09491371720544
 20
-138.4439181511529
 30
0.0
 10
79.40169947016695
 20
-138.4439181511529
 30
0.0
 10
79.56895885597582
 20
-138.6154839063184
 30
0.0
 10
79.56895885597582
 20
-138.8714545008724
 30
0.0
 10
79.56895885597582
 20
-138.9220974045056
 30
0.0
 10
79.5603461172627
 20
-139.0047796961516
 30
0.0
 10
79.51590438550298
 20
-139.0850504209579
 30
0.0
 10
79.45682099793093
 20
-139.1887477950639
 30
0.0
 10
79.39119192893693
 20
-139.2076958202328
 30
0.0
 10
79.32986922929948
 20
-139.2245767881105
 30
0.0
 10
79.46732853916095
 20
-139.2669514625791
 30
0.0
 10
79.5350246654461
 20
-139.3155273089211
 30
0.0
 10
79.53933103480267
 20
-139.6307535458215
 30
0.0
 10
79.54346514938497
 20
-139.9015380509621
 30
0.0
 10
79.57946639720583
 20
-139.9332329294264
 30
0.0
 10
79.64716252349099
 20
-139.9883544571904
 30
0.0
 10
79.64716252349099
 20
-139.9883544571904
 30
0.0
 10
79.35105656653377
 20
-139.9883544571904
 30
0.0
 10
79.35105656653377
 20
-139.9883544571904
 30
0.0
  0
SPLINE
  5
58
330
51
100
AcDbEntity
  8
_U+30EC_U+30A4_U+30E4_U+30FC 1
370
     0
100
AcDbSpline
210
0.0
220
0.0
230
1.0
 70
    11
 71
     3
 72
    20
 73
    16
 74
     0
 42
0.0000000001
 43
0.0000000001
 12
1.0
 22
0.0
 32
0.0
 13
1.0
 23
0.0
 33
0.0
 40
0.0
 40
0.0
 40
0.0
 40
0.0
 40
1.0
 40
1.0
 40
1.0
 40
2.0
 40
2.0
 40
2.0
 40
3.0
 40
3.0
 40
3.0
 40
4.0
 40
4.0
 40
4.0
 40
5.0
 40
5.0
 40
5.0
 40
5.0
 10
79.099220086562
 20
-138.6554470139473
 30
0.0
 10
79.099220086562
 20
-138.6554470139473
 30
0.0
 10
78.65497502373904
 20
-138.6554470139473
 30
0.0
 10
78.65497502373904
 20
-138.6554470139473
 30
0.0
 10
78.65497502373904
 20
-138.6554470139473
 30
0.0
 10
78.65497502373904
 20
-139.1356933245911
 30
0.0
 10
78.65497502373904
 20
-139.1356933245911
 30
0.0
 10
78.65497502373904
 20
-139.1356933245911
 30
0.0
 10
79.09715302927086
 20
-139.1356933245911
 30
0.0
 10
79.09715302927086
 20
-139.1356933245911
 30
0.0
 10
79.1965440340203
 20
-139.1356933245911
 30
0.0
 10
79.33193628659063
 20
-139.0595567143671
 30
0.0
 10
79.33193628659063
 20
-138.8883354687501
 30
0.0
 10
79.33193628659063
 20
-138.810131801235
 30
0.0
 10
79.29817435083518
 20
-138.6554470139473
 30
0.0
 10
79.099220086562
 20
-138.6554470139473
 30
0.0
  0
HATCH
  5
59
330
51
100
AcDbEntity
  8
_U+30EC_U+30A4_U+30E4_U+30FC 1
 62
     7
420
 16777215
100
AcDbHatch
 10
0.0
 20
0.0
 30
0.0
210
0.0
220
0.0
230
1.0
  2
SOLID
 70
     1
 71
     0
 91
        2
 92
        1
 93
        1
 72
     4
 94
        3
 73
     0
 74
     1
 95
       44
 96
       40
 40
0.0
 40
0.0
 40
0.0
 40
0.0
 40
1.0
 40
1.0
 40
1.0
 40
2.0
 40
2.0
 40
2.0
 40
3.0
 40
3.0
 40
3.0
 40
4.0
 40
4.0
 40
4.0
 40
5.0
 40
5.0
 40
5.0
 40
6.0
 40
6.0
 40
6.0
 40
7.0
 40
7.0
 40
7.0
 40
8.0
 40
8.0
 40
8.0
 40
9.0
 40
9.0
 40
9.0
 40
10.0
 40
10.0
 40
10.0
 40
11.0
 40
11.0
 40
11.0
 40
12.0
 40
12.0
 40
12.0
 40
13.0
 40
13.0
 40
13.0
 40
13.0
 10
79.35105656653377
 20
-139.9883544571904
 10
79.32762991723406
 20
-139.9439127254307
 10
79.30661483477404
 20
-139.8912027645064
 10
79.30437552270863
 20
-139.6603813669946
 10
79.30024140812633
 20
-139.417157625736
 10
79.24098576578004
 20
-139.3472221873854
 10
79.06321883874115
 20
-139.3472221873854
 10
79.06321883874115
 20
-139.3472221873854
 10
78.65497502373904
 20
-139.3472221873854
 10
78.65497502373904
 20
-139.3472221873854
 10
78.65497502373904
 20
-139.3472221873854
 10
78.65497502373904
 20
-139.9883544571904
 10
78.65497502373904
 20
-139.9883544571904
 10
78.65497502373904
 20
-139.9883544571904
 10
78.42019176641926
 20
-139.9883544571904
 10
78.42019176641926
 20
-139.9883544571904
 10
78.42019176641926
 20
-139.9883544571904
 10
78.42019176641926
 20
-138.4439181511529
 10
78.42019176641926
 20
-138.4439181511529
 10
78.42019176641926
 20
-138.4439181511529
 10
79.09491371720544
 20
-138.4439181511529
 10
79.09491371720544
 20
-138.4439181511529
 10
79.40169947016695
 20
-138.4439181511529
 10
79.56895885597582
 20
-138.6154839063184
 10
79.56895885597582
 20
-138.8714545008724
 10
79.56895885597582
 20
-138.9220974045056
 10
79.5603461172627
 20
-139.0047796961516
 10
79.51590438550298
 20
-139.0850504209579
 10
79.45682099793093
 20
-139.1887477950639
 10
79.39119192893693
 20
-139.2076958202328
 10
79.32986922929948
 20
-139.2245767881105
 10
79.46732853916095
 20
-139.2669514625791
 10
79.5350246654461
 20
-139.3155273089211
 10
79.53933103480267
 20
-139.6307535458215
 10
79.54346514938497
 20
-139.9015380509621
 10
79.57946639720583
 20
-139.9332329294264
 10
79.64716252349099
 20
-139.9883544571904
 10
79.64716252349099
 20
-139.9883544571904
 10
79.35105656653377
 20
-139.9883544571904
 10
79.35105656653377
 20
-139.9883544571904
 97
        0
 97
        0
 92
        1
 93
        1
 72
     4
 94
        3
 73
     0
 74
     1
 95
       20
 96
       16
 40
0.0
 40
0.0
 40
0.0
 40
0.0
 40
1.0
 40
1.0
 40
1.0
 40
2.0
 40
2.0
 40
2.0
 40
3.0
 40
3.0
 40
3.0
 40
4.0
 40
4.0
 40
4.0
 40
5.0
 40
5.0
 40
5.0
 40
5.0
 10
79.099220086562
 20
-138.6554470139473
 10
79.099220086562
 20
-138.6554470139473
 10
78.65497502373904
 20
-138.6554470139473
 10
78.65497502373904
 20
-138.6554470139473
 10
78.65497502373904
 20
-138.6554470139473
 10
78.65497502373904
 20
-139.1356933245911
 10
78.65497502373904
 20
-139.1356933245911
 10
78.65497502373904
 20
-139.1356933245911
 10
79.09715302927086
 20
-139.1356933245911
 10
79.09715302927086
 20
-139.1356933245911
 10
79.1965440340203
 20
-139.1356933245911
 10
79.33193628659063
 20
-139.0595567143671
 10
79.33193628659063
 20
-138.8883354687501
 10
79.33193628659063
 20
-138.810131801235
 10
79.29817435083518
 20
-138.6554470139473
 10
79.099220086562
 20
-138.6554470139473
 97
        0
 97
        0
 75
     2
 76
     1
 98
        0
  0
ENDBLK
  5
54
330
51
100
AcDbEntity
  8
0
100
AcDbBlockEnd
  0
BLOCK
  5
6A
330
68
100
AcDbEntity
  8
0
100
AcDbBlockBegin
  2
block 3
 70
     0
 10
0.0
 20
0.0
 30
0.0
  3
block 3
  1

  0
SPLINE
  5
6C
330
68
100
AcDbEntity
  8
_U+30EC_U+30A4_U+30E4_U+30FC 1
370
     0
100
AcDbSpline
210
0.0
220
0.0
230
1.0
 70
    11
 71
     3
 72
    44
 73
    40
 74
     0
 42
0.0000000001
 43
0.0000000001
 12
1.0
 22
0.0
 32
0.0
 13
1.0
 23
0.0
 33
0.0
 40
0.0
 40
0.0
 40
0.0
 40
0.0
 40
1.0
 40
1.0
 40
1.0
 40
2.0
 40
2.0
 40
2.0
 40
3.0
 40
3.0
 40
3.0
 40
4.0
 40
4.0
 40
4.0
 40
5.0
 40
5.0
 40
5.0
 40
6.0
 40
6.0
 40
6.0
 40
7.0
 40
7.0
 40
7.0
 40
8.0
 40
8.0
 40
8.0
 40
9.0
 40
9.0
 40
9.0
 40
10.0
 40
10.0
 40
10.0
 40
11.0
 40
11.0
 40
11.0
 40
12.0
 40
12.0
 40
12.0
 40
13.0
 40
13.0
 40
13.0
 40
13.0
 10
94.99712996757016
 20
-116.8521267068981
 30
0.0
 10
94.77939993290238
 20
-117.0107733539938
 30
0.0
 10
94.68638235480063
 20
-117.0848429069267
 30
0.0
 10
94.63746199891008
 20
-117.2285033886616
 30
0.0
 10
94.63746199891008
 20
-117.2285033886616
 30
0.0
 10
95.41605357857655
 20
-117.2285033886616
 30
0.0
 10
95.41605357857655
 20
-117.2285033886616
 30
0.0
 10
95.41605357857655
 20
-117.2285033886616
 30
0.0
 10
95.41605357857655
 20
-117.4338310795825
 30
0.0
 10
95.41605357857655
 20
-117.4338310795825
 30
0.0
 10
95.41605357857655
 20
-117.4338310795825
 30
0.0
 10
94.388037085778
 20
-117.4338310795825
 30
0.0
 10
94.388037085778
 20
-117.4338310795825
 30
0.0
 10
94.41973196424229
 20
-117.0762301682136
 30
0.0
 10
94.48518877846205
 20
-116.9980265006984
 30
0.0
 10
94.87035045371297
 20
-116.6996812316758
 30
0.0
 10
95.12632104826703
 20
-116.5008992221769
 30
0.0
 10
95.19177786248679
 20
-116.4332030958917
 30
0.0
 10
95.19177786248679
 20
-116.2957437860302
 30
0.0
 10
95.19177786248679
 20
-116.1772325013376
 30
0.0
 10
95.11977536684506
 20
-116.0461466181239
 30
0.0
 10
94.92306041463729
 20
-116.0461466181239
 30
0.0
 10
94.66295570550093
 20
-116.0461466181239
 30
0.0
 10
94.65434296678781
 20
-116.2766235060871
 30
0.0
 10
94.65020885220551
 20
-116.3930677334886
 30
0.0
 10
94.65020885220551
 20
-116.3930677334886
 30
0.0
 10
94.42593313611575
 20
-116.3930677334886
 30
0.0
 10
94.42593313611575
 20
-116.3930677334886
 30
0.0
 10
94.43454587482887
 20
-116.2661159648571
 30
0.0
 10
94.44522567083314
 20
-116.1539781068122
 30
0.0
 10
94.52549639563946
 20
-116.0354668221196
 30
0.0
 10
94.63539494161893
 20
-115.8747531177327
 30
0.0
 10
94.82177460737095
 20
-115.840818927203
 30
0.0
 10
94.93787432522387
 20
-115.840818927203
 30
0.0
 10
95.21520451178648
 20
-115.840818927203
 30
0.0
 10
95.42259925999852
 20
-116.0249592808896
 30
0.0
 10
95.42259925999852
 20
-116.2978108433214
 30
0.0
 10
95.42259925999852
 20
-116.5262206739934
 30
0.0
 10
95.30615503259708
 20
-116.6257839335172
 30
0.0
 10
94.99712996757016
 20
-116.8521267068981
 30
0.0
  0
HATCH
  5
6D
330
68
100
AcDbEntity
  8
_U+30EC_U+30A4_U+30E4_U+30FC 1
 62
     7
420
 16777215
100
AcDbHatch
 10
0.0
 20
0.0
 30
0.0
210
0.0
220
0.0
230
1.0
  2
SOLID
 70
     1
 71
     0
 91
        1
 92
        1
 93
        1
 72
     4
 94
        3
 73
     0
 74
     1
 95
       44
 96
       40
 40
0.0
 40
0.0
 40
0.0
 40
0.0
 40
1.0
 40
1.0
 40
1.0
 40
2.0
 40
2.0
 40
2.0
 40
3.0
 40
3.0
 40
3.0
 40
4.0
 40
4.0
 40
4.0
 40
5.0
 40
5.0
 40
5.0
 40
6.0
 40
6.0
 40
6.0
 40
7.0
 40
7.0
 40
7.0
 40
8.0
 40
8.0
 40
8.0
 40
9.0
 40
9.0
 40
9.0
 40
10.0
 40
10.0
 40
10.0
 40
11.0
 40
11.0
 40
11.0
 40
12.0
 40
12.0
 40
12.0
 40
13.0
 40
13.0
 40
13.0
 40
13.0
 10
94.99712996757016
 20
-116.8521267068981
 10
94.77939993290238
 20
-117.0107733539938
 10
94.68638235480063
 20
-117.0848429069267
 10
94.63746199891008
 20
-117.2285033886616
 10
94.63746199891008
 20
-117.2285033886616
 10
95.41605357857655
 20
-117.2285033886616
 10
95.41605357857655
 20
-117.2285033886616
 10
95.41605357857655
 20
-117.2285033886616
 10
95.41605357857655
 20
-117.4338310795825
 10
95.41605357857655
 20
-117.4338310795825
 10
95.41605357857655
 20
-117.4338310795825
 10
94.388037085778
 20
-117.4338310795825
 10
94.388037085778
 20
-117.4338310795825
 10
94.41973196424229
 20
-117.0762301682136
 10
94.48518877846205
 20
-116.9980265006984
 10
94.87035045371297
 20
-116.6996812316758
 10
95.12632104826703
 20
-116.5008992221769
 10
95.19177786248679
 20
-116.4332030958917
 10
95.19177786248679
 20
-116.2957437860302
 10
95.19177786248679
 20
-116.1772325013376
 10
95.11977536684506
 20
-116.0461466181239
 10
94.92306041463729
 20
-116.0461466181239
 10
94.66295570550093
 20
-116.0461466181239
 10
94.65434296678781
 20
-116.2766235060871
 10
94.65020885220551
 20
-116.3930677334886
 10
94.65020885220551
 20
-116.3930677334886
 10
94.42593313611575
 20
-116.3930677334886
 10
94.42593313611575
 20
-116.3930677334886
 10
94.43454587482887
 20
-116.2661159648571
 10
94.44522567083314
 20
-116.1539781068122
 10
94.52549639563946
 20
-116.0354668221196
 10
94.63539494161893
 20
-115.8747531177327
 10
94.82177460737095
 20
-115.840818927203
 10
94.93787432522387
 20
-115.840818927203
 10
95.21520451178648
 20
-115.840818927203
 10
95.42259925999852
 20
-116.0249592808896
 10
95.42259925999852
 20
-116.2978108433214
 10
95.42259925999852
 20
-116.5262206739934
 10
95.30615503259708
 20
-116.6257839335172
 10
94.99712996757016
 20
-116.8521267068981
 97
        0
 97
        0
 75
     2
 76
     1
 98
        0
  0
SPLINE
  5
6E
330
68
100
AcDbEntity
  8
_U+30EC_U+30A4_U+30E4_U+30FC 1
370
     0
100
AcDbSpline
210
0.0
220
0.0
230
1.0
 70
    11
 71
     3
 72
    29
 73
    25
 74
     0
 42
0.0000000001
 43
0.0000000001
 12
1.0
 22
0.0
 32
0.0
 13
1.0
 23
0.0
 33
0.0
 40
0.0
 40
0.0
 40
0.0
 40
0.0
 40
1.0
 40
1.0
 40
1.0
 40
2.0
 40
2.0
 40
2.0
 40
3.0
 40
3.0
 40
3.0
 40
4.0
 40
4.0
 40
4.0
 40
5.0
 40
5.0
 40
5.0
 40
6.0
 40
6.0
 40
6.0
 40
7.0
 40
7.0
 40
7.0
 40
8.0
 40
8.0
 40
8.0
 40
8.0
 10
96.47886553577612
 20
-117.2560641525436
 30
0.0
 10
96.37068953753928
 20
-117.4655259580468
 30
0.0
 10
96.19740123463122
 20
-117.4844739832157
 30
0.0
 10
96.08095700722977
 20
-117.4844739832157
 30
0.0
 10
95.92007104806859
 20
-117.4844739832157
 30
0.0
 10
95.77847762362482
 20
-117.4379651941648
 30
0.0
 10
95.68339298823193
 20
-117.2560641525436
 30
0.0
 10
95.57969561412591
 20
-117.061416257627
 30
0.0
 10
95.56040307940852
 20
-116.8245659430161
 30
0.0
 10
95.56040307940852
 20
-116.6616129265638
 30
0.0
 10
95.56040307940852
 20
-116.5177801900546
 30
0.0
 10
95.57762855683477
 20
-116.2661159648571
 30
0.0
 10
95.68339298823193
 20
-116.0671617005839
 30
0.0
 10
95.79122447692025
 20
-115.8640733217284
 30
0.0
 10
95.95211043608143
 20
-115.840818927203
 30
0.0
 10
96.08095700722977
 20
-115.840818927203
 30
0.0
 10
96.23977590909978
 20
-115.840818927203
 30
0.0
 10
96.3834363908347
 20
-115.8852606589627
 30
0.0
 10
96.47886553577612
 20
-116.0671617005839
 30
0.0
 10
96.57808428575132
 20
-116.2597425382094
 30
0.0
 10
96.60151093505101
 20
-116.4881523688814
 30
0.0
 10
96.60151093505101
 20
-116.6616129265638
 30
0.0
 10
96.60151093505101
 20
-116.833006426955
 30
0.0
 10
96.58015134304247
 20
-117.0636555696924
 30
0.0
 10
96.47886553577612
 20
-117.2560641525436
 30
0.0
  0
SPLINE
  5
6F
330
68
100
AcDbEntity
  8
_U+30EC_U+30A4_U+30E4_U+30FC 1
370
     0
100
AcDbSpline
210
0.0
220
0.0
230
1.0
 70
    11
 71
     3
 72
    17
 73
    13
 74
     0
 42
0.0000000001
 43
0.0000000001
 12
1.0
 22
0.0
 32
0.0
 13
1.0
 23
0.0
 33
0.0
 40
0.0
 40
0.0
 40
0.0
 40
0.0
 40
1.0
 40
1.0
 40
1.0
 40
2.0
 40
2.0
 40
2.0
 40
3.0
 40
3.0
 40
3.0
 40
4.0
 40
4.0
 40
4.0
 40
4.0
 10
96.08095700722977
 20
-116.0333997648285
 30
0.0
 10
95.83118758454916
 20
-116.0333997648285
 30
0.0
 10
95.78467879549828
 20
-116.3169311232645
 30
0.0
 10
95.78467879549828
 20
-116.6616129265638
 30
0.0
 10
95.78467879549828
 20
-116.9811455328207
 30
0.0
 10
95.8208522980934
 20
-117.2898260882991
 30
0.0
 10
96.08095700722977
 20
-117.2898260882991
 30
0.0
 10
96.32865937261923
 20
-117.2898260882991
 30
0.0
 10
96.37723521896125
 20
-117.0085340419284
 30
0.0
 10
96.37723521896125
 20
-116.6616129265638
 30
0.0
 10
96.37723521896125
 20
-116.3422525750811
 30
0.0
 10
96.33899465907498
 20
-116.0333997648285
 30
0.0
 10
96.08095700722977
 20
-116.0333997648285
 30
0.0
  0
HATCH
  5
70
330
68
100
AcDbEntity
  8
_U+30EC_U+30A4_U+30E4_U+30FC 1
 62
     7
420
 16777215
100
AcDbHatch
 10
0.0
 20
0.0
 30
0.0
210
0.0
220
0.0
230
1.0
  2
SOLID
 70
     1
 71
     0
 91
        2
 92
        1
 93
        1
 72
     4
 94
        3
 73
     0
 74
     1
 95
       29
 96
       25
 40
0.0
 40
0.0
 40
0.0
 40
0.0
 40
1.0
 40
1.0
 40
1.0
 40
2.0
 40
2.0
 40
2.0
 40
3.0
 40
3.0
 40
3.0
 40
4.0
 40
4.0
 40
4.0
 40
5.0
 40
5.0
 40
5.0
 40
6.0
 40
6.0
 40
6.0
 40
7.0
 40
7.0
 40
7.0
 40
8.0
 40
8.0
 40
8.0
 40
8.0
 10
96.47886553577612
 20
-117.2560641525436
 10
96.37068953753928
 20
-117.4655259580468
 10
96.19740123463122
 20
-117.4844739832157
 10
96.08095700722977
 20
-117.4844739832157
 10
95.92007104806859
 20
-117.4844739832157
 10
95.77847762362482
 20
-117.4379651941648
 10
95.68339298823193
 20
-117.2560641525436
 10
95.57969561412591
 20
-117.061416257627
 10
95.56040307940852
 20
-116.8245659430161
 10
95.56040307940852
 20
-116.6616129265638
 10
95.56040307940852
 20
-116.5177801900546
 10
95.57762855683477
 20
-116.2661159648571
 10
95.68339298823193
 20
-116.0671617005839
 10
95.79122447692025
 20
-115.8640733217284
 10
95.95211043608143
 20
-115.840818927203
 10
96.08095700722977
 20
-115.840818927203
 10
96.23977590909978
 20
-115.840818927203
 10
96.3834363908347
 20
-115.8852606589627
 10
96.47886553577612
 20
-116.0671617005839
 10
96.57808428575132
 20
-116.2597425382094
 10
96.60151093505101
 20
-116.4881523688814
 10
96.60151093505101
 20
-116.6616129265638
 10
96.60151093505101
 20
-116.833006426955
 10
96.58015134304247
 20
-117.0636555696924
 10
96.47886553577612
 20
-117.2560641525436
 97
        0
 97
        0
 92
        1
 93
        1
 72
     4
 94
        3
 73
     0
 74
     1
 95
       17
 96
       13
 40
0.0
 40
0.0
 40
0.0
 40
0.0
 40
1.0
 40
1.0
 40
1.0
 40
2.0
 40
2.0
 40
2.0
 40
3.0
 40
3.0
 40
3.0
 40
4.0
 40
4.0
 40
4.0
 40
4.0
 10
96.08095700722977
 20
-116.0333997648285
 10
95.83118758454916
 20
-116.0333997648285
 10
95.78467879549828
 20
-116.3169311232645
 10
95.78467879549828
 20
-116.6616129265638
 10
95.78467879549828
 20
-116.9811455328207
 10
95.8208522980934
 20
-117.2898260882991
 10
96.08095700722977
 20
-117.2898260882991
 10
96.32865937261923
 20
-117.2898260882991
 10
96.37723521896125
 20
-117.0085340419284
 10
96.37723521896125
 20
-116.6616129265638
 10
96.37723521896125
 20
-116.3422525750811
 10
96.33899465907498
 20
-116.0333997648285
 10
96.08095700722977
 20
-116.0333997648285
 97
        0
 97
        0
 75
     2
 76
     1
 98
        0
  0
ENDBLK
  5
6B
330
68
100
AcDbEntity
  8
0
100
AcDbBlockEnd
  0
BLOCK
  5
81
330
7F
100
AcDbEntity
  8
0
100
AcDbBlockBegin
  2
block 4
 70
     0
 10
0.0
 20
0.0
 30
0.0
  3
block 4
  1

  0
SPLINE
  5
83
330
7F
100
AcDbEntity
  8
_U+30EC_U+30A4_U+30E4_U+30FC 1
370
     0
100
AcDbSpline
210
0.0
220
0.0
230
1.0
 70
    11
 71
     3
 72
    29
 73
    25
 74
     0
 42
0.0000000001
 43
0.0000000001
 12
1.0
 22
0.0
 32
0.0
 13
1.0
 23
0.0
 33
0.0
 40
0.0
 40
0.0
 40
0.0
 40
0.0
 40
1.0
 40
1.0
 40
1.0
 40
2.0
 40
2.0
 40
2.0
 40
3.0
 40
3.0
 40
3.0
 40
4.0
 40
4.0
 40
4.0
 40
5.0
 40
5.0
 40
5.0
 40
6.0
 40
6.0
 40
6.0
 40
7.0
 40
7.0
 40
7.0
 40
8.0
 40
8.0
 40
8.0
 40
8.0
 10
102.5949435507402
 20
-132.6950873149165
 30
0.0
 10
102.5949435507402
 20
-132.9617377054749
 30
0.0
 10
102.4578287504272
 20
-133.2156412427378
 30
0.0
 10
102.1084960682229
 20
-133.2156412427378
 30
0.0
 10
101.8528699832173
 20
-133.2156412427378
 30
0.0
 10
101.7577853478245
 20
-133.0737033087455
 30
0.0
 10
101.696462648187
 20
-132.9679388773483
 30
0.0
 10
101.6372070058407
 20
-133.0926513339143
 30
0.0
 10
101.5228298357304
 20
-133.1687879441384
 30
0.0
 10
101.3615993670207
 20
-133.1687879441384
 30
0.0
 10
101.0866807472978
 20
-133.1687879441384
 30
0.0
 10
100.951633004276
 20
-132.9700059346395
 30
0.0
 10
100.951633004276
 20
-132.6950873149165
 30
0.0
 10
100.951633004276
 20
-132.4115559564804
 30
0.0
 10
101.0956379955594
 20
-132.2210421761461
 30
0.0
 10
101.3615993670207
 20
-132.2210421761461
 30
0.0
 10
101.5228298357304
 20
-132.2210421761461
 30
0.0
 10
101.6372070058407
 20
-132.2995903532098
 30
0.0
 10
101.696462648187
 20
-132.4243028097759
 30
0.0
 10
101.7467610422716
 20
-132.3354193462564
 30
0.0
 10
101.8418456776645
 20
-132.1766004443864
 30
0.0
 10
102.1043619536406
 20
-132.1766004443864
 30
0.0
 10
102.4791883424358
 20
-132.1766004443864
 30
0.0
 10
102.5949435507402
 20
-132.4559976882402
 30
0.0
 10
102.5949435507402
 20
-132.6950873149165
 30
0.0
  0
SPLINE
  5
84
330
7F
100
AcDbEntity
  8
_U+30EC_U+30A4_U+30E4_U+30FC 1
370
     0
100
AcDbSpline
210
0.0
220
0.0
230
1.0
 70
    11
 71
     3
 72
    17
 73
    13
 74
     0
 42
0.0000000001
 43
0.0000000001
 12
1.0
 22
0.0
 32
0.0
 13
1.0
 23
0.0
 33
0.0
 40
0.0
 40
0.0
 40
0.0
 40
0.0
 40
1.0
 40
1.0
 40
1.0
 40
2.0
 40
2.0
 40
2.0
 40
3.0
 40
3.0
 40
3.0
 40
4.0
 40
4.0
 40
4.0
 40
4.0
 10
101.1438693323529
 20
-132.6950873149165
 30
0.0
 10
101.1438693323529
 20
-132.86010738866
 30
0.0
 10
101.2389539677458
 20
-132.9448567375971
 30
0.0
 10
101.3746907298647
 20
-132.9448567375971
 30
0.0
 10
101.4973361291396
 20
-132.9448567375971
 30
0.0
 10
101.6158474138322
 20
-132.8728542419554
 30
0.0
 10
101.6158474138322
 20
-132.6950873149165
 30
0.0
 10
101.6158474138322
 20
-132.5173203878776
 30
0.0
 10
101.4973361291396
 20
-132.4453178922359
 30
0.0
 10
101.3746907298647
 20
-132.4453178922359
 30
0.0
 10
101.2389539677458
 20
-132.4453178922359
 30
0.0
 10
101.1438693323529
 20
-132.5321342984642
 30
0.0
 10
101.1438693323529
 20
-132.6950873149165
 30
0.0
  0
SPLINE
  5
85
330
7F
100
AcDbEntity
  8
_U+30EC_U+30A4_U+30E4_U+30FC 1
370
     0
100
AcDbSpline
210
0.0
220
0.0
230
1.0
 70
    11
 71
     3
 72
    17
 73
    13
 74
     0
 42
0.0000000001
 43
0.0000000001
 12
1.0
 22
0.0
 32
0.0
 13
1.0
 23
0.0
 33
0.0
 40
0.0
 40
0.0
 40
0.0
 40
0.0
 40
1.0
 40
1.0
 40
1.0
 40
2.0
 40
2.0
 40
2.0
 40
3.0
 40
3.0
 40
3.0
 40
4.0
 40
4.0
 40
4.0
 40
4.0
 10
101.8039496273268
 20
-132.6950873149165
 30
0.0
 10
101.8039496273268
 20
-132.8387477966514
 30
0.0
 10
101.8907660335551
 20
-132.991365526648
 30
0.0
 10
102.0940266671848
 20
-132.991365526648
 30
0.0
 10
102.2993543581057
 20
-132.991365526648
 30
0.0
 10
102.4006401653721
 20
-132.8642415032423
 30
0.0
 10
102.4006401653721
 20
-132.6950873149165
 30
0.0
 10
102.4006401653721
 20
-132.509052158713
 30
0.0
 10
102.2779947660972
 20
-132.398809103185
 30
0.0
 10
102.1002278390583
 20
-132.398809103185
 30
0.0
 10
101.8783636898082
 20
-132.398809103185
 30
0.0
 10
101.8039496273268
 20
-132.5617621196373
 30
0.0
 10
101.8039496273268
 20
-132.6950873149165
 30
0.0
  0
HATCH
  5
86
330
7F
100
AcDbEntity
  8
_U+30EC_U+30A4_U+30E4_U+30FC 1
 62
   179
420
  2234388
100
AcDbHatch
 10
0.0
 20
0.0
 30
0.0
210
0.0
220
0.0
230
1.0
  2
SOLID
 70
     1
 71
     0
 91
        3
 92
        1
 93
        1
 72
     4
 94
        3
 73
     0
 74
     1
 95
       29
 96
       25
 40
0.0
 40
0.0
 40
0.0
 40
0.0
 40
1.0
 40
1.0
 40
1.0
 40
2.0
 40
2.0
 40
2.0
 40
3.0
 40
3.0
 40
3.0
 40
4.0
 40
4.0
 40
4.0
 40
5.0
 40
5.0
 40
5.0
 40
6.0
 40
6.0
 40
6.0
 40
7.0
 40
7.0
 40
7.0
 40
8.0
 40
8.0
 40
8.0
 40
8.0
 10
102.5949435507402
 20
-132.6950873149165
 10
102.5949435507402
 20
-132.9617377054749
 10
102.4578287504272
 20
-133.2156412427378
 10
102.1084960682229
 20
-133.2156412427378
 10
101.8528699832173
 20
-133.2156412427378
 10
101.7577853478245
 20
-133.0737033087455
 10
101.696462648187
 20
-132.9679388773483
 10
101.6372070058407
 20
-133.0926513339143
 10
101.5228298357304
 20
-133.1687879441384
 10
101.3615993670207
 20
-133.1687879441384
 10
101.0866807472978
 20
-133.1687879441384
 10
100.951633004276
 20
-132.9700059346395
 10
100.951633004276
 20
-132.6950873149165
 10
100.951633004276
 20
-132.4115559564804
 10
101.0956379955594
 20
-132.2210421761461
 10
101.3615993670207
 20
-132.2210421761461
 10
101.5228298357304
 20
-132.2210421761461
 10
101.6372070058407
 20
-132.2995903532098
 10
101.696462648187
 20
-132.4243028097759
 10
101.7467610422716
 20
-132.3354193462564
 10
101.8418456776645
 20
-132.1766004443864
 10
102.1043619536406
 20
-132.1766004443864
 10
102.4791883424358
 20
-132.1766004443864
 10
102.5949435507402
 20
-132.4559976882402
 10
102.5949435507402
 20
-132.6950873149165
 97
        0
 97
        0
 92
        1
 93
        1
 72
     4
 94
        3
 73
     0
 74
     1
 95
       17
 96
       13
 40
0.0
 40
0.0
 40
0.0
 40
0.0
 40
1.0
 40
1.0
 40
1.0
 40
2.0
 40
2.0
 40
2.0
 40
3.0
 40
3.0
 40
3.0
 40
4.0
 40
4.0
 40
4.0
 40
4.0
 10
101.1438693323529
 20
-132.6950873149165
 10
101.1438693323529
 20
-132.86010738866
 10
101.2389539677458
 20
-132.9448567375971
 10
101.3746907298647
 20
-132.9448567375971
 10
101.4973361291396
 20
-132.9448567375971
 10
101.6158474138322
 20
-132.8728542419554
 10
101.6158474138322
 20
-132.6950873149165
 10
101.6158474138322
 20
-132.5173203878776
 10
101.4973361291396
 20
-132.4453178922359
 10
101.3746907298647
 20
-132.4453178922359
 10
101.2389539677458
 20
-132.4453178922359
 10
101.1438693323529
 20
-132.5321342984642
 10
101.1438693323529
 20
-132.6950873149165
 97
        0
 97
        0
 92
        1
 93
        1
 72
     4
 94
        3
 73
     0
 74
     1
 95
       17
 96
       13
 40
0.0
 40
0.0
 40
0.0
 40
0.0
 40
1.0
 40
1.0
 40
1.0
 40
2.0
 40
2.0
 40
2.0
 40
3.0
 40
3.0
 40
3.0
 40
4.0
 40
4.0
 40
4.0
 40
4.0
 10
101.8039496273268
 20
-132.6950873149165
 10
101.8039496273268
 20
-132.8387477966514
 10
101.8907660335551
 20
-132.991365526648
 10
102.0940266671848
 20
-132.991365526648
 10
102.2993543581057
 20
-132.991365526648
 10
102.4006401653721
 20
-132.8642415032423
 10
102.4006401653721
 20
-132.6950873149165
 10
102.4006401653721
 20
-132.509052158713
 10
102.2779947660972
 20
-132.398809103185
 10
102.1002278390583
 20
-132.398809103185
 10
101.8783636898082
 20
-132.398809103185
 10
101.8039496273268
 20
-132.5617621196373
 10
101.8039496273268
 20
-132.6950873149165
 97
        0
 97
        0
 75
     2
 76
     1
 98
        0
  0
POLYLINE
  5
87
330
7F
100
AcDbEntity
  8
_U+30EC_U+30A4_U+30E4_U+30FC 1
370
     0
100
AcDb2dPolyline
 66
     1
 10
0.0
 20
0.0
 30
0.0
  0
VERTEX
  5
88
330
87
100
AcDbEntity
  8
_U+30EC_U+30A4_U+30E4_U+30FC 1
370
     0
100
AcDbVertex
100
AcDb2dVertex
 10
102.5446451566555
 20
-131.9581813906216
 30
0.0
  0
VERTEX
  5
89
330
87
100
AcDbEntity
  8
_U+30EC_U+30A4_U+30E4_U+30FC 1
370
     0
100
AcDbVertex
100
AcDb2dVertex
 10
102.2924641671352
 20
-131.9581813906216
 30
0.0
  0
VERTEX
  5
8A
330
87
100
AcDbEntity
  8
_U+30EC_U+30A4_U+30E4_U+30FC 1
370
     0
100
AcDbVertex
100
AcDb2dVertex
 10
102.2924641671352
 20
-131.7063449106498
 30
0.0
  0
VERTEX
  5
8B
330
87
100
AcDbEntity
  8
_U+30EC_U+30A4_U+30E4_U+30FC 1
370
     0
100
AcDbVertex
100
AcDb2dVertex
 10
102.5446451566555
 20
-131.7063449106498
 30
0.0
  0
VERTEX
  5
8C
330
87
100
AcDbEntity
  8
_U+30EC_U+30A4_U+30E4_U+30FC 1
370
     0
100
AcDbVertex
100
AcDb2dVertex
 10
102.5446451566555
 20
-131.9581813906216
 30
0.0
  0
SEQEND
  5
8D
330
87
100
AcDbEntity
  8
_U+30EC_U+30A4_U+30E4_U+30FC 1
370
     0
  0
HATCH
  5
8E
330
7F
100
AcDbEntity
  8
_U+30EC_U+30A4_U+30E4_U+30FC 1
 62
   179
420
  2234388
100
AcDbHatch
 10
0.0
 20
0.0
 30
0.0
210
0.0
220
0.0
230
1.0
  2
SOLID
 70
     1
 71
     0
 91
        1
 92
        1
 93
        4
 72
     1
 10
102.5446451566555
 20
-131.9581813906216
 11
102.2924641671352
 21
-131.9581813906216
 72
     1
 10
102.2924641671352
 20
-131.9581813906216
 11
102.2924641671352
 21
-131.7063449106498
 72
     1
 10
102.2924641671352
 20
-131.7063449106498
 11
102.5446451566555
 21
-131.7063449106498
 72
     1
 10
102.5446451566555
 20
-131.7063449106498
 11
102.5446451566555
 21
-131.9581813906216
 97
        0
 75
     2
 76
     1
 98
        0
  0
SPLINE
  5
8F
330
7F
100
AcDbEntity
  8
_U+30EC_U+30A4_U+30E4_U+30FC 1
370
     0
100
AcDbSpline
210
0.0
220
0.0
230
1.0
 70
    11
 71
     3
 72
    53
 73
    49
 74
     0
 42
0.0000000001
 43
0.0000000001
 12
1.0
 22
0.0
 32
0.0
 13
1.0
 23
0.0
 33
0.0
 40
0.0
 40
0.0
 40
0.0
 40
0.0
 40
1.0
 40
1.0
 40
1.0
 40
2.0
 40
2.0
 40
2.0
 40
3.0
 40
3.0
 40
3.0
 40
4.0
 40
4.0
 40
4.0
 40
5.0
 40
5.0
 40
5.0
 40
6.0
 40
6.0
 40
6.0
 40
7.0
 40
7.0
 40
7.0
 40
8.0
 40
8.0
 40
8.0
 40
9.0
 40
9.0
 40
9.0
 40
10.0
 40
10.0
 40
10.0
 40
11.0
 40
11.0
 40
11.0
 40
12.0
 40
12.0
 40
12.0
 40
13.0
 40
13.0
 40
13.0
 40
14.0
 40
14.0
 40
14.0
 40
15.0
 40
15.0
 40
15.0
 40
16.0
 40
16.0
 40
16.0
 40
16.0
 10
102.5949435507402
 20
-130.9890760306208
 30
0.0
 10
102.5949435507402
 20
-131.067279698136
 30
0.0
 10
102.578407092411
 20
-131.1689100149508
 30
0.0
 10
102.5150173354824
 20
-131.2705403317657
 30
0.0
 10
102.4047742799544
 20
-131.4438286346738
 30
0.0
 10
102.2738606515149
 20
-131.4651882266823
 30
0.0
 10
102.165684653278
 20
-131.4841362518512
 30
0.0
 10
102.165684653278
 20
-131.4841362518512
 30
0.0
 10
102.165684653278
 20
-131.2619275930526
 30
0.0
 10
102.165684653278
 20
-131.2619275930526
 30
0.0
 10
102.3648111723255
 20
-131.2071505748371
 30
0.0
 10
102.3944389934986
 20
-131.0800265514314
 30
0.0
 10
102.3944389934986
 20
-130.9870089733296
 30
0.0
 10
102.3944389934986
 20
-130.847482606177
 30
0.0
 10
102.2945312244264
 20
-130.695209385729
 30
0.0
 10
102.0623317887205
 20
-130.695209385729
 30
0.0
 10
101.8060166846179
 20
-130.695209385729
 30
0.0
 10
101.7364257558159
 20
-130.875043370059
 30
0.0
 10
101.7364257558159
 20
-130.9956217120428
 30
0.0
 10
101.7364257558159
 20
-131.0273165905071
 30
0.0
 10
101.7364257558159
 20
-131.1689100149508
 30
0.0
 10
101.8652723269642
 20
-131.2577934784703
 30
0.0
 10
101.8652723269642
 20
-131.2577934784703
 30
0.0
 10
101.8466688113439
 20
-131.433493348218
 30
0.0
 10
101.8466688113439
 20
-131.433493348218
 30
0.0
 10
101.8466688113439
 20
-131.433493348218
 30
0.0
 10
100.9998643410695
 20
-131.3129150062343
 30
0.0
 10
100.9998643410695
 20
-131.3129150062343
 30
0.0
 10
100.9998643410695
 20
-131.3129150062343
 30
0.0
 10
100.9998643410695
 20
-130.5343234265678
 30
0.0
 10
100.9998643410695
 20
-130.5343234265678
 30
0.0
 10
100.9998643410695
 20
-130.5343234265678
 30
0.0
 10
101.1948567455346
 20
-130.5343234265678
 30
0.0
 10
101.1948567455346
 20
-130.5343234265678
 30
0.0
 10
101.1948567455346
 20
-130.5343234265678
 30
0.0
 10
101.1948567455346
 20
-131.149961989782
 30
0.0
 10
101.1948567455346
 20
-131.149961989782
 30
0.0
 10
101.1948567455346
 20
-131.149961989782
 30
0.0
 10
101.6179144711233
 20
-131.2154188040017
 30
0.0
 10
101.6179144711233
 20
-131.2154188040017
 30
0.0
 10
101.5841525353678
 20
-131.1540961043643
 30
0.0
 10
101.5435004086419
 20
-131.0717583222668
 30
0.0
 10
101.5435004086419
 20
-130.9532470375742
 30
0.0
 10
101.5435004086419
 20
-130.6993435003113
 30
0.0
 10
101.7302245839424
 20
-130.4623209309261
 30
0.0
 10
102.0430392540031
 20
-130.4623209309261
 30
0.0
 10
102.3606770577432
 20
-130.4623209309261
 30
0.0
 10
102.5949435507402
 20
-130.6865966470158
 30
0.0
 10
102.5949435507402
 20
-130.9890760306208
 30
0.0
  0
HATCH
  5
90
330
7F
100
AcDbEntity
  8
_U+30EC_U+30A4_U+30E4_U+30FC 1
 62
   179
420
  2234388
100
AcDbHatch
 10
0.0
 20
0.0
 30
0.0
210
0.0
220
0.0
230
1.0
  2
SOLID
 70
     1
 71
     0
 91
        1
 92
        1
 93
        1
 72
     4
 94
        3
 73
     0
 74
     1
 95
       53
 96
       49
 40
0.0
 40
0.0
 40
0.0
 40
0.0
 40
1.0
 40
1.0
 40
1.0
 40
2.0
 40
2.0
 40
2.0
 40
3.0
 40
3.0
 40
3.0
 40
4.0
 40
4.0
 40
4.0
 40
5.0
 40
5.0
 40
5.0
 40
6.0
 40
6.0
 40
6.0
 40
7.0
 40
7.0
 40
7.0
 40
8.0
 40
8.0
 40
8.0
 40
9.0
 40
9.0
 40
9.0
 40
10.0
 40
10.0
 40
10.0
 40
11.0
 40
11.0
 40
11.0
 40
12.0
 40
12.0
 40
12.0
 40
13.0
 40
13.0
 40
13.0
 40
14.0
 40
14.0
 40
14.0
 40
15.0
 40
15.0
 40
15.0
 40
16.0
 40
16.0
 40
16.0
 40
16.0
 10
102.5949435507402
 20
-130.9890760306208
 10
102.5949435507402
 20
-131.067279698136
 10
102.578407092411
 20
-131.1689100149508
 10
102.5150173354824
 20
-131.2705403317657
 10
102.4047742799544
 20
-131.4438286346738
 10
102.2738606515149
 20
-131.4651882266823
 10
102.165684653278
 20
-131.4841362518512
 10
102.165684653278
 20
-131.4841362518512
 10
102.165684653278
 20
-131.2619275930526
 10
102.165684653278
 20
-131.2619275930526
 10
102.3648111723255
 20
-131.2071505748371
 10
102.3944389934986
 20
-131.0800265514314
 10
102.3944389934986
 20
-130.9870089733296
 10
102.3944389934986
 20
-130.847482606177
 10
102.2945312244264
 20
-130.695209385729
 10
102.0623317887205
 20
-130.695209385729
 10
101.8060166846179
 20
-130.695209385729
 10
101.7364257558159
 20
-130.875043370059
 10
101.7364257558159
 20
-130.9956217120428
 10
101.7364257558159
 20
-131.0273165905071
 10
101.7364257558159
 20
-131.1689100149508
 10
101.8652723269642
 20
-131.2577934784703
 10
101.8652723269642
 20
-131.2577934784703
 10
101.8466688113439
 20
-131.433493348218
 10
101.8466688113439
 20
-131.433493348218
 10
101.8466688113439
 20
-131.433493348218
 10
100.9998643410695
 20
-131.3129150062343
 10
100.9998643410695
 20
-131.3129150062343
 10
100.9998643410695
 20
-131.3129150062343
 10
100.9998643410695
 20
-130.5343234265678
 10
100.9998643410695
 20
-130.5343234265678
 10
100.9998643410695
 20
-130.5343234265678
 10
101.1948567455346
 20
-130.5343234265678
 10
101.1948567455346
 20
-130.5343234265678
 10
101.1948567455346
 20
-130.5343234265678
 10
101.1948567455346
 20
-131.149961989782
 10
101.1948567455346
 20
-131.149961989782
 10
101.1948567455346
 20
-131.149961989782
 10
101.6179144711233
 20
-131.2154188040017
 10
101.6179144711233
 20
-131.2154188040017
 10
101.5841525353678
 20
-131.1540961043643
 10
101.5435004086419
 20
-131.0717583222668
 10
101.5435004086419
 20
-130.9532470375742
 10
101.5435004086419
 20
-130.6993435003113
 10
101.7302245839424
 20
-130.4623209309261
 10
102.0430392540031
 20
-130.4623209309261
 10
102.3606770577432
 20
-130.4623209309261
 10
102.5949435507402
 20
-130.6865966470158
 10
102.5949435507402
 20
-130.9890760306208
 97
        0
 97
        0
 75
     2
 76
     1
 98
        0
  0
ENDBLK
  5
82
330
7F
100
AcDbEntity
  8
0
100
AcDbBlockEnd
  0
BLOCK
  5
97
330
95
100
AcDbEntity
  8
0
100
AcDbBlockBegin
  2
block 5
 70
     0
 10
0.0
 20
0.0
 30
0.0
  3
block 5
  1

  0
SPLINE
  5
99
330
95
100
AcDbEntity
  8
_U+30EC_U+30A4_U+30E4_U+30FC 1
370
     0
100
AcDbSpline
210
0.0
220
0.0
230
1.0
 70
    11
 71
     3
 72
    26
 73
    22
 74
     0
 42
0.0000000001
 43
0.0000000001
 12
1.0
 22
0.0
 32
0.0
 13
1.0
 23
0.0
 33
0.0
 40
0.0
 40
0.0
 40
0.0
 40
0.0
 40
1.0
 40
1.0
 40
1.0
 40
2.0
 40
2.0
 40
2.0
 40
3.0
 40
3.0
 40
3.0
 40
4.0
 40
4.0
 40
4.0
 40
5.0
 40
5.0
 40
5.0
 40
6.0
 40
6.0
 40
6.0
 40
7.0
 40
7.0
 40
7.0
 40
7.0
 10
87.43755694428644
 20
-123.9355875341203
 30
0.0
 10
87.43755694428644
 20
-123.9355875341203
 30
0.0
 10
87.43755694428644
 20
-122.8312621763234
 30
0.0
 10
87.43755694428644
 20
-122.8312621763234
 30
0.0
 10
87.43755694428644
 20
-122.8312621763234
 30
0.0
 10
87.10751679679952
 20
-122.8312621763234
 30
0.0
 10
87.10751679679952
 20
-122.8312621763234
 30
0.0
 10
87.10751679679952
 20
-122.8312621763234
 30
0.0
 10
87.10751679679952
 20
-122.683295325232
 30
0.0
 10
87.10751679679952
 20
-122.683295325232
 30
0.0
 10
87.4396240015776
 20
-122.6684814146454
 30
0.0
 10
87.48613279062847
 20
-122.5055283981931
 30
0.0
 10
87.51576061180162
 20
-122.391323482857
 30
0.0
 10
87.51576061180162
 20
-122.391323482857
 30
0.0
 10
87.6618326603762
 20
-122.391323482857
 30
0.0
 10
87.6618326603762
 20
-122.391323482857
 30
0.0
 10
87.6618326603762
 20
-122.391323482857
 30
0.0
 10
87.6618326603762
 20
-123.9355875341203
 30
0.0
 10
87.6618326603762
 20
-123.9355875341203
 30
0.0
 10
87.6618326603762
 20
-123.9355875341203
 30
0.0
 10
87.43755694428644
 20
-123.9355875341203
 30
0.0
 10
87.43755694428644
 20
-123.9355875341203
 30
0.0
  0
HATCH
  5
9A
330
95
100
AcDbEntity
  8
_U+30EC_U+30A4_U+30E4_U+30FC 1
 62
     7
420
 16777215
100
AcDbHatch
 10
0.0
 20
0.0
 30
0.0
210
0.0
220
0.0
230
1.0
  2
SOLID
 70
     1
 71
     0
 91
        1
 92
        1
 93
        1
 72
     4
 94
        3
 73
     0
 74
     1
 95
       26
 96
       22
 40
0.0
 40
0.0
 40
0.0
 40
0.0
 40
1.0
 40
1.0
 40
1.0
 40
2.0
 40
2.0
 40
2.0
 40
3.0
 40
3.0
 40
3.0
 40
4.0
 40
4.0
 40
4.0
 40
5.0
 40
5.0
 40
5.0
 40
6.0
 40
6.0
 40
6.0
 40
7.0
 40
7.0
 40
7.0
 40
7.0
 10
87.43755694428644
 20
-123.9355875341203
 10
87.43755694428644
 20
-123.9355875341203
 10
87.43755694428644
 20
-122.8312621763234
 10
87.43755694428644
 20
-122.8312621763234
 10
87.43755694428644
 20
-122.8312621763234
 10
87.10751679679952
 20
-122.8312621763234
 10
87.10751679679952
 20
-122.8312621763234
 10
87.10751679679952
 20
-122.8312621763234
 10
87.10751679679952
 20
-122.683295325232
 10
87.10751679679952
 20
-122.683295325232
 10
87.4396240015776
 20
-122.6684814146454
 10
87.48613279062847
 20
-122.5055283981931
 10
87.51576061180162
 20
-122.391323482857
 10
87.51576061180162
 20
-122.391323482857
 10
87.6618326603762
 20
-122.391323482857
 10
87.6618326603762
 20
-122.391323482857
 10
87.6618326603762
 20
-122.391323482857
 10
87.6618326603762
 20
-123.9355875341203
 10
87.6618326603762
 20
-123.9355875341203
 10
87.6618326603762
 20
-123.9355875341203
 10
87.43755694428644
 20
-123.9355875341203
 10
87.43755694428644
 20
-123.9355875341203
 97
        0
 97
        0
 75
     2
 76
     1
 98
        0
  0
ENDBLK
  5
98
330
95
100
AcDbEntity
  8
0
100
AcDbBlockEnd
  0
BLOCK
  5
AC
330
AA
100
AcDbEntity
  8
0
100
AcDbBlockBegin
  2
block 6
 70
     0
 10
0.0
 20
0.0
 30
0.0
  3
block 6
  1

  0
SPLINE
  5
AE
330
AA
100
AcDbEntity
  8
_U+30EC_U+30A4_U+30E4_U+30FC 1
370
     0
100
AcDbSpline
210
0.0
220
0.0
230
1.0
 70
    11
 71
     3
 72
    26
 73
    22
 74
     0
 42
0.0000000001
 43
0.0000000001
 12
1.0
 22
0.0
 32
0.0
 13
1.0
 23
0.0
 33
0.0
 40
0.0
 40
0.0
 40
0.0
 40
0.0
 40
1.0
 40
1.0
 40
1.0
 40
2.0
 40
2.0
 40
2.0
 40
3.0
 40
3.0
 40
3.0
 40
4.0
 40
4.0
 40
4.0
 40
5.0
 40
5.0
 40
5.0
 40
6.0
 40
6.0
 40
6.0
 40
7.0
 40
7.0
 40
7.0
 40
7.0
 10
92.01229923914971
 20
-140.5392252252819
 30
0.0
 10
92.01229923914971
 20
-140.5392252252819
 30
0.0
 10
92.01229923914971
 20
-139.4347276127108
 30
0.0
 10
92.01229923914971
 20
-139.4347276127108
 30
0.0
 10
92.01229923914971
 20
-139.4347276127108
 30
0.0
 10
91.68225909166277
 20
-139.4347276127108
 30
0.0
 10
91.68225909166277
 20
-139.4347276127108
 30
0.0
 10
91.68225909166277
 20
-139.4347276127108
 30
0.0
 10
91.68225909166277
 20
-139.286588506845
 30
0.0
 10
91.68225909166277
 20
-139.286588506845
 30
0.0
 10
92.01436629644085
 20
-139.272119105807
 30
0.0
 10
92.06087508549173
 20
-139.1088215798061
 30
0.0
 10
92.09050290666488
 20
-138.9944444096958
 30
0.0
 10
92.09050290666488
 20
-138.9944444096958
 30
0.0
 10
92.23657495523948
 20
-138.9944444096958
 30
0.0
 10
92.23657495523948
 20
-138.9944444096958
 30
0.0
 10
92.23657495523948
 20
-138.9944444096958
 30
0.0
 10
92.23657495523948
 20
-140.5392252252819
 30
0.0
 10
92.23657495523948
 20
-140.5392252252819
 30
0.0
 10
92.23657495523948
 20
-140.5392252252819
 30
0.0
 10
92.01229923914971
 20
-140.5392252252819
 30
0.0
 10
92.01229923914971
 20
-140.5392252252819
 30
0.0
  0
HATCH
  5
AF
330
AA
100
AcDbEntity
  8
_U+30EC_U+30A4_U+30E4_U+30FC 1
 62
   179
420
  2234388
100
AcDbHatch
 10
0.0
 20
0.0
 30
0.0
210
0.0
220
0.0
230
1.0
  2
SOLID
 70
     1
 71
     0
 91
        1
 92
        1
 93
        1
 72
     4
 94
        3
 73
     0
 74
     1
 95
       26
 96
       22
 40
0.0
 40
0.0
 40
0.0
 40
0.0
 40
1.0
 40
1.0
 40
1.0
 40
2.0
 40
2.0
 40
2.0
 40
3.0
 40
3.0
 40
3.0
 40
4.0
 40
4.0
 40
4.0
 40
5.0
 40
5.0
 40
5.0
 40
6.0
 40
6.0
 40
6.0
 40
7.0
 40
7.0
 40
7.0
 40
7.0
 10
92.01229923914971
 20
-140.5392252252819
 10
92.01229923914971
 20
-140.5392252252819
 10
92.01229923914971
 20
-139.4347276127108
 10
92.01229923914971
 20
-139.4347276127108
 10
92.01229923914971
 20
-139.4347276127108
 10
91.68225909166277
 20
-139.4347276127108
 10
91.68225909166277
 20
-139.4347276127108
 10
91.68225909166277
 20
-139.4347276127108
 10
91.68225909166277
 20
-139.286588506845
 10
91.68225909166277
 20
-139.286588506845
 10
92.01436629644085
 20
-139.272119105807
 10
92.06087508549173
 20
-139.1088215798061
 10
92.09050290666488
 20
-138.9944444096958
 10
92.09050290666488
 20
-138.9944444096958
 10
92.23657495523948
 20
-138.9944444096958
 10
92.23657495523948
 20
-138.9944444096958
 10
92.23657495523948
 20
-138.9944444096958
 10
92.23657495523948
 20
-140.5392252252819
 10
92.23657495523948
 20
-140.5392252252819
 10
92.23657495523948
 20
-140.5392252252819
 10
92.01229923914971
 20
-140.5392252252819
 10
92.01229923914971
 20
-140.5392252252819
 97
        0
 97
        0
 75
     2
 76
     1
 98
        0
  0
SPLINE
  5
B0
330
AA
100
AcDbEntity
  8
_U+30EC_U+30A4_U+30E4_U+30FC 1
370
     0
100
AcDbSpline
210
0.0
220
0.0
230
1.0
 70
    11
 71
     3
 72
    53
 73
    49
 74
     0
 42
0.0000000001
 43
0.0000000001
 12
1.0
 22
0.0
 32
0.0
 13
1.0
 23
0.0
 33
0.0
 40
0.0
 40
0.0
 40
0.0
 40
0.0
 40
1.0
 40
1.0
 40
1.0
 40
2.0
 40
2.0
 40
2.0
 40
3.0
 40
3.0
 40
3.0
 40
4.0
 40
4.0
 40
4.0
 40
5.0
 40
5.0
 40
5.0
 40
6.0
 40
6.0
 40
6.0
 40
7.0
 40
7.0
 40
7.0
 40
8.0
 40
8.0
 40
8.0
 40
9.0
 40
9.0
 40
9.0
 40
10.0
 40
10.0
 40
10.0
 40
11.0
 40
11.0
 40
11.0
 40
12.0
 40
12.0
 40
12.0
 40
13.0
 40
13.0
 40
13.0
 40
14.0
 40
14.0
 40
14.0
 40
15.0
 40
15.0
 40
15.0
 40
16.0
 40
16.0
 40
16.0
 40
16.0
 10
93.2187716780842
 20
-140.5895236193665
 30
0.0
 10
93.14056801056903
 20
-140.5895236193665
 30
0.0
 10
93.03893769375416
 20
-140.5729871610373
 30
0.0
 10
92.93730737693929
 20
-140.5095974041087
 30
0.0
 10
92.76401907403122
 20
-140.3993543485807
 30
0.0
 10
92.74265948202267
 20
-140.2684407201412
 30
0.0
 10
92.72371145685379
 20
-140.1602647219044
 30
0.0
 10
92.72371145685379
 20
-140.1602647219044
 30
0.0
 10
92.94592011565241
 20
-140.1602647219044
 30
0.0
 10
92.94592011565241
 20
-140.1602647219044
 30
0.0
 10
93.00069713386789
 20
-140.3593912409518
 30
0.0
 10
93.1278211572736
 20
-140.389019062125
 30
0.0
 10
93.22083873537535
 20
-140.389019062125
 30
0.0
 10
93.36036510252796
 20
-140.389019062125
 30
0.0
 10
93.51263832297602
 20
-140.2891112930527
 30
0.0
 10
93.51263832297602
 20
-140.0569118573469
 30
0.0
 10
93.51263832297602
 20
-139.8005967532443
 30
0.0
 10
93.33280433864597
 20
-139.7310058244423
 30
0.0
 10
93.21222599666223
 20
-139.7310058244423
 30
0.0
 10
93.18053111819793
 20
-139.7310058244423
 30
0.0
 10
93.03893769375416
 20
-139.7310058244423
 30
0.0
 10
92.95005423023471
 20
-139.8598523955906
 30
0.0
 10
92.95005423023471
 20
-139.8598523955906
 30
0.0
 10
92.77435436048697
 20
-139.8412488799702
 30
0.0
 10
92.77435436048697
 20
-139.8412488799702
 30
0.0
 10
92.77435436048697
 20
-139.8412488799702
 30
0.0
 10
92.89493270247071
 20
-138.9944444096958
 30
0.0
 10
92.89493270247071
 20
-138.9944444096958
 30
0.0
 10
92.89493270247071
 20
-138.9944444096958
 30
0.0
 10
93.67352428213718
 20
-138.9944444096958
 30
0.0
 10
93.67352428213718
 20
-138.9944444096958
 30
0.0
 10
93.67352428213718
 20
-138.9944444096958
 30
0.0
 10
93.67352428213718
 20
-139.189436814161
 30
0.0
 10
93.67352428213718
 20
-139.189436814161
 30
0.0
 10
93.67352428213718
 20
-139.189436814161
 30
0.0
 10
93.05788571892303
 20
-139.189436814161
 30
0.0
 10
93.05788571892303
 20
-139.189436814161
 30
0.0
 10
93.05788571892303
 20
-139.189436814161
 30
0.0
 10
92.99242890470329
 20
-139.6124945397497
 30
0.0
 10
92.99242890470329
 20
-139.6124945397497
 30
0.0
 10
93.05375160434073
 20
-139.5787326039942
 30
0.0
 10
93.1360893864382
 20
-139.5380804772683
 30
0.0
 10
93.2546006711308
 20
-139.5380804772683
 30
0.0
 10
93.50850420839372
 20
-139.5380804772683
 30
0.0
 10
93.7455267777789
 20
-139.7248046525688
 30
0.0
 10
93.7455267777789
 20
-140.0376193226295
 30
0.0
 10
93.7455267777789
 20
-140.3552571263695
 30
0.0
 10
93.52125106168914
 20
-140.5895236193665
 30
0.0
 10
93.2187716780842
 20
-140.5895236193665
 30
0.0
  0
HATCH
  5
B1
330
AA
100
AcDbEntity
  8
_U+30EC_U+30A4_U+30E4_U+30FC 1
 62
   179
420
  2234388
100
AcDbHatch
 10
0.0
 20
0.0
 30
0.0
210
0.0
220
0.0
230
1.0
  2
SOLID
 70
     1
 71
     0
 91
        1
 92
        1
 93
        1
 72
     4
 94
        3
 73
     0
 74
     1
 95
       53
 96
       49
 40
0.0
 40
0.0
 40
0.0
 40
0.0
 40
1.0
 40
1.0
 40
1.0
 40
2.0
 40
2.0
 40
2.0
 40
3.0
 40
3.0
 40
3.0
 40
4.0
 40
4.0
 40
4.0
 40
5.0
 40
5.0
 40
5.0
 40
6.0
 40
6.0
 40
6.0
 40
7.0
 40
7.0
 40
7.0
 40
8.0
 40
8.0
 40
8.0
 40
9.0
 40
9.0
 40
9.0
 40
10.0
 40
10.0
 40
10.0
 40
11.0
 40
11.0
 40
11.0
 40
12.0
 40
12.0
 40
12.0
 40
13.0
 40
13.0
 40
13.0
 40
14.0
 40
14.0
 40
14.0
 40
15.0
 40
15.0
 40
15.0
 40
16.0
 40
16.0
 40
16.0
 40
16.0
 10
93.2187716780842
 20
-140.5895236193665
 10
93.14056801056903
 20
-140.5895236193665
 10
93.03893769375416
 20
-140.5729871610373
 10
92.93730737693929
 20
-140.5095974041087
 10
92.76401907403122
 20
-140.3993543485807
 10
92.74265948202267
 20
-140.2684407201412
 10
92.72371145685379
 20
-140.1602647219044
 10
92.72371145685379
 20
-140.1602647219044
 10
92.94592011565241
 20
-140.1602647219044
 10
92.94592011565241
 20
-140.1602647219044
 10
93.00069713386789
 20
-140.3593912409518
 10
93.1278211572736
 20
-140.389019062125
 10
93.22083873537535
 20
-140.389019062125
 10
93.36036510252796
 20
-140.389019062125
 10
93.51263832297602
 20
-140.2891112930527
 10
93.51263832297602
 20
-140.0569118573469
 10
93.51263832297602
 20
-139.8005967532443
 10
93.33280433864597
 20
-139.7310058244423
 10
93.21222599666223
 20
-139.7310058244423
 10
93.18053111819793
 20
-139.7310058244423
 10
93.03893769375416
 20
-139.7310058244423
 10
92.95005423023471
 20
-139.8598523955906
 10
92.95005423023471
 20
-139.8598523955906
 10
92.77435436048697
 20
-139.8412488799702
 10
92.77435436048697
 20
-139.8412488799702
 10
92.77435436048697
 20
-139.8412488799702
 10
92.89493270247071
 20
-138.9944444096958
 10
92.89493270247071
 20
-138.9944444096958
 10
92.89493270247071
 20
-138.9944444096958
 10
93.67352428213718
 20
-138.9944444096958
 10
93.67352428213718
 20
-138.9944444096958
 10
93.67352428213718
 20
-138.9944444096958
 10
93.67352428213718
 20
-139.189436814161
 10
93.67352428213718
 20
-139.189436814161
 10
93.67352428213718
 20
-139.189436814161
 10
93.05788571892303
 20
-139.189436814161
 10
93.05788571892303
 20
-139.189436814161
 10
93.05788571892303
 20
-139.189436814161
 10
92.99242890470329
 20
-139.6124945397497
 10
92.99242890470329
 20
-139.6124945397497
 10
93.05375160434073
 20
-139.5787326039942
 10
93.1360893864382
 20
-139.5380804772683
 10
93.2546006711308
 20
-139.5380804772683
 10
93.50850420839372
 20
-139.5380804772683
 10
93.7455267777789
 20
-139.7248046525688
 10
93.7455267777789
 20
-140.0376193226295
 10
93.7455267777789
 20
-140.3552571263695
 10
93.52125106168914
 20
-140.5895236193665
 10
93.2187716780842
 20
-140.5895236193665
 97
        0
 97
        0
 75
     2
 76
     1
 98
        0
  0
ENDBLK
  5
AD
330
AA
100
AcDbEntity
  8
0
100
AcDbBlockEnd
  0
BLOCK
  5
BC
330
BA
100
AcDbEntity
  8
0
100
AcDbBlockBegin
  2
block 7
 70
     0
 10
0.0
 20
0.0
 30
0.0
  3
block 7
  1

  0
SPLINE
  5
BE
330
BA
100
AcDbEntity
  8
_U+30EC_U+30A4_U+30E4_U+30FC 1
370
     0
100
AcDbSpline
210
0.0
220
0.0
230
1.0
 70
    11
 71
     3
 72
    26
 73
    22
 74
     0
 42
0.0000000001
 43
0.0000000001
 12
1.0
 22
0.0
 32
0.0
 13
1.0
 23
0.0
 33
0.0
 40
0.0
 40
0.0
 40
0.0
 40
0.0
 40
1.0
 40
1.0
 40
1.0
 40
2.0
 40
2.0
 40
2.0
 40
3.0
 40
3.0
 40
3.0
 40
4.0
 40
4.0
 40
4.0
 40
5.0
 40
5.0
 40
5.0
 40
6.0
 40
6.0
 40
6.0
 40
7.0
 40
7.0
 40
7.0
 40
7.0
 10
80.3988823583725
 20
-130.4034097981283
 30
0.0
 10
80.3988823583725
 20
-130.4034097981283
 30
0.0
 10
79.29455700057567
 20
-130.4034097981283
 30
0.0
 10
79.29455700057567
 20
-130.4034097981283
 30
0.0
 10
79.29455700057567
 20
-130.4034097981283
 30
0.0
 10
79.29455700057567
 20
-130.7334499456153
 30
0.0
 10
79.29455700057567
 20
-130.7334499456153
 30
0.0
 10
79.29455700057567
 20
-130.7334499456153
 30
0.0
 10
79.14659014948418
 20
-130.7334499456153
 30
0.0
 10
79.14659014948418
 20
-130.7334499456153
 30
0.0
 10
79.13177623889761
 20
-130.4013427408372
 30
0.0
 10
78.9688232224453
 20
-130.3548339517863
 30
0.0
 10
78.85461830710926
 20
-130.3252061306131
 30
0.0
 10
78.85461830710926
 20
-130.3252061306131
 30
0.0
 10
78.85461830710926
 20
-130.1791340820386
 30
0.0
 10
78.85461830710926
 20
-130.1791340820386
 30
0.0
 10
78.85461830710926
 20
-130.1791340820386
 30
0.0
 10
80.3988823583725
 20
-130.1791340820386
 30
0.0
 10
80.3988823583725
 20
-130.1791340820386
 30
0.0
 10
80.3988823583725
 20
-130.1791340820386
 30
0.0
 10
80.3988823583725
 20
-130.4034097981283
 30
0.0
 10
80.3988823583725
 20
-130.4034097981283
 30
0.0
  0
HATCH
  5
BF
330
BA
100
AcDbEntity
  8
_U+30EC_U+30A4_U+30E4_U+30FC 1
 62
   179
420
  2234388
100
AcDbHatch
 10
0.0
 20
0.0
 30
0.0
210
0.0
220
0.0
230
1.0
  2
SOLID
 70
     1
 71
     0
 91
        1
 92
        1
 93
        1
 72
     4
 94
        3
 73
     0
 74
     1
 95
       26
 96
       22
 40
0.0
 40
0.0
 40
0.0
 40
0.0
 40
1.0
 40
1.0
 40
1.0
 40
2.0
 40
2.0
 40
2.0
 40
3.0
 40
3.0
 40
3.0
 40
4.0
 40
4.0
 40
4.0
 40
5.0
 40
5.0
 40
5.0
 40
6.0
 40
6.0
 40
6.0
 40
7.0
 40
7.0
 40
7.0
 40
7.0
 10
80.3988823583725
 20
-130.4034097981283
 10
80.3988823583725
 20
-130.4034097981283
 10
79.29455700057567
 20
-130.4034097981283
 10
79.29455700057567
 20
-130.4034097981283
 10
79.29455700057567
 20
-130.4034097981283
 10
79.29455700057567
 20
-130.7334499456153
 10
79.29455700057567
 20
-130.7334499456153
 10
79.29455700057567
 20
-130.7334499456153
 10
79.14659014948418
 20
-130.7334499456153
 10
79.14659014948418
 20
-130.7334499456153
 10
79.13177623889761
 20
-130.4013427408372
 10
78.9688232224453
 20
-130.3548339517863
 10
78.85461830710926
 20
-130.3252061306131
 10
78.85461830710926
 20
-130.3252061306131
 10
78.85461830710926
 20
-130.1791340820386
 10
78.85461830710926
 20
-130.1791340820386
 10
78.85461830710926
 20
-130.1791340820386
 10
80.3988823583725
 20
-130.1791340820386
 10
80.3988823583725
 20
-130.1791340820386
 10
80.3988823583725
 20
-130.1791340820386
 10
80.3988823583725
 20
-130.4034097981283
 10
80.3988823583725
 20
-130.4034097981283
 97
        0
 97
        0
 75
     2
 76
     1
 98
        0
  0
SPLINE
  5
C0
330
BA
100
AcDbEntity
  8
_U+30EC_U+30A4_U+30E4_U+30FC 1
370
     0
100
AcDbSpline
210
0.0
220
0.0
230
1.0
 70
    11
 71
     3
 72
    53
 73
    49
 74
     0
 42
0.0000000001
 43
0.0000000001
 12
1.0
 22
0.0
 32
0.0
 13
1.0
 23
0.0
 33
0.0
 40
0.0
 40
0.0
 40
0.0
 40
0.0
 40
1.0
 40
1.0
 40
1.0
 40
2.0
 40
2.0
 40
2.0
 40
3.0
 40
3.0
 40
3.0
 40
4.0
 40
4.0
 40
4.0
 40
5.0
 40
5.0
 40
5.0
 40
6.0
 40
6.0
 40
6.0
 40
7.0
 40
7.0
 40
7.0
 40
8.0
 40
8.0
 40
8.0
 40
9.0
 40
9.0
 40
9.0
 40
10.0
 40
10.0
 40
10.0
 40
11.0
 40
11.0
 40
11.0
 40
12.0
 40
12.0
 40
12.0
 40
13.0
 40
13.0
 40
13.0
 40
14.0
 40
14.0
 40
14.0
 40
15.0
 40
15.0
 40
15.0
 40
16.0
 40
16.0
 40
16.0
 40
16.0
 10
80.44969751677993
 20
-129.1969373591938
 30
0.0
 10
80.44969751677993
 20
-129.275141026709
 30
0.0
 10
80.43264429412795
 20
-129.3767713435239
 30
0.0
 10
80.36925453719935
 20
-129.4784016603387
 30
0.0
 10
80.25918373644562
 20
-129.6520344727953
 30
0.0
 10
80.12809785323186
 20
-129.6730495552553
 30
0.0
 10
80.02026636454355
 20
-129.6919975804242
 30
0.0
 10
80.02026636454355
 20
-129.6919975804242
 30
0.0
 10
80.02026636454355
 20
-129.4701334311741
 30
0.0
 10
80.02026636454355
 20
-129.4701334311741
 30
0.0
 10
80.21904837404246
 20
-129.4150119034101
 30
0.0
 10
80.24867619521561
 20
-129.2878878800044
 30
0.0
 10
80.24867619521561
 20
-129.1948703019027
 30
0.0
 10
80.24867619521561
 20
-129.0553439347501
 30
0.0
 10
80.14928519046616
 20
-128.903070714302
 30
0.0
 10
79.91656899043753
 20
-128.903070714302
 30
0.0
 10
79.66059839588347
 20
-128.903070714302
 30
0.0
 10
79.59083521230716
 20
-129.0829046986321
 30
0.0
 10
79.59083521230716
 20
-129.2034830406158
 30
0.0
 10
79.59083521230716
 20
-129.2351779190801
 30
0.0
 10
79.59083521230716
 20
-129.3767713435239
 30
0.0
 10
79.71985403822977
 20
-129.4656548070433
 30
0.0
 10
79.71985403822977
 20
-129.4656548070433
 30
0.0
 10
79.70073375828663
 20
-129.6410101672425
 30
0.0
 10
79.70073375828663
 20
-129.6410101672425
 30
0.0
 10
79.70073375828663
 20
-129.6410101672425
 30
0.0
 10
78.85461830710926
 20
-129.5204318252588
 30
0.0
 10
78.85461830710926
 20
-129.5204318252588
 30
0.0
 10
78.85461830710926
 20
-129.5204318252588
 30
0.0
 10
78.85461830710926
 20
-128.7421847551408
 30
0.0
 10
78.85461830710926
 20
-128.7421847551408
 30
0.0
 10
78.85461830710926
 20
-128.7421847551408
 30
0.0
 10
79.04926620202588
 20
-128.7421847551408
 30
0.0
 10
79.04926620202588
 20
-128.7421847551408
 30
0.0
 10
79.04926620202588
 20
-128.7421847551408
 30
0.0
 10
79.04926620202588
 20
-129.357823318355
 30
0.0
 10
79.04926620202588
 20
-129.357823318355
 30
0.0
 10
79.04926620202588
 20
-129.357823318355
 30
0.0
 10
79.47232392761457
 20
-129.4232801325747
 30
0.0
 10
79.47232392761457
 20
-129.4232801325747
 30
0.0
 10
79.43838973708485
 20
-129.3619574329373
 30
0.0
 10
79.39825437468168
 20
-129.2792751412913
 30
0.0
 10
79.39825437468168
 20
-129.1611083661472
 30
0.0
 10
79.39825437468168
 20
-128.9072048288843
 30
0.0
 10
79.58446178565944
 20
-128.6701822594991
 30
0.0
 10
79.89744871049439
 20
-128.6701822594991
 30
0.0
 10
80.21491425946016
 20
-128.6701822594991
 30
0.0
 10
80.44969751677993
 20
-128.8944579755889
 30
0.0
 10
80.44969751677993
 20
-129.1969373591938
 30
0.0
  0
HATCH
  5
C1
330
BA
100
AcDbEntity
  8
_U+30EC_U+30A4_U+30E4_U+30FC 1
 62
   179
420
  2234388
100
AcDbHatch
 10
0.0
 20
0.0
 30
0.0
210
0.0
220
0.0
230
1.0
  2
SOLID
 70
     1
 71
     0
 91
        1
 92
        1
 93
        1
 72
     4
 94
        3
 73
     0
 74
     1
 95
       53
 96
       49
 40
0.0
 40
0.0
 40
0.0
 40
0.0
 40
1.0
 40
1.0
 40
1.0
 40
2.0
 40
2.0
 40
2.0
 40
3.0
 40
3.0
 40
3.0
 40
4.0
 40
4.0
 40
4.0
 40
5.0
 40
5.0
 40
5.0
 40
6.0
 40
6.0
 40
6.0
 40
7.0
 40
7.0
 40
7.0
 40
8.0
 40
8.0
 40
8.0
 40
9.0
 40
9.0
 40
9.0
 40
10.0
 40
10.0
 40
10.0
 40
11.0
 40
11.0
 40
11.0
 40
12.0
 40
12.0
 40
12.0
 40
13.0
 40
13.0
 40
13.0
 40
14.0
 40
14.0
 40
14.0
 40
15.0
 40
15.0
 40
15.0
 40
16.0
 40
16.0
 40
16.0
 40
16.0
 10
80.44969751677993
 20
-129.1969373591938
 10
80.44969751677993
 20
-129.275141026709
 10
80.43264429412795
 20
-129.3767713435239
 10
80.36925453719935
 20
-129.4784016603387
 10
80.25918373644562
 20
-129.6520344727953
 10
80.12809785323186
 20
-129.6730495552553
 10
80.02026636454355
 20
-129.6919975804242
 10
80.02026636454355
 20
-129.6919975804242
 10
80.02026636454355
 20
-129.4701334311741
 10
80.02026636454355
 20
-129.4701334311741
 10
80.21904837404246
 20
-129.4150119034101
 10
80.24867619521561
 20
-129.2878878800044
 10
80.24867619521561
 20
-129.1948703019027
 10
80.24867619521561
 20
-129.0553439347501
 10
80.14928519046616
 20
-128.903070714302
 10
79.91656899043753
 20
-128.903070714302
 10
79.66059839588347
 20
-128.903070714302
 10
79.59083521230716
 20
-129.0829046986321
 10
79.59083521230716
 20
-129.2034830406158
 10
79.59083521230716
 20
-129.2351779190801
 10
79.59083521230716
 20
-129.3767713435239
 10
79.71985403822977
 20
-129.4656548070433
 10
79.71985403822977
 20
-129.4656548070433
 10
79.70073375828663
 20
-129.6410101672425
 10
79.70073375828663
 20
-129.6410101672425
 10
79.70073375828663
 20
-129.6410101672425
 10
78.85461830710926
 20
-129.5204318252588
 10
78.85461830710926
 20
-129.5204318252588
 10
78.85461830710926
 20
-129.5204318252588
 10
78.85461830710926
 20
-128.7421847551408
 10
78.85461830710926
 20
-128.7421847551408
 10
78.85461830710926
 20
-128.7421847551408
 10
79.04926620202588
 20
-128.7421847551408
 10
79.04926620202588
 20
-128.7421847551408
 10
79.04926620202588
 20
-128.7421847551408
 10
79.04926620202588
 20
-129.357823318355
 10
79.04926620202588
 20
-129.357823318355
 10
79.04926620202588
 20
-129.357823318355
 10
79.47232392761457
 20
-129.4232801325747
 10
79.47232392761457
 20
-129.4232801325747
 10
79.43838973708485
 20
-129.3619574329373
 10
79.39825437468168
 20
-129.2792751412913
 10
79.39825437468168
 20
-129.1611083661472
 10
79.39825437468168
 20
-128.9072048288843
 10
79.58446178565944
 20
-128.6701822594991
 10
79.89744871049439
 20
-128.6701822594991
 10
80.21491425946016
 20
-128.6701822594991
 10
80.44969751677993
 20
-128.8944579755889
 10
80.44969751677993
 20
-129.1969373591938
 97
        0
 97
        0
 75
     2
 76
     1
 98
        0
  0
ENDBLK
  5
BD
330
BA
100
AcDbEntity
  8
0
100
AcDbBlockEnd
  0
ENDSEC
  0
SECTION
  2
ENTITIES
  0
POLYLINE
  5
41
330
1F
100
AcDbEntity
  8
_U+30EC_U+30A4_U+30E4_U+30FC 1
 62
     7
420
 16777215
370
     9
100
AcDb2dPolyline
 66
     1
 10
0.0
 20
0.0
 30
0.0
  0
VERTEX
  5
42
330
41
100
AcDbEntity
  8
_U+30EC_U+30A4_U+30E4_U+30FC 1
 62
     7
420
 16777215
370
     9
100
AcDbVertex
100
AcDb2dVertex
 10
85.43423837594655
 20
-136.8419355213451
 30
0.0
  0
VERTEX
  5
43
330
41
100
AcDbEntity
  8
_U+30EC_U+30A4_U+30E4_U+30FC 1
 62
     7
420
 16777215
370
     9
100
AcDbVertex
100
AcDb2dVertex
 10
81.1416384854599
 20
-141.1352410758273
 30
0.0
  0
SEQEND
  5
44
330
41
100
AcDbEntity
  8
_U+30EC_U+30A4_U+30E4_U+30FC 1
 62
     7
420
 16777215
370
     9
  0
POLYLINE
  5
45
330
1F
100
AcDbEntity
  8
_U+30EC_U+30A4_U+30E4_U+30FC 1
 62
     7
420
 16777215
370
     9
100
AcDb2dPolyline
 66
     1
 10
0.0
 20
0.0
 30
0.0
  0
VERTEX
  5
46
330
45
100
AcDbEntity
  8
_U+30EC_U+30A4_U+30E4_U+30FC 1
 62
     7
420
 16777215
370
     9
100
AcDbVertex
100
AcDb2dVertex
 10
76.92968359291582
 20
-141.1352410758273
 30
0.0
  0
VERTEX
  5
47
330
45
100
AcDbEntity
  8
_U+30EC_U+30A4_U+30E4_U+30FC 1
 62
     7
420
 16777215
370
     9
100
AcDbVertex
100
AcDb2dVertex
 10
81.1416384854599
 20
-141.1352410758273
 30
0.0
  0
SEQEND
  5
48
330
45
100
AcDbEntity
  8
_U+30EC_U+30A4_U+30E4_U+30FC 1
 62
     7
420
 16777215
370
     9
  0
POLYLINE
  5
49
330
1F
100
AcDbEntity
  8
_U+30EC_U+30A4_U+30E4_U+30FC 1
 62
     7
420
 16777215
370
     9
100
AcDb2dPolyline
 66
     1
 10
0.0
 20
0.0
 30
0.0
  0
VERTEX
  5
4A
330
49
100
AcDbEntity
  8
_U+30EC_U+30A4_U+30E4_U+30FC 1
 62
     7
420
 16777215
370
     9
100
AcDbVertex
100
AcDb2dVertex
 10
85.43423837594655
 20
-136.8419355213451
 30
0.0
  0
VERTEX
  5
4B
330
49
100
AcDbEntity
  8
_U+30EC_U+30A4_U+30E4_U+30FC 1
 62
     7
420
 16777215
370
     9
100
AcDbVertex
100
AcDb2dVertex
 10
84.13541646463781
 20
-137.592293854491
 30
0.0
  0
SEQEND
  5
4C
330
49
100
AcDbEntity
  8
_U+30EC_U+30A4_U+30E4_U+30FC 1
 62
     7
420
 16777215
370
     9
  0
POLYLINE
  5
4D
330
1F
100
AcDbEntity
  8
_U+30EC_U+30A4_U+30E4_U+30FC 1
 62
     7
420
 16777215
370
     9
100
AcDb2dPolyline
 66
     1
 10
0.0
 20
0.0
 30
0.0
  0
VERTEX
  5
4E
330
4D
100
AcDbEntity
  8
_U+30EC_U+30A4_U+30E4_U+30FC 1
 62
     7
420
 16777215
370
     9
100
AcDbVertex
100
AcDb2dVertex
 10
85.43423837594655
 20
-136.8419355213451
 30
0.0
  0
VERTEX
  5
4F
330
4D
100
AcDbEntity
  8
_U+30EC_U+30A4_U+30E4_U+30FC 1
 62
     7
420
 16777215
370
     9
100
AcDbVertex
100
AcDb2dVertex
 10
84.684585617294
 20
-138.1414277432426
 30
0.0
  0
SEQEND
  5
50
330
4D
100
AcDbEntity
  8
_U+30EC_U+30A4_U+30E4_U+30FC 1
 62
     7
420
 16777215
370
     9
  0
INSERT
  5
52
330
1F
100
AcDbEntity
  8
_U+30EC_U+30A4_U+30E4_U+30FC 1
100
AcDbBlockReference
  2
block 2
 10
0.0
 20
0.0
 30
0.0
  0
SPLINE
  5
5A
330
1F
100
AcDbEntity
  8
_U+30EC_U+30A4_U+30E4_U+30FC 1
 62
     7
420
 16777215
370
     9
100
AcDbSpline
210
0.0
220
0.0
230
1.0
 70
    11
 71
     3
 72
    17
 73
    13
 74
     0
 42
0.0000000001
 43
0.0000000001
 12
1.0
 22
0.0
 32
0.0
 13
1.0
 23
0.0
 33
0.0
 40
0.0
 40
0.0
 40
0.0
 40
0.0
 40
1.0
 40
1.0
 40
1.0
 40
2.0
 40
2.0
 40
2.0
 40
3.0
 40
3.0
 40
3.0
 40
4.0
 40
4.0
 40
4.0
 40
4.0
 10
105.2104662047463
 20
-118.0303427482702
 30
0.0
 10
105.2104662047463
 20
-117.975238859395
 30
0.0
 10
105.1656634281115
 20
-117.9304360816286
 30
0.0
 10
105.1105595406284
 20
-117.9304360816286
 30
0.0
 10
105.0554203753685
 20
-117.9304360816286
 30
0.0
 10
105.0106555293028
 20
-117.975238859395
 30
0.0
 10
105.0106555293028
 20
-118.0303427482702
 30
0.0
 10
105.0106555293028
 20
-118.085481914923
 30
0.0
 10
105.0554203753685
 20
-118.1302494149118
 30
0.0
 10
105.1105595406284
 20
-118.1302494149118
 30
0.0
 10
105.1656634281115
 20
-118.1302494149118
 30
0.0
 10
105.2104662047463
 20
-118.085481914923
 30
0.0
 10
105.2104662047463
 20
-118.0303427482702
 30
0.0
  0
SPLINE
  5
5B
330
1F
100
AcDbEntity
  8
_U+30EC_U+30A4_U+30E4_U+30FC 1
 62
     7
420
 16777215
370
     9
100
AcDbSpline
210
0.0
220
0.0
230
1.0
 70
    11
 71
     3
 72
    17
 73
    13
 74
     0
 42
0.0000000001
 43
0.0000000001
 12
1.0
 22
0.0
 32
0.0
 13
1.0
 23
0.0
 33
0.0
 40
0.0
 40
0.0
 40
0.0
 40
0.0
 40
1.0
 40
1.0
 40
1.0
 40
2.0
 40
2.0
 40
2.0
 40
3.0
 40
3.0
 40
3.0
 40
4.0
 40
4.0
 40
4.0
 40
4.0
 10
86.24453363305197
 20
-118.0303427482702
 30
0.0
 10
86.24453363305197
 20
-117.975238859395
 30
0.0
 10
86.1997308564172
 20
-117.9304360816286
 30
0.0
 10
86.14462696893413
 20
-117.9304360816286
 30
0.0
 10
86.08948780367419
 20
-117.9304360816286
 30
0.0
 10
86.04472030481631
 20
-117.975238859395
 30
0.0
 10
86.04472030481631
 20
-118.0303427482702
 30
0.0
 10
86.04472030481631
 20
-118.085481914923
 30
0.0
 10
86.08948780367419
 20
-118.1302494149118
 30
0.0
 10
86.14462696893413
 20
-118.1302494149118
 30
0.0
 10
86.1997308564172
 20
-118.1302494149118
 30
0.0
 10
86.24453363305197
 20
-118.085481914923
 30
0.0
 10
86.24453363305197
 20
-118.0303427482702
 30
0.0
  0
POLYLINE
  5
5C
330
1F
100
AcDbEntity
  8
_U+30EC_U+30A4_U+30E4_U+30FC 1
 62
     7
420
 16777215
370
     9
100
AcDb2dPolyline
 66
     1
 10
0.0
 20
0.0
 30
0.0
  0
VERTEX
  5
5D
330
5C
100
AcDbEntity
  8
_U+30EC_U+30A4_U+30E4_U+30FC 1
 62
     7
420
 16777215
370
     9
100
AcDbVertex
100
AcDb2dVertex
 10
86.04472030481631
 20
-118.0303427482702
 30
0.0
  0
VERTEX
  5
5E
330
5C
100
AcDbEntity
  8
_U+30EC_U+30A4_U+30E4_U+30FC 1
 62
     7
420
 16777215
370
     9
100
AcDbVertex
100
AcDb2dVertex
 10
105.1105595406284
 20
-118.0303427482702
 30
0.0
  0
SEQEND
  5
5F
330
5C
100
AcDbEntity
  8
_U+30EC_U+30A4_U+30E4_U+30FC 1
 62
     7
420
 16777215
370
     9
  0
POLYLINE
  5
60
330
1F
100
AcDbEntity
  8
_U+30EC_U+30A4_U+30E4_U+30FC 1
 62
     7
420
 16777215
370
     9
100
AcDb2dPolyline
 66
     1
 10
0.0
 20
0.0
 30
0.0
  0
VERTEX
  5
61
330
60
100
AcDbEntity
  8
_U+30EC_U+30A4_U+30E4_U+30FC 1
 62
     7
420
 16777215
370
     9
100
AcDbVertex
100
AcDb2dVertex
 10
86.14462696893413
 20
-120.4901563587665
 30
0.0
  0
VERTEX
  5
62
330
60
100
AcDbEntity
  8
_U+30EC_U+30A4_U+30E4_U+30FC 1
 62
     7
420
 16777215
370
     9
100
AcDbVertex
100
AcDb2dVertex
 10
86.14462696893413
 20
-117.0299002485203
 30
0.0
  0
SEQEND
  5
63
330
60
100
AcDbEntity
  8
_U+30EC_U+30A4_U+30E4_U+30FC 1
 62
     7
420
 16777215
370
     9
  0
POLYLINE
  5
64
330
1F
100
AcDbEntity
  8
_U+30EC_U+30A4_U+30E4_U+30FC 1
 62
     7
420
 16777215
370
     9
100
AcDb2dPolyline
 66
     1
 10
0.0
 20
0.0
 30
0.0
  0
VERTEX
  5
65
330
64
100
AcDbEntity
  8
_U+30EC_U+30A4_U+30E4_U+30FC 1
 62
     7
420
 16777215
370
     9
100
AcDbVertex
100
AcDb2dVertex
 10
105.1105595406284
 20
-123.9903821912245
 30
0.0
  0
VERTEX
  5
66
330
64
100
AcDbEntity
  8
_U+30EC_U+30A4_U+30E4_U+30FC 1
 62
     7
420
 16777215
370
     9
100
AcDbVertex
100
AcDb2dVertex
 10
105.1105595406284
 20
-117.0299002485203
 30
0.0
  0
SEQEND
  5
67
330
64
100
AcDbEntity
  8
_U+30EC_U+30A4_U+30E4_U+30FC 1
 62
     7
420
 16777215
370
     9
  0
INSERT
  5
69
330
1F
100
AcDbEntity
  8
_U+30EC_U+30A4_U+30E4_U+30FC 1
100
AcDbBlockReference
  2
block 3
 10
0.0
 20
0.0
 30
0.0
  0
SPLINE
  5
71
330
1F
100
AcDbEntity
  8
_U+30EC_U+30A4_U+30E4_U+30FC 1
 62
     7
420
 16777215
370
     9
100
AcDbSpline
210
0.0
220
0.0
230
1.0
 70
    11
 71
     3
 72
    17
 73
    13
 74
     0
 42
0.0000000001
 43
0.0000000001
 12
1.0
 22
0.0
 32
0.0
 13
1.0
 23
0.0
 33
0.0
 40
0.0
 40
0.0
 40
0.0
 40
0.0
 40
1.0
 40
1.0
 40
1.0
 40
2.0
 40
2.0
 40
2.0
 40
3.0
 40
3.0
 40
3.0
 40
4.0
 40
4.0
 40
4.0
 40
4.0
 10
103.2409079216606
 20
-127.6340827458694
 30
0.0
 10
103.2409079216606
 20
-127.5789435792163
 30
0.0
 10
103.1961051450258
 20
-127.5341760792274
 30
0.0
 10
103.1410012575427
 20
-127.5341760792274
 30
0.0
 10
103.0858620922828
 20
-127.5341760792274
 30
0.0
 10
103.0410971964616
 20
-127.5789435792163
 30
0.0
 10
103.0410971964616
 20
-127.6340827458694
 30
0.0
 10
103.0410971964616
 20
-127.6898921902998
 30
0.0
 10
103.0858620922828
 20
-127.7346596902887
 30
0.0
 10
103.1410012575427
 20
-127.7346596902887
 30
0.0
 10
103.1961051450258
 20
-127.7346596902887
 30
0.0
 10
103.2409079216606
 20
-127.6898921902998
 30
0.0
 10
103.2409079216606
 20
-127.6340827458694
 30
0.0
  0
SPLINE
  5
72
330
1F
100
AcDbEntity
  8
_U+30EC_U+30A4_U+30E4_U+30FC 1
 62
     7
420
 16777215
370
     9
100
AcDbSpline
210
0.0
220
0.0
230
1.0
 70
    11
 71
     3
 72
    17
 73
    13
 74
     0
 42
0.0000000001
 43
0.0000000001
 12
1.0
 22
0.0
 32
0.0
 13
1.0
 23
0.0
 33
0.0
 40
0.0
 40
0.0
 40
0.0
 40
0.0
 40
1.0
 40
1.0
 40
1.0
 40
2.0
 40
2.0
 40
2.0
 40
3.0
 40
3.0
 40
3.0
 40
4.0
 40
4.0
 40
4.0
 40
4.0
 10
103.2409079216606
 20
-136.1346866326328
 30
0.0
 10
103.2409079216606
 20
-136.0795474659804
 30
0.0
 10
103.1961051450258
 20
-136.0347799659912
 30
0.0
 10
103.1410012575427
 20
-136.0347799659912
 30
0.0
 10
103.0858620922828
 20
-136.0347799659912
 30
0.0
 10
103.0410971964616
 20
-136.0795474659804
 30
0.0
 10
103.0410971964616
 20
-136.1346866326328
 30
0.0
 10
103.0410971964616
 20
-136.1897905215083
 30
0.0
 10
103.0858620922828
 20
-136.2345932992744
 30
0.0
 10
103.1410012575427
 20
-136.2345932992744
 30
0.0
 10
103.1961051450258
 20
-136.2345932992744
 30
0.0
 10
103.2409079216606
 20
-136.1897905215083
 30
0.0
 10
103.2409079216606
 20
-136.1346866326328
 30
0.0
  0
POLYLINE
  5
73
330
1F
100
AcDbEntity
  8
_U+30EC_U+30A4_U+30E4_U+30FC 1
 62
     7
420
 16777215
370
     9
100
AcDb2dPolyline
 66
     1
 10
0.0
 20
0.0
 30
0.0
  0
VERTEX
  5
74
330
73
100
AcDbEntity
  8
_U+30EC_U+30A4_U+30E4_U+30FC 1
 62
     7
420
 16777215
370
     9
100
AcDbVertex
100
AcDb2dVertex
 10
103.1410012575427
 20
-136.1346866326328
 30
0.0
  0
VERTEX
  5
75
330
73
100
AcDbEntity
  8
_U+30EC_U+30A4_U+30E4_U+30FC 1
 62
     7
420
 16777215
370
     9
100
AcDbVertex
100
AcDb2dVertex
 10
103.1410012575427
 20
-127.6340827458694
 30
0.0
  0
SEQEND
  5
76
330
73
100
AcDbEntity
  8
_U+30EC_U+30A4_U+30E4_U+30FC 1
 62
     7
420
 16777215
370
     9
  0
POLYLINE
  5
77
330
1F
100
AcDbEntity
  8
_U+30EC_U+30A4_U+30E4_U+30FC 1
 62
     7
420
 16777215
370
     9
100
AcDb2dPolyline
 66
     1
 10
0.0
 20
0.0
 30
0.0
  0
VERTEX
  5
78
330
77
100
AcDbEntity
  8
_U+30EC_U+30A4_U+30E4_U+30FC 1
 62
     7
420
 16777215
370
     9
100
AcDbVertex
100
AcDb2dVertex
 10
101.6809599059026
 20
-136.1346866326328
 30
0.0
  0
VERTEX
  5
79
330
77
100
AcDbEntity
  8
_U+30EC_U+30A4_U+30E4_U+30FC 1
 62
     7
420
 16777215
370
     9
100
AcDbVertex
100
AcDb2dVertex
 10
104.1407381764818
 20
-136.1346866326328
 30
0.0
  0
SEQEND
  5
7A
330
77
100
AcDbEntity
  8
_U+30EC_U+30A4_U+30E4_U+30FC 1
 62
     7
420
 16777215
370
     9
  0
POLYLINE
  5
7B
330
1F
100
AcDbEntity
  8
_U+30EC_U+30A4_U+30E4_U+30FC 1
 62
     7
420
 16777215
370
     9
100
AcDb2dPolyline
 66
     1
 10
0.0
 20
0.0
 30
0.0
  0
VERTEX
  5
7C
330
7B
100
AcDbEntity
  8
_U+30EC_U+30A4_U+30E4_U+30FC 1
 62
     7
420
 16777215
370
     9
100
AcDbVertex
100
AcDb2dVertex
 10
101.6809599059026
 20
-127.6340827458694
 30
0.0
  0
VERTEX
  5
7D
330
7B
100
AcDbEntity
  8
_U+30EC_U+30A4_U+30E4_U+30FC 1
 62
     7
420
 16777215
370
     9
100
AcDbVertex
100
AcDb2dVertex
 10
104.1407381764818
 20
-127.6340827458694
 30
0.0
  0
SEQEND
  5
7E
330
7B
100
AcDbEntity
  8
_U+30EC_U+30A4_U+30E4_U+30FC 1
 62
     7
420
 16777215
370
     9
  0
INSERT
  5
80
330
1F
100
AcDbEntity
  8
_U+30EC_U+30A4_U+30E4_U+30FC 1
100
AcDbBlockReference
  2
block 4
 10
0.0
 20
0.0
 30
0.0
  0
POLYLINE
  5
91
330
1F
100
AcDbEntity
  8
_U+30EC_U+30A4_U+30E4_U+30FC 1
 62
     7
420
 16777215
370
     9
100
AcDb2dPolyline
 66
     1
 10
0.0
 20
0.0
 30
0.0
  0
VERTEX
  5
92
330
91
100
AcDbEntity
  8
_U+30EC_U+30A4_U+30E4_U+30FC 1
 62
     7
420
 16777215
370
     9
100
AcDbVertex
100
AcDb2dVertex
 10
84.20329090735063
 20
-124.5298499688674
 30
0.0
  0
VERTEX
  5
93
330
91
100
AcDbEntity
  8
_U+30EC_U+30A4_U+30E4_U+30FC 1
 62
     7
420
 16777215
370
     9
100
AcDbVertex
100
AcDb2dVertex
 10
89.97381798235445
 20
-124.5298499688674
 30
0.0
  0
SEQEND
  5
94
330
91
100
AcDbEntity
  8
_U+30EC_U+30A4_U+30E4_U+30FC 1
 62
     7
420
 16777215
370
     9
  0
INSERT
  5
96
330
1F
100
AcDbEntity
  8
_U+30EC_U+30A4_U+30E4_U+30FC 1
100
AcDbBlockReference
  2
block 5
 10
0.0
 20
0.0
 30
0.0
  0
SPLINE
  5
9B
330
1F
100
AcDbEntity
  8
_U+30EC_U+30A4_U+30E4_U+30FC 1
 62
     7
420
 16777215
370
    25
100
AcDbSpline
210
0.0
220
0.0
230
1.0
 70
    11
 71
     3
 72
    44
 73
    40
 74
     0
 42
0.0000000001
 43
0.0000000001
 12
1.0
 22
0.0
 32
0.0
 13
1.0
 23
0.0
 33
0.0
 40
0.0
 40
0.0
 40
0.0
 40
0.0
 40
1.0
 40
1.0
 40
1.0
 40
2.0
 40
2.0
 40
2.0
 40
3.0
 40
3.0
 40
3.0
 40
4.0
 40
4.0
 40
4.0
 40
5.0
 40
5.0
 40
5.0
 40
6.0
 40
6.0
 40
6.0
 40
7.0
 40
7.0
 40
7.0
 40
8.0
 40
8.0
 40
8.0
 40
9.0
 40
9.0
 40
9.0
 40
10.0
 40
10.0
 40
10.0
 40
11.0
 40
11.0
 40
11.0
 40
12.0
 40
12.0
 40
12.0
 40
13.0
 40
13.0
 40
13.0
 40
13.0
 10
86.14116974680012
 20
-126.6343105238969
 30
0.0
 10
86.14116974680012
 20
-126.6343105238969
 30
0.0
 10
86.14116974680012
 20
-122.1350180250218
 30
0.0
 10
86.14116974680012
 20
-122.1350180250218
 30
0.0
 10
85.58924892754746
 20
-122.1350180250218
 30
0.0
 10
85.1413975500842
 20
-122.5825166360211
 30
0.0
 10
85.1413975500842
 20
-123.134790246994
 30
0.0
 10
85.1413975500842
 20
-123.134790246994
 30
0.0
 10
85.1413975500842
 20
-136.135004132633
 30
0.0
 10
85.1413975500842
 20
-136.135004132633
 30
0.0
 10
85.1413975500842
 20
-136.6872777436056
 30
0.0
 10
85.58924892754746
 20
-137.134776354605
 30
0.0
 10
86.14116974680012
 20
-137.134776354605
 30
0.0
 10
86.14116974680012
 20
-137.134776354605
 30
0.0
 10
99.14124219291841
 20
-137.134776354605
 30
0.0
 10
99.14124219291841
 20
-137.134776354605
 30
0.0
 10
99.69348051216298
 20
-137.134776354605
 30
0.0
 10
100.1410143896343
 20
-136.6872777436056
 30
0.0
 10
100.1410143896343
 20
-136.135004132633
 30
0.0
 10
100.1410143896343
 20
-136.135004132633
 30
0.0
 10
86.14116974680012
 20
-136.1346866326328
 30
0.0
 10
86.14116974680012
 20
-136.1346866326328
 30
0.0
 10
86.14116974680012
 20
-136.1346866326328
 30
0.0
 10
86.14116974680012
 20
-127.6344002458693
 30
0.0
 10
86.14116974680012
 20
-127.6344002458693
 30
0.0
 10
86.14116974680012
 20
-127.6344002458693
 30
0.0
 10
100.1410143896343
 20
-127.6344002458693
 30
0.0
 10
100.1410143896343
 20
-127.6344002458693
 30
0.0
 10
100.1410143896343
 20
-127.6344002458693
 30
0.0
 10
100.6608677097051
 20
-127.3346802459441
 30
0.0
 10
100.6608677097051
 20
-127.3346802459441
 30
0.0
 10
100.6608677097051
 20
-127.3346802459441
 30
0.0
 10
104.4411637243728
 20
-127.3343627459442
 30
0.0
 10
104.4411637243728
 20
-127.3343627459442
 30
0.0
 10
104.8277023256225
 20
-127.3343627459442
 30
0.0
 10
105.1412159287352
 20
-127.0208491349116
 30
0.0
 10
105.1412159287352
 20
-126.6343105238969
 30
0.0
 10
105.1412159287352
 20
-126.6343105238969
 30
0.0
 10
86.14116974680012
 20
-126.6343105238969
 30
0.0
 10
86.14116974680012
 20
-126.6343105238969
 30
0.0
  0
SPLINE
  5
9C
330
1F
100
AcDbEntity
  8
_U+30EC_U+30A4_U+30E4_U+30FC 1
 62
   179
420
  2234388
370
     9
100
AcDbSpline
210
0.0
220
0.0
230
1.0
 70
    11
 71
     3
 72
    17
 73
    13
 74
     0
 42
0.0000000001
 43
0.0000000001
 12
1.0
 22
0.0
 32
0.0
 13
1.0
 23
0.0
 33
0.0
 40
0.0
 40
0.0
 40
0.0
 40
0.0
 40
1.0
 40
1.0
 40
1.0
 40
2.0
 40
2.0
 40
2.0
 40
3.0
 40
3.0
 40
3.0
 40
4.0
 40
4.0
 40
4.0
 40
4.0
 10
85.2420097697396
 20
-141.1352410758273
 30
0.0
 10
85.2420097697396
 20
-141.0801019091743
 30
0.0
 10
85.19720699310483
 20
-141.0353344091857
 30
0.0
 10
85.1413975500842
 20
-141.0353344091857
 30
0.0
 10
85.08629366260114
 20
-141.0353344091857
 30
0.0
 10
85.04149088596637
 20
-141.0801019091743
 30
0.0
 10
85.04149088596637
 20
-141.1352410758273
 30
0.0
 10
85.04149088596637
 20
-141.1903449647023
 30
0.0
 10
85.08629366260114
 20
-141.235147742469
 30
0.0
 10
85.1413975500842
 20
-141.235147742469
 30
0.0
 10
85.19720699310483
 20
-141.235147742469
 30
0.0
 10
85.2420097697396
 20
-141.1903449647023
 30
0.0
 10
85.2420097697396
 20
-141.1352410758273
 30
0.0
  0
POLYLINE
  5
9D
330
1F
100
AcDbEntity
  8
_U+30EC_U+30A4_U+30E4_U+30FC 1
 62
   179
420
  2234388
370
     9
100
AcDb2dPolyline
 66
     1
 10
0.0
 20
0.0
 30
0.0
  0
VERTEX
  5
9E
330
9D
100
AcDbEntity
  8
_U+30EC_U+30A4_U+30E4_U+30FC 1
 62
   179
420
  2234388
370
     9
100
AcDbVertex
100
AcDb2dVertex
 10
85.1413975500842
 20
-141.1352410758273
 30
0.0
  0
VERTEX
  5
9F
330
9D
100
AcDbEntity
  8
_U+30EC_U+30A4_U+30E4_U+30FC 1
 62
   179
420
  2234388
370
     9
100
AcDbVertex
100
AcDb2dVertex
 10
100.1413318896262
 20
-141.1352410758273
 30
0.0
  0
SEQEND
  5
A0
330
9D
100
AcDbEntity
  8
_U+30EC_U+30A4_U+30E4_U+30FC 1
 62
   179
420
  2234388
370
     9
  0
POLYLINE
  5
A1
330
1F
100
AcDbEntity
  8
_U+30EC_U+30A4_U+30E4_U+30FC 1
 62
   179
420
  2234388
370
     9
100
AcDb2dPolyline
 66
     1
 10
0.0
 20
0.0
 30
0.0
  0
VERTEX
  5
A2
330
A1
100
AcDbEntity
  8
_U+30EC_U+30A4_U+30E4_U+30FC 1
 62
   179
420
  2234388
370
     9
100
AcDbVertex
100
AcDb2dVertex
 10
85.1413975500842
 20
-138.6747571875537
 30
0.0
  0
VERTEX
  5
A3
330
A1
100
AcDbEntity
  8
_U+30EC_U+30A4_U+30E4_U+30FC 1
 62
   179
420
  2234388
370
     9
100
AcDbVertex
100
AcDb2dVertex
 10
85.1413975500842
 20
-142.1349780200217
 30
0.0
  0
SEQEND
  5
A4
330
A1
100
AcDbEntity
  8
_U+30EC_U+30A4_U+30E4_U+30FC 1
 62
   179
420
  2234388
370
     9
  0
SPLINE
  5
A5
330
1F
100
AcDbEntity
  8
_U+30EC_U+30A4_U+30E4_U+30FC 1
 62
   179
420
  2234388
370
     9
100
AcDbSpline
210
0.0
220
0.0
230
1.0
 70
    11
 71
     3
 72
    17
 73
    13
 74
     0
 42
0.0000000001
 43
0.0000000001
 12
1.0
 22
0.0
 32
0.0
 13
1.0
 23
0.0
 33
0.0
 40
0.0
 40
0.0
 40
0.0
 40
0.0
 40
1.0
 40
1.0
 40
1.0
 40
2.0
 40
2.0
 40
2.0
 40
3.0
 40
3.0
 40
3.0
 40
4.0
 40
4.0
 40
4.0
 40
4.0
 10
100.2419441092816
 20
-141.1352410758273
 30
0.0
 10
100.2419441092816
 20
-141.0801019091743
 30
0.0
 10
100.1971413326469
 20
-141.0353344091857
 30
0.0
 10
100.1413318896262
 20
-141.0353344091857
 30
0.0
 10
100.0862305305343
 20
-141.0353344091857
 30
0.0
 10
100.0414277527675
 20
-141.0801019091743
 30
0.0
 10
100.0414277527675
 20
-141.1352410758273
 30
0.0
 10
100.0414277527675
 20
-141.1903449647023
 30
0.0
 10
100.0862305305343
 20
-141.235147742469
 30
0.0
 10
100.1413318896262
 20
-141.235147742469
 30
0.0
 10
100.1971413326469
 20
-141.235147742469
 30
0.0
 10
100.2419441092816
 20
-141.1903449647023
 30
0.0
 10
100.2419441092816
 20
-141.1352410758273
 30
0.0
  0
POLYLINE
  5
A6
330
1F
100
AcDbEntity
  8
_U+30EC_U+30A4_U+30E4_U+30FC 1
 62
   179
420
  2234388
370
     9
100
AcDb2dPolyline
 66
     1
 10
0.0
 20
0.0
 30
0.0
  0
VERTEX
  5
A7
330
A6
100
AcDbEntity
  8
_U+30EC_U+30A4_U+30E4_U+30FC 1
 62
   179
420
  2234388
370
     9
100
AcDbVertex
100
AcDb2dVertex
 10
100.1413318896262
 20
-138.6747571875537
 30
0.0
  0
VERTEX
  5
A8
330
A6
100
AcDbEntity
  8
_U+30EC_U+30A4_U+30E4_U+30FC 1
 62
   179
420
  2234388
370
     9
100
AcDbVertex
100
AcDb2dVertex
 10
100.1413318896262
 20
-142.1349780200217
 30
0.0
  0
SEQEND
  5
A9
330
A6
100
AcDbEntity
  8
_U+30EC_U+30A4_U+30E4_U+30FC 1
 62
   179
420
  2234388
370
     9
  0
INSERT
  5
AB
330
1F
100
AcDbEntity
  8
_U+30EC_U+30A4_U+30E4_U+30FC 1
100
AcDbBlockReference
  2
block 6
 10
0.0
 20
0.0
 30
0.0
  0
POLYLINE
  5
B2
330
1F
100
AcDbEntity
  8
_U+30EC_U+30A4_U+30E4_U+30FC 1
 62
   179
420
  2234388
370
     9
100
AcDb2dPolyline
 66
     1
 10
0.0
 20
0.0
 30
0.0
  0
VERTEX
  5
B3
330
B2
100
AcDbEntity
  8
_U+30EC_U+30A4_U+30E4_U+30FC 1
 62
   179
420
  2234388
370
     9
100
AcDbVertex
100
AcDb2dVertex
 10
81.1416384854599
 20
-137.134776354605
 30
0.0
  0
VERTEX
  5
B4
330
B2
100
AcDbEntity
  8
_U+30EC_U+30A4_U+30E4_U+30FC 1
 62
   179
420
  2234388
370
     9
100
AcDbVertex
100
AcDb2dVertex
 10
81.1416384854599
 20
-122.1350180250218
 30
0.0
  0
SEQEND
  5
B5
330
B2
100
AcDbEntity
  8
_U+30EC_U+30A4_U+30E4_U+30FC 1
 62
   179
420
  2234388
370
     9
  0
POLYLINE
  5
B6
330
1F
100
AcDbEntity
  8
_U+30EC_U+30A4_U+30E4_U+30FC 1
 62
   179
420
  2234388
370
     9
100
AcDb2dPolyline
 66
     1
 10
0.0
 20
0.0
 30
0.0
  0
VERTEX
  5
B7
330
B6
100
AcDbEntity
  8
_U+30EC_U+30A4_U+30E4_U+30FC 1
 62
   179
420
  2234388
370
     9
100
AcDbVertex
100
AcDb2dVertex
 10
83.60145203381593
 20
-137.134776354605
 30
0.0
  0
VERTEX
  5
B8
330
B6
100
AcDbEntity
  8
_U+30EC_U+30A4_U+30E4_U+30FC 1
 62
   179
420
  2234388
370
     9
100
AcDbVertex
100
AcDb2dVertex
 10
80.14186628874398
 20
-137.134776354605
 30
0.0
  0
SEQEND
  5
B9
330
B6
100
AcDbEntity
  8
_U+30EC_U+30A4_U+30E4_U+30FC 1
 62
   179
420
  2234388
370
     9
  0
INSERT
  5
BB
330
1F
100
AcDbEntity
  8
_U+30EC_U+30A4_U+30E4_U+30FC 1
100
AcDbBlockReference
  2
block 7
 10
0.0
 20
0.0
 30
0.0
  0
SPLINE
  5
C2
330
1F
100
AcDbEntity
  8
_U+30EC_U+30A4_U+30E4_U+30FC 1
 62
   179
420
  2234388
370
     9
100
AcDbSpline
210
0.0
220
0.0
230
1.0
 70
    11
 71
     3
 72
    17
 73
    13
 74
     0
 42
0.0000000001
 43
0.0000000001
 12
1.0
 22
0.0
 32
0.0
 13
1.0
 23
0.0
 33
0.0
 40
0.0
 40
0.0
 40
0.0
 40
0.0
 40
1.0
 40
1.0
 40
1.0
 40
2.0
 40
2.0
 40
2.0
 40
3.0
 40
3.0
 40
3.0
 40
4.0
 40
4.0
 40
4.0
 40
4.0
 10
81.23533626084725
 20
-137.1334005212721
 30
0.0
 10
81.23533626084725
 20
-137.0782966323971
 30
0.0
 10
81.19092153975814
 20
-137.0338466324082
 30
0.0
 10
81.13542959672941
 20
-137.0338466324082
 30
0.0
 10
81.08032775750765
 20
-137.0338466324082
 30
0.0
 10
81.03552497974124
 20
-137.0782966323971
 30
0.0
 10
81.03552497974124
 20
-137.1334005212721
 30
0.0
 10
81.03552497974124
 20
-137.1892099657025
 30
0.0
 10
81.08032775750765
 20
-137.2340127434692
 30
0.0
 10
81.13542959672941
 20
-137.2340127434692
 30
0.0
 10
81.19092153975814
 20
-137.2340127434692
 30
0.0
 10
81.23533626084725
 20
-137.1892099657025
 30
0.0
 10
81.23533626084725
 20
-137.1334005212721
 30
0.0
  0
POLYLINE
  5
C3
330
1F
100
AcDbEntity
  8
_U+30EC_U+30A4_U+30E4_U+30FC 1
 62
   179
420
  2234388
370
     9
100
AcDb2dPolyline
 66
     1
 10
0.0
 20
0.0
 30
0.0
  0
VERTEX
  5
C4
330
C3
100
AcDbEntity
  8
_U+30EC_U+30A4_U+30E4_U+30FC 1
 62
   179
420
  2234388
370
     9
100
AcDbVertex
100
AcDb2dVertex
 10
83.60145203381593
 20
-122.134665247244
 30
0.0
  0
VERTEX
  5
C5
330
C3
100
AcDbEntity
  8
_U+30EC_U+30A4_U+30E4_U+30FC 1
 62
   179
420
  2234388
370
     9
100
AcDbVertex
100
AcDb2dVertex
 10
80.14186628874398
 20
-122.134665247244
 30
0.0
  0
SEQEND
  5
C6
330
C3
100
AcDbEntity
  8
_U+30EC_U+30A4_U+30E4_U+30FC 1
 62
   179
420
  2234388
370
     9
  0
SPLINE
  5
C7
330
1F
100
AcDbEntity
  8
_U+30EC_U+30A4_U+30E4_U+30FC 1
 62
   179
420
  2234388
370
     9
100
AcDbSpline
210
0.0
220
0.0
230
1.0
 70
    11
 71
     3
 72
    17
 73
    13
 74
     0
 42
0.0000000001
 43
0.0000000001
 12
1.0
 22
0.0
 32
0.0
 13
1.0
 23
0.0
 33
0.0
 40
0.0
 40
0.0
 40
0.0
 40
0.0
 40
1.0
 40
1.0
 40
1.0
 40
2.0
 40
2.0
 40
2.0
 40
3.0
 40
3.0
 40
3.0
 40
4.0
 40
4.0
 40
4.0
 40
4.0
 10
81.23533626084725
 20
-122.1332894139111
 30
0.0
 10
81.23533626084725
 20
-122.0781502472584
 30
0.0
 10
81.19092153975814
 20
-122.0340530250472
 30
0.0
 10
81.13542959672941
 20
-122.0340530250472
 30
0.0
 10
81.08032775750765
 20
-122.0340530250472
 30
0.0
 10
81.03552497974124
 20
-122.0781502472584
 30
0.0
 10
81.03552497974124
 20
-122.1332894139111
 30
0.0
 10
81.03552497974124
 20
-122.1890988583416
 30
0.0
 10
81.08032775750765
 20
-122.2338663583305
 30
0.0
 10
81.13542959672941
 20
-122.2338663583305
 30
0.0
 10
81.19092153975814
 20
-122.2338663583305
 30
0.0
 10
81.23533626084725
 20
-122.1890988583416
 30
0.0
 10
81.23533626084725
 20
-122.1332894139111
 30
0.0
  0
ENDSEC
  0
SECTION
  2
OBJECTS
  0
DICTIONARY
  5
C
330
0
100
AcDbDictionary
281
     1
  3
ACAD_GROUP
350
D
  3
ACAD_LAYOUT
350
1A
  3
ACAD_MATERIAL
350
3B
  3
ACAD_MLEADERSTYLE
350
C9
  3
ACAD_MLINESTYLE
350
17
  3
ACAD_PLOTSETTINGS
350
19
  3
ACAD_PLOTSTYLENAME
350
E
  3
ACAD_TABLESTYLE
350
C8
  3
ACAD_VISUALSTYLE
350
2A
  0
SUN
  5
3F
330
29
100
AcDbSun
 90
        1
290
     0
 63
     7
421
 16777215
 40
1.0
291
     1
 91
  2455826
 92
 54000000
292
     0
 70
     2
 71
   256
280
     1
  0
DICTIONARY
  5
D
102
{ACAD_REACTORS
330
C
102
}
330
C
100
AcDbDictionary
281
     1
  0
DICTIONARY
  5
1A
102
{ACAD_REACTORS
330
C
102
}
330
C
100
AcDbDictionary
281
     1
  3
Layout1
350
1E
  3
Layout2
350
26
  3
Model
350
22
  0
DICTIONARY
  5
3B
102
{ACAD_REACTORS
330
C
102
}
330
C
100
AcDbDictionary
281
     1
  3
ByBlock
350
3D
  3
ByLayer
350
3C
  3
Global
350
3E
  0
DICTIONARY
  5
C9
102
{ACAD_REACTORS
330
C
102
}
330
C
100
AcDbDictionary
281
     1
  0
DICTIONARY
  5
17
102
{ACAD_REACTORS
330
C
102
}
330
C
100
AcDbDictionary
281
     1
  3
Standard
350
18
  0
DICTIONARY
  5
19
102
{ACAD_REACTORS
330
C
102
}
330
C
100
AcDbDictionary
281
     1
  0
ACDBDICTIONARYWDFLT
  5
E
102
{ACAD_REACTORS
330
C
102
}
330
C
100
AcDbDictionary
281
     1
  3
Normal
350
F
100
AcDbDictionaryWithDefault
340
F
  0
DICTIONARY
  5
C8
102
{ACAD_REACTORS
330
C
102
}
330
C
100
AcDbDictionary
281
     1
  0
DICTIONARY
  5
2A
102
{ACAD_REACTORS
330
C
102
}
330
C
100
AcDbDictionary
281
     1
  3
2dWireframe
350
2F
  3
3D Hidden
350
31
  3
3dWireframe
350
30
  3
Basic
350
32
  3
Brighten
350
36
  3
ColorChange
350
3A
  3
Conceptual
350
34
  3
Dim
350
35
  3
Facepattern
350
39
  3
Flat
350
2B
  3
FlatWithEdges
350
2C
  3
Gouraud
350
2D
  3
GouraudWithEdges
350
2E
  3
Linepattern
350
38
  3
Realistic
350
33
  3
Thicken
350
37
  0
LAYOUT
  5
1E
102
{ACAD_REACTORS
330
1A
102
}
330
1A
100
AcDbPlotSettings
  1

  2
none_device
  4

  6

 40
0.0
 41
0.0
 42
0.0
 43
0.0
 44
0.0
 45
0.0
 46
0.0
 47
0.0
 48
0.0
 49
0.0
140
0.0
141
0.0
142
1.0
143
1.0
 70
   688
 72
     0
 73
     0
 74
     5
  7

 75
    16
 76
     0
 77
     2
 78
   300
147
1.0
148
0.0
149
0.0
100
AcDbLayout
  1
Layout1
 70
     1
 71
     1
 10
0.0
 20
0.0
 11
12.0
 21
9.0
 12
0.0
 22
0.0
 32
0.0
 14
1.000000000000000E+20
 24
1.000000000000000E+20
 34
1.000000000000000E+20
 15
-1.000000000000000E+20
 25
-1.000000000000000E+20
 35
-1.000000000000000E+20
146
0.0
 13
0.0
 23
0.0
 33
0.0
 16
1.0
 26
0.0
 36
0.0
 17
0.0
 27
1.0
 37
0.0
 76
     0
330
1B
  0
LAYOUT
  5
26
102
{ACAD_REACTORS
330
1A
102
}
330
1A
100
AcDbPlotSettings
  1

  2
none_device
  4

  6

 40
0.0
 41
0.0
 42
0.0
 43
0.0
 44
0.0
 45
0.0
 46
0.0
 47
0.0
 48
0.0
 49
0.0
140
0.0
141
0.0
142
1.0
143
1.0
 70
   688
 72
     0
 73
     0
 74
     5
  7

 75
    16
 76
     0
 77
     2
 78
   300
147
1.0
148
0.0
149
0.0
100
AcDbLayout
  1
Layout2
 70
     1
 71
     2
 10
0.0
 20
0.0
 11
0.0
 21
0.0
 12
0.0
 22
0.0
 32
0.0
 14
0.0
 24
0.0
 34
0.0
 15
0.0
 25
0.0
 35
0.0
146
0.0
 13
0.0
 23
0.0
 33
0.0
 16
1.0
 26
0.0
 36
0.0
 17
0.0
 27
1.0
 37
0.0
 76
     0
330
23
  0
LAYOUT
  5
22
102
{ACAD_REACTORS
330
1A
102
}
330
1A
100
AcDbPlotSettings
  1

  2
none_device
  4

  6

 40
0.0
 41
0.0
 42
0.0
 43
0.0
 44
0.0
 45
0.0
 46
0.0
 47
0.0
 48
0.0
 49
0.0
140
0.0
141
0.0
142
1.0
143
1.0
 70
  1712
 72
     0
 73
     0
 74
     0
  7

 75
     0
 76
     0
 77
     2
 78
   300
147
1.0
148
0.0
149
0.0
100
AcDbLayout
  1
Model
 70
     1
 71
     0
 10
0.0
 20
0.0
 11
12.0
 21
9.0
 12
0.0
 22
0.0
 32
0.0
 14
1.000000000000000E+20
 24
1.000000000000000E+20
 34
1.000000000000000E+20
 15
-1.000000000000000E+20
 25
-1.000000000000000E+20
 35
-1.000000000000000E+20
146
0.0
 13
0.0
 23
0.0
 33
0.0
 16
1.0
 26
0.0
 36
0.0
 17
0.0
 27
1.0
 37
0.0
 76
     0
330
1F
331
29
  0
MATERIAL
  5
3D
102
{ACAD_REACTORS
330
3B
102
}
330
3B
100
AcDbMaterial
  1
ByBlock
 72
     1
 94
      127
  0
MATERIAL
  5
3C
102
{ACAD_REACTORS
330
3B
102
}
330
3B
100
AcDbMaterial
  1
ByLayer
 72
     1
 94
      127
  0
MATERIAL
  5
3E
102
{ACAD_REACTORS
330
3B
102
}
330
3B
100
AcDbMaterial
  1
Global
 72
     1
 94
      127
  0
MLINESTYLE
  5
18
102
{ACAD_REACTORS
330
17
102
}
330
17
100
AcDbMlineStyle
  2
Standard
 70
     0
  3

 62
   256
 51
90.0
 52
90.0
 71
     2
 49
0.5
 62
   256
  6
BYLAYER
 49
-0.5
 62
   256
  6
BYLAYER
  0
ACDBPLACEHOLDER
  5
F
102
{ACAD_REACTORS
330
E
102
}
330
E
  0
VISUALSTYLE
  5
2F
102
{ACAD_REACTORS
330
2A
102
}
330
2A
100
AcDbVisualStyle
  2
2dWireframe
 70
     4
177
     2
291
     0
 71
     0
176
     1
 72
     2
176
     1
 73
     0
176
     1
 90
        0
176
     1
 40
-0.6
176
     1
 41
-30.0
176
     1
 62
     5
 63
     7
421
 16777215
176
     1
 74
     1
176
     1
 91
        4
176
     1
 64
     7
176
     1
 65
   257
176
     1
 75
     1
176
     1
175
     1
176
     1
 42
1.0
176
     1
 92
        0
176
     1
 66
   257
176
     1
 43
1.0
176
     1
 76
     1
176
     1
 77
     6
176
     1
 78
     2
176
     1
 67
     7
176
     1
 79
     5
176
     1
170
     0
176
     1
171
     0
176
     1
290
     0
176
     1
 93
        1
176
     1
 44
0.0
176
     1
173
     0
176
     1
  0
VISUALSTYLE
  5
31
102
{ACAD_REACTORS
330
2A
102
}
330
2A
100
AcDbVisualStyle
  2
3D Hidden
 70
     6
177
     2
291
     0
 71
     1
176
     1
 72
     2
176
     1
 73
     2
176
     1
 90
        0
176
     1
 40
-0.6
176
     1
 41
-30.0
176
     1
 62
     5
 63
     7
421
 16777215
176
     1
 74
     2
176
     1
 91
        2
176
     1
 64
     7
176
     1
 65
   257
176
     1
 75
     2
176
     1
175
     1
176
     1
 42
40.0
176
     1
 92
        0
176
     1
 66
   257
176
     1
 43
1.0
176
     1
 76
     1
176
     1
 77
     6
176
     1
 78
     2
176
     1
 67
     7
176
     1
 79
     3
176
     1
170
     0
176
     1
171
     0
176
     1
290
     0
176
     1
 93
        1
176
     1
 44
0.0
176
     1
173
     0
176
     1
  0
VISUALSTYLE
  5
30
102
{ACAD_REACTORS
330
2A
102
}
330
2A
100
AcDbVisualStyle
  2
3dWireframe
 70
     5
177
     2
291
     0
 71
     0
176
     1
 72
     2
176
     1
 73
     0
176
     1
 90
        0
176
     1
 40
-0.6
176
     1
 41
-30.0
176
     1
 62
     5
 63
     7
421
 16777215
176
     1
 74
     1
176
     1
 91
        4
176
     1
 64
     7
176
     1
 65
   257
176
     1
 75
     1
176
     1
175
     1
176
     1
 42
1.0
176
     1
 92
        0
176
     1
 66
   257
176
     1
 43
1.0
176
     1
 76
     1
176
     1
 77
     6
176
     1
 78
     2
176
     1
 67
     7
176
     1
 79
     5
176
     1
170
     0
176
     1
171
     0
176
     1
290
     0
176
     1
 93
        1
176
     1
 44
0.0
176
     1
173
     0
176
     1
  0
VISUALSTYLE
  5
32
102
{ACAD_REACTORS
330
2A
102
}
330
2A
100
AcDbVisualStyle
  2
Basic
 70
     7
177
     2
291
     1
 71
     1
176
     1
 72
     0
176
     1
 73
     1
176
     1
 90
        0
176
     1
 40
-0.6
176
     1
 41
-30.0
176
     1
 62
     5
 63
     7
421
 16777215
176
     1
 74
     0
176
     1
 91
        4
176
     1
 64
     7
176
     1
 65
   257
176
     1
 75
     1
176
     1
175
     1
176
     1
 42
1.0
176
     1
 92
        8
176
     1
 66
     7
176
     1
 43
1.0
176
     1
 76
     1
176
     1
 77
     6
176
     1
 78
     2
176
     1
 67
     7
176
     1
 79
     5
176
     1
170
     0
176
     1
171
     0
176
     1
290
     0
176
     1
 93
        1
176
     1
 44
0.0
176
     1
173
     0
176
     1
  0
VISUALSTYLE
  5
36
102
{ACAD_REACTORS
330
2A
102
}
330
2A
100
AcDbVisualStyle
  2
Brighten
 70
    12
177
     2
291
     1
 71
     2
176
     1
 72
     2
176
     1
 73
     0
176
     1
 90
        0
176
     1
 40
-0.6
176
     1
 41
-30.0
176
     1
 62
     5
 63
     7
421
 16777215
176
     1
 74
     1
176
     1
 91
        4
176
     1
 64
     7
176
     1
 65
   257
176
     1
 75
     1
176
     1
175
     1
176
     1
 42
1.0
176
     1
 92
        8
176
     1
 66
     7
176
     1
 43
1.0
176
     1
 76
     1
176
     1
 77
     6
176
     1
 78
     2
176
     1
 67
     7
176
     1
 79
     5
176
     1
170
     0
176
     1
171
     0
176
     1
290
     0
176
     1
 93
        1
176
     1
 44
50.0
176
     1
173
     0
176
     1
  0
VISUALSTYLE
  5
3A
102
{ACAD_REACTORS
330
2A
102
}
330
2A
100
AcDbVisualStyle
  2
ColorChange
 70
    16
177
     2
291
     1
 71
     2
176
     1
 72
     2
176
     1
 73
     3
176
     1
 90
        0
176
     1
 40
-0.6
176
     1
 41
-30.0
176
     1
 62
     5
 63
     8
421
  8421504
176
     1
 74
     1
176
     1
 91
        4
176
     1
 64
     7
176
     1
 65
   257
176
     1
 75
     1
176
     1
175
     1
176
     1
 42
1.0
176
     1
 92
        8
176
     1
 66
     8
424
  8421504
176
     1
 43
1.0
176
     1
 76
     1
176
     1
 77
     6
176
     1
 78
     2
176
     1
 67
     7
176
     1
 79
     5
176
     1
170
     0
176
     1
171
     0
176
     1
290
     0
176
     1
 93
        1
176
     1
 44
0.0
176
     1
173
     0
176
     1
  0
VISUALSTYLE
  5
34
102
{ACAD_REACTORS
330
2A
102
}
330
2A
100
AcDbVisualStyle
  2
Conceptual
 70
     9
177
     2
291
     0
 71
     3
176
     1
 72
     2
176
     1
 73
     0
176
     1
 90
        0
176
     1
 40
-0.6
176
     1
 41
-30.0
176
     1
 62
     5
 63
     7
421
 16777215
176
     1
 74
     2
176
     1
 91
        2
176
     1
 64
     7
176
     1
 65
   257
176
     1
 75
     1
176
     1
175
     1
176
     1
 42
40.0
176
     1
 92
        8
176
     1
 66
     7
176
     1
 43
1.0
176
     1
 76
     1
176
     1
 77
     6
176
     1
 78
     2
176
     1
 67
     7
176
     1
 79
     3
176
     1
170
     0
176
     1
171
     0
176
     1
290
     0
176
     1
 93
        1
176
     1
 44
0.0
176
     1
173
     0
176
     1
  0
VISUALSTYLE
  5
35
102
{ACAD_REACTORS
330
2A
102
}
330
2A
100
AcDbVisualStyle
  2
Dim
 70
    11
177
     2
291
     1
 71
     2
176
     1
 72
     2
176
     1
 73
     0
176
     1
 90
        0
176
     1
 40
-0.6
176
     1
 41
-30.0
176
     1
 62
     5
 63
     7
421
 16777215
176
     1
 74
     1
176
     1
 91
        4
176
     1
 64
     7
176
     1
 65
   257
176
     1
 75
     1
176
     1
175
     1
176
     1
 42
1.0
176
     1
 92
        8
176
     1
 66
     7
176
     1
 43
1.0
176
     1
 76
     1
176
     1
 77
     6
176
     1
 78
     2
176
     1
 67
     7
176
     1
 79
     5
176
     1
170
     0
176
     1
171
     0
176
     1
290
     0
176
     1
 93
        1
176
     1
 44
-50.0
176
     1
173
     0
176
     1
  0
VISUALSTYLE
  5
39
102
{ACAD_REACTORS
330
2A
102
}
330
2A
100
AcDbVisualStyle
  2
Facepattern
 70
    15
177
     2
291
     1
 71
     2
176
     1
 72
     2
176
     1
 73
     0
176
     1
 90
        0
176
     1
 40
-0.6
176
     1
 41
-30.0
176
     1
 62
     5
 63
     7
421
 16777215
176
     1
 74
     1
176
     1
 91
        4
176
     1
 64
     7
176
     1
 65
   257
176
     1
 75
     1
176
     1
175
     1
176
     1
 42
1.0
176
     1
 92
        8
176
     1
 66
     7
176
     1
 43
1.0
176
     1
 76
     1
176
     1
 77
     6
176
     1
 78
     2
176
     1
 67
     7
176
     1
 79
     5
176
     1
170
     0
176
     1
171
     0
176
     1
290
     0
176
     1
 93
        1
176
     1
 44
0.0
176
     1
173
     0
176
     1
  0
VISUALSTYLE
  5
2B
102
{ACAD_REACTORS
330
2A
102
}
330
2A
100
AcDbVisualStyle
  2
Flat
 70
     0
177
     2
291
     1
 71
     2
176
     1
 72
     1
176
     1
 73
     1
176
     1
 90
        2
176
     1
 40
-0.6
176
     1
 41
30.0
176
     1
 62
     5
 63
     7
421
 16777215
176
     1
 74
     0
176
     1
 91
        4
176
     1
 64
     7
176
     1
 65
   257
176
     1
 75
     1
176
     1
175
     1
176
     1
 42
1.0
176
     1
 92
        8
176
     1
 66
     7
176
     1
 43
1.0
176
     1
 76
     1
176
     1
 77
     6
176
     1
 78
     2
176
     1
 67
     7
176
     1
 79
     5
176
     1
170
     0
176
     1
171
     0
176
     1
290
     0
176
     1
 93
       13
176
     1
 44
0.0
176
     1
173
     0
176
     1
  0
VISUALSTYLE
  5
2C
102
{ACAD_REACTORS
330
2A
102
}
330
2A
100
AcDbVisualStyle
  2
FlatWithEdges
 70
     1
177
     2
291
     1
 71
     2
176
     1
 72
     1
176
     1
 73
     1
176
     1
 90
        2
176
     1
 40
-0.6
176
     1
 41
30.0
176
     1
 62
     5
 63
     7
421
 16777215
176
     1
 74
     1
176
     1
 91
        4
176
     1
 64
     7
176
     1
 65
   257
176
     1
 75
     1
176
     1
175
     1
176
     1
 42
1.0
176
     1
 92
        0
176
     1
 66
   257
176
     1
 43
1.0
176
     1
 76
     1
176
     1
 77
     6
176
     1
 78
     2
176
     1
 67
     7
176
     1
 79
     5
176
     1
170
     0
176
     1
171
     0
176
     1
290
     0
176
     1
 93
       13
176
     1
 44
0.0
176
     1
173
     0
176
     1
  0
VISUALSTYLE
  5
2D
102
{ACAD_REACTORS
330
2A
102
}
330
2A
100
AcDbVisualStyle
  2
Gouraud
 70
     2
177
     2
291
     1
 71
     2
176
     1
 72
     2
176
     1
 73
     1
176
     1
 90
        2
176
     1
 40
-0.6
176
     1
 41
30.0
176
     1
 62
     5
 63
     7
421
 16777215
176
     1
 74
     0
176
     1
 91
        4
176
     1
 64
     7
176
     1
 65
   257
176
     1
 75
     1
176
     1
175
     1
176
     1
 42
1.0
176
     1
 92
        0
176
     1
 66
     7
176
     1
 43
1.0
176
     1
 76
     1
176
     1
 77
     6
176
     1
 78
     2
176
     1
 67
     7
176
     1
 79
     5
176
     1
170
     0
176
     1
171
     0
176
     1
290
     0
176
     1
 93
       13
176
     1
 44
0.0
176
     1
173
     0
176
     1
  0
VISUALSTYLE
  5
2E
102
{ACAD_REACTORS
330
2A
102
}
330
2A
100
AcDbVisualStyle
  2
GouraudWithEdges
 70
     3
177
     2
291
     1
 71
     2
176
     1
 72
     2
176
     1
 73
     1
176
     1
 90
        2
176
     1
 40
-0.6
176
     1
 41
30.0
176
     1
 62
     5
 63
     7
421
 16777215
176
     1
 74
     1
176
     1
 91
        4
176
     1
 64
     7
176
     1
 65
   257
176
     1
 75
     1
176
     1
175
     1
176
     1
 42
1.0
176
     1
 92
        0
176
     1
 66
   257
176
     1
 43
1.0
176
     1
 76
     1
176
     1
 77
     6
176
     1
 78
     2
176
     1
 67
     7
176
     1
 79
     5
176
     1
170
     0
176
     1
171
     0
176
     1
290
     0
176
     1
 93
       13
176
     1
 44
0.0
176
     1
173
     0
176
     1
  0
VISUALSTYLE
  5
38
102
{ACAD_REACTORS
330
2A
102
}
330
2A
100
AcDbVisualStyle
  2
Linepattern
 70
    14
177
     2
291
     1
 71
     2
176
     1
 72
     2
176
     1
 73
     0
176
     1
 90
        0
176
     1
 40
-0.6
176
     1
 41
-30.0
176
     1
 62
     5
 63
     7
421
 16777215
176
     1
 74
     1
176
     1
 91
        4
176
     1
 64
     7
176
     1
 65
   257
176
     1
 75
     7
176
     1
175
     7
176
     1
 42
1.0
176
     1
 92
        8
176
     1
 66
     7
176
     1
 43
1.0
176
     1
 76
     1
176
     1
 77
     6
176
     1
 78
     2
176
     1
 67
     7
176
     1
 79
     5
176
     1
170
     0
176
     1
171
     0
176
     1
290
     0
176
     1
 93
        1
176
     1
 44
0.0
176
     1
173
     0
176
     1
  0
VISUALSTYLE
  5
33
102
{ACAD_REACTORS
330
2A
102
}
330
2A
100
AcDbVisualStyle
  2
Realistic
 70
     8
177
     2
291
     0
 71
     2
176
     1
 72
     2
176
     1
 73
     0
176
     1
 90
        0
176
     1
 40
-0.6
176
     1
 41
-30.0
176
     1
 62
     5
 63
     7
421
 16777215
176
     1
 74
     1
176
     1
 91
        0
176
     1
 64
     7
176
     1
 65
   257
176
     1
 75
     1
176
     1
175
     1
176
     1
 42
1.0
176
     1
 92
        8
176
     1
 66
     8
424
  7895160
176
     1
 43
1.0
176
     1
 76
     1
176
     1
 77
     6
176
     1
 78
     2
176
     1
 67
     7
176
     1
 79
     5
176
     1
170
     0
176
     1
171
     0
176
     1
290
     0
176
     1
 93
       13
176
     1
 44
0.0
176
     1
173
     0
176
     1
  0
VISUALSTYLE
  5
37
102
{ACAD_REACTORS
330
2A
102
}
330
2A
100
AcDbVisualStyle
  2
Thicken
 70
    13
177
     2
291
     1
 71
     2
176
     1
 72
     2
176
     1
 73
     0
176
     1
 90
        0
176
     1
 40
-0.6
176
     1
 41
-30.0
176
     1
 62
     5
 63
     7
421
 16777215
176
     1
 74
     1
176
     1
 91
        4
176
     1
 64
     7
176
     1
 65
   257
176
     1
 75
     1
176
     1
175
     1
176
     1
 42
1.0
176
     1
 92
       12
176
     1
 66
     7
176
     1
 43
1.0
176
     1
 76
     1
176
     1
 77
     6
176
     1
 78
     2
176
     1
 67
     7
176
     1
 79
     5
176
     1
170
     0
176
     1
171
     0
176
     1
290
     0
176
     1
 93
        1
176
     1
 44
0.0
176
     1
173
     0
176
     1
  0
ENDSEC
  0
EOF
