  0
SECTION
  2
HEADER
  9
$ACADVER
  1
AC1024
  9
$ACADMAINTVER
 70
     6
  9
$DWGCODEPAGE
  3
UNDEFINED
  9
$INSBASE
 10
0.0
 20
0.0
 30
0.0
  9
$EXTMIN
 10
1.000000000000000E+20
 20
1.000000000000000E+20
 30
1.000000000000000E+20
  9
$EXTMAX
 10
-1.000000000000000E+20
 20
-1.000000000000000E+20
 30
-1.000000000000000E+20
  9
$LIMMIN
 10
0.0
 20
0.0
  9
$LIMMAX
 10
12.0
 20
9.0
  9
$ORTHOMODE
 70
     0
  9
$REGENMODE
 70
     1
  9
$FILLMODE
 70
     1
  9
$QTEXTMODE
 70
     0
  9
$MIRRTEXT
 70
     1
  9
$LTSCALE
 40
1.0
  9
$ATTMODE
 70
     1
  9
$TEXTSIZE
 40
0.2
  9
$TRACEWID
 40
0.05
  9
$TEXTSTYLE
  7
Standard
  9
$CLAYER
  8
0
  9
$CELTYPE
  6
ByLayer
  9
$CECOLOR
 62
   256
  9
$CELTSCALE
 40
1.0
  9
$DISPSILH
 70
     0
  9
$DIMSCALE
 40
1.0
  9
$DIMASZ
 40
0.18
  9
$DIMEXO
 40
0.0625
  9
$DIMDLI
 40
0.38
  9
$DIMRND
 40
0.0
  9
$DIMDLE
 40
0.0
  9
$DIMEXE
 40
0.18
  9
$DIMTP
 40
0.0
  9
$DIMTM
 40
0.0
  9
$DIMTXT
 40
0.18
  9
$DIMCEN
 40
0.09
  9
$DIMTSZ
 40
0.0
  9
$DIMTOL
 70
     0
  9
$DIMLIM
 70
     0
  9
$DIMTIH
 70
     1
  9
$DIMTOH
 70
     1
  9
$DIMSE1
 70
     0
  9
$DIMSE2
 70
     0
  9
$DIMTAD
 70
     0
  9
$DIMZIN
 70
     0
  9
$DIMBLK
  1

  9
$DIMASO
 70
     1
  9
$DIMSHO
 70
     1
  9
$DIMPOST
  1

  9
$DIMAPOST
  1

  9
$DIMALT
 70
     0
  9
$DIMALTD
 70
     2
  9
$DIMALTF
 40
25.4
  9
$DIMLFAC
 40
1.0
  9
$DIMTOFL
 70
     0
  9
$DIMTVP
 40
0.0
  9
$DIMTIX
 70
     0
  9
$DIMSOXD
 70
     0
  9
$DIMSAH
 70
     0
  9
$DIMBLK1
  1

  9
$DIMBLK2
  1

  9
$DIMSTYLE
  2
Standard
  9
$DIMCLRD
 70
     0
  9
$DIMCLRE
 70
     0
  9
$DIMCLRT
 70
     0
  9
$DIMTFAC
 40
1.0
  9
$DIMGAP
 40
0.09
  9
$DIMJUST
 70
     0
  9
$DIMSD1
 70
     0
  9
$DIMSD2
 70
     0
  9
$DIMTOLJ
 70
     1
  9
$DIMTZIN
 70
     0
  9
$DIMALTZ
 70
     0
  9
$DIMALTTZ
 70
     0
  9
$DIMUPT
 70
     0
  9
$DIMDEC
 70
     4
  9
$DIMTDEC
 70
     4
  9
$DIMALTU
 70
     2
  9
$DIMALTTD
 70
     2
  9
$DIMTXSTY
  7
Standard
  9
$DIMAUNIT
 70
     0
  9
$DIMADEC
 70
     0
  9
$DIMALTRND
 40
0.0
  9
$DIMAZIN
 70
     0
  9
$DIMDSEP
 70
    46
  9
$DIMATFIT
 70
     3
  9
$DIMFRAC
 70
     0
  9
$DIMLDRBLK
  1

  9
$DIMLUNIT
 70
     2
  9
$DIMLWD
 70
    -2
  9
$DIMLWE
 70
    -2
  9
$DIMTMOVE
 70
     0
  9
$DIMFXL
 40
1.0
  9
$DIMFXLON
 70
     0
  9
$DIMJOGANG
 40
0.7853981633974483
  9
$DIMTFILL
 70
     0
  9
$DIMTFILLCLR
 70
     0
  9
$DIMARCSYM
 70
     0
  9
$DIMLTYPE
  6

  9
$DIMLTEX1
  6

  9
$DIMLTEX2
  6

  9
$DIMTXTDIRECTION
 70
     0
  9
$LUNITS
 70
     2
  9
$LUPREC
 70
     4
  9
$SKETCHINC
 40
0.1
  9
$FILLETRAD
 40
0.5
  9
$AUNITS
 70
     0
  9
$AUPREC
 70
     0
  9
$MENU
  1
.
  9
$ELEVATION
 40
0.0
  9
$PELEVATION
 40
0.0
  9
$THICKNESS
 40
0.0
  9
$LIMCHECK
 70
     0
  9
$CHAMFERA
 40
0.5
  9
$CHAMFERB
 40
0.5
  9
$CHAMFERC
 40
1.0
  9
$CHAMFERD
 40
0.0
  9
$SKPOLY
 70
     0
  9
$TDCREATE
 40
2457917.595023148
  9
$TDUCREATE
 40
2457917.220023148
  9
$TDUPDATE
 40
2457917.595023148
  9
$TDUUPDATE
 40
2457917.220023148
  9
$TDINDWG
 40
0.0000000116
  9
$TDUSRTIMER
 40
0.0000000116
  9
$USRTIMER
 70
     1
  9
$ANGBASE
 50
0.0
  9
$ANGDIR
 70
     0
  9
$PDMODE
 70
     0
  9
$PDSIZE
 40
0.0
  9
$PLINEWID
 40
0.0
  9
$SPLFRAME
 70
     0
  9
$SPLINETYPE
 70
     6
  9
$SPLINESEGS
 70
     8
  9
$HANDSEED
  5
101
  9
$SURFTAB1
 70
     6
  9
$SURFTAB2
 70
     6
  9
$SURFTYPE
 70
     6
  9
$SURFU
 70
     6
  9
$SURFV
 70
     6
  9
$UCSBASE
  2

  9
$UCSNAME
  2

  9
$UCSORG
 10
0.0
 20
0.0
 30
0.0
  9
$UCSXDIR
 10
1.0
 20
0.0
 30
0.0
  9
$UCSYDIR
 10
0.0
 20
1.0
 30
0.0
  9
$UCSORTHOREF
  2

  9
$UCSORTHOVIEW
 70
     0
  9
$UCSORGTOP
 10
0.0
 20
0.0
 30
0.0
  9
$UCSORGBOTTOM
 10
0.0
 20
0.0
 30
0.0
  9
$UCSORGLEFT
 10
0.0
 20
0.0
 30
0.0
  9
$UCSORGRIGHT
 10
0.0
 20
0.0
 30
0.0
  9
$UCSORGFRONT
 10
0.0
 20
0.0
 30
0.0
  9
$UCSORGBACK
 10
0.0
 20
0.0
 30
0.0
  9
$PUCSBASE
  2

  9
$PUCSNAME
  2

  9
$PUCSORG
 10
0.0
 20
0.0
 30
0.0
  9
$PUCSXDIR
 10
1.0
 20
0.0
 30
0.0
  9
$PUCSYDIR
 10
0.0
 20
1.0
 30
0.0
  9
$PUCSORTHOREF
  2

  9
$PUCSORTHOVIEW
 70
     0
  9
$PUCSORGTOP
 10
0.0
 20
0.0
 30
0.0
  9
$PUCSORGBOTTOM
 10
0.0
 20
0.0
 30
0.0
  9
$PUCSORGLEFT
 10
0.0
 20
0.0
 30
0.0
  9
$PUCSORGRIGHT
 10
0.0
 20
0.0
 30
0.0
  9
$PUCSORGFRONT
 10
0.0
 20
0.0
 30
0.0
  9
$PUCSORGBACK
 10
0.0
 20
0.0
 30
0.0
  9
$USERI1
 70
     0
  9
$USERI2
 70
     0
  9
$USERI3
 70
     0
  9
$USERI4
 70
     0
  9
$USERI5
 70
     0
  9
$USERR1
 40
0.0
  9
$USERR2
 40
0.0
  9
$USERR3
 40
0.0
  9
$USERR4
 40
0.0
  9
$USERR5
 40
0.0
  9
$WORLDVIEW
 70
     1
  9
$SHADEDGE
 70
     3
  9
$SHADEDIF
 70
    70
  9
$TILEMODE
 70
     1
  9
$MAXACTVP
 70
    64
  9
$PINSBASE
 10
0.0
 20
0.0
 30
0.0
  9
$PLIMCHECK
 70
     0
  9
$PEXTMIN
 10
1.000000000000000E+20
 20
1.000000000000000E+20
 30
1.000000000000000E+20
  9
$PEXTMAX
 10
-1.000000000000000E+20
 20
-1.000000000000000E+20
 30
-1.000000000000000E+20
  9
$PLIMMIN
 10
0.0
 20
0.0
  9
$PLIMMAX
 10
12.0
 20
9.0
  9
$UNITMODE
 70
     0
  9
$VISRETAIN
 70
     1
  9
$PLINEGEN
 70
     0
  9
$PSLTSCALE
 70
     1
  9
$TREEDEPTH
 70
  3020
  9
$CMLSTYLE
  2
Standard
  9
$CMLJUST
 70
     0
  9
$CMLSCALE
 40
1.0
  9
$PROXYGRAPHICS
 70
     1
  9
$MEASUREMENT
 70
     0
  9
$CELWEIGHT
370
    -1
  9
$ENDCAPS
280
     0
  9
$JOINSTYLE
280
     0
  9
$LWDISPLAY
290
     1
  9
$INSUNITS
 70
     1
  9
$HYPERLINKBASE
  1

  9
$STYLESHEET
  1

  9
$XEDIT
290
     1
  9
$CEPSNTYPE
380
     0
  9
$PSTYLEMODE
290
     1
  9
$FINGERPRINTGUID
  2
{68D59F05-7741-53FA-7E84-271B10B2A654}
  9
$VERSIONGUID
  2
{FAEB1C32-E019-11D5-929B-00C0DF256EC4}
  9
$EXTNAMES
290
     1
  9
$PSVPSCALE
 40
0.0
  9
$OLESTARTUP
290
     0
  9
$SORTENTS
280
   127
  9
$INDEXCTL
280
     0
  9
$HIDETEXT
280
     1
  9
$XCLIPFRAME
280
     2
  9
$HALOGAP
280
     0
  9
$OBSCOLOR
 70
   257
  9
$OBSLTYPE
280
     0
  9
$INTERSECTIONDISPLAY
280
     0
  9
$INTERSECTIONCOLOR
 70
   257
  9
$DIMASSOC
280
     2
  9
$PROJECTNAME
  1

  9
$CAMERADISPLAY
290
     0
  9
$LENSLENGTH
 40
50.0
  9
$CAMERAHEIGHT
 40
0.0
  9
$STEPSPERSEC
 40
2.0
  9
$STEPSIZE
 40
6.0
  9
$3DDWFPREC
 40
2.0
  9
$PSOLWIDTH
 40
0.25
  9
$PSOLHEIGHT
 40
4.0
  9
$LOFTANG1
 40
1.570796326794897
  9
$LOFTANG2
 40
1.570796326794897
  9
$LOFTMAG1
 40
0.0
  9
$LOFTMAG2
 40
0.0
  9
$LOFTPARAM
 70
     7
  9
$LOFTNORMALS
280
     1
  9
$LATITUDE
 40
37.795
  9
$LONGITUDE
 40
-122.394
  9
$NORTHDIRECTION
 40
0.0
  9
$TIMEZONE
 70
 -8000
  9
$LIGHTGLYPHDISPLAY
280
     1
  9
$TILEMODELIGHTSYNCH
280
     1
  9
$CMATERIAL
347
3C
  9
$SOLIDHIST
280
     1
  9
$SHOWHIST
280
     1
  9
$DWFFRAME
280
     2
  9
$DGNFRAME
280
     2
  9
$REALWORLDSCALE
290
     1
  9
$INTERFERECOLOR
 62
   256
  9
$CSHADOW
280
     0
  9
$SHADOWPLANELOCATION
 40
0.0
  0
ENDSEC
  0
SECTION
  2
CLASSES
  0
CLASS
  1
ACDBDICTIONARYWDFLT
  2
AcDbDictionaryWithDefault
  3
ObjectDBX Classes
 90
        0
 91
        4
280
     0
281
     0
  0
CLASS
  1
VISUALSTYLE
  2
AcDbVisualStyle
  3
ObjectDBX Classes
 90
     4095
 91
        4
280
     0
281
     0
  0
CLASS
  1
MATERIAL
  2
AcDbMaterial
  3
ObjectDBX Classes
 90
     1153
 91
        4
280
     0
281
     0
  0
CLASS
  1
SUN
  2
AcDbSun
  3
SCENEOE
 90
     1024
 91
        4
280
     0
281
     0
  0
ENDSEC
  0
SECTION
  2
TABLES
  0
TABLE
  2
VPORT
  5
8
330
0
100
AcDbSymbolTable
 70
     1
  0
VPORT
  5
29
330
8
100
AcDbSymbolTableRecord
100
AcDbViewportTableRecord
  2
*Active
 70
     0
 10
0.0
 20
0.0
 11
1.0
 21
1.0
 12
0.0
 22
0.0
 13
0.0
 23
0.0
 14
0.5
 24
0.5
 15
0.5
 25
0.5
 16
0.0
 26
0.0
 36
1.0
 17
91.00082462281999
 27
-128.4993055234307
 37
0.0
 40
256.9986110468615
 41
0.7081814508812795
 42
50.0
 43
0.0
 44
0.0
 50
0.0
 51
0.0
 71
     0
 72
   100
 73
     1
 74
     3
 75
     0
 76
     0
 77
     0
 78
     0
281
     0
 65
     1
110
0.0
120
0.0
130
0.0
111
1.0
121
0.0
131
0.0
112
0.0
122
1.0
132
0.0
 79
     0
146
0.0
 60
     3
 61
     5
292
     1
282
     1
141
0.0
142
0.0
 63
   250
361
3F
  0
ENDTAB
  0
TABLE
  2
LTYPE
  5
5
330
0
100
AcDbSymbolTable
 70
     1
  0
LTYPE
  5
14
330
5
100
AcDbSymbolTableRecord
100
AcDbLinetypeTableRecord
  2
ByBlock
 70
     0
  3

 72
    65
 73
     0
 40
0.0
  0
LTYPE
  5
15
330
5
100
AcDbSymbolTableRecord
100
AcDbLinetypeTableRecord
  2
ByLayer
 70
     0
  3

 72
    65
 73
     0
 40
0.0
  0
LTYPE
  5
16
330
5
100
AcDbSymbolTableRecord
100
AcDbLinetypeTableRecord
  2
Continuous
 70
     0
  3
Solid line
 72
    65
 73
     0
 40
0.0
  0
ENDTAB
  0
TABLE
  2
LAYER
  5
2
330
0
100
AcDbSymbolTable
 70
     2
  0
LAYER
  5
10
330
2
100
AcDbSymbolTableRecord
100
AcDbLayerTableRecord
  2
0
 70
     0
 62
     7
  6
Continuous
370
    -3
390
F
347
3E
  0
LAYER
  5
40
330
2
100
AcDbSymbolTableRecord
100
AcDbLayerTableRecord
  2
_U+30EC_U+30A4_U+30E4_U+30FC 1
 70
     0
 62
     7
  6
Continuous
370
    -3
390
F
347
3E
  0
ENDTAB
  0
TABLE
  2
STYLE
  5
3
330
0
100
AcDbSymbolTable
 70
     1
  0
STYLE
  5
11
330
3
100
AcDbSymbolTableRecord
100
AcDbTextStyleTableRecord
  2
Standard
 70
     0
 40
0.0
 41
1.0
 50
0.0
 71
     0
 42
0.2
  3
txt
  4

  0
ENDTAB
  0
TABLE
  2
VIEW
  5
6
330
0
100
AcDbSymbolTable
 70
     0
  0
ENDTAB
  0
TABLE
  2
UCS
  5
7
330
0
100
AcDbSymbolTable
 70
     0
  0
ENDTAB
  0
TABLE
  2
APPID
  5
9
330
0
100
AcDbSymbolTable
 70
     1
  0
APPID
  5
12
330
9
100
AcDbSymbolTableRecord
100
AcDbRegAppTableRecord
  2
ACAD
 70
     0
  0
ENDTAB
  0
TABLE
  2
DIMSTYLE
  5
A
330
0
100
AcDbSymbolTable
 70
     1
100
AcDbDimStyleTable
  0
DIMSTYLE
105
27
330
A
100
AcDbSymbolTableRecord
100
AcDbDimStyleTableRecord
  2
Standard
 70
     0
178
     0
340
11
  0
ENDTAB
  0
TABLE
  2
BLOCK_RECORD
  5
1
330
0
100
AcDbSymbolTable
 70
     7
  0
BLOCK_RECORD
  5
1F
330
1
100
AcDbSymbolTableRecord
100
AcDbBlockTableRecord
  2
*Model_Space
340
22
 70
     0
280
     1
281
     0
  0
BLOCK_RECORD
  5
1B
330
1
100
AcDbSymbolTableRecord
100
AcDbBlockTableRecord
  2
*Paper_Space
340
1E
 70
     0
280
     1
281
     0
  0
BLOCK_RECORD
  5
23
330
1
100
AcDbSymbolTableRecord
100
AcDbBlockTableRecord
  2
*Paper_Space0
340
26
 70
     0
280
     1
281
     0
  0
BLOCK_RECORD
  5
83
330
1
100
AcDbSymbolTableRecord
100
AcDbBlockTableRecord
  2
block 2
340
0
102
{BLKREFS
331
84
102
}
 70
     0
280
     1
281
     0
  0
BLOCK_RECORD
  5
98
330
1
100
AcDbSymbolTableRecord
100
AcDbBlockTableRecord
  2
block 3
340
0
102
{BLKREFS
331
99
102
}
 70
     0
280
     1
281
     0
  0
BLOCK_RECORD
  5
BB
330
1
100
AcDbSymbolTableRecord
100
AcDbBlockTableRecord
  2
block 4
340
0
102
{BLKREFS
331
BC
102
}
 70
     0
280
     1
281
     0
  0
BLOCK_RECORD
  5
CD
330
1
100
AcDbSymbolTableRecord
100
AcDbBlockTableRecord
  2
block 5
340
0
102
{BLKREFS
331
CE
102
}
 70
     0
280
     1
281
     0
  0
BLOCK_RECORD
  5
E2
330
1
100
AcDbSymbolTableRecord
100
AcDbBlockTableRecord
  2
block 6
340
0
102
{BLKREFS
331
E3
102
}
 70
     0
280
     1
281
     0
  0
BLOCK_RECORD
  5
F7
330
1
100
AcDbSymbolTableRecord
100
AcDbBlockTableRecord
  2
block 7
340
0
102
{BLKREFS
331
F8
102
}
 70
     0
280
     1
281
     0
  0
ENDTAB
  0
ENDSEC
  0
SECTION
  2
BLOCKS
  0
BLOCK
  5
20
330
1F
100
AcDbEntity
  8
0
100
AcDbBlockBegin
  2
*Model_Space
 70
     0
 10
0.0
 20
0.0
 30
0.0
  3
*Model_Space
  1

  0
ENDBLK
  5
21
330
1F
100
AcDbEntity
  8
0
100
AcDbBlockEnd
  0
BLOCK
  5
1C
330
1B
100
AcDbEntity
 67
     1
  8
0
100
AcDbBlockBegin
  2
*Paper_Space
 70
     0
 10
0.0
 20
0.0
 30
0.0
  3
*Paper_Space
  1

  0
ENDBLK
  5
1D
330
1B
100
AcDbEntity
 67
     1
  8
0
100
AcDbBlockEnd
  0
BLOCK
  5
24
330
23
100
AcDbEntity
  8
0
100
AcDbBlockBegin
  2
*Paper_Space0
 70
     0
 10
0.0
 20
0.0
 30
0.0
  3
*Paper_Space0
  1

  0
ENDBLK
  5
25
330
23
100
AcDbEntity
  8
0
100
AcDbBlockEnd
  0
BLOCK
  5
85
330
83
100
AcDbEntity
  8
0
100
AcDbBlockBegin
  2
block 2
 70
     0
 10
0.0
 20
0.0
 30
0.0
  3
block 2
  1

  0
SPLINE
  5
87
330
83
100
AcDbEntity
  8
_U+30EC_U+30A4_U+30E4_U+30FC 1
370
     0
100
AcDbSpline
210
0.0
220
0.0
230
1.0
 70
    11
 71
     3
 72
    26
 73
    22
 74
     0
 42
0.0000000001
 43
0.0000000001
 12
1.0
 22
0.0
 32
0.0
 13
1.0
 23
0.0
 33
0.0
 40
0.0
 40
0.0
 40
0.0
 40
0.0
 40
1.0
 40
1.0
 40
1.0
 40
2.0
 40
2.0
 40
2.0
 40
3.0
 40
3.0
 40
3.0
 40
4.0
 40
4.0
 40
4.0
 40
5.0
 40
5.0
 40
5.0
 40
6.0
 40
6.0
 40
6.0
 40
7.0
 40
7.0
 40
7.0
 40
7.0
 10
74.92410886798773
 20
-142.0109700165806
 30
0.0
 10
74.92410886798773
 20
-142.0109700165806
 30
0.0
 10
74.92410886798773
 20
-140.906816913558
 30
0.0
 10
74.92410886798773
 20
-140.906816913558
 30
0.0
 10
74.92410886798773
 20
-140.906816913558
 30
0.0
 10
74.57133109029814
 20
-140.906816913558
 30
0.0
 10
74.57133109029814
 20
-140.906816913558
 30
0.0
 10
74.57133109029814
 20
-140.906816913558
 30
0.0
 10
74.57133109029814
 20
-140.7586778076923
 30
0.0
 10
74.57133109029814
 20
-140.7586778076923
 30
0.0
 10
74.92634818005314
 20
-140.7438638971057
 30
0.0
 10
74.97612980981499
 20
-140.5809108806534
 30
0.0
 10
75.00765243350503
 20
-140.4665337105431
 30
0.0
 10
75.00765243350503
 20
-140.4665337105431
 30
0.0
 10
75.16371525898685
 20
-140.4665337105431
 30
0.0
 10
75.16371525898685
 20
-140.4665337105431
 30
0.0
 10
75.16371525898685
 20
-140.4665337105431
 30
0.0
 10
75.16371525898685
 20
-142.0109700165806
 30
0.0
 10
75.16371525898685
 20
-142.0109700165806
 30
0.0
 10
75.16371525898685
 20
-142.0109700165806
 30
0.0
 10
74.92410886798773
 20
-142.0109700165806
 30
0.0
 10
74.92410886798773
 20
-142.0109700165806
 30
0.0
  0
HATCH
  5
88
330
83
100
AcDbEntity
  8
_U+30EC_U+30A4_U+30E4_U+30FC 1
 62
     7
420
 16777215
100
AcDbHatch
 10
0.0
 20
0.0
 30
0.0
210
0.0
220
0.0
230
1.0
  2
SOLID
 70
     1
 71
     0
 91
        1
 92
        1
 93
        1
 72
     4
 94
        3
 73
     0
 74
     1
 95
       26
 96
       22
 40
0.0
 40
0.0
 40
0.0
 40
0.0
 40
1.0
 40
1.0
 40
1.0
 40
2.0
 40
2.0
 40
2.0
 40
3.0
 40
3.0
 40
3.0
 40
4.0
 40
4.0
 40
4.0
 40
5.0
 40
5.0
 40
5.0
 40
6.0
 40
6.0
 40
6.0
 40
7.0
 40
7.0
 40
7.0
 40
7.0
 10
74.92410886798773
 20
-142.0109700165806
 10
74.92410886798773
 20
-142.0109700165806
 10
74.92410886798773
 20
-140.906816913558
 10
74.92410886798773
 20
-140.906816913558
 10
74.92410886798773
 20
-140.906816913558
 10
74.57133109029814
 20
-140.906816913558
 10
74.57133109029814
 20
-140.906816913558
 10
74.57133109029814
 20
-140.906816913558
 10
74.57133109029814
 20
-140.7586778076923
 10
74.57133109029814
 20
-140.7586778076923
 10
74.92634818005314
 20
-140.7438638971057
 10
74.97612980981499
 20
-140.5809108806534
 10
75.00765243350503
 20
-140.4665337105431
 10
75.00765243350503
 20
-140.4665337105431
 10
75.16371525898685
 20
-140.4665337105431
 10
75.16371525898685
 20
-140.4665337105431
 10
75.16371525898685
 20
-140.4665337105431
 10
75.16371525898685
 20
-142.0109700165806
 10
75.16371525898685
 20
-142.0109700165806
 10
75.16371525898685
 20
-142.0109700165806
 10
74.92410886798773
 20
-142.0109700165806
 10
74.92410886798773
 20
-142.0109700165806
 97
        0
 97
        0
 75
     2
 76
     1
 98
        0
  0
SPLINE
  5
89
330
83
100
AcDbEntity
  8
_U+30EC_U+30A4_U+30E4_U+30FC 1
370
     0
100
AcDbSpline
210
0.0
220
0.0
230
1.0
 70
    11
 71
     3
 72
    44
 73
    40
 74
     0
 42
0.0000000001
 43
0.0000000001
 12
1.0
 22
0.0
 32
0.0
 13
1.0
 23
0.0
 33
0.0
 40
0.0
 40
0.0
 40
0.0
 40
0.0
 40
1.0
 40
1.0
 40
1.0
 40
2.0
 40
2.0
 40
2.0
 40
3.0
 40
3.0
 40
3.0
 40
4.0
 40
4.0
 40
4.0
 40
5.0
 40
5.0
 40
5.0
 40
6.0
 40
6.0
 40
6.0
 40
7.0
 40
7.0
 40
7.0
 40
8.0
 40
8.0
 40
8.0
 40
9.0
 40
9.0
 40
9.0
 40
10.0
 40
10.0
 40
10.0
 40
11.0
 40
11.0
 40
11.0
 40
12.0
 40
12.0
 40
12.0
 40
13.0
 40
13.0
 40
13.0
 40
13.0
 10
76.7832546466028
 20
-142.0109700165806
 30
0.0
 10
76.758449959109
 20
-141.9665282848209
 30
0.0
 10
76.73571232890636
 20
-141.9138183238965
 30
0.0
 10
76.73347301684095
 20
-141.6829969263848
 30
0.0
 10
76.72899439271012
 20
-141.4397731851262
 30
0.0
 10
76.66577689055578
 20
-141.3698377467756
 30
0.0
 10
76.47577987454426
 20
-141.3698377467756
 30
0.0
 10
76.47577987454426
 20
-141.3698377467756
 30
0.0
 10
76.03945853133736
 20
-141.3698377467756
 30
0.0
 10
76.03945853133736
 20
-141.3698377467756
 30
0.0
 10
76.03945853133736
 20
-141.3698377467756
 30
0.0
 10
76.03945853133736
 20
-142.0109700165806
 30
0.0
 10
76.03945853133736
 20
-142.0109700165806
 30
0.0
 10
76.03945853133736
 20
-142.0109700165806
 30
0.0
 10
75.78848332523691
 20
-142.0109700165806
 30
0.0
 10
75.78848332523691
 20
-142.0109700165806
 30
0.0
 10
75.78848332523691
 20
-142.0109700165806
 30
0.0
 10
75.78848332523691
 20
-140.4665337105431
 30
0.0
 10
75.78848332523691
 20
-140.4665337105431
 30
0.0
 10
75.78848332523691
 20
-140.4665337105431
 30
0.0
 10
76.50971406507396
 20
-140.4665337105431
 30
0.0
 10
76.50971406507396
 20
-140.4665337105431
 30
0.0
 10
76.83751490049549
 20
-140.4665337105431
 30
0.0
 10
77.01614310140569
 20
-140.6380994657085
 30
0.0
 10
77.01614310140569
 20
-140.8940700602626
 30
0.0
 10
77.01614310140569
 20
-140.9447129638958
 30
0.0
 10
77.00718585314404
 20
-141.0273952555418
 30
0.0
 10
76.9596435354476
 20
-141.1076659803481
 30
0.0
 10
76.896253778519
 20
-141.2113633544541
 30
0.0
 10
76.82631834016843
 20
-141.230311379623
 30
0.0
 10
76.76068927117441
 20
-141.2471923475007
 30
0.0
 10
76.90762259362032
 20
-141.2895670219693
 30
0.0
 10
76.97996959881057
 20
-141.3381428683113
 30
0.0
 10
76.9844482229414
 20
-141.6533691052117
 30
0.0
 10
76.98892684707222
 20
-141.9241536103523
 30
0.0
 10
77.02751191650701
 20
-141.9558484888166
 30
0.0
 10
77.09985892169726
 20
-142.0109700165806
 30
0.0
 10
77.09985892169726
 20
-142.0109700165806
 30
0.0
 10
76.7832546466028
 20
-142.0109700165806
 30
0.0
 10
76.7832546466028
 20
-142.0109700165806
 30
0.0
  0
SPLINE
  5
8A
330
83
100
AcDbEntity
  8
_U+30EC_U+30A4_U+30E4_U+30FC 1
370
     0
100
AcDbSpline
210
0.0
220
0.0
230
1.0
 70
    11
 71
     3
 72
    20
 73
    16
 74
     0
 42
0.0000000001
 43
0.0000000001
 12
1.0
 22
0.0
 32
0.0
 13
1.0
 23
0.0
 33
0.0
 40
0.0
 40
0.0
 40
0.0
 40
0.0
 40
1.0
 40
1.0
 40
1.0
 40
2.0
 40
2.0
 40
2.0
 40
3.0
 40
3.0
 40
3.0
 40
4.0
 40
4.0
 40
4.0
 40
5.0
 40
5.0
 40
5.0
 40
5.0
 10
76.51419268920479
 20
-140.6780625733374
 30
0.0
 10
76.51419268920479
 20
-140.6780625733374
 30
0.0
 10
76.03945853133736
 20
-140.6780625733374
 30
0.0
 10
76.03945853133736
 20
-140.6780625733374
 30
0.0
 10
76.03945853133736
 20
-140.6780625733374
 30
0.0
 10
76.03945853133736
 20
-141.1583088839812
 30
0.0
 10
76.03945853133736
 20
-141.1583088839812
 30
0.0
 10
76.03945853133736
 20
-141.1583088839812
 30
0.0
 10
76.51195337713938
 20
-141.1583088839812
 30
0.0
 10
76.51195337713938
 20
-141.1583088839812
 30
0.0
 10
76.61823457285934
 20
-141.1583088839812
 30
0.0
 10
76.76292858323983
 20
-141.0821722737572
 30
0.0
 10
76.76292858323983
 20
-140.9109510281403
 30
0.0
 10
76.76292858323983
 20
-140.8327473606251
 30
0.0
 10
76.72675508064471
 20
-140.6780625733374
 30
0.0
 10
76.51419268920479
 20
-140.6780625733374
 30
0.0
  0
HATCH
  5
8B
330
83
100
AcDbEntity
  8
_U+30EC_U+30A4_U+30E4_U+30FC 1
 62
     7
420
 16777215
100
AcDbHatch
 10
0.0
 20
0.0
 30
0.0
210
0.0
220
0.0
230
1.0
  2
SOLID
 70
     1
 71
     0
 91
        2
 92
        1
 93
        1
 72
     4
 94
        3
 73
     0
 74
     1
 95
       44
 96
       40
 40
0.0
 40
0.0
 40
0.0
 40
0.0
 40
1.0
 40
1.0
 40
1.0
 40
2.0
 40
2.0
 40
2.0
 40
3.0
 40
3.0
 40
3.0
 40
4.0
 40
4.0
 40
4.0
 40
5.0
 40
5.0
 40
5.0
 40
6.0
 40
6.0
 40
6.0
 40
7.0
 40
7.0
 40
7.0
 40
8.0
 40
8.0
 40
8.0
 40
9.0
 40
9.0
 40
9.0
 40
10.0
 40
10.0
 40
10.0
 40
11.0
 40
11.0
 40
11.0
 40
12.0
 40
12.0
 40
12.0
 40
13.0
 40
13.0
 40
13.0
 40
13.0
 10
76.7832546466028
 20
-142.0109700165806
 10
76.758449959109
 20
-141.9665282848209
 10
76.73571232890636
 20
-141.9138183238965
 10
76.73347301684095
 20
-141.6829969263848
 10
76.72899439271012
 20
-141.4397731851262
 10
76.66577689055578
 20
-141.3698377467756
 10
76.47577987454426
 20
-141.3698377467756
 10
76.47577987454426
 20
-141.3698377467756
 10
76.03945853133736
 20
-141.3698377467756
 10
76.03945853133736
 20
-141.3698377467756
 10
76.03945853133736
 20
-141.3698377467756
 10
76.03945853133736
 20
-142.0109700165806
 10
76.03945853133736
 20
-142.0109700165806
 10
76.03945853133736
 20
-142.0109700165806
 10
75.78848332523691
 20
-142.0109700165806
 10
75.78848332523691
 20
-142.0109700165806
 10
75.78848332523691
 20
-142.0109700165806
 10
75.78848332523691
 20
-140.4665337105431
 10
75.78848332523691
 20
-140.4665337105431
 10
75.78848332523691
 20
-140.4665337105431
 10
76.50971406507396
 20
-140.4665337105431
 10
76.50971406507396
 20
-140.4665337105431
 10
76.83751490049549
 20
-140.4665337105431
 10
77.01614310140569
 20
-140.6380994657085
 10
77.01614310140569
 20
-140.8940700602626
 10
77.01614310140569
 20
-140.9447129638958
 10
77.00718585314404
 20
-141.0273952555418
 10
76.9596435354476
 20
-141.1076659803481
 10
76.896253778519
 20
-141.2113633544541
 10
76.82631834016843
 20
-141.230311379623
 10
76.76068927117441
 20
-141.2471923475007
 10
76.90762259362032
 20
-141.2895670219693
 10
76.97996959881057
 20
-141.3381428683113
 10
76.9844482229414
 20
-141.6533691052117
 10
76.98892684707222
 20
-141.9241536103523
 10
77.02751191650701
 20
-141.9558484888166
 10
77.09985892169726
 20
-142.0109700165806
 10
77.09985892169726
 20
-142.0109700165806
 10
76.7832546466028
 20
-142.0109700165806
 10
76.7832546466028
 20
-142.0109700165806
 97
        0
 97
        0
 92
        1
 93
        1
 72
     4
 94
        3
 73
     0
 74
     1
 95
       20
 96
       16
 40
0.0
 40
0.0
 40
0.0
 40
0.0
 40
1.0
 40
1.0
 40
1.0
 40
2.0
 40
2.0
 40
2.0
 40
3.0
 40
3.0
 40
3.0
 40
4.0
 40
4.0
 40
4.0
 40
5.0
 40
5.0
 40
5.0
 40
5.0
 10
76.51419268920479
 20
-140.6780625733374
 10
76.51419268920479
 20
-140.6780625733374
 10
76.03945853133736
 20
-140.6780625733374
 10
76.03945853133736
 20
-140.6780625733374
 10
76.03945853133736
 20
-140.6780625733374
 10
76.03945853133736
 20
-141.1583088839812
 10
76.03945853133736
 20
-141.1583088839812
 10
76.03945853133736
 20
-141.1583088839812
 10
76.51195337713938
 20
-141.1583088839812
 10
76.51195337713938
 20
-141.1583088839812
 10
76.61823457285934
 20
-141.1583088839812
 10
76.76292858323983
 20
-141.0821722737572
 10
76.76292858323983
 20
-140.9109510281403
 10
76.76292858323983
 20
-140.8327473606251
 10
76.72675508064471
 20
-140.6780625733374
 10
76.51419268920479
 20
-140.6780625733374
 97
        0
 97
        0
 75
     2
 76
     1
 98
        0
  0
ENDBLK
  5
86
330
83
100
AcDbEntity
  8
0
100
AcDbBlockEnd
  0
BLOCK
  5
9A
330
98
100
AcDbEntity
  8
0
100
AcDbBlockBegin
  2
block 3
 70
     0
 10
0.0
 20
0.0
 30
0.0
  3
block 3
  1

  0
SPLINE
  5
9C
330
98
100
AcDbEntity
  8
_U+30EC_U+30A4_U+30E4_U+30FC 1
370
     0
100
AcDbSpline
210
0.0
220
0.0
230
1.0
 70
    11
 71
     3
 72
    44
 73
    40
 74
     0
 42
0.0000000001
 43
0.0000000001
 12
1.0
 22
0.0
 32
0.0
 13
1.0
 23
0.0
 33
0.0
 40
0.0
 40
0.0
 40
0.0
 40
0.0
 40
1.0
 40
1.0
 40
1.0
 40
2.0
 40
2.0
 40
2.0
 40
3.0
 40
3.0
 40
3.0
 40
4.0
 40
4.0
 40
4.0
 40
5.0
 40
5.0
 40
5.0
 40
6.0
 40
6.0
 40
6.0
 40
7.0
 40
7.0
 40
7.0
 40
8.0
 40
8.0
 40
8.0
 40
9.0
 40
9.0
 40
9.0
 40
10.0
 40
10.0
 40
10.0
 40
11.0
 40
11.0
 40
11.0
 40
12.0
 40
12.0
 40
12.0
 40
13.0
 40
13.0
 40
13.0
 40
13.0
 10
94.88757593113922
 20
-115.1586900211235
 30
0.0
 10
94.65468747633633
 20
-115.3173366682193
 30
0.0
 10
94.55512421681262
 20
-115.3914062211522
 30
0.0
 10
94.50344778453386
 20
-115.5350667028871
 30
0.0
 10
94.50344778453386
 20
-115.5350667028871
 30
0.0
 10
95.33509383467317
 20
-115.5350667028871
 30
0.0
 10
95.33509383467317
 20
-115.5350667028871
 30
0.0
 10
95.33509383467317
 20
-115.5350667028871
 30
0.0
 10
95.33509383467317
 20
-115.740394393808
 30
0.0
 10
95.33509383467317
 20
-115.740394393808
 30
0.0
 10
95.33509383467317
 20
-115.740394393808
 30
0.0
 10
94.236452884427
 20
-115.740394393808
 30
0.0
 10
94.236452884427
 20
-115.740394393808
 30
0.0
 10
94.27055932973097
 20
-115.382793482439
 30
0.0
 10
94.34049476808154
 20
-115.3045898149239
 30
0.0
 10
94.75183916902037
 20
-115.0062445459012
 30
0.0
 10
95.02537975054922
 20
-114.8074625364023
 30
0.0
 10
95.09565969844832
 20
-114.7397664101171
 30
0.0
 10
95.09565969844832
 20
-114.6023071002557
 30
0.0
 10
95.09565969844832
 20
-114.4837958155631
 30
0.0
 10
95.01883406912724
 20
-114.3527099323493
 30
0.0
 10
94.80833873497848
 20
-114.3527099323493
 30
0.0
 10
94.53031952931882
 20
-114.3527099323493
 30
0.0
 10
94.52136228105716
 20
-114.5831868203125
 30
0.0
 10
94.51688365692634
 20
-114.699631047714
 30
0.0
 10
94.51688365692634
 20
-114.699631047714
 30
0.0
 10
94.27710501115295
 20
-114.699631047714
 30
0.0
 10
94.27710501115295
 20
-114.699631047714
 30
0.0
 10
94.28640676896312
 20
-114.5726792790825
 30
0.0
 10
94.29743107451593
 20
-114.4605414210376
 30
0.0
 10
94.38355846164717
 20
-114.3420301363451
 30
0.0
 10
94.50103621769419
 20
-114.1813164319582
 30
0.0
 10
94.6998182271931
 20
-114.1473822414284
 30
0.0
 10
94.82418617421062
 20
-114.1473822414284
 30
0.0
 10
95.12046438594211
 20
-114.1473822414284
 30
0.0
 10
95.34198402564367
 20
-114.331522595115
 30
0.0
 10
95.34198402564367
 20
-114.6043741575468
 30
0.0
 10
95.34198402564367
 20
-114.8327839882189
 30
0.0
 10
95.21761607862615
 20
-114.9323472477426
 30
0.0
 10
94.88757593113922
 20
-115.1586900211235
 30
0.0
  0
HATCH
  5
9D
330
98
100
AcDbEntity
  8
_U+30EC_U+30A4_U+30E4_U+30FC 1
 62
     7
420
 16777215
100
AcDbHatch
 10
0.0
 20
0.0
 30
0.0
210
0.0
220
0.0
230
1.0
  2
SOLID
 70
     1
 71
     0
 91
        1
 92
        1
 93
        1
 72
     4
 94
        3
 73
     0
 74
     1
 95
       44
 96
       40
 40
0.0
 40
0.0
 40
0.0
 40
0.0
 40
1.0
 40
1.0
 40
1.0
 40
2.0
 40
2.0
 40
2.0
 40
3.0
 40
3.0
 40
3.0
 40
4.0
 40
4.0
 40
4.0
 40
5.0
 40
5.0
 40
5.0
 40
6.0
 40
6.0
 40
6.0
 40
7.0
 40
7.0
 40
7.0
 40
8.0
 40
8.0
 40
8.0
 40
9.0
 40
9.0
 40
9.0
 40
10.0
 40
10.0
 40
10.0
 40
11.0
 40
11.0
 40
11.0
 40
12.0
 40
12.0
 40
12.0
 40
13.0
 40
13.0
 40
13.0
 40
13.0
 10
94.88757593113922
 20
-115.1586900211235
 10
94.65468747633633
 20
-115.3173366682193
 10
94.55512421681262
 20
-115.3914062211522
 10
94.50344778453386
 20
-115.5350667028871
 10
94.50344778453386
 20
-115.5350667028871
 10
95.33509383467317
 20
-115.5350667028871
 10
95.33509383467317
 20
-115.5350667028871
 10
95.33509383467317
 20
-115.5350667028871
 10
95.33509383467317
 20
-115.740394393808
 10
95.33509383467317
 20
-115.740394393808
 10
95.33509383467317
 20
-115.740394393808
 10
94.236452884427
 20
-115.740394393808
 10
94.236452884427
 20
-115.740394393808
 10
94.27055932973097
 20
-115.382793482439
 10
94.34049476808154
 20
-115.3045898149239
 10
94.75183916902037
 20
-115.0062445459012
 10
95.02537975054922
 20
-114.8074625364023
 10
95.09565969844832
 20
-114.7397664101171
 10
95.09565969844832
 20
-114.6023071002557
 10
95.09565969844832
 20
-114.4837958155631
 10
95.01883406912724
 20
-114.3527099323493
 10
94.80833873497848
 20
-114.3527099323493
 10
94.53031952931882
 20
-114.3527099323493
 10
94.52136228105716
 20
-114.5831868203125
 10
94.51688365692634
 20
-114.699631047714
 10
94.51688365692634
 20
-114.699631047714
 10
94.27710501115295
 20
-114.699631047714
 10
94.27710501115295
 20
-114.699631047714
 10
94.28640676896312
 20
-114.5726792790825
 10
94.29743107451593
 20
-114.4605414210376
 10
94.38355846164717
 20
-114.3420301363451
 10
94.50103621769419
 20
-114.1813164319582
 10
94.6998182271931
 20
-114.1473822414284
 10
94.82418617421062
 20
-114.1473822414284
 10
95.12046438594211
 20
-114.1473822414284
 10
95.34198402564367
 20
-114.331522595115
 10
95.34198402564367
 20
-114.6043741575468
 10
95.34198402564367
 20
-114.8327839882189
 10
95.21761607862615
 20
-114.9323472477426
 10
94.88757593113922
 20
-115.1586900211235
 97
        0
 97
        0
 75
     2
 76
     1
 98
        0
  0
POLYLINE
  5
9E
330
98
100
AcDbEntity
  8
_U+30EC_U+30A4_U+30E4_U+30FC 1
370
     0
100
AcDb2dPolyline
 66
     1
 10
0.0
 20
0.0
 30
0.0
  0
VERTEX
  5
9F
330
9E
100
AcDbEntity
  8
_U+30EC_U+30A4_U+30E4_U+30FC 1
370
     0
100
AcDbVertex
100
AcDb2dVertex
 10
96.40100637780948
 20
-115.3934732784433
 30
0.0
  0
VERTEX
  5
A0
330
9E
100
AcDbEntity
  8
_U+30EC_U+30A4_U+30E4_U+30FC 1
370
     0
100
AcDbVertex
100
AcDb2dVertex
 10
96.40100637780948
 20
-115.740394393808
 30
0.0
  0
VERTEX
  5
A1
330
9E
100
AcDbEntity
  8
_U+30EC_U+30A4_U+30E4_U+30FC 1
370
     0
100
AcDbVertex
100
AcDb2dVertex
 10
96.16811792300659
 20
-115.740394393808
 30
0.0
  0
VERTEX
  5
A2
330
9E
100
AcDbEntity
  8
_U+30EC_U+30A4_U+30E4_U+30FC 1
370
     0
100
AcDbVertex
100
AcDb2dVertex
 10
96.16811792300659
 20
-115.3934732784433
 30
0.0
  0
VERTEX
  5
A3
330
9E
100
AcDbEntity
  8
_U+30EC_U+30A4_U+30E4_U+30FC 1
370
     0
100
AcDbVertex
100
AcDb2dVertex
 10
95.46704099175824
 20
-115.3934732784433
 30
0.0
  0
VERTEX
  5
A4
330
9E
100
AcDbEntity
  8
_U+30EC_U+30A4_U+30E4_U+30FC 1
370
     0
100
AcDbVertex
100
AcDb2dVertex
 10
95.46704099175824
 20
-115.1691975623535
 30
0.0
  0
VERTEX
  5
A5
330
9E
100
AcDbEntity
  8
_U+30EC_U+30A4_U+30E4_U+30FC 1
370
     0
100
AcDbVertex
100
AcDb2dVertex
 10
96.19292261050039
 20
-114.1961303425447
 30
0.0
  0
VERTEX
  5
A6
330
9E
100
AcDbEntity
  8
_U+30EC_U+30A4_U+30E4_U+30FC 1
370
     0
100
AcDbVertex
100
AcDb2dVertex
 10
96.40100637780948
 20
-114.1961303425447
 30
0.0
  0
VERTEX
  5
A7
330
9E
100
AcDbEntity
  8
_U+30EC_U+30A4_U+30E4_U+30FC 1
370
     0
100
AcDbVertex
100
AcDb2dVertex
 10
96.40100637780948
 20
-115.1945190141701
 30
0.0
  0
VERTEX
  5
A8
330
9E
100
AcDbEntity
  8
_U+30EC_U+30A4_U+30E4_U+30FC 1
370
     0
100
AcDbVertex
100
AcDb2dVertex
 10
96.62252601751103
 20
-115.1945190141701
 30
0.0
  0
VERTEX
  5
A9
330
9E
100
AcDbEntity
  8
_U+30EC_U+30A4_U+30E4_U+30FC 1
370
     0
100
AcDbVertex
100
AcDb2dVertex
 10
96.62252601751103
 20
-115.3934732784433
 30
0.0
  0
VERTEX
  5
AA
330
9E
100
AcDbEntity
  8
_U+30EC_U+30A4_U+30E4_U+30FC 1
370
     0
100
AcDbVertex
100
AcDb2dVertex
 10
96.40100637780948
 20
-115.3934732784433
 30
0.0
  0
SEQEND
  5
AB
330
9E
100
AcDbEntity
  8
_U+30EC_U+30A4_U+30E4_U+30FC 1
370
     0
  0
POLYLINE
  5
AC
330
98
100
AcDbEntity
  8
_U+30EC_U+30A4_U+30E4_U+30FC 1
370
     0
100
AcDb2dPolyline
 66
     1
 10
0.0
 20
0.0
 30
0.0
  0
VERTEX
  5
AD
330
AC
100
AcDbEntity
  8
_U+30EC_U+30A4_U+30E4_U+30FC 1
370
     0
100
AcDbVertex
100
AcDb2dVertex
 10
96.16811792300659
 20
-114.5387450885528
 30
0.0
  0
VERTEX
  5
AE
330
AC
100
AcDbEntity
  8
_U+30EC_U+30A4_U+30E4_U+30FC 1
370
     0
100
AcDbVertex
100
AcDb2dVertex
 10
95.67960338319816
 20
-115.1945190141701
 30
0.0
  0
VERTEX
  5
AF
330
AC
100
AcDbEntity
  8
_U+30EC_U+30A4_U+30E4_U+30FC 1
370
     0
100
AcDbVertex
100
AcDb2dVertex
 10
96.16811792300659
 20
-115.1945190141701
 30
0.0
  0
VERTEX
  5
B0
330
AC
100
AcDbEntity
  8
_U+30EC_U+30A4_U+30E4_U+30FC 1
370
     0
100
AcDbVertex
100
AcDb2dVertex
 10
96.16811792300659
 20
-114.5387450885528
 30
0.0
  0
SEQEND
  5
B1
330
AC
100
AcDbEntity
  8
_U+30EC_U+30A4_U+30E4_U+30FC 1
370
     0
  0
HATCH
  5
B2
330
98
100
AcDbEntity
  8
_U+30EC_U+30A4_U+30E4_U+30FC 1
 62
     7
420
 16777215
100
AcDbHatch
 10
0.0
 20
0.0
 30
0.0
210
0.0
220
0.0
230
1.0
  2
SOLID
 70
     1
 71
     0
 91
        2
 92
        1
 93
       11
 72
     1
 10
96.40100637780948
 20
-115.3934732784433
 11
96.40100637780948
 21
-115.740394393808
 72
     1
 10
96.40100637780948
 20
-115.740394393808
 11
96.16811792300659
 21
-115.740394393808
 72
     1
 10
96.16811792300659
 20
-115.740394393808
 11
96.16811792300659
 21
-115.3934732784433
 72
     1
 10
96.16811792300659
 20
-115.3934732784433
 11
95.46704099175824
 21
-115.3934732784433
 72
     1
 10
95.46704099175824
 20
-115.3934732784433
 11
95.46704099175824
 21
-115.1691975623535
 72
     1
 10
95.46704099175824
 20
-115.1691975623535
 11
96.19292261050039
 21
-114.1961303425447
 72
     1
 10
96.19292261050039
 20
-114.1961303425447
 11
96.40100637780948
 21
-114.1961303425447
 72
     1
 10
96.40100637780948
 20
-114.1961303425447
 11
96.40100637780948
 21
-115.1945190141701
 72
     1
 10
96.40100637780948
 20
-115.1945190141701
 11
96.62252601751103
 21
-115.1945190141701
 72
     1
 10
96.62252601751103
 20
-115.1945190141701
 11
96.62252601751103
 21
-115.3934732784433
 72
     1
 10
96.62252601751103
 20
-115.3934732784433
 11
96.40100637780948
 21
-115.3934732784433
 97
        0
 92
        1
 93
        3
 72
     1
 10
96.16811792300659
 20
-114.5387450885528
 11
95.67960338319816
 21
-115.1945190141701
 72
     1
 10
95.67960338319816
 20
-115.1945190141701
 11
96.16811792300659
 21
-115.1945190141701
 72
     1
 10
96.16811792300659
 20
-115.1945190141701
 11
96.16811792300659
 21
-114.5387450885528
 97
        0
 75
     2
 76
     1
 98
        0
  0
ENDBLK
  5
9B
330
98
100
AcDbEntity
  8
0
100
AcDbBlockEnd
  0
BLOCK
  5
BD
330
BB
100
AcDbEntity
  8
0
100
AcDbBlockBegin
  2
block 4
 70
     0
 10
0.0
 20
0.0
 30
0.0
  3
block 4
  1

  0
SPLINE
  5
BF
330
BB
100
AcDbEntity
  8
_U+30EC_U+30A4_U+30E4_U+30FC 1
370
     0
100
AcDbSpline
210
0.0
220
0.0
230
1.0
 70
    11
 71
     3
 72
    26
 73
    22
 74
     0
 42
0.0000000001
 43
0.0000000001
 12
1.0
 22
0.0
 32
0.0
 13
1.0
 23
0.0
 33
0.0
 40
0.0
 40
0.0
 40
0.0
 40
0.0
 40
1.0
 40
1.0
 40
1.0
 40
2.0
 40
2.0
 40
2.0
 40
3.0
 40
3.0
 40
3.0
 40
4.0
 40
4.0
 40
4.0
 40
5.0
 40
5.0
 40
5.0
 40
6.0
 40
6.0
 40
6.0
 40
7.0
 40
7.0
 40
7.0
 40
7.0
 10
84.6446180343944
 20
-122.2407728101516
 30
0.0
 10
84.6446180343944
 20
-122.2407728101516
 30
0.0
 10
84.6446180343944
 20
-121.1364474523548
 30
0.0
 10
84.6446180343944
 20
-121.1364474523548
 30
0.0
 10
84.6446180343944
 20
-121.1364474523548
 30
0.0
 10
84.29184025670482
 20
-121.1364474523548
 30
0.0
 10
84.29184025670482
 20
-121.1364474523548
 30
0.0
 10
84.29184025670482
 20
-121.1364474523548
 30
0.0
 10
84.29184025670482
 20
-120.988308346489
 30
0.0
 10
84.29184025670482
 20
-120.988308346489
 30
0.0
 10
84.64685734645981
 20
-120.9736666906767
 30
0.0
 10
84.69663897622168
 20
-120.8107136742244
 30
0.0
 10
84.72833385468597
 20
-120.6965087588884
 30
0.0
 10
84.72833385468597
 20
-120.6965087588884
 30
0.0
 10
84.88422442539353
 20
-120.6965087588884
 30
0.0
 10
84.88422442539353
 20
-120.6965087588884
 30
0.0
 10
84.88422442539353
 20
-120.6965087588884
 30
0.0
 10
84.88422442539353
 20
-122.2407728101516
 30
0.0
 10
84.88422442539353
 20
-122.2407728101516
 30
0.0
 10
84.88422442539353
 20
-122.2407728101516
 30
0.0
 10
84.6446180343944
 20
-122.2407728101516
 30
0.0
 10
84.6446180343944
 20
-122.2407728101516
 30
0.0
  0
HATCH
  5
C0
330
BB
100
AcDbEntity
  8
_U+30EC_U+30A4_U+30E4_U+30FC 1
 62
     7
420
 16777215
100
AcDbHatch
 10
0.0
 20
0.0
 30
0.0
210
0.0
220
0.0
230
1.0
  2
SOLID
 70
     1
 71
     0
 91
        1
 92
        1
 93
        1
 72
     4
 94
        3
 73
     0
 74
     1
 95
       26
 96
       22
 40
0.0
 40
0.0
 40
0.0
 40
0.0
 40
1.0
 40
1.0
 40
1.0
 40
2.0
 40
2.0
 40
2.0
 40
3.0
 40
3.0
 40
3.0
 40
4.0
 40
4.0
 40
4.0
 40
5.0
 40
5.0
 40
5.0
 40
6.0
 40
6.0
 40
6.0
 40
7.0
 40
7.0
 40
7.0
 40
7.0
 10
84.6446180343944
 20
-122.2407728101516
 10
84.6446180343944
 20
-122.2407728101516
 10
84.6446180343944
 20
-121.1364474523548
 10
84.6446180343944
 20
-121.1364474523548
 10
84.6446180343944
 20
-121.1364474523548
 10
84.29184025670482
 20
-121.1364474523548
 10
84.29184025670482
 20
-121.1364474523548
 10
84.29184025670482
 20
-121.1364474523548
 10
84.29184025670482
 20
-120.988308346489
 10
84.29184025670482
 20
-120.988308346489
 10
84.64685734645981
 20
-120.9736666906767
 10
84.69663897622168
 20
-120.8107136742244
 10
84.72833385468597
 20
-120.6965087588884
 10
84.72833385468597
 20
-120.6965087588884
 10
84.88422442539353
 20
-120.6965087588884
 10
84.88422442539353
 20
-120.6965087588884
 10
84.88422442539353
 20
-120.6965087588884
 10
84.88422442539353
 20
-122.2407728101516
 10
84.88422442539353
 20
-122.2407728101516
 10
84.88422442539353
 20
-122.2407728101516
 10
84.6446180343944
 20
-122.2407728101516
 10
84.6446180343944
 20
-122.2407728101516
 97
        0
 97
        0
 75
     2
 76
     1
 98
        0
  0
ENDBLK
  5
BE
330
BB
100
AcDbEntity
  8
0
100
AcDbBlockEnd
  0
BLOCK
  5
CF
330
CD
100
AcDbEntity
  8
0
100
AcDbBlockBegin
  2
block 5
 70
     0
 10
0.0
 20
0.0
 30
0.0
  3
block 5
  1

  0
SPLINE
  5
D1
330
CD
100
AcDbEntity
  8
_U+30EC_U+30A4_U+30E4_U+30FC 1
370
     0
100
AcDbSpline
210
0.0
220
0.0
230
1.0
 70
    11
 71
     3
 72
    26
 73
    22
 74
     0
 42
0.0000000001
 43
0.0000000001
 12
1.0
 22
0.0
 32
0.0
 13
1.0
 23
0.0
 33
0.0
 40
0.0
 40
0.0
 40
0.0
 40
0.0
 40
1.0
 40
1.0
 40
1.0
 40
2.0
 40
2.0
 40
2.0
 40
3.0
 40
3.0
 40
3.0
 40
4.0
 40
4.0
 40
4.0
 40
5.0
 40
5.0
 40
5.0
 40
6.0
 40
6.0
 40
6.0
 40
7.0
 40
7.0
 40
7.0
 40
7.0
 10
77.82057289721153
 20
-130.3393310221027
 30
0.0
 10
77.82057289721153
 20
-130.3393310221027
 30
0.0
 10
76.7162475394147
 20
-130.3393310221027
 30
0.0
 10
76.7162475394147
 20
-130.3393310221027
 30
0.0
 10
76.7162475394147
 20
-130.3393310221027
 30
0.0
 10
76.7162475394147
 20
-130.6917642902437
 30
0.0
 10
76.7162475394147
 20
-130.6917642902437
 30
0.0
 10
76.7162475394147
 20
-130.6917642902437
 30
0.0
 10
76.56810843354894
 20
-130.6917642902437
 30
0.0
 10
76.56810843354894
 20
-130.6917642902437
 30
0.0
 10
76.55346677773663
 20
-130.336919455263
 30
0.0
 10
76.39051376128432
 20
-130.2873100802754
 30
0.0
 10
76.2763088459483
 20
-130.2556152018111
 30
0.0
 10
76.2763088459483
 20
-130.2556152018111
 30
0.0
 10
76.2763088459483
 20
-130.0995523763293
 30
0.0
 10
76.2763088459483
 20
-130.0995523763293
 30
0.0
 10
76.2763088459483
 20
-130.0995523763293
 30
0.0
 10
77.82057289721153
 20
-130.0995523763293
 30
0.0
 10
77.82057289721153
 20
-130.0995523763293
 30
0.0
 10
77.82057289721153
 20
-130.0995523763293
 30
0.0
 10
77.82057289721153
 20
-130.3393310221027
 30
0.0
 10
77.82057289721153
 20
-130.3393310221027
 30
0.0
  0
HATCH
  5
D2
330
CD
100
AcDbEntity
  8
_U+30EC_U+30A4_U+30E4_U+30FC 1
 62
     7
420
 16777215
100
AcDbHatch
 10
0.0
 20
0.0
 30
0.0
210
0.0
220
0.0
230
1.0
  2
SOLID
 70
     1
 71
     0
 91
        1
 92
        1
 93
        1
 72
     4
 94
        3
 73
     0
 74
     1
 95
       26
 96
       22
 40
0.0
 40
0.0
 40
0.0
 40
0.0
 40
1.0
 40
1.0
 40
1.0
 40
2.0
 40
2.0
 40
2.0
 40
3.0
 40
3.0
 40
3.0
 40
4.0
 40
4.0
 40
4.0
 40
5.0
 40
5.0
 40
5.0
 40
6.0
 40
6.0
 40
6.0
 40
7.0
 40
7.0
 40
7.0
 40
7.0
 10
77.82057289721153
 20
-130.3393310221027
 10
77.82057289721153
 20
-130.3393310221027
 10
76.7162475394147
 20
-130.3393310221027
 10
76.7162475394147
 20
-130.3393310221027
 10
76.7162475394147
 20
-130.3393310221027
 10
76.7162475394147
 20
-130.6917642902437
 10
76.7162475394147
 20
-130.6917642902437
 10
76.7162475394147
 20
-130.6917642902437
 10
76.56810843354894
 20
-130.6917642902437
 10
76.56810843354894
 20
-130.6917642902437
 10
76.55346677773663
 20
-130.336919455263
 10
76.39051376128432
 20
-130.2873100802754
 10
76.2763088459483
 20
-130.2556152018111
 10
76.2763088459483
 20
-130.2556152018111
 10
76.2763088459483
 20
-130.0995523763293
 10
76.2763088459483
 20
-130.0995523763293
 10
76.2763088459483
 20
-130.0995523763293
 10
77.82057289721153
 20
-130.0995523763293
 10
77.82057289721153
 20
-130.0995523763293
 10
77.82057289721153
 20
-130.0995523763293
 10
77.82057289721153
 20
-130.3393310221027
 10
77.82057289721153
 20
-130.3393310221027
 97
        0
 97
        0
 75
     2
 76
     1
 98
        0
  0
SPLINE
  5
D3
330
CD
100
AcDbEntity
  8
_U+30EC_U+30A4_U+30E4_U+30FC 1
370
     0
100
AcDbSpline
210
0.0
220
0.0
230
1.0
 70
    11
 71
     3
 72
    32
 73
    28
 74
     0
 42
0.0000000001
 43
0.0000000001
 12
1.0
 22
0.0
 32
0.0
 13
1.0
 23
0.0
 33
0.0
 40
0.0
 40
0.0
 40
0.0
 40
0.0
 40
1.0
 40
1.0
 40
1.0
 40
2.0
 40
2.0
 40
2.0
 40
3.0
 40
3.0
 40
3.0
 40
4.0
 40
4.0
 40
4.0
 40
5.0
 40
5.0
 40
5.0
 40
6.0
 40
6.0
 40
6.0
 40
7.0
 40
7.0
 40
7.0
 40
8.0
 40
8.0
 40
8.0
 40
9.0
 40
9.0
 40
9.0
 40
9.0
 10
77.87138805561897
 20
-129.0746364694675
 30
0.0
 10
77.87138805561897
 20
-129.2599826065739
 30
0.0
 10
77.8014526172684
 20
-129.5221543730014
 30
0.0
 10
77.46934541249031
 20
-129.5628064997274
 30
0.0
 10
77.46934541249031
 20
-129.5628064997274
 30
0.0
 10
77.46934541249031
 20
-129.3347411786038
 30
0.0
 10
77.46934541249031
 20
-129.3347411786038
 30
0.0
 10
77.5286010548366
 20
-129.3233723635025
 30
0.0
 10
77.67674016070235
 20
-129.2892659181985
 30
0.0
 10
77.67674016070235
 20
-129.0722249026278
 30
0.0
 10
77.67674016070235
 20
-128.7604437612127
 30
0.0
 10
77.34670001321541
 20
-128.7197916344867
 30
0.0
 10
77.14154457706879
 20
-128.7060112525457
 30
0.0
 10
77.22181530187511
 20
-128.8031629452298
 30
0.0
 10
77.27900388693025
 20
-128.87550995042
 30
0.0
 10
77.27900388693025
 20
-129.0701578453366
 30
0.0
 10
77.27900388693025
 20
-129.2623941734136
 30
0.0
 10
77.17323945553308
 20
-129.58554412993
 30
0.0
 10
76.76706269782213
 20
-129.58554412993
 30
0.0
 10
76.4475300915652
 20
-129.58554412993
 30
0.0
 10
76.227560744832
 20
-129.3729817384901
 30
0.0
 10
76.227560744832
 20
-129.0339843427415
 30
0.0
 10
76.227560744832
 20
-128.4844916128442
 30
0.0
 10
76.7818766084087
 20
-128.4731227977428
 30
0.0
 10
76.99547252849419
 20
-128.4731227977428
 30
0.0
 10
77.22612167123167
 20
-128.4731227977428
 30
0.0
 10
77.87138805561897
 20
-128.4934488611058
 30
0.0
 10
77.87138805561897
 20
-129.0746364694675
 30
0.0
  0
SPLINE
  5
D4
330
CD
100
AcDbEntity
  8
_U+30EC_U+30A4_U+30E4_U+30FC 1
370
     0
100
AcDbSpline
210
0.0
220
0.0
230
1.0
 70
    11
 71
     3
 72
    17
 73
    13
 74
     0
 42
0.0000000001
 43
0.0000000001
 12
1.0
 22
0.0
 32
0.0
 13
1.0
 23
0.0
 33
0.0
 40
0.0
 40
0.0
 40
0.0
 40
0.0
 40
1.0
 40
1.0
 40
1.0
 40
2.0
 40
2.0
 40
2.0
 40
3.0
 40
3.0
 40
3.0
 40
4.0
 40
4.0
 40
4.0
 40
4.0
 10
76.42014158245746
 20
-129.0315727759018
 30
0.0
 10
76.42014158245746
 20
-129.158352289759
 30
0.0
 10
76.47715791273835
 20
-129.3457654841566
 30
0.0
 10
76.76275632846557
 20
-129.3457654841566
 30
0.0
 10
76.98909910184648
 20
-129.3457654841566
 30
0.0
 10
77.08435599201364
 20
-129.1965928496453
 30
0.0
 10
77.08435599201364
 20
-129.0518988392648
 30
0.0
 10
77.08435599201364
 20
-128.7714680667655
 30
0.0
 10
76.87489418651045
 20
-128.7308159400395
 30
0.0
 10
76.75862221388327
 20
-128.7308159400395
 30
0.0
 10
76.58292234413553
 20
-128.7308159400395
 30
0.0
 10
76.42014158245746
 20
-128.8327907664029
 30
0.0
 10
76.42014158245746
 20
-129.0315727759018
 30
0.0
  0
HATCH
  5
D5
330
CD
100
AcDbEntity
  8
_U+30EC_U+30A4_U+30E4_U+30FC 1
 62
     7
420
 16777215
100
AcDbHatch
 10
0.0
 20
0.0
 30
0.0
210
0.0
220
0.0
230
1.0
  2
SOLID
 70
     1
 71
     0
 91
        2
 92
        1
 93
        1
 72
     4
 94
        3
 73
     0
 74
     1
 95
       32
 96
       28
 40
0.0
 40
0.0
 40
0.0
 40
0.0
 40
1.0
 40
1.0
 40
1.0
 40
2.0
 40
2.0
 40
2.0
 40
3.0
 40
3.0
 40
3.0
 40
4.0
 40
4.0
 40
4.0
 40
5.0
 40
5.0
 40
5.0
 40
6.0
 40
6.0
 40
6.0
 40
7.0
 40
7.0
 40
7.0
 40
8.0
 40
8.0
 40
8.0
 40
9.0
 40
9.0
 40
9.0
 40
9.0
 10
77.87138805561897
 20
-129.0746364694675
 10
77.87138805561897
 20
-129.2599826065739
 10
77.8014526172684
 20
-129.5221543730014
 10
77.46934541249031
 20
-129.5628064997274
 10
77.46934541249031
 20
-129.5628064997274
 10
77.46934541249031
 20
-129.3347411786038
 10
77.46934541249031
 20
-129.3347411786038
 10
77.5286010548366
 20
-129.3233723635025
 10
77.67674016070235
 20
-129.2892659181985
 10
77.67674016070235
 20
-129.0722249026278
 10
77.67674016070235
 20
-128.7604437612127
 10
77.34670001321541
 20
-128.7197916344867
 10
77.14154457706879
 20
-128.7060112525457
 10
77.22181530187511
 20
-128.8031629452298
 10
77.27900388693025
 20
-128.87550995042
 10
77.27900388693025
 20
-129.0701578453366
 10
77.27900388693025
 20
-129.2623941734136
 10
77.17323945553308
 20
-129.58554412993
 10
76.76706269782213
 20
-129.58554412993
 10
76.4475300915652
 20
-129.58554412993
 10
76.227560744832
 20
-129.3729817384901
 10
76.227560744832
 20
-129.0339843427415
 10
76.227560744832
 20
-128.4844916128442
 10
76.7818766084087
 20
-128.4731227977428
 10
76.99547252849419
 20
-128.4731227977428
 10
77.22612167123167
 20
-128.4731227977428
 10
77.87138805561897
 20
-128.4934488611058
 10
77.87138805561897
 20
-129.0746364694675
 97
        0
 97
        0
 92
        1
 93
        1
 72
     4
 94
        3
 73
     0
 74
     1
 95
       17
 96
       13
 40
0.0
 40
0.0
 40
0.0
 40
0.0
 40
1.0
 40
1.0
 40
1.0
 40
2.0
 40
2.0
 40
2.0
 40
3.0
 40
3.0
 40
3.0
 40
4.0
 40
4.0
 40
4.0
 40
4.0
 10
76.42014158245746
 20
-129.0315727759018
 10
76.42014158245746
 20
-129.158352289759
 10
76.47715791273835
 20
-129.3457654841566
 10
76.76275632846557
 20
-129.3457654841566
 10
76.98909910184648
 20
-129.3457654841566
 10
77.08435599201364
 20
-129.1965928496453
 10
77.08435599201364
 20
-129.0518988392648
 10
77.08435599201364
 20
-128.7714680667655
 10
76.87489418651045
 20
-128.7308159400395
 10
76.75862221388327
 20
-128.7308159400395
 10
76.58292234413553
 20
-128.7308159400395
 10
76.42014158245746
 20
-128.8327907664029
 10
76.42014158245746
 20
-129.0315727759018
 97
        0
 97
        0
 75
     2
 76
     1
 98
        0
  0
ENDBLK
  5
D0
330
CD
100
AcDbEntity
  8
0
100
AcDbBlockEnd
  0
BLOCK
  5
E4
330
E2
100
AcDbEntity
  8
0
100
AcDbBlockBegin
  2
block 6
 70
     0
 10
0.0
 20
0.0
 30
0.0
  3
block 6
  1

  0
SPLINE
  5
E6
330
E2
100
AcDbEntity
  8
_U+30EC_U+30A4_U+30E4_U+30FC 1
370
     0
100
AcDbSpline
210
0.0
220
0.0
230
1.0
 70
    11
 71
     3
 72
    26
 73
    22
 74
     0
 42
0.0000000001
 43
0.0000000001
 12
1.0
 22
0.0
 32
0.0
 13
1.0
 23
0.0
 33
0.0
 40
0.0
 40
0.0
 40
0.0
 40
0.0
 40
1.0
 40
1.0
 40
1.0
 40
2.0
 40
2.0
 40
2.0
 40
3.0
 40
3.0
 40
3.0
 40
4.0
 40
4.0
 40
4.0
 40
5.0
 40
5.0
 40
5.0
 40
6.0
 40
6.0
 40
6.0
 40
7.0
 40
7.0
 40
7.0
 40
7.0
 10
91.2357747167744
 20
-142.561151765575
 30
0.0
 10
91.2357747167744
 20
-142.561151765575
 30
0.0
 10
91.2357747167744
 20
-141.4569986625524
 30
0.0
 10
91.2357747167744
 20
-141.4569986625524
 30
0.0
 10
91.2357747167744
 20
-141.4569986625524
 30
0.0
 10
90.88334144863333
 20
-141.4569986625524
 30
0.0
 10
90.88334144863333
 20
-141.4569986625524
 30
0.0
 10
90.88334144863333
 20
-141.4569986625524
 30
0.0
 10
90.88334144863333
 20
-141.3088595566867
 30
0.0
 10
90.88334144863333
 20
-141.3088595566867
 30
0.0
 10
91.23818628361407
 20
-141.2940456461001
 30
0.0
 10
91.28779565860167
 20
-141.1310926296478
 30
0.0
 10
91.31949053706596
 20
-141.0167154595375
 30
0.0
 10
91.31949053706596
 20
-141.0167154595375
 30
0.0
 10
91.47555336254779
 20
-141.0167154595375
 30
0.0
 10
91.47555336254779
 20
-141.0167154595375
 30
0.0
 10
91.47555336254779
 20
-141.0167154595375
 30
0.0
 10
91.47555336254779
 20
-142.561151765575
 30
0.0
 10
91.47555336254779
 20
-142.561151765575
 30
0.0
 10
91.47555336254779
 20
-142.561151765575
 30
0.0
 10
91.2357747167744
 20
-142.561151765575
 30
0.0
 10
91.2357747167744
 20
-142.561151765575
 30
0.0
  0
HATCH
  5
E7
330
E2
100
AcDbEntity
  8
_U+30EC_U+30A4_U+30E4_U+30FC 1
 62
     7
420
 16777215
100
AcDbHatch
 10
0.0
 20
0.0
 30
0.0
210
0.0
220
0.0
230
1.0
  2
SOLID
 70
     1
 71
     0
 91
        1
 92
        1
 93
        1
 72
     4
 94
        3
 73
     0
 74
     1
 95
       26
 96
       22
 40
0.0
 40
0.0
 40
0.0
 40
0.0
 40
1.0
 40
1.0
 40
1.0
 40
2.0
 40
2.0
 40
2.0
 40
3.0
 40
3.0
 40
3.0
 40
4.0
 40
4.0
 40
4.0
 40
5.0
 40
5.0
 40
5.0
 40
6.0
 40
6.0
 40
6.0
 40
7.0
 40
7.0
 40
7.0
 40
7.0
 10
91.2357747167744
 20
-142.561151765575
 10
91.2357747167744
 20
-142.561151765575
 10
91.2357747167744
 20
-141.4569986625524
 10
91.2357747167744
 20
-141.4569986625524
 10
91.2357747167744
 20
-141.4569986625524
 10
90.88334144863333
 20
-141.4569986625524
 10
90.88334144863333
 20
-141.4569986625524
 10
90.88334144863333
 20
-141.4569986625524
 10
90.88334144863333
 20
-141.3088595566867
 10
90.88334144863333
 20
-141.3088595566867
 10
91.23818628361407
 20
-141.2940456461001
 10
91.28779565860167
 20
-141.1310926296478
 10
91.31949053706596
 20
-141.0167154595375
 10
91.31949053706596
 20
-141.0167154595375
 10
91.47555336254779
 20
-141.0167154595375
 10
91.47555336254779
 20
-141.0167154595375
 10
91.47555336254779
 20
-141.0167154595375
 10
91.47555336254779
 20
-142.561151765575
 10
91.47555336254779
 20
-142.561151765575
 10
91.47555336254779
 20
-142.561151765575
 10
91.2357747167744
 20
-142.561151765575
 10
91.2357747167744
 20
-142.561151765575
 97
        0
 97
        0
 75
     2
 76
     1
 98
        0
  0
SPLINE
  5
E8
330
E2
100
AcDbEntity
  8
_U+30EC_U+30A4_U+30E4_U+30FC 1
370
     0
100
AcDbSpline
210
0.0
220
0.0
230
1.0
 70
    11
 71
     3
 72
    32
 73
    28
 74
     0
 42
0.0000000001
 43
0.0000000001
 12
1.0
 22
0.0
 32
0.0
 13
1.0
 23
0.0
 33
0.0
 40
0.0
 40
0.0
 40
0.0
 40
0.0
 40
1.0
 40
1.0
 40
1.0
 40
2.0
 40
2.0
 40
2.0
 40
3.0
 40
3.0
 40
3.0
 40
4.0
 40
4.0
 40
4.0
 40
5.0
 40
5.0
 40
5.0
 40
6.0
 40
6.0
 40
6.0
 40
7.0
 40
7.0
 40
7.0
 40
8.0
 40
8.0
 40
8.0
 40
9.0
 40
9.0
 40
9.0
 40
9.0
 10
92.5004692694096
 20
-142.6117946692082
 30
0.0
 10
92.31512313230317
 20
-142.6117946692082
 30
0.0
 10
92.05295136587566
 20
-142.5422037404061
 30
0.0
 10
92.01229923914971
 20
-142.210096535628
 30
0.0
 10
92.01229923914971
 20
-142.210096535628
 30
0.0
 10
92.24036456027325
 20
-142.210096535628
 30
0.0
 10
92.24036456027325
 20
-142.210096535628
 30
0.0
 10
92.25173337537457
 20
-142.2693521779743
 30
0.0
 10
92.28583982067855
 20
-142.4171467742916
 30
0.0
 10
92.50288083624929
 20
-142.4171467742916
 30
0.0
 10
92.8146619776644
 20
-142.4171467742916
 30
0.0
 10
92.85531410439035
 20
-142.0874511363531
 30
0.0
 10
92.86909448633133
 20
-141.8821234454323
 30
0.0
 10
92.7719427936473
 20
-141.9623941702386
 30
0.0
 10
92.69959578845705
 20
-142.0195827552937
 30
0.0
 10
92.50494789354043
 20
-142.0195827552937
 30
0.0
 10
92.31271156546349
 20
-142.0195827552937
 30
0.0
 10
91.98956160894706
 20
-141.9138183238965
 30
0.0
 10
91.98956160894706
 20
-141.5076415661856
 30
0.0
 10
91.98956160894706
 20
-141.1882812147029
 30
0.0
 10
92.20212400038697
 20
-140.9681396131955
 30
0.0
 10
92.54112139613555
 20
-140.9681396131955
 30
0.0
 10
93.0906141260329
 20
-140.9681396131955
 30
0.0
 10
93.10198294113422
 20
-141.5224554767722
 30
0.0
 10
93.10198294113422
 20
-141.7360513968576
 30
0.0
 10
93.10198294113422
 20
-141.9665282848209
 30
0.0
 10
93.08165687777125
 20
-142.6117946692082
 30
0.0
 10
92.5004692694096
 20
-142.6117946692082
 30
0.0
  0
SPLINE
  5
E9
330
E2
100
AcDbEntity
  8
_U+30EC_U+30A4_U+30E4_U+30FC 1
370
     0
100
AcDbSpline
210
0.0
220
0.0
230
1.0
 70
    11
 71
     3
 72
    17
 73
    13
 74
     0
 42
0.0000000001
 43
0.0000000001
 12
1.0
 22
0.0
 32
0.0
 13
1.0
 23
0.0
 33
0.0
 40
0.0
 40
0.0
 40
0.0
 40
0.0
 40
1.0
 40
1.0
 40
1.0
 40
2.0
 40
2.0
 40
2.0
 40
3.0
 40
3.0
 40
3.0
 40
4.0
 40
4.0
 40
4.0
 40
4.0
 10
92.54353296297523
 20
-141.1607204508209
 30
0.0
 10
92.41675344911803
 20
-141.1607204508209
 30
0.0
 10
92.22934025472044
 20
-141.2179090358761
 30
0.0
 10
92.22934025472044
 20
-141.5035074516033
 30
0.0
 10
92.22934025472044
 20
-141.7298502249842
 30
0.0
 10
92.37851288923177
 20
-141.8249348603771
 30
0.0
 10
92.52320689961226
 20
-141.8249348603771
 30
0.0
 10
92.80329316256307
 20
-141.8249348603771
 30
0.0
 10
92.84428979883754
 20
-141.6154730548739
 30
0.0
 10
92.84428979883754
 20
-141.4990288274725
 30
0.0
 10
92.84428979883754
 20
-141.3236734672733
 30
0.0
 10
92.74231497247415
 20
-141.1607204508209
 30
0.0
 10
92.54353296297523
 20
-141.1607204508209
 30
0.0
  0
HATCH
  5
EA
330
E2
100
AcDbEntity
  8
_U+30EC_U+30A4_U+30E4_U+30FC 1
 62
     7
420
 16777215
100
AcDbHatch
 10
0.0
 20
0.0
 30
0.0
210
0.0
220
0.0
230
1.0
  2
SOLID
 70
     1
 71
     0
 91
        2
 92
        1
 93
        1
 72
     4
 94
        3
 73
     0
 74
     1
 95
       32
 96
       28
 40
0.0
 40
0.0
 40
0.0
 40
0.0
 40
1.0
 40
1.0
 40
1.0
 40
2.0
 40
2.0
 40
2.0
 40
3.0
 40
3.0
 40
3.0
 40
4.0
 40
4.0
 40
4.0
 40
5.0
 40
5.0
 40
5.0
 40
6.0
 40
6.0
 40
6.0
 40
7.0
 40
7.0
 40
7.0
 40
8.0
 40
8.0
 40
8.0
 40
9.0
 40
9.0
 40
9.0
 40
9.0
 10
92.5004692694096
 20
-142.6117946692082
 10
92.31512313230317
 20
-142.6117946692082
 10
92.05295136587566
 20
-142.5422037404061
 10
92.01229923914971
 20
-142.210096535628
 10
92.01229923914971
 20
-142.210096535628
 10
92.24036456027325
 20
-142.210096535628
 10
92.24036456027325
 20
-142.210096535628
 10
92.25173337537457
 20
-142.2693521779743
 10
92.28583982067855
 20
-142.4171467742916
 10
92.50288083624929
 20
-142.4171467742916
 10
92.8146619776644
 20
-142.4171467742916
 10
92.85531410439035
 20
-142.0874511363531
 10
92.86909448633133
 20
-141.8821234454323
 10
92.7719427936473
 20
-141.9623941702386
 10
92.69959578845705
 20
-142.0195827552937
 10
92.50494789354043
 20
-142.0195827552937
 10
92.31271156546349
 20
-142.0195827552937
 10
91.98956160894706
 20
-141.9138183238965
 10
91.98956160894706
 20
-141.5076415661856
 10
91.98956160894706
 20
-141.1882812147029
 10
92.20212400038697
 20
-140.9681396131955
 10
92.54112139613555
 20
-140.9681396131955
 10
93.0906141260329
 20
-140.9681396131955
 10
93.10198294113422
 20
-141.5224554767722
 10
93.10198294113422
 20
-141.7360513968576
 10
93.10198294113422
 20
-141.9665282848209
 10
93.08165687777125
 20
-142.6117946692082
 10
92.5004692694096
 20
-142.6117946692082
 97
        0
 97
        0
 92
        1
 93
        1
 72
     4
 94
        3
 73
     0
 74
     1
 95
       17
 96
       13
 40
0.0
 40
0.0
 40
0.0
 40
0.0
 40
1.0
 40
1.0
 40
1.0
 40
2.0
 40
2.0
 40
2.0
 40
3.0
 40
3.0
 40
3.0
 40
4.0
 40
4.0
 40
4.0
 40
4.0
 10
92.54353296297523
 20
-141.1607204508209
 10
92.41675344911803
 20
-141.1607204508209
 10
92.22934025472044
 20
-141.2179090358761
 10
92.22934025472044
 20
-141.5035074516033
 10
92.22934025472044
 20
-141.7298502249842
 10
92.37851288923177
 20
-141.8249348603771
 10
92.52320689961226
 20
-141.8249348603771
 10
92.80329316256307
 20
-141.8249348603771
 10
92.84428979883754
 20
-141.6154730548739
 10
92.84428979883754
 20
-141.4990288274725
 10
92.84428979883754
 20
-141.3236734672733
 10
92.74231497247415
 20
-141.1607204508209
 10
92.54353296297523
 20
-141.1607204508209
 97
        0
 97
        0
 75
     2
 76
     1
 98
        0
  0
ENDBLK
  5
E5
330
E2
100
AcDbEntity
  8
0
100
AcDbBlockEnd
  0
BLOCK
  5
F9
330
F7
100
AcDbEntity
  8
0
100
AcDbBlockBegin
  2
block 7
 70
     0
 10
0.0
 20
0.0
 30
0.0
  3
block 7
  1

  0
SPLINE
  5
FB
330
F7
100
AcDbEntity
  8
_U+30EC_U+30A4_U+30E4_U+30FC 1
370
     0
100
AcDbSpline
210
0.0
220
0.0
230
1.0
 70
    11
 71
     3
 72
    26
 73
    22
 74
     0
 42
0.0000000001
 43
0.0000000001
 12
1.0
 22
0.0
 32
0.0
 13
1.0
 23
0.0
 33
0.0
 40
0.0
 40
0.0
 40
0.0
 40
0.0
 40
1.0
 40
1.0
 40
1.0
 40
2.0
 40
2.0
 40
2.0
 40
3.0
 40
3.0
 40
3.0
 40
4.0
 40
4.0
 40
4.0
 40
5.0
 40
5.0
 40
5.0
 40
6.0
 40
6.0
 40
6.0
 40
7.0
 40
7.0
 40
7.0
 40
7.0
 10
104.8211642533086
 20
-132.6695936083257
 30
0.0
 10
104.8211642533086
 20
-132.6695936083257
 30
0.0
 10
103.717011150286
 20
-132.6695936083257
 30
0.0
 10
103.717011150286
 20
-132.6695936083257
 30
0.0
 10
103.717011150286
 20
-132.6695936083257
 30
0.0
 10
103.717011150286
 20
-133.0220268764667
 30
0.0
 10
103.717011150286
 20
-133.0220268764667
 30
0.0
 10
103.717011150286
 20
-133.0220268764667
 30
0.0
 10
103.5688720444203
 20
-133.0220268764667
 30
0.0
 10
103.5688720444203
 20
-133.0220268764667
 30
0.0
 10
103.5540581338337
 20
-132.667182041486
 30
0.0
 10
103.3911051173814
 20
-132.6175726664984
 30
0.0
 10
103.2767279472711
 20
-132.5858777880341
 30
0.0
 10
103.2767279472711
 20
-132.5858777880341
 30
0.0
 10
103.2767279472711
 20
-132.4298149625523
 30
0.0
 10
103.2767279472711
 20
-132.4298149625523
 30
0.0
 10
103.2767279472711
 20
-132.4298149625523
 30
0.0
 10
104.8211642533086
 20
-132.4298149625523
 30
0.0
 10
104.8211642533086
 20
-132.4298149625523
 30
0.0
 10
104.8211642533086
 20
-132.4298149625523
 30
0.0
 10
104.8211642533086
 20
-132.6695936083257
 30
0.0
 10
104.8211642533086
 20
-132.6695936083257
 30
0.0
  0
HATCH
  5
FC
330
F7
100
AcDbEntity
  8
_U+30EC_U+30A4_U+30E4_U+30FC 1
 62
     7
420
 16777215
100
AcDbHatch
 10
0.0
 20
0.0
 30
0.0
210
0.0
220
0.0
230
1.0
  2
SOLID
 70
     1
 71
     0
 91
        1
 92
        1
 93
        1
 72
     4
 94
        3
 73
     0
 74
     1
 95
       26
 96
       22
 40
0.0
 40
0.0
 40
0.0
 40
0.0
 40
1.0
 40
1.0
 40
1.0
 40
2.0
 40
2.0
 40
2.0
 40
3.0
 40
3.0
 40
3.0
 40
4.0
 40
4.0
 40
4.0
 40
5.0
 40
5.0
 40
5.0
 40
6.0
 40
6.0
 40
6.0
 40
7.0
 40
7.0
 40
7.0
 40
7.0
 10
104.8211642533086
 20
-132.6695936083257
 10
104.8211642533086
 20
-132.6695936083257
 10
103.717011150286
 20
-132.6695936083257
 10
103.717011150286
 20
-132.6695936083257
 10
103.717011150286
 20
-132.6695936083257
 10
103.717011150286
 20
-133.0220268764667
 10
103.717011150286
 20
-133.0220268764667
 10
103.717011150286
 20
-133.0220268764667
 10
103.5688720444203
 20
-133.0220268764667
 10
103.5688720444203
 20
-133.0220268764667
 10
103.5540581338337
 20
-132.667182041486
 10
103.3911051173814
 20
-132.6175726664984
 10
103.2767279472711
 20
-132.5858777880341
 10
103.2767279472711
 20
-132.5858777880341
 10
103.2767279472711
 20
-132.4298149625523
 10
103.2767279472711
 20
-132.4298149625523
 10
103.2767279472711
 20
-132.4298149625523
 10
104.8211642533086
 20
-132.4298149625523
 10
104.8211642533086
 20
-132.4298149625523
 10
104.8211642533086
 20
-132.4298149625523
 10
104.8211642533086
 20
-132.6695936083257
 10
104.8211642533086
 20
-132.6695936083257
 97
        0
 97
        0
 75
     2
 76
     1
 98
        0
  0
SPLINE
  5
FD
330
F7
100
AcDbEntity
  8
_U+30EC_U+30A4_U+30E4_U+30FC 1
370
     0
100
AcDbSpline
210
0.0
220
0.0
230
1.0
 70
    11
 71
     3
 72
    62
 73
    58
 74
     0
 42
0.0000000001
 43
0.0000000001
 12
1.0
 22
0.0
 32
0.0
 13
1.0
 23
0.0
 33
0.0
 40
0.0
 40
0.0
 40
0.0
 40
0.0
 40
1.0
 40
1.0
 40
1.0
 40
2.0
 40
2.0
 40
2.0
 40
3.0
 40
3.0
 40
3.0
 40
4.0
 40
4.0
 40
4.0
 40
5.0
 40
5.0
 40
5.0
 40
6.0
 40
6.0
 40
6.0
 40
7.0
 40
7.0
 40
7.0
 40
8.0
 40
8.0
 40
8.0
 40
9.0
 40
9.0
 40
9.0
 40
10.0
 40
10.0
 40
10.0
 40
11.0
 40
11.0
 40
11.0
 40
12.0
 40
12.0
 40
12.0
 40
13.0
 40
13.0
 40
13.0
 40
14.0
 40
14.0
 40
14.0
 40
15.0
 40
15.0
 40
15.0
 40
16.0
 40
16.0
 40
16.0
 40
17.0
 40
17.0
 40
17.0
 40
18.0
 40
18.0
 40
18.0
 40
19.0
 40
19.0
 40
19.0
 40
19.0
 10
104.8718071569418
 20
-131.3687255530953
 30
0.0
 10
104.8718071569418
 20
-131.4703558699102
 30
0.0
 10
104.8507920744817
 20
-131.7032443247131
 30
0.0
 10
104.6647569182783
 20
-131.8365695199923
 30
0.0
 10
104.5524468054591
 20
-131.915806716153
 30
0.0
 10
104.4532280554839
 20
-131.9202853402838
 30
0.0
 10
104.3684787065468
 20
-131.9247639644146
 30
0.0
 10
104.3684787065468
 20
-131.9247639644146
 30
0.0
 10
104.3684787065468
 20
-131.6898084523206
 30
0.0
 10
104.3684787065468
 20
-131.6898084523206
 30
0.0
 10
104.4425482594797
 20
-131.6873968854809
 30
0.0
 10
104.6771592620252
 20
-131.6760280703796
 30
0.0
 10
104.6771592620252
 20
-131.3732041772261
 30
0.0
 10
104.6771592620252
 20
-131.226098600006
 30
0.0
 10
104.6075683332231
 20
-131.0634900931022
 30
0.0
 10
104.379158502551
 20
-131.0634900931022
 30
0.0
 10
104.2627142751496
 20
-131.0634900931022
 30
0.0
 10
104.2141384288076
 20
-131.1041422198281
 30
0.0
 10
104.1824435503433
 20
-131.1382486651321
 30
0.0
 10
104.1083739974104
 20
-131.2171413517443
 30
0.0
 10
104.095627144115
 20
-131.3415092987618
 30
0.0
 10
104.095627144115
 20
-131.4004204315596
 30
0.0
 10
104.095627144115
 20
-131.4207464949226
 30
0.0
 10
104.0976942014061
 20
-131.4589870548089
 30
0.0
 10
104.1018283159884
 20
-131.488614875982
 30
0.0
 10
104.1018283159884
 20
-131.488614875982
 30
0.0
 10
103.9071804210718
 20
-131.488614875982
 30
0.0
 10
103.9071804210718
 20
-131.488614875982
 30
0.0
 10
103.9137261024938
 20
-131.4479627492561
 30
0.0
 10
103.9157931597849
 20
-131.4024874888508
 30
0.0
 10
103.9157931597849
 20
-131.3959418074288
 30
0.0
 10
103.9157931597849
 20
-131.3256618595297
 30
0.0
 10
103.8944335677764
 20
-131.1130994680898
 30
0.0
 10
103.6577555079397
 20
-131.1130994680898
 30
0.0
 10
103.4799885809008
 20
-131.1130994680898
 30
0.0
 10
103.4248670531369
 20
-131.2533148543395
 30
0.0
 10
103.4248670531369
 20
-131.3707926103865
 30
0.0
 10
103.4248670531369
 20
-131.6536349497255
 30
0.0
 10
103.6577555079397
 20
-131.6625921979871
 30
0.0
 10
103.7294134940329
 20
-131.6670708221179
 30
0.0
 10
103.7294134940329
 20
-131.6670708221179
 30
0.0
 10
103.7294134940329
 20
-131.8841118376887
 30
0.0
 10
103.7294134940329
 20
-131.8841118376887
 30
0.0
 10
103.6047010374669
 20
-131.875154589427
 30
0.0
 10
103.2281521009291
 20
-131.8458712778024
 30
0.0
 10
103.2281521009291
 20
-131.357356737994
 30
0.0
 10
103.2281521009291
 20
-131.1175780922206
 30
0.0
 10
103.3552761243348
 20
-130.8598849499239
 30
0.0
 10
103.6512098265178
 20
-130.8598849499239
 30
0.0
 10
103.8375894922698
 20
-130.8598849499239
 30
0.0
 10
103.9199272743672
 20
-130.9618597762873
 30
0.0
 10
103.9812499740047
 20
-131.067968717233
 30
0.0
 10
104.0088107378867
 20
-131.0025119030133
 30
0.0
 10
104.089081462693
 20
-130.8078640080967
 30
0.0
 10
104.3664116492556
 20
-130.8078640080967
 30
0.0
 10
104.7047200259072
 20
-130.8078640080967
 30
0.0
 10
104.8718071569418
 20
-131.0724473413638
 30
0.0
 10
104.8718071569418
 20
-131.3687255530953
 30
0.0
  0
HATCH
  5
FE
330
F7
100
AcDbEntity
  8
_U+30EC_U+30A4_U+30E4_U+30FC 1
 62
     7
420
 16777215
100
AcDbHatch
 10
0.0
 20
0.0
 30
0.0
210
0.0
220
0.0
230
1.0
  2
SOLID
 70
     1
 71
     0
 91
        1
 92
        1
 93
        1
 72
     4
 94
        3
 73
     0
 74
     1
 95
       62
 96
       58
 40
0.0
 40
0.0
 40
0.0
 40
0.0
 40
1.0
 40
1.0
 40
1.0
 40
2.0
 40
2.0
 40
2.0
 40
3.0
 40
3.0
 40
3.0
 40
4.0
 40
4.0
 40
4.0
 40
5.0
 40
5.0
 40
5.0
 40
6.0
 40
6.0
 40
6.0
 40
7.0
 40
7.0
 40
7.0
 40
8.0
 40
8.0
 40
8.0
 40
9.0
 40
9.0
 40
9.0
 40
10.0
 40
10.0
 40
10.0
 40
11.0
 40
11.0
 40
11.0
 40
12.0
 40
12.0
 40
12.0
 40
13.0
 40
13.0
 40
13.0
 40
14.0
 40
14.0
 40
14.0
 40
15.0
 40
15.0
 40
15.0
 40
16.0
 40
16.0
 40
16.0
 40
17.0
 40
17.0
 40
17.0
 40
18.0
 40
18.0
 40
18.0
 40
19.0
 40
19.0
 40
19.0
 40
19.0
 10
104.8718071569418
 20
-131.3687255530953
 10
104.8718071569418
 20
-131.4703558699102
 10
104.8507920744817
 20
-131.7032443247131
 10
104.6647569182783
 20
-131.8365695199923
 10
104.5524468054591
 20
-131.915806716153
 10
104.4532280554839
 20
-131.9202853402838
 10
104.3684787065468
 20
-131.9247639644146
 10
104.3684787065468
 20
-131.9247639644146
 10
104.3684787065468
 20
-131.6898084523206
 10
104.3684787065468
 20
-131.6898084523206
 10
104.4425482594797
 20
-131.6873968854809
 10
104.6771592620252
 20
-131.6760280703796
 10
104.6771592620252
 20
-131.3732041772261
 10
104.6771592620252
 20
-131.226098600006
 10
104.6075683332231
 20
-131.0634900931022
 10
104.379158502551
 20
-131.0634900931022
 10
104.2627142751496
 20
-131.0634900931022
 10
104.2141384288076
 20
-131.1041422198281
 10
104.1824435503433
 20
-131.1382486651321
 10
104.1083739974104
 20
-131.2171413517443
 10
104.095627144115
 20
-131.3415092987618
 10
104.095627144115
 20
-131.4004204315596
 10
104.095627144115
 20
-131.4207464949226
 10
104.0976942014061
 20
-131.4589870548089
 10
104.1018283159884
 20
-131.488614875982
 10
104.1018283159884
 20
-131.488614875982
 10
103.9071804210718
 20
-131.488614875982
 10
103.9071804210718
 20
-131.488614875982
 10
103.9137261024938
 20
-131.4479627492561
 10
103.9157931597849
 20
-131.4024874888508
 10
103.9157931597849
 20
-131.3959418074288
 10
103.9157931597849
 20
-131.3256618595297
 10
103.8944335677764
 20
-131.1130994680898
 10
103.6577555079397
 20
-131.1130994680898
 10
103.4799885809008
 20
-131.1130994680898
 10
103.4248670531369
 20
-131.2533148543395
 10
103.4248670531369
 20
-131.3707926103865
 10
103.4248670531369
 20
-131.6536349497255
 10
103.6577555079397
 20
-131.6625921979871
 10
103.7294134940329
 20
-131.6670708221179
 10
103.7294134940329
 20
-131.6670708221179
 10
103.7294134940329
 20
-131.8841118376887
 10
103.7294134940329
 20
-131.8841118376887
 10
103.6047010374669
 20
-131.875154589427
 10
103.2281521009291
 20
-131.8458712778024
 10
103.2281521009291
 20
-131.357356737994
 10
103.2281521009291
 20
-131.1175780922206
 10
103.3552761243348
 20
-130.8598849499239
 10
103.6512098265178
 20
-130.8598849499239
 10
103.8375894922698
 20
-130.8598849499239
 10
103.9199272743672
 20
-130.9618597762873
 10
103.9812499740047
 20
-131.067968717233
 10
104.0088107378867
 20
-131.0025119030133
 10
104.089081462693
 20
-130.8078640080967
 10
104.3664116492556
 20
-130.8078640080967
 10
104.7047200259072
 20
-130.8078640080967
 10
104.8718071569418
 20
-131.0724473413638
 10
104.8718071569418
 20
-131.3687255530953
 97
        0
 97
        0
 75
     2
 76
     1
 98
        0
  0
ENDBLK
  5
FA
330
F7
100
AcDbEntity
  8
0
100
AcDbBlockEnd
  0
ENDSEC
  0
SECTION
  2
ENTITIES
  0
POLYLINE
  5
41
330
1F
100
AcDbEntity
  8
_U+30EC_U+30A4_U+30E4_U+30FC 1
 62
     7
420
 16777215
370
    25
100
AcDb2dPolyline
 66
     1
 10
0.0
 20
0.0
 30
0.0
  0
VERTEX
  5
42
330
41
100
AcDbEntity
  8
_U+30EC_U+30A4_U+30E4_U+30FC 1
 62
     7
420
 16777215
370
    25
100
AcDbVertex
100
AcDb2dVertex
 10
83.41765481628278
 20
-138.1576202432382
 30
0.0
  0
VERTEX
  5
43
330
41
100
AcDbEntity
  8
_U+30EC_U+30A4_U+30E4_U+30FC 1
 62
     7
420
 16777215
370
    25
100
AcDbVertex
100
AcDb2dVertex
 10
102.4181948870942
 20
-138.1576202432382
 30
0.0
  0
SEQEND
  5
44
330
41
100
AcDbEntity
  8
_U+30EC_U+30A4_U+30E4_U+30FC 1
 62
     7
420
 16777215
370
    25
  0
POLYLINE
  5
45
330
1F
100
AcDbEntity
  8
_U+30EC_U+30A4_U+30E4_U+30FC 1
 62
     7
420
 16777215
370
    25
100
AcDb2dPolyline
 66
     1
 10
0.0
 20
0.0
 30
0.0
  0
VERTEX
  5
46
330
45
100
AcDbEntity
  8
_U+30EC_U+30A4_U+30E4_U+30FC 1
 62
     7
420
 16777215
370
    25
100
AcDbVertex
100
AcDb2dVertex
 10
83.41765481628278
 20
-125.8369269129851
 30
0.0
  0
VERTEX
  5
47
330
45
100
AcDbEntity
  8
_U+30EC_U+30A4_U+30E4_U+30FC 1
 62
     7
420
 16777215
370
    25
100
AcDbVertex
100
AcDb2dVertex
 10
101.4177524126176
 20
-125.8369269129851
 30
0.0
  0
SEQEND
  5
48
330
45
100
AcDbEntity
  8
_U+30EC_U+30A4_U+30E4_U+30FC 1
 62
     7
420
 16777215
370
    25
  0
POLYLINE
  5
49
330
1F
100
AcDbEntity
  8
_U+30EC_U+30A4_U+30E4_U+30FC 1
 62
     7
420
 16777215
370
    25
100
AcDb2dPolyline
 66
     1
 10
0.0
 20
0.0
 30
0.0
  0
VERTEX
  5
4A
330
49
100
AcDbEntity
  8
_U+30EC_U+30A4_U+30E4_U+30FC 1
 62
     7
420
 16777215
370
    25
100
AcDbVertex
100
AcDb2dVertex
 10
83.41765481628278
 20
-139.1580980207663
 30
0.0
  0
VERTEX
  5
4B
330
49
100
AcDbEntity
  8
_U+30EC_U+30A4_U+30E4_U+30FC 1
 62
     7
420
 16777215
370
    25
100
AcDbVertex
100
AcDb2dVertex
 10
101.2482426947199
 20
-139.1580980207663
 30
0.0
  0
SEQEND
  5
4C
330
49
100
AcDbEntity
  8
_U+30EC_U+30A4_U+30E4_U+30FC 1
 62
     7
420
 16777215
370
    25
  0
POLYLINE
  5
4D
330
1F
100
AcDbEntity
  8
_U+30EC_U+30A4_U+30E4_U+30FC 1
 62
     7
420
 16777215
370
    25
100
AcDb2dPolyline
 66
     1
 10
0.0
 20
0.0
 30
0.0
  0
VERTEX
  5
4E
330
4D
100
AcDbEntity
  8
_U+30EC_U+30A4_U+30E4_U+30FC 1
 62
     7
420
 16777215
370
    25
100
AcDbVertex
100
AcDb2dVertex
 10
82.41788261956687
 20
-121.1578235808218
 30
0.0
  0
VERTEX
  5
4F
330
4D
100
AcDbEntity
  8
_U+30EC_U+30A4_U+30E4_U+30FC 1
 62
     7
420
 16777215
370
    25
100
AcDbVertex
100
AcDb2dVertex
 10
82.41788261956687
 20
-138.1576202432382
 30
0.0
  0
SEQEND
  5
50
330
4D
100
AcDbEntity
  8
_U+30EC_U+30A4_U+30E4_U+30FC 1
 62
     7
420
 16777215
370
    25
  0
POLYLINE
  5
51
330
1F
100
AcDbEntity
  8
_U+30EC_U+30A4_U+30E4_U+30FC 1
 62
     7
420
 16777215
370
    25
100
AcDb2dPolyline
 66
     1
 10
0.0
 20
0.0
 30
0.0
  0
VERTEX
  5
52
330
51
100
AcDbEntity
  8
_U+30EC_U+30A4_U+30E4_U+30FC 1
 62
     7
420
 16777215
370
    25
100
AcDbVertex
100
AcDb2dVertex
 10
83.41765481628278
 20
-120.3368391365824
 30
0.0
  0
VERTEX
  5
53
330
51
100
AcDbEntity
  8
_U+30EC_U+30A4_U+30E4_U+30FC 1
 62
     7
420
 16777215
370
    25
100
AcDbVertex
100
AcDb2dVertex
 10
83.41765481628278
 20
-124.836837191013
 30
0.0
  0
SEQEND
  5
54
330
51
100
AcDbEntity
  8
_U+30EC_U+30A4_U+30E4_U+30FC 1
 62
     7
420
 16777215
370
    25
  0
POLYLINE
  5
55
330
1F
100
AcDbEntity
  8
_U+30EC_U+30A4_U+30E4_U+30FC 1
 62
     7
420
 16777215
370
    25
100
AcDb2dPolyline
 66
     1
 10
0.0
 20
0.0
 30
0.0
  0
VERTEX
  5
56
330
55
100
AcDbEntity
  8
_U+30EC_U+30A4_U+30E4_U+30FC 1
 62
     7
420
 16777215
370
    25
100
AcDbVertex
100
AcDb2dVertex
 10
83.41765481628278
 20
-124.836837191013
 30
0.0
  0
VERTEX
  5
57
330
55
100
AcDbEntity
  8
_U+30EC_U+30A4_U+30E4_U+30FC 1
 62
     7
420
 16777215
370
    25
100
AcDbVertex
100
AcDb2dVertex
 10
107.4177261484344
 20
-124.836837191013
 30
0.0
  0
SEQEND
  5
58
330
55
100
AcDbEntity
  8
_U+30EC_U+30A4_U+30E4_U+30FC 1
 62
     7
420
 16777215
370
    25
  0
POLYLINE
  5
59
330
1F
100
AcDbEntity
  8
_U+30EC_U+30A4_U+30E4_U+30FC 1
 62
     7
420
 16777215
370
    25
100
AcDb2dPolyline
 66
     1
 10
0.0
 20
0.0
 30
0.0
  0
VERTEX
  5
5A
330
59
100
AcDbEntity
  8
_U+30EC_U+30A4_U+30E4_U+30FC 1
 62
     7
420
 16777215
370
    25
100
AcDbVertex
100
AcDb2dVertex
 10
83.41765481628278
 20
-125.976803301839
 30
0.0
  0
VERTEX
  5
5B
330
59
100
AcDbEntity
  8
_U+30EC_U+30A4_U+30E4_U+30FC 1
 62
     7
420
 16777215
370
    25
100
AcDbVertex
100
AcDb2dVertex
 10
83.41765481628278
 20
-138.1576202432382
 30
0.0
  0
SEQEND
  5
5C
330
59
100
AcDbEntity
  8
_U+30EC_U+30A4_U+30E4_U+30FC 1
 62
     7
420
 16777215
370
    25
  0
POLYLINE
  5
5D
330
1F
100
AcDbEntity
  8
_U+30EC_U+30A4_U+30E4_U+30FC 1
 62
     7
420
 16777215
370
    25
100
AcDb2dPolyline
 66
     1
 10
0.0
 20
0.0
 30
0.0
  0
VERTEX
  5
5E
330
5D
100
AcDbEntity
  8
_U+30EC_U+30A4_U+30E4_U+30FC 1
 62
     7
420
 16777215
370
    25
100
AcDbVertex
100
AcDb2dVertex
 10
101.9372882326964
 20
-125.5368541352824
 30
0.0
  0
VERTEX
  5
5F
330
5D
100
AcDbEntity
  8
_U+30EC_U+30A4_U+30E4_U+30FC 1
 62
     7
420
 16777215
370
    25
100
AcDbVertex
100
AcDb2dVertex
 10
106.717673944072
 20
-125.5368541352824
 30
0.0
  0
SEQEND
  5
60
330
5D
100
AcDbEntity
  8
_U+30EC_U+30A4_U+30E4_U+30FC 1
 62
     7
420
 16777215
370
    25
  0
POLYLINE
  5
61
330
1F
100
AcDbEntity
  8
_U+30EC_U+30A4_U+30E4_U+30FC 1
 62
     7
420
 16777215
370
    25
100
AcDb2dPolyline
 66
     1
 10
0.0
 20
0.0
 30
0.0
  0
VERTEX
  5
62
330
61
100
AcDbEntity
  8
_U+30EC_U+30A4_U+30E4_U+30FC 1
 62
     7
420
 16777215
370
    25
100
AcDbVertex
100
AcDb2dVertex
 10
101.4177524126176
 20
-125.8369269129851
 30
0.0
  0
VERTEX
  5
63
330
61
100
AcDbEntity
  8
_U+30EC_U+30A4_U+30E4_U+30FC 1
 62
     7
420
 16777215
370
    25
100
AcDbVertex
100
AcDb2dVertex
 10
101.9372882326964
 20
-125.5368541352824
 30
0.0
  0
SEQEND
  5
64
330
61
100
AcDbEntity
  8
_U+30EC_U+30A4_U+30E4_U+30FC 1
 62
     7
420
 16777215
370
    25
  0
POLYLINE
  5
65
330
1F
100
AcDbEntity
  8
_U+30EC_U+30A4_U+30E4_U+30FC 1
 62
     7
420
 16777215
370
     9
100
AcDb2dPolyline
 66
     1
 10
0.0
 20
0.0
 30
0.0
  0
VERTEX
  5
66
330
65
100
AcDbEntity
  8
_U+30EC_U+30A4_U+30E4_U+30FC 1
 62
     7
420
 16777215
370
     9
100
AcDbVertex
100
AcDb2dVertex
 10
82.71072344542921
 20
-138.864904409728
 30
0.0
  0
VERTEX
  5
67
330
65
100
AcDbEntity
  8
_U+30EC_U+30A4_U+30E4_U+30FC 1
 62
     7
420
 16777215
370
     9
100
AcDbVertex
100
AcDb2dVertex
 10
78.41812355494255
 20
-143.1578571864325
 30
0.0
  0
SEQEND
  5
68
330
65
100
AcDbEntity
  8
_U+30EC_U+30A4_U+30E4_U+30FC 1
 62
     7
420
 16777215
370
     9
  0
POLYLINE
  5
69
330
1F
100
AcDbEntity
  8
_U+30EC_U+30A4_U+30E4_U+30FC 1
 62
     7
420
 16777215
370
     9
100
AcDb2dPolyline
 66
     1
 10
0.0
 20
0.0
 30
0.0
  0
VERTEX
  5
6A
330
69
100
AcDbEntity
  8
_U+30EC_U+30A4_U+30E4_U+30FC 1
 62
     7
420
 16777215
370
     9
100
AcDbVertex
100
AcDb2dVertex
 10
74.20546310686092
 20
-143.1578571864325
 30
0.0
  0
VERTEX
  5
6B
330
69
100
AcDbEntity
  8
_U+30EC_U+30A4_U+30E4_U+30FC 1
 62
     7
420
 16777215
370
     9
100
AcDbVertex
100
AcDb2dVertex
 10
78.41812355494255
 20
-143.1578571864325
 30
0.0
  0
SEQEND
  5
6C
330
69
100
AcDbEntity
  8
_U+30EC_U+30A4_U+30E4_U+30FC 1
 62
     7
420
 16777215
370
     9
  0
POLYLINE
  5
6D
330
1F
100
AcDbEntity
  8
_U+30EC_U+30A4_U+30E4_U+30FC 1
 62
     7
420
 16777215
370
     9
100
AcDb2dPolyline
 66
     1
 10
0.0
 20
0.0
 30
0.0
  0
VERTEX
  5
6E
330
6D
100
AcDbEntity
  8
_U+30EC_U+30A4_U+30E4_U+30FC 1
 62
     7
420
 16777215
370
     9
100
AcDbVertex
100
AcDb2dVertex
 10
82.71072344542921
 20
-138.864904409728
 30
0.0
  0
VERTEX
  5
6F
330
6D
100
AcDbEntity
  8
_U+30EC_U+30A4_U+30E4_U+30FC 1
 62
     7
420
 16777215
370
     9
100
AcDbVertex
100
AcDb2dVertex
 10
81.41190153412046
 20
-139.6149099650961
 30
0.0
  0
SEQEND
  5
70
330
6D
100
AcDbEntity
  8
_U+30EC_U+30A4_U+30E4_U+30FC 1
 62
     7
420
 16777215
370
     9
  0
POLYLINE
  5
71
330
1F
100
AcDbEntity
  8
_U+30EC_U+30A4_U+30E4_U+30FC 1
 62
     7
420
 16777215
370
     9
100
AcDb2dPolyline
 66
     1
 10
0.0
 20
0.0
 30
0.0
  0
VERTEX
  5
72
330
71
100
AcDbEntity
  8
_U+30EC_U+30A4_U+30E4_U+30FC 1
 62
     7
420
 16777215
370
     9
100
AcDbVertex
100
AcDb2dVertex
 10
82.71072344542921
 20
-138.864904409728
 30
0.0
  0
VERTEX
  5
73
330
71
100
AcDbEntity
  8
_U+30EC_U+30A4_U+30E4_U+30FC 1
 62
     7
420
 16777215
370
     9
100
AcDbVertex
100
AcDb2dVertex
 10
81.96107068677667
 20
-140.1640438538477
 30
0.0
  0
SEQEND
  5
74
330
71
100
AcDbEntity
  8
_U+30EC_U+30A4_U+30E4_U+30FC 1
 62
     7
420
 16777215
370
     9
  0
SPLINE
  5
75
330
1F
100
AcDbEntity
  8
_U+30EC_U+30A4_U+30E4_U+30FC 1
 62
     7
420
 16777215
370
    25
100
AcDbSpline
210
0.0
220
0.0
230
1.0
 70
     8
 71
     3
 72
     8
 73
     4
 74
     0
 42
0.0000000001
 43
0.0000000001
 12
1.0
 22
0.0
 32
0.0
 13
1.0
 23
0.0
 33
0.0
 40
0.0
 40
0.0
 40
0.0
 40
0.0
 40
1.0
 40
1.0
 40
1.0
 40
1.0
 10
82.41788261956687
 20
-138.1576202432382
 30
0.0
 10
82.41788261956687
 20
-138.7102113542111
 30
0.0
 10
82.86573609039483
 20
-139.1580980207663
 30
0.0
 10
83.41765481628278
 20
-139.1580980207663
 30
0.0
  0
SPLINE
  5
76
330
1F
100
AcDbEntity
  8
_U+30EC_U+30A4_U+30E4_U+30FC 1
 62
     7
420
 16777215
370
    25
100
AcDbSpline
210
0.0
220
0.0
230
1.0
 70
     8
 71
     3
 72
     8
 73
     4
 74
     0
 42
0.0000000001
 43
0.0000000001
 12
1.0
 22
0.0
 32
0.0
 13
1.0
 23
0.0
 33
0.0
 40
0.0
 40
0.0
 40
0.0
 40
0.0
 40
1.0
 40
1.0
 40
1.0
 40
1.0
 10
83.41765481628278
 20
-120.3368391365824
 30
0.0
 10
82.86573609039483
 20
-120.3368391365824
 30
0.0
 10
82.41788261956687
 20
-120.7846905253594
 30
0.0
 10
82.41788261956687
 20
-121.3369641363324
 30
0.0
  0
SPLINE
  5
77
330
1F
100
AcDbEntity
  8
_U+30EC_U+30A4_U+30E4_U+30FC 1
 62
     7
420
 16777215
370
    25
100
AcDbSpline
210
0.0
220
0.0
230
1.0
 70
     8
 71
     3
 72
     8
 73
     4
 74
     0
 42
0.0000000001
 43
0.0000000001
 12
1.0
 22
0.0
 32
0.0
 13
1.0
 23
0.0
 33
0.0
 40
0.0
 40
0.0
 40
0.0
 40
0.0
 40
1.0
 40
1.0
 40
1.0
 40
1.0
 10
101.4177524126176
 20
-139.1580980207663
 30
0.0
 10
101.9703435096309
 20
-139.1580980207663
 30
0.0
 10
102.4181948870942
 20
-138.7102113542111
 30
0.0
 10
102.4181948870942
 20
-138.1576202432382
 30
0.0
  0
SPLINE
  5
78
330
1F
100
AcDbEntity
  8
_U+30EC_U+30A4_U+30E4_U+30FC 1
 62
     7
420
 16777215
370
    25
100
AcDbSpline
210
0.0
220
0.0
230
1.0
 70
     8
 71
     3
 72
     8
 73
     4
 74
     0
 42
0.0000000001
 43
0.0000000001
 12
1.0
 22
0.0
 32
0.0
 13
1.0
 23
0.0
 33
0.0
 40
0.0
 40
0.0
 40
0.0
 40
0.0
 40
1.0
 40
1.0
 40
1.0
 40
1.0
 10
106.717673944072
 20
-125.5368541352824
 30
0.0
 10
107.1042125453217
 20
-125.5368541352824
 30
0.0
 10
107.4177261484344
 20
-125.2233758020274
 30
0.0
 10
107.4177261484344
 20
-124.836837191013
 30
0.0
  0
SPLINE
  5
79
330
1F
100
AcDbEntity
  8
_U+30EC_U+30A4_U+30E4_U+30FC 1
 62
     7
420
 16777215
370
     9
100
AcDbSpline
210
0.0
220
0.0
230
1.0
 70
    11
 71
     3
 72
    17
 73
    13
 74
     0
 42
0.0000000001
 43
0.0000000001
 12
1.0
 22
0.0
 32
0.0
 13
1.0
 23
0.0
 33
0.0
 40
0.0
 40
0.0
 40
0.0
 40
0.0
 40
1.0
 40
1.0
 40
1.0
 40
2.0
 40
2.0
 40
2.0
 40
3.0
 40
3.0
 40
3.0
 40
4.0
 40
4.0
 40
4.0
 40
4.0
 10
107.5176328125522
 20
-116.3370799709158
 30
0.0
 10
107.5176328125522
 20
-116.2819760820406
 30
0.0
 10
107.4728653136943
 20
-116.2371733042742
 30
0.0
 10
107.4177261484344
 20
-116.2371733042742
 30
0.0
 10
107.362624973159
 20
-116.2371733042742
 30
0.0
 10
107.317822195393
 20
-116.2819760820406
 30
0.0
 10
107.317822195393
 20
-116.3370799709158
 30
0.0
 10
107.317822195393
 20
-116.3922191375686
 30
0.0
 10
107.362624973159
 20
-116.4369866375575
 30
0.0
 10
107.4177261484344
 20
-116.4369866375575
 30
0.0
 10
107.4728653136943
 20
-116.4369866375575
 30
0.0
 10
107.5176328125522
 20
-116.3922191375686
 30
0.0
 10
107.5176328125522
 20
-116.3370799709158
 30
0.0
  0
SPLINE
  5
7A
330
1F
100
AcDbEntity
  8
_U+30EC_U+30A4_U+30E4_U+30FC 1
 62
     7
420
 16777215
370
     9
100
AcDbSpline
210
0.0
220
0.0
230
1.0
 70
    11
 71
     3
 72
    17
 73
    13
 74
     0
 42
0.0000000001
 43
0.0000000001
 12
1.0
 22
0.0
 32
0.0
 13
1.0
 23
0.0
 33
0.0
 40
0.0
 40
0.0
 40
0.0
 40
0.0
 40
1.0
 40
1.0
 40
1.0
 40
2.0
 40
2.0
 40
2.0
 40
3.0
 40
3.0
 40
3.0
 40
4.0
 40
4.0
 40
4.0
 40
4.0
 10
83.61746814451844
 20
-116.3370799709158
 30
0.0
 10
83.61746814451844
 20
-116.2819760820406
 30
0.0
 10
83.57266536788367
 20
-116.2371733042742
 30
0.0
 10
83.5175614804006
 20
-116.2371733042742
 30
0.0
 10
83.46242231514066
 20
-116.2371733042742
 30
0.0
 10
83.41765481628278
 20
-116.2819760820406
 30
0.0
 10
83.41765481628278
 20
-116.3370799709158
 30
0.0
 10
83.41765481628278
 20
-116.3922191375686
 30
0.0
 10
83.46242231514066
 20
-116.4369866375575
 30
0.0
 10
83.5175614804006
 20
-116.4369866375575
 30
0.0
 10
83.57266536788367
 20
-116.4369866375575
 30
0.0
 10
83.61746814451844
 20
-116.3922191375686
 30
0.0
 10
83.61746814451844
 20
-116.3370799709158
 30
0.0
  0
SPLINE
  5
7B
330
1F
100
AcDbEntity
  8
_U+30EC_U+30A4_U+30E4_U+30FC 1
 62
     7
420
 16777215
370
     9
100
AcDbSpline
210
0.0
220
0.0
230
1.0
 70
    11
 71
     3
 72
    17
 73
    13
 74
     0
 42
0.0000000001
 43
0.0000000001
 12
1.0
 22
0.0
 32
0.0
 13
1.0
 23
0.0
 33
0.0
 40
0.0
 40
0.0
 40
0.0
 40
0.0
 40
1.0
 40
1.0
 40
1.0
 40
2.0
 40
2.0
 40
2.0
 40
3.0
 40
3.0
 40
3.0
 40
4.0
 40
4.0
 40
4.0
 40
4.0
 10
82.51778928368469
 20
-122.8369399692908
 30
0.0
 10
82.51778928368469
 20
-122.7818360804155
 30
0.0
 10
82.47298650704994
 20
-122.7370333026491
 30
0.0
 10
82.41788261956687
 20
-122.7370333026491
 30
0.0
 10
82.36274345430691
 20
-122.7370333026491
 30
0.0
 10
82.31797595544903
 20
-122.7818360804155
 30
0.0
 10
82.31797595544903
 20
-122.8369399692908
 30
0.0
 10
82.31797595544903
 20
-122.8923966359435
 30
0.0
 10
82.36274345430691
 20
-122.9371994137102
 30
0.0
 10
82.41788261956687
 20
-122.9371994137102
 30
0.0
 10
82.47298650704994
 20
-122.9371994137102
 30
0.0
 10
82.51778928368469
 20
-122.8923966359435
 30
0.0
 10
82.51778928368469
 20
-122.8369399692908
 30
0.0
  0
SPLINE
  5
7C
330
1F
100
AcDbEntity
  8
_U+30EC_U+30A4_U+30E4_U+30FC 1
 62
     7
420
 16777215
370
     9
100
AcDbSpline
210
0.0
220
0.0
230
1.0
 70
    11
 71
     3
 72
    17
 73
    13
 74
     0
 42
0.0000000001
 43
0.0000000001
 12
1.0
 22
0.0
 32
0.0
 13
1.0
 23
0.0
 33
0.0
 40
0.0
 40
0.0
 40
0.0
 40
0.0
 40
1.0
 40
1.0
 40
1.0
 40
2.0
 40
2.0
 40
2.0
 40
3.0
 40
3.0
 40
3.0
 40
4.0
 40
4.0
 40
4.0
 40
4.0
 10
83.5175614804006
 20
-122.8369399692908
 30
0.0
 10
83.5175614804006
 20
-122.7818360804155
 30
0.0
 10
83.47275870376585
 20
-122.7370333026491
 30
0.0
 10
83.41765481628278
 20
-122.7370333026491
 30
0.0
 10
83.36251565102282
 20
-122.7370333026491
 30
0.0
 10
83.31774815216494
 20
-122.7818360804155
 30
0.0
 10
83.31774815216494
 20
-122.8369399692908
 30
0.0
 10
83.31774815216494
 20
-122.8923966359435
 30
0.0
 10
83.36251565102282
 20
-122.9371994137102
 30
0.0
 10
83.41765481628278
 20
-122.9371994137102
 30
0.0
 10
83.47275870376585
 20
-122.9371994137102
 30
0.0
 10
83.5175614804006
 20
-122.8923966359435
 30
0.0
 10
83.5175614804006
 20
-122.8369399692908
 30
0.0
  0
SPLINE
  5
7D
330
1F
100
AcDbEntity
  8
_U+30EC_U+30A4_U+30E4_U+30FC 1
 62
     7
420
 16777215
370
     9
100
AcDbSpline
210
0.0
220
0.0
230
1.0
 70
    11
 71
     3
 72
    17
 73
    13
 74
     0
 42
0.0000000001
 43
0.0000000001
 12
1.0
 22
0.0
 32
0.0
 13
1.0
 23
0.0
 33
0.0
 40
0.0
 40
0.0
 40
0.0
 40
0.0
 40
1.0
 40
1.0
 40
1.0
 40
2.0
 40
2.0
 40
2.0
 40
3.0
 40
3.0
 40
3.0
 40
4.0
 40
4.0
 40
4.0
 40
4.0
 10
78.51803021906039
 20
-139.1580980207663
 30
0.0
 10
78.51803021906039
 20
-139.1026060763354
 30
0.0
 10
78.47322744242562
 20
-139.0578385763469
 30
0.0
 10
78.41812355494255
 20
-139.0578385763469
 30
0.0
 10
78.36231411192192
 20
-139.0578385763469
 30
0.0
 10
78.31751133528716
 20
-139.1026060763354
 30
0.0
 10
78.31751133528716
 20
-139.1580980207663
 30
0.0
 10
78.31751133528716
 20
-139.2132019096412
 30
0.0
 10
78.36231411192192
 20
-139.2580046874079
 30
0.0
 10
78.41812355494255
 20
-139.2580046874079
 30
0.0
 10
78.47322744242562
 20
-139.2580046874079
 30
0.0
 10
78.51803021906039
 20
-139.2132019096412
 30
0.0
 10
78.51803021906039
 20
-139.1580980207663
 30
0.0
  0
SPLINE
  5
7E
330
1F
100
AcDbEntity
  8
_U+30EC_U+30A4_U+30E4_U+30FC 1
 62
     7
420
 16777215
370
     9
100
AcDbSpline
210
0.0
220
0.0
230
1.0
 70
    11
 71
     3
 72
    17
 73
    13
 74
     0
 42
0.0000000001
 43
0.0000000001
 12
1.0
 22
0.0
 32
0.0
 13
1.0
 23
0.0
 33
0.0
 40
0.0
 40
0.0
 40
0.0
 40
0.0
 40
1.0
 40
1.0
 40
1.0
 40
2.0
 40
2.0
 40
2.0
 40
3.0
 40
3.0
 40
3.0
 40
4.0
 40
4.0
 40
4.0
 40
4.0
 10
78.51803021906039
 20
-120.1580513588493
 30
0.0
 10
78.51803021906039
 20
-120.1029121921965
 30
0.0
 10
78.47322744242562
 20
-120.0581446922076
 30
0.0
 10
78.41812355494255
 20
-120.0581446922076
 30
0.0
 10
78.36231411192192
 20
-120.0581446922076
 30
0.0
 10
78.31751133528716
 20
-120.1029121921965
 30
0.0
 10
78.31751133528716
 20
-120.1580513588493
 30
0.0
 10
78.31751133528716
 20
-120.2131552477245
 30
0.0
 10
78.36231411192192
 20
-120.2579580254912
 30
0.0
 10
78.41812355494255
 20
-120.2579580254912
 30
0.0
 10
78.47322744242562
 20
-120.2579580254912
 30
0.0
 10
78.51803021906039
 20
-120.2131552477245
 30
0.0
 10
78.51803021906039
 20
-120.1580513588493
 30
0.0
  0
SPLINE
  5
7F
330
1F
100
AcDbEntity
  8
_U+30EC_U+30A4_U+30E4_U+30FC 1
 62
     7
420
 16777215
370
     9
100
AcDbSpline
210
0.0
220
0.0
230
1.0
 70
    11
 71
     3
 72
    17
 73
    13
 74
     0
 42
0.0000000001
 43
0.0000000001
 12
1.0
 22
0.0
 32
0.0
 13
1.0
 23
0.0
 33
0.0
 40
0.0
 40
0.0
 40
0.0
 40
0.0
 40
1.0
 40
1.0
 40
1.0
 40
2.0
 40
2.0
 40
2.0
 40
3.0
 40
3.0
 40
3.0
 40
4.0
 40
4.0
 40
4.0
 40
4.0
 10
101.5176590767354
 20
-143.1578571864325
 30
0.0
 10
101.5176590767354
 20
-143.1027180197801
 30
0.0
 10
101.4728563001006
 20
-143.0579505197909
 30
0.0
 10
101.4177524126176
 20
-143.0579505197909
 30
0.0
 10
101.3626132473576
 20
-143.0579505197909
 30
0.0
 10
101.3178457484997
 20
-143.1027180197801
 30
0.0
 10
101.3178457484997
 20
-143.1578571864325
 30
0.0
 10
101.3178457484997
 20
-143.2129610753081
 30
0.0
 10
101.3626132473576
 20
-143.2577638530742
 30
0.0
 10
101.4177524126176
 20
-143.2577638530742
 30
0.0
 10
101.4728563001006
 20
-143.2577638530742
 30
0.0
 10
101.5176590767354
 20
-143.2129610753081
 30
0.0
 10
101.5176590767354
 20
-143.1578571864325
 30
0.0
  0
SPLINE
  5
80
330
1F
100
AcDbEntity
  8
_U+30EC_U+30A4_U+30E4_U+30FC 1
 62
     7
420
 16777215
370
     9
100
AcDbSpline
210
0.0
220
0.0
230
1.0
 70
    11
 71
     3
 72
    17
 73
    13
 74
     0
 42
0.0000000001
 43
0.0000000001
 12
1.0
 22
0.0
 32
0.0
 13
1.0
 23
0.0
 33
0.0
 40
0.0
 40
0.0
 40
0.0
 40
0.0
 40
1.0
 40
1.0
 40
1.0
 40
2.0
 40
2.0
 40
2.0
 40
3.0
 40
3.0
 40
3.0
 40
4.0
 40
4.0
 40
4.0
 40
4.0
 10
82.51778928368469
 20
-143.1578571864325
 30
0.0
 10
82.51778928368469
 20
-143.1027180197801
 30
0.0
 10
82.47298650704994
 20
-143.0579505197909
 30
0.0
 10
82.41788261956687
 20
-143.0579505197909
 30
0.0
 10
82.36274345430691
 20
-143.0579505197909
 30
0.0
 10
82.31797595544903
 20
-143.1027180197801
 30
0.0
 10
82.31797595544903
 20
-143.1578571864325
 30
0.0
 10
82.31797595544903
 20
-143.2129610753081
 30
0.0
 10
82.36274345430691
 20
-143.2577638530742
 30
0.0
 10
82.41788261956687
 20
-143.2577638530742
 30
0.0
 10
82.47298650704994
 20
-143.2577638530742
 30
0.0
 10
82.51778928368469
 20
-143.2129610753081
 30
0.0
 10
82.51778928368469
 20
-143.1578571864325
 30
0.0
  0
SPLINE
  5
81
330
1F
100
AcDbEntity
  8
_U+30EC_U+30A4_U+30E4_U+30FC 1
 62
     7
420
 16777215
370
     9
100
AcDbSpline
210
0.0
220
0.0
230
1.0
 70
    11
 71
     3
 72
    17
 73
    13
 74
     0
 42
0.0000000001
 43
0.0000000001
 12
1.0
 22
0.0
 32
0.0
 13
1.0
 23
0.0
 33
0.0
 40
0.0
 40
0.0
 40
0.0
 40
0.0
 40
1.0
 40
1.0
 40
1.0
 40
2.0
 40
2.0
 40
2.0
 40
3.0
 40
3.0
 40
3.0
 40
4.0
 40
4.0
 40
4.0
 40
4.0
 10
105.5180884191204
 20
-125.8369269129851
 30
0.0
 10
105.5180884191204
 20
-125.7818230241102
 30
0.0
 10
105.4733209202625
 20
-125.7370202463435
 30
0.0
 10
105.4181817550026
 20
-125.7370202463435
 30
0.0
 10
105.3623749736597
 20
-125.7370202463435
 30
0.0
 10
105.317604813124
 20
-125.7818230241102
 30
0.0
 10
105.317604813124
 20
-125.8369269129851
 30
0.0
 10
105.317604813124
 20
-125.8924188574156
 30
0.0
 10
105.3623749736597
 20
-125.9371863574045
 30
0.0
 10
105.4181817550026
 20
-125.9371863574045
 30
0.0
 10
105.4733209202625
 20
-125.9371863574045
 30
0.0
 10
105.5180884191204
 20
-125.8924188574156
 30
0.0
 10
105.5180884191204
 20
-125.8369269129851
 30
0.0
  0
SPLINE
  5
82
330
1F
100
AcDbEntity
  8
_U+30EC_U+30A4_U+30E4_U+30FC 1
 62
     7
420
 16777215
370
     9
100
AcDbSpline
210
0.0
220
0.0
230
1.0
 70
    11
 71
     3
 72
    17
 73
    13
 74
     0
 42
0.0000000001
 43
0.0000000001
 12
1.0
 22
0.0
 32
0.0
 13
1.0
 23
0.0
 33
0.0
 40
0.0
 40
0.0
 40
0.0
 40
0.0
 40
1.0
 40
1.0
 40
1.0
 40
2.0
 40
2.0
 40
2.0
 40
3.0
 40
3.0
 40
3.0
 40
4.0
 40
4.0
 40
4.0
 40
4.0
 10
105.5180884191204
 20
-138.1573027432386
 30
0.0
 10
105.5180884191204
 20
-138.1021635765855
 30
0.0
 10
105.4733209202625
 20
-138.057396076597
 30
0.0
 10
105.4181817550026
 20
-138.057396076597
 30
0.0
 10
105.3623749736597
 20
-138.057396076597
 30
0.0
 10
105.317604813124
 20
-138.1021635765855
 30
0.0
 10
105.317604813124
 20
-138.1573027432386
 30
0.0
 10
105.317604813124
 20
-138.2131121876691
 30
0.0
 10
105.3623749736597
 20
-138.2578796876576
 30
0.0
 10
105.4181817550026
 20
-138.2578796876576
 30
0.0
 10
105.4733209202625
 20
-138.2578796876576
 30
0.0
 10
105.5180884191204
 20
-138.2131121876691
 30
0.0
 10
105.5180884191204
 20
-138.1573027432386
 30
0.0
  0
INSERT
  5
84
330
1F
100
AcDbEntity
  8
_U+30EC_U+30A4_U+30E4_U+30FC 1
100
AcDbBlockReference
  2
block 2
 10
0.0
 20
0.0
 30
0.0
  0
POLYLINE
  5
8C
330
1F
100
AcDbEntity
  8
_U+30EC_U+30A4_U+30E4_U+30FC 1
 62
     7
420
 16777215
370
     9
100
AcDb2dPolyline
 66
     1
 10
0.0
 20
0.0
 30
0.0
  0
VERTEX
  5
8D
330
8C
100
AcDbEntity
  8
_U+30EC_U+30A4_U+30E4_U+30FC 1
 62
     7
420
 16777215
370
     9
100
AcDbVertex
100
AcDb2dVertex
 10
83.41765481628278
 20
-116.3370799709158
 30
0.0
  0
VERTEX
  5
8E
330
8C
100
AcDbEntity
  8
_U+30EC_U+30A4_U+30E4_U+30FC 1
 62
     7
420
 16777215
370
     9
100
AcDbVertex
100
AcDb2dVertex
 10
107.4177261484344
 20
-116.3370799709158
 30
0.0
  0
SEQEND
  5
8F
330
8C
100
AcDbEntity
  8
_U+30EC_U+30A4_U+30E4_U+30FC 1
 62
     7
420
 16777215
370
     9
  0
POLYLINE
  5
90
330
1F
100
AcDbEntity
  8
_U+30EC_U+30A4_U+30E4_U+30FC 1
 62
     7
420
 16777215
370
     9
100
AcDb2dPolyline
 66
     1
 10
0.0
 20
0.0
 30
0.0
  0
VERTEX
  5
91
330
90
100
AcDbEntity
  8
_U+30EC_U+30A4_U+30E4_U+30FC 1
 62
     7
420
 16777215
370
     9
100
AcDbVertex
100
AcDb2dVertex
 10
83.5175614804006
 20
-118.7968935814118
 30
0.0
  0
VERTEX
  5
92
330
90
100
AcDbEntity
  8
_U+30EC_U+30A4_U+30E4_U+30FC 1
 62
     7
420
 16777215
370
     9
100
AcDbVertex
100
AcDb2dVertex
 10
83.5175614804006
 20
-115.3369902489437
 30
0.0
  0
SEQEND
  5
93
330
90
100
AcDbEntity
  8
_U+30EC_U+30A4_U+30E4_U+30FC 1
 62
     7
420
 16777215
370
     9
  0
POLYLINE
  5
94
330
1F
100
AcDbEntity
  8
_U+30EC_U+30A4_U+30E4_U+30FC 1
 62
     7
420
 16777215
370
     9
100
AcDb2dPolyline
 66
     1
 10
0.0
 20
0.0
 30
0.0
  0
VERTEX
  5
95
330
94
100
AcDbEntity
  8
_U+30EC_U+30A4_U+30E4_U+30FC 1
 62
     7
420
 16777215
370
     9
100
AcDbVertex
100
AcDb2dVertex
 10
107.4177261484344
 20
-122.2970841360923
 30
0.0
  0
VERTEX
  5
96
330
94
100
AcDbEntity
  8
_U+30EC_U+30A4_U+30E4_U+30FC 1
 62
     7
420
 16777215
370
     9
100
AcDbVertex
100
AcDb2dVertex
 10
107.4177261484344
 20
-115.3369902489437
 30
0.0
  0
SEQEND
  5
97
330
94
100
AcDbEntity
  8
_U+30EC_U+30A4_U+30E4_U+30FC 1
 62
     7
420
 16777215
370
     9
  0
INSERT
  5
99
330
1F
100
AcDbEntity
  8
_U+30EC_U+30A4_U+30E4_U+30FC 1
100
AcDbBlockReference
  2
block 3
 10
0.0
 20
0.0
 30
0.0
  0
POLYLINE
  5
B3
330
1F
100
AcDbEntity
  8
_U+30EC_U+30A4_U+30E4_U+30FC 1
 62
     7
420
 16777215
370
     9
100
AcDb2dPolyline
 66
     1
 10
0.0
 20
0.0
 30
0.0
  0
VERTEX
  5
B4
330
B3
100
AcDbEntity
  8
_U+30EC_U+30A4_U+30E4_U+30FC 1
 62
     7
420
 16777215
370
     9
100
AcDbVertex
100
AcDb2dVertex
 10
83.41765481628278
 20
-122.8369399692908
 30
0.0
  0
VERTEX
  5
B5
330
B3
100
AcDbEntity
  8
_U+30EC_U+30A4_U+30E4_U+30FC 1
 62
     7
420
 16777215
370
     9
100
AcDbVertex
100
AcDb2dVertex
 10
87.18796942264743
 20
-122.8369399692908
 30
0.0
  0
SEQEND
  5
B6
330
B3
100
AcDbEntity
  8
_U+30EC_U+30A4_U+30E4_U+30FC 1
 62
     7
420
 16777215
370
     9
  0
POLYLINE
  5
B7
330
1F
100
AcDbEntity
  8
_U+30EC_U+30A4_U+30E4_U+30FC 1
 62
     7
420
 16777215
370
     9
100
AcDb2dPolyline
 66
     1
 10
0.0
 20
0.0
 30
0.0
  0
VERTEX
  5
B8
330
B7
100
AcDbEntity
  8
_U+30EC_U+30A4_U+30E4_U+30FC 1
 62
     7
420
 16777215
370
     9
100
AcDbVertex
100
AcDb2dVertex
 10
81.41811042285096
 20
-122.8369399692908
 30
0.0
  0
VERTEX
  5
B9
330
B7
100
AcDbEntity
  8
_U+30EC_U+30A4_U+30E4_U+30FC 1
 62
     7
420
 16777215
370
     9
100
AcDbVertex
100
AcDb2dVertex
 10
83.41765481628278
 20
-122.8369399692908
 30
0.0
  0
SEQEND
  5
BA
330
B7
100
AcDbEntity
  8
_U+30EC_U+30A4_U+30E4_U+30FC 1
 62
     7
420
 16777215
370
     9
  0
INSERT
  5
BC
330
1F
100
AcDbEntity
  8
_U+30EC_U+30A4_U+30E4_U+30FC 1
100
AcDbBlockReference
  2
block 4
 10
0.0
 20
0.0
 30
0.0
  0
POLYLINE
  5
C1
330
1F
100
AcDbEntity
  8
_U+30EC_U+30A4_U+30E4_U+30FC 1
 62
     7
420
 16777215
370
     9
100
AcDb2dPolyline
 66
     1
 10
0.0
 20
0.0
 30
0.0
  0
VERTEX
  5
C2
330
C1
100
AcDbEntity
  8
_U+30EC_U+30A4_U+30E4_U+30FC 1
 62
     7
420
 16777215
370
     9
100
AcDbVertex
100
AcDb2dVertex
 10
78.41812355494255
 20
-139.1580980207663
 30
0.0
  0
VERTEX
  5
C3
330
C1
100
AcDbEntity
  8
_U+30EC_U+30A4_U+30E4_U+30FC 1
 62
     7
420
 16777215
370
     9
100
AcDbVertex
100
AcDb2dVertex
 10
78.41812355494255
 20
-120.1580513588493
 30
0.0
  0
SEQEND
  5
C4
330
C1
100
AcDbEntity
  8
_U+30EC_U+30A4_U+30E4_U+30FC 1
 62
     7
420
 16777215
370
     9
  0
POLYLINE
  5
C5
330
1F
100
AcDbEntity
  8
_U+30EC_U+30A4_U+30E4_U+30FC 1
 62
     7
420
 16777215
370
     9
100
AcDb2dPolyline
 66
     1
 10
0.0
 20
0.0
 30
0.0
  0
VERTEX
  5
C6
330
C5
100
AcDbEntity
  8
_U+30EC_U+30A4_U+30E4_U+30FC 1
 62
     7
420
 16777215
370
     9
100
AcDbVertex
100
AcDb2dVertex
 10
80.87793710329859
 20
-139.1580980207663
 30
0.0
  0
VERTEX
  5
C7
330
C5
100
AcDbEntity
  8
_U+30EC_U+30A4_U+30E4_U+30FC 1
 62
     7
420
 16777215
370
     9
100
AcDbVertex
100
AcDb2dVertex
 10
77.41768108046597
 20
-139.1580980207663
 30
0.0
  0
SEQEND
  5
C8
330
C5
100
AcDbEntity
  8
_U+30EC_U+30A4_U+30E4_U+30FC 1
 62
     7
420
 16777215
370
     9
  0
POLYLINE
  5
C9
330
1F
100
AcDbEntity
  8
_U+30EC_U+30A4_U+30E4_U+30FC 1
 62
     7
420
 16777215
370
     9
100
AcDb2dPolyline
 66
     1
 10
0.0
 20
0.0
 30
0.0
  0
VERTEX
  5
CA
330
C9
100
AcDbEntity
  8
_U+30EC_U+30A4_U+30E4_U+30FC 1
 62
     7
420
 16777215
370
     9
100
AcDbVertex
100
AcDb2dVertex
 10
80.87793710329859
 20
-120.1580513588493
 30
0.0
  0
VERTEX
  5
CB
330
C9
100
AcDbEntity
  8
_U+30EC_U+30A4_U+30E4_U+30FC 1
 62
     7
420
 16777215
370
     9
100
AcDbVertex
100
AcDb2dVertex
 10
77.41768108046597
 20
-120.1580513588493
 30
0.0
  0
SEQEND
  5
CC
330
C9
100
AcDbEntity
  8
_U+30EC_U+30A4_U+30E4_U+30FC 1
 62
     7
420
 16777215
370
     9
  0
INSERT
  5
CE
330
1F
100
AcDbEntity
  8
_U+30EC_U+30A4_U+30E4_U+30FC 1
100
AcDbBlockReference
  2
block 5
 10
0.0
 20
0.0
 30
0.0
  0
POLYLINE
  5
D6
330
1F
100
AcDbEntity
  8
_U+30EC_U+30A4_U+30E4_U+30FC 1
 62
     7
420
 16777215
370
     9
100
AcDb2dPolyline
 66
     1
 10
0.0
 20
0.0
 30
0.0
  0
VERTEX
  5
D7
330
D6
100
AcDbEntity
  8
_U+30EC_U+30A4_U+30E4_U+30FC 1
 62
     7
420
 16777215
370
     9
100
AcDbVertex
100
AcDb2dVertex
 10
82.41788261956687
 20
-143.1578571864325
 30
0.0
  0
VERTEX
  5
D8
330
D6
100
AcDbEntity
  8
_U+30EC_U+30A4_U+30E4_U+30FC 1
 62
     7
420
 16777215
370
     9
100
AcDbVertex
100
AcDb2dVertex
 10
101.4177524126176
 20
-143.1578571864325
 30
0.0
  0
SEQEND
  5
D9
330
D6
100
AcDbEntity
  8
_U+30EC_U+30A4_U+30E4_U+30FC 1
 62
     7
420
 16777215
370
     9
  0
POLYLINE
  5
DA
330
1F
100
AcDbEntity
  8
_U+30EC_U+30A4_U+30E4_U+30FC 1
 62
     7
420
 16777215
370
     9
100
AcDb2dPolyline
 66
     1
 10
0.0
 20
0.0
 30
0.0
  0
VERTEX
  5
DB
330
DA
100
AcDbEntity
  8
_U+30EC_U+30A4_U+30E4_U+30FC 1
 62
     7
420
 16777215
370
     9
100
AcDbVertex
100
AcDb2dVertex
 10
82.41788261956687
 20
-140.6980435759369
 30
0.0
  0
VERTEX
  5
DC
330
DA
100
AcDbEntity
  8
_U+30EC_U+30A4_U+30E4_U+30FC 1
 62
     7
420
 16777215
370
     9
100
AcDbVertex
100
AcDb2dVertex
 10
82.41788261956687
 20
-144.1579469084047
 30
0.0
  0
SEQEND
  5
DD
330
DA
100
AcDbEntity
  8
_U+30EC_U+30A4_U+30E4_U+30FC 1
 62
     7
420
 16777215
370
     9
  0
POLYLINE
  5
DE
330
1F
100
AcDbEntity
  8
_U+30EC_U+30A4_U+30E4_U+30FC 1
 62
     7
420
 16777215
370
     9
100
AcDb2dPolyline
 66
     1
 10
0.0
 20
0.0
 30
0.0
  0
VERTEX
  5
DF
330
DE
100
AcDbEntity
  8
_U+30EC_U+30A4_U+30E4_U+30FC 1
 62
     7
420
 16777215
370
     9
100
AcDbVertex
100
AcDb2dVertex
 10
101.4177524126176
 20
-140.6980435759369
 30
0.0
  0
VERTEX
  5
E0
330
DE
100
AcDbEntity
  8
_U+30EC_U+30A4_U+30E4_U+30FC 1
 62
     7
420
 16777215
370
     9
100
AcDbVertex
100
AcDb2dVertex
 10
101.4177524126176
 20
-144.1579469084047
 30
0.0
  0
SEQEND
  5
E1
330
DE
100
AcDbEntity
  8
_U+30EC_U+30A4_U+30E4_U+30FC 1
 62
     7
420
 16777215
370
     9
  0
INSERT
  5
E3
330
1F
100
AcDbEntity
  8
_U+30EC_U+30A4_U+30E4_U+30FC 1
100
AcDbBlockReference
  2
block 6
 10
0.0
 20
0.0
 30
0.0
  0
POLYLINE
  5
EB
330
1F
100
AcDbEntity
  8
_U+30EC_U+30A4_U+30E4_U+30FC 1
 62
     7
420
 16777215
370
     9
100
AcDb2dPolyline
 66
     1
 10
0.0
 20
0.0
 30
0.0
  0
VERTEX
  5
EC
330
EB
100
AcDbEntity
  8
_U+30EC_U+30A4_U+30E4_U+30FC 1
 62
     7
420
 16777215
370
     9
100
AcDbVertex
100
AcDb2dVertex
 10
105.4181817550026
 20
-138.1576202432382
 30
0.0
  0
VERTEX
  5
ED
330
EB
100
AcDbEntity
  8
_U+30EC_U+30A4_U+30E4_U+30FC 1
 62
     7
420
 16777215
370
     9
100
AcDbVertex
100
AcDb2dVertex
 10
105.4181817550026
 20
-125.8190058018785
 30
0.0
  0
SEQEND
  5
EE
330
EB
100
AcDbEntity
  8
_U+30EC_U+30A4_U+30E4_U+30FC 1
 62
     7
420
 16777215
370
     9
  0
POLYLINE
  5
EF
330
1F
100
AcDbEntity
  8
_U+30EC_U+30A4_U+30E4_U+30FC 1
 62
     7
420
 16777215
370
     9
100
AcDb2dPolyline
 66
     1
 10
0.0
 20
0.0
 30
0.0
  0
VERTEX
  5
F0
330
EF
100
AcDbEntity
  8
_U+30EC_U+30A4_U+30E4_U+30FC 1
 62
     7
420
 16777215
370
     9
100
AcDbVertex
100
AcDb2dVertex
 10
103.9581756811393
 20
-138.1573027432386
 30
0.0
  0
VERTEX
  5
F1
330
EF
100
AcDbEntity
  8
_U+30EC_U+30A4_U+30E4_U+30FC 1
 62
     7
420
 16777215
370
     9
100
AcDbVertex
100
AcDb2dVertex
 10
106.4179539517185
 20
-138.1573027432386
 30
0.0
  0
SEQEND
  5
F2
330
EF
100
AcDbEntity
  8
_U+30EC_U+30A4_U+30E4_U+30FC 1
 62
     7
420
 16777215
370
     9
  0
POLYLINE
  5
F3
330
1F
100
AcDbEntity
  8
_U+30EC_U+30A4_U+30E4_U+30FC 1
 62
     7
420
 16777215
370
     9
100
AcDb2dPolyline
 66
     1
 10
0.0
 20
0.0
 30
0.0
  0
VERTEX
  5
F4
330
F3
100
AcDbEntity
  8
_U+30EC_U+30A4_U+30E4_U+30FC 1
 62
     7
420
 16777215
370
     9
100
AcDbVertex
100
AcDb2dVertex
 10
103.9581756811393
 20
-125.8369269129851
 30
0.0
  0
VERTEX
  5
F5
330
F3
100
AcDbEntity
  8
_U+30EC_U+30A4_U+30E4_U+30FC 1
 62
     7
420
 16777215
370
     9
100
AcDbVertex
100
AcDb2dVertex
 10
106.4179539517185
 20
-125.8369269129851
 30
0.0
  0
SEQEND
  5
F6
330
F3
100
AcDbEntity
  8
_U+30EC_U+30A4_U+30E4_U+30FC 1
 62
     7
420
 16777215
370
     9
  0
INSERT
  5
F8
330
1F
100
AcDbEntity
  8
_U+30EC_U+30A4_U+30E4_U+30FC 1
100
AcDbBlockReference
  2
block 7
 10
0.0
 20
0.0
 30
0.0
  0
ENDSEC
  0
SECTION
  2
OBJECTS
  0
DICTIONARY
  5
C
330
0
100
AcDbDictionary
281
     1
  3
ACAD_GROUP
350
D
  3
ACAD_LAYOUT
350
1A
  3
ACAD_MATERIAL
350
3B
  3
ACAD_MLEADERSTYLE
350
100
  3
ACAD_MLINESTYLE
350
17
  3
ACAD_PLOTSETTINGS
350
19
  3
ACAD_PLOTSTYLENAME
350
E
  3
ACAD_TABLESTYLE
350
FF
  3
ACAD_VISUALSTYLE
350
2A
  0
SUN
  5
3F
330
29
100
AcDbSun
 90
        1
290
     0
 63
     7
421
 16777215
 40
1.0
291
     1
 91
  2455826
 92
 54000000
292
     0
 70
     2
 71
   256
280
     1
  0
DICTIONARY
  5
D
102
{ACAD_REACTORS
330
C
102
}
330
C
100
AcDbDictionary
281
     1
  0
DICTIONARY
  5
1A
102
{ACAD_REACTORS
330
C
102
}
330
C
100
AcDbDictionary
281
     1
  3
Layout1
350
1E
  3
Layout2
350
26
  3
Model
350
22
  0
DICTIONARY
  5
3B
102
{ACAD_REACTORS
330
C
102
}
330
C
100
AcDbDictionary
281
     1
  3
ByBlock
350
3D
  3
ByLayer
350
3C
  3
Global
350
3E
  0
DICTIONARY
  5
100
102
{ACAD_REACTORS
330
C
102
}
330
C
100
AcDbDictionary
281
     1
  0
DICTIONARY
  5
17
102
{ACAD_REACTORS
330
C
102
}
330
C
100
AcDbDictionary
281
     1
  3
Standard
350
18
  0
DICTIONARY
  5
19
102
{ACAD_REACTORS
330
C
102
}
330
C
100
AcDbDictionary
281
     1
  0
ACDBDICTIONARYWDFLT
  5
E
102
{ACAD_REACTORS
330
C
102
}
330
C
100
AcDbDictionary
281
     1
  3
Normal
350
F
100
AcDbDictionaryWithDefault
340
F
  0
DICTIONARY
  5
FF
102
{ACAD_REACTORS
330
C
102
}
330
C
100
AcDbDictionary
281
     1
  0
DICTIONARY
  5
2A
102
{ACAD_REACTORS
330
C
102
}
330
C
100
AcDbDictionary
281
     1
  3
2dWireframe
350
2F
  3
3D Hidden
350
31
  3
3dWireframe
350
30
  3
Basic
350
32
  3
Brighten
350
36
  3
ColorChange
350
3A
  3
Conceptual
350
34
  3
Dim
350
35
  3
Facepattern
350
39
  3
Flat
350
2B
  3
FlatWithEdges
350
2C
  3
Gouraud
350
2D
  3
GouraudWithEdges
350
2E
  3
Linepattern
350
38
  3
Realistic
350
33
  3
Thicken
350
37
  0
LAYOUT
  5
1E
102
{ACAD_REACTORS
330
1A
102
}
330
1A
100
AcDbPlotSettings
  1

  2
none_device
  4

  6

 40
0.0
 41
0.0
 42
0.0
 43
0.0
 44
0.0
 45
0.0
 46
0.0
 47
0.0
 48
0.0
 49
0.0
140
0.0
141
0.0
142
1.0
143
1.0
 70
   688
 72
     0
 73
     0
 74
     5
  7

 75
    16
 76
     0
 77
     2
 78
   300
147
1.0
148
0.0
149
0.0
100
AcDbLayout
  1
Layout1
 70
     1
 71
     1
 10
0.0
 20
0.0
 11
12.0
 21
9.0
 12
0.0
 22
0.0
 32
0.0
 14
1.000000000000000E+20
 24
1.000000000000000E+20
 34
1.000000000000000E+20
 15
-1.000000000000000E+20
 25
-1.000000000000000E+20
 35
-1.000000000000000E+20
146
0.0
 13
0.0
 23
0.0
 33
0.0
 16
1.0
 26
0.0
 36
0.0
 17
0.0
 27
1.0
 37
0.0
 76
     0
330
1B
  0
LAYOUT
  5
26
102
{ACAD_REACTORS
330
1A
102
}
330
1A
100
AcDbPlotSettings
  1

  2
none_device
  4

  6

 40
0.0
 41
0.0
 42
0.0
 43
0.0
 44
0.0
 45
0.0
 46
0.0
 47
0.0
 48
0.0
 49
0.0
140
0.0
141
0.0
142
1.0
143
1.0
 70
   688
 72
     0
 73
     0
 74
     5
  7

 75
    16
 76
     0
 77
     2
 78
   300
147
1.0
148
0.0
149
0.0
100
AcDbLayout
  1
Layout2
 70
     1
 71
     2
 10
0.0
 20
0.0
 11
0.0
 21
0.0
 12
0.0
 22
0.0
 32
0.0
 14
0.0
 24
0.0
 34
0.0
 15
0.0
 25
0.0
 35
0.0
146
0.0
 13
0.0
 23
0.0
 33
0.0
 16
1.0
 26
0.0
 36
0.0
 17
0.0
 27
1.0
 37
0.0
 76
     0
330
23
  0
LAYOUT
  5
22
102
{ACAD_REACTORS
330
1A
102
}
330
1A
100
AcDbPlotSettings
  1

  2
none_device
  4

  6

 40
0.0
 41
0.0
 42
0.0
 43
0.0
 44
0.0
 45
0.0
 46
0.0
 47
0.0
 48
0.0
 49
0.0
140
0.0
141
0.0
142
1.0
143
1.0
 70
  1712
 72
     0
 73
     0
 74
     0
  7

 75
     0
 76
     0
 77
     2
 78
   300
147
1.0
148
0.0
149
0.0
100
AcDbLayout
  1
Model
 70
     1
 71
     0
 10
0.0
 20
0.0
 11
12.0
 21
9.0
 12
0.0
 22
0.0
 32
0.0
 14
1.000000000000000E+20
 24
1.000000000000000E+20
 34
1.000000000000000E+20
 15
-1.000000000000000E+20
 25
-1.000000000000000E+20
 35
-1.000000000000000E+20
146
0.0
 13
0.0
 23
0.0
 33
0.0
 16
1.0
 26
0.0
 36
0.0
 17
0.0
 27
1.0
 37
0.0
 76
     0
330
1F
331
29
  0
MATERIAL
  5
3D
102
{ACAD_REACTORS
330
3B
102
}
330
3B
100
AcDbMaterial
  1
ByBlock
 72
     1
 94
      127
  0
MATERIAL
  5
3C
102
{ACAD_REACTORS
330
3B
102
}
330
3B
100
AcDbMaterial
  1
ByLayer
 72
     1
 94
      127
  0
MATERIAL
  5
3E
102
{ACAD_REACTORS
330
3B
102
}
330
3B
100
AcDbMaterial
  1
Global
 72
     1
 94
      127
  0
MLINESTYLE
  5
18
102
{ACAD_REACTORS
330
17
102
}
330
17
100
AcDbMlineStyle
  2
Standard
 70
     0
  3

 62
   256
 51
90.0
 52
90.0
 71
     2
 49
0.5
 62
   256
  6
BYLAYER
 49
-0.5
 62
   256
  6
BYLAYER
  0
ACDBPLACEHOLDER
  5
F
102
{ACAD_REACTORS
330
E
102
}
330
E
  0
VISUALSTYLE
  5
2F
102
{ACAD_REACTORS
330
2A
102
}
330
2A
100
AcDbVisualStyle
  2
2dWireframe
 70
     4
177
     2
291
     0
 71
     0
176
     1
 72
     2
176
     1
 73
     0
176
     1
 90
        0
176
     1
 40
-0.6
176
     1
 41
-30.0
176
     1
 62
     5
 63
     7
421
 16777215
176
     1
 74
     1
176
     1
 91
        4
176
     1
 64
     7
176
     1
 65
   257
176
     1
 75
     1
176
     1
175
     1
176
     1
 42
1.0
176
     1
 92
        0
176
     1
 66
   257
176
     1
 43
1.0
176
     1
 76
     1
176
     1
 77
     6
176
     1
 78
     2
176
     1
 67
     7
176
     1
 79
     5
176
     1
170
     0
176
     1
171
     0
176
     1
290
     0
176
     1
 93
        1
176
     1
 44
0.0
176
     1
173
     0
176
     1
  0
VISUALSTYLE
  5
31
102
{ACAD_REACTORS
330
2A
102
}
330
2A
100
AcDbVisualStyle
  2
3D Hidden
 70
     6
177
     2
291
     0
 71
     1
176
     1
 72
     2
176
     1
 73
     2
176
     1
 90
        0
176
     1
 40
-0.6
176
     1
 41
-30.0
176
     1
 62
     5
 63
     7
421
 16777215
176
     1
 74
     2
176
     1
 91
        2
176
     1
 64
     7
176
     1
 65
   257
176
     1
 75
     2
176
     1
175
     1
176
     1
 42
40.0
176
     1
 92
        0
176
     1
 66
   257
176
     1
 43
1.0
176
     1
 76
     1
176
     1
 77
     6
176
     1
 78
     2
176
     1
 67
     7
176
     1
 79
     3
176
     1
170
     0
176
     1
171
     0
176
     1
290
     0
176
     1
 93
        1
176
     1
 44
0.0
176
     1
173
     0
176
     1
  0
VISUALSTYLE
  5
30
102
{ACAD_REACTORS
330
2A
102
}
330
2A
100
AcDbVisualStyle
  2
3dWireframe
 70
     5
177
     2
291
     0
 71
     0
176
     1
 72
     2
176
     1
 73
     0
176
     1
 90
        0
176
     1
 40
-0.6
176
     1
 41
-30.0
176
     1
 62
     5
 63
     7
421
 16777215
176
     1
 74
     1
176
     1
 91
        4
176
     1
 64
     7
176
     1
 65
   257
176
     1
 75
     1
176
     1
175
     1
176
     1
 42
1.0
176
     1
 92
        0
176
     1
 66
   257
176
     1
 43
1.0
176
     1
 76
     1
176
     1
 77
     6
176
     1
 78
     2
176
     1
 67
     7
176
     1
 79
     5
176
     1
170
     0
176
     1
171
     0
176
     1
290
     0
176
     1
 93
        1
176
     1
 44
0.0
176
     1
173
     0
176
     1
  0
VISUALSTYLE
  5
32
102
{ACAD_REACTORS
330
2A
102
}
330
2A
100
AcDbVisualStyle
  2
Basic
 70
     7
177
     2
291
     1
 71
     1
176
     1
 72
     0
176
     1
 73
     1
176
     1
 90
        0
176
     1
 40
-0.6
176
     1
 41
-30.0
176
     1
 62
     5
 63
     7
421
 16777215
176
     1
 74
     0
176
     1
 91
        4
176
     1
 64
     7
176
     1
 65
   257
176
     1
 75
     1
176
     1
175
     1
176
     1
 42
1.0
176
     1
 92
        8
176
     1
 66
     7
176
     1
 43
1.0
176
     1
 76
     1
176
     1
 77
     6
176
     1
 78
     2
176
     1
 67
     7
176
     1
 79
     5
176
     1
170
     0
176
     1
171
     0
176
     1
290
     0
176
     1
 93
        1
176
     1
 44
0.0
176
     1
173
     0
176
     1
  0
VISUALSTYLE
  5
36
102
{ACAD_REACTORS
330
2A
102
}
330
2A
100
AcDbVisualStyle
  2
Brighten
 70
    12
177
     2
291
     1
 71
     2
176
     1
 72
     2
176
     1
 73
     0
176
     1
 90
        0
176
     1
 40
-0.6
176
     1
 41
-30.0
176
     1
 62
     5
 63
     7
421
 16777215
176
     1
 74
     1
176
     1
 91
        4
176
     1
 64
     7
176
     1
 65
   257
176
     1
 75
     1
176
     1
175
     1
176
     1
 42
1.0
176
     1
 92
        8
176
     1
 66
     7
176
     1
 43
1.0
176
     1
 76
     1
176
     1
 77
     6
176
     1
 78
     2
176
     1
 67
     7
176
     1
 79
     5
176
     1
170
     0
176
     1
171
     0
176
     1
290
     0
176
     1
 93
        1
176
     1
 44
50.0
176
     1
173
     0
176
     1
  0
VISUALSTYLE
  5
3A
102
{ACAD_REACTORS
330
2A
102
}
330
2A
100
AcDbVisualStyle
  2
ColorChange
 70
    16
177
     2
291
     1
 71
     2
176
     1
 72
     2
176
     1
 73
     3
176
     1
 90
        0
176
     1
 40
-0.6
176
     1
 41
-30.0
176
     1
 62
     5
 63
     8
421
  8421504
176
     1
 74
     1
176
     1
 91
        4
176
     1
 64
     7
176
     1
 65
   257
176
     1
 75
     1
176
     1
175
     1
176
     1
 42
1.0
176
     1
 92
        8
176
     1
 66
     8
424
  8421504
176
     1
 43
1.0
176
     1
 76
     1
176
     1
 77
     6
176
     1
 78
     2
176
     1
 67
     7
176
     1
 79
     5
176
     1
170
     0
176
     1
171
     0
176
     1
290
     0
176
     1
 93
        1
176
     1
 44
0.0
176
     1
173
     0
176
     1
  0
VISUALSTYLE
  5
34
102
{ACAD_REACTORS
330
2A
102
}
330
2A
100
AcDbVisualStyle
  2
Conceptual
 70
     9
177
     2
291
     0
 71
     3
176
     1
 72
     2
176
     1
 73
     0
176
     1
 90
        0
176
     1
 40
-0.6
176
     1
 41
-30.0
176
     1
 62
     5
 63
     7
421
 16777215
176
     1
 74
     2
176
     1
 91
        2
176
     1
 64
     7
176
     1
 65
   257
176
     1
 75
     1
176
     1
175
     1
176
     1
 42
40.0
176
     1
 92
        8
176
     1
 66
     7
176
     1
 43
1.0
176
     1
 76
     1
176
     1
 77
     6
176
     1
 78
     2
176
     1
 67
     7
176
     1
 79
     3
176
     1
170
     0
176
     1
171
     0
176
     1
290
     0
176
     1
 93
        1
176
     1
 44
0.0
176
     1
173
     0
176
     1
  0
VISUALSTYLE
  5
35
102
{ACAD_REACTORS
330
2A
102
}
330
2A
100
AcDbVisualStyle
  2
Dim
 70
    11
177
     2
291
     1
 71
     2
176
     1
 72
     2
176
     1
 73
     0
176
     1
 90
        0
176
     1
 40
-0.6
176
     1
 41
-30.0
176
     1
 62
     5
 63
     7
421
 16777215
176
     1
 74
     1
176
     1
 91
        4
176
     1
 64
     7
176
     1
 65
   257
176
     1
 75
     1
176
     1
175
     1
176
     1
 42
1.0
176
     1
 92
        8
176
     1
 66
     7
176
     1
 43
1.0
176
     1
 76
     1
176
     1
 77
     6
176
     1
 78
     2
176
     1
 67
     7
176
     1
 79
     5
176
     1
170
     0
176
     1
171
     0
176
     1
290
     0
176
     1
 93
        1
176
     1
 44
-50.0
176
     1
173
     0
176
     1
  0
VISUALSTYLE
  5
39
102
{ACAD_REACTORS
330
2A
102
}
330
2A
100
AcDbVisualStyle
  2
Facepattern
 70
    15
177
     2
291
     1
 71
     2
176
     1
 72
     2
176
     1
 73
     0
176
     1
 90
        0
176
     1
 40
-0.6
176
     1
 41
-30.0
176
     1
 62
     5
 63
     7
421
 16777215
176
     1
 74
     1
176
     1
 91
        4
176
     1
 64
     7
176
     1
 65
   257
176
     1
 75
     1
176
     1
175
     1
176
     1
 42
1.0
176
     1
 92
        8
176
     1
 66
     7
176
     1
 43
1.0
176
     1
 76
     1
176
     1
 77
     6
176
     1
 78
     2
176
     1
 67
     7
176
     1
 79
     5
176
     1
170
     0
176
     1
171
     0
176
     1
290
     0
176
     1
 93
        1
176
     1
 44
0.0
176
     1
173
     0
176
     1
  0
VISUALSTYLE
  5
2B
102
{ACAD_REACTORS
330
2A
102
}
330
2A
100
AcDbVisualStyle
  2
Flat
 70
     0
177
     2
291
     1
 71
     2
176
     1
 72
     1
176
     1
 73
     1
176
     1
 90
        2
176
     1
 40
-0.6
176
     1
 41
30.0
176
     1
 62
     5
 63
     7
421
 16777215
176
     1
 74
     0
176
     1
 91
        4
176
     1
 64
     7
176
     1
 65
   257
176
     1
 75
     1
176
     1
175
     1
176
     1
 42
1.0
176
     1
 92
        8
176
     1
 66
     7
176
     1
 43
1.0
176
     1
 76
     1
176
     1
 77
     6
176
     1
 78
     2
176
     1
 67
     7
176
     1
 79
     5
176
     1
170
     0
176
     1
171
     0
176
     1
290
     0
176
     1
 93
       13
176
     1
 44
0.0
176
     1
173
     0
176
     1
  0
VISUALSTYLE
  5
2C
102
{ACAD_REACTORS
330
2A
102
}
330
2A
100
AcDbVisualStyle
  2
FlatWithEdges
 70
     1
177
     2
291
     1
 71
     2
176
     1
 72
     1
176
     1
 73
     1
176
     1
 90
        2
176
     1
 40
-0.6
176
     1
 41
30.0
176
     1
 62
     5
 63
     7
421
 16777215
176
     1
 74
     1
176
     1
 91
        4
176
     1
 64
     7
176
     1
 65
   257
176
     1
 75
     1
176
     1
175
     1
176
     1
 42
1.0
176
     1
 92
        0
176
     1
 66
   257
176
     1
 43
1.0
176
     1
 76
     1
176
     1
 77
     6
176
     1
 78
     2
176
     1
 67
     7
176
     1
 79
     5
176
     1
170
     0
176
     1
171
     0
176
     1
290
     0
176
     1
 93
       13
176
     1
 44
0.0
176
     1
173
     0
176
     1
  0
VISUALSTYLE
  5
2D
102
{ACAD_REACTORS
330
2A
102
}
330
2A
100
AcDbVisualStyle
  2
Gouraud
 70
     2
177
     2
291
     1
 71
     2
176
     1
 72
     2
176
     1
 73
     1
176
     1
 90
        2
176
     1
 40
-0.6
176
     1
 41
30.0
176
     1
 62
     5
 63
     7
421
 16777215
176
     1
 74
     0
176
     1
 91
        4
176
     1
 64
     7
176
     1
 65
   257
176
     1
 75
     1
176
     1
175
     1
176
     1
 42
1.0
176
     1
 92
        0
176
     1
 66
     7
176
     1
 43
1.0
176
     1
 76
     1
176
     1
 77
     6
176
     1
 78
     2
176
     1
 67
     7
176
     1
 79
     5
176
     1
170
     0
176
     1
171
     0
176
     1
290
     0
176
     1
 93
       13
176
     1
 44
0.0
176
     1
173
     0
176
     1
  0
VISUALSTYLE
  5
2E
102
{ACAD_REACTORS
330
2A
102
}
330
2A
100
AcDbVisualStyle
  2
GouraudWithEdges
 70
     3
177
     2
291
     1
 71
     2
176
     1
 72
     2
176
     1
 73
     1
176
     1
 90
        2
176
     1
 40
-0.6
176
     1
 41
30.0
176
     1
 62
     5
 63
     7
421
 16777215
176
     1
 74
     1
176
     1
 91
        4
176
     1
 64
     7
176
     1
 65
   257
176
     1
 75
     1
176
     1
175
     1
176
     1
 42
1.0
176
     1
 92
        0
176
     1
 66
   257
176
     1
 43
1.0
176
     1
 76
     1
176
     1
 77
     6
176
     1
 78
     2
176
     1
 67
     7
176
     1
 79
     5
176
     1
170
     0
176
     1
171
     0
176
     1
290
     0
176
     1
 93
       13
176
     1
 44
0.0
176
     1
173
     0
176
     1
  0
VISUALSTYLE
  5
38
102
{ACAD_REACTORS
330
2A
102
}
330
2A
100
AcDbVisualStyle
  2
Linepattern
 70
    14
177
     2
291
     1
 71
     2
176
     1
 72
     2
176
     1
 73
     0
176
     1
 90
        0
176
     1
 40
-0.6
176
     1
 41
-30.0
176
     1
 62
     5
 63
     7
421
 16777215
176
     1
 74
     1
176
     1
 91
        4
176
     1
 64
     7
176
     1
 65
   257
176
     1
 75
     7
176
     1
175
     7
176
     1
 42
1.0
176
     1
 92
        8
176
     1
 66
     7
176
     1
 43
1.0
176
     1
 76
     1
176
     1
 77
     6
176
     1
 78
     2
176
     1
 67
     7
176
     1
 79
     5
176
     1
170
     0
176
     1
171
     0
176
     1
290
     0
176
     1
 93
        1
176
     1
 44
0.0
176
     1
173
     0
176
     1
  0
VISUALSTYLE
  5
33
102
{ACAD_REACTORS
330
2A
102
}
330
2A
100
AcDbVisualStyle
  2
Realistic
 70
     8
177
     2
291
     0
 71
     2
176
     1
 72
     2
176
     1
 73
     0
176
     1
 90
        0
176
     1
 40
-0.6
176
     1
 41
-30.0
176
     1
 62
     5
 63
     7
421
 16777215
176
     1
 74
     1
176
     1
 91
        0
176
     1
 64
     7
176
     1
 65
   257
176
     1
 75
     1
176
     1
175
     1
176
     1
 42
1.0
176
     1
 92
        8
176
     1
 66
     8
424
  7895160
176
     1
 43
1.0
176
     1
 76
     1
176
     1
 77
     6
176
     1
 78
     2
176
     1
 67
     7
176
     1
 79
     5
176
     1
170
     0
176
     1
171
     0
176
     1
290
     0
176
     1
 93
       13
176
     1
 44
0.0
176
     1
173
     0
176
     1
  0
VISUALSTYLE
  5
37
102
{ACAD_REACTORS
330
2A
102
}
330
2A
100
AcDbVisualStyle
  2
Thicken
 70
    13
177
     2
291
     1
 71
     2
176
     1
 72
     2
176
     1
 73
     0
176
     1
 90
        0
176
     1
 40
-0.6
176
     1
 41
-30.0
176
     1
 62
     5
 63
     7
421
 16777215
176
     1
 74
     1
176
     1
 91
        4
176
     1
 64
     7
176
     1
 65
   257
176
     1
 75
     1
176
     1
175
     1
176
     1
 42
1.0
176
     1
 92
       12
176
     1
 66
     7
176
     1
 43
1.0
176
     1
 76
     1
176
     1
 77
     6
176
     1
 78
     2
176
     1
 67
     7
176
     1
 79
     5
176
     1
170
     0
176
     1
171
     0
176
     1
290
     0
176
     1
 93
        1
176
     1
 44
0.0
176
     1
173
     0
176
     1
  0
ENDSEC
  0
EOF
