  0
SECTION
  2
HEADER
  9
$ACADVER
  1
AC1024
  9
$ACADMAINTVER
 70
     6
  9
$DWGCODEPAGE
  3
UNDEFINED
  9
$INSBASE
 10
0.0
 20
0.0
 30
0.0
  9
$EXTMIN
 10
1.000000000000000E+20
 20
1.000000000000000E+20
 30
1.000000000000000E+20
  9
$EXTMAX
 10
-1.000000000000000E+20
 20
-1.000000000000000E+20
 30
-1.000000000000000E+20
  9
$LIMMIN
 10
0.0
 20
0.0
  9
$LIMMAX
 10
12.0
 20
9.0
  9
$ORTHOMODE
 70
     0
  9
$REGENMODE
 70
     1
  9
$FILLMODE
 70
     1
  9
$QTEXTMODE
 70
     0
  9
$MIRRTEXT
 70
     1
  9
$LTSCALE
 40
1.0
  9
$ATTMODE
 70
     1
  9
$TEXTSIZE
 40
0.2
  9
$TRACEWID
 40
0.05
  9
$TEXTSTYLE
  7
Standard
  9
$CLAYER
  8
0
  9
$CELTYPE
  6
ByLayer
  9
$CECOLOR
 62
   256
  9
$CELTSCALE
 40
1.0
  9
$DISPSILH
 70
     0
  9
$DIMSCALE
 40
1.0
  9
$DIMASZ
 40
0.18
  9
$DIMEXO
 40
0.0625
  9
$DIMDLI
 40
0.38
  9
$DIMRND
 40
0.0
  9
$DIMDLE
 40
0.0
  9
$DIMEXE
 40
0.18
  9
$DIMTP
 40
0.0
  9
$DIMTM
 40
0.0
  9
$DIMTXT
 40
0.18
  9
$DIMCEN
 40
0.09
  9
$DIMTSZ
 40
0.0
  9
$DIMTOL
 70
     0
  9
$DIMLIM
 70
     0
  9
$DIMTIH
 70
     1
  9
$DIMTOH
 70
     1
  9
$DIMSE1
 70
     0
  9
$DIMSE2
 70
     0
  9
$DIMTAD
 70
     0
  9
$DIMZIN
 70
     0
  9
$DIMBLK
  1

  9
$DIMASO
 70
     1
  9
$DIMSHO
 70
     1
  9
$DIMPOST
  1

  9
$DIMAPOST
  1

  9
$DIMALT
 70
     0
  9
$DIMALTD
 70
     2
  9
$DIMALTF
 40
25.4
  9
$DIMLFAC
 40
1.0
  9
$DIMTOFL
 70
     0
  9
$DIMTVP
 40
0.0
  9
$DIMTIX
 70
     0
  9
$DIMSOXD
 70
     0
  9
$DIMSAH
 70
     0
  9
$DIMBLK1
  1

  9
$DIMBLK2
  1

  9
$DIMSTYLE
  2
Standard
  9
$DIMCLRD
 70
     0
  9
$DIMCLRE
 70
     0
  9
$DIMCLRT
 70
     0
  9
$DIMTFAC
 40
1.0
  9
$DIMGAP
 40
0.09
  9
$DIMJUST
 70
     0
  9
$DIMSD1
 70
     0
  9
$DIMSD2
 70
     0
  9
$DIMTOLJ
 70
     1
  9
$DIMTZIN
 70
     0
  9
$DIMALTZ
 70
     0
  9
$DIMALTTZ
 70
     0
  9
$DIMUPT
 70
     0
  9
$DIMDEC
 70
     4
  9
$DIMTDEC
 70
     4
  9
$DIMALTU
 70
     2
  9
$DIMALTTD
 70
     2
  9
$DIMTXSTY
  7
Standard
  9
$DIMAUNIT
 70
     0
  9
$DIMADEC
 70
     0
  9
$DIMALTRND
 40
0.0
  9
$DIMAZIN
 70
     0
  9
$DIMDSEP
 70
    46
  9
$DIMATFIT
 70
     3
  9
$DIMFRAC
 70
     0
  9
$DIMLDRBLK
  1

  9
$DIMLUNIT
 70
     2
  9
$DIMLWD
 70
    -2
  9
$DIMLWE
 70
    -2
  9
$DIMTMOVE
 70
     0
  9
$DIMFXL
 40
1.0
  9
$DIMFXLON
 70
     0
  9
$DIMJOGANG
 40
0.7853981633974483
  9
$DIMTFILL
 70
     0
  9
$DIMTFILLCLR
 70
     0
  9
$DIMARCSYM
 70
     0
  9
$DIMLTYPE
  6

  9
$DIMLTEX1
  6

  9
$DIMLTEX2
  6

  9
$DIMTXTDIRECTION
 70
     0
  9
$LUNITS
 70
     2
  9
$LUPREC
 70
     4
  9
$SKETCHINC
 40
0.1
  9
$FILLETRAD
 40
0.5
  9
$AUNITS
 70
     0
  9
$AUPREC
 70
     0
  9
$MENU
  1
.
  9
$ELEVATION
 40
0.0
  9
$PELEVATION
 40
0.0
  9
$THICKNESS
 40
0.0
  9
$LIMCHECK
 70
     0
  9
$CHAMFERA
 40
0.5
  9
$CHAMFERB
 40
0.5
  9
$CHAMFERC
 40
1.0
  9
$CHAMFERD
 40
0.0
  9
$SKPOLY
 70
     0
  9
$TDCREATE
 40
2457917.595
  9
$TDUCREATE
 40
2457917.22
  9
$TDUPDATE
 40
2457917.595
  9
$TDUUPDATE
 40
2457917.22
  9
$TDINDWG
 40
0.0000000116
  9
$TDUSRTIMER
 40
0.0000000116
  9
$USRTIMER
 70
     1
  9
$ANGBASE
 50
0.0
  9
$ANGDIR
 70
     0
  9
$PDMODE
 70
     0
  9
$PDSIZE
 40
0.0
  9
$PLINEWID
 40
0.0
  9
$SPLFRAME
 70
     0
  9
$SPLINETYPE
 70
     6
  9
$SPLINESEGS
 70
     8
  9
$HANDSEED
  5
EF
  9
$SURFTAB1
 70
     6
  9
$SURFTAB2
 70
     6
  9
$SURFTYPE
 70
     6
  9
$SURFU
 70
     6
  9
$SURFV
 70
     6
  9
$UCSBASE
  2

  9
$UCSNAME
  2

  9
$UCSORG
 10
0.0
 20
0.0
 30
0.0
  9
$UCSXDIR
 10
1.0
 20
0.0
 30
0.0
  9
$UCSYDIR
 10
0.0
 20
1.0
 30
0.0
  9
$UCSORTHOREF
  2

  9
$UCSORTHOVIEW
 70
     0
  9
$UCSORGTOP
 10
0.0
 20
0.0
 30
0.0
  9
$UCSORGBOTTOM
 10
0.0
 20
0.0
 30
0.0
  9
$UCSORGLEFT
 10
0.0
 20
0.0
 30
0.0
  9
$UCSORGRIGHT
 10
0.0
 20
0.0
 30
0.0
  9
$UCSORGFRONT
 10
0.0
 20
0.0
 30
0.0
  9
$UCSORGBACK
 10
0.0
 20
0.0
 30
0.0
  9
$PUCSBASE
  2

  9
$PUCSNAME
  2

  9
$PUCSORG
 10
0.0
 20
0.0
 30
0.0
  9
$PUCSXDIR
 10
1.0
 20
0.0
 30
0.0
  9
$PUCSYDIR
 10
0.0
 20
1.0
 30
0.0
  9
$PUCSORTHOREF
  2

  9
$PUCSORTHOVIEW
 70
     0
  9
$PUCSORGTOP
 10
0.0
 20
0.0
 30
0.0
  9
$PUCSORGBOTTOM
 10
0.0
 20
0.0
 30
0.0
  9
$PUCSORGLEFT
 10
0.0
 20
0.0
 30
0.0
  9
$PUCSORGRIGHT
 10
0.0
 20
0.0
 30
0.0
  9
$PUCSORGFRONT
 10
0.0
 20
0.0
 30
0.0
  9
$PUCSORGBACK
 10
0.0
 20
0.0
 30
0.0
  9
$USERI1
 70
     0
  9
$USERI2
 70
     0
  9
$USERI3
 70
     0
  9
$USERI4
 70
     0
  9
$USERI5
 70
     0
  9
$USERR1
 40
0.0
  9
$USERR2
 40
0.0
  9
$USERR3
 40
0.0
  9
$USERR4
 40
0.0
  9
$USERR5
 40
0.0
  9
$WORLDVIEW
 70
     1
  9
$SHADEDGE
 70
     3
  9
$SHADEDIF
 70
    70
  9
$TILEMODE
 70
     1
  9
$MAXACTVP
 70
    64
  9
$PINSBASE
 10
0.0
 20
0.0
 30
0.0
  9
$PLIMCHECK
 70
     0
  9
$PEXTMIN
 10
1.000000000000000E+20
 20
1.000000000000000E+20
 30
1.000000000000000E+20
  9
$PEXTMAX
 10
-1.000000000000000E+20
 20
-1.000000000000000E+20
 30
-1.000000000000000E+20
  9
$PLIMMIN
 10
0.0
 20
0.0
  9
$PLIMMAX
 10
12.0
 20
9.0
  9
$UNITMODE
 70
     0
  9
$VISRETAIN
 70
     1
  9
$PLINEGEN
 70
     0
  9
$PSLTSCALE
 70
     1
  9
$TREEDEPTH
 70
  3020
  9
$CMLSTYLE
  2
Standard
  9
$CMLJUST
 70
     0
  9
$CMLSCALE
 40
1.0
  9
$PROXYGRAPHICS
 70
     1
  9
$MEASUREMENT
 70
     0
  9
$CELWEIGHT
370
    -1
  9
$ENDCAPS
280
     0
  9
$JOINSTYLE
280
     0
  9
$LWDISPLAY
290
     1
  9
$INSUNITS
 70
     1
  9
$HYPERLINKBASE
  1

  9
$STYLESHEET
  1

  9
$XEDIT
290
     1
  9
$CEPSNTYPE
380
     0
  9
$PSTYLEMODE
290
     1
  9
$FINGERPRINTGUID
  2
{920B431A-7BDD-966F-D6DD-F7D4B5FCC56D}
  9
$VERSIONGUID
  2
{FAEB1C32-E019-11D5-929B-00C0DF256EC4}
  9
$EXTNAMES
290
     1
  9
$PSVPSCALE
 40
0.0
  9
$OLESTARTUP
290
     0
  9
$SORTENTS
280
   127
  9
$INDEXCTL
280
     0
  9
$HIDETEXT
280
     1
  9
$XCLIPFRAME
280
     2
  9
$HALOGAP
280
     0
  9
$OBSCOLOR
 70
   257
  9
$OBSLTYPE
280
     0
  9
$INTERSECTIONDISPLAY
280
     0
  9
$INTERSECTIONCOLOR
 70
   257
  9
$DIMASSOC
280
     2
  9
$PROJECTNAME
  1

  9
$CAMERADISPLAY
290
     0
  9
$LENSLENGTH
 40
50.0
  9
$CAMERAHEIGHT
 40
0.0
  9
$STEPSPERSEC
 40
2.0
  9
$STEPSIZE
 40
6.0
  9
$3DDWFPREC
 40
2.0
  9
$PSOLWIDTH
 40
0.25
  9
$PSOLHEIGHT
 40
4.0
  9
$LOFTANG1
 40
1.570796326794897
  9
$LOFTANG2
 40
1.570796326794897
  9
$LOFTMAG1
 40
0.0
  9
$LOFTMAG2
 40
0.0
  9
$LOFTPARAM
 70
     7
  9
$LOFTNORMALS
280
     1
  9
$LATITUDE
 40
37.795
  9
$LONGITUDE
 40
-122.394
  9
$NORTHDIRECTION
 40
0.0
  9
$TIMEZONE
 70
 -8000
  9
$LIGHTGLYPHDISPLAY
280
     1
  9
$TILEMODELIGHTSYNCH
280
     1
  9
$CMATERIAL
347
3C
  9
$SOLIDHIST
280
     1
  9
$SHOWHIST
280
     1
  9
$DWFFRAME
280
     2
  9
$DGNFRAME
280
     2
  9
$REALWORLDSCALE
290
     1
  9
$INTERFERECOLOR
 62
   256
  9
$CSHADOW
280
     0
  9
$SHADOWPLANELOCATION
 40
0.0
  0
ENDSEC
  0
SECTION
  2
CLASSES
  0
CLASS
  1
ACDBDICTIONARYWDFLT
  2
AcDbDictionaryWithDefault
  3
ObjectDBX Classes
 90
        0
 91
        4
280
     0
281
     0
  0
CLASS
  1
VISUALSTYLE
  2
AcDbVisualStyle
  3
ObjectDBX Classes
 90
     4095
 91
        4
280
     0
281
     0
  0
CLASS
  1
MATERIAL
  2
AcDbMaterial
  3
ObjectDBX Classes
 90
     1153
 91
        4
280
     0
281
     0
  0
CLASS
  1
SUN
  2
AcDbSun
  3
SCENEOE
 90
     1024
 91
        4
280
     0
281
     0
  0
ENDSEC
  0
SECTION
  2
TABLES
  0
TABLE
  2
VPORT
  5
8
330
0
100
AcDbSymbolTable
 70
     1
  0
VPORT
  5
29
330
8
100
AcDbSymbolTableRecord
100
AcDbViewportTableRecord
  2
*Active
 70
     0
 10
0.0
 20
0.0
 11
1.0
 21
1.0
 12
0.0
 22
0.0
 13
0.0
 23
0.0
 14
0.5
 24
0.5
 15
0.5
 25
0.5
 16
0.0
 26
0.0
 36
1.0
 17
91.00082462281999
 27
-128.4993055234307
 37
0.0
 40
256.9986110468615
 41
0.7081814508812795
 42
50.0
 43
0.0
 44
0.0
 50
0.0
 51
0.0
 71
     0
 72
   100
 73
     1
 74
     3
 75
     0
 76
     0
 77
     0
 78
     0
281
     0
 65
     1
110
0.0
120
0.0
130
0.0
111
1.0
121
0.0
131
0.0
112
0.0
122
1.0
132
0.0
 79
     0
146
0.0
 60
     3
 61
     5
292
     1
282
     1
141
0.0
142
0.0
 63
   250
361
3F
  0
ENDTAB
  0
TABLE
  2
LTYPE
  5
5
330
0
100
AcDbSymbolTable
 70
     1
  0
LTYPE
  5
14
330
5
100
AcDbSymbolTableRecord
100
AcDbLinetypeTableRecord
  2
ByBlock
 70
     0
  3

 72
    65
 73
     0
 40
0.0
  0
LTYPE
  5
15
330
5
100
AcDbSymbolTableRecord
100
AcDbLinetypeTableRecord
  2
ByLayer
 70
     0
  3

 72
    65
 73
     0
 40
0.0
  0
LTYPE
  5
16
330
5
100
AcDbSymbolTableRecord
100
AcDbLinetypeTableRecord
  2
Continuous
 70
     0
  3
Solid line
 72
    65
 73
     0
 40
0.0
  0
ENDTAB
  0
TABLE
  2
LAYER
  5
2
330
0
100
AcDbSymbolTable
 70
     2
  0
LAYER
  5
10
330
2
100
AcDbSymbolTableRecord
100
AcDbLayerTableRecord
  2
0
 70
     0
 62
     7
  6
Continuous
370
    -3
390
F
347
3E
  0
LAYER
  5
40
330
2
100
AcDbSymbolTableRecord
100
AcDbLayerTableRecord
  2
_U+30EC_U+30A4_U+30E4_U+30FC 1
 70
     0
 62
     7
  6
Continuous
370
    -3
390
F
347
3E
  0
ENDTAB
  0
TABLE
  2
STYLE
  5
3
330
0
100
AcDbSymbolTable
 70
     1
  0
STYLE
  5
11
330
3
100
AcDbSymbolTableRecord
100
AcDbTextStyleTableRecord
  2
Standard
 70
     0
 40
0.0
 41
1.0
 50
0.0
 71
     0
 42
0.2
  3
txt
  4

  0
ENDTAB
  0
TABLE
  2
VIEW
  5
6
330
0
100
AcDbSymbolTable
 70
     0
  0
ENDTAB
  0
TABLE
  2
UCS
  5
7
330
0
100
AcDbSymbolTable
 70
     0
  0
ENDTAB
  0
TABLE
  2
APPID
  5
9
330
0
100
AcDbSymbolTable
 70
     1
  0
APPID
  5
12
330
9
100
AcDbSymbolTableRecord
100
AcDbRegAppTableRecord
  2
ACAD
 70
     0
  0
ENDTAB
  0
TABLE
  2
DIMSTYLE
  5
A
330
0
100
AcDbSymbolTable
 70
     1
100
AcDbDimStyleTable
  0
DIMSTYLE
105
27
330
A
100
AcDbSymbolTableRecord
100
AcDbDimStyleTableRecord
  2
Standard
 70
     0
178
     0
340
11
  0
ENDTAB
  0
TABLE
  2
BLOCK_RECORD
  5
1
330
0
100
AcDbSymbolTable
 70
     7
  0
BLOCK_RECORD
  5
1F
330
1
100
AcDbSymbolTableRecord
100
AcDbBlockTableRecord
  2
*Model_Space
340
22
 70
     0
280
     1
281
     0
  0
BLOCK_RECORD
  5
1B
330
1
100
AcDbSymbolTableRecord
100
AcDbBlockTableRecord
  2
*Paper_Space
340
1E
 70
     0
280
     1
281
     0
  0
BLOCK_RECORD
  5
23
330
1
100
AcDbSymbolTableRecord
100
AcDbBlockTableRecord
  2
*Paper_Space0
340
26
 70
     0
280
     1
281
     0
  0
BLOCK_RECORD
  5
83
330
1
100
AcDbSymbolTableRecord
100
AcDbBlockTableRecord
  2
block 2
340
0
102
{BLKREFS
331
84
102
}
 70
     0
280
     1
281
     0
  0
BLOCK_RECORD
  5
98
330
1
100
AcDbSymbolTableRecord
100
AcDbBlockTableRecord
  2
block 3
340
0
102
{BLKREFS
331
99
102
}
 70
     0
280
     1
281
     0
  0
BLOCK_RECORD
  5
A8
330
1
100
AcDbSymbolTableRecord
100
AcDbBlockTableRecord
  2
block 4
340
0
102
{BLKREFS
331
A9
102
}
 70
     0
280
     1
281
     0
  0
BLOCK_RECORD
  5
BA
330
1
100
AcDbSymbolTableRecord
100
AcDbBlockTableRecord
  2
block 5
340
0
102
{BLKREFS
331
BB
102
}
 70
     0
280
     1
281
     0
  0
BLOCK_RECORD
  5
CF
330
1
100
AcDbSymbolTableRecord
100
AcDbBlockTableRecord
  2
block 6
340
0
102
{BLKREFS
331
D0
102
}
 70
     0
280
     1
281
     0
  0
BLOCK_RECORD
  5
E4
330
1
100
AcDbSymbolTableRecord
100
AcDbBlockTableRecord
  2
block 7
340
0
102
{BLKREFS
331
E5
102
}
 70
     0
280
     1
281
     0
  0
ENDTAB
  0
ENDSEC
  0
SECTION
  2
BLOCKS
  0
BLOCK
  5
20
330
1F
100
AcDbEntity
  8
0
100
AcDbBlockBegin
  2
*Model_Space
 70
     0
 10
0.0
 20
0.0
 30
0.0
  3
*Model_Space
  1

  0
ENDBLK
  5
21
330
1F
100
AcDbEntity
  8
0
100
AcDbBlockEnd
  0
BLOCK
  5
1C
330
1B
100
AcDbEntity
 67
     1
  8
0
100
AcDbBlockBegin
  2
*Paper_Space
 70
     0
 10
0.0
 20
0.0
 30
0.0
  3
*Paper_Space
  1

  0
ENDBLK
  5
1D
330
1B
100
AcDbEntity
 67
     1
  8
0
100
AcDbBlockEnd
  0
BLOCK
  5
24
330
23
100
AcDbEntity
  8
0
100
AcDbBlockBegin
  2
*Paper_Space0
 70
     0
 10
0.0
 20
0.0
 30
0.0
  3
*Paper_Space0
  1

  0
ENDBLK
  5
25
330
23
100
AcDbEntity
  8
0
100
AcDbBlockEnd
  0
BLOCK
  5
85
330
83
100
AcDbEntity
  8
0
100
AcDbBlockBegin
  2
block 2
 70
     0
 10
0.0
 20
0.0
 30
0.0
  3
block 2
  1

  0
SPLINE
  5
87
330
83
100
AcDbEntity
  8
_U+30EC_U+30A4_U+30E4_U+30FC 1
370
     0
100
AcDbSpline
210
0.0
220
0.0
230
1.0
 70
    11
 71
     3
 72
    26
 73
    22
 74
     0
 42
0.0000000001
 43
0.0000000001
 12
1.0
 22
0.0
 32
0.0
 13
1.0
 23
0.0
 33
0.0
 40
0.0
 40
0.0
 40
0.0
 40
0.0
 40
1.0
 40
1.0
 40
1.0
 40
2.0
 40
2.0
 40
2.0
 40
3.0
 40
3.0
 40
3.0
 40
4.0
 40
4.0
 40
4.0
 40
5.0
 40
5.0
 40
5.0
 40
6.0
 40
6.0
 40
6.0
 40
7.0
 40
7.0
 40
7.0
 40
7.0
 10
76.33849281945704
 20
-140.926453957824
 30
0.0
 10
76.33849281945704
 20
-140.926453957824
 30
0.0
 10
76.33849281945704
 20
-139.8223008548014
 30
0.0
 10
76.33849281945704
 20
-139.8223008548014
 30
0.0
 10
76.33849281945704
 20
-139.8223008548014
 30
0.0
 10
75.98571504176746
 20
-139.8223008548014
 30
0.0
 10
75.98571504176746
 20
-139.8223008548014
 30
0.0
 10
75.98571504176746
 20
-139.8223008548014
 30
0.0
 10
75.98571504176746
 20
-139.6741617489356
 30
0.0
 10
75.98571504176746
 20
-139.6741617489356
 30
0.0
 10
76.34073213152246
 20
-139.659347838349
 30
0.0
 10
76.39051376128432
 20
-139.4963948218967
 30
0.0
 10
76.42203638497436
 20
-139.3820176517864
 30
0.0
 10
76.42203638497436
 20
-139.3820176517864
 30
0.0
 10
76.57809921045617
 20
-139.3820176517864
 30
0.0
 10
76.57809921045617
 20
-139.3820176517864
 30
0.0
 10
76.57809921045617
 20
-139.3820176517864
 30
0.0
 10
76.57809921045617
 20
-140.926453957824
 30
0.0
 10
76.57809921045617
 20
-140.926453957824
 30
0.0
 10
76.57809921045617
 20
-140.926453957824
 30
0.0
 10
76.33849281945704
 20
-140.926453957824
 30
0.0
 10
76.33849281945704
 20
-140.926453957824
 30
0.0
  0
HATCH
  5
88
330
83
100
AcDbEntity
  8
_U+30EC_U+30A4_U+30E4_U+30FC 1
 62
     7
420
 16777215
100
AcDbHatch
 10
0.0
 20
0.0
 30
0.0
210
0.0
220
0.0
230
1.0
  2
SOLID
 70
     1
 71
     0
 91
        1
 92
        1
 93
        1
 72
     4
 94
        3
 73
     0
 74
     1
 95
       26
 96
       22
 40
0.0
 40
0.0
 40
0.0
 40
0.0
 40
1.0
 40
1.0
 40
1.0
 40
2.0
 40
2.0
 40
2.0
 40
3.0
 40
3.0
 40
3.0
 40
4.0
 40
4.0
 40
4.0
 40
5.0
 40
5.0
 40
5.0
 40
6.0
 40
6.0
 40
6.0
 40
7.0
 40
7.0
 40
7.0
 40
7.0
 10
76.33849281945704
 20
-140.926453957824
 10
76.33849281945704
 20
-140.926453957824
 10
76.33849281945704
 20
-139.8223008548014
 10
76.33849281945704
 20
-139.8223008548014
 10
76.33849281945704
 20
-139.8223008548014
 10
75.98571504176746
 20
-139.8223008548014
 10
75.98571504176746
 20
-139.8223008548014
 10
75.98571504176746
 20
-139.8223008548014
 10
75.98571504176746
 20
-139.6741617489356
 10
75.98571504176746
 20
-139.6741617489356
 10
76.34073213152246
 20
-139.659347838349
 10
76.39051376128432
 20
-139.4963948218967
 10
76.42203638497436
 20
-139.3820176517864
 10
76.42203638497436
 20
-139.3820176517864
 10
76.57809921045617
 20
-139.3820176517864
 10
76.57809921045617
 20
-139.3820176517864
 10
76.57809921045617
 20
-139.3820176517864
 10
76.57809921045617
 20
-140.926453957824
 10
76.57809921045617
 20
-140.926453957824
 10
76.57809921045617
 20
-140.926453957824
 10
76.33849281945704
 20
-140.926453957824
 10
76.33849281945704
 20
-140.926453957824
 97
        0
 97
        0
 75
     2
 76
     1
 98
        0
  0
SPLINE
  5
89
330
83
100
AcDbEntity
  8
_U+30EC_U+30A4_U+30E4_U+30FC 1
370
     0
100
AcDbSpline
210
0.0
220
0.0
230
1.0
 70
    11
 71
     3
 72
    44
 73
    40
 74
     0
 42
0.0000000001
 43
0.0000000001
 12
1.0
 22
0.0
 32
0.0
 13
1.0
 23
0.0
 33
0.0
 40
0.0
 40
0.0
 40
0.0
 40
0.0
 40
1.0
 40
1.0
 40
1.0
 40
2.0
 40
2.0
 40
2.0
 40
3.0
 40
3.0
 40
3.0
 40
4.0
 40
4.0
 40
4.0
 40
5.0
 40
5.0
 40
5.0
 40
6.0
 40
6.0
 40
6.0
 40
7.0
 40
7.0
 40
7.0
 40
8.0
 40
8.0
 40
8.0
 40
9.0
 40
9.0
 40
9.0
 40
10.0
 40
10.0
 40
10.0
 40
11.0
 40
11.0
 40
11.0
 40
12.0
 40
12.0
 40
12.0
 40
13.0
 40
13.0
 40
13.0
 40
13.0
 10
78.19763859807212
 20
-140.926453957824
 30
0.0
 10
78.17283391057832
 20
-140.8820122260642
 30
0.0
 10
78.15009628037568
 20
-140.8293022651399
 30
0.0
 10
78.14785696831026
 20
-140.5984808676282
 30
0.0
 10
78.14337834417944
 20
-140.3552571263695
 30
0.0
 10
78.08016084202511
 20
-140.285321688019
 30
0.0
 10
77.89016382601358
 20
-140.285321688019
 30
0.0
 10
77.89016382601358
 20
-140.285321688019
 30
0.0
 10
77.45384248280668
 20
-140.285321688019
 30
0.0
 10
77.45384248280668
 20
-140.285321688019
 30
0.0
 10
77.45384248280668
 20
-140.285321688019
 30
0.0
 10
77.45384248280668
 20
-140.926453957824
 30
0.0
 10
77.45384248280668
 20
-140.926453957824
 30
0.0
 10
77.45384248280668
 20
-140.926453957824
 30
0.0
 10
77.20286727670623
 20
-140.926453957824
 30
0.0
 10
77.20286727670623
 20
-140.926453957824
 30
0.0
 10
77.20286727670623
 20
-140.926453957824
 30
0.0
 10
77.20286727670623
 20
-139.3820176517864
 30
0.0
 10
77.20286727670623
 20
-139.3820176517864
 30
0.0
 10
77.20286727670623
 20
-139.3820176517864
 30
0.0
 10
77.92409801654328
 20
-139.3820176517864
 30
0.0
 10
77.92409801654328
 20
-139.3820176517864
 30
0.0
 10
78.25189885196481
 20
-139.3820176517864
 30
0.0
 10
78.43052705287501
 20
-139.5535834069519
 30
0.0
 10
78.43052705287501
 20
-139.8095540015059
 30
0.0
 10
78.43052705287501
 20
-139.8601969051391
 30
0.0
 10
78.42156980461336
 20
-139.9428791967851
 30
0.0
 10
78.37402748691692
 20
-140.0231499215915
 30
0.0
 10
78.31063772998831
 20
-140.1268472956975
 30
0.0
 10
78.24070229163775
 20
-140.1457953208663
 30
0.0
 10
78.17507322264373
 20
-140.1626762887441
 30
0.0
 10
78.32200654508964
 20
-140.2050509632126
 30
0.0
 10
78.39435355027989
 20
-140.2536268095546
 30
0.0
 10
78.39883217441071
 20
-140.568853046455
 30
0.0
 10
78.40331079854154
 20
-140.8396375515956
 30
0.0
 10
78.44189586797634
 20
-140.87133243006
 30
0.0
 10
78.51424287316658
 20
-140.926453957824
 30
0.0
 10
78.51424287316658
 20
-140.926453957824
 30
0.0
 10
78.19763859807212
 20
-140.926453957824
 30
0.0
 10
78.19763859807212
 20
-140.926453957824
 30
0.0
  0
SPLINE
  5
8A
330
83
100
AcDbEntity
  8
_U+30EC_U+30A4_U+30E4_U+30FC 1
370
     0
100
AcDbSpline
210
0.0
220
0.0
230
1.0
 70
    11
 71
     3
 72
    20
 73
    16
 74
     0
 42
0.0000000001
 43
0.0000000001
 12
1.0
 22
0.0
 32
0.0
 13
1.0
 23
0.0
 33
0.0
 40
0.0
 40
0.0
 40
0.0
 40
0.0
 40
1.0
 40
1.0
 40
1.0
 40
2.0
 40
2.0
 40
2.0
 40
3.0
 40
3.0
 40
3.0
 40
4.0
 40
4.0
 40
4.0
 40
5.0
 40
5.0
 40
5.0
 40
5.0
 10
77.92857664067411
 20
-139.5935465145808
 30
0.0
 10
77.92857664067411
 20
-139.5935465145808
 30
0.0
 10
77.45384248280668
 20
-139.5935465145808
 30
0.0
 10
77.45384248280668
 20
-139.5935465145808
 30
0.0
 10
77.45384248280668
 20
-139.5935465145808
 30
0.0
 10
77.45384248280668
 20
-140.0737928252246
 30
0.0
 10
77.45384248280668
 20
-140.0737928252246
 30
0.0
 10
77.45384248280668
 20
-140.0737928252246
 30
0.0
 10
77.9263373286087
 20
-140.0737928252246
 30
0.0
 10
77.9263373286087
 20
-140.0737928252246
 30
0.0
 10
78.03261852432865
 20
-140.0737928252246
 30
0.0
 10
78.17731253470915
 20
-139.9976562150006
 30
0.0
 10
78.17731253470915
 20
-139.8264349693837
 30
0.0
 10
78.17731253470915
 20
-139.7482313018685
 30
0.0
 10
78.14113903211403
 20
-139.5935465145808
 30
0.0
 10
77.92857664067411
 20
-139.5935465145808
 30
0.0
  0
HATCH
  5
8B
330
83
100
AcDbEntity
  8
_U+30EC_U+30A4_U+30E4_U+30FC 1
 62
     7
420
 16777215
100
AcDbHatch
 10
0.0
 20
0.0
 30
0.0
210
0.0
220
0.0
230
1.0
  2
SOLID
 70
     1
 71
     0
 91
        2
 92
        1
 93
        1
 72
     4
 94
        3
 73
     0
 74
     1
 95
       44
 96
       40
 40
0.0
 40
0.0
 40
0.0
 40
0.0
 40
1.0
 40
1.0
 40
1.0
 40
2.0
 40
2.0
 40
2.0
 40
3.0
 40
3.0
 40
3.0
 40
4.0
 40
4.0
 40
4.0
 40
5.0
 40
5.0
 40
5.0
 40
6.0
 40
6.0
 40
6.0
 40
7.0
 40
7.0
 40
7.0
 40
8.0
 40
8.0
 40
8.0
 40
9.0
 40
9.0
 40
9.0
 40
10.0
 40
10.0
 40
10.0
 40
11.0
 40
11.0
 40
11.0
 40
12.0
 40
12.0
 40
12.0
 40
13.0
 40
13.0
 40
13.0
 40
13.0
 10
78.19763859807212
 20
-140.926453957824
 10
78.17283391057832
 20
-140.8820122260642
 10
78.15009628037568
 20
-140.8293022651399
 10
78.14785696831026
 20
-140.5984808676282
 10
78.14337834417944
 20
-140.3552571263695
 10
78.08016084202511
 20
-140.285321688019
 10
77.89016382601358
 20
-140.285321688019
 10
77.89016382601358
 20
-140.285321688019
 10
77.45384248280668
 20
-140.285321688019
 10
77.45384248280668
 20
-140.285321688019
 10
77.45384248280668
 20
-140.285321688019
 10
77.45384248280668
 20
-140.926453957824
 10
77.45384248280668
 20
-140.926453957824
 10
77.45384248280668
 20
-140.926453957824
 10
77.20286727670623
 20
-140.926453957824
 10
77.20286727670623
 20
-140.926453957824
 10
77.20286727670623
 20
-140.926453957824
 10
77.20286727670623
 20
-139.3820176517864
 10
77.20286727670623
 20
-139.3820176517864
 10
77.20286727670623
 20
-139.3820176517864
 10
77.92409801654328
 20
-139.3820176517864
 10
77.92409801654328
 20
-139.3820176517864
 10
78.25189885196481
 20
-139.3820176517864
 10
78.43052705287501
 20
-139.5535834069519
 10
78.43052705287501
 20
-139.8095540015059
 10
78.43052705287501
 20
-139.8601969051391
 10
78.42156980461336
 20
-139.9428791967851
 10
78.37402748691692
 20
-140.0231499215915
 10
78.31063772998831
 20
-140.1268472956975
 10
78.24070229163775
 20
-140.1457953208663
 10
78.17507322264373
 20
-140.1626762887441
 10
78.32200654508964
 20
-140.2050509632126
 10
78.39435355027989
 20
-140.2536268095546
 10
78.39883217441071
 20
-140.568853046455
 10
78.40331079854154
 20
-140.8396375515956
 10
78.44189586797634
 20
-140.87133243006
 10
78.51424287316658
 20
-140.926453957824
 10
78.51424287316658
 20
-140.926453957824
 10
78.19763859807212
 20
-140.926453957824
 10
78.19763859807212
 20
-140.926453957824
 97
        0
 97
        0
 92
        1
 93
        1
 72
     4
 94
        3
 73
     0
 74
     1
 95
       20
 96
       16
 40
0.0
 40
0.0
 40
0.0
 40
0.0
 40
1.0
 40
1.0
 40
1.0
 40
2.0
 40
2.0
 40
2.0
 40
3.0
 40
3.0
 40
3.0
 40
4.0
 40
4.0
 40
4.0
 40
5.0
 40
5.0
 40
5.0
 40
5.0
 10
77.92857664067411
 20
-139.5935465145808
 10
77.92857664067411
 20
-139.5935465145808
 10
77.45384248280668
 20
-139.5935465145808
 10
77.45384248280668
 20
-139.5935465145808
 10
77.45384248280668
 20
-139.5935465145808
 10
77.45384248280668
 20
-140.0737928252246
 10
77.45384248280668
 20
-140.0737928252246
 10
77.45384248280668
 20
-140.0737928252246
 10
77.9263373286087
 20
-140.0737928252246
 10
77.9263373286087
 20
-140.0737928252246
 10
78.03261852432865
 20
-140.0737928252246
 10
78.17731253470915
 20
-139.9976562150006
 10
78.17731253470915
 20
-139.8264349693837
 10
78.17731253470915
 20
-139.7482313018685
 10
78.14113903211403
 20
-139.5935465145808
 10
77.92857664067411
 20
-139.5935465145808
 97
        0
 97
        0
 75
     2
 76
     1
 98
        0
  0
ENDBLK
  5
86
330
83
100
AcDbEntity
  8
0
100
AcDbBlockEnd
  0
BLOCK
  5
9A
330
98
100
AcDbEntity
  8
0
100
AcDbBlockBegin
  2
block 3
 70
     0
 10
0.0
 20
0.0
 30
0.0
  3
block 3
  1

  0
SPLINE
  5
9C
330
98
100
AcDbEntity
  8
_U+30EC_U+30A4_U+30E4_U+30FC 1
370
     0
100
AcDbSpline
210
0.0
220
0.0
230
1.0
 70
    11
 71
     3
 72
    44
 73
    40
 74
     0
 42
0.0000000001
 43
0.0000000001
 12
1.0
 22
0.0
 32
0.0
 13
1.0
 23
0.0
 33
0.0
 40
0.0
 40
0.0
 40
0.0
 40
0.0
 40
1.0
 40
1.0
 40
1.0
 40
2.0
 40
2.0
 40
2.0
 40
3.0
 40
3.0
 40
3.0
 40
4.0
 40
4.0
 40
4.0
 40
5.0
 40
5.0
 40
5.0
 40
6.0
 40
6.0
 40
6.0
 40
7.0
 40
7.0
 40
7.0
 40
8.0
 40
8.0
 40
8.0
 40
9.0
 40
9.0
 40
9.0
 40
10.0
 40
10.0
 40
10.0
 40
11.0
 40
11.0
 40
11.0
 40
12.0
 40
12.0
 40
12.0
 40
13.0
 40
13.0
 40
13.0
 40
13.0
 10
94.8017930535565
 20
-116.2432060798802
 30
0.0
 10
94.5689045987536
 20
-116.4018527269759
 30
0.0
 10
94.46934133922989
 20
-116.4759222799088
 30
0.0
 10
94.41766490695115
 20
-116.6195827616437
 30
0.0
 10
94.41766490695115
 20
-116.6195827616437
 30
0.0
 10
95.24931095709046
 20
-116.6195827616437
 30
0.0
 10
95.24931095709046
 20
-116.6195827616437
 30
0.0
 10
95.24931095709046
 20
-116.6195827616437
 30
0.0
 10
95.24931095709046
 20
-116.8249104525646
 30
0.0
 10
95.24931095709046
 20
-116.8249104525646
 30
0.0
 10
95.24931095709046
 20
-116.8249104525646
 30
0.0
 10
94.15067000684428
 20
-116.8249104525646
 30
0.0
 10
94.15067000684428
 20
-116.8249104525646
 30
0.0
 10
94.18477645214826
 20
-116.4673095411957
 30
0.0
 10
94.25471189049883
 20
-116.3891058736805
 30
0.0
 10
94.66605629143766
 20
-116.0907606046579
 30
0.0
 10
94.93959687296649
 20
-115.891978595159
 30
0.0
 10
95.00987682086559
 20
-115.8242824688738
 30
0.0
 10
95.00987682086559
 20
-115.6868231590123
 30
0.0
 10
95.00987682086559
 20
-115.5683118743197
 30
0.0
 10
94.93305119154452
 20
-115.437225991106
 30
0.0
 10
94.72255585739576
 20
-115.437225991106
 30
0.0
 10
94.44453665173609
 20
-115.437225991106
 30
0.0
 10
94.43557940347445
 20
-115.6677028790692
 30
0.0
 10
94.43110077934362
 20
-115.7841471064706
 30
0.0
 10
94.43110077934362
 20
-115.7841471064706
 30
0.0
 10
94.19132213357022
 20
-115.7841471064706
 30
0.0
 10
94.19132213357022
 20
-115.7841471064706
 30
0.0
 10
94.2006238913804
 20
-115.6571953378392
 30
0.0
 10
94.2116481969332
 20
-115.5450574797943
 30
0.0
 10
94.29777558406445
 20
-115.4265461951017
 30
0.0
 10
94.41525334011146
 20
-115.2658324907148
 30
0.0
 10
94.61403534961039
 20
-115.2318983001851
 30
0.0
 10
94.73840329662791
 20
-115.2318983001851
 30
0.0
 10
95.03468150835938
 20
-115.2318983001851
 30
0.0
 10
95.25620114806095
 20
-115.4160386538717
 30
0.0
 10
95.25620114806095
 20
-115.6888902163035
 30
0.0
 10
95.25620114806095
 20
-115.9173000469755
 30
0.0
 10
95.13183320104343
 20
-116.0168633064993
 30
0.0
 10
94.8017930535565
 20
-116.2432060798802
 30
0.0
  0
HATCH
  5
9D
330
98
100
AcDbEntity
  8
_U+30EC_U+30A4_U+30E4_U+30FC 1
 62
     7
420
 16777215
100
AcDbHatch
 10
0.0
 20
0.0
 30
0.0
210
0.0
220
0.0
230
1.0
  2
SOLID
 70
     1
 71
     0
 91
        1
 92
        1
 93
        1
 72
     4
 94
        3
 73
     0
 74
     1
 95
       44
 96
       40
 40
0.0
 40
0.0
 40
0.0
 40
0.0
 40
1.0
 40
1.0
 40
1.0
 40
2.0
 40
2.0
 40
2.0
 40
3.0
 40
3.0
 40
3.0
 40
4.0
 40
4.0
 40
4.0
 40
5.0
 40
5.0
 40
5.0
 40
6.0
 40
6.0
 40
6.0
 40
7.0
 40
7.0
 40
7.0
 40
8.0
 40
8.0
 40
8.0
 40
9.0
 40
9.0
 40
9.0
 40
10.0
 40
10.0
 40
10.0
 40
11.0
 40
11.0
 40
11.0
 40
12.0
 40
12.0
 40
12.0
 40
13.0
 40
13.0
 40
13.0
 40
13.0
 10
94.8017930535565
 20
-116.2432060798802
 10
94.5689045987536
 20
-116.4018527269759
 10
94.46934133922989
 20
-116.4759222799088
 10
94.41766490695115
 20
-116.6195827616437
 10
94.41766490695115
 20
-116.6195827616437
 10
95.24931095709046
 20
-116.6195827616437
 10
95.24931095709046
 20
-116.6195827616437
 10
95.24931095709046
 20
-116.6195827616437
 10
95.24931095709046
 20
-116.8249104525646
 10
95.24931095709046
 20
-116.8249104525646
 10
95.24931095709046
 20
-116.8249104525646
 10
94.15067000684428
 20
-116.8249104525646
 10
94.15067000684428
 20
-116.8249104525646
 10
94.18477645214826
 20
-116.4673095411957
 10
94.25471189049883
 20
-116.3891058736805
 10
94.66605629143766
 20
-116.0907606046579
 10
94.93959687296649
 20
-115.891978595159
 10
95.00987682086559
 20
-115.8242824688738
 10
95.00987682086559
 20
-115.6868231590123
 10
95.00987682086559
 20
-115.5683118743197
 10
94.93305119154452
 20
-115.437225991106
 10
94.72255585739576
 20
-115.437225991106
 10
94.44453665173609
 20
-115.437225991106
 10
94.43557940347445
 20
-115.6677028790692
 10
94.43110077934362
 20
-115.7841471064706
 10
94.43110077934362
 20
-115.7841471064706
 10
94.19132213357022
 20
-115.7841471064706
 10
94.19132213357022
 20
-115.7841471064706
 10
94.2006238913804
 20
-115.6571953378392
 10
94.2116481969332
 20
-115.5450574797943
 10
94.29777558406445
 20
-115.4265461951017
 10
94.41525334011146
 20
-115.2658324907148
 10
94.61403534961039
 20
-115.2318983001851
 10
94.73840329662791
 20
-115.2318983001851
 10
95.03468150835938
 20
-115.2318983001851
 10
95.25620114806095
 20
-115.4160386538717
 10
95.25620114806095
 20
-115.6888902163035
 10
95.25620114806095
 20
-115.9173000469755
 10
95.13183320104343
 20
-116.0168633064993
 10
94.8017930535565
 20
-116.2432060798802
 97
        0
 97
        0
 75
     2
 76
     1
 98
        0
  0
SPLINE
  5
9E
330
98
100
AcDbEntity
  8
_U+30EC_U+30A4_U+30E4_U+30FC 1
370
     0
100
AcDbSpline
210
0.0
220
0.0
230
1.0
 70
    11
 71
     3
 72
    26
 73
    22
 74
     0
 42
0.0000000001
 43
0.0000000001
 12
1.0
 22
0.0
 32
0.0
 13
1.0
 23
0.0
 33
0.0
 40
0.0
 40
0.0
 40
0.0
 40
0.0
 40
1.0
 40
1.0
 40
1.0
 40
2.0
 40
2.0
 40
2.0
 40
3.0
 40
3.0
 40
3.0
 40
4.0
 40
4.0
 40
4.0
 40
5.0
 40
5.0
 40
5.0
 40
6.0
 40
6.0
 40
6.0
 40
7.0
 40
7.0
 40
7.0
 40
7.0
 10
95.90801321387022
 20
-116.8249104525646
 30
0.0
 10
95.90801321387022
 20
-116.8249104525646
 30
0.0
 10
95.90801321387022
 20
-115.7205850947678
 30
0.0
 10
95.90801321387022
 20
-115.7205850947678
 30
0.0
 10
95.90801321387022
 20
-115.7205850947678
 30
0.0
 10
95.55557994572916
 20
-115.7205850947678
 30
0.0
 10
95.55557994572916
 20
-115.7205850947678
 30
0.0
 10
95.55557994572916
 20
-115.7205850947678
 30
0.0
 10
95.55557994572916
 20
-115.5726182436763
 30
0.0
 10
95.55557994572916
 20
-115.5726182436763
 30
0.0
 10
95.9104247807099
 20
-115.5578043330897
 30
0.0
 10
95.9600341556975
 20
-115.3948513166374
 30
0.0
 10
95.99172903416179
 20
-115.2806464013014
 30
0.0
 10
95.99172903416179
 20
-115.2806464013014
 30
0.0
 10
96.14779185964362
 20
-115.2806464013014
 30
0.0
 10
96.14779185964362
 20
-115.2806464013014
 30
0.0
 10
96.14779185964362
 20
-115.2806464013014
 30
0.0
 10
96.14779185964362
 20
-116.8249104525646
 30
0.0
 10
96.14779185964362
 20
-116.8249104525646
 30
0.0
 10
96.14779185964362
 20
-116.8249104525646
 30
0.0
 10
95.90801321387022
 20
-116.8249104525646
 30
0.0
 10
95.90801321387022
 20
-116.8249104525646
 30
0.0
  0
HATCH
  5
9F
330
98
100
AcDbEntity
  8
_U+30EC_U+30A4_U+30E4_U+30FC 1
 62
     7
420
 16777215
100
AcDbHatch
 10
0.0
 20
0.0
 30
0.0
210
0.0
220
0.0
230
1.0
  2
SOLID
 70
     1
 71
     0
 91
        1
 92
        1
 93
        1
 72
     4
 94
        3
 73
     0
 74
     1
 95
       26
 96
       22
 40
0.0
 40
0.0
 40
0.0
 40
0.0
 40
1.0
 40
1.0
 40
1.0
 40
2.0
 40
2.0
 40
2.0
 40
3.0
 40
3.0
 40
3.0
 40
4.0
 40
4.0
 40
4.0
 40
5.0
 40
5.0
 40
5.0
 40
6.0
 40
6.0
 40
6.0
 40
7.0
 40
7.0
 40
7.0
 40
7.0
 10
95.90801321387022
 20
-116.8249104525646
 10
95.90801321387022
 20
-116.8249104525646
 10
95.90801321387022
 20
-115.7205850947678
 10
95.90801321387022
 20
-115.7205850947678
 10
95.90801321387022
 20
-115.7205850947678
 10
95.55557994572916
 20
-115.7205850947678
 10
95.55557994572916
 20
-115.7205850947678
 10
95.55557994572916
 20
-115.7205850947678
 10
95.55557994572916
 20
-115.5726182436763
 10
95.55557994572916
 20
-115.5726182436763
 10
95.9104247807099
 20
-115.5578043330897
 10
95.9600341556975
 20
-115.3948513166374
 10
95.99172903416179
 20
-115.2806464013014
 10
95.99172903416179
 20
-115.2806464013014
 10
96.14779185964362
 20
-115.2806464013014
 10
96.14779185964362
 20
-115.2806464013014
 10
96.14779185964362
 20
-115.2806464013014
 10
96.14779185964362
 20
-116.8249104525646
 10
96.14779185964362
 20
-116.8249104525646
 10
96.14779185964362
 20
-116.8249104525646
 10
95.90801321387022
 20
-116.8249104525646
 10
95.90801321387022
 20
-116.8249104525646
 97
        0
 97
        0
 75
     2
 76
     1
 98
        0
  0
ENDBLK
  5
9B
330
98
100
AcDbEntity
  8
0
100
AcDbBlockEnd
  0
BLOCK
  5
AA
330
A8
100
AcDbEntity
  8
0
100
AcDbBlockBegin
  2
block 4
 70
     0
 10
0.0
 20
0.0
 30
0.0
  3
block 4
  1

  0
SPLINE
  5
AC
330
A8
100
AcDbEntity
  8
_U+30EC_U+30A4_U+30E4_U+30FC 1
370
     0
100
AcDbSpline
210
0.0
220
0.0
230
1.0
 70
    11
 71
     3
 72
    26
 73
    22
 74
     0
 42
0.0000000001
 43
0.0000000001
 12
1.0
 22
0.0
 32
0.0
 13
1.0
 23
0.0
 33
0.0
 40
0.0
 40
0.0
 40
0.0
 40
0.0
 40
1.0
 40
1.0
 40
1.0
 40
2.0
 40
2.0
 40
2.0
 40
3.0
 40
3.0
 40
3.0
 40
4.0
 40
4.0
 40
4.0
 40
5.0
 40
5.0
 40
5.0
 40
6.0
 40
6.0
 40
6.0
 40
7.0
 40
7.0
 40
7.0
 40
7.0
 10
86.05796845721815
 20
-123.3904011735795
 30
0.0
 10
86.05796845721815
 20
-123.3904011735795
 30
0.0
 10
86.05796845721815
 20
-122.2860758157827
 30
0.0
 10
86.05796845721815
 20
-122.2860758157827
 30
0.0
 10
86.05796845721815
 20
-122.2860758157827
 30
0.0
 10
85.70519067952857
 20
-122.2860758157827
 30
0.0
 10
85.70519067952857
 20
-122.2860758157827
 30
0.0
 10
85.70519067952857
 20
-122.2860758157827
 30
0.0
 10
85.70519067952857
 20
-122.1379367099169
 30
0.0
 10
85.70519067952857
 20
-122.1379367099169
 30
0.0
 10
86.06020776928356
 20
-122.1232950541046
 30
0.0
 10
86.10998939904542
 20
-121.9603420376523
 30
0.0
 10
86.14151202273545
 20
-121.8461371223163
 30
0.0
 10
86.14151202273545
 20
-121.8461371223163
 30
0.0
 10
86.29757484821728
 20
-121.8461371223163
 30
0.0
 10
86.29757484821728
 20
-121.8461371223163
 30
0.0
 10
86.29757484821728
 20
-121.8461371223163
 30
0.0
 10
86.29757484821728
 20
-123.3904011735795
 30
0.0
 10
86.29757484821728
 20
-123.3904011735795
 30
0.0
 10
86.29757484821728
 20
-123.3904011735795
 30
0.0
 10
86.05796845721815
 20
-123.3904011735795
 30
0.0
 10
86.05796845721815
 20
-123.3904011735795
 30
0.0
  0
HATCH
  5
AD
330
A8
100
AcDbEntity
  8
_U+30EC_U+30A4_U+30E4_U+30FC 1
 62
     7
420
 16777215
100
AcDbHatch
 10
0.0
 20
0.0
 30
0.0
210
0.0
220
0.0
230
1.0
  2
SOLID
 70
     1
 71
     0
 91
        1
 92
        1
 93
        1
 72
     4
 94
        3
 73
     0
 74
     1
 95
       26
 96
       22
 40
0.0
 40
0.0
 40
0.0
 40
0.0
 40
1.0
 40
1.0
 40
1.0
 40
2.0
 40
2.0
 40
2.0
 40
3.0
 40
3.0
 40
3.0
 40
4.0
 40
4.0
 40
4.0
 40
5.0
 40
5.0
 40
5.0
 40
6.0
 40
6.0
 40
6.0
 40
7.0
 40
7.0
 40
7.0
 40
7.0
 10
86.05796845721815
 20
-123.3904011735795
 10
86.05796845721815
 20
-123.3904011735795
 10
86.05796845721815
 20
-122.2860758157827
 10
86.05796845721815
 20
-122.2860758157827
 10
86.05796845721815
 20
-122.2860758157827
 10
85.70519067952857
 20
-122.2860758157827
 10
85.70519067952857
 20
-122.2860758157827
 10
85.70519067952857
 20
-122.2860758157827
 10
85.70519067952857
 20
-122.1379367099169
 10
85.70519067952857
 20
-122.1379367099169
 10
86.06020776928356
 20
-122.1232950541046
 10
86.10998939904542
 20
-121.9603420376523
 10
86.14151202273545
 20
-121.8461371223163
 10
86.14151202273545
 20
-121.8461371223163
 10
86.29757484821728
 20
-121.8461371223163
 10
86.29757484821728
 20
-121.8461371223163
 10
86.29757484821728
 20
-121.8461371223163
 10
86.29757484821728
 20
-123.3904011735795
 10
86.29757484821728
 20
-123.3904011735795
 10
86.29757484821728
 20
-123.3904011735795
 10
86.05796845721815
 20
-123.3904011735795
 10
86.05796845721815
 20
-123.3904011735795
 97
        0
 97
        0
 75
     2
 76
     1
 98
        0
  0
ENDBLK
  5
AB
330
A8
100
AcDbEntity
  8
0
100
AcDbBlockEnd
  0
BLOCK
  5
BC
330
BA
100
AcDbEntity
  8
0
100
AcDbBlockBegin
  2
block 5
 70
     0
 10
0.0
 20
0.0
 30
0.0
  3
block 5
  1

  0
SPLINE
  5
BE
330
BA
100
AcDbEntity
  8
_U+30EC_U+30A4_U+30E4_U+30FC 1
370
     0
100
AcDbSpline
210
0.0
220
0.0
230
1.0
 70
    11
 71
     3
 72
    26
 73
    22
 74
     0
 42
0.0000000001
 43
0.0000000001
 12
1.0
 22
0.0
 32
0.0
 13
1.0
 23
0.0
 33
0.0
 40
0.0
 40
0.0
 40
0.0
 40
0.0
 40
1.0
 40
1.0
 40
1.0
 40
2.0
 40
2.0
 40
2.0
 40
3.0
 40
3.0
 40
3.0
 40
4.0
 40
4.0
 40
4.0
 40
5.0
 40
5.0
 40
5.0
 40
6.0
 40
6.0
 40
6.0
 40
7.0
 40
7.0
 40
7.0
 40
7.0
 10
79.23495684868085
 20
-130.7544650280753
 30
0.0
 10
79.23495684868085
 20
-130.7544650280753
 30
0.0
 10
78.13063149088401
 20
-130.7544650280753
 30
0.0
 10
78.13063149088401
 20
-130.7544650280753
 30
0.0
 10
78.13063149088401
 20
-130.7544650280753
 30
0.0
 10
78.13063149088401
 20
-131.1068982962163
 30
0.0
 10
78.13063149088401
 20
-131.1068982962163
 30
0.0
 10
78.13063149088401
 20
-131.1068982962163
 30
0.0
 10
77.98249238501828
 20
-131.1068982962163
 30
0.0
 10
77.98249238501828
 20
-131.1068982962163
 30
0.0
 10
77.96785072920596
 20
-130.7520534612356
 30
0.0
 10
77.80489771275364
 20
-130.702444086248
 30
0.0
 10
77.69069279741761
 20
-130.6707492077837
 30
0.0
 10
77.69069279741761
 20
-130.6707492077837
 30
0.0
 10
77.69069279741761
 20
-130.5146863823019
 30
0.0
 10
77.69069279741761
 20
-130.5146863823019
 30
0.0
 10
77.69069279741761
 20
-130.5146863823019
 30
0.0
 10
79.23495684868085
 20
-130.5146863823019
 30
0.0
 10
79.23495684868085
 20
-130.5146863823019
 30
0.0
 10
79.23495684868085
 20
-130.5146863823019
 30
0.0
 10
79.23495684868085
 20
-130.7544650280753
 30
0.0
 10
79.23495684868085
 20
-130.7544650280753
 30
0.0
  0
HATCH
  5
BF
330
BA
100
AcDbEntity
  8
_U+30EC_U+30A4_U+30E4_U+30FC 1
 62
     7
420
 16777215
100
AcDbHatch
 10
0.0
 20
0.0
 30
0.0
210
0.0
220
0.0
230
1.0
  2
SOLID
 70
     1
 71
     0
 91
        1
 92
        1
 93
        1
 72
     4
 94
        3
 73
     0
 74
     1
 95
       26
 96
       22
 40
0.0
 40
0.0
 40
0.0
 40
0.0
 40
1.0
 40
1.0
 40
1.0
 40
2.0
 40
2.0
 40
2.0
 40
3.0
 40
3.0
 40
3.0
 40
4.0
 40
4.0
 40
4.0
 40
5.0
 40
5.0
 40
5.0
 40
6.0
 40
6.0
 40
6.0
 40
7.0
 40
7.0
 40
7.0
 40
7.0
 10
79.23495684868085
 20
-130.7544650280753
 10
79.23495684868085
 20
-130.7544650280753
 10
78.13063149088401
 20
-130.7544650280753
 10
78.13063149088401
 20
-130.7544650280753
 10
78.13063149088401
 20
-130.7544650280753
 10
78.13063149088401
 20
-131.1068982962163
 10
78.13063149088401
 20
-131.1068982962163
 10
78.13063149088401
 20
-131.1068982962163
 10
77.98249238501828
 20
-131.1068982962163
 10
77.98249238501828
 20
-131.1068982962163
 10
77.96785072920596
 20
-130.7520534612356
 10
77.80489771275364
 20
-130.702444086248
 10
77.69069279741761
 20
-130.6707492077837
 10
77.69069279741761
 20
-130.6707492077837
 10
77.69069279741761
 20
-130.5146863823019
 10
77.69069279741761
 20
-130.5146863823019
 10
77.69069279741761
 20
-130.5146863823019
 10
79.23495684868085
 20
-130.5146863823019
 10
79.23495684868085
 20
-130.5146863823019
 10
79.23495684868085
 20
-130.5146863823019
 10
79.23495684868085
 20
-130.7544650280753
 10
79.23495684868085
 20
-130.7544650280753
 97
        0
 97
        0
 75
     2
 76
     1
 98
        0
  0
SPLINE
  5
C0
330
BA
100
AcDbEntity
  8
_U+30EC_U+30A4_U+30E4_U+30FC 1
370
     0
100
AcDbSpline
210
0.0
220
0.0
230
1.0
 70
    11
 71
     3
 72
    32
 73
    28
 74
     0
 42
0.0000000001
 43
0.0000000001
 12
1.0
 22
0.0
 32
0.0
 13
1.0
 23
0.0
 33
0.0
 40
0.0
 40
0.0
 40
0.0
 40
0.0
 40
1.0
 40
1.0
 40
1.0
 40
2.0
 40
2.0
 40
2.0
 40
3.0
 40
3.0
 40
3.0
 40
4.0
 40
4.0
 40
4.0
 40
5.0
 40
5.0
 40
5.0
 40
6.0
 40
6.0
 40
6.0
 40
7.0
 40
7.0
 40
7.0
 40
8.0
 40
8.0
 40
8.0
 40
9.0
 40
9.0
 40
9.0
 40
9.0
 10
79.28577200708828
 20
-129.4401611004525
 30
0.0
 10
79.28577200708828
 20
-129.991720887641
 30
0.0
 10
78.73145614351158
 20
-130.0006781359026
 30
0.0
 10
78.5178602234261
 20
-130.0006781359026
 30
0.0
 10
78.28721108068862
 20
-130.0006781359026
 30
0.0
 10
77.63987763901017
 20
-129.9803520725396
 30
0.0
 10
77.63987763901017
 20
-129.399164464178
 30
0.0
 10
77.63987763901017
 20
-129.2138183270716
 30
0.0
 10
77.70964082258648
 20
-128.951646560644
 30
0.0
 10
78.04174802736456
 20
-128.9109944339181
 30
0.0
 10
78.04174802736456
 20
-128.9109944339181
 30
0.0
 10
78.04174802736456
 20
-129.1394042645902
 30
0.0
 10
78.04174802736456
 20
-129.1394042645902
 30
0.0
 10
77.98473169708369
 20
-129.1507730796915
 30
0.0
 10
77.83659259121794
 20
-129.1845350154469
 30
0.0
 10
77.83659259121794
 20
-129.4015760310177
 30
0.0
 10
77.83659259121794
 20
-129.7137016819813
 30
0.0
 10
78.16456568141372
 20
-129.7564208659984
 30
0.0
 10
78.36972111756035
 20
-129.7702012479394
 30
0.0
 10
78.29151745004518
 20
-129.6706379884157
 30
0.0
 10
78.23226180769888
 20
-129.5982909832254
 30
0.0
 10
78.23226180769888
 20
-129.4036430883088
 30
0.0
 10
78.23226180769888
 20
-129.2117512697804
 30
0.0
 10
78.34009329638721
 20
-128.8882568037154
 30
0.0
 10
78.74627005409816
 20
-128.8882568037154
 30
0.0
 10
79.06563040558082
 20
-128.8882568037154
 30
0.0
 10
79.28577200708828
 20
-129.1008191951554
 30
0.0
 10
79.28577200708828
 20
-129.4401611004525
 30
0.0
  0
SPLINE
  5
C1
330
BA
100
AcDbEntity
  8
_U+30EC_U+30A4_U+30E4_U+30FC 1
370
     0
100
AcDbSpline
210
0.0
220
0.0
230
1.0
 70
    11
 71
     3
 72
    17
 73
    13
 74
     0
 42
0.0000000001
 43
0.0000000001
 12
1.0
 22
0.0
 32
0.0
 13
1.0
 23
0.0
 33
0.0
 40
0.0
 40
0.0
 40
0.0
 40
0.0
 40
1.0
 40
1.0
 40
1.0
 40
2.0
 40
2.0
 40
2.0
 40
3.0
 40
3.0
 40
3.0
 40
4.0
 40
4.0
 40
4.0
 40
4.0
 10
78.4269097026155
 20
-129.4219020943806
 30
0.0
 10
78.4269097026155
 20
-129.70233286688
 30
0.0
 10
78.63843856540984
 20
-129.7429849936059
 30
0.0
 10
78.75471053803702
 20
-129.7429849936059
 30
0.0
 10
78.9302381530105
 20
-129.7429849936059
 30
0.0
 10
79.09319116946281
 20
-129.6413546767911
 30
0.0
 10
79.09319116946281
 20
-129.4446397245833
 30
0.0
 10
79.09319116946281
 20
-129.315793153435
 30
0.0
 10
79.03393552711653
 20
-129.1280354494888
 30
0.0
 10
78.7483371113893
 20
-129.1280354494888
 30
0.0
 10
78.52406139529954
 20
-129.1280354494888
 30
0.0
 10
78.4269097026155
 20
-129.2772080840001
 30
0.0
 10
78.4269097026155
 20
-129.4219020943806
 30
0.0
  0
HATCH
  5
C2
330
BA
100
AcDbEntity
  8
_U+30EC_U+30A4_U+30E4_U+30FC 1
 62
     7
420
 16777215
100
AcDbHatch
 10
0.0
 20
0.0
 30
0.0
210
0.0
220
0.0
230
1.0
  2
SOLID
 70
     1
 71
     0
 91
        2
 92
        1
 93
        1
 72
     4
 94
        3
 73
     0
 74
     1
 95
       32
 96
       28
 40
0.0
 40
0.0
 40
0.0
 40
0.0
 40
1.0
 40
1.0
 40
1.0
 40
2.0
 40
2.0
 40
2.0
 40
3.0
 40
3.0
 40
3.0
 40
4.0
 40
4.0
 40
4.0
 40
5.0
 40
5.0
 40
5.0
 40
6.0
 40
6.0
 40
6.0
 40
7.0
 40
7.0
 40
7.0
 40
8.0
 40
8.0
 40
8.0
 40
9.0
 40
9.0
 40
9.0
 40
9.0
 10
79.28577200708828
 20
-129.4401611004525
 10
79.28577200708828
 20
-129.991720887641
 10
78.73145614351158
 20
-130.0006781359026
 10
78.5178602234261
 20
-130.0006781359026
 10
78.28721108068862
 20
-130.0006781359026
 10
77.63987763901017
 20
-129.9803520725396
 10
77.63987763901017
 20
-129.399164464178
 10
77.63987763901017
 20
-129.2138183270716
 10
77.70964082258648
 20
-128.951646560644
 10
78.04174802736456
 20
-128.9109944339181
 10
78.04174802736456
 20
-128.9109944339181
 10
78.04174802736456
 20
-129.1394042645902
 10
78.04174802736456
 20
-129.1394042645902
 10
77.98473169708369
 20
-129.1507730796915
 10
77.83659259121794
 20
-129.1845350154469
 10
77.83659259121794
 20
-129.4015760310177
 10
77.83659259121794
 20
-129.7137016819813
 10
78.16456568141372
 20
-129.7564208659984
 10
78.36972111756035
 20
-129.7702012479394
 10
78.29151745004518
 20
-129.6706379884157
 10
78.23226180769888
 20
-129.5982909832254
 10
78.23226180769888
 20
-129.4036430883088
 10
78.23226180769888
 20
-129.2117512697804
 10
78.34009329638721
 20
-128.8882568037154
 10
78.74627005409816
 20
-128.8882568037154
 10
79.06563040558082
 20
-128.8882568037154
 10
79.28577200708828
 20
-129.1008191951554
 10
79.28577200708828
 20
-129.4401611004525
 97
        0
 97
        0
 92
        1
 93
        1
 72
     4
 94
        3
 73
     0
 74
     1
 95
       17
 96
       13
 40
0.0
 40
0.0
 40
0.0
 40
0.0
 40
1.0
 40
1.0
 40
1.0
 40
2.0
 40
2.0
 40
2.0
 40
3.0
 40
3.0
 40
3.0
 40
4.0
 40
4.0
 40
4.0
 40
4.0
 10
78.4269097026155
 20
-129.4219020943806
 10
78.4269097026155
 20
-129.70233286688
 10
78.63843856540984
 20
-129.7429849936059
 10
78.75471053803702
 20
-129.7429849936059
 10
78.9302381530105
 20
-129.7429849936059
 10
79.09319116946281
 20
-129.6413546767911
 10
79.09319116946281
 20
-129.4446397245833
 10
79.09319116946281
 20
-129.315793153435
 10
79.03393552711653
 20
-129.1280354494888
 10
78.7483371113893
 20
-129.1280354494888
 10
78.52406139529954
 20
-129.1280354494888
 10
78.4269097026155
 20
-129.2772080840001
 10
78.4269097026155
 20
-129.4219020943806
 97
        0
 97
        0
 75
     2
 76
     1
 98
        0
  0
ENDBLK
  5
BD
330
BA
100
AcDbEntity
  8
0
100
AcDbBlockEnd
  0
BLOCK
  5
D1
330
CF
100
AcDbEntity
  8
0
100
AcDbBlockBegin
  2
block 6
 70
     0
 10
0.0
 20
0.0
 30
0.0
  3
block 6
  1

  0
SPLINE
  5
D3
330
CF
100
AcDbEntity
  8
_U+30EC_U+30A4_U+30E4_U+30FC 1
370
     0
100
AcDbSpline
210
0.0
220
0.0
230
1.0
 70
    11
 71
     3
 72
    26
 73
    22
 74
     0
 42
0.0000000001
 43
0.0000000001
 12
1.0
 22
0.0
 32
0.0
 13
1.0
 23
0.0
 33
0.0
 40
0.0
 40
0.0
 40
0.0
 40
0.0
 40
1.0
 40
1.0
 40
1.0
 40
2.0
 40
2.0
 40
2.0
 40
3.0
 40
3.0
 40
3.0
 40
4.0
 40
4.0
 40
4.0
 40
5.0
 40
5.0
 40
5.0
 40
6.0
 40
6.0
 40
6.0
 40
7.0
 40
7.0
 40
7.0
 40
7.0
 10
91.15016409396594
 20
-141.4766357068183
 30
0.0
 10
91.15016409396594
 20
-141.4766357068183
 30
0.0
 10
91.15016409396594
 20
-140.3724826037958
 30
0.0
 10
91.15016409396594
 20
-140.3724826037958
 30
0.0
 10
91.15016409396594
 20
-140.3724826037958
 30
0.0
 10
90.79773082582487
 20
-140.3724826037958
 30
0.0
 10
90.79773082582487
 20
-140.3724826037958
 30
0.0
 10
90.79773082582487
 20
-140.3724826037958
 30
0.0
 10
90.79773082582487
 20
-140.22434349793
 30
0.0
 10
90.79773082582487
 20
-140.22434349793
 30
0.0
 10
91.15257566080561
 20
-140.2095295873435
 30
0.0
 10
91.2021850357932
 20
-140.0465765708911
 30
0.0
 10
91.2338799142575
 20
-139.9321994007808
 30
0.0
 10
91.2338799142575
 20
-139.9321994007808
 30
0.0
 10
91.39011499451358
 20
-139.9321994007808
 30
0.0
 10
91.39011499451358
 20
-139.9321994007808
 30
0.0
 10
91.39011499451358
 20
-139.9321994007808
 30
0.0
 10
91.39011499451358
 20
-141.4766357068183
 30
0.0
 10
91.39011499451358
 20
-141.4766357068183
 30
0.0
 10
91.39011499451358
 20
-141.4766357068183
 30
0.0
 10
91.15016409396594
 20
-141.4766357068183
 30
0.0
 10
91.15016409396594
 20
-141.4766357068183
 30
0.0
  0
HATCH
  5
D4
330
CF
100
AcDbEntity
  8
_U+30EC_U+30A4_U+30E4_U+30FC 1
 62
     7
420
 16777215
100
AcDbHatch
 10
0.0
 20
0.0
 30
0.0
210
0.0
220
0.0
230
1.0
  2
SOLID
 70
     1
 71
     0
 91
        1
 92
        1
 93
        1
 72
     4
 94
        3
 73
     0
 74
     1
 95
       26
 96
       22
 40
0.0
 40
0.0
 40
0.0
 40
0.0
 40
1.0
 40
1.0
 40
1.0
 40
2.0
 40
2.0
 40
2.0
 40
3.0
 40
3.0
 40
3.0
 40
4.0
 40
4.0
 40
4.0
 40
5.0
 40
5.0
 40
5.0
 40
6.0
 40
6.0
 40
6.0
 40
7.0
 40
7.0
 40
7.0
 40
7.0
 10
91.15016409396594
 20
-141.4766357068183
 10
91.15016409396594
 20
-141.4766357068183
 10
91.15016409396594
 20
-140.3724826037958
 10
91.15016409396594
 20
-140.3724826037958
 10
91.15016409396594
 20
-140.3724826037958
 10
90.79773082582487
 20
-140.3724826037958
 10
90.79773082582487
 20
-140.3724826037958
 10
90.79773082582487
 20
-140.3724826037958
 10
90.79773082582487
 20
-140.22434349793
 10
90.79773082582487
 20
-140.22434349793
 10
91.15257566080561
 20
-140.2095295873435
 10
91.2021850357932
 20
-140.0465765708911
 10
91.2338799142575
 20
-139.9321994007808
 10
91.2338799142575
 20
-139.9321994007808
 10
91.39011499451358
 20
-139.9321994007808
 10
91.39011499451358
 20
-139.9321994007808
 10
91.39011499451358
 20
-139.9321994007808
 10
91.39011499451358
 20
-141.4766357068183
 10
91.39011499451358
 20
-141.4766357068183
 10
91.39011499451358
 20
-141.4766357068183
 10
91.15016409396594
 20
-141.4766357068183
 10
91.15016409396594
 20
-141.4766357068183
 97
        0
 97
        0
 75
     2
 76
     1
 98
        0
  0
SPLINE
  5
D5
330
CF
100
AcDbEntity
  8
_U+30EC_U+30A4_U+30E4_U+30FC 1
370
     0
100
AcDbSpline
210
0.0
220
0.0
230
1.0
 70
    11
 71
     3
 72
    32
 73
    28
 74
     0
 42
0.0000000001
 43
0.0000000001
 12
1.0
 22
0.0
 32
0.0
 13
1.0
 23
0.0
 33
0.0
 40
0.0
 40
0.0
 40
0.0
 40
0.0
 40
1.0
 40
1.0
 40
1.0
 40
2.0
 40
2.0
 40
2.0
 40
3.0
 40
3.0
 40
3.0
 40
4.0
 40
4.0
 40
4.0
 40
5.0
 40
5.0
 40
5.0
 40
6.0
 40
6.0
 40
6.0
 40
7.0
 40
7.0
 40
7.0
 40
8.0
 40
8.0
 40
8.0
 40
9.0
 40
9.0
 40
9.0
 40
9.0
 10
92.46498478591154
 20
-141.5272786104515
 30
0.0
 10
91.91308048917452
 20
-141.5272786104515
 30
0.0
 10
91.90412324091287
 20
-140.9733072564233
 30
0.0
 10
91.90412324091287
 20
-140.7593668267893
 30
0.0
 10
91.90412324091287
 20
-140.5288899388261
 30
0.0
 10
91.92444930427584
 20
-139.8815564971477
 30
0.0
 10
92.50563691263748
 20
-139.8815564971477
 30
0.0
 10
92.69098304974392
 20
-139.8815564971477
 30
0.0
 10
92.95315481617143
 20
-139.9514919354982
 30
0.0
 10
92.99380694289738
 20
-140.2835991402763
 30
0.0
 10
92.99380694289738
 20
-140.2835991402763
 30
0.0
 10
92.76539711222532
 20
-140.2835991402763
 30
0.0
 10
92.76539711222532
 20
-140.2835991402763
 30
0.0
 10
92.75437280667252
 20
-140.2264105552212
 30
0.0
 10
92.72026636136854
 20
-140.0782714493554
 30
0.0
 10
92.50322534579782
 20
-140.0782714493554
 30
0.0
 10
92.19109969483418
 20
-140.0782714493554
 30
0.0
 10
92.14838051081708
 20
-140.4062445395512
 30
0.0
 10
92.13460012887607
 20
-140.6112277209236
 30
0.0
 10
92.23416338839979
 20
-140.5330240534084
 30
0.0
 10
92.30651039359005
 20
-140.4737684110621
 30
0.0
 10
92.50081377895813
 20
-140.4737684110621
 30
0.0
 10
92.69305010703508
 20
-140.4737684110621
 30
0.0
 10
93.01654457310003
 20
-140.581944409299
 30
0.0
 10
93.01654457310003
 20
-140.9881211670099
 30
0.0
 10
93.01654457310003
 20
-141.3074815184926
 30
0.0
 10
92.80398218166012
 20
-141.5272786104515
 30
0.0
 10
92.46498478591154
 20
-141.5272786104515
 30
0.0
  0
SPLINE
  5
D6
330
CF
100
AcDbEntity
  8
_U+30EC_U+30A4_U+30E4_U+30FC 1
370
     0
100
AcDbSpline
210
0.0
220
0.0
230
1.0
 70
    11
 71
     3
 72
    17
 73
    13
 74
     0
 42
0.0000000001
 43
0.0000000001
 12
1.0
 22
0.0
 32
0.0
 13
1.0
 23
0.0
 33
0.0
 40
0.0
 40
0.0
 40
0.0
 40
0.0
 40
1.0
 40
1.0
 40
1.0
 40
2.0
 40
2.0
 40
2.0
 40
3.0
 40
3.0
 40
3.0
 40
4.0
 40
4.0
 40
4.0
 40
4.0
 10
92.48289928243483
 20
-140.6684163059787
 30
0.0
 10
92.2024685099355
 20
-140.6684163059787
 30
0.0
 10
92.16181638320955
 20
-140.8799451687731
 30
0.0
 10
92.16181638320955
 20
-140.9963893961745
 30
0.0
 10
92.16181638320955
 20
-141.1720892659223
 30
0.0
 10
92.26344670002442
 20
-141.3350422823746
 30
0.0
 10
92.46016165223219
 20
-141.3350422823746
 30
0.0
 10
92.58900822338053
 20
-141.3350422823746
 30
0.0
 10
92.77676592732665
 20
-141.2757866400283
 30
0.0
 10
92.77676592732665
 20
-140.9901882243011
 30
0.0
 10
92.77676592732665
 20
-140.7659125082113
 30
0.0
 10
92.62759329281533
 20
-140.6684163059787
 30
0.0
 10
92.48289928243483
 20
-140.6684163059787
 30
0.0
  0
HATCH
  5
D7
330
CF
100
AcDbEntity
  8
_U+30EC_U+30A4_U+30E4_U+30FC 1
 62
     7
420
 16777215
100
AcDbHatch
 10
0.0
 20
0.0
 30
0.0
210
0.0
220
0.0
230
1.0
  2
SOLID
 70
     1
 71
     0
 91
        2
 92
        1
 93
        1
 72
     4
 94
        3
 73
     0
 74
     1
 95
       32
 96
       28
 40
0.0
 40
0.0
 40
0.0
 40
0.0
 40
1.0
 40
1.0
 40
1.0
 40
2.0
 40
2.0
 40
2.0
 40
3.0
 40
3.0
 40
3.0
 40
4.0
 40
4.0
 40
4.0
 40
5.0
 40
5.0
 40
5.0
 40
6.0
 40
6.0
 40
6.0
 40
7.0
 40
7.0
 40
7.0
 40
8.0
 40
8.0
 40
8.0
 40
9.0
 40
9.0
 40
9.0
 40
9.0
 10
92.46498478591154
 20
-141.5272786104515
 10
91.91308048917452
 20
-141.5272786104515
 10
91.90412324091287
 20
-140.9733072564233
 10
91.90412324091287
 20
-140.7593668267893
 10
91.90412324091287
 20
-140.5288899388261
 10
91.92444930427584
 20
-139.8815564971477
 10
92.50563691263748
 20
-139.8815564971477
 10
92.69098304974392
 20
-139.8815564971477
 10
92.95315481617143
 20
-139.9514919354982
 10
92.99380694289738
 20
-140.2835991402763
 10
92.99380694289738
 20
-140.2835991402763
 10
92.76539711222532
 20
-140.2835991402763
 10
92.76539711222532
 20
-140.2835991402763
 10
92.75437280667252
 20
-140.2264105552212
 10
92.72026636136854
 20
-140.0782714493554
 10
92.50322534579782
 20
-140.0782714493554
 10
92.19109969483418
 20
-140.0782714493554
 10
92.14838051081708
 20
-140.4062445395512
 10
92.13460012887607
 20
-140.6112277209236
 10
92.23416338839979
 20
-140.5330240534084
 10
92.30651039359005
 20
-140.4737684110621
 10
92.50081377895813
 20
-140.4737684110621
 10
92.69305010703508
 20
-140.4737684110621
 10
93.01654457310003
 20
-140.581944409299
 10
93.01654457310003
 20
-140.9881211670099
 10
93.01654457310003
 20
-141.3074815184926
 10
92.80398218166012
 20
-141.5272786104515
 10
92.46498478591154
 20
-141.5272786104515
 97
        0
 97
        0
 92
        1
 93
        1
 72
     4
 94
        3
 73
     0
 74
     1
 95
       17
 96
       13
 40
0.0
 40
0.0
 40
0.0
 40
0.0
 40
1.0
 40
1.0
 40
1.0
 40
2.0
 40
2.0
 40
2.0
 40
3.0
 40
3.0
 40
3.0
 40
4.0
 40
4.0
 40
4.0
 40
4.0
 10
92.48289928243483
 20
-140.6684163059787
 10
92.2024685099355
 20
-140.6684163059787
 10
92.16181638320955
 20
-140.8799451687731
 10
92.16181638320955
 20
-140.9963893961745
 10
92.16181638320955
 20
-141.1720892659223
 10
92.26344670002442
 20
-141.3350422823746
 10
92.46016165223219
 20
-141.3350422823746
 10
92.58900822338053
 20
-141.3350422823746
 10
92.77676592732665
 20
-141.2757866400283
 10
92.77676592732665
 20
-140.9901882243011
 10
92.77676592732665
 20
-140.7659125082113
 10
92.62759329281533
 20
-140.6684163059787
 10
92.48289928243483
 20
-140.6684163059787
 97
        0
 97
        0
 75
     2
 76
     1
 98
        0
  0
ENDBLK
  5
D2
330
CF
100
AcDbEntity
  8
0
100
AcDbBlockEnd
  0
BLOCK
  5
E6
330
E4
100
AcDbEntity
  8
0
100
AcDbBlockBegin
  2
block 7
 70
     0
 10
0.0
 20
0.0
 30
0.0
  3
block 7
  1

  0
SPLINE
  5
E8
330
E4
100
AcDbEntity
  8
_U+30EC_U+30A4_U+30E4_U+30FC 1
370
     0
100
AcDbSpline
210
0.0
220
0.0
230
1.0
 70
    11
 71
     3
 72
    26
 73
    22
 74
     0
 42
0.0000000001
 43
0.0000000001
 12
1.0
 22
0.0
 32
0.0
 13
1.0
 23
0.0
 33
0.0
 40
0.0
 40
0.0
 40
0.0
 40
0.0
 40
1.0
 40
1.0
 40
1.0
 40
2.0
 40
2.0
 40
2.0
 40
3.0
 40
3.0
 40
3.0
 40
4.0
 40
4.0
 40
4.0
 40
5.0
 40
5.0
 40
5.0
 40
6.0
 40
6.0
 40
6.0
 40
7.0
 40
7.0
 40
7.0
 40
7.0
 10
103.2353868014481
 20
-132.7539984477143
 30
0.0
 10
103.2353868014481
 20
-132.7539984477143
 30
0.0
 10
102.1312336984255
 20
-132.7539984477143
 30
0.0
 10
102.1312336984255
 20
-132.7539984477143
 30
0.0
 10
102.1312336984255
 20
-132.7539984477143
 30
0.0
 10
102.1312336984255
 20
-133.1064317158553
 30
0.0
 10
102.1312336984255
 20
-133.1064317158553
 30
0.0
 10
102.1312336984255
 20
-133.1064317158553
 30
0.0
 10
101.9830945925598
 20
-133.1064317158553
 30
0.0
 10
101.9830945925598
 20
-133.1064317158553
 30
0.0
 10
101.9682806819732
 20
-132.7515868808746
 30
0.0
 10
101.8053276655209
 20
-132.701977505887
 30
0.0
 10
101.6909504954106
 20
-132.6702826274227
 30
0.0
 10
101.6909504954106
 20
-132.6702826274227
 30
0.0
 10
101.6909504954106
 20
-132.5142198019409
 30
0.0
 10
101.6909504954106
 20
-132.5142198019409
 30
0.0
 10
101.6909504954106
 20
-132.5142198019409
 30
0.0
 10
103.2353868014481
 20
-132.5142198019409
 30
0.0
 10
103.2353868014481
 20
-132.5142198019409
 30
0.0
 10
103.2353868014481
 20
-132.5142198019409
 30
0.0
 10
103.2353868014481
 20
-132.7539984477143
 30
0.0
 10
103.2353868014481
 20
-132.7539984477143
 30
0.0
  0
HATCH
  5
E9
330
E4
100
AcDbEntity
  8
_U+30EC_U+30A4_U+30E4_U+30FC 1
 62
     7
420
 16777215
100
AcDbHatch
 10
0.0
 20
0.0
 30
0.0
210
0.0
220
0.0
230
1.0
  2
SOLID
 70
     1
 71
     0
 91
        1
 92
        1
 93
        1
 72
     4
 94
        3
 73
     0
 74
     1
 95
       26
 96
       22
 40
0.0
 40
0.0
 40
0.0
 40
0.0
 40
1.0
 40
1.0
 40
1.0
 40
2.0
 40
2.0
 40
2.0
 40
3.0
 40
3.0
 40
3.0
 40
4.0
 40
4.0
 40
4.0
 40
5.0
 40
5.0
 40
5.0
 40
6.0
 40
6.0
 40
6.0
 40
7.0
 40
7.0
 40
7.0
 40
7.0
 10
103.2353868014481
 20
-132.7539984477143
 10
103.2353868014481
 20
-132.7539984477143
 10
102.1312336984255
 20
-132.7539984477143
 10
102.1312336984255
 20
-132.7539984477143
 10
102.1312336984255
 20
-132.7539984477143
 10
102.1312336984255
 20
-133.1064317158553
 10
102.1312336984255
 20
-133.1064317158553
 10
102.1312336984255
 20
-133.1064317158553
 10
101.9830945925598
 20
-133.1064317158553
 10
101.9830945925598
 20
-133.1064317158553
 10
101.9682806819732
 20
-132.7515868808746
 10
101.8053276655209
 20
-132.701977505887
 10
101.6909504954106
 20
-132.6702826274227
 10
101.6909504954106
 20
-132.6702826274227
 10
101.6909504954106
 20
-132.5142198019409
 10
101.6909504954106
 20
-132.5142198019409
 10
101.6909504954106
 20
-132.5142198019409
 10
103.2353868014481
 20
-132.5142198019409
 10
103.2353868014481
 20
-132.5142198019409
 10
103.2353868014481
 20
-132.5142198019409
 10
103.2353868014481
 20
-132.7539984477143
 10
103.2353868014481
 20
-132.7539984477143
 97
        0
 97
        0
 75
     2
 76
     1
 98
        0
  0
SPLINE
  5
EA
330
E4
100
AcDbEntity
  8
_U+30EC_U+30A4_U+30E4_U+30FC 1
370
     0
100
AcDbSpline
210
0.0
220
0.0
230
1.0
 70
    11
 71
     3
 72
    29
 73
    25
 74
     0
 42
0.0000000001
 43
0.0000000001
 12
1.0
 22
0.0
 32
0.0
 13
1.0
 23
0.0
 33
0.0
 40
0.0
 40
0.0
 40
0.0
 40
0.0
 40
1.0
 40
1.0
 40
1.0
 40
2.0
 40
2.0
 40
2.0
 40
3.0
 40
3.0
 40
3.0
 40
4.0
 40
4.0
 40
4.0
 40
5.0
 40
5.0
 40
5.0
 40
6.0
 40
6.0
 40
6.0
 40
7.0
 40
7.0
 40
7.0
 40
8.0
 40
8.0
 40
8.0
 40
8.0
 10
103.0576198744092
 20
-131.0190483613425
 30
0.0
 10
103.2670816799124
 20
-131.1344590600983
 30
0.0
 10
103.2860297050813
 20
-131.3198051972048
 30
0.0
 10
103.2860297050813
 20
-131.4441731442223
 30
0.0
 10
103.2860297050813
 20
-131.6157388993877
 30
0.0
 10
103.2395209160304
 20
-131.7673231007387
 30
0.0
 10
103.0576198744092
 20
-131.8689534175536
 30
0.0
 10
102.8629719794926
 20
-131.9798854921787
 30
0.0
 10
102.6259494101074
 20
-132.0002115555416
 30
0.0
 10
102.4633409032036
 20
-132.0002115555416
 30
0.0
 10
102.3193359119202
 20
-132.0002115555416
 30
0.0
 10
102.0674994319484
 20
-131.9819525494698
 30
0.0
 10
101.8687174224495
 20
-131.8689534175536
 30
0.0
 10
101.6658012983683
 20
-131.7538872283463
 30
0.0
 10
101.6423746490686
 20
-131.5819769636323
 30
0.0
 10
101.6423746490686
 20
-131.4441731442223
 30
0.0
 10
101.6423746490686
 20
-131.2743299367995
 30
0.0
 10
101.6868163808283
 20
-131.1206786781573
 30
0.0
 10
101.8687174224495
 20
-131.0190483613425
 30
0.0
 10
102.061298260075
 20
-130.9125949108482
 30
0.0
 10
102.289708090747
 20
-130.8877902233544
 30
0.0
 10
102.4633409032036
 20
-130.8877902233544
 30
0.0
 10
102.6345621488205
 20
-130.8877902233544
 30
0.0
 10
102.8650390367837
 20
-130.9105278535571
 30
0.0
 10
103.0576198744092
 20
-131.0190483613425
 30
0.0
  0
SPLINE
  5
EB
330
E4
100
AcDbEntity
  8
_U+30EC_U+30A4_U+30E4_U+30FC 1
370
     0
100
AcDbSpline
210
0.0
220
0.0
230
1.0
 70
    11
 71
     3
 72
    17
 73
    13
 74
     0
 42
0.0000000001
 43
0.0000000001
 12
1.0
 22
0.0
 32
0.0
 13
1.0
 23
0.0
 33
0.0
 40
0.0
 40
0.0
 40
0.0
 40
0.0
 40
1.0
 40
1.0
 40
1.0
 40
2.0
 40
2.0
 40
2.0
 40
3.0
 40
3.0
 40
3.0
 40
4.0
 40
4.0
 40
4.0
 40
4.0
 10
101.834955486694
 20
-131.4441731442223
 30
0.0
 10
101.834955486694
 20
-131.7108235347806
 30
0.0
 10
102.1184868451301
 20
-131.7604329097682
 30
0.0
 10
102.4633409032036
 20
-131.7604329097682
 30
0.0
 10
102.7827012546863
 20
-131.7604329097682
 30
0.0
 10
103.0913818101647
 20
-131.722192349882
 30
0.0
 10
103.0913818101647
 20
-131.4441731442223
 30
0.0
 10
103.0913818101647
 20
-131.1795898109551
 30
0.0
 10
102.8102620185683
 20
-131.1275688691278
 30
0.0
 10
102.4633409032036
 20
-131.1275688691278
 30
0.0
 10
102.1436360421724
 20
-131.1275688691278
 30
0.0
 10
101.834955486694
 20
-131.1682209958538
 30
0.0
 10
101.834955486694
 20
-131.4441731442223
 30
0.0
  0
HATCH
  5
EC
330
E4
100
AcDbEntity
  8
_U+30EC_U+30A4_U+30E4_U+30FC 1
 62
     7
420
 16777215
100
AcDbHatch
 10
0.0
 20
0.0
 30
0.0
210
0.0
220
0.0
230
1.0
  2
SOLID
 70
     1
 71
     0
 91
        2
 92
        1
 93
        1
 72
     4
 94
        3
 73
     0
 74
     1
 95
       29
 96
       25
 40
0.0
 40
0.0
 40
0.0
 40
0.0
 40
1.0
 40
1.0
 40
1.0
 40
2.0
 40
2.0
 40
2.0
 40
3.0
 40
3.0
 40
3.0
 40
4.0
 40
4.0
 40
4.0
 40
5.0
 40
5.0
 40
5.0
 40
6.0
 40
6.0
 40
6.0
 40
7.0
 40
7.0
 40
7.0
 40
8.0
 40
8.0
 40
8.0
 40
8.0
 10
103.0576198744092
 20
-131.0190483613425
 10
103.2670816799124
 20
-131.1344590600983
 10
103.2860297050813
 20
-131.3198051972048
 10
103.2860297050813
 20
-131.4441731442223
 10
103.2860297050813
 20
-131.6157388993877
 10
103.2395209160304
 20
-131.7673231007387
 10
103.0576198744092
 20
-131.8689534175536
 10
102.8629719794926
 20
-131.9798854921787
 10
102.6259494101074
 20
-132.0002115555416
 10
102.4633409032036
 20
-132.0002115555416
 10
102.3193359119202
 20
-132.0002115555416
 10
102.0674994319484
 20
-131.9819525494698
 10
101.8687174224495
 20
-131.8689534175536
 10
101.6658012983683
 20
-131.7538872283463
 10
101.6423746490686
 20
-131.5819769636323
 10
101.6423746490686
 20
-131.4441731442223
 10
101.6423746490686
 20
-131.2743299367995
 10
101.6868163808283
 20
-131.1206786781573
 10
101.8687174224495
 20
-131.0190483613425
 10
102.061298260075
 20
-130.9125949108482
 10
102.289708090747
 20
-130.8877902233544
 10
102.4633409032036
 20
-130.8877902233544
 10
102.6345621488205
 20
-130.8877902233544
 10
102.8650390367837
 20
-130.9105278535571
 10
103.0576198744092
 20
-131.0190483613425
 97
        0
 97
        0
 92
        1
 93
        1
 72
     4
 94
        3
 73
     0
 74
     1
 95
       17
 96
       13
 40
0.0
 40
0.0
 40
0.0
 40
0.0
 40
1.0
 40
1.0
 40
1.0
 40
2.0
 40
2.0
 40
2.0
 40
3.0
 40
3.0
 40
3.0
 40
4.0
 40
4.0
 40
4.0
 40
4.0
 10
101.834955486694
 20
-131.4441731442223
 10
101.834955486694
 20
-131.7108235347806
 10
102.1184868451301
 20
-131.7604329097682
 10
102.4633409032036
 20
-131.7604329097682
 10
102.7827012546863
 20
-131.7604329097682
 10
103.0913818101647
 20
-131.722192349882
 10
103.0913818101647
 20
-131.4441731442223
 10
103.0913818101647
 20
-131.1795898109551
 10
102.8102620185683
 20
-131.1275688691278
 10
102.4633409032036
 20
-131.1275688691278
 10
102.1436360421724
 20
-131.1275688691278
 10
101.834955486694
 20
-131.1682209958538
 10
101.834955486694
 20
-131.4441731442223
 97
        0
 97
        0
 75
     2
 76
     1
 98
        0
  0
ENDBLK
  5
E7
330
E4
100
AcDbEntity
  8
0
100
AcDbBlockEnd
  0
ENDSEC
  0
SECTION
  2
ENTITIES
  0
POLYLINE
  5
41
330
1F
100
AcDbEntity
  8
_U+30EC_U+30A4_U+30E4_U+30FC 1
 62
     7
420
 16777215
370
    25
100
AcDb2dPolyline
 66
     1
 10
0.0
 20
0.0
 30
0.0
  0
VERTEX
  5
42
330
41
100
AcDbEntity
  8
_U+30EC_U+30A4_U+30E4_U+30FC 1
 62
     7
420
 16777215
370
    25
100
AcDbVertex
100
AcDb2dVertex
 10
84.8316939468743
 20
-137.0727580212874
 30
0.0
  0
VERTEX
  5
43
330
41
100
AcDbEntity
  8
_U+30EC_U+30A4_U+30E4_U+30FC 1
 62
     7
420
 16777215
370
    25
100
AcDbVertex
100
AcDb2dVertex
 10
99.83198106418509
 20
-137.0727580212874
 30
0.0
  0
SEQEND
  5
44
330
41
100
AcDbEntity
  8
_U+30EC_U+30A4_U+30E4_U+30FC 1
 62
     7
420
 16777215
370
    25
  0
POLYLINE
  5
45
330
1F
100
AcDbEntity
  8
_U+30EC_U+30A4_U+30E4_U+30FC 1
 62
     7
420
 16777215
370
    25
100
AcDb2dPolyline
 66
     1
 10
0.0
 20
0.0
 30
0.0
  0
VERTEX
  5
46
330
45
100
AcDbEntity
  8
_U+30EC_U+30A4_U+30E4_U+30FC 1
 62
     7
420
 16777215
370
    25
100
AcDbVertex
100
AcDb2dVertex
 10
84.8316939468743
 20
-126.9865591349201
 30
0.0
  0
VERTEX
  5
47
330
45
100
AcDbEntity
  8
_U+30EC_U+30A4_U+30E4_U+30FC 1
 62
     7
420
 16777215
370
    25
100
AcDbVertex
100
AcDb2dVertex
 10
99.83198106418509
 20
-126.9865591349201
 30
0.0
  0
SEQEND
  5
48
330
45
100
AcDbEntity
  8
_U+30EC_U+30A4_U+30E4_U+30FC 1
 62
     7
420
 16777215
370
    25
  0
POLYLINE
  5
49
330
1F
100
AcDbEntity
  8
_U+30EC_U+30A4_U+30E4_U+30FC 1
 62
     7
420
 16777215
370
    25
100
AcDb2dPolyline
 66
     1
 10
0.0
 20
0.0
 30
0.0
  0
VERTEX
  5
4A
330
49
100
AcDbEntity
  8
_U+30EC_U+30A4_U+30E4_U+30FC 1
 62
     7
420
 16777215
370
    25
100
AcDbVertex
100
AcDb2dVertex
 10
84.95915255473366
 20
-138.0732357988149
 30
0.0
  0
VERTEX
  5
4B
330
49
100
AcDbEntity
  8
_U+30EC_U+30A4_U+30E4_U+30FC 1
 62
     7
420
 16777215
370
    25
100
AcDbVertex
100
AcDb2dVertex
 10
98.83150331193163
 20
-138.0732357988149
 30
0.0
  0
SEQEND
  5
4C
330
49
100
AcDbEntity
  8
_U+30EC_U+30A4_U+30E4_U+30FC 1
 62
     7
420
 16777215
370
    25
  0
POLYLINE
  5
4D
330
1F
100
AcDbEntity
  8
_U+30EC_U+30A4_U+30E4_U+30FC 1
 62
     7
420
 16777215
370
    25
100
AcDb2dPolyline
 66
     1
 10
0.0
 20
0.0
 30
0.0
  0
VERTEX
  5
4E
330
4D
100
AcDbEntity
  8
_U+30EC_U+30A4_U+30E4_U+30FC 1
 62
     7
420
 16777215
370
    25
100
AcDbVertex
100
AcDb2dVertex
 10
83.83121619462084
 20
-122.5809644137993
 30
0.0
  0
VERTEX
  5
4F
330
4D
100
AcDbEntity
  8
_U+30EC_U+30A4_U+30E4_U+30FC 1
 62
     7
420
 16777215
370
    25
100
AcDbVertex
100
AcDb2dVertex
 10
83.83121619462084
 20
-137.1244399657186
 30
0.0
  0
SEQEND
  5
50
330
4D
100
AcDbEntity
  8
_U+30EC_U+30A4_U+30E4_U+30FC 1
 62
     7
420
 16777215
370
    25
  0
POLYLINE
  5
51
330
1F
100
AcDbEntity
  8
_U+30EC_U+30A4_U+30E4_U+30FC 1
 62
     7
420
 16777215
370
    25
100
AcDb2dPolyline
 66
     1
 10
0.0
 20
0.0
 30
0.0
  0
VERTEX
  5
52
330
51
100
AcDbEntity
  8
_U+30EC_U+30A4_U+30E4_U+30FC 1
 62
     7
420
 16777215
370
    25
100
AcDbVertex
100
AcDb2dVertex
 10
84.8316939468743
 20
-121.4864713585174
 30
0.0
  0
VERTEX
  5
53
330
51
100
AcDbEntity
  8
_U+30EC_U+30A4_U+30E4_U+30FC 1
 62
     7
420
 16777215
370
    25
100
AcDbVertex
100
AcDb2dVertex
 10
84.8316939468743
 20
-125.986469412948
 30
0.0
  0
SEQEND
  5
54
330
51
100
AcDbEntity
  8
_U+30EC_U+30A4_U+30E4_U+30FC 1
 62
     7
420
 16777215
370
    25
  0
POLYLINE
  5
55
330
1F
100
AcDbEntity
  8
_U+30EC_U+30A4_U+30E4_U+30FC 1
 62
     7
420
 16777215
370
    25
100
AcDb2dPolyline
 66
     1
 10
0.0
 20
0.0
 30
0.0
  0
VERTEX
  5
56
330
55
100
AcDbEntity
  8
_U+30EC_U+30A4_U+30E4_U+30FC 1
 62
     7
420
 16777215
370
    25
100
AcDbVertex
100
AcDb2dVertex
 10
84.8316939468743
 20
-125.986469412948
 30
0.0
  0
VERTEX
  5
57
330
55
100
AcDbEntity
  8
_U+30EC_U+30A4_U+30E4_U+30FC 1
 62
     7
420
 16777215
370
    25
100
AcDbVertex
100
AcDb2dVertex
 10
105.8319548000019
 20
-125.986469412948
 30
0.0
  0
SEQEND
  5
58
330
55
100
AcDbEntity
  8
_U+30EC_U+30A4_U+30E4_U+30FC 1
 62
     7
420
 16777215
370
    25
  0
POLYLINE
  5
59
330
1F
100
AcDbEntity
  8
_U+30EC_U+30A4_U+30E4_U+30FC 1
 62
     7
420
 16777215
370
    25
100
AcDb2dPolyline
 66
     1
 10
0.0
 20
0.0
 30
0.0
  0
VERTEX
  5
5A
330
59
100
AcDbEntity
  8
_U+30EC_U+30A4_U+30E4_U+30FC 1
 62
     7
420
 16777215
370
    25
100
AcDbVertex
100
AcDb2dVertex
 10
84.8316939468743
 20
-127.1088671904451
 30
0.0
  0
VERTEX
  5
5B
330
59
100
AcDbEntity
  8
_U+30EC_U+30A4_U+30E4_U+30FC 1
 62
     7
420
 16777215
370
    25
100
AcDbVertex
100
AcDb2dVertex
 10
84.8316939468743
 20
-137.0727580212874
 30
0.0
  0
SEQEND
  5
5C
330
59
100
AcDbEntity
  8
_U+30EC_U+30A4_U+30E4_U+30FC 1
 62
     7
420
 16777215
370
    25
  0
POLYLINE
  5
5D
330
1F
100
AcDbEntity
  8
_U+30EC_U+30A4_U+30E4_U+30FC 1
 62
     7
420
 16777215
370
    25
100
AcDb2dPolyline
 66
     1
 10
0.0
 20
0.0
 30
0.0
  0
VERTEX
  5
5E
330
5D
100
AcDbEntity
  8
_U+30EC_U+30A4_U+30E4_U+30FC 1
 62
     7
420
 16777215
370
    25
100
AcDbVertex
100
AcDb2dVertex
 10
100.3514816064871
 20
-126.6864863572174
 30
0.0
  0
VERTEX
  5
5F
330
5D
100
AcDbEntity
  8
_U+30EC_U+30A4_U+30E4_U+30FC 1
 62
     7
420
 16777215
370
    25
100
AcDbVertex
100
AcDb2dVertex
 10
105.1319025956395
 20
-126.6864863572174
 30
0.0
  0
SEQEND
  5
60
330
5D
100
AcDbEntity
  8
_U+30EC_U+30A4_U+30E4_U+30FC 1
 62
     7
420
 16777215
370
    25
  0
POLYLINE
  5
61
330
1F
100
AcDbEntity
  8
_U+30EC_U+30A4_U+30E4_U+30FC 1
 62
     7
420
 16777215
370
    25
100
AcDb2dPolyline
 66
     1
 10
0.0
 20
0.0
 30
0.0
  0
VERTEX
  5
62
330
61
100
AcDbEntity
  8
_U+30EC_U+30A4_U+30E4_U+30FC 1
 62
     7
420
 16777215
370
    25
100
AcDbVertex
100
AcDb2dVertex
 10
99.83198106418509
 20
-126.9865591349201
 30
0.0
  0
VERTEX
  5
63
330
61
100
AcDbEntity
  8
_U+30EC_U+30A4_U+30E4_U+30FC 1
 62
     7
420
 16777215
370
    25
100
AcDbVertex
100
AcDb2dVertex
 10
100.3514816064871
 20
-126.6864863572174
 30
0.0
  0
SEQEND
  5
64
330
61
100
AcDbEntity
  8
_U+30EC_U+30A4_U+30E4_U+30FC 1
 62
     7
420
 16777215
370
    25
  0
POLYLINE
  5
65
330
1F
100
AcDbEntity
  8
_U+30EC_U+30A4_U+30E4_U+30FC 1
 62
     7
420
 16777215
370
     9
100
AcDb2dPolyline
 66
     1
 10
0.0
 20
0.0
 30
0.0
  0
VERTEX
  5
66
330
65
100
AcDbEntity
  8
_U+30EC_U+30A4_U+30E4_U+30FC 1
 62
     7
420
 16777215
370
     9
100
AcDbVertex
100
AcDb2dVertex
 10
84.12405702048318
 20
-137.7800421877772
 30
0.0
  0
VERTEX
  5
67
330
65
100
AcDbEntity
  8
_U+30EC_U+30A4_U+30E4_U+30FC 1
 62
     7
420
 16777215
370
     9
100
AcDbVertex
100
AcDb2dVertex
 10
79.83145712999652
 20
-142.0729949644818
 30
0.0
  0
SEQEND
  5
68
330
65
100
AcDbEntity
  8
_U+30EC_U+30A4_U+30E4_U+30FC 1
 62
     7
420
 16777215
370
     9
  0
POLYLINE
  5
69
330
1F
100
AcDbEntity
  8
_U+30EC_U+30A4_U+30E4_U+30FC 1
 62
     7
420
 16777215
370
     9
100
AcDb2dPolyline
 66
     1
 10
0.0
 20
0.0
 30
0.0
  0
VERTEX
  5
6A
330
69
100
AcDbEntity
  8
_U+30EC_U+30A4_U+30E4_U+30FC 1
 62
     7
420
 16777215
370
     9
100
AcDbVertex
100
AcDb2dVertex
 10
75.61950223745244
 20
-142.0729949644818
 30
0.0
  0
VERTEX
  5
6B
330
69
100
AcDbEntity
  8
_U+30EC_U+30A4_U+30E4_U+30FC 1
 62
     7
420
 16777215
370
     9
100
AcDbVertex
100
AcDb2dVertex
 10
79.83145712999652
 20
-142.0729949644818
 30
0.0
  0
SEQEND
  5
6C
330
69
100
AcDbEntity
  8
_U+30EC_U+30A4_U+30E4_U+30FC 1
 62
     7
420
 16777215
370
     9
  0
POLYLINE
  5
6D
330
1F
100
AcDbEntity
  8
_U+30EC_U+30A4_U+30E4_U+30FC 1
 62
     7
420
 16777215
370
     9
100
AcDb2dPolyline
 66
     1
 10
0.0
 20
0.0
 30
0.0
  0
VERTEX
  5
6E
330
6D
100
AcDbEntity
  8
_U+30EC_U+30A4_U+30E4_U+30FC 1
 62
     7
420
 16777215
370
     9
100
AcDbVertex
100
AcDb2dVertex
 10
84.12405702048318
 20
-137.7800421877772
 30
0.0
  0
VERTEX
  5
6F
330
6D
100
AcDbEntity
  8
_U+30EC_U+30A4_U+30E4_U+30FC 1
 62
     7
420
 16777215
370
     9
100
AcDbVertex
100
AcDb2dVertex
 10
82.82527038695132
 20
-138.5300477431454
 30
0.0
  0
SEQEND
  5
70
330
6D
100
AcDbEntity
  8
_U+30EC_U+30A4_U+30E4_U+30FC 1
 62
     7
420
 16777215
370
     9
  0
POLYLINE
  5
71
330
1F
100
AcDbEntity
  8
_U+30EC_U+30A4_U+30E4_U+30FC 1
 62
     7
420
 16777215
370
     9
100
AcDb2dPolyline
 66
     1
 10
0.0
 20
0.0
 30
0.0
  0
VERTEX
  5
72
330
71
100
AcDbEntity
  8
_U+30EC_U+30A4_U+30E4_U+30FC 1
 62
     7
420
 16777215
370
     9
100
AcDbVertex
100
AcDb2dVertex
 10
84.12405702048318
 20
-137.7800421877772
 30
0.0
  0
VERTEX
  5
73
330
71
100
AcDbEntity
  8
_U+30EC_U+30A4_U+30E4_U+30FC 1
 62
     7
420
 16777215
370
     9
100
AcDbVertex
100
AcDb2dVertex
 10
83.37440426183063
 20
-139.0791816318969
 30
0.0
  0
SEQEND
  5
74
330
71
100
AcDbEntity
  8
_U+30EC_U+30A4_U+30E4_U+30FC 1
 62
     7
420
 16777215
370
     9
  0
SPLINE
  5
75
330
1F
100
AcDbEntity
  8
_U+30EC_U+30A4_U+30E4_U+30FC 1
 62
     7
420
 16777215
370
    25
100
AcDbSpline
210
0.0
220
0.0
230
1.0
 70
     8
 71
     3
 72
     8
 73
     4
 74
     0
 42
0.0000000001
 43
0.0000000001
 12
1.0
 22
0.0
 32
0.0
 13
1.0
 23
0.0
 33
0.0
 40
0.0
 40
0.0
 40
0.0
 40
0.0
 40
1.0
 40
1.0
 40
1.0
 40
1.0
 10
83.83121619462084
 20
-137.0727580212874
 30
0.0
 10
83.83121619462084
 20
-137.6253491322603
 30
0.0
 10
84.27910284986096
 20
-138.0732357988149
 30
0.0
 10
84.8316939468743
 20
-138.0732357988149
 30
0.0
  0
SPLINE
  5
76
330
1F
100
AcDbEntity
  8
_U+30EC_U+30A4_U+30E4_U+30FC 1
 62
     7
420
 16777215
370
    25
100
AcDbSpline
210
0.0
220
0.0
230
1.0
 70
     8
 71
     3
 72
     8
 73
     4
 74
     0
 42
0.0000000001
 43
0.0000000001
 12
1.0
 22
0.0
 32
0.0
 13
1.0
 23
0.0
 33
0.0
 40
0.0
 40
0.0
 40
0.0
 40
0.0
 40
1.0
 40
1.0
 40
1.0
 40
1.0
 10
84.8316939468743
 20
-121.4864713585174
 30
0.0
 10
84.27910284986096
 20
-121.4864713585174
 30
0.0
 10
83.83121619462084
 20
-121.9343227472941
 30
0.0
 10
83.83121619462084
 20
-122.4865963582674
 30
0.0
  0
SPLINE
  5
77
330
1F
100
AcDbEntity
  8
_U+30EC_U+30A4_U+30E4_U+30FC 1
 62
     7
420
 16777215
370
    25
100
AcDbSpline
210
0.0
220
0.0
230
1.0
 70
     8
 71
     3
 72
     8
 73
     4
 74
     0
 42
0.0000000001
 43
0.0000000001
 12
1.0
 22
0.0
 32
0.0
 13
1.0
 23
0.0
 33
0.0
 40
0.0
 40
0.0
 40
0.0
 40
0.0
 40
1.0
 40
1.0
 40
1.0
 40
1.0
 10
98.83150331193163
 20
-138.0732357988149
 30
0.0
 10
99.38412968672183
 20
-138.0732357988149
 30
0.0
 10
99.83198106418509
 20
-137.6253491322603
 30
0.0
 10
99.83198106418509
 20
-137.0727580212874
 30
0.0
  0
SPLINE
  5
78
330
1F
100
AcDbEntity
  8
_U+30EC_U+30A4_U+30E4_U+30FC 1
 62
     7
420
 16777215
370
    25
100
AcDbSpline
210
0.0
220
0.0
230
1.0
 70
     8
 71
     3
 72
     8
 73
     4
 74
     0
 42
0.0000000001
 43
0.0000000001
 12
1.0
 22
0.0
 32
0.0
 13
1.0
 23
0.0
 33
0.0
 40
0.0
 40
0.0
 40
0.0
 40
0.0
 40
1.0
 40
1.0
 40
1.0
 40
1.0
 10
105.1319025956395
 20
-126.6864863572174
 30
0.0
 10
105.5184411968892
 20
-126.6864863572174
 30
0.0
 10
105.8319548000019
 20
-126.3730080239624
 30
0.0
 10
105.8319548000019
 20
-125.986469412948
 30
0.0
  0
SPLINE
  5
79
330
1F
100
AcDbEntity
  8
_U+30EC_U+30A4_U+30E4_U+30FC 1
 62
     7
420
 16777215
370
     9
100
AcDbSpline
210
0.0
220
0.0
230
1.0
 70
    11
 71
     3
 72
    17
 73
    13
 74
     0
 42
0.0000000001
 43
0.0000000001
 12
1.0
 22
0.0
 32
0.0
 13
1.0
 23
0.0
 33
0.0
 40
0.0
 40
0.0
 40
0.0
 40
0.0
 40
1.0
 40
1.0
 40
1.0
 40
2.0
 40
2.0
 40
2.0
 40
3.0
 40
3.0
 40
3.0
 40
4.0
 40
4.0
 40
4.0
 40
4.0
 10
105.9318614641197
 20
-117.4212719150892
 30
0.0
 10
105.9318614641197
 20
-117.3661327484361
 30
0.0
 10
105.887058687485
 20
-117.3213652484476
 30
0.0
 10
105.8319548000019
 20
-117.3213652484476
 30
0.0
 10
105.776815634742
 20
-117.3213652484476
 30
0.0
 10
105.7320481358841
 20
-117.3661327484361
 30
0.0
 10
105.7320481358841
 20
-117.4212719150892
 30
0.0
 10
105.7320481358841
 20
-117.4763758039641
 30
0.0
 10
105.776815634742
 20
-117.5211785817309
 30
0.0
 10
105.8319548000019
 20
-117.5211785817309
 30
0.0
 10
105.887058687485
 20
-117.5211785817309
 30
0.0
 10
105.9318614641197
 20
-117.4763758039641
 30
0.0
 10
105.9318614641197
 20
-117.4212719150892
 30
0.0
  0
SPLINE
  5
7A
330
1F
100
AcDbEntity
  8
_U+30EC_U+30A4_U+30E4_U+30FC 1
 62
     7
420
 16777215
370
     9
100
AcDbSpline
210
0.0
220
0.0
230
1.0
 70
    11
 71
     3
 72
    17
 73
    13
 74
     0
 42
0.0000000001
 43
0.0000000001
 12
1.0
 22
0.0
 32
0.0
 13
1.0
 23
0.0
 33
0.0
 40
0.0
 40
0.0
 40
0.0
 40
0.0
 40
1.0
 40
1.0
 40
1.0
 40
2.0
 40
2.0
 40
2.0
 40
3.0
 40
3.0
 40
3.0
 40
4.0
 40
4.0
 40
4.0
 40
4.0
 10
85.03150727510996
 20
-117.4212719150892
 30
0.0
 10
85.03150727510996
 20
-117.3661327484361
 30
0.0
 10
84.9867044984752
 20
-117.3213652484476
 30
0.0
 10
84.93160275654495
 20
-117.3213652484476
 30
0.0
 10
84.87646144573218
 20
-117.3213652484476
 30
0.0
 10
84.8316939468743
 20
-117.3661327484361
 30
0.0
 10
84.8316939468743
 20
-117.4212719150892
 30
0.0
 10
84.8316939468743
 20
-117.4763758039641
 30
0.0
 10
84.87646144573218
 20
-117.5211785817309
 30
0.0
 10
84.93160275654495
 20
-117.5211785817309
 30
0.0
 10
84.9867044984752
 20
-117.5211785817309
 30
0.0
 10
85.03150727510996
 20
-117.4763758039641
 30
0.0
 10
85.03150727510996
 20
-117.4212719150892
 30
0.0
  0
SPLINE
  5
7B
330
1F
100
AcDbEntity
  8
_U+30EC_U+30A4_U+30E4_U+30FC 1
 62
     7
420
 16777215
370
     9
100
AcDbSpline
210
0.0
220
0.0
230
1.0
 70
    11
 71
     3
 72
    17
 73
    13
 74
     0
 42
0.0000000001
 43
0.0000000001
 12
1.0
 22
0.0
 32
0.0
 13
1.0
 23
0.0
 33
0.0
 40
0.0
 40
0.0
 40
0.0
 40
0.0
 40
1.0
 40
1.0
 40
1.0
 40
2.0
 40
2.0
 40
2.0
 40
3.0
 40
3.0
 40
3.0
 40
4.0
 40
4.0
 40
4.0
 40
4.0
 10
83.93112497901721
 20
-123.9865721912254
 30
0.0
 10
83.93112497901721
 20
-123.9314683023505
 30
0.0
 10
83.88635535988078
 20
-123.8866655245838
 30
0.0
 10
83.83121619462084
 20
-123.8866655245838
 30
0.0
 10
83.77611230713777
 20
-123.8866655245838
 30
0.0
 10
83.731309530503
 20
-123.9314683023505
 30
0.0
 10
83.731309530503
 20
-123.9865721912254
 30
0.0
 10
83.731309530503
 20
-124.0420288578784
 30
0.0
 10
83.77611230713777
 20
-124.0868316356449
 30
0.0
 10
83.83121619462084
 20
-124.0868316356449
 30
0.0
 10
83.88635535988078
 20
-124.0868316356449
 30
0.0
 10
83.93112497901721
 20
-124.0420288578784
 30
0.0
 10
83.93112497901721
 20
-123.9865721912254
 30
0.0
  0
SPLINE
  5
7C
330
1F
100
AcDbEntity
  8
_U+30EC_U+30A4_U+30E4_U+30FC 1
 62
     7
420
 16777215
370
     9
100
AcDbSpline
210
0.0
220
0.0
230
1.0
 70
    11
 71
     3
 72
    17
 73
    13
 74
     0
 42
0.0000000001
 43
0.0000000001
 12
1.0
 22
0.0
 32
0.0
 13
1.0
 23
0.0
 33
0.0
 40
0.0
 40
0.0
 40
0.0
 40
0.0
 40
1.0
 40
1.0
 40
1.0
 40
2.0
 40
2.0
 40
2.0
 40
3.0
 40
3.0
 40
3.0
 40
4.0
 40
4.0
 40
4.0
 40
4.0
 10
84.93160275654495
 20
-123.9865721912254
 30
0.0
 10
84.93160275654495
 20
-123.9314683023505
 30
0.0
 10
84.88679997877823
 20
-123.8866655245838
 30
0.0
 10
84.8316939468743
 20
-123.8866655245838
 30
0.0
 10
84.77588450385366
 20
-123.8866655245838
 30
0.0
 10
84.7310817272189
 20
-123.9314683023505
 30
0.0
 10
84.7310817272189
 20
-123.9865721912254
 30
0.0
 10
84.7310817272189
 20
-124.0420288578784
 30
0.0
 10
84.77588450385366
 20
-124.0868316356449
 30
0.0
 10
84.8316939468743
 20
-124.0868316356449
 30
0.0
 10
84.88679997877823
 20
-124.0868316356449
 30
0.0
 10
84.93160275654495
 20
-124.0420288578784
 30
0.0
 10
84.93160275654495
 20
-123.9865721912254
 30
0.0
  0
SPLINE
  5
7D
330
1F
100
AcDbEntity
  8
_U+30EC_U+30A4_U+30E4_U+30FC 1
 62
     7
420
 16777215
370
     9
100
AcDbSpline
210
0.0
220
0.0
230
1.0
 70
    11
 71
     3
 72
    17
 73
    13
 74
     0
 42
0.0000000001
 43
0.0000000001
 12
1.0
 22
0.0
 32
0.0
 13
1.0
 23
0.0
 33
0.0
 40
0.0
 40
0.0
 40
0.0
 40
0.0
 40
1.0
 40
1.0
 40
1.0
 40
2.0
 40
2.0
 40
2.0
 40
3.0
 40
3.0
 40
3.0
 40
4.0
 40
4.0
 40
4.0
 40
4.0
 10
79.93136379411436
 20
-138.0732357988149
 30
0.0
 10
79.93136379411436
 20
-138.0177438543847
 30
0.0
 10
79.88659629525647
 20
-137.9729763543955
 30
0.0
 10
79.83145712999652
 20
-137.9729763543955
 30
0.0
 10
79.77635324251345
 20
-137.9729763543955
 30
0.0
 10
79.73155046587868
 20
-138.0177438543847
 30
0.0
 10
79.73155046587868
 20
-138.0732357988149
 30
0.0
 10
79.73155046587868
 20
-138.1283396876904
 30
0.0
 10
79.77635324251345
 20
-138.1731424654565
 30
0.0
 10
79.83145712999652
 20
-138.1731424654565
 30
0.0
 10
79.88659629525647
 20
-138.1731424654565
 30
0.0
 10
79.93136379411436
 20
-138.1283396876904
 30
0.0
 10
79.93136379411436
 20
-138.0732357988149
 30
0.0
  0
SPLINE
  5
7E
330
1F
100
AcDbEntity
  8
_U+30EC_U+30A4_U+30E4_U+30FC 1
 62
     7
420
 16777215
370
     9
100
AcDbSpline
210
0.0
220
0.0
230
1.0
 70
    11
 71
     3
 72
    17
 73
    13
 74
     0
 42
0.0000000001
 43
0.0000000001
 12
1.0
 22
0.0
 32
0.0
 13
1.0
 23
0.0
 33
0.0
 40
0.0
 40
0.0
 40
0.0
 40
0.0
 40
1.0
 40
1.0
 40
1.0
 40
2.0
 40
2.0
 40
2.0
 40
3.0
 40
3.0
 40
3.0
 40
4.0
 40
4.0
 40
4.0
 40
4.0
 10
79.93136379411436
 20
-122.0728233028151
 30
0.0
 10
79.93136379411436
 20
-122.0177194139402
 30
0.0
 10
79.88659629525647
 20
-121.9729166361734
 30
0.0
 10
79.83145712999652
 20
-121.9729166361734
 30
0.0
 10
79.77635324251345
 20
-121.9729166361734
 30
0.0
 10
79.73155046587868
 20
-122.0177194139402
 30
0.0
 10
79.73155046587868
 20
-122.0728233028151
 30
0.0
 10
79.73155046587868
 20
-122.1286327472455
 30
0.0
 10
79.77635324251345
 20
-122.1734355250122
 30
0.0
 10
79.83145712999652
 20
-122.1734355250122
 30
0.0
 10
79.88659629525647
 20
-122.1734355250122
 30
0.0
 10
79.93136379411436
 20
-122.1286327472455
 30
0.0
 10
79.93136379411436
 20
-122.0728233028151
 30
0.0
  0
SPLINE
  5
7F
330
1F
100
AcDbEntity
  8
_U+30EC_U+30A4_U+30E4_U+30FC 1
 62
     7
420
 16777215
370
     9
100
AcDbSpline
210
0.0
220
0.0
230
1.0
 70
    11
 71
     3
 72
    17
 73
    13
 74
     0
 42
0.0000000001
 43
0.0000000001
 12
1.0
 22
0.0
 32
0.0
 13
1.0
 23
0.0
 33
0.0
 40
0.0
 40
0.0
 40
0.0
 40
0.0
 40
1.0
 40
1.0
 40
1.0
 40
2.0
 40
2.0
 40
2.0
 40
3.0
 40
3.0
 40
3.0
 40
4.0
 40
4.0
 40
4.0
 40
4.0
 10
99.93188772830293
 20
-142.0729949644818
 30
0.0
 10
99.93188772830293
 20
-142.0178557978287
 30
0.0
 10
99.88708495166816
 20
-141.9730882978401
 30
0.0
 10
99.83198106418509
 20
-141.9730882978401
 30
0.0
 10
99.77684441950035
 20
-141.9730882978401
 30
0.0
 10
99.73207440006725
 20
-142.0178557978287
 30
0.0
 10
99.73207440006725
 20
-142.0729949644818
 30
0.0
 10
99.73207440006725
 20
-142.1280988533566
 30
0.0
 10
99.77684441950035
 20
-142.1729016311234
 30
0.0
 10
99.83198106418509
 20
-142.1729016311234
 30
0.0
 10
99.88708495166816
 20
-142.1729016311234
 30
0.0
 10
99.93188772830293
 20
-142.1280988533566
 30
0.0
 10
99.93188772830293
 20
-142.0729949644818
 30
0.0
  0
SPLINE
  5
80
330
1F
100
AcDbEntity
  8
_U+30EC_U+30A4_U+30E4_U+30FC 1
 62
     7
420
 16777215
370
     9
100
AcDbSpline
210
0.0
220
0.0
230
1.0
 70
    11
 71
     3
 72
    17
 73
    13
 74
     0
 42
0.0000000001
 43
0.0000000001
 12
1.0
 22
0.0
 32
0.0
 13
1.0
 23
0.0
 33
0.0
 40
0.0
 40
0.0
 40
0.0
 40
0.0
 40
1.0
 40
1.0
 40
1.0
 40
2.0
 40
2.0
 40
2.0
 40
3.0
 40
3.0
 40
3.0
 40
4.0
 40
4.0
 40
4.0
 40
4.0
 10
83.93112497901721
 20
-142.0729949644818
 30
0.0
 10
83.93112497901721
 20
-142.0178557978287
 30
0.0
 10
83.88635535988078
 20
-141.9730882978401
 30
0.0
 10
83.83121619462084
 20
-141.9730882978401
 30
0.0
 10
83.77611230713777
 20
-141.9730882978401
 30
0.0
 10
83.731309530503
 20
-142.0178557978287
 30
0.0
 10
83.731309530503
 20
-142.0729949644818
 30
0.0
 10
83.731309530503
 20
-142.1280988533566
 30
0.0
 10
83.77611230713777
 20
-142.1729016311234
 30
0.0
 10
83.83121619462084
 20
-142.1729016311234
 30
0.0
 10
83.88635535988078
 20
-142.1729016311234
 30
0.0
 10
83.93112497901721
 20
-142.1280988533566
 30
0.0
 10
83.93112497901721
 20
-142.0729949644818
 30
0.0
  0
SPLINE
  5
81
330
1F
100
AcDbEntity
  8
_U+30EC_U+30A4_U+30E4_U+30FC 1
 62
     7
420
 16777215
370
     9
100
AcDbSpline
210
0.0
220
0.0
230
1.0
 70
    11
 71
     3
 72
    17
 73
    13
 74
     0
 42
0.0000000001
 43
0.0000000001
 12
1.0
 22
0.0
 32
0.0
 13
1.0
 23
0.0
 33
0.0
 40
0.0
 40
0.0
 40
0.0
 40
0.0
 40
1.0
 40
1.0
 40
1.0
 40
2.0
 40
2.0
 40
2.0
 40
3.0
 40
3.0
 40
3.0
 40
4.0
 40
4.0
 40
4.0
 40
4.0
 10
103.9316467929272
 20
-127.0723546904542
 30
0.0
 10
103.9316467929272
 20
-127.0172155238014
 30
0.0
 10
103.8868440162925
 20
-126.9724480238125
 30
0.0
 10
103.8317401288094
 20
-126.9724480238125
 30
0.0
 10
103.7766009635495
 20
-126.9724480238125
 30
0.0
 10
103.731836085178
 20
-127.0172155238014
 30
0.0
 10
103.731836085178
 20
-127.0723546904542
 30
0.0
 10
103.731836085178
 20
-127.1281641348846
 30
0.0
 10
103.7766009635495
 20
-127.1729316348735
 30
0.0
 10
103.8317401288094
 20
-127.1729316348735
 30
0.0
 10
103.8868440162925
 20
-127.1729316348735
 30
0.0
 10
103.9316467929272
 20
-127.1281641348846
 30
0.0
 10
103.9316467929272
 20
-127.0723546904542
 30
0.0
  0
SPLINE
  5
82
330
1F
100
AcDbEntity
  8
_U+30EC_U+30A4_U+30E4_U+30FC 1
 62
     7
420
 16777215
370
     9
100
AcDbSpline
210
0.0
220
0.0
230
1.0
 70
    11
 71
     3
 72
    17
 73
    13
 74
     0
 42
0.0000000001
 43
0.0000000001
 12
1.0
 22
0.0
 32
0.0
 13
1.0
 23
0.0
 33
0.0
 40
0.0
 40
0.0
 40
0.0
 40
0.0
 40
1.0
 40
1.0
 40
1.0
 40
2.0
 40
2.0
 40
2.0
 40
3.0
 40
3.0
 40
3.0
 40
4.0
 40
4.0
 40
4.0
 40
4.0
 10
103.9316467929272
 20
-137.0727580212874
 30
0.0
 10
103.9316467929272
 20
-137.0176541324125
 30
0.0
 10
103.8868440162925
 20
-136.9728513546458
 30
0.0
 10
103.8317401288094
 20
-136.9728513546458
 30
0.0
 10
103.7766009635495
 20
-136.9728513546458
 30
0.0
 10
103.731836085178
 20
-137.0176541324125
 30
0.0
 10
103.731836085178
 20
-137.0727580212874
 30
0.0
 10
103.731836085178
 20
-137.1282499657176
 30
0.0
 10
103.7766009635495
 20
-137.1730174657068
 30
0.0
 10
103.8317401288094
 20
-137.1730174657068
 30
0.0
 10
103.8868440162925
 20
-137.1730174657068
 30
0.0
 10
103.9316467929272
 20
-137.1282499657176
 30
0.0
 10
103.9316467929272
 20
-137.0727580212874
 30
0.0
  0
INSERT
  5
84
330
1F
100
AcDbEntity
  8
_U+30EC_U+30A4_U+30E4_U+30FC 1
100
AcDbBlockReference
  2
block 2
 10
0.0
 20
0.0
 30
0.0
  0
POLYLINE
  5
8C
330
1F
100
AcDbEntity
  8
_U+30EC_U+30A4_U+30E4_U+30FC 1
 62
     7
420
 16777215
370
     9
100
AcDb2dPolyline
 66
     1
 10
0.0
 20
0.0
 30
0.0
  0
VERTEX
  5
8D
330
8C
100
AcDbEntity
  8
_U+30EC_U+30A4_U+30E4_U+30FC 1
 62
     7
420
 16777215
370
     9
100
AcDbVertex
100
AcDb2dVertex
 10
84.8316939468743
 20
-117.4212719150892
 30
0.0
  0
VERTEX
  5
8E
330
8C
100
AcDbEntity
  8
_U+30EC_U+30A4_U+30E4_U+30FC 1
 62
     7
420
 16777215
370
     9
100
AcDbVertex
100
AcDb2dVertex
 10
105.8319548000019
 20
-117.4212719150892
 30
0.0
  0
SEQEND
  5
8F
330
8C
100
AcDbEntity
  8
_U+30EC_U+30A4_U+30E4_U+30FC 1
 62
     7
420
 16777215
370
     9
  0
POLYLINE
  5
90
330
1F
100
AcDbEntity
  8
_U+30EC_U+30A4_U+30E4_U+30FC 1
 62
     7
420
 16777215
370
     9
100
AcDb2dPolyline
 66
     1
 10
0.0
 20
0.0
 30
0.0
  0
VERTEX
  5
91
330
90
100
AcDbEntity
  8
_U+30EC_U+30A4_U+30E4_U+30FC 1
 62
     7
420
 16777215
370
     9
100
AcDbVertex
100
AcDb2dVertex
 10
84.93160275654495
 20
-119.8810502478076
 30
0.0
  0
VERTEX
  5
92
330
90
100
AcDbEntity
  8
_U+30EC_U+30A4_U+30E4_U+30FC 1
 62
     7
420
 16777215
370
     9
100
AcDbVertex
100
AcDb2dVertex
 10
84.93160275654495
 20
-116.4207941375615
 30
0.0
  0
SEQEND
  5
93
330
90
100
AcDbEntity
  8
_U+30EC_U+30A4_U+30E4_U+30FC 1
 62
     7
420
 16777215
370
     9
  0
POLYLINE
  5
94
330
1F
100
AcDbEntity
  8
_U+30EC_U+30A4_U+30E4_U+30FC 1
 62
     7
420
 16777215
370
     9
100
AcDb2dPolyline
 66
     1
 10
0.0
 20
0.0
 30
0.0
  0
VERTEX
  5
95
330
94
100
AcDbEntity
  8
_U+30EC_U+30A4_U+30E4_U+30FC 1
 62
     7
420
 16777215
370
     9
100
AcDbVertex
100
AcDb2dVertex
 10
105.8319548000019
 20
-123.3812760802657
 30
0.0
  0
VERTEX
  5
96
330
94
100
AcDbEntity
  8
_U+30EC_U+30A4_U+30E4_U+30FC 1
 62
     7
420
 16777215
370
     9
100
AcDbVertex
100
AcDb2dVertex
 10
105.8319548000019
 20
-116.4207941375615
 30
0.0
  0
SEQEND
  5
97
330
94
100
AcDbEntity
  8
_U+30EC_U+30A4_U+30E4_U+30FC 1
 62
     7
420
 16777215
370
     9
  0
INSERT
  5
99
330
1F
100
AcDbEntity
  8
_U+30EC_U+30A4_U+30E4_U+30FC 1
100
AcDbBlockReference
  2
block 3
 10
0.0
 20
0.0
 30
0.0
  0
POLYLINE
  5
A0
330
1F
100
AcDbEntity
  8
_U+30EC_U+30A4_U+30E4_U+30FC 1
 62
     7
420
 16777215
370
     9
100
AcDb2dPolyline
 66
     1
 10
0.0
 20
0.0
 30
0.0
  0
VERTEX
  5
A1
330
A0
100
AcDbEntity
  8
_U+30EC_U+30A4_U+30E4_U+30FC 1
 62
     7
420
 16777215
370
     9
100
AcDbVertex
100
AcDb2dVertex
 10
84.8316939468743
 20
-123.9865721912254
 30
0.0
  0
VERTEX
  5
A2
330
A0
100
AcDbEntity
  8
_U+30EC_U+30A4_U+30E4_U+30FC 1
 62
     7
420
 16777215
370
     9
100
AcDbVertex
100
AcDb2dVertex
 10
88.60218273957
 20
-123.9865721912254
 30
0.0
  0
SEQEND
  5
A3
330
A0
100
AcDbEntity
  8
_U+30EC_U+30A4_U+30E4_U+30FC 1
 62
     7
420
 16777215
370
     9
  0
POLYLINE
  5
A4
330
1F
100
AcDbEntity
  8
_U+30EC_U+30A4_U+30E4_U+30FC 1
 62
     7
420
 16777215
370
     9
100
AcDb2dPolyline
 66
     1
 10
0.0
 20
0.0
 30
0.0
  0
VERTEX
  5
A5
330
A4
100
AcDbEntity
  8
_U+30EC_U+30A4_U+30E4_U+30FC 1
 62
     7
420
 16777215
370
     9
100
AcDbVertex
100
AcDb2dVertex
 10
82.8314792756818
 20
-123.9865721912254
 30
0.0
  0
VERTEX
  5
A6
330
A4
100
AcDbEntity
  8
_U+30EC_U+30A4_U+30E4_U+30FC 1
 62
     7
420
 16777215
370
     9
100
AcDbVertex
100
AcDb2dVertex
 10
84.8316939468743
 20
-123.9865721912254
 30
0.0
  0
SEQEND
  5
A7
330
A4
100
AcDbEntity
  8
_U+30EC_U+30A4_U+30E4_U+30FC 1
 62
     7
420
 16777215
370
     9
  0
INSERT
  5
A9
330
1F
100
AcDbEntity
  8
_U+30EC_U+30A4_U+30E4_U+30FC 1
100
AcDbBlockReference
  2
block 4
 10
0.0
 20
0.0
 30
0.0
  0
POLYLINE
  5
AE
330
1F
100
AcDbEntity
  8
_U+30EC_U+30A4_U+30E4_U+30FC 1
 62
     7
420
 16777215
370
     9
100
AcDb2dPolyline
 66
     1
 10
0.0
 20
0.0
 30
0.0
  0
VERTEX
  5
AF
330
AE
100
AcDbEntity
  8
_U+30EC_U+30A4_U+30E4_U+30FC 1
 62
     7
420
 16777215
370
     9
100
AcDbVertex
100
AcDb2dVertex
 10
79.83145712999652
 20
-138.0732357988149
 30
0.0
  0
VERTEX
  5
B0
330
AE
100
AcDbEntity
  8
_U+30EC_U+30A4_U+30E4_U+30FC 1
 62
     7
420
 16777215
370
     9
100
AcDbVertex
100
AcDb2dVertex
 10
79.83145712999652
 20
-122.0731760805928
 30
0.0
  0
SEQEND
  5
B1
330
AE
100
AcDbEntity
  8
_U+30EC_U+30A4_U+30E4_U+30FC 1
 62
     7
420
 16777215
370
     9
  0
POLYLINE
  5
B2
330
1F
100
AcDbEntity
  8
_U+30EC_U+30A4_U+30E4_U+30FC 1
 62
     7
420
 16777215
370
     9
100
AcDb2dPolyline
 66
     1
 10
0.0
 20
0.0
 30
0.0
  0
VERTEX
  5
B3
330
B2
100
AcDbEntity
  8
_U+30EC_U+30A4_U+30E4_U+30FC 1
 62
     7
420
 16777215
370
     9
100
AcDbVertex
100
AcDb2dVertex
 10
82.29127067835256
 20
-138.0732357988149
 30
0.0
  0
VERTEX
  5
B4
330
B2
100
AcDbEntity
  8
_U+30EC_U+30A4_U+30E4_U+30FC 1
 62
     7
420
 16777215
370
     9
100
AcDbVertex
100
AcDb2dVertex
 10
78.83172220251431
 20
-138.0732357988149
 30
0.0
  0
SEQEND
  5
B5
330
B2
100
AcDbEntity
  8
_U+30EC_U+30A4_U+30E4_U+30FC 1
 62
     7
420
 16777215
370
     9
  0
POLYLINE
  5
B6
330
1F
100
AcDbEntity
  8
_U+30EC_U+30A4_U+30E4_U+30FC 1
 62
     7
420
 16777215
370
     9
100
AcDb2dPolyline
 66
     1
 10
0.0
 20
0.0
 30
0.0
  0
VERTEX
  5
B7
330
B6
100
AcDbEntity
  8
_U+30EC_U+30A4_U+30E4_U+30FC 1
 62
     7
420
 16777215
370
     9
100
AcDbVertex
100
AcDb2dVertex
 10
82.29127067835256
 20
-122.0728233028151
 30
0.0
  0
VERTEX
  5
B8
330
B6
100
AcDbEntity
  8
_U+30EC_U+30A4_U+30E4_U+30FC 1
 62
     7
420
 16777215
370
     9
100
AcDbVertex
100
AcDb2dVertex
 10
78.83172220251431
 20
-122.0728233028151
 30
0.0
  0
SEQEND
  5
B9
330
B6
100
AcDbEntity
  8
_U+30EC_U+30A4_U+30E4_U+30FC 1
 62
     7
420
 16777215
370
     9
  0
INSERT
  5
BB
330
1F
100
AcDbEntity
  8
_U+30EC_U+30A4_U+30E4_U+30FC 1
100
AcDbBlockReference
  2
block 5
 10
0.0
 20
0.0
 30
0.0
  0
POLYLINE
  5
C3
330
1F
100
AcDbEntity
  8
_U+30EC_U+30A4_U+30E4_U+30FC 1
 62
     7
420
 16777215
370
     9
100
AcDb2dPolyline
 66
     1
 10
0.0
 20
0.0
 30
0.0
  0
VERTEX
  5
C4
330
C3
100
AcDbEntity
  8
_U+30EC_U+30A4_U+30E4_U+30FC 1
 62
     7
420
 16777215
370
     9
100
AcDbVertex
100
AcDb2dVertex
 10
83.83121619462084
 20
-142.0729949644818
 30
0.0
  0
VERTEX
  5
C5
330
C3
100
AcDbEntity
  8
_U+30EC_U+30A4_U+30E4_U+30FC 1
 62
     7
420
 16777215
370
     9
100
AcDbVertex
100
AcDb2dVertex
 10
99.83198106418509
 20
-142.0729949644818
 30
0.0
  0
SEQEND
  5
C6
330
C3
100
AcDbEntity
  8
_U+30EC_U+30A4_U+30E4_U+30FC 1
 62
     7
420
 16777215
370
     9
  0
POLYLINE
  5
C7
330
1F
100
AcDbEntity
  8
_U+30EC_U+30A4_U+30E4_U+30FC 1
 62
     7
420
 16777215
370
     9
100
AcDb2dPolyline
 66
     1
 10
0.0
 20
0.0
 30
0.0
  0
VERTEX
  5
C8
330
C7
100
AcDbEntity
  8
_U+30EC_U+30A4_U+30E4_U+30FC 1
 62
     7
420
 16777215
370
     9
100
AcDbVertex
100
AcDb2dVertex
 10
83.83121619462084
 20
-139.6131813539855
 30
0.0
  0
VERTEX
  5
C9
330
C7
100
AcDbEntity
  8
_U+30EC_U+30A4_U+30E4_U+30FC 1
 62
     7
420
 16777215
370
     9
100
AcDbVertex
100
AcDb2dVertex
 10
83.83121619462084
 20
-143.0730846864539
 30
0.0
  0
SEQEND
  5
CA
330
C7
100
AcDbEntity
  8
_U+30EC_U+30A4_U+30E4_U+30FC 1
 62
     7
420
 16777215
370
     9
  0
POLYLINE
  5
CB
330
1F
100
AcDbEntity
  8
_U+30EC_U+30A4_U+30E4_U+30FC 1
 62
     7
420
 16777215
370
     9
100
AcDb2dPolyline
 66
     1
 10
0.0
 20
0.0
 30
0.0
  0
VERTEX
  5
CC
330
CB
100
AcDbEntity
  8
_U+30EC_U+30A4_U+30E4_U+30FC 1
 62
     7
420
 16777215
370
     9
100
AcDbVertex
100
AcDb2dVertex
 10
99.83198106418509
 20
-139.6131813539855
 30
0.0
  0
VERTEX
  5
CD
330
CB
100
AcDbEntity
  8
_U+30EC_U+30A4_U+30E4_U+30FC 1
 62
     7
420
 16777215
370
     9
100
AcDbVertex
100
AcDb2dVertex
 10
99.83198106418509
 20
-143.0730846864539
 30
0.0
  0
SEQEND
  5
CE
330
CB
100
AcDbEntity
  8
_U+30EC_U+30A4_U+30E4_U+30FC 1
 62
     7
420
 16777215
370
     9
  0
INSERT
  5
D0
330
1F
100
AcDbEntity
  8
_U+30EC_U+30A4_U+30E4_U+30FC 1
100
AcDbBlockReference
  2
block 6
 10
0.0
 20
0.0
 30
0.0
  0
POLYLINE
  5
D8
330
1F
100
AcDbEntity
  8
_U+30EC_U+30A4_U+30E4_U+30FC 1
 62
     7
420
 16777215
370
     9
100
AcDb2dPolyline
 66
     1
 10
0.0
 20
0.0
 30
0.0
  0
VERTEX
  5
D9
330
D8
100
AcDbEntity
  8
_U+30EC_U+30A4_U+30E4_U+30FC 1
 62
     7
420
 16777215
370
     9
100
AcDbVertex
100
AcDb2dVertex
 10
103.8317401288094
 20
-137.0727580212874
 30
0.0
  0
VERTEX
  5
DA
330
D8
100
AcDbEntity
  8
_U+30EC_U+30A4_U+30E4_U+30FC 1
 62
     7
420
 16777215
370
     9
100
AcDbVertex
100
AcDb2dVertex
 10
103.8317401288094
 20
-127.0727074682319
 30
0.0
  0
SEQEND
  5
DB
330
D8
100
AcDbEntity
  8
_U+30EC_U+30A4_U+30E4_U+30FC 1
 62
     7
420
 16777215
370
     9
  0
POLYLINE
  5
DC
330
1F
100
AcDbEntity
  8
_U+30EC_U+30A4_U+30E4_U+30FC 1
 62
     7
420
 16777215
370
     9
100
AcDb2dPolyline
 66
     1
 10
0.0
 20
0.0
 30
0.0
  0
VERTEX
  5
DD
330
DC
100
AcDbEntity
  8
_U+30EC_U+30A4_U+30E4_U+30FC 1
 62
     7
420
 16777215
370
     9
100
AcDbVertex
100
AcDb2dVertex
 10
102.3716987771693
 20
-137.0727580212874
 30
0.0
  0
VERTEX
  5
DE
330
DC
100
AcDbEntity
  8
_U+30EC_U+30A4_U+30E4_U+30FC 1
 62
     7
420
 16777215
370
     9
100
AcDbVertex
100
AcDb2dVertex
 10
104.8315123255253
 20
-137.0727580212874
 30
0.0
  0
SEQEND
  5
DF
330
DC
100
AcDbEntity
  8
_U+30EC_U+30A4_U+30E4_U+30FC 1
 62
     7
420
 16777215
370
     9
  0
POLYLINE
  5
E0
330
1F
100
AcDbEntity
  8
_U+30EC_U+30A4_U+30E4_U+30FC 1
 62
     7
420
 16777215
370
     9
100
AcDb2dPolyline
 66
     1
 10
0.0
 20
0.0
 30
0.0
  0
VERTEX
  5
E1
330
E0
100
AcDbEntity
  8
_U+30EC_U+30A4_U+30E4_U+30FC 1
 62
     7
420
 16777215
370
     9
100
AcDbVertex
100
AcDb2dVertex
 10
102.3716987771693
 20
-127.0723546904542
 30
0.0
  0
VERTEX
  5
E2
330
E0
100
AcDbEntity
  8
_U+30EC_U+30A4_U+30E4_U+30FC 1
 62
     7
420
 16777215
370
     9
100
AcDbVertex
100
AcDb2dVertex
 10
104.8315123255253
 20
-127.0723546904542
 30
0.0
  0
SEQEND
  5
E3
330
E0
100
AcDbEntity
  8
_U+30EC_U+30A4_U+30E4_U+30FC 1
 62
     7
420
 16777215
370
     9
  0
INSERT
  5
E5
330
1F
100
AcDbEntity
  8
_U+30EC_U+30A4_U+30E4_U+30FC 1
100
AcDbBlockReference
  2
block 7
 10
0.0
 20
0.0
 30
0.0
  0
ENDSEC
  0
SECTION
  2
OBJECTS
  0
DICTIONARY
  5
C
330
0
100
AcDbDictionary
281
     1
  3
ACAD_GROUP
350
D
  3
ACAD_LAYOUT
350
1A
  3
ACAD_MATERIAL
350
3B
  3
ACAD_MLEADERSTYLE
350
EE
  3
ACAD_MLINESTYLE
350
17
  3
ACAD_PLOTSETTINGS
350
19
  3
ACAD_PLOTSTYLENAME
350
E
  3
ACAD_TABLESTYLE
350
ED
  3
ACAD_VISUALSTYLE
350
2A
  0
SUN
  5
3F
330
29
100
AcDbSun
 90
        1
290
     0
 63
     7
421
 16777215
 40
1.0
291
     1
 91
  2455826
 92
 54000000
292
     0
 70
     2
 71
   256
280
     1
  0
DICTIONARY
  5
D
102
{ACAD_REACTORS
330
C
102
}
330
C
100
AcDbDictionary
281
     1
  0
DICTIONARY
  5
1A
102
{ACAD_REACTORS
330
C
102
}
330
C
100
AcDbDictionary
281
     1
  3
Layout1
350
1E
  3
Layout2
350
26
  3
Model
350
22
  0
DICTIONARY
  5
3B
102
{ACAD_REACTORS
330
C
102
}
330
C
100
AcDbDictionary
281
     1
  3
ByBlock
350
3D
  3
ByLayer
350
3C
  3
Global
350
3E
  0
DICTIONARY
  5
EE
102
{ACAD_REACTORS
330
C
102
}
330
C
100
AcDbDictionary
281
     1
  0
DICTIONARY
  5
17
102
{ACAD_REACTORS
330
C
102
}
330
C
100
AcDbDictionary
281
     1
  3
Standard
350
18
  0
DICTIONARY
  5
19
102
{ACAD_REACTORS
330
C
102
}
330
C
100
AcDbDictionary
281
     1
  0
ACDBDICTIONARYWDFLT
  5
E
102
{ACAD_REACTORS
330
C
102
}
330
C
100
AcDbDictionary
281
     1
  3
Normal
350
F
100
AcDbDictionaryWithDefault
340
F
  0
DICTIONARY
  5
ED
102
{ACAD_REACTORS
330
C
102
}
330
C
100
AcDbDictionary
281
     1
  0
DICTIONARY
  5
2A
102
{ACAD_REACTORS
330
C
102
}
330
C
100
AcDbDictionary
281
     1
  3
2dWireframe
350
2F
  3
3D Hidden
350
31
  3
3dWireframe
350
30
  3
Basic
350
32
  3
Brighten
350
36
  3
ColorChange
350
3A
  3
Conceptual
350
34
  3
Dim
350
35
  3
Facepattern
350
39
  3
Flat
350
2B
  3
FlatWithEdges
350
2C
  3
Gouraud
350
2D
  3
GouraudWithEdges
350
2E
  3
Linepattern
350
38
  3
Realistic
350
33
  3
Thicken
350
37
  0
LAYOUT
  5
1E
102
{ACAD_REACTORS
330
1A
102
}
330
1A
100
AcDbPlotSettings
  1

  2
none_device
  4

  6

 40
0.0
 41
0.0
 42
0.0
 43
0.0
 44
0.0
 45
0.0
 46
0.0
 47
0.0
 48
0.0
 49
0.0
140
0.0
141
0.0
142
1.0
143
1.0
 70
   688
 72
     0
 73
     0
 74
     5
  7

 75
    16
 76
     0
 77
     2
 78
   300
147
1.0
148
0.0
149
0.0
100
AcDbLayout
  1
Layout1
 70
     1
 71
     1
 10
0.0
 20
0.0
 11
12.0
 21
9.0
 12
0.0
 22
0.0
 32
0.0
 14
1.000000000000000E+20
 24
1.000000000000000E+20
 34
1.000000000000000E+20
 15
-1.000000000000000E+20
 25
-1.000000000000000E+20
 35
-1.000000000000000E+20
146
0.0
 13
0.0
 23
0.0
 33
0.0
 16
1.0
 26
0.0
 36
0.0
 17
0.0
 27
1.0
 37
0.0
 76
     0
330
1B
  0
LAYOUT
  5
26
102
{ACAD_REACTORS
330
1A
102
}
330
1A
100
AcDbPlotSettings
  1

  2
none_device
  4

  6

 40
0.0
 41
0.0
 42
0.0
 43
0.0
 44
0.0
 45
0.0
 46
0.0
 47
0.0
 48
0.0
 49
0.0
140
0.0
141
0.0
142
1.0
143
1.0
 70
   688
 72
     0
 73
     0
 74
     5
  7

 75
    16
 76
     0
 77
     2
 78
   300
147
1.0
148
0.0
149
0.0
100
AcDbLayout
  1
Layout2
 70
     1
 71
     2
 10
0.0
 20
0.0
 11
0.0
 21
0.0
 12
0.0
 22
0.0
 32
0.0
 14
0.0
 24
0.0
 34
0.0
 15
0.0
 25
0.0
 35
0.0
146
0.0
 13
0.0
 23
0.0
 33
0.0
 16
1.0
 26
0.0
 36
0.0
 17
0.0
 27
1.0
 37
0.0
 76
     0
330
23
  0
LAYOUT
  5
22
102
{ACAD_REACTORS
330
1A
102
}
330
1A
100
AcDbPlotSettings
  1

  2
none_device
  4

  6

 40
0.0
 41
0.0
 42
0.0
 43
0.0
 44
0.0
 45
0.0
 46
0.0
 47
0.0
 48
0.0
 49
0.0
140
0.0
141
0.0
142
1.0
143
1.0
 70
  1712
 72
     0
 73
     0
 74
     0
  7

 75
     0
 76
     0
 77
     2
 78
   300
147
1.0
148
0.0
149
0.0
100
AcDbLayout
  1
Model
 70
     1
 71
     0
 10
0.0
 20
0.0
 11
12.0
 21
9.0
 12
0.0
 22
0.0
 32
0.0
 14
1.000000000000000E+20
 24
1.000000000000000E+20
 34
1.000000000000000E+20
 15
-1.000000000000000E+20
 25
-1.000000000000000E+20
 35
-1.000000000000000E+20
146
0.0
 13
0.0
 23
0.0
 33
0.0
 16
1.0
 26
0.0
 36
0.0
 17
0.0
 27
1.0
 37
0.0
 76
     0
330
1F
331
29
  0
MATERIAL
  5
3D
102
{ACAD_REACTORS
330
3B
102
}
330
3B
100
AcDbMaterial
  1
ByBlock
 72
     1
 94
      127
  0
MATERIAL
  5
3C
102
{ACAD_REACTORS
330
3B
102
}
330
3B
100
AcDbMaterial
  1
ByLayer
 72
     1
 94
      127
  0
MATERIAL
  5
3E
102
{ACAD_REACTORS
330
3B
102
}
330
3B
100
AcDbMaterial
  1
Global
 72
     1
 94
      127
  0
MLINESTYLE
  5
18
102
{ACAD_REACTORS
330
17
102
}
330
17
100
AcDbMlineStyle
  2
Standard
 70
     0
  3

 62
   256
 51
90.0
 52
90.0
 71
     2
 49
0.5
 62
   256
  6
BYLAYER
 49
-0.5
 62
   256
  6
BYLAYER
  0
ACDBPLACEHOLDER
  5
F
102
{ACAD_REACTORS
330
E
102
}
330
E
  0
VISUALSTYLE
  5
2F
102
{ACAD_REACTORS
330
2A
102
}
330
2A
100
AcDbVisualStyle
  2
2dWireframe
 70
     4
177
     2
291
     0
 71
     0
176
     1
 72
     2
176
     1
 73
     0
176
     1
 90
        0
176
     1
 40
-0.6
176
     1
 41
-30.0
176
     1
 62
     5
 63
     7
421
 16777215
176
     1
 74
     1
176
     1
 91
        4
176
     1
 64
     7
176
     1
 65
   257
176
     1
 75
     1
176
     1
175
     1
176
     1
 42
1.0
176
     1
 92
        0
176
     1
 66
   257
176
     1
 43
1.0
176
     1
 76
     1
176
     1
 77
     6
176
     1
 78
     2
176
     1
 67
     7
176
     1
 79
     5
176
     1
170
     0
176
     1
171
     0
176
     1
290
     0
176
     1
 93
        1
176
     1
 44
0.0
176
     1
173
     0
176
     1
  0
VISUALSTYLE
  5
31
102
{ACAD_REACTORS
330
2A
102
}
330
2A
100
AcDbVisualStyle
  2
3D Hidden
 70
     6
177
     2
291
     0
 71
     1
176
     1
 72
     2
176
     1
 73
     2
176
     1
 90
        0
176
     1
 40
-0.6
176
     1
 41
-30.0
176
     1
 62
     5
 63
     7
421
 16777215
176
     1
 74
     2
176
     1
 91
        2
176
     1
 64
     7
176
     1
 65
   257
176
     1
 75
     2
176
     1
175
     1
176
     1
 42
40.0
176
     1
 92
        0
176
     1
 66
   257
176
     1
 43
1.0
176
     1
 76
     1
176
     1
 77
     6
176
     1
 78
     2
176
     1
 67
     7
176
     1
 79
     3
176
     1
170
     0
176
     1
171
     0
176
     1
290
     0
176
     1
 93
        1
176
     1
 44
0.0
176
     1
173
     0
176
     1
  0
VISUALSTYLE
  5
30
102
{ACAD_REACTORS
330
2A
102
}
330
2A
100
AcDbVisualStyle
  2
3dWireframe
 70
     5
177
     2
291
     0
 71
     0
176
     1
 72
     2
176
     1
 73
     0
176
     1
 90
        0
176
     1
 40
-0.6
176
     1
 41
-30.0
176
     1
 62
     5
 63
     7
421
 16777215
176
     1
 74
     1
176
     1
 91
        4
176
     1
 64
     7
176
     1
 65
   257
176
     1
 75
     1
176
     1
175
     1
176
     1
 42
1.0
176
     1
 92
        0
176
     1
 66
   257
176
     1
 43
1.0
176
     1
 76
     1
176
     1
 77
     6
176
     1
 78
     2
176
     1
 67
     7
176
     1
 79
     5
176
     1
170
     0
176
     1
171
     0
176
     1
290
     0
176
     1
 93
        1
176
     1
 44
0.0
176
     1
173
     0
176
     1
  0
VISUALSTYLE
  5
32
102
{ACAD_REACTORS
330
2A
102
}
330
2A
100
AcDbVisualStyle
  2
Basic
 70
     7
177
     2
291
     1
 71
     1
176
     1
 72
     0
176
     1
 73
     1
176
     1
 90
        0
176
     1
 40
-0.6
176
     1
 41
-30.0
176
     1
 62
     5
 63
     7
421
 16777215
176
     1
 74
     0
176
     1
 91
        4
176
     1
 64
     7
176
     1
 65
   257
176
     1
 75
     1
176
     1
175
     1
176
     1
 42
1.0
176
     1
 92
        8
176
     1
 66
     7
176
     1
 43
1.0
176
     1
 76
     1
176
     1
 77
     6
176
     1
 78
     2
176
     1
 67
     7
176
     1
 79
     5
176
     1
170
     0
176
     1
171
     0
176
     1
290
     0
176
     1
 93
        1
176
     1
 44
0.0
176
     1
173
     0
176
     1
  0
VISUALSTYLE
  5
36
102
{ACAD_REACTORS
330
2A
102
}
330
2A
100
AcDbVisualStyle
  2
Brighten
 70
    12
177
     2
291
     1
 71
     2
176
     1
 72
     2
176
     1
 73
     0
176
     1
 90
        0
176
     1
 40
-0.6
176
     1
 41
-30.0
176
     1
 62
     5
 63
     7
421
 16777215
176
     1
 74
     1
176
     1
 91
        4
176
     1
 64
     7
176
     1
 65
   257
176
     1
 75
     1
176
     1
175
     1
176
     1
 42
1.0
176
     1
 92
        8
176
     1
 66
     7
176
     1
 43
1.0
176
     1
 76
     1
176
     1
 77
     6
176
     1
 78
     2
176
     1
 67
     7
176
     1
 79
     5
176
     1
170
     0
176
     1
171
     0
176
     1
290
     0
176
     1
 93
        1
176
     1
 44
50.0
176
     1
173
     0
176
     1
  0
VISUALSTYLE
  5
3A
102
{ACAD_REACTORS
330
2A
102
}
330
2A
100
AcDbVisualStyle
  2
ColorChange
 70
    16
177
     2
291
     1
 71
     2
176
     1
 72
     2
176
     1
 73
     3
176
     1
 90
        0
176
     1
 40
-0.6
176
     1
 41
-30.0
176
     1
 62
     5
 63
     8
421
  8421504
176
     1
 74
     1
176
     1
 91
        4
176
     1
 64
     7
176
     1
 65
   257
176
     1
 75
     1
176
     1
175
     1
176
     1
 42
1.0
176
     1
 92
        8
176
     1
 66
     8
424
  8421504
176
     1
 43
1.0
176
     1
 76
     1
176
     1
 77
     6
176
     1
 78
     2
176
     1
 67
     7
176
     1
 79
     5
176
     1
170
     0
176
     1
171
     0
176
     1
290
     0
176
     1
 93
        1
176
     1
 44
0.0
176
     1
173
     0
176
     1
  0
VISUALSTYLE
  5
34
102
{ACAD_REACTORS
330
2A
102
}
330
2A
100
AcDbVisualStyle
  2
Conceptual
 70
     9
177
     2
291
     0
 71
     3
176
     1
 72
     2
176
     1
 73
     0
176
     1
 90
        0
176
     1
 40
-0.6
176
     1
 41
-30.0
176
     1
 62
     5
 63
     7
421
 16777215
176
     1
 74
     2
176
     1
 91
        2
176
     1
 64
     7
176
     1
 65
   257
176
     1
 75
     1
176
     1
175
     1
176
     1
 42
40.0
176
     1
 92
        8
176
     1
 66
     7
176
     1
 43
1.0
176
     1
 76
     1
176
     1
 77
     6
176
     1
 78
     2
176
     1
 67
     7
176
     1
 79
     3
176
     1
170
     0
176
     1
171
     0
176
     1
290
     0
176
     1
 93
        1
176
     1
 44
0.0
176
     1
173
     0
176
     1
  0
VISUALSTYLE
  5
35
102
{ACAD_REACTORS
330
2A
102
}
330
2A
100
AcDbVisualStyle
  2
Dim
 70
    11
177
     2
291
     1
 71
     2
176
     1
 72
     2
176
     1
 73
     0
176
     1
 90
        0
176
     1
 40
-0.6
176
     1
 41
-30.0
176
     1
 62
     5
 63
     7
421
 16777215
176
     1
 74
     1
176
     1
 91
        4
176
     1
 64
     7
176
     1
 65
   257
176
     1
 75
     1
176
     1
175
     1
176
     1
 42
1.0
176
     1
 92
        8
176
     1
 66
     7
176
     1
 43
1.0
176
     1
 76
     1
176
     1
 77
     6
176
     1
 78
     2
176
     1
 67
     7
176
     1
 79
     5
176
     1
170
     0
176
     1
171
     0
176
     1
290
     0
176
     1
 93
        1
176
     1
 44
-50.0
176
     1
173
     0
176
     1
  0
VISUALSTYLE
  5
39
102
{ACAD_REACTORS
330
2A
102
}
330
2A
100
AcDbVisualStyle
  2
Facepattern
 70
    15
177
     2
291
     1
 71
     2
176
     1
 72
     2
176
     1
 73
     0
176
     1
 90
        0
176
     1
 40
-0.6
176
     1
 41
-30.0
176
     1
 62
     5
 63
     7
421
 16777215
176
     1
 74
     1
176
     1
 91
        4
176
     1
 64
     7
176
     1
 65
   257
176
     1
 75
     1
176
     1
175
     1
176
     1
 42
1.0
176
     1
 92
        8
176
     1
 66
     7
176
     1
 43
1.0
176
     1
 76
     1
176
     1
 77
     6
176
     1
 78
     2
176
     1
 67
     7
176
     1
 79
     5
176
     1
170
     0
176
     1
171
     0
176
     1
290
     0
176
     1
 93
        1
176
     1
 44
0.0
176
     1
173
     0
176
     1
  0
VISUALSTYLE
  5
2B
102
{ACAD_REACTORS
330
2A
102
}
330
2A
100
AcDbVisualStyle
  2
Flat
 70
     0
177
     2
291
     1
 71
     2
176
     1
 72
     1
176
     1
 73
     1
176
     1
 90
        2
176
     1
 40
-0.6
176
     1
 41
30.0
176
     1
 62
     5
 63
     7
421
 16777215
176
     1
 74
     0
176
     1
 91
        4
176
     1
 64
     7
176
     1
 65
   257
176
     1
 75
     1
176
     1
175
     1
176
     1
 42
1.0
176
     1
 92
        8
176
     1
 66
     7
176
     1
 43
1.0
176
     1
 76
     1
176
     1
 77
     6
176
     1
 78
     2
176
     1
 67
     7
176
     1
 79
     5
176
     1
170
     0
176
     1
171
     0
176
     1
290
     0
176
     1
 93
       13
176
     1
 44
0.0
176
     1
173
     0
176
     1
  0
VISUALSTYLE
  5
2C
102
{ACAD_REACTORS
330
2A
102
}
330
2A
100
AcDbVisualStyle
  2
FlatWithEdges
 70
     1
177
     2
291
     1
 71
     2
176
     1
 72
     1
176
     1
 73
     1
176
     1
 90
        2
176
     1
 40
-0.6
176
     1
 41
30.0
176
     1
 62
     5
 63
     7
421
 16777215
176
     1
 74
     1
176
     1
 91
        4
176
     1
 64
     7
176
     1
 65
   257
176
     1
 75
     1
176
     1
175
     1
176
     1
 42
1.0
176
     1
 92
        0
176
     1
 66
   257
176
     1
 43
1.0
176
     1
 76
     1
176
     1
 77
     6
176
     1
 78
     2
176
     1
 67
     7
176
     1
 79
     5
176
     1
170
     0
176
     1
171
     0
176
     1
290
     0
176
     1
 93
       13
176
     1
 44
0.0
176
     1
173
     0
176
     1
  0
VISUALSTYLE
  5
2D
102
{ACAD_REACTORS
330
2A
102
}
330
2A
100
AcDbVisualStyle
  2
Gouraud
 70
     2
177
     2
291
     1
 71
     2
176
     1
 72
     2
176
     1
 73
     1
176
     1
 90
        2
176
     1
 40
-0.6
176
     1
 41
30.0
176
     1
 62
     5
 63
     7
421
 16777215
176
     1
 74
     0
176
     1
 91
        4
176
     1
 64
     7
176
     1
 65
   257
176
     1
 75
     1
176
     1
175
     1
176
     1
 42
1.0
176
     1
 92
        0
176
     1
 66
     7
176
     1
 43
1.0
176
     1
 76
     1
176
     1
 77
     6
176
     1
 78
     2
176
     1
 67
     7
176
     1
 79
     5
176
     1
170
     0
176
     1
171
     0
176
     1
290
     0
176
     1
 93
       13
176
     1
 44
0.0
176
     1
173
     0
176
     1
  0
VISUALSTYLE
  5
2E
102
{ACAD_REACTORS
330
2A
102
}
330
2A
100
AcDbVisualStyle
  2
GouraudWithEdges
 70
     3
177
     2
291
     1
 71
     2
176
     1
 72
     2
176
     1
 73
     1
176
     1
 90
        2
176
     1
 40
-0.6
176
     1
 41
30.0
176
     1
 62
     5
 63
     7
421
 16777215
176
     1
 74
     1
176
     1
 91
        4
176
     1
 64
     7
176
     1
 65
   257
176
     1
 75
     1
176
     1
175
     1
176
     1
 42
1.0
176
     1
 92
        0
176
     1
 66
   257
176
     1
 43
1.0
176
     1
 76
     1
176
     1
 77
     6
176
     1
 78
     2
176
     1
 67
     7
176
     1
 79
     5
176
     1
170
     0
176
     1
171
     0
176
     1
290
     0
176
     1
 93
       13
176
     1
 44
0.0
176
     1
173
     0
176
     1
  0
VISUALSTYLE
  5
38
102
{ACAD_REACTORS
330
2A
102
}
330
2A
100
AcDbVisualStyle
  2
Linepattern
 70
    14
177
     2
291
     1
 71
     2
176
     1
 72
     2
176
     1
 73
     0
176
     1
 90
        0
176
     1
 40
-0.6
176
     1
 41
-30.0
176
     1
 62
     5
 63
     7
421
 16777215
176
     1
 74
     1
176
     1
 91
        4
176
     1
 64
     7
176
     1
 65
   257
176
     1
 75
     7
176
     1
175
     7
176
     1
 42
1.0
176
     1
 92
        8
176
     1
 66
     7
176
     1
 43
1.0
176
     1
 76
     1
176
     1
 77
     6
176
     1
 78
     2
176
     1
 67
     7
176
     1
 79
     5
176
     1
170
     0
176
     1
171
     0
176
     1
290
     0
176
     1
 93
        1
176
     1
 44
0.0
176
     1
173
     0
176
     1
  0
VISUALSTYLE
  5
33
102
{ACAD_REACTORS
330
2A
102
}
330
2A
100
AcDbVisualStyle
  2
Realistic
 70
     8
177
     2
291
     0
 71
     2
176
     1
 72
     2
176
     1
 73
     0
176
     1
 90
        0
176
     1
 40
-0.6
176
     1
 41
-30.0
176
     1
 62
     5
 63
     7
421
 16777215
176
     1
 74
     1
176
     1
 91
        0
176
     1
 64
     7
176
     1
 65
   257
176
     1
 75
     1
176
     1
175
     1
176
     1
 42
1.0
176
     1
 92
        8
176
     1
 66
     8
424
  7895160
176
     1
 43
1.0
176
     1
 76
     1
176
     1
 77
     6
176
     1
 78
     2
176
     1
 67
     7
176
     1
 79
     5
176
     1
170
     0
176
     1
171
     0
176
     1
290
     0
176
     1
 93
       13
176
     1
 44
0.0
176
     1
173
     0
176
     1
  0
VISUALSTYLE
  5
37
102
{ACAD_REACTORS
330
2A
102
}
330
2A
100
AcDbVisualStyle
  2
Thicken
 70
    13
177
     2
291
     1
 71
     2
176
     1
 72
     2
176
     1
 73
     0
176
     1
 90
        0
176
     1
 40
-0.6
176
     1
 41
-30.0
176
     1
 62
     5
 63
     7
421
 16777215
176
     1
 74
     1
176
     1
 91
        4
176
     1
 64
     7
176
     1
 65
   257
176
     1
 75
     1
176
     1
175
     1
176
     1
 42
1.0
176
     1
 92
       12
176
     1
 66
     7
176
     1
 43
1.0
176
     1
 76
     1
176
     1
 77
     6
176
     1
 78
     2
176
     1
 67
     7
176
     1
 79
     5
176
     1
170
     0
176
     1
171
     0
176
     1
290
     0
176
     1
 93
        1
176
     1
 44
0.0
176
     1
173
     0
176
     1
  0
ENDSEC
  0
EOF
