  0
SECTION
  2
HEADER
  9
$ACADVER
  1
AC1024
  9
$ACADMAINTVER
 70
     6
  9
$DWGCODEPAGE
  3
UNDEFINED
  9
$INSBASE
 10
0.0
 20
0.0
 30
0.0
  9
$EXTMIN
 10
1.000000000000000E+20
 20
1.000000000000000E+20
 30
1.000000000000000E+20
  9
$EXTMAX
 10
-1.000000000000000E+20
 20
-1.000000000000000E+20
 30
-1.000000000000000E+20
  9
$LIMMIN
 10
0.0
 20
0.0
  9
$LIMMAX
 10
12.0
 20
9.0
  9
$ORTHOMODE
 70
     0
  9
$REGENMODE
 70
     1
  9
$FILLMODE
 70
     1
  9
$QTEXTMODE
 70
     0
  9
$MIRRTEXT
 70
     1
  9
$LTSCALE
 40
1.0
  9
$ATTMODE
 70
     1
  9
$TEXTSIZE
 40
0.2
  9
$TRACEWID
 40
0.05
  9
$TEXTSTYLE
  7
Standard
  9
$CLAYER
  8
0
  9
$CELTYPE
  6
ByLayer
  9
$CECOLOR
 62
   256
  9
$CELTSCALE
 40
1.0
  9
$DISPSILH
 70
     0
  9
$DIMSCALE
 40
1.0
  9
$DIMASZ
 40
0.18
  9
$DIMEXO
 40
0.0625
  9
$DIMDLI
 40
0.38
  9
$DIMRND
 40
0.0
  9
$DIMDLE
 40
0.0
  9
$DIMEXE
 40
0.18
  9
$DIMTP
 40
0.0
  9
$DIMTM
 40
0.0
  9
$DIMTXT
 40
0.18
  9
$DIMCEN
 40
0.09
  9
$DIMTSZ
 40
0.0
  9
$DIMTOL
 70
     0
  9
$DIMLIM
 70
     0
  9
$DIMTIH
 70
     1
  9
$DIMTOH
 70
     1
  9
$DIMSE1
 70
     0
  9
$DIMSE2
 70
     0
  9
$DIMTAD
 70
     0
  9
$DIMZIN
 70
     0
  9
$DIMBLK
  1

  9
$DIMASO
 70
     1
  9
$DIMSHO
 70
     1
  9
$DIMPOST
  1

  9
$DIMAPOST
  1

  9
$DIMALT
 70
     0
  9
$DIMALTD
 70
     2
  9
$DIMALTF
 40
25.4
  9
$DIMLFAC
 40
1.0
  9
$DIMTOFL
 70
     0
  9
$DIMTVP
 40
0.0
  9
$DIMTIX
 70
     0
  9
$DIMSOXD
 70
     0
  9
$DIMSAH
 70
     0
  9
$DIMBLK1
  1

  9
$DIMBLK2
  1

  9
$DIMSTYLE
  2
Standard
  9
$DIMCLRD
 70
     0
  9
$DIMCLRE
 70
     0
  9
$DIMCLRT
 70
     0
  9
$DIMTFAC
 40
1.0
  9
$DIMGAP
 40
0.09
  9
$DIMJUST
 70
     0
  9
$DIMSD1
 70
     0
  9
$DIMSD2
 70
     0
  9
$DIMTOLJ
 70
     1
  9
$DIMTZIN
 70
     0
  9
$DIMALTZ
 70
     0
  9
$DIMALTTZ
 70
     0
  9
$DIMUPT
 70
     0
  9
$DIMDEC
 70
     4
  9
$DIMTDEC
 70
     4
  9
$DIMALTU
 70
     2
  9
$DIMALTTD
 70
     2
  9
$DIMTXSTY
  7
Standard
  9
$DIMAUNIT
 70
     0
  9
$DIMADEC
 70
     0
  9
$DIMALTRND
 40
0.0
  9
$DIMAZIN
 70
     0
  9
$DIMDSEP
 70
    46
  9
$DIMATFIT
 70
     3
  9
$DIMFRAC
 70
     0
  9
$DIMLDRBLK
  1

  9
$DIMLUNIT
 70
     2
  9
$DIMLWD
 70
    -2
  9
$DIMLWE
 70
    -2
  9
$DIMTMOVE
 70
     0
  9
$DIMFXL
 40
1.0
  9
$DIMFXLON
 70
     0
  9
$DIMJOGANG
 40
0.7853981633974483
  9
$DIMTFILL
 70
     0
  9
$DIMTFILLCLR
 70
     0
  9
$DIMARCSYM
 70
     0
  9
$DIMLTYPE
  6

  9
$DIMLTEX1
  6

  9
$DIMLTEX2
  6

  9
$DIMTXTDIRECTION
 70
     0
  9
$LUNITS
 70
     2
  9
$LUPREC
 70
     4
  9
$SKETCHINC
 40
0.1
  9
$FILLETRAD
 40
0.5
  9
$AUNITS
 70
     0
  9
$AUPREC
 70
     0
  9
$MENU
  1
.
  9
$ELEVATION
 40
0.0
  9
$PELEVATION
 40
0.0
  9
$THICKNESS
 40
0.0
  9
$LIMCHECK
 70
     0
  9
$CHAMFERA
 40
0.5
  9
$CHAMFERB
 40
0.5
  9
$CHAMFERC
 40
1.0
  9
$CHAMFERD
 40
0.0
  9
$SKPOLY
 70
     0
  9
$TDCREATE
 40
2457917.59497684
  9
$TDUCREATE
 40
2457917.219976852
  9
$TDUPDATE
 40
2457917.59497684
  9
$TDUUPDATE
 40
2457917.219976852
  9
$TDINDWG
 40
0.0000000116
  9
$TDUSRTIMER
 40
0.0000000116
  9
$USRTIMER
 70
     1
  9
$ANGBASE
 50
0.0
  9
$ANGDIR
 70
     0
  9
$PDMODE
 70
     0
  9
$PDSIZE
 40
0.0
  9
$PLINEWID
 40
0.0
  9
$SPLFRAME
 70
     0
  9
$SPLINETYPE
 70
     6
  9
$SPLINESEGS
 70
     8
  9
$HANDSEED
  5
ED
  9
$SURFTAB1
 70
     6
  9
$SURFTAB2
 70
     6
  9
$SURFTYPE
 70
     6
  9
$SURFU
 70
     6
  9
$SURFV
 70
     6
  9
$UCSBASE
  2

  9
$UCSNAME
  2

  9
$UCSORG
 10
0.0
 20
0.0
 30
0.0
  9
$UCSXDIR
 10
1.0
 20
0.0
 30
0.0
  9
$UCSYDIR
 10
0.0
 20
1.0
 30
0.0
  9
$UCSORTHOREF
  2

  9
$UCSORTHOVIEW
 70
     0
  9
$UCSORGTOP
 10
0.0
 20
0.0
 30
0.0
  9
$UCSORGBOTTOM
 10
0.0
 20
0.0
 30
0.0
  9
$UCSORGLEFT
 10
0.0
 20
0.0
 30
0.0
  9
$UCSORGRIGHT
 10
0.0
 20
0.0
 30
0.0
  9
$UCSORGFRONT
 10
0.0
 20
0.0
 30
0.0
  9
$UCSORGBACK
 10
0.0
 20
0.0
 30
0.0
  9
$PUCSBASE
  2

  9
$PUCSNAME
  2

  9
$PUCSORG
 10
0.0
 20
0.0
 30
0.0
  9
$PUCSXDIR
 10
1.0
 20
0.0
 30
0.0
  9
$PUCSYDIR
 10
0.0
 20
1.0
 30
0.0
  9
$PUCSORTHOREF
  2

  9
$PUCSORTHOVIEW
 70
     0
  9
$PUCSORGTOP
 10
0.0
 20
0.0
 30
0.0
  9
$PUCSORGBOTTOM
 10
0.0
 20
0.0
 30
0.0
  9
$PUCSORGLEFT
 10
0.0
 20
0.0
 30
0.0
  9
$PUCSORGRIGHT
 10
0.0
 20
0.0
 30
0.0
  9
$PUCSORGFRONT
 10
0.0
 20
0.0
 30
0.0
  9
$PUCSORGBACK
 10
0.0
 20
0.0
 30
0.0
  9
$USERI1
 70
     0
  9
$USERI2
 70
     0
  9
$USERI3
 70
     0
  9
$USERI4
 70
     0
  9
$USERI5
 70
     0
  9
$USERR1
 40
0.0
  9
$USERR2
 40
0.0
  9
$USERR3
 40
0.0
  9
$USERR4
 40
0.0
  9
$USERR5
 40
0.0
  9
$WORLDVIEW
 70
     1
  9
$SHADEDGE
 70
     3
  9
$SHADEDIF
 70
    70
  9
$TILEMODE
 70
     1
  9
$MAXACTVP
 70
    64
  9
$PINSBASE
 10
0.0
 20
0.0
 30
0.0
  9
$PLIMCHECK
 70
     0
  9
$PEXTMIN
 10
1.000000000000000E+20
 20
1.000000000000000E+20
 30
1.000000000000000E+20
  9
$PEXTMAX
 10
-1.000000000000000E+20
 20
-1.000000000000000E+20
 30
-1.000000000000000E+20
  9
$PLIMMIN
 10
0.0
 20
0.0
  9
$PLIMMAX
 10
12.0
 20
9.0
  9
$UNITMODE
 70
     0
  9
$VISRETAIN
 70
     1
  9
$PLINEGEN
 70
     0
  9
$PSLTSCALE
 70
     1
  9
$TREEDEPTH
 70
  3020
  9
$CMLSTYLE
  2
Standard
  9
$CMLJUST
 70
     0
  9
$CMLSCALE
 40
1.0
  9
$PROXYGRAPHICS
 70
     1
  9
$MEASUREMENT
 70
     0
  9
$CELWEIGHT
370
    -1
  9
$ENDCAPS
280
     0
  9
$JOINSTYLE
280
     0
  9
$LWDISPLAY
290
     1
  9
$INSUNITS
 70
     1
  9
$HYPERLINKBASE
  1

  9
$STYLESHEET
  1

  9
$XEDIT
290
     1
  9
$CEPSNTYPE
380
     0
  9
$PSTYLEMODE
290
     1
  9
$FINGERPRINTGUID
  2
{D03E370B-2DFC-259F-B385-BC0F54D51F65}
  9
$VERSIONGUID
  2
{FAEB1C32-E019-11D5-929B-00C0DF256EC4}
  9
$EXTNAMES
290
     1
  9
$PSVPSCALE
 40
0.0
  9
$OLESTARTUP
290
     0
  9
$SORTENTS
280
   127
  9
$INDEXCTL
280
     0
  9
$HIDETEXT
280
     1
  9
$XCLIPFRAME
280
     2
  9
$HALOGAP
280
     0
  9
$OBSCOLOR
 70
   257
  9
$OBSLTYPE
280
     0
  9
$INTERSECTIONDISPLAY
280
     0
  9
$INTERSECTIONCOLOR
 70
   257
  9
$DIMASSOC
280
     2
  9
$PROJECTNAME
  1

  9
$CAMERADISPLAY
290
     0
  9
$LENSLENGTH
 40
50.0
  9
$CAMERAHEIGHT
 40
0.0
  9
$STEPSPERSEC
 40
2.0
  9
$STEPSIZE
 40
6.0
  9
$3DDWFPREC
 40
2.0
  9
$PSOLWIDTH
 40
0.25
  9
$PSOLHEIGHT
 40
4.0
  9
$LOFTANG1
 40
1.570796326794897
  9
$LOFTANG2
 40
1.570796326794897
  9
$LOFTMAG1
 40
0.0
  9
$LOFTMAG2
 40
0.0
  9
$LOFTPARAM
 70
     7
  9
$LOFTNORMALS
280
     1
  9
$LATITUDE
 40
37.795
  9
$LONGITUDE
 40
-122.394
  9
$NORTHDIRECTION
 40
0.0
  9
$TIMEZONE
 70
 -8000
  9
$LIGHTGLYPHDISPLAY
280
     1
  9
$TILEMODELIGHTSYNCH
280
     1
  9
$CMATERIAL
347
3C
  9
$SOLIDHIST
280
     1
  9
$SHOWHIST
280
     1
  9
$DWFFRAME
280
     2
  9
$DGNFRAME
280
     2
  9
$REALWORLDSCALE
290
     1
  9
$INTERFERECOLOR
 62
   256
  9
$CSHADOW
280
     0
  9
$SHADOWPLANELOCATION
 40
0.0
  0
ENDSEC
  0
SECTION
  2
CLASSES
  0
CLASS
  1
ACDBDICTIONARYWDFLT
  2
AcDbDictionaryWithDefault
  3
ObjectDBX Classes
 90
        0
 91
        4
280
     0
281
     0
  0
CLASS
  1
VISUALSTYLE
  2
AcDbVisualStyle
  3
ObjectDBX Classes
 90
     4095
 91
        4
280
     0
281
     0
  0
CLASS
  1
MATERIAL
  2
AcDbMaterial
  3
ObjectDBX Classes
 90
     1153
 91
        4
280
     0
281
     0
  0
CLASS
  1
SUN
  2
AcDbSun
  3
SCENEOE
 90
     1024
 91
        4
280
     0
281
     0
  0
ENDSEC
  0
SECTION
  2
TABLES
  0
TABLE
  2
VPORT
  5
8
330
0
100
AcDbSymbolTable
 70
     1
  0
VPORT
  5
29
330
8
100
AcDbSymbolTableRecord
100
AcDbViewportTableRecord
  2
*Active
 70
     0
 10
0.0
 20
0.0
 11
1.0
 21
1.0
 12
0.0
 22
0.0
 13
0.0
 23
0.0
 14
0.5
 24
0.5
 15
0.5
 25
0.5
 16
0.0
 26
0.0
 36
1.0
 17
91.00082462281999
 27
-128.4993055234307
 37
0.0
 40
256.9986110468615
 41
0.7081814508812795
 42
50.0
 43
0.0
 44
0.0
 50
0.0
 51
0.0
 71
     0
 72
   100
 73
     1
 74
     3
 75
     0
 76
     0
 77
     0
 78
     0
281
     0
 65
     1
110
0.0
120
0.0
130
0.0
111
1.0
121
0.0
131
0.0
112
0.0
122
1.0
132
0.0
 79
     0
146
0.0
 60
     3
 61
     5
292
     1
282
     1
141
0.0
142
0.0
 63
   250
361
3F
  0
ENDTAB
  0
TABLE
  2
LTYPE
  5
5
330
0
100
AcDbSymbolTable
 70
     1
  0
LTYPE
  5
14
330
5
100
AcDbSymbolTableRecord
100
AcDbLinetypeTableRecord
  2
ByBlock
 70
     0
  3

 72
    65
 73
     0
 40
0.0
  0
LTYPE
  5
15
330
5
100
AcDbSymbolTableRecord
100
AcDbLinetypeTableRecord
  2
ByLayer
 70
     0
  3

 72
    65
 73
     0
 40
0.0
  0
LTYPE
  5
16
330
5
100
AcDbSymbolTableRecord
100
AcDbLinetypeTableRecord
  2
Continuous
 70
     0
  3
Solid line
 72
    65
 73
     0
 40
0.0
  0
ENDTAB
  0
TABLE
  2
LAYER
  5
2
330
0
100
AcDbSymbolTable
 70
     2
  0
LAYER
  5
10
330
2
100
AcDbSymbolTableRecord
100
AcDbLayerTableRecord
  2
0
 70
     0
 62
     7
  6
Continuous
370
    -3
390
F
347
3E
  0
LAYER
  5
40
330
2
100
AcDbSymbolTableRecord
100
AcDbLayerTableRecord
  2
_U+30EC_U+30A4_U+30E4_U+30FC 1
 70
     0
 62
     7
  6
Continuous
370
    -3
390
F
347
3E
  0
ENDTAB
  0
TABLE
  2
STYLE
  5
3
330
0
100
AcDbSymbolTable
 70
     1
  0
STYLE
  5
11
330
3
100
AcDbSymbolTableRecord
100
AcDbTextStyleTableRecord
  2
Standard
 70
     0
 40
0.0
 41
1.0
 50
0.0
 71
     0
 42
0.2
  3
txt
  4

  0
ENDTAB
  0
TABLE
  2
VIEW
  5
6
330
0
100
AcDbSymbolTable
 70
     0
  0
ENDTAB
  0
TABLE
  2
UCS
  5
7
330
0
100
AcDbSymbolTable
 70
     0
  0
ENDTAB
  0
TABLE
  2
APPID
  5
9
330
0
100
AcDbSymbolTable
 70
     1
  0
APPID
  5
12
330
9
100
AcDbSymbolTableRecord
100
AcDbRegAppTableRecord
  2
ACAD
 70
     0
  0
ENDTAB
  0
TABLE
  2
DIMSTYLE
  5
A
330
0
100
AcDbSymbolTable
 70
     1
100
AcDbDimStyleTable
  0
DIMSTYLE
105
27
330
A
100
AcDbSymbolTableRecord
100
AcDbDimStyleTableRecord
  2
Standard
 70
     0
178
     0
340
11
  0
ENDTAB
  0
TABLE
  2
BLOCK_RECORD
  5
1
330
0
100
AcDbSymbolTable
 70
     6
  0
BLOCK_RECORD
  5
1F
330
1
100
AcDbSymbolTableRecord
100
AcDbBlockTableRecord
  2
*Model_Space
340
22
 70
     0
280
     1
281
     0
  0
BLOCK_RECORD
  5
1B
330
1
100
AcDbSymbolTableRecord
100
AcDbBlockTableRecord
  2
*Paper_Space
340
1E
 70
     0
280
     1
281
     0
  0
BLOCK_RECORD
  5
23
330
1
100
AcDbSymbolTableRecord
100
AcDbBlockTableRecord
  2
*Paper_Space0
340
26
 70
     0
280
     1
281
     0
  0
BLOCK_RECORD
  5
83
330
1
100
AcDbSymbolTableRecord
100
AcDbBlockTableRecord
  2
block 2
340
0
102
{BLKREFS
331
84
102
}
 70
     0
280
     1
281
     0
  0
BLOCK_RECORD
  5
A0
330
1
100
AcDbSymbolTableRecord
100
AcDbBlockTableRecord
  2
block 3
340
0
102
{BLKREFS
331
A1
102
}
 70
     0
280
     1
281
     0
  0
BLOCK_RECORD
  5
B2
330
1
100
AcDbSymbolTableRecord
100
AcDbBlockTableRecord
  2
block 4
340
0
102
{BLKREFS
331
B3
102
}
 70
     0
280
     1
281
     0
  0
BLOCK_RECORD
  5
C6
330
1
100
AcDbSymbolTableRecord
100
AcDbBlockTableRecord
  2
block 5
340
0
102
{BLKREFS
331
C7
102
}
 70
     0
280
     1
281
     0
  0
BLOCK_RECORD
  5
DA
330
1
100
AcDbSymbolTableRecord
100
AcDbBlockTableRecord
  2
block 6
340
0
102
{BLKREFS
331
DB
102
}
 70
     0
280
     1
281
     0
  0
ENDTAB
  0
ENDSEC
  0
SECTION
  2
BLOCKS
  0
BLOCK
  5
20
330
1F
100
AcDbEntity
  8
0
100
AcDbBlockBegin
  2
*Model_Space
 70
     0
 10
0.0
 20
0.0
 30
0.0
  3
*Model_Space
  1

  0
ENDBLK
  5
21
330
1F
100
AcDbEntity
  8
0
100
AcDbBlockEnd
  0
BLOCK
  5
1C
330
1B
100
AcDbEntity
 67
     1
  8
0
100
AcDbBlockBegin
  2
*Paper_Space
 70
     0
 10
0.0
 20
0.0
 30
0.0
  3
*Paper_Space
  1

  0
ENDBLK
  5
1D
330
1B
100
AcDbEntity
 67
     1
  8
0
100
AcDbBlockEnd
  0
BLOCK
  5
24
330
23
100
AcDbEntity
  8
0
100
AcDbBlockBegin
  2
*Paper_Space0
 70
     0
 10
0.0
 20
0.0
 30
0.0
  3
*Paper_Space0
  1

  0
ENDBLK
  5
25
330
23
100
AcDbEntity
  8
0
100
AcDbBlockEnd
  0
BLOCK
  5
85
330
83
100
AcDbEntity
  8
0
100
AcDbBlockBegin
  2
block 2
 70
     0
 10
0.0
 20
0.0
 30
0.0
  3
block 2
  1

  0
SPLINE
  5
87
330
83
100
AcDbEntity
  8
_U+30EC_U+30A4_U+30E4_U+30FC 1
370
     0
100
AcDbSpline
210
0.0
220
0.0
230
1.0
 70
    11
 71
     3
 72
    26
 73
    22
 74
     0
 42
0.0000000001
 43
0.0000000001
 12
1.0
 22
0.0
 32
0.0
 13
1.0
 23
0.0
 33
0.0
 40
0.0
 40
0.0
 40
0.0
 40
0.0
 40
1.0
 40
1.0
 40
1.0
 40
2.0
 40
2.0
 40
2.0
 40
3.0
 40
3.0
 40
3.0
 40
4.0
 40
4.0
 40
4.0
 40
5.0
 40
5.0
 40
5.0
 40
6.0
 40
6.0
 40
6.0
 40
7.0
 40
7.0
 40
7.0
 40
7.0
 10
78.09928112196823
 20
-138.0132812154967
 30
0.0
 10
78.09928112196823
 20
-138.0132812154967
 30
0.0
 10
78.09928112196823
 20
-136.9094726220226
 30
0.0
 10
78.09928112196823
 20
-136.9094726220226
 30
0.0
 10
78.09928112196823
 20
-136.9094726220226
 30
0.0
 10
77.74650334427865
 20
-136.9094726220226
 30
0.0
 10
77.74650334427865
 20
-136.9094726220226
 30
0.0
 10
77.74650334427865
 20
-136.9094726220226
 30
0.0
 10
77.74650334427865
 20
-136.7613335161569
 30
0.0
 10
77.74650334427865
 20
-136.7613335161569
 30
0.0
 10
78.10152043403365
 20
-136.7461750960218
 30
0.0
 10
78.15130206379551
 20
-136.583566589118
 30
0.0
 10
78.18282468748555
 20
-136.4691894190077
 30
0.0
 10
78.18282468748555
 20
-136.4691894190077
 30
0.0
 10
78.33888751296736
 20
-136.4691894190077
 30
0.0
 10
78.33888751296736
 20
-136.4691894190077
 30
0.0
 10
78.33888751296736
 20
-136.4691894190077
 30
0.0
 10
78.33888751296736
 20
-138.0132812154967
 30
0.0
 10
78.33888751296736
 20
-138.0132812154967
 30
0.0
 10
78.33888751296736
 20
-138.0132812154967
 30
0.0
 10
78.09928112196823
 20
-138.0132812154967
 30
0.0
 10
78.09928112196823
 20
-138.0132812154967
 30
0.0
  0
HATCH
  5
88
330
83
100
AcDbEntity
  8
_U+30EC_U+30A4_U+30E4_U+30FC 1
 62
     7
420
 16777215
100
AcDbHatch
 10
0.0
 20
0.0
 30
0.0
210
0.0
220
0.0
230
1.0
  2
SOLID
 70
     1
 71
     0
 91
        1
 92
        1
 93
        1
 72
     4
 94
        3
 73
     0
 74
     1
 95
       26
 96
       22
 40
0.0
 40
0.0
 40
0.0
 40
0.0
 40
1.0
 40
1.0
 40
1.0
 40
2.0
 40
2.0
 40
2.0
 40
3.0
 40
3.0
 40
3.0
 40
4.0
 40
4.0
 40
4.0
 40
5.0
 40
5.0
 40
5.0
 40
6.0
 40
6.0
 40
6.0
 40
7.0
 40
7.0
 40
7.0
 40
7.0
 10
78.09928112196823
 20
-138.0132812154967
 10
78.09928112196823
 20
-138.0132812154967
 10
78.09928112196823
 20
-136.9094726220226
 10
78.09928112196823
 20
-136.9094726220226
 10
78.09928112196823
 20
-136.9094726220226
 10
77.74650334427865
 20
-136.9094726220226
 10
77.74650334427865
 20
-136.9094726220226
 10
77.74650334427865
 20
-136.9094726220226
 10
77.74650334427865
 20
-136.7613335161569
 10
77.74650334427865
 20
-136.7613335161569
 10
78.10152043403365
 20
-136.7461750960218
 10
78.15130206379551
 20
-136.583566589118
 10
78.18282468748555
 20
-136.4691894190077
 10
78.18282468748555
 20
-136.4691894190077
 10
78.33888751296736
 20
-136.4691894190077
 10
78.33888751296736
 20
-136.4691894190077
 10
78.33888751296736
 20
-136.4691894190077
 10
78.33888751296736
 20
-138.0132812154967
 10
78.33888751296736
 20
-138.0132812154967
 10
78.33888751296736
 20
-138.0132812154967
 10
78.09928112196823
 20
-138.0132812154967
 10
78.09928112196823
 20
-138.0132812154967
 97
        0
 97
        0
 75
     2
 76
     1
 98
        0
  0
SPLINE
  5
89
330
83
100
AcDbEntity
  8
_U+30EC_U+30A4_U+30E4_U+30FC 1
370
     0
100
AcDbSpline
210
0.0
220
0.0
230
1.0
 70
    11
 71
     3
 72
    44
 73
    40
 74
     0
 42
0.0000000001
 43
0.0000000001
 12
1.0
 22
0.0
 32
0.0
 13
1.0
 23
0.0
 33
0.0
 40
0.0
 40
0.0
 40
0.0
 40
0.0
 40
1.0
 40
1.0
 40
1.0
 40
2.0
 40
2.0
 40
2.0
 40
3.0
 40
3.0
 40
3.0
 40
4.0
 40
4.0
 40
4.0
 40
5.0
 40
5.0
 40
5.0
 40
6.0
 40
6.0
 40
6.0
 40
7.0
 40
7.0
 40
7.0
 40
8.0
 40
8.0
 40
8.0
 40
9.0
 40
9.0
 40
9.0
 40
10.0
 40
10.0
 40
10.0
 40
11.0
 40
11.0
 40
11.0
 40
12.0
 40
12.0
 40
12.0
 40
13.0
 40
13.0
 40
13.0
 40
13.0
 10
79.95842690058332
 20
-138.0132812154967
 30
0.0
 10
79.93362221308952
 20
-137.9691839932855
 30
0.0
 10
79.91088458288687
 20
-137.9161295228126
 30
0.0
 10
79.90864527082145
 20
-137.6853081253009
 30
0.0
 10
79.90416664669063
 20
-137.4420843840423
 30
0.0
 10
79.8409491445363
 20
-137.3724934552402
 30
0.0
 10
79.65095212852476
 20
-137.3724934552402
 30
0.0
 10
79.65095212852476
 20
-137.3724934552402
 30
0.0
 10
79.21463078531788
 20
-137.3724934552402
 30
0.0
 10
79.21463078531788
 20
-137.3724934552402
 30
0.0
 10
79.21463078531788
 20
-137.3724934552402
 30
0.0
 10
79.21463078531788
 20
-138.0132812154967
 30
0.0
 10
79.21463078531788
 20
-138.0132812154967
 30
0.0
 10
79.21463078531788
 20
-138.0132812154967
 30
0.0
 10
78.96365557921742
 20
-138.0132812154967
 30
0.0
 10
78.96365557921742
 20
-138.0132812154967
 30
0.0
 10
78.96365557921742
 20
-138.0132812154967
 30
0.0
 10
78.96365557921742
 20
-136.4691894190077
 30
0.0
 10
78.96365557921742
 20
-136.4691894190077
 30
0.0
 10
78.96365557921742
 20
-136.4691894190077
 30
0.0
 10
79.68488631905447
 20
-136.4691894190077
 30
0.0
 10
79.68488631905447
 20
-136.4691894190077
 30
0.0
 10
80.012687154476
 20
-136.4691894190077
 30
0.0
 10
80.19131535538621
 20
-136.6407551741731
 30
0.0
 10
80.19131535538621
 20
-136.8963812591787
 30
0.0
 10
80.19131535538621
 20
-136.9473686723604
 30
0.0
 10
80.18235810712456
 20
-137.0300509640064
 30
0.0
 10
80.1348157894281
 20
-137.1099771792642
 30
0.0
 10
80.0714260324995
 20
-137.2140190629187
 30
0.0
 10
80.00149059414893
 20
-137.2326225785391
 30
0.0
 10
79.93586152515493
 20
-137.2498480559653
 30
0.0
 10
80.08279484760084
 20
-137.2918782208854
 30
0.0
 10
80.15514185279108
 20
-137.3407985767759
 30
0.0
 10
80.1596204769219
 20
-137.6556803041277
 30
0.0
 10
80.16409910105273
 20
-137.9264648092684
 30
0.0
 10
80.20268417048753
 20
-137.9581596877327
 30
0.0
 10
80.27503117567777
 20
-138.0132812154967
 30
0.0
 10
80.27503117567777
 20
-138.0132812154967
 30
0.0
 10
79.95842690058332
 20
-138.0132812154967
 30
0.0
 10
79.95842690058332
 20
-138.0132812154967
 30
0.0
  0
SPLINE
  5
8A
330
83
100
AcDbEntity
  8
_U+30EC_U+30A4_U+30E4_U+30FC 1
370
     0
100
AcDbSpline
210
0.0
220
0.0
230
1.0
 70
    11
 71
     3
 72
    20
 73
    16
 74
     0
 42
0.0000000001
 43
0.0000000001
 12
1.0
 22
0.0
 32
0.0
 13
1.0
 23
0.0
 33
0.0
 40
0.0
 40
0.0
 40
0.0
 40
0.0
 40
1.0
 40
1.0
 40
1.0
 40
2.0
 40
2.0
 40
2.0
 40
3.0
 40
3.0
 40
3.0
 40
4.0
 40
4.0
 40
4.0
 40
5.0
 40
5.0
 40
5.0
 40
5.0
 10
79.6893649431853
 20
-136.6807182818021
 30
0.0
 10
79.6893649431853
 20
-136.6807182818021
 30
0.0
 10
79.21463078531788
 20
-136.6807182818021
 30
0.0
 10
79.21463078531788
 20
-136.6807182818021
 30
0.0
 10
79.21463078531788
 20
-136.6807182818021
 30
0.0
 10
79.21463078531788
 20
-137.1609645924459
 30
0.0
 10
79.21463078531788
 20
-137.1609645924459
 30
0.0
 10
79.21463078531788
 20
-137.1609645924459
 30
0.0
 10
79.68712563111988
 20
-137.1609645924459
 30
0.0
 10
79.68712563111988
 20
-137.1609645924459
 30
0.0
 10
79.79340682683984
 20
-137.1609645924459
 30
0.0
 10
79.93810083722033
 20
-137.0844834726733
 30
0.0
 10
79.93810083722033
 20
-136.9136067366049
 30
0.0
 10
79.93810083722033
 20
-136.8350585595412
 30
0.0
 10
79.90192733462521
 20
-136.6807182818021
 30
0.0
 10
79.6893649431853
 20
-136.6807182818021
 30
0.0
  0
HATCH
  5
8B
330
83
100
AcDbEntity
  8
_U+30EC_U+30A4_U+30E4_U+30FC 1
 62
     7
420
 16777215
100
AcDbHatch
 10
0.0
 20
0.0
 30
0.0
210
0.0
220
0.0
230
1.0
  2
SOLID
 70
     1
 71
     0
 91
        2
 92
        1
 93
        1
 72
     4
 94
        3
 73
     0
 74
     1
 95
       44
 96
       40
 40
0.0
 40
0.0
 40
0.0
 40
0.0
 40
1.0
 40
1.0
 40
1.0
 40
2.0
 40
2.0
 40
2.0
 40
3.0
 40
3.0
 40
3.0
 40
4.0
 40
4.0
 40
4.0
 40
5.0
 40
5.0
 40
5.0
 40
6.0
 40
6.0
 40
6.0
 40
7.0
 40
7.0
 40
7.0
 40
8.0
 40
8.0
 40
8.0
 40
9.0
 40
9.0
 40
9.0
 40
10.0
 40
10.0
 40
10.0
 40
11.0
 40
11.0
 40
11.0
 40
12.0
 40
12.0
 40
12.0
 40
13.0
 40
13.0
 40
13.0
 40
13.0
 10
79.95842690058332
 20
-138.0132812154967
 10
79.93362221308952
 20
-137.9691839932855
 10
79.91088458288687
 20
-137.9161295228126
 10
79.90864527082145
 20
-137.6853081253009
 10
79.90416664669063
 20
-137.4420843840423
 10
79.8409491445363
 20
-137.3724934552402
 10
79.65095212852476
 20
-137.3724934552402
 10
79.65095212852476
 20
-137.3724934552402
 10
79.21463078531788
 20
-137.3724934552402
 10
79.21463078531788
 20
-137.3724934552402
 10
79.21463078531788
 20
-137.3724934552402
 10
79.21463078531788
 20
-138.0132812154967
 10
79.21463078531788
 20
-138.0132812154967
 10
79.21463078531788
 20
-138.0132812154967
 10
78.96365557921742
 20
-138.0132812154967
 10
78.96365557921742
 20
-138.0132812154967
 10
78.96365557921742
 20
-138.0132812154967
 10
78.96365557921742
 20
-136.4691894190077
 10
78.96365557921742
 20
-136.4691894190077
 10
78.96365557921742
 20
-136.4691894190077
 10
79.68488631905447
 20
-136.4691894190077
 10
79.68488631905447
 20
-136.4691894190077
 10
80.012687154476
 20
-136.4691894190077
 10
80.19131535538621
 20
-136.6407551741731
 10
80.19131535538621
 20
-136.8963812591787
 10
80.19131535538621
 20
-136.9473686723604
 10
80.18235810712456
 20
-137.0300509640064
 10
80.1348157894281
 20
-137.1099771792642
 10
80.0714260324995
 20
-137.2140190629187
 10
80.00149059414893
 20
-137.2326225785391
 10
79.93586152515493
 20
-137.2498480559653
 10
80.08279484760084
 20
-137.2918782208854
 10
80.15514185279108
 20
-137.3407985767759
 10
80.1596204769219
 20
-137.6556803041277
 10
80.16409910105273
 20
-137.9264648092684
 10
80.20268417048753
 20
-137.9581596877327
 10
80.27503117567777
 20
-138.0132812154967
 10
80.27503117567777
 20
-138.0132812154967
 10
79.95842690058332
 20
-138.0132812154967
 10
79.95842690058332
 20
-138.0132812154967
 97
        0
 97
        0
 92
        1
 93
        1
 72
     4
 94
        3
 73
     0
 74
     1
 95
       20
 96
       16
 40
0.0
 40
0.0
 40
0.0
 40
0.0
 40
1.0
 40
1.0
 40
1.0
 40
2.0
 40
2.0
 40
2.0
 40
3.0
 40
3.0
 40
3.0
 40
4.0
 40
4.0
 40
4.0
 40
5.0
 40
5.0
 40
5.0
 40
5.0
 10
79.6893649431853
 20
-136.6807182818021
 10
79.6893649431853
 20
-136.6807182818021
 10
79.21463078531788
 20
-136.6807182818021
 10
79.21463078531788
 20
-136.6807182818021
 10
79.21463078531788
 20
-136.6807182818021
 10
79.21463078531788
 20
-137.1609645924459
 10
79.21463078531788
 20
-137.1609645924459
 10
79.21463078531788
 20
-137.1609645924459
 10
79.68712563111988
 20
-137.1609645924459
 10
79.68712563111988
 20
-137.1609645924459
 10
79.79340682683984
 20
-137.1609645924459
 10
79.93810083722033
 20
-137.0844834726733
 10
79.93810083722033
 20
-136.9136067366049
 10
79.93810083722033
 20
-136.8350585595412
 10
79.90192733462521
 20
-136.6807182818021
 10
79.6893649431853
 20
-136.6807182818021
 97
        0
 97
        0
 75
     2
 76
     1
 98
        0
  0
ENDBLK
  5
86
330
83
100
AcDbEntity
  8
0
100
AcDbBlockEnd
  0
BLOCK
  5
A2
330
A0
100
AcDbEntity
  8
0
100
AcDbBlockBegin
  2
block 3
 70
     0
 10
0.0
 20
0.0
 30
0.0
  3
block 3
  1

  0
SPLINE
  5
A4
330
A0
100
AcDbEntity
  8
_U+30EC_U+30A4_U+30E4_U+30FC 1
370
     0
100
AcDbSpline
210
0.0
220
0.0
230
1.0
 70
    11
 71
     3
 72
    26
 73
    22
 74
     0
 42
0.0000000001
 43
0.0000000001
 12
1.0
 22
0.0
 32
0.0
 13
1.0
 23
0.0
 33
0.0
 40
0.0
 40
0.0
 40
0.0
 40
0.0
 40
1.0
 40
1.0
 40
1.0
 40
2.0
 40
2.0
 40
2.0
 40
3.0
 40
3.0
 40
3.0
 40
4.0
 40
4.0
 40
4.0
 40
5.0
 40
5.0
 40
5.0
 40
6.0
 40
6.0
 40
6.0
 40
7.0
 40
7.0
 40
7.0
 40
7.0
 10
87.81892901450361
 20
-124.0637450861716
 30
0.0
 10
87.81892901450361
 20
-124.0637450861716
 30
0.0
 10
87.81892901450361
 20
-122.9594197283747
 30
0.0
 10
87.81892901450361
 20
-122.9594197283747
 30
0.0
 10
87.81892901450361
 20
-122.9594197283747
 30
0.0
 10
87.46615123681403
 20
-122.9594197283747
 30
0.0
 10
87.46615123681403
 20
-122.9594197283747
 30
0.0
 10
87.46615123681403
 20
-122.9594197283747
 30
0.0
 10
87.46615123681403
 20
-122.8114528772833
 30
0.0
 10
87.46615123681403
 20
-122.8114528772833
 30
0.0
 10
87.82116832656902
 20
-122.7966389666967
 30
0.0
 10
87.87094995633088
 20
-122.6336859502444
 30
0.0
 10
87.90264483479518
 20
-122.5194810349083
 30
0.0
 10
87.90264483479518
 20
-122.5194810349083
 30
0.0
 10
88.05853540550274
 20
-122.5194810349083
 30
0.0
 10
88.05853540550274
 20
-122.5194810349083
 30
0.0
 10
88.05853540550274
 20
-122.5194810349083
 30
0.0
 10
88.05853540550274
 20
-124.0637450861716
 30
0.0
 10
88.05853540550274
 20
-124.0637450861716
 30
0.0
 10
88.05853540550274
 20
-124.0637450861716
 30
0.0
 10
87.81892901450361
 20
-124.0637450861716
 30
0.0
 10
87.81892901450361
 20
-124.0637450861716
 30
0.0
  0
HATCH
  5
A5
330
A0
100
AcDbEntity
  8
_U+30EC_U+30A4_U+30E4_U+30FC 1
 62
     7
420
 16777215
100
AcDbHatch
 10
0.0
 20
0.0
 30
0.0
210
0.0
220
0.0
230
1.0
  2
SOLID
 70
     1
 71
     0
 91
        1
 92
        1
 93
        1
 72
     4
 94
        3
 73
     0
 74
     1
 95
       26
 96
       22
 40
0.0
 40
0.0
 40
0.0
 40
0.0
 40
1.0
 40
1.0
 40
1.0
 40
2.0
 40
2.0
 40
2.0
 40
3.0
 40
3.0
 40
3.0
 40
4.0
 40
4.0
 40
4.0
 40
5.0
 40
5.0
 40
5.0
 40
6.0
 40
6.0
 40
6.0
 40
7.0
 40
7.0
 40
7.0
 40
7.0
 10
87.81892901450361
 20
-124.0637450861716
 10
87.81892901450361
 20
-124.0637450861716
 10
87.81892901450361
 20
-122.9594197283747
 10
87.81892901450361
 20
-122.9594197283747
 10
87.81892901450361
 20
-122.9594197283747
 10
87.46615123681403
 20
-122.9594197283747
 10
87.46615123681403
 20
-122.9594197283747
 10
87.46615123681403
 20
-122.9594197283747
 10
87.46615123681403
 20
-122.8114528772833
 10
87.46615123681403
 20
-122.8114528772833
 10
87.82116832656902
 20
-122.7966389666967
 10
87.87094995633088
 20
-122.6336859502444
 10
87.90264483479518
 20
-122.5194810349083
 10
87.90264483479518
 20
-122.5194810349083
 10
88.05853540550274
 20
-122.5194810349083
 10
88.05853540550274
 20
-122.5194810349083
 10
88.05853540550274
 20
-122.5194810349083
 10
88.05853540550274
 20
-124.0637450861716
 10
88.05853540550274
 20
-124.0637450861716
 10
88.05853540550274
 20
-124.0637450861716
 10
87.81892901450361
 20
-124.0637450861716
 10
87.81892901450361
 20
-124.0637450861716
 97
        0
 97
        0
 75
     2
 76
     1
 98
        0
  0
ENDBLK
  5
A3
330
A0
100
AcDbEntity
  8
0
100
AcDbBlockEnd
  0
BLOCK
  5
B4
330
B2
100
AcDbEntity
  8
0
100
AcDbBlockBegin
  2
block 4
 70
     0
 10
0.0
 20
0.0
 30
0.0
  3
block 4
  1

  0
SPLINE
  5
B6
330
B2
100
AcDbEntity
  8
_U+30EC_U+30A4_U+30E4_U+30FC 1
370
     0
100
AcDbSpline
210
0.0
220
0.0
230
1.0
 70
    11
 71
     3
 72
    26
 73
    22
 74
     0
 42
0.0000000001
 43
0.0000000001
 12
1.0
 22
0.0
 32
0.0
 13
1.0
 23
0.0
 33
0.0
 40
0.0
 40
0.0
 40
0.0
 40
0.0
 40
1.0
 40
1.0
 40
1.0
 40
2.0
 40
2.0
 40
2.0
 40
3.0
 40
3.0
 40
3.0
 40
4.0
 40
4.0
 40
4.0
 40
5.0
 40
5.0
 40
5.0
 40
6.0
 40
6.0
 40
6.0
 40
7.0
 40
7.0
 40
7.0
 40
7.0
 10
80.99574515119204
 20
-129.3364637263464
 30
0.0
 10
80.99574515119204
 20
-129.3364637263464
 30
0.0
 10
79.8914197933952
 20
-129.3364637263464
 30
0.0
 10
79.8914197933952
 20
-129.3364637263464
 30
0.0
 10
79.8914197933952
 20
-129.3364637263464
 30
0.0
 10
79.8914197933952
 20
-129.688552484939
 30
0.0
 10
79.8914197933952
 20
-129.688552484939
 30
0.0
 10
79.8914197933952
 20
-129.688552484939
 30
0.0
 10
79.74328068752946
 20
-129.688552484939
 30
0.0
 10
79.74328068752946
 20
-129.688552484939
 30
0.0
 10
79.72863903171715
 20
-129.3337076499583
 30
0.0
 10
79.56568601526483
 20
-129.2840982749707
 30
0.0
 10
79.4514810999288
 20
-129.2524033965063
 30
0.0
 10
79.4514810999288
 20
-129.2524033965063
 30
0.0
 10
79.4514810999288
 20
-129.0966850805731
 30
0.0
 10
79.4514810999288
 20
-129.0966850805731
 30
0.0
 10
79.4514810999288
 20
-129.0966850805731
 30
0.0
 10
80.99574515119204
 20
-129.0966850805731
 30
0.0
 10
80.99574515119204
 20
-129.0966850805731
 30
0.0
 10
80.99574515119204
 20
-129.0966850805731
 30
0.0
 10
80.99574515119204
 20
-129.3364637263464
 30
0.0
 10
80.99574515119204
 20
-129.3364637263464
 30
0.0
  0
HATCH
  5
B7
330
B2
100
AcDbEntity
  8
_U+30EC_U+30A4_U+30E4_U+30FC 1
 62
     7
420
 16777215
100
AcDbHatch
 10
0.0
 20
0.0
 30
0.0
210
0.0
220
0.0
230
1.0
  2
SOLID
 70
     1
 71
     0
 91
        1
 92
        1
 93
        1
 72
     4
 94
        3
 73
     0
 74
     1
 95
       26
 96
       22
 40
0.0
 40
0.0
 40
0.0
 40
0.0
 40
1.0
 40
1.0
 40
1.0
 40
2.0
 40
2.0
 40
2.0
 40
3.0
 40
3.0
 40
3.0
 40
4.0
 40
4.0
 40
4.0
 40
5.0
 40
5.0
 40
5.0
 40
6.0
 40
6.0
 40
6.0
 40
7.0
 40
7.0
 40
7.0
 40
7.0
 10
80.99574515119204
 20
-129.3364637263464
 10
80.99574515119204
 20
-129.3364637263464
 10
79.8914197933952
 20
-129.3364637263464
 10
79.8914197933952
 20
-129.3364637263464
 10
79.8914197933952
 20
-129.3364637263464
 10
79.8914197933952
 20
-129.688552484939
 10
79.8914197933952
 20
-129.688552484939
 10
79.8914197933952
 20
-129.688552484939
 10
79.74328068752946
 20
-129.688552484939
 10
79.74328068752946
 20
-129.688552484939
 10
79.72863903171715
 20
-129.3337076499583
 10
79.56568601526483
 20
-129.2840982749707
 10
79.4514810999288
 20
-129.2524033965063
 10
79.4514810999288
 20
-129.2524033965063
 10
79.4514810999288
 20
-129.0966850805731
 10
79.4514810999288
 20
-129.0966850805731
 10
79.4514810999288
 20
-129.0966850805731
 10
80.99574515119204
 20
-129.0966850805731
 10
80.99574515119204
 20
-129.0966850805731
 10
80.99574515119204
 20
-129.0966850805731
 10
80.99574515119204
 20
-129.3364637263464
 10
80.99574515119204
 20
-129.3364637263464
 97
        0
 97
        0
 75
     2
 76
     1
 98
        0
  0
SPLINE
  5
B8
330
B2
100
AcDbEntity
  8
_U+30EC_U+30A4_U+30E4_U+30FC 1
370
     0
100
AcDbSpline
210
0.0
220
0.0
230
1.0
 70
    11
 71
     3
 72
    62
 73
    58
 74
     0
 42
0.0000000001
 43
0.0000000001
 12
1.0
 22
0.0
 32
0.0
 13
1.0
 23
0.0
 33
0.0
 40
0.0
 40
0.0
 40
0.0
 40
0.0
 40
1.0
 40
1.0
 40
1.0
 40
2.0
 40
2.0
 40
2.0
 40
3.0
 40
3.0
 40
3.0
 40
4.0
 40
4.0
 40
4.0
 40
5.0
 40
5.0
 40
5.0
 40
6.0
 40
6.0
 40
6.0
 40
7.0
 40
7.0
 40
7.0
 40
8.0
 40
8.0
 40
8.0
 40
9.0
 40
9.0
 40
9.0
 40
10.0
 40
10.0
 40
10.0
 40
11.0
 40
11.0
 40
11.0
 40
12.0
 40
12.0
 40
12.0
 40
13.0
 40
13.0
 40
13.0
 40
14.0
 40
14.0
 40
14.0
 40
15.0
 40
15.0
 40
15.0
 40
16.0
 40
16.0
 40
16.0
 40
17.0
 40
17.0
 40
17.0
 40
18.0
 40
18.0
 40
18.0
 40
19.0
 40
19.0
 40
19.0
 40
19.0
 10
81.04656030959947
 20
-128.0354234163418
 30
0.0
 10
81.04656030959947
 20
-128.1370537331567
 30
0.0
 10
81.02537297236519
 20
-128.3699421879596
 30
0.0
 10
80.83916556138743
 20
-128.5032673832388
 30
0.0
 10
80.72702770334256
 20
-128.5825045793995
 30
0.0
 10
80.6276366985931
 20
-128.5869832035303
 30
0.0
 10
80.54305960443021
 20
-128.5914618276612
 30
0.0
 10
80.54305960443021
 20
-128.5914618276612
 30
0.0
 10
80.54305960443021
 20
-128.3565063155671
 30
0.0
 10
80.54305960443021
 20
-128.3565063155671
 30
0.0
 10
80.61712915736308
 20
-128.3540947487274
 30
0.0
 10
80.85191241468286
 20
-128.3427259336261
 30
0.0
 10
80.85191241468286
 20
-128.0399020404727
 30
0.0
 10
80.85191241468286
 20
-127.8927964632525
 30
0.0
 10
80.78214923110654
 20
-127.7301879563487
 30
0.0
 10
80.55356714566022
 20
-127.7301879563487
 30
0.0
 10
80.43729517303304
 20
-127.7301879563487
 30
0.0
 10
80.38854707191676
 20
-127.7708400830747
 30
0.0
 10
80.35685219345245
 20
-127.8049465283786
 30
0.0
 10
80.28278264051959
 20
-127.8838392149909
 30
0.0
 10
80.27020804199843
 20
-128.0082071620084
 30
0.0
 10
80.27020804199843
 20
-128.0671182948061
 30
0.0
 10
80.27020804199843
 20
-128.0874443581691
 30
0.0
 10
80.27227509928957
 20
-128.1256849180554
 30
0.0
 10
80.27640921387187
 20
-128.1553127392285
 30
0.0
 10
80.27640921387187
 20
-128.1553127392285
 30
0.0
 10
80.08193357372951
 20
-128.1553127392285
 30
0.0
 10
80.08193357372951
 20
-128.1553127392285
 30
0.0
 10
80.08813474560297
 20
-128.1146606125026
 30
0.0
 10
80.09037405766838
 20
-128.0691853520973
 30
0.0
 10
80.09037405766838
 20
-128.0626396706753
 30
0.0
 10
80.09037405766838
 20
-127.9923597227762
 30
0.0
 10
80.06918672043409
 20
-127.7797973313363
 30
0.0
 10
79.8321641510489
 20
-127.7797973313363
 30
0.0
 10
79.65456947878428
 20
-127.7797973313363
 30
0.0
 10
79.59944795102028
 20
-127.920012717586
 30
0.0
 10
79.59944795102028
 20
-128.037490473633
 30
0.0
 10
79.59944795102028
 20
-128.320332812972
 30
0.0
 10
79.8321641510489
 20
-128.3292900612336
 30
0.0
 10
79.90416664669063
 20
-128.3337686853645
 30
0.0
 10
79.90416664669063
 20
-128.3337686853645
 30
0.0
 10
79.90416664669063
 20
-128.5508097009352
 30
0.0
 10
79.90416664669063
 20
-128.5508097009352
 30
0.0
 10
79.77928193535033
 20
-128.5418524526736
 30
0.0
 10
79.40273299881251
 20
-128.5125691410489
 30
0.0
 10
79.40273299881251
 20
-128.0240546012405
 30
0.0
 10
79.40273299881251
 20
-127.7842759554671
 30
0.0
 10
79.52968476744397
 20
-127.5265828131704
 30
0.0
 10
79.8257907244012
 20
-127.5265828131704
 30
0.0
 10
80.01199813537895
 20
-127.5265828131704
 30
0.0
 10
80.09450817225068
 20
-127.6285576395338
 30
0.0
 10
80.15583087188813
 20
-127.7346665804795
 30
0.0
 10
80.18339163577012
 20
-127.6692097662598
 30
0.0
 10
80.26383461535072
 20
-127.4745618713432
 30
0.0
 10
80.54099254713906
 20
-127.4745618713432
 30
0.0
 10
80.87947317856485
 20
-127.4745618713432
 30
0.0
 10
81.04656030959947
 20
-127.7391452046104
 30
0.0
 10
81.04656030959947
 20
-128.0354234163418
 30
0.0
  0
HATCH
  5
B9
330
B2
100
AcDbEntity
  8
_U+30EC_U+30A4_U+30E4_U+30FC 1
 62
     7
420
 16777215
100
AcDbHatch
 10
0.0
 20
0.0
 30
0.0
210
0.0
220
0.0
230
1.0
  2
SOLID
 70
     1
 71
     0
 91
        1
 92
        1
 93
        1
 72
     4
 94
        3
 73
     0
 74
     1
 95
       62
 96
       58
 40
0.0
 40
0.0
 40
0.0
 40
0.0
 40
1.0
 40
1.0
 40
1.0
 40
2.0
 40
2.0
 40
2.0
 40
3.0
 40
3.0
 40
3.0
 40
4.0
 40
4.0
 40
4.0
 40
5.0
 40
5.0
 40
5.0
 40
6.0
 40
6.0
 40
6.0
 40
7.0
 40
7.0
 40
7.0
 40
8.0
 40
8.0
 40
8.0
 40
9.0
 40
9.0
 40
9.0
 40
10.0
 40
10.0
 40
10.0
 40
11.0
 40
11.0
 40
11.0
 40
12.0
 40
12.0
 40
12.0
 40
13.0
 40
13.0
 40
13.0
 40
14.0
 40
14.0
 40
14.0
 40
15.0
 40
15.0
 40
15.0
 40
16.0
 40
16.0
 40
16.0
 40
17.0
 40
17.0
 40
17.0
 40
18.0
 40
18.0
 40
18.0
 40
19.0
 40
19.0
 40
19.0
 40
19.0
 10
81.04656030959947
 20
-128.0354234163418
 10
81.04656030959947
 20
-128.1370537331567
 10
81.02537297236519
 20
-128.3699421879596
 10
80.83916556138743
 20
-128.5032673832388
 10
80.72702770334256
 20
-128.5825045793995
 10
80.6276366985931
 20
-128.5869832035303
 10
80.54305960443021
 20
-128.5914618276612
 10
80.54305960443021
 20
-128.5914618276612
 10
80.54305960443021
 20
-128.3565063155671
 10
80.54305960443021
 20
-128.3565063155671
 10
80.61712915736308
 20
-128.3540947487274
 10
80.85191241468286
 20
-128.3427259336261
 10
80.85191241468286
 20
-128.0399020404727
 10
80.85191241468286
 20
-127.8927964632525
 10
80.78214923110654
 20
-127.7301879563487
 10
80.55356714566022
 20
-127.7301879563487
 10
80.43729517303304
 20
-127.7301879563487
 10
80.38854707191676
 20
-127.7708400830747
 10
80.35685219345245
 20
-127.8049465283786
 10
80.28278264051959
 20
-127.8838392149909
 10
80.27020804199843
 20
-128.0082071620084
 10
80.27020804199843
 20
-128.0671182948061
 10
80.27020804199843
 20
-128.0874443581691
 10
80.27227509928957
 20
-128.1256849180554
 10
80.27640921387187
 20
-128.1553127392285
 10
80.27640921387187
 20
-128.1553127392285
 10
80.08193357372951
 20
-128.1553127392285
 10
80.08193357372951
 20
-128.1553127392285
 10
80.08813474560297
 20
-128.1146606125026
 10
80.09037405766838
 20
-128.0691853520973
 10
80.09037405766838
 20
-128.0626396706753
 10
80.09037405766838
 20
-127.9923597227762
 10
80.06918672043409
 20
-127.7797973313363
 10
79.8321641510489
 20
-127.7797973313363
 10
79.65456947878428
 20
-127.7797973313363
 10
79.59944795102028
 20
-127.920012717586
 10
79.59944795102028
 20
-128.037490473633
 10
79.59944795102028
 20
-128.320332812972
 10
79.8321641510489
 20
-128.3292900612336
 10
79.90416664669063
 20
-128.3337686853645
 10
79.90416664669063
 20
-128.3337686853645
 10
79.90416664669063
 20
-128.5508097009352
 10
79.90416664669063
 20
-128.5508097009352
 10
79.77928193535033
 20
-128.5418524526736
 10
79.40273299881251
 20
-128.5125691410489
 10
79.40273299881251
 20
-128.0240546012405
 10
79.40273299881251
 20
-127.7842759554671
 10
79.52968476744397
 20
-127.5265828131704
 10
79.8257907244012
 20
-127.5265828131704
 10
80.01199813537895
 20
-127.5265828131704
 10
80.09450817225068
 20
-127.6285576395338
 10
80.15583087188813
 20
-127.7346665804795
 10
80.18339163577012
 20
-127.6692097662598
 10
80.26383461535072
 20
-127.4745618713432
 10
80.54099254713906
 20
-127.4745618713432
 10
80.87947317856485
 20
-127.4745618713432
 10
81.04656030959947
 20
-127.7391452046104
 10
81.04656030959947
 20
-128.0354234163418
 97
        0
 97
        0
 75
     2
 76
     1
 98
        0
  0
ENDBLK
  5
B5
330
B2
100
AcDbEntity
  8
0
100
AcDbBlockEnd
  0
BLOCK
  5
C8
330
C6
100
AcDbEntity
  8
0
100
AcDbBlockBegin
  2
block 5
 70
     0
 10
0.0
 20
0.0
 30
0.0
  3
block 5
  1

  0
SPLINE
  5
CA
330
C6
100
AcDbEntity
  8
_U+30EC_U+30A4_U+30E4_U+30FC 1
370
     0
100
AcDbSpline
210
0.0
220
0.0
230
1.0
 70
    11
 71
     3
 72
    26
 73
    22
 74
     0
 42
0.0000000001
 43
0.0000000001
 12
1.0
 22
0.0
 32
0.0
 13
1.0
 23
0.0
 33
0.0
 40
0.0
 40
0.0
 40
0.0
 40
0.0
 40
1.0
 40
1.0
 40
1.0
 40
2.0
 40
2.0
 40
2.0
 40
3.0
 40
3.0
 40
3.0
 40
4.0
 40
4.0
 40
4.0
 40
5.0
 40
5.0
 40
5.0
 40
6.0
 40
6.0
 40
6.0
 40
7.0
 40
7.0
 40
7.0
 40
7.0
 10
91.41595321065296
 20
-138.5638074740396
 30
0.0
 10
91.41595321065296
 20
-138.5638074740396
 30
0.0
 10
91.41595321065296
 20
-137.4593098614685
 30
0.0
 10
91.41595321065296
 20
-137.4593098614685
 30
0.0
 10
91.41595321065296
 20
-137.4593098614685
 30
0.0
 10
91.0635199425119
 20
-137.4593098614685
 30
0.0
 10
91.0635199425119
 20
-137.4593098614685
 30
0.0
 10
91.0635199425119
 20
-137.4593098614685
 30
0.0
 10
91.0635199425119
 20
-137.3111707556028
 30
0.0
 10
91.0635199425119
 20
-137.3111707556028
 30
0.0
 10
91.41836477749264
 20
-137.2967013545647
 30
0.0
 10
91.46797415248024
 20
-137.1334038285639
 30
0.0
 10
91.49966903094453
 20
-137.0190266584536
 30
0.0
 10
91.49966903094453
 20
-137.0190266584536
 30
0.0
 10
91.65573185642634
 20
-137.0190266584536
 30
0.0
 10
91.65573185642634
 20
-137.0190266584536
 30
0.0
 10
91.65573185642634
 20
-137.0190266584536
 30
0.0
 10
91.65573185642634
 20
-138.5638074740396
 30
0.0
 10
91.65573185642634
 20
-138.5638074740396
 30
0.0
 10
91.65573185642634
 20
-138.5638074740396
 30
0.0
 10
91.41595321065296
 20
-138.5638074740396
 30
0.0
 10
91.41595321065296
 20
-138.5638074740396
 30
0.0
  0
HATCH
  5
CB
330
C6
100
AcDbEntity
  8
_U+30EC_U+30A4_U+30E4_U+30FC 1
 62
     7
420
 16777215
100
AcDbHatch
 10
0.0
 20
0.0
 30
0.0
210
0.0
220
0.0
230
1.0
  2
SOLID
 70
     1
 71
     0
 91
        1
 92
        1
 93
        1
 72
     4
 94
        3
 73
     0
 74
     1
 95
       26
 96
       22
 40
0.0
 40
0.0
 40
0.0
 40
0.0
 40
1.0
 40
1.0
 40
1.0
 40
2.0
 40
2.0
 40
2.0
 40
3.0
 40
3.0
 40
3.0
 40
4.0
 40
4.0
 40
4.0
 40
5.0
 40
5.0
 40
5.0
 40
6.0
 40
6.0
 40
6.0
 40
7.0
 40
7.0
 40
7.0
 40
7.0
 10
91.41595321065296
 20
-138.5638074740396
 10
91.41595321065296
 20
-138.5638074740396
 10
91.41595321065296
 20
-137.4593098614685
 10
91.41595321065296
 20
-137.4593098614685
 10
91.41595321065296
 20
-137.4593098614685
 10
91.0635199425119
 20
-137.4593098614685
 10
91.0635199425119
 20
-137.4593098614685
 10
91.0635199425119
 20
-137.4593098614685
 10
91.0635199425119
 20
-137.3111707556028
 10
91.0635199425119
 20
-137.3111707556028
 10
91.41836477749264
 20
-137.2967013545647
 10
91.46797415248024
 20
-137.1334038285639
 10
91.49966903094453
 20
-137.0190266584536
 10
91.49966903094453
 20
-137.0190266584536
 10
91.65573185642634
 20
-137.0190266584536
 10
91.65573185642634
 20
-137.0190266584536
 10
91.65573185642634
 20
-137.0190266584536
 10
91.65573185642634
 20
-138.5638074740396
 10
91.65573185642634
 20
-138.5638074740396
 10
91.65573185642634
 20
-138.5638074740396
 10
91.41595321065296
 20
-138.5638074740396
 10
91.41595321065296
 20
-138.5638074740396
 97
        0
 97
        0
 75
     2
 76
     1
 98
        0
  0
SPLINE
  5
CC
330
C6
100
AcDbEntity
  8
_U+30EC_U+30A4_U+30E4_U+30FC 1
370
     0
100
AcDbSpline
210
0.0
220
0.0
230
1.0
 70
    11
 71
     3
 72
    62
 73
    58
 74
     0
 42
0.0000000001
 43
0.0000000001
 12
1.0
 22
0.0
 32
0.0
 13
1.0
 23
0.0
 33
0.0
 40
0.0
 40
0.0
 40
0.0
 40
0.0
 40
1.0
 40
1.0
 40
1.0
 40
2.0
 40
2.0
 40
2.0
 40
3.0
 40
3.0
 40
3.0
 40
4.0
 40
4.0
 40
4.0
 40
5.0
 40
5.0
 40
5.0
 40
6.0
 40
6.0
 40
6.0
 40
7.0
 40
7.0
 40
7.0
 40
8.0
 40
8.0
 40
8.0
 40
9.0
 40
9.0
 40
9.0
 40
10.0
 40
10.0
 40
10.0
 40
11.0
 40
11.0
 40
11.0
 40
12.0
 40
12.0
 40
12.0
 40
13.0
 40
13.0
 40
13.0
 40
14.0
 40
14.0
 40
14.0
 40
15.0
 40
15.0
 40
15.0
 40
16.0
 40
16.0
 40
16.0
 40
17.0
 40
17.0
 40
17.0
 40
18.0
 40
18.0
 40
18.0
 40
19.0
 40
19.0
 40
19.0
 40
19.0
 10
92.7168212658833
 20
-138.6141058681243
 30
0.0
 10
92.61519094906843
 20
-138.6141058681243
 30
0.0
 10
92.38230249426555
 20
-138.5934352952128
 30
0.0
 10
92.24897729898638
 20
-138.4074001390093
 30
0.0
 10
92.16974010282563
 20
-138.2950900261901
 30
0.0
 10
92.1652614786948
 20
-138.1958712762149
 30
0.0
 10
92.16078285456398
 20
-138.1111219272778
 30
0.0
 10
92.16078285456398
 20
-138.1111219272778
 30
0.0
 10
92.39573836665801
 20
-138.1111219272778
 30
0.0
 10
92.39573836665801
 20
-138.1111219272778
 30
0.0
 10
92.39814993349769
 20
-138.1848469706621
 30
0.0
 10
92.40951874859901
 20
-138.4198024827562
 30
0.0
 10
92.71234264175247
 20
-138.4198024827562
 30
0.0
 10
92.85944821897264
 20
-138.4198024827562
 30
0.0
 10
93.02205672587644
 20
-138.3502115539541
 30
0.0
 10
93.02205672587644
 20
-138.1214572137335
 30
0.0
 10
93.02205672587644
 20
-138.0050129863321
 30
0.0
 10
92.98140459915048
 20
-137.9567816495386
 30
0.0
 10
92.94764266339504
 20
-137.9250867710743
 30
0.0
 10
92.8684054672343
 20
-137.8506727085929
 30
0.0
 10
92.74403752021678
 20
-137.838270364846
 30
0.0
 10
92.685126387419
 20
-137.838270364846
 30
0.0
 10
92.66480032405603
 20
-137.838270364846
 30
0.0
 10
92.62655976416976
 20
-137.8403374221371
 30
0.0
 10
92.5969319429966
 20
-137.8444715367195
 30
0.0
 10
92.5969319429966
 20
-137.8444715367195
 30
0.0
 10
92.5969319429966
 20
-137.6494791322543
 30
0.0
 10
92.5969319429966
 20
-137.6494791322543
 30
0.0
 10
92.63758406972255
 20
-137.6563693232248
 30
0.0
 10
92.68305933012785
 20
-137.658436380516
 30
0.0
 10
92.68960501154983
 20
-137.658436380516
 30
0.0
 10
92.75988495944893
 20
-137.658436380516
 30
0.0
 10
92.97244735088884
 20
-137.6370767885074
 30
0.0
 10
92.97244735088884
 20
-137.4000542191222
 30
0.0
 10
92.97244735088884
 20
-137.2222872920833
 30
0.0
 10
92.83223196463916
 20
-137.1671657643193
 30
0.0
 10
92.71475420859215
 20
-137.1671657643193
 30
0.0
 10
92.43191186925314
 20
-137.1671657643193
 30
0.0
 10
92.42295462099149
 20
-137.4000542191222
 30
0.0
 10
92.41847599686066
 20
-137.4717122052154
 30
0.0
 10
92.41847599686066
 20
-137.4717122052154
 30
0.0
 10
92.20143498128992
 20
-137.4717122052154
 30
0.0
 10
92.20143498128992
 20
-137.4717122052154
 30
0.0
 10
92.21039222955157
 20
-137.3469997486494
 30
0.0
 10
92.2396755411762
 20
-136.9707953216601
 30
0.0
 10
92.72819008098462
 20
-136.9707953216601
 30
0.0
 10
92.96796872675802
 20
-136.9707953216601
 30
0.0
 10
93.2256618690547
 20
-137.0975748355173
 30
0.0
 10
93.2256618690547
 20
-137.3938530472488
 30
0.0
 10
93.2256618690547
 20
-137.5798882034523
 30
0.0
 10
93.1236870426913
 20
-137.6625704950983
 30
0.0
 10
93.01757810174561
 20
-137.7238931947357
 30
0.0
 10
93.08303491596536
 20
-137.7514539586177
 30
0.0
 10
93.27768281088197
 20
-137.8313801738755
 30
0.0
 10
93.27768281088197
 20
-138.1090548699866
 30
0.0
 10
93.27768281088197
 20
-138.4473632466382
 30
0.0
 10
93.01309947761479
 20
-138.6141058681243
 30
0.0
 10
92.7168212658833
 20
-138.6141058681243
 30
0.0
  0
HATCH
  5
CD
330
C6
100
AcDbEntity
  8
_U+30EC_U+30A4_U+30E4_U+30FC 1
 62
     7
420
 16777215
100
AcDbHatch
 10
0.0
 20
0.0
 30
0.0
210
0.0
220
0.0
230
1.0
  2
SOLID
 70
     1
 71
     0
 91
        1
 92
        1
 93
        1
 72
     4
 94
        3
 73
     0
 74
     1
 95
       62
 96
       58
 40
0.0
 40
0.0
 40
0.0
 40
0.0
 40
1.0
 40
1.0
 40
1.0
 40
2.0
 40
2.0
 40
2.0
 40
3.0
 40
3.0
 40
3.0
 40
4.0
 40
4.0
 40
4.0
 40
5.0
 40
5.0
 40
5.0
 40
6.0
 40
6.0
 40
6.0
 40
7.0
 40
7.0
 40
7.0
 40
8.0
 40
8.0
 40
8.0
 40
9.0
 40
9.0
 40
9.0
 40
10.0
 40
10.0
 40
10.0
 40
11.0
 40
11.0
 40
11.0
 40
12.0
 40
12.0
 40
12.0
 40
13.0
 40
13.0
 40
13.0
 40
14.0
 40
14.0
 40
14.0
 40
15.0
 40
15.0
 40
15.0
 40
16.0
 40
16.0
 40
16.0
 40
17.0
 40
17.0
 40
17.0
 40
18.0
 40
18.0
 40
18.0
 40
19.0
 40
19.0
 40
19.0
 40
19.0
 10
92.7168212658833
 20
-138.6141058681243
 10
92.61519094906843
 20
-138.6141058681243
 10
92.38230249426555
 20
-138.5934352952128
 10
92.24897729898638
 20
-138.4074001390093
 10
92.16974010282563
 20
-138.2950900261901
 10
92.1652614786948
 20
-138.1958712762149
 10
92.16078285456398
 20
-138.1111219272778
 10
92.16078285456398
 20
-138.1111219272778
 10
92.39573836665801
 20
-138.1111219272778
 10
92.39573836665801
 20
-138.1111219272778
 10
92.39814993349769
 20
-138.1848469706621
 10
92.40951874859901
 20
-138.4198024827562
 10
92.71234264175247
 20
-138.4198024827562
 10
92.85944821897264
 20
-138.4198024827562
 10
93.02205672587644
 20
-138.3502115539541
 10
93.02205672587644
 20
-138.1214572137335
 10
93.02205672587644
 20
-138.0050129863321
 10
92.98140459915048
 20
-137.9567816495386
 10
92.94764266339504
 20
-137.9250867710743
 10
92.8684054672343
 20
-137.8506727085929
 10
92.74403752021678
 20
-137.838270364846
 10
92.685126387419
 20
-137.838270364846
 10
92.66480032405603
 20
-137.838270364846
 10
92.62655976416976
 20
-137.8403374221371
 10
92.5969319429966
 20
-137.8444715367195
 10
92.5969319429966
 20
-137.8444715367195
 10
92.5969319429966
 20
-137.6494791322543
 10
92.5969319429966
 20
-137.6494791322543
 10
92.63758406972255
 20
-137.6563693232248
 10
92.68305933012785
 20
-137.658436380516
 10
92.68960501154983
 20
-137.658436380516
 10
92.75988495944893
 20
-137.658436380516
 10
92.97244735088884
 20
-137.6370767885074
 10
92.97244735088884
 20
-137.4000542191222
 10
92.97244735088884
 20
-137.2222872920833
 10
92.83223196463916
 20
-137.1671657643193
 10
92.71475420859215
 20
-137.1671657643193
 10
92.43191186925314
 20
-137.1671657643193
 10
92.42295462099149
 20
-137.4000542191222
 10
92.41847599686066
 20
-137.4717122052154
 10
92.41847599686066
 20
-137.4717122052154
 10
92.20143498128992
 20
-137.4717122052154
 10
92.20143498128992
 20
-137.4717122052154
 10
92.21039222955157
 20
-137.3469997486494
 10
92.2396755411762
 20
-136.9707953216601
 10
92.72819008098462
 20
-136.9707953216601
 10
92.96796872675802
 20
-136.9707953216601
 10
93.2256618690547
 20
-137.0975748355173
 10
93.2256618690547
 20
-137.3938530472488
 10
93.2256618690547
 20
-137.5798882034523
 10
93.1236870426913
 20
-137.6625704950983
 10
93.01757810174561
 20
-137.7238931947357
 10
93.08303491596536
 20
-137.7514539586177
 10
93.27768281088197
 20
-137.8313801738755
 10
93.27768281088197
 20
-138.1090548699866
 10
93.27768281088197
 20
-138.4473632466382
 10
93.01309947761479
 20
-138.6141058681243
 10
92.7168212658833
 20
-138.6141058681243
 97
        0
 97
        0
 75
     2
 76
     1
 98
        0
  0
ENDBLK
  5
C9
330
C6
100
AcDbEntity
  8
0
100
AcDbBlockEnd
  0
BLOCK
  5
DC
330
DA
100
AcDbEntity
  8
0
100
AcDbBlockBegin
  2
block 6
 70
     0
 10
0.0
 20
0.0
 30
0.0
  3
block 6
  1

  0
SPLINE
  5
DE
330
DA
100
AcDbEntity
  8
_U+30EC_U+30A4_U+30E4_U+30FC 1
370
     0
100
AcDbSpline
210
0.0
220
0.0
230
1.0
 70
    11
 71
     3
 72
    32
 73
    28
 74
     0
 42
0.0000000001
 43
0.0000000001
 12
1.0
 22
0.0
 32
0.0
 13
1.0
 23
0.0
 33
0.0
 40
0.0
 40
0.0
 40
0.0
 40
0.0
 40
1.0
 40
1.0
 40
1.0
 40
2.0
 40
2.0
 40
2.0
 40
3.0
 40
3.0
 40
3.0
 40
4.0
 40
4.0
 40
4.0
 40
5.0
 40
5.0
 40
5.0
 40
6.0
 40
6.0
 40
6.0
 40
7.0
 40
7.0
 40
7.0
 40
8.0
 40
8.0
 40
8.0
 40
9.0
 40
9.0
 40
9.0
 40
9.0
 10
102.0468288590369
 20
-131.6798176754134
 30
0.0
 10
102.0468288590369
 20
-132.2317219721504
 30
0.0
 10
101.4928575050087
 20
-132.2406792204121
 30
0.0
 10
101.2789170753747
 20
-132.2406792204121
 30
0.0
 10
101.0484401874115
 20
-132.2406792204121
 30
0.0
 10
100.4011067457331
 20
-132.2206976665976
 30
0.0
 10
100.4011067457331
 20
-131.6391655486874
 30
0.0
 10
100.4011067457331
 20
-131.453819411581
 30
0.0
 10
100.4710421840836
 20
-131.191992154702
 30
0.0
 10
100.8031493888617
 20
-131.1513400279761
 30
0.0
 10
100.8031493888617
 20
-131.1513400279761
 30
0.0
 10
100.8031493888617
 20
-131.3794053490996
 30
0.0
 10
100.8031493888617
 20
-131.3794053490996
 30
0.0
 10
100.7459608038066
 20
-131.3904296546524
 30
0.0
 10
100.5978216979408
 20
-131.4248806095049
 30
0.0
 10
100.5978216979408
 20
-131.6419216250756
 30
0.0
 10
100.5978216979408
 20
-131.9540472760393
 30
0.0
 10
100.9257947881366
 20
-131.9967664600564
 30
0.0
 10
101.130777969509
 20
-132.0105468419974
 30
0.0
 10
101.0525743019938
 20
-131.9106390729251
 30
0.0
 10
100.9933186596475
 20
-131.8382920677349
 30
0.0
 10
100.9933186596475
 20
-131.6439886823668
 30
0.0
 10
100.9933186596475
 20
-131.4517523542899
 30
0.0
 10
101.1014946578844
 20
-131.1286023977734
 30
0.0
 10
101.5076714155953
 20
-131.1286023977734
 30
0.0
 10
101.827031767078
 20
-131.1286023977734
 30
0.0
 10
102.0468288590369
 20
-131.3408202796648
 30
0.0
 10
102.0468288590369
 20
-131.6798176754134
 30
0.0
  0
SPLINE
  5
DF
330
DA
100
AcDbEntity
  8
_U+30EC_U+30A4_U+30E4_U+30FC 1
370
     0
100
AcDbSpline
210
0.0
220
0.0
230
1.0
 70
    11
 71
     3
 72
    17
 73
    13
 74
     0
 42
0.0000000001
 43
0.0000000001
 12
1.0
 22
0.0
 32
0.0
 13
1.0
 23
0.0
 33
0.0
 40
0.0
 40
0.0
 40
0.0
 40
0.0
 40
1.0
 40
1.0
 40
1.0
 40
2.0
 40
2.0
 40
2.0
 40
3.0
 40
3.0
 40
3.0
 40
4.0
 40
4.0
 40
4.0
 40
4.0
 10
101.1879665545641
 20
-131.6619031788901
 30
0.0
 10
101.1879665545641
 20
-131.9423339513894
 30
0.0
 10
101.3994954173585
 20
-131.9829860781154
 30
0.0
 10
101.5159396447599
 20
-131.9829860781154
 30
0.0
 10
101.6916395145077
 20
-131.9829860781154
 30
0.0
 10
101.85459253096
 20
-131.881700270849
 30
0.0
 10
101.85459253096
 20
-131.6846408090927
 30
0.0
 10
101.85459253096
 20
-131.5557942379444
 30
0.0
 10
101.7953368886137
 20
-131.3683810435468
 30
0.0
 10
101.5097384728865
 20
-131.3683810435468
 30
0.0
 10
101.2854627567967
 20
-131.3683810435468
 30
0.0
 10
101.1879665545641
 20
-131.5172091685096
 30
0.0
 10
101.1879665545641
 20
-131.6619031788901
 30
0.0
  0
HATCH
  5
E0
330
DA
100
AcDbEntity
  8
_U+30EC_U+30A4_U+30E4_U+30FC 1
 62
     7
420
 16777215
100
AcDbHatch
 10
0.0
 20
0.0
 30
0.0
210
0.0
220
0.0
230
1.0
  2
SOLID
 70
     1
 71
     0
 91
        2
 92
        1
 93
        1
 72
     4
 94
        3
 73
     0
 74
     1
 95
       32
 96
       28
 40
0.0
 40
0.0
 40
0.0
 40
0.0
 40
1.0
 40
1.0
 40
1.0
 40
2.0
 40
2.0
 40
2.0
 40
3.0
 40
3.0
 40
3.0
 40
4.0
 40
4.0
 40
4.0
 40
5.0
 40
5.0
 40
5.0
 40
6.0
 40
6.0
 40
6.0
 40
7.0
 40
7.0
 40
7.0
 40
8.0
 40
8.0
 40
8.0
 40
9.0
 40
9.0
 40
9.0
 40
9.0
 10
102.0468288590369
 20
-131.6798176754134
 10
102.0468288590369
 20
-132.2317219721504
 10
101.4928575050087
 20
-132.2406792204121
 10
101.2789170753747
 20
-132.2406792204121
 10
101.0484401874115
 20
-132.2406792204121
 10
100.4011067457331
 20
-132.2206976665976
 10
100.4011067457331
 20
-131.6391655486874
 10
100.4011067457331
 20
-131.453819411581
 10
100.4710421840836
 20
-131.191992154702
 10
100.8031493888617
 20
-131.1513400279761
 10
100.8031493888617
 20
-131.1513400279761
 10
100.8031493888617
 20
-131.3794053490996
 10
100.8031493888617
 20
-131.3794053490996
 10
100.7459608038066
 20
-131.3904296546524
 10
100.5978216979408
 20
-131.4248806095049
 10
100.5978216979408
 20
-131.6419216250756
 10
100.5978216979408
 20
-131.9540472760393
 10
100.9257947881366
 20
-131.9967664600564
 10
101.130777969509
 20
-132.0105468419974
 10
101.0525743019938
 20
-131.9106390729251
 10
100.9933186596475
 20
-131.8382920677349
 10
100.9933186596475
 20
-131.6439886823668
 10
100.9933186596475
 20
-131.4517523542899
 10
101.1014946578844
 20
-131.1286023977734
 10
101.5076714155953
 20
-131.1286023977734
 10
101.827031767078
 20
-131.1286023977734
 10
102.0468288590369
 20
-131.3408202796648
 10
102.0468288590369
 20
-131.6798176754134
 97
        0
 97
        0
 92
        1
 93
        1
 72
     4
 94
        3
 73
     0
 74
     1
 95
       17
 96
       13
 40
0.0
 40
0.0
 40
0.0
 40
0.0
 40
1.0
 40
1.0
 40
1.0
 40
2.0
 40
2.0
 40
2.0
 40
3.0
 40
3.0
 40
3.0
 40
4.0
 40
4.0
 40
4.0
 40
4.0
 10
101.1879665545641
 20
-131.6619031788901
 10
101.1879665545641
 20
-131.9423339513894
 10
101.3994954173585
 20
-131.9829860781154
 10
101.5159396447599
 20
-131.9829860781154
 10
101.6916395145077
 20
-131.9829860781154
 10
101.85459253096
 20
-131.881700270849
 10
101.85459253096
 20
-131.6846408090927
 10
101.85459253096
 20
-131.5557942379444
 10
101.7953368886137
 20
-131.3683810435468
 10
101.5097384728865
 20
-131.3683810435468
 10
101.2854627567967
 20
-131.3683810435468
 10
101.1879665545641
 20
-131.5172091685096
 10
101.1879665545641
 20
-131.6619031788901
 97
        0
 97
        0
 75
     2
 76
     1
 98
        0
  0
POLYLINE
  5
E1
330
DA
100
AcDbEntity
  8
_U+30EC_U+30A4_U+30E4_U+30FC 1
370
     0
100
AcDb2dPolyline
 66
     1
 10
0.0
 20
0.0
 30
0.0
  0
VERTEX
  5
E2
330
E1
100
AcDbEntity
  8
_U+30EC_U+30A4_U+30E4_U+30FC 1
370
     0
100
AcDbVertex
100
AcDb2dVertex
 10
101.9961859554037
 20
-130.8970919811646
 30
0.0
  0
VERTEX
  5
E3
330
E1
100
AcDbEntity
  8
_U+30EC_U+30A4_U+30E4_U+30FC 1
370
     0
100
AcDbVertex
100
AcDb2dVertex
 10
101.744349475432
 20
-130.8970919811646
 30
0.0
  0
VERTEX
  5
E4
330
E1
100
AcDbEntity
  8
_U+30EC_U+30A4_U+30E4_U+30FC 1
370
     0
100
AcDbVertex
100
AcDb2dVertex
 10
101.744349475432
 20
-130.6283745333151
 30
0.0
  0
VERTEX
  5
E5
330
E1
100
AcDbEntity
  8
_U+30EC_U+30A4_U+30E4_U+30FC 1
370
     0
100
AcDbVertex
100
AcDb2dVertex
 10
101.9961859554037
 20
-130.6283745333151
 30
0.0
  0
VERTEX
  5
E6
330
E1
100
AcDbEntity
  8
_U+30EC_U+30A4_U+30E4_U+30FC 1
370
     0
100
AcDbVertex
100
AcDb2dVertex
 10
101.9961859554037
 20
-130.8970919811646
 30
0.0
  0
SEQEND
  5
E7
330
E1
100
AcDbEntity
  8
_U+30EC_U+30A4_U+30E4_U+30FC 1
370
     0
  0
HATCH
  5
E8
330
DA
100
AcDbEntity
  8
_U+30EC_U+30A4_U+30E4_U+30FC 1
 62
     7
420
 16777215
100
AcDbHatch
 10
0.0
 20
0.0
 30
0.0
210
0.0
220
0.0
230
1.0
  2
SOLID
 70
     1
 71
     0
 91
        1
 92
        1
 93
        4
 72
     1
 10
101.9961859554037
 20
-130.8970919811646
 11
101.744349475432
 21
-130.8970919811646
 72
     1
 10
101.744349475432
 20
-130.8970919811646
 11
101.744349475432
 21
-130.6283745333151
 72
     1
 10
101.744349475432
 20
-130.6283745333151
 11
101.9961859554037
 21
-130.6283745333151
 72
     1
 10
101.9961859554037
 20
-130.6283745333151
 11
101.9961859554037
 21
-130.8970919811646
 97
        0
 75
     2
 76
     1
 98
        0
  0
SPLINE
  5
E9
330
DA
100
AcDbEntity
  8
_U+30EC_U+30A4_U+30E4_U+30FC 1
370
     0
100
AcDbSpline
210
0.0
220
0.0
230
1.0
 70
    11
 71
     3
 72
    53
 73
    49
 74
     0
 42
0.0000000001
 43
0.0000000001
 12
1.0
 22
0.0
 32
0.0
 13
1.0
 23
0.0
 33
0.0
 40
0.0
 40
0.0
 40
0.0
 40
0.0
 40
1.0
 40
1.0
 40
1.0
 40
2.0
 40
2.0
 40
2.0
 40
3.0
 40
3.0
 40
3.0
 40
4.0
 40
4.0
 40
4.0
 40
5.0
 40
5.0
 40
5.0
 40
6.0
 40
6.0
 40
6.0
 40
7.0
 40
7.0
 40
7.0
 40
8.0
 40
8.0
 40
8.0
 40
9.0
 40
9.0
 40
9.0
 40
10.0
 40
10.0
 40
10.0
 40
11.0
 40
11.0
 40
11.0
 40
12.0
 40
12.0
 40
12.0
 40
13.0
 40
13.0
 40
13.0
 40
14.0
 40
14.0
 40
14.0
 40
15.0
 40
15.0
 40
15.0
 40
16.0
 40
16.0
 40
16.0
 40
16.0
 10
102.0468288590369
 20
-129.8614962782985
 30
0.0
 10
102.0468288590369
 20
-129.9448675890416
 30
0.0
 10
102.0299478911592
 20
-130.0530435872784
 30
0.0
 10
101.9665581342306
 20
-130.1619086046123
 30
0.0
 10
101.8566595882511
 20
-130.3472547417188
 30
0.0
 10
101.7254014502631
 20
-130.3699923719214
 30
0.0
 10
101.6175699615748
 20
-130.3899739257359
 30
0.0
 10
101.6175699615748
 20
-130.3899739257359
 30
0.0
 10
101.6175699615748
 20
-130.1529513563507
 30
0.0
 10
101.6175699615748
 20
-130.1529513563507
 30
0.0
 10
101.8163519710737
 20
-130.0943847331014
 30
0.0
 10
101.8459797922468
 20
-129.9586479709826
 30
0.0
 10
101.8459797922468
 20
-129.8587402019103
 30
0.0
 10
101.8459797922468
 20
-129.7099120769475
 30
0.0
 10
101.7464165327231
 20
-129.5466145509467
 30
0.0
 10
101.5138725874688
 20
-129.5466145509467
 30
0.0
 10
101.2579019929147
 20
-129.5466145509467
 30
0.0
 10
101.1879665545641
 20
-129.7388508790236
 30
0.0
 10
101.1879665545641
 20
-129.867697450172
 30
0.0
 10
101.1879665545641
 20
-129.9021484050245
 30
0.0
 10
101.1879665545641
 20
-130.0530435872784
 30
0.0
 10
101.317157635261
 20
-130.1481282226713
 30
0.0
 10
101.317157635261
 20
-130.1481282226713
 30
0.0
 10
101.2982096100921
 20
-130.3362304361659
 30
0.0
 10
101.2982096100921
 20
-130.3362304361659
 30
0.0
 10
101.2982096100921
 20
-130.3362304361659
 30
0.0
 10
100.4517496493662
 20
-130.2073838650176
 30
0.0
 10
100.4517496493662
 20
-130.2073838650176
 30
0.0
 10
100.4517496493662
 20
-130.2073838650176
 30
0.0
 10
100.4517496493662
 20
-129.3750487957813
 30
0.0
 10
100.4517496493662
 20
-129.3750487957813
 30
0.0
 10
100.4517496493662
 20
-129.3750487957813
 30
0.0
 10
100.6463975442828
 20
-129.3750487957813
 30
0.0
 10
100.6463975442828
 20
-129.3750487957813
 30
0.0
 10
100.6463975442828
 20
-129.3750487957813
 30
0.0
 10
100.6463975442828
 20
-130.0330620334639
 30
0.0
 10
100.6463975442828
 20
-130.0330620334639
 30
0.0
 10
100.6463975442828
 20
-130.0330620334639
 30
0.0
 10
101.0694552698715
 20
-130.1033419813631
 30
0.0
 10
101.0694552698715
 20
-130.1033419813631
 30
0.0
 10
101.0356933341161
 20
-130.0378851671433
 30
0.0
 10
100.9953857169387
 20
-129.9496907227209
 30
0.0
 10
100.9953857169387
 20
-129.8229112088637
 30
0.0
 10
100.9953857169387
 20
-129.551437684626
 30
0.0
 10
101.1817653826907
 20
-129.2985676760087
 30
0.0
 10
101.4949245622999
 20
-129.2985676760087
 30
0.0
 10
101.8122178564914
 20
-129.2985676760087
 30
0.0
 10
102.0468288590369
 20
-129.537657302685
 30
0.0
 10
102.0468288590369
 20
-129.8614962782985
 30
0.0
  0
HATCH
  5
EA
330
DA
100
AcDbEntity
  8
_U+30EC_U+30A4_U+30E4_U+30FC 1
 62
     7
420
 16777215
100
AcDbHatch
 10
0.0
 20
0.0
 30
0.0
210
0.0
220
0.0
230
1.0
  2
SOLID
 70
     1
 71
     0
 91
        1
 92
        1
 93
        1
 72
     4
 94
        3
 73
     0
 74
     1
 95
       53
 96
       49
 40
0.0
 40
0.0
 40
0.0
 40
0.0
 40
1.0
 40
1.0
 40
1.0
 40
2.0
 40
2.0
 40
2.0
 40
3.0
 40
3.0
 40
3.0
 40
4.0
 40
4.0
 40
4.0
 40
5.0
 40
5.0
 40
5.0
 40
6.0
 40
6.0
 40
6.0
 40
7.0
 40
7.0
 40
7.0
 40
8.0
 40
8.0
 40
8.0
 40
9.0
 40
9.0
 40
9.0
 40
10.0
 40
10.0
 40
10.0
 40
11.0
 40
11.0
 40
11.0
 40
12.0
 40
12.0
 40
12.0
 40
13.0
 40
13.0
 40
13.0
 40
14.0
 40
14.0
 40
14.0
 40
15.0
 40
15.0
 40
15.0
 40
16.0
 40
16.0
 40
16.0
 40
16.0
 10
102.0468288590369
 20
-129.8614962782985
 10
102.0468288590369
 20
-129.9448675890416
 10
102.0299478911592
 20
-130.0530435872784
 10
101.9665581342306
 20
-130.1619086046123
 10
101.8566595882511
 20
-130.3472547417188
 10
101.7254014502631
 20
-130.3699923719214
 10
101.6175699615748
 20
-130.3899739257359
 10
101.6175699615748
 20
-130.3899739257359
 10
101.6175699615748
 20
-130.1529513563507
 10
101.6175699615748
 20
-130.1529513563507
 10
101.8163519710737
 20
-130.0943847331014
 10
101.8459797922468
 20
-129.9586479709826
 10
101.8459797922468
 20
-129.8587402019103
 10
101.8459797922468
 20
-129.7099120769475
 10
101.7464165327231
 20
-129.5466145509467
 10
101.5138725874688
 20
-129.5466145509467
 10
101.2579019929147
 20
-129.5466145509467
 10
101.1879665545641
 20
-129.7388508790236
 10
101.1879665545641
 20
-129.867697450172
 10
101.1879665545641
 20
-129.9021484050245
 10
101.1879665545641
 20
-130.0530435872784
 10
101.317157635261
 20
-130.1481282226713
 10
101.317157635261
 20
-130.1481282226713
 10
101.2982096100921
 20
-130.3362304361659
 10
101.2982096100921
 20
-130.3362304361659
 10
101.2982096100921
 20
-130.3362304361659
 10
100.4517496493662
 20
-130.2073838650176
 10
100.4517496493662
 20
-130.2073838650176
 10
100.4517496493662
 20
-130.2073838650176
 10
100.4517496493662
 20
-129.3750487957813
 10
100.4517496493662
 20
-129.3750487957813
 10
100.4517496493662
 20
-129.3750487957813
 10
100.6463975442828
 20
-129.3750487957813
 10
100.6463975442828
 20
-129.3750487957813
 10
100.6463975442828
 20
-129.3750487957813
 10
100.6463975442828
 20
-130.0330620334639
 10
100.6463975442828
 20
-130.0330620334639
 10
100.6463975442828
 20
-130.0330620334639
 10
101.0694552698715
 20
-130.1033419813631
 10
101.0694552698715
 20
-130.1033419813631
 10
101.0356933341161
 20
-130.0378851671433
 10
100.9953857169387
 20
-129.9496907227209
 10
100.9953857169387
 20
-129.8229112088637
 10
100.9953857169387
 20
-129.551437684626
 10
101.1817653826907
 20
-129.2985676760087
 10
101.4949245622999
 20
-129.2985676760087
 10
101.8122178564914
 20
-129.2985676760087
 10
102.0468288590369
 20
-129.537657302685
 10
102.0468288590369
 20
-129.8614962782985
 97
        0
 97
        0
 75
     2
 76
     1
 98
        0
  0
ENDBLK
  5
DD
330
DA
100
AcDbEntity
  8
0
100
AcDbBlockEnd
  0
ENDSEC
  0
SECTION
  2
ENTITIES
  0
POLYLINE
  5
41
330
1F
100
AcDbEntity
  8
_U+30EC_U+30A4_U+30E4_U+30FC 1
 62
     7
420
 16777215
370
    25
100
AcDb2dPolyline
 66
     1
 10
0.0
 20
0.0
 30
0.0
  0
VERTEX
  5
42
330
41
100
AcDbEntity
  8
_U+30EC_U+30A4_U+30E4_U+30FC 1
 62
     7
420
 16777215
370
    25
100
AcDbVertex
100
AcDb2dVertex
 10
86.59265473528177
 20
-134.1595896886826
 30
0.0
  0
VERTEX
  5
43
330
41
100
AcDbEntity
  8
_U+30EC_U+30A4_U+30E4_U+30FC 1
 62
     7
420
 16777215
370
    25
100
AcDbVertex
100
AcDb2dVertex
 10
98.592425818031
 20
-134.1595896886826
 30
0.0
  0
SEQEND
  5
44
330
41
100
AcDbEntity
  8
_U+30EC_U+30A4_U+30E4_U+30FC 1
 62
     7
420
 16777215
370
    25
  0
POLYLINE
  5
45
330
1F
100
AcDbEntity
  8
_U+30EC_U+30A4_U+30E4_U+30FC 1
 62
     7
420
 16777215
370
    25
100
AcDb2dPolyline
 66
     1
 10
0.0
 20
0.0
 30
0.0
  0
VERTEX
  5
46
330
45
100
AcDbEntity
  8
_U+30EC_U+30A4_U+30E4_U+30FC 1
 62
     7
420
 16777215
370
    25
100
AcDbVertex
100
AcDb2dVertex
 10
86.59265473528177
 20
-127.6595533014184
 30
0.0
  0
VERTEX
  5
47
330
45
100
AcDbEntity
  8
_U+30EC_U+30A4_U+30E4_U+30FC 1
 62
     7
420
 16777215
370
    25
100
AcDbVertex
100
AcDb2dVertex
 10
98.592425818031
 20
-127.6595533014184
 30
0.0
  0
SEQEND
  5
48
330
45
100
AcDbEntity
  8
_U+30EC_U+30A4_U+30E4_U+30FC 1
 62
     7
420
 16777215
370
    25
  0
POLYLINE
  5
49
330
1F
100
AcDbEntity
  8
_U+30EC_U+30A4_U+30E4_U+30FC 1
 62
     7
420
 16777215
370
    25
100
AcDb2dPolyline
 66
     1
 10
0.0
 20
0.0
 30
0.0
  0
VERTEX
  5
4A
330
49
100
AcDbEntity
  8
_U+30EC_U+30A4_U+30E4_U+30FC 1
 62
     7
420
 16777215
370
    25
100
AcDbVertex
100
AcDb2dVertex
 10
86.59265473528177
 20
-135.16006746621
 30
0.0
  0
VERTEX
  5
4B
330
49
100
AcDbEntity
  8
_U+30EC_U+30A4_U+30E4_U+30FC 1
 62
     7
420
 16777215
370
    25
100
AcDbVertex
100
AcDb2dVertex
 10
97.59198334355442
 20
-135.16006746621
 30
0.0
  0
SEQEND
  5
4C
330
49
100
AcDbEntity
  8
_U+30EC_U+30A4_U+30E4_U+30FC 1
 62
     7
420
 16777215
370
    25
  0
POLYLINE
  5
4D
330
1F
100
AcDbEntity
  8
_U+30EC_U+30A4_U+30E4_U+30FC 1
 62
     7
420
 16777215
370
    25
100
AcDb2dPolyline
 66
     1
 10
0.0
 20
0.0
 30
0.0
  0
VERTEX
  5
4E
330
4D
100
AcDbEntity
  8
_U+30EC_U+30A4_U+30E4_U+30FC 1
 62
     7
420
 16777215
370
    25
100
AcDbVertex
100
AcDb2dVertex
 10
85.59217698302831
 20
-123.1595905247657
 30
0.0
  0
VERTEX
  5
4F
330
4D
100
AcDbEntity
  8
_U+30EC_U+30A4_U+30E4_U+30FC 1
 62
     7
420
 16777215
370
    25
100
AcDbVertex
100
AcDb2dVertex
 10
85.59217698302831
 20
-134.1595896886826
 30
0.0
  0
SEQEND
  5
50
330
4D
100
AcDbEntity
  8
_U+30EC_U+30A4_U+30E4_U+30FC 1
 62
     7
420
 16777215
370
    25
  0
POLYLINE
  5
51
330
1F
100
AcDbEntity
  8
_U+30EC_U+30A4_U+30E4_U+30FC 1
 62
     7
420
 16777215
370
    25
100
AcDb2dPolyline
 66
     1
 10
0.0
 20
0.0
 30
0.0
  0
VERTEX
  5
52
330
51
100
AcDbEntity
  8
_U+30EC_U+30A4_U+30E4_U+30FC 1
 62
     7
420
 16777215
370
    25
100
AcDbVertex
100
AcDb2dVertex
 10
86.59265473528177
 20
-122.1598183027935
 30
0.0
  0
VERTEX
  5
53
330
51
100
AcDbEntity
  8
_U+30EC_U+30A4_U+30E4_U+30FC 1
 62
     7
420
 16777215
370
    25
100
AcDbVertex
100
AcDb2dVertex
 10
86.59265473528177
 20
-126.6597810794462
 30
0.0
  0
SEQEND
  5
54
330
51
100
AcDbEntity
  8
_U+30EC_U+30A4_U+30E4_U+30FC 1
 62
     7
420
 16777215
370
    25
  0
POLYLINE
  5
55
330
1F
100
AcDbEntity
  8
_U+30EC_U+30A4_U+30E4_U+30FC 1
 62
     7
420
 16777215
370
    25
100
AcDb2dPolyline
 66
     1
 10
0.0
 20
0.0
 30
0.0
  0
VERTEX
  5
56
330
55
100
AcDbEntity
  8
_U+30EC_U+30A4_U+30E4_U+30FC 1
 62
     7
420
 16777215
370
    25
100
AcDbVertex
100
AcDb2dVertex
 10
86.59265473528177
 20
-126.6597810794462
 30
0.0
  0
VERTEX
  5
57
330
55
100
AcDbEntity
  8
_U+30EC_U+30A4_U+30E4_U+30FC 1
 62
     7
420
 16777215
370
    25
100
AcDbVertex
100
AcDb2dVertex
 10
104.5927523316166
 20
-126.6597810794462
 30
0.0
  0
SEQEND
  5
58
330
55
100
AcDbEntity
  8
_U+30EC_U+30A4_U+30E4_U+30FC 1
 62
     7
420
 16777215
370
    25
  0
POLYLINE
  5
59
330
1F
100
AcDbEntity
  8
_U+30EC_U+30A4_U+30E4_U+30FC 1
 62
     7
420
 16777215
370
    25
100
AcDb2dPolyline
 66
     1
 10
0.0
 20
0.0
 30
0.0
  0
VERTEX
  5
5A
330
59
100
AcDbEntity
  8
_U+30EC_U+30A4_U+30E4_U+30FC 1
 62
     7
420
 16777215
370
    25
100
AcDbVertex
100
AcDb2dVertex
 10
86.59265473528177
 20
-127.6595533014184
 30
0.0
  0
VERTEX
  5
5B
330
59
100
AcDbEntity
  8
_U+30EC_U+30A4_U+30E4_U+30FC 1
 62
     7
420
 16777215
370
    25
100
AcDbVertex
100
AcDb2dVertex
 10
86.59265473528177
 20
-134.1595896886826
 30
0.0
  0
SEQEND
  5
5C
330
59
100
AcDbEntity
  8
_U+30EC_U+30A4_U+30E4_U+30FC 1
 62
     7
420
 16777215
370
    25
  0
POLYLINE
  5
5D
330
1F
100
AcDbEntity
  8
_U+30EC_U+30A4_U+30E4_U+30FC 1
 62
     7
420
 16777215
370
    25
100
AcDb2dPolyline
 66
     1
 10
0.0
 20
0.0
 30
0.0
  0
VERTEX
  5
5E
330
5D
100
AcDbEntity
  8
_U+30EC_U+30A4_U+30E4_U+30FC 1
 62
     7
420
 16777215
370
    25
100
AcDbVertex
100
AcDb2dVertex
 10
99.11196163810988
 20
-127.3598333014935
 30
0.0
  0
VERTEX
  5
5F
330
5D
100
AcDbEntity
  8
_U+30EC_U+30A4_U+30E4_U+30FC 1
 62
     7
420
 16777215
370
    25
100
AcDbVertex
100
AcDb2dVertex
 10
103.8927027518045
 20
-127.3598333014935
 30
0.0
  0
SEQEND
  5
60
330
5D
100
AcDbEntity
  8
_U+30EC_U+30A4_U+30E4_U+30FC 1
 62
     7
420
 16777215
370
    25
  0
POLYLINE
  5
61
330
1F
100
AcDbEntity
  8
_U+30EC_U+30A4_U+30E4_U+30FC 1
 62
     7
420
 16777215
370
    25
100
AcDb2dPolyline
 66
     1
 10
0.0
 20
0.0
 30
0.0
  0
VERTEX
  5
62
330
61
100
AcDbEntity
  8
_U+30EC_U+30A4_U+30E4_U+30FC 1
 62
     7
420
 16777215
370
    25
100
AcDbVertex
100
AcDb2dVertex
 10
98.592425818031
 20
-127.6595533014184
 30
0.0
  0
VERTEX
  5
63
330
61
100
AcDbEntity
  8
_U+30EC_U+30A4_U+30E4_U+30FC 1
 62
     7
420
 16777215
370
    25
100
AcDbVertex
100
AcDb2dVertex
 10
99.11196163810988
 20
-127.3598333014935
 30
0.0
  0
SEQEND
  5
64
330
61
100
AcDbEntity
  8
_U+30EC_U+30A4_U+30E4_U+30FC 1
 62
     7
420
 16777215
370
    25
  0
POLYLINE
  5
65
330
1F
100
AcDbEntity
  8
_U+30EC_U+30A4_U+30E4_U+30FC 1
 62
     7
420
 16777215
370
     9
100
AcDb2dPolyline
 66
     1
 10
0.0
 20
0.0
 30
0.0
  0
VERTEX
  5
66
330
65
100
AcDbEntity
  8
_U+30EC_U+30A4_U+30E4_U+30FC 1
 62
     7
420
 16777215
370
     9
100
AcDbVertex
100
AcDb2dVertex
 10
85.88501780889065
 20
-134.8665210773947
 30
0.0
  0
VERTEX
  5
67
330
65
100
AcDbEntity
  8
_U+30EC_U+30A4_U+30E4_U+30FC 1
 62
     7
420
 16777215
370
     9
100
AcDbVertex
100
AcDb2dVertex
 10
81.592417918404
 20
-139.1598266318769
 30
0.0
  0
SEQEND
  5
68
330
65
100
AcDbEntity
  8
_U+30EC_U+30A4_U+30E4_U+30FC 1
 62
     7
420
 16777215
370
     9
  0
POLYLINE
  5
69
330
1F
100
AcDbEntity
  8
_U+30EC_U+30A4_U+30E4_U+30FC 1
 62
     7
420
 16777215
370
     9
100
AcDb2dPolyline
 66
     1
 10
0.0
 20
0.0
 30
0.0
  0
VERTEX
  5
6A
330
69
100
AcDbEntity
  8
_U+30EC_U+30A4_U+30E4_U+30FC 1
 62
     7
420
 16777215
370
     9
100
AcDbVertex
100
AcDb2dVertex
 10
77.38046302585992
 20
-139.1598266318769
 30
0.0
  0
VERTEX
  5
6B
330
69
100
AcDbEntity
  8
_U+30EC_U+30A4_U+30E4_U+30FC 1
 62
     7
420
 16777215
370
     9
100
AcDbVertex
100
AcDb2dVertex
 10
81.592417918404
 20
-139.1598266318769
 30
0.0
  0
SEQEND
  5
6C
330
69
100
AcDbEntity
  8
_U+30EC_U+30A4_U+30E4_U+30FC 1
 62
     7
420
 16777215
370
     9
  0
POLYLINE
  5
6D
330
1F
100
AcDbEntity
  8
_U+30EC_U+30A4_U+30E4_U+30FC 1
 62
     7
420
 16777215
370
     9
100
AcDb2dPolyline
 66
     1
 10
0.0
 20
0.0
 30
0.0
  0
VERTEX
  5
6E
330
6D
100
AcDbEntity
  8
_U+30EC_U+30A4_U+30E4_U+30FC 1
 62
     7
420
 16777215
370
     9
100
AcDbVertex
100
AcDb2dVertex
 10
85.88501780889065
 20
-134.8665210773947
 30
0.0
  0
VERTEX
  5
6F
330
6D
100
AcDbEntity
  8
_U+30EC_U+30A4_U+30E4_U+30FC 1
 62
     7
420
 16777215
370
     9
100
AcDbVertex
100
AcDb2dVertex
 10
84.58623331218675
 20
-135.6168794105405
 30
0.0
  0
SEQEND
  5
70
330
6D
100
AcDbEntity
  8
_U+30EC_U+30A4_U+30E4_U+30FC 1
 62
     7
420
 16777215
370
     9
  0
POLYLINE
  5
71
330
1F
100
AcDbEntity
  8
_U+30EC_U+30A4_U+30E4_U+30FC 1
 62
     7
420
 16777215
370
     9
100
AcDb2dPolyline
 66
     1
 10
0.0
 20
0.0
 30
0.0
  0
VERTEX
  5
72
330
71
100
AcDbEntity
  8
_U+30EC_U+30A4_U+30E4_U+30FC 1
 62
     7
420
 16777215
370
     9
100
AcDbVertex
100
AcDb2dVertex
 10
85.88501780889065
 20
-134.8665210773947
 30
0.0
  0
VERTEX
  5
73
330
71
100
AcDbEntity
  8
_U+30EC_U+30A4_U+30E4_U+30FC 1
 62
     7
420
 16777215
370
     9
100
AcDbVertex
100
AcDb2dVertex
 10
85.13536505023811
 20
-136.1660132992921
 30
0.0
  0
SEQEND
  5
74
330
71
100
AcDbEntity
  8
_U+30EC_U+30A4_U+30E4_U+30FC 1
 62
     7
420
 16777215
370
     9
  0
SPLINE
  5
75
330
1F
100
AcDbEntity
  8
_U+30EC_U+30A4_U+30E4_U+30FC 1
 62
     7
420
 16777215
370
    25
100
AcDbSpline
210
0.0
220
0.0
230
1.0
 70
     8
 71
     3
 72
     8
 73
     4
 74
     0
 42
0.0000000001
 43
0.0000000001
 12
1.0
 22
0.0
 32
0.0
 13
1.0
 23
0.0
 33
0.0
 40
0.0
 40
0.0
 40
0.0
 40
0.0
 40
1.0
 40
1.0
 40
1.0
 40
1.0
 10
85.59217698302831
 20
-134.1595896886826
 30
0.0
 10
85.59217698302831
 20
-134.7121807996555
 30
0.0
 10
86.04006363826844
 20
-135.16006746621
 30
0.0
 10
86.59265473528177
 20
-135.16006746621
 30
0.0
  0
SPLINE
  5
76
330
1F
100
AcDbEntity
  8
_U+30EC_U+30A4_U+30E4_U+30FC 1
 62
     7
420
 16777215
370
    25
100
AcDbSpline
210
0.0
220
0.0
230
1.0
 70
     8
 71
     3
 72
     8
 73
     4
 74
     0
 42
0.0000000001
 43
0.0000000001
 12
1.0
 22
0.0
 32
0.0
 13
1.0
 23
0.0
 33
0.0
 40
0.0
 40
0.0
 40
0.0
 40
0.0
 40
1.0
 40
1.0
 40
1.0
 40
1.0
 10
86.59265473528177
 20
-122.1598183027935
 30
0.0
 10
86.04006363826844
 20
-122.1598183027935
 30
0.0
 10
85.59217698302831
 20
-122.6076696915702
 30
0.0
 10
85.59217698302831
 20
-123.1595905247657
 30
0.0
  0
SPLINE
  5
77
330
1F
100
AcDbEntity
  8
_U+30EC_U+30A4_U+30E4_U+30FC 1
 62
     7
420
 16777215
370
    25
100
AcDbSpline
210
0.0
220
0.0
230
1.0
 70
     8
 71
     3
 72
     8
 73
     4
 74
     0
 42
0.0000000001
 43
0.0000000001
 12
1.0
 22
0.0
 32
0.0
 13
1.0
 23
0.0
 33
0.0
 40
0.0
 40
0.0
 40
0.0
 40
0.0
 40
1.0
 40
1.0
 40
1.0
 40
1.0
 10
97.59198334355442
 20
-135.16006746621
 30
0.0
 10
98.14457444056775
 20
-135.16006746621
 30
0.0
 10
98.592425818031
 20
-134.7121807996555
 30
0.0
 10
98.592425818031
 20
-134.1595896886826
 30
0.0
  0
SPLINE
  5
78
330
1F
100
AcDbEntity
  8
_U+30EC_U+30A4_U+30E4_U+30FC 1
 62
     7
420
 16777215
370
    25
100
AcDbSpline
210
0.0
220
0.0
230
1.0
 70
     8
 71
     3
 72
     8
 73
     4
 74
     0
 42
0.0000000001
 43
0.0000000001
 12
1.0
 22
0.0
 32
0.0
 13
1.0
 23
0.0
 33
0.0
 40
0.0
 40
0.0
 40
0.0
 40
0.0
 40
1.0
 40
1.0
 40
1.0
 40
1.0
 10
103.8927027518045
 20
-127.3598333014935
 30
0.0
 10
104.2792387285039
 20
-127.3598333014935
 30
0.0
 10
104.5927523316166
 20
-127.0463196904606
 30
0.0
 10
104.5927523316166
 20
-126.6597810794462
 30
0.0
  0
SPLINE
  5
79
330
1F
100
AcDbEntity
  8
_U+30EC_U+30A4_U+30E4_U+30FC 1
 62
     7
420
 16777215
370
     9
100
AcDbSpline
210
0.0
220
0.0
230
1.0
 70
    11
 71
     3
 72
    17
 73
    13
 74
     0
 42
0.0000000001
 43
0.0000000001
 12
1.0
 22
0.0
 32
0.0
 13
1.0
 23
0.0
 33
0.0
 40
0.0
 40
0.0
 40
0.0
 40
0.0
 40
1.0
 40
1.0
 40
1.0
 40
2.0
 40
2.0
 40
2.0
 40
3.0
 40
3.0
 40
3.0
 40
4.0
 40
4.0
 40
4.0
 40
4.0
 10
104.6926589957344
 20
-118.1600591371266
 30
0.0
 10
104.6926589957344
 20
-118.1049199704738
 30
0.0
 10
104.6478562190997
 20
-118.060152470485
 30
0.0
 10
104.5927523316166
 20
-118.060152470485
 30
0.0
 10
104.5376131663566
 20
-118.060152470485
 30
0.0
 10
104.4928456674987
 20
-118.1049199704738
 30
0.0
 10
104.4928456674987
 20
-118.1600591371266
 30
0.0
 10
104.4928456674987
 20
-118.2151630260018
 30
0.0
 10
104.5376131663566
 20
-118.2599658037682
 30
0.0
 10
104.5927523316166
 20
-118.2599658037682
 30
0.0
 10
104.6478562190997
 20
-118.2599658037682
 30
0.0
 10
104.6926589957344
 20
-118.2151630260018
 30
0.0
 10
104.6926589957344
 20
-118.1600591371266
 30
0.0
  0
SPLINE
  5
7A
330
1F
100
AcDbEntity
  8
_U+30EC_U+30A4_U+30E4_U+30FC 1
 62
     7
420
 16777215
370
     9
100
AcDbSpline
210
0.0
220
0.0
230
1.0
 70
    11
 71
     3
 72
    17
 73
    13
 74
     0
 42
0.0000000001
 43
0.0000000001
 12
1.0
 22
0.0
 32
0.0
 13
1.0
 23
0.0
 33
0.0
 40
0.0
 40
0.0
 40
0.0
 40
0.0
 40
1.0
 40
1.0
 40
1.0
 40
2.0
 40
2.0
 40
2.0
 40
3.0
 40
3.0
 40
3.0
 40
4.0
 40
4.0
 40
4.0
 40
4.0
 10
86.79246806351745
 20
-118.1600591371266
 30
0.0
 10
86.79246806351745
 20
-118.1049199704738
 30
0.0
 10
86.74766528688268
 20
-118.060152470485
 30
0.0
 10
86.69256139939961
 20
-118.060152470485
 30
0.0
 10
86.63742223413966
 20
-118.060152470485
 30
0.0
 10
86.59265473528177
 20
-118.1049199704738
 30
0.0
 10
86.59265473528177
 20
-118.1600591371266
 30
0.0
 10
86.59265473528177
 20
-118.2151630260018
 30
0.0
 10
86.63742223413966
 20
-118.2599658037682
 30
0.0
 10
86.69256139939961
 20
-118.2599658037682
 30
0.0
 10
86.74766528688268
 20
-118.2599658037682
 30
0.0
 10
86.79246806351745
 20
-118.2151630260018
 30
0.0
 10
86.79246806351745
 20
-118.1600591371266
 30
0.0
  0
SPLINE
  5
7B
330
1F
100
AcDbEntity
  8
_U+30EC_U+30A4_U+30E4_U+30FC 1
 62
     7
420
 16777215
370
     9
100
AcDbSpline
210
0.0
220
0.0
230
1.0
 70
    11
 71
     3
 72
    17
 73
    13
 74
     0
 42
0.0000000001
 43
0.0000000001
 12
1.0
 22
0.0
 32
0.0
 13
1.0
 23
0.0
 33
0.0
 40
0.0
 40
0.0
 40
0.0
 40
0.0
 40
1.0
 40
1.0
 40
1.0
 40
2.0
 40
2.0
 40
2.0
 40
3.0
 40
3.0
 40
3.0
 40
4.0
 40
4.0
 40
4.0
 40
4.0
 10
85.69208364714615
 20
-124.6595663577241
 30
0.0
 10
85.69208364714615
 20
-124.6044624688489
 30
0.0
 10
85.64731614828825
 20
-124.5596596910825
 30
0.0
 10
85.59217698302831
 20
-124.5596596910825
 30
0.0
 10
85.53707309554524
 20
-124.5596596910825
 30
0.0
 10
85.49227031891047
 20
-124.6044624688489
 30
0.0
 10
85.49227031891047
 20
-124.6595663577241
 30
0.0
 10
85.49227031891047
 20
-124.7153758021545
 30
0.0
 10
85.53707309554524
 20
-124.7601785799209
 30
0.0
 10
85.59217698302831
 20
-124.7601785799209
 30
0.0
 10
85.64731614828825
 20
-124.7601785799209
 30
0.0
 10
85.69208364714615
 20
-124.7153758021545
 30
0.0
 10
85.69208364714615
 20
-124.6595663577241
 30
0.0
  0
SPLINE
  5
7C
330
1F
100
AcDbEntity
  8
_U+30EC_U+30A4_U+30E4_U+30FC 1
 62
     7
420
 16777215
370
     9
100
AcDbSpline
210
0.0
220
0.0
230
1.0
 70
    11
 71
     3
 72
    17
 73
    13
 74
     0
 42
0.0000000001
 43
0.0000000001
 12
1.0
 22
0.0
 32
0.0
 13
1.0
 23
0.0
 33
0.0
 40
0.0
 40
0.0
 40
0.0
 40
0.0
 40
1.0
 40
1.0
 40
1.0
 40
2.0
 40
2.0
 40
2.0
 40
3.0
 40
3.0
 40
3.0
 40
4.0
 40
4.0
 40
4.0
 40
4.0
 10
86.69256139939961
 20
-124.6595663577241
 30
0.0
 10
86.69256139939961
 20
-124.6044624688489
 30
0.0
 10
86.64775862276484
 20
-124.5596596910825
 30
0.0
 10
86.59265473528177
 20
-124.5596596910825
 30
0.0
 10
86.53684529226115
 20
-124.5596596910825
 30
0.0
 10
86.49204251562638
 20
-124.6044624688489
 30
0.0
 10
86.49204251562638
 20
-124.6595663577241
 30
0.0
 10
86.49204251562638
 20
-124.7153758021545
 30
0.0
 10
86.53684529226115
 20
-124.7601785799209
 30
0.0
 10
86.59265473528177
 20
-124.7601785799209
 30
0.0
 10
86.64775862276484
 20
-124.7601785799209
 30
0.0
 10
86.69256139939961
 20
-124.7153758021545
 30
0.0
 10
86.69256139939961
 20
-124.6595663577241
 30
0.0
  0
SPLINE
  5
7D
330
1F
100
AcDbEntity
  8
_U+30EC_U+30A4_U+30E4_U+30FC 1
 62
     7
420
 16777215
370
     9
100
AcDbSpline
210
0.0
220
0.0
230
1.0
 70
    11
 71
     3
 72
    17
 73
    13
 74
     0
 42
0.0000000001
 43
0.0000000001
 12
1.0
 22
0.0
 32
0.0
 13
1.0
 23
0.0
 33
0.0
 40
0.0
 40
0.0
 40
0.0
 40
0.0
 40
1.0
 40
1.0
 40
1.0
 40
2.0
 40
2.0
 40
2.0
 40
3.0
 40
3.0
 40
3.0
 40
4.0
 40
4.0
 40
4.0
 40
4.0
 10
81.69232458252183
 20
-135.16006746621
 30
0.0
 10
81.69232458252183
 20
-135.1042580217796
 30
0.0
 10
81.64755708366395
 20
-135.0594552440129
 30
0.0
 10
81.592417918404
 20
-135.0594552440129
 30
0.0
 10
81.53731403092092
 20
-135.0594552440129
 30
0.0
 10
81.49251125428617
 20
-135.1042580217796
 30
0.0
 10
81.49251125428617
 20
-135.16006746621
 30
0.0
 10
81.49251125428617
 20
-135.2151713550849
 30
0.0
 10
81.53731403092092
 20
-135.2599741328517
 30
0.0
 10
81.592417918404
 20
-135.2599741328517
 30
0.0
 10
81.64755708366395
 20
-135.2599741328517
 30
0.0
 10
81.69232458252183
 20
-135.2151713550849
 30
0.0
 10
81.69232458252183
 20
-135.16006746621
 30
0.0
  0
SPLINE
  5
7E
330
1F
100
AcDbEntity
  8
_U+30EC_U+30A4_U+30E4_U+30FC 1
 62
     7
420
 16777215
370
     9
100
AcDbSpline
210
0.0
220
0.0
230
1.0
 70
    11
 71
     3
 72
    17
 73
    13
 74
     0
 42
0.0000000001
 43
0.0000000001
 12
1.0
 22
0.0
 32
0.0
 13
1.0
 23
0.0
 33
0.0
 40
0.0
 40
0.0
 40
0.0
 40
0.0
 40
1.0
 40
1.0
 40
1.0
 40
2.0
 40
2.0
 40
2.0
 40
3.0
 40
3.0
 40
3.0
 40
4.0
 40
4.0
 40
4.0
 40
4.0
 10
81.69232458252183
 20
-122.1598183027935
 30
0.0
 10
81.69232458252183
 20
-122.1046791361404
 30
0.0
 10
81.64755708366395
 20
-122.0599116361518
 30
0.0
 10
81.592417918404
 20
-122.0599116361518
 30
0.0
 10
81.53731403092092
 20
-122.0599116361518
 30
0.0
 10
81.49251125428617
 20
-122.1046791361404
 30
0.0
 10
81.49251125428617
 20
-122.1598183027935
 30
0.0
 10
81.49251125428617
 20
-122.2149221916684
 30
0.0
 10
81.53731403092092
 20
-122.2597249694351
 30
0.0
 10
81.592417918404
 20
-122.2597249694351
 30
0.0
 10
81.64755708366395
 20
-122.2597249694351
 30
0.0
 10
81.69232458252183
 20
-122.2149221916684
 30
0.0
 10
81.69232458252183
 20
-122.1598183027935
 30
0.0
  0
SPLINE
  5
7F
330
1F
100
AcDbEntity
  8
_U+30EC_U+30A4_U+30E4_U+30FC 1
 62
     7
420
 16777215
370
     9
100
AcDbSpline
210
0.0
220
0.0
230
1.0
 70
    11
 71
     3
 72
    17
 73
    13
 74
     0
 42
0.0000000001
 43
0.0000000001
 12
1.0
 22
0.0
 32
0.0
 13
1.0
 23
0.0
 33
0.0
 40
0.0
 40
0.0
 40
0.0
 40
0.0
 40
1.0
 40
1.0
 40
1.0
 40
2.0
 40
2.0
 40
2.0
 40
3.0
 40
3.0
 40
3.0
 40
4.0
 40
4.0
 40
4.0
 40
4.0
 10
98.69233248214883
 20
-139.1598266318769
 30
0.0
 10
98.69233248214883
 20
-139.1046874652238
 30
0.0
 10
98.64756498329095
 20
-139.0598846874571
 30
0.0
 10
98.592425818031
 20
-139.0598846874571
 30
0.0
 10
98.53732193054793
 20
-139.0598846874571
 30
0.0
 10
98.49251915391316
 20
-139.1046874652238
 30
0.0
 10
98.49251915391316
 20
-139.1598266318769
 30
0.0
 10
98.49251915391316
 20
-139.2149305207518
 30
0.0
 10
98.53732193054793
 20
-139.2597332985185
 30
0.0
 10
98.592425818031
 20
-139.2597332985185
 30
0.0
 10
98.64756498329095
 20
-139.2597332985185
 30
0.0
 10
98.69233248214883
 20
-139.2149305207518
 30
0.0
 10
98.69233248214883
 20
-139.1598266318769
 30
0.0
  0
SPLINE
  5
80
330
1F
100
AcDbEntity
  8
_U+30EC_U+30A4_U+30E4_U+30FC 1
 62
     7
420
 16777215
370
     9
100
AcDbSpline
210
0.0
220
0.0
230
1.0
 70
    11
 71
     3
 72
    17
 73
    13
 74
     0
 42
0.0000000001
 43
0.0000000001
 12
1.0
 22
0.0
 32
0.0
 13
1.0
 23
0.0
 33
0.0
 40
0.0
 40
0.0
 40
0.0
 40
0.0
 40
1.0
 40
1.0
 40
1.0
 40
2.0
 40
2.0
 40
2.0
 40
3.0
 40
3.0
 40
3.0
 40
4.0
 40
4.0
 40
4.0
 40
4.0
 10
85.69208364714615
 20
-139.1598266318769
 30
0.0
 10
85.69208364714615
 20
-139.1046874652238
 30
0.0
 10
85.64731614828825
 20
-139.0598846874571
 30
0.0
 10
85.59217698302831
 20
-139.0598846874571
 30
0.0
 10
85.53707309554524
 20
-139.0598846874571
 30
0.0
 10
85.49227031891047
 20
-139.1046874652238
 30
0.0
 10
85.49227031891047
 20
-139.1598266318769
 30
0.0
 10
85.49227031891047
 20
-139.2149305207518
 30
0.0
 10
85.53707309554524
 20
-139.2597332985185
 30
0.0
 10
85.59217698302831
 20
-139.2597332985185
 30
0.0
 10
85.64731614828825
 20
-139.2597332985185
 30
0.0
 10
85.69208364714615
 20
-139.2149305207518
 30
0.0
 10
85.69208364714615
 20
-139.1598266318769
 30
0.0
  0
SPLINE
  5
81
330
1F
100
AcDbEntity
  8
_U+30EC_U+30A4_U+30E4_U+30FC 1
 62
     7
420
 16777215
370
     9
100
AcDbSpline
210
0.0
220
0.0
230
1.0
 70
    11
 71
     3
 72
    17
 73
    13
 74
     0
 42
0.0000000001
 43
0.0000000001
 12
1.0
 22
0.0
 32
0.0
 13
1.0
 23
0.0
 33
0.0
 40
0.0
 40
0.0
 40
0.0
 40
0.0
 40
1.0
 40
1.0
 40
1.0
 40
2.0
 40
2.0
 40
2.0
 40
3.0
 40
3.0
 40
3.0
 40
4.0
 40
4.0
 40
4.0
 40
4.0
 10
102.6924443245419
 20
-127.6595533014184
 30
0.0
 10
102.6924443245419
 20
-127.6044494125432
 30
0.0
 10
102.6476415479072
 20
-127.5596466347768
 30
0.0
 10
102.5925376604241
 20
-127.5596466347768
 30
0.0
 10
102.5373984951641
 20
-127.5596466347768
 30
0.0
 10
102.4926309963062
 20
-127.6044494125432
 30
0.0
 10
102.4926309963062
 20
-127.6595533014184
 30
0.0
 10
102.4926309963062
 20
-127.7153627458489
 30
0.0
 10
102.5373984951641
 20
-127.7601655236156
 30
0.0
 10
102.5925376604241
 20
-127.7601655236156
 30
0.0
 10
102.6476415479072
 20
-127.7601655236156
 30
0.0
 10
102.6924443245419
 20
-127.7153627458489
 30
0.0
 10
102.6924443245419
 20
-127.6595533014184
 30
0.0
  0
SPLINE
  5
82
330
1F
100
AcDbEntity
  8
_U+30EC_U+30A4_U+30E4_U+30FC 1
 62
     7
420
 16777215
370
     9
100
AcDbSpline
210
0.0
220
0.0
230
1.0
 70
    11
 71
     3
 72
    17
 73
    13
 74
     0
 42
0.0000000001
 43
0.0000000001
 12
1.0
 22
0.0
 32
0.0
 13
1.0
 23
0.0
 33
0.0
 40
0.0
 40
0.0
 40
0.0
 40
0.0
 40
1.0
 40
1.0
 40
1.0
 40
2.0
 40
2.0
 40
2.0
 40
3.0
 40
3.0
 40
3.0
 40
4.0
 40
4.0
 40
4.0
 40
4.0
 10
102.6924443245419
 20
-134.1595896886826
 30
0.0
 10
102.6924443245419
 20
-134.104485799807
 30
0.0
 10
102.6476415479072
 20
-134.0596830220403
 30
0.0
 10
102.5925376604241
 20
-134.0596830220403
 30
0.0
 10
102.5373984951641
 20
-134.0596830220403
 30
0.0
 10
102.4926309963062
 20
-134.104485799807
 30
0.0
 10
102.4926309963062
 20
-134.1595896886826
 30
0.0
 10
102.4926309963062
 20
-134.214728855335
 30
0.0
 10
102.5373984951641
 20
-134.2594963553242
 30
0.0
 10
102.5925376604241
 20
-134.2594963553242
 30
0.0
 10
102.6476415479072
 20
-134.2594963553242
 30
0.0
 10
102.6924443245419
 20
-134.214728855335
 30
0.0
 10
102.6924443245419
 20
-134.1595896886826
 30
0.0
  0
INSERT
  5
84
330
1F
100
AcDbEntity
  8
_U+30EC_U+30A4_U+30E4_U+30FC 1
100
AcDbBlockReference
  2
block 2
 10
0.0
 20
0.0
 30
0.0
  0
POLYLINE
  5
8C
330
1F
100
AcDbEntity
  8
_U+30EC_U+30A4_U+30E4_U+30FC 1
 62
     7
420
 16777215
370
     9
100
AcDb2dPolyline
 66
     1
 10
0.0
 20
0.0
 30
0.0
  0
VERTEX
  5
8D
330
8C
100
AcDbEntity
  8
_U+30EC_U+30A4_U+30E4_U+30FC 1
 62
     7
420
 16777215
370
     9
100
AcDbVertex
100
AcDb2dVertex
 10
86.59265473528177
 20
-118.1600591371266
 30
0.0
  0
VERTEX
  5
8E
330
8C
100
AcDbEntity
  8
_U+30EC_U+30A4_U+30E4_U+30FC 1
 62
     7
420
 16777215
370
     9
100
AcDbVertex
100
AcDb2dVertex
 10
104.5927523316166
 20
-118.1600591371266
 30
0.0
  0
SEQEND
  5
8F
330
8C
100
AcDbEntity
  8
_U+30EC_U+30A4_U+30E4_U+30FC 1
 62
     7
420
 16777215
370
     9
  0
POLYLINE
  5
90
330
1F
100
AcDbEntity
  8
_U+30EC_U+30A4_U+30E4_U+30FC 1
 62
     7
420
 16777215
370
     9
100
AcDb2dPolyline
 66
     1
 10
0.0
 20
0.0
 30
0.0
  0
VERTEX
  5
91
330
90
100
AcDbEntity
  8
_U+30EC_U+30A4_U+30E4_U+30FC 1
 62
     7
420
 16777215
370
     9
100
AcDbVertex
100
AcDb2dVertex
 10
86.69256139939961
 20
-120.6198727476228
 30
0.0
  0
VERTEX
  5
92
330
90
100
AcDbEntity
  8
_U+30EC_U+30A4_U+30E4_U+30FC 1
 62
     7
420
 16777215
370
     9
100
AcDbVertex
100
AcDb2dVertex
 10
86.69256139939961
 20
-117.1596166373767
 30
0.0
  0
SEQEND
  5
93
330
90
100
AcDbEntity
  8
_U+30EC_U+30A4_U+30E4_U+30FC 1
 62
     7
420
 16777215
370
     9
  0
POLYLINE
  5
94
330
1F
100
AcDbEntity
  8
_U+30EC_U+30A4_U+30E4_U+30FC 1
 62
     7
420
 16777215
370
     9
100
AcDb2dPolyline
 66
     1
 10
0.0
 20
0.0
 30
0.0
  0
VERTEX
  5
95
330
94
100
AcDbEntity
  8
_U+30EC_U+30A4_U+30E4_U+30FC 1
 62
     7
420
 16777215
370
     9
100
AcDbVertex
100
AcDb2dVertex
 10
104.5927523316166
 20
-124.1200633023034
 30
0.0
  0
VERTEX
  5
96
330
94
100
AcDbEntity
  8
_U+30EC_U+30A4_U+30E4_U+30FC 1
 62
     7
420
 16777215
370
     9
100
AcDbVertex
100
AcDb2dVertex
 10
104.5927523316166
 20
-117.1596166373767
 30
0.0
  0
SEQEND
  5
97
330
94
100
AcDbEntity
  8
_U+30EC_U+30A4_U+30E4_U+30FC 1
 62
     7
420
 16777215
370
     9
  0
POLYLINE
  5
98
330
1F
100
AcDbEntity
  8
_U+30EC_U+30A4_U+30E4_U+30FC 1
 62
     7
420
 16777215
370
     9
100
AcDb2dPolyline
 66
     1
 10
0.0
 20
0.0
 30
0.0
  0
VERTEX
  5
99
330
98
100
AcDbEntity
  8
_U+30EC_U+30A4_U+30E4_U+30FC 1
 62
     7
420
 16777215
370
     9
100
AcDbVertex
100
AcDb2dVertex
 10
86.59265473528177
 20
-124.6595663577241
 30
0.0
  0
VERTEX
  5
9A
330
98
100
AcDbEntity
  8
_U+30EC_U+30A4_U+30E4_U+30FC 1
 62
     7
420
 16777215
370
     9
100
AcDbVertex
100
AcDb2dVertex
 10
90.36296942185368
 20
-124.6595663577241
 30
0.0
  0
SEQEND
  5
9B
330
98
100
AcDbEntity
  8
_U+30EC_U+30A4_U+30E4_U+30FC 1
 62
     7
420
 16777215
370
     9
  0
POLYLINE
  5
9C
330
1F
100
AcDbEntity
  8
_U+30EC_U+30A4_U+30E4_U+30FC 1
 62
     7
420
 16777215
370
     9
100
AcDb2dPolyline
 66
     1
 10
0.0
 20
0.0
 30
0.0
  0
VERTEX
  5
9D
330
9C
100
AcDbEntity
  8
_U+30EC_U+30A4_U+30E4_U+30FC 1
 62
     7
420
 16777215
370
     9
100
AcDbVertex
100
AcDb2dVertex
 10
84.59244006408927
 20
-124.6595663577241
 30
0.0
  0
VERTEX
  5
9E
330
9C
100
AcDbEntity
  8
_U+30EC_U+30A4_U+30E4_U+30FC 1
 62
     7
420
 16777215
370
     9
100
AcDbVertex
100
AcDb2dVertex
 10
86.59265473528177
 20
-124.6595663577241
 30
0.0
  0
SEQEND
  5
9F
330
9C
100
AcDbEntity
  8
_U+30EC_U+30A4_U+30E4_U+30FC 1
 62
     7
420
 16777215
370
     9
  0
INSERT
  5
A1
330
1F
100
AcDbEntity
  8
_U+30EC_U+30A4_U+30E4_U+30FC 1
100
AcDbBlockReference
  2
block 3
 10
0.0
 20
0.0
 30
0.0
  0
POLYLINE
  5
A6
330
1F
100
AcDbEntity
  8
_U+30EC_U+30A4_U+30E4_U+30FC 1
 62
     7
420
 16777215
370
     9
100
AcDb2dPolyline
 66
     1
 10
0.0
 20
0.0
 30
0.0
  0
VERTEX
  5
A7
330
A6
100
AcDbEntity
  8
_U+30EC_U+30A4_U+30E4_U+30FC 1
 62
     7
420
 16777215
370
     9
100
AcDbVertex
100
AcDb2dVertex
 10
81.592417918404
 20
-135.16006746621
 30
0.0
  0
VERTEX
  5
A8
330
A6
100
AcDbEntity
  8
_U+30EC_U+30A4_U+30E4_U+30FC 1
 62
     7
420
 16777215
370
     9
100
AcDbVertex
100
AcDb2dVertex
 10
81.592417918404
 20
-122.1598183027935
 30
0.0
  0
SEQEND
  5
A9
330
A6
100
AcDbEntity
  8
_U+30EC_U+30A4_U+30E4_U+30FC 1
 62
     7
420
 16777215
370
     9
  0
POLYLINE
  5
AA
330
1F
100
AcDbEntity
  8
_U+30EC_U+30A4_U+30E4_U+30FC 1
 62
     7
420
 16777215
370
     9
100
AcDb2dPolyline
 66
     1
 10
0.0
 20
0.0
 30
0.0
  0
VERTEX
  5
AB
330
AA
100
AcDbEntity
  8
_U+30EC_U+30A4_U+30E4_U+30FC 1
 62
     7
420
 16777215
370
     9
100
AcDbVertex
100
AcDb2dVertex
 10
84.05223146676003
 20
-135.16006746621
 30
0.0
  0
VERTEX
  5
AC
330
AA
100
AcDbEntity
  8
_U+30EC_U+30A4_U+30E4_U+30FC 1
 62
     7
420
 16777215
370
     9
100
AcDbVertex
100
AcDb2dVertex
 10
80.59268099946497
 20
-135.16006746621
 30
0.0
  0
SEQEND
  5
AD
330
AA
100
AcDbEntity
  8
_U+30EC_U+30A4_U+30E4_U+30FC 1
 62
     7
420
 16777215
370
     9
  0
POLYLINE
  5
AE
330
1F
100
AcDbEntity
  8
_U+30EC_U+30A4_U+30E4_U+30FC 1
 62
     7
420
 16777215
370
     9
100
AcDb2dPolyline
 66
     1
 10
0.0
 20
0.0
 30
0.0
  0
VERTEX
  5
AF
330
AE
100
AcDbEntity
  8
_U+30EC_U+30A4_U+30E4_U+30FC 1
 62
     7
420
 16777215
370
     9
100
AcDbVertex
100
AcDb2dVertex
 10
84.05223146676003
 20
-122.1598183027935
 30
0.0
  0
VERTEX
  5
B0
330
AE
100
AcDbEntity
  8
_U+30EC_U+30A4_U+30E4_U+30FC 1
 62
     7
420
 16777215
370
     9
100
AcDbVertex
100
AcDb2dVertex
 10
80.59268099946497
 20
-122.1598183027935
 30
0.0
  0
SEQEND
  5
B1
330
AE
100
AcDbEntity
  8
_U+30EC_U+30A4_U+30E4_U+30FC 1
 62
     7
420
 16777215
370
     9
  0
INSERT
  5
B3
330
1F
100
AcDbEntity
  8
_U+30EC_U+30A4_U+30E4_U+30FC 1
100
AcDbBlockReference
  2
block 4
 10
0.0
 20
0.0
 30
0.0
  0
POLYLINE
  5
BA
330
1F
100
AcDbEntity
  8
_U+30EC_U+30A4_U+30E4_U+30FC 1
 62
     7
420
 16777215
370
     9
100
AcDb2dPolyline
 66
     1
 10
0.0
 20
0.0
 30
0.0
  0
VERTEX
  5
BB
330
BA
100
AcDbEntity
  8
_U+30EC_U+30A4_U+30E4_U+30FC 1
 62
     7
420
 16777215
370
     9
100
AcDbVertex
100
AcDb2dVertex
 10
85.59217698302831
 20
-139.1598266318769
 30
0.0
  0
VERTEX
  5
BC
330
BA
100
AcDbEntity
  8
_U+30EC_U+30A4_U+30E4_U+30FC 1
 62
     7
420
 16777215
370
     9
100
AcDbVertex
100
AcDb2dVertex
 10
98.592425818031
 20
-139.1598266318769
 30
0.0
  0
SEQEND
  5
BD
330
BA
100
AcDbEntity
  8
_U+30EC_U+30A4_U+30E4_U+30FC 1
 62
     7
420
 16777215
370
     9
  0
POLYLINE
  5
BE
330
1F
100
AcDbEntity
  8
_U+30EC_U+30A4_U+30E4_U+30FC 1
 62
     7
420
 16777215
370
     9
100
AcDb2dPolyline
 66
     1
 10
0.0
 20
0.0
 30
0.0
  0
VERTEX
  5
BF
330
BE
100
AcDbEntity
  8
_U+30EC_U+30A4_U+30E4_U+30FC 1
 62
     7
420
 16777215
370
     9
100
AcDbVertex
100
AcDb2dVertex
 10
85.59217698302831
 20
-136.7000130213807
 30
0.0
  0
VERTEX
  5
C0
330
BE
100
AcDbEntity
  8
_U+30EC_U+30A4_U+30E4_U+30FC 1
 62
     7
420
 16777215
370
     9
100
AcDbVertex
100
AcDb2dVertex
 10
85.59217698302831
 20
-140.1595635760713
 30
0.0
  0
SEQEND
  5
C1
330
BE
100
AcDbEntity
  8
_U+30EC_U+30A4_U+30E4_U+30FC 1
 62
     7
420
 16777215
370
     9
  0
POLYLINE
  5
C2
330
1F
100
AcDbEntity
  8
_U+30EC_U+30A4_U+30E4_U+30FC 1
 62
     7
420
 16777215
370
     9
100
AcDb2dPolyline
 66
     1
 10
0.0
 20
0.0
 30
0.0
  0
VERTEX
  5
C3
330
C2
100
AcDbEntity
  8
_U+30EC_U+30A4_U+30E4_U+30FC 1
 62
     7
420
 16777215
370
     9
100
AcDbVertex
100
AcDb2dVertex
 10
98.592425818031
 20
-136.7000130213807
 30
0.0
  0
VERTEX
  5
C4
330
C2
100
AcDbEntity
  8
_U+30EC_U+30A4_U+30E4_U+30FC 1
 62
     7
420
 16777215
370
     9
100
AcDbVertex
100
AcDb2dVertex
 10
98.592425818031
 20
-140.1595635760713
 30
0.0
  0
SEQEND
  5
C5
330
C2
100
AcDbEntity
  8
_U+30EC_U+30A4_U+30E4_U+30FC 1
 62
     7
420
 16777215
370
     9
  0
INSERT
  5
C7
330
1F
100
AcDbEntity
  8
_U+30EC_U+30A4_U+30E4_U+30FC 1
100
AcDbBlockReference
  2
block 5
 10
0.0
 20
0.0
 30
0.0
  0
POLYLINE
  5
CE
330
1F
100
AcDbEntity
  8
_U+30EC_U+30A4_U+30E4_U+30FC 1
 62
     7
420
 16777215
370
     9
100
AcDb2dPolyline
 66
     1
 10
0.0
 20
0.0
 30
0.0
  0
VERTEX
  5
CF
330
CE
100
AcDbEntity
  8
_U+30EC_U+30A4_U+30E4_U+30FC 1
 62
     7
420
 16777215
370
     9
100
AcDbVertex
100
AcDb2dVertex
 10
102.5925376604241
 20
-134.1595896886826
 30
0.0
  0
VERTEX
  5
D0
330
CE
100
AcDbEntity
  8
_U+30EC_U+30A4_U+30E4_U+30FC 1
 62
     7
420
 16777215
370
     9
100
AcDbVertex
100
AcDb2dVertex
 10
102.5925376604241
 20
-127.6595533014184
 30
0.0
  0
SEQEND
  5
D1
330
CE
100
AcDbEntity
  8
_U+30EC_U+30A4_U+30E4_U+30FC 1
 62
     7
420
 16777215
370
     9
  0
POLYLINE
  5
D2
330
1F
100
AcDbEntity
  8
_U+30EC_U+30A4_U+30E4_U+30FC 1
 62
     7
420
 16777215
370
     9
100
AcDb2dPolyline
 66
     1
 10
0.0
 20
0.0
 30
0.0
  0
VERTEX
  5
D3
330
D2
100
AcDbEntity
  8
_U+30EC_U+30A4_U+30E4_U+30FC 1
 62
     7
420
 16777215
370
     9
100
AcDbVertex
100
AcDb2dVertex
 10
101.132496308784
 20
-134.1595896886826
 30
0.0
  0
VERTEX
  5
D4
330
D2
100
AcDbEntity
  8
_U+30EC_U+30A4_U+30E4_U+30FC 1
 62
     7
420
 16777215
370
     9
100
AcDbVertex
100
AcDb2dVertex
 10
103.59230985714
 20
-134.1595896886826
 30
0.0
  0
SEQEND
  5
D5
330
D2
100
AcDbEntity
  8
_U+30EC_U+30A4_U+30E4_U+30FC 1
 62
     7
420
 16777215
370
     9
  0
POLYLINE
  5
D6
330
1F
100
AcDbEntity
  8
_U+30EC_U+30A4_U+30E4_U+30FC 1
 62
     7
420
 16777215
370
     9
100
AcDb2dPolyline
 66
     1
 10
0.0
 20
0.0
 30
0.0
  0
VERTEX
  5
D7
330
D6
100
AcDbEntity
  8
_U+30EC_U+30A4_U+30E4_U+30FC 1
 62
     7
420
 16777215
370
     9
100
AcDbVertex
100
AcDb2dVertex
 10
101.132496308784
 20
-127.6595533014184
 30
0.0
  0
VERTEX
  5
D8
330
D6
100
AcDbEntity
  8
_U+30EC_U+30A4_U+30E4_U+30FC 1
 62
     7
420
 16777215
370
     9
100
AcDbVertex
100
AcDb2dVertex
 10
103.59230985714
 20
-127.6595533014184
 30
0.0
  0
SEQEND
  5
D9
330
D6
100
AcDbEntity
  8
_U+30EC_U+30A4_U+30E4_U+30FC 1
 62
     7
420
 16777215
370
     9
  0
INSERT
  5
DB
330
1F
100
AcDbEntity
  8
_U+30EC_U+30A4_U+30E4_U+30FC 1
100
AcDbBlockReference
  2
block 6
 10
0.0
 20
0.0
 30
0.0
  0
ENDSEC
  0
SECTION
  2
OBJECTS
  0
DICTIONARY
  5
C
330
0
100
AcDbDictionary
281
     1
  3
ACAD_GROUP
350
D
  3
ACAD_LAYOUT
350
1A
  3
ACAD_MATERIAL
350
3B
  3
ACAD_MLEADERSTYLE
350
EC
  3
ACAD_MLINESTYLE
350
17
  3
ACAD_PLOTSETTINGS
350
19
  3
ACAD_PLOTSTYLENAME
350
E
  3
ACAD_TABLESTYLE
350
EB
  3
ACAD_VISUALSTYLE
350
2A
  0
SUN
  5
3F
330
29
100
AcDbSun
 90
        1
290
     0
 63
     7
421
 16777215
 40
1.0
291
     1
 91
  2455826
 92
 54000000
292
     0
 70
     2
 71
   256
280
     1
  0
DICTIONARY
  5
D
102
{ACAD_REACTORS
330
C
102
}
330
C
100
AcDbDictionary
281
     1
  0
DICTIONARY
  5
1A
102
{ACAD_REACTORS
330
C
102
}
330
C
100
AcDbDictionary
281
     1
  3
Layout1
350
1E
  3
Layout2
350
26
  3
Model
350
22
  0
DICTIONARY
  5
3B
102
{ACAD_REACTORS
330
C
102
}
330
C
100
AcDbDictionary
281
     1
  3
ByBlock
350
3D
  3
ByLayer
350
3C
  3
Global
350
3E
  0
DICTIONARY
  5
EC
102
{ACAD_REACTORS
330
C
102
}
330
C
100
AcDbDictionary
281
     1
  0
DICTIONARY
  5
17
102
{ACAD_REACTORS
330
C
102
}
330
C
100
AcDbDictionary
281
     1
  3
Standard
350
18
  0
DICTIONARY
  5
19
102
{ACAD_REACTORS
330
C
102
}
330
C
100
AcDbDictionary
281
     1
  0
ACDBDICTIONARYWDFLT
  5
E
102
{ACAD_REACTORS
330
C
102
}
330
C
100
AcDbDictionary
281
     1
  3
Normal
350
F
100
AcDbDictionaryWithDefault
340
F
  0
DICTIONARY
  5
EB
102
{ACAD_REACTORS
330
C
102
}
330
C
100
AcDbDictionary
281
     1
  0
DICTIONARY
  5
2A
102
{ACAD_REACTORS
330
C
102
}
330
C
100
AcDbDictionary
281
     1
  3
2dWireframe
350
2F
  3
3D Hidden
350
31
  3
3dWireframe
350
30
  3
Basic
350
32
  3
Brighten
350
36
  3
ColorChange
350
3A
  3
Conceptual
350
34
  3
Dim
350
35
  3
Facepattern
350
39
  3
Flat
350
2B
  3
FlatWithEdges
350
2C
  3
Gouraud
350
2D
  3
GouraudWithEdges
350
2E
  3
Linepattern
350
38
  3
Realistic
350
33
  3
Thicken
350
37
  0
LAYOUT
  5
1E
102
{ACAD_REACTORS
330
1A
102
}
330
1A
100
AcDbPlotSettings
  1

  2
none_device
  4

  6

 40
0.0
 41
0.0
 42
0.0
 43
0.0
 44
0.0
 45
0.0
 46
0.0
 47
0.0
 48
0.0
 49
0.0
140
0.0
141
0.0
142
1.0
143
1.0
 70
   688
 72
     0
 73
     0
 74
     5
  7

 75
    16
 76
     0
 77
     2
 78
   300
147
1.0
148
0.0
149
0.0
100
AcDbLayout
  1
Layout1
 70
     1
 71
     1
 10
0.0
 20
0.0
 11
12.0
 21
9.0
 12
0.0
 22
0.0
 32
0.0
 14
1.000000000000000E+20
 24
1.000000000000000E+20
 34
1.000000000000000E+20
 15
-1.000000000000000E+20
 25
-1.000000000000000E+20
 35
-1.000000000000000E+20
146
0.0
 13
0.0
 23
0.0
 33
0.0
 16
1.0
 26
0.0
 36
0.0
 17
0.0
 27
1.0
 37
0.0
 76
     0
330
1B
  0
LAYOUT
  5
26
102
{ACAD_REACTORS
330
1A
102
}
330
1A
100
AcDbPlotSettings
  1

  2
none_device
  4

  6

 40
0.0
 41
0.0
 42
0.0
 43
0.0
 44
0.0
 45
0.0
 46
0.0
 47
0.0
 48
0.0
 49
0.0
140
0.0
141
0.0
142
1.0
143
1.0
 70
   688
 72
     0
 73
     0
 74
     5
  7

 75
    16
 76
     0
 77
     2
 78
   300
147
1.0
148
0.0
149
0.0
100
AcDbLayout
  1
Layout2
 70
     1
 71
     2
 10
0.0
 20
0.0
 11
0.0
 21
0.0
 12
0.0
 22
0.0
 32
0.0
 14
0.0
 24
0.0
 34
0.0
 15
0.0
 25
0.0
 35
0.0
146
0.0
 13
0.0
 23
0.0
 33
0.0
 16
1.0
 26
0.0
 36
0.0
 17
0.0
 27
1.0
 37
0.0
 76
     0
330
23
  0
LAYOUT
  5
22
102
{ACAD_REACTORS
330
1A
102
}
330
1A
100
AcDbPlotSettings
  1

  2
none_device
  4

  6

 40
0.0
 41
0.0
 42
0.0
 43
0.0
 44
0.0
 45
0.0
 46
0.0
 47
0.0
 48
0.0
 49
0.0
140
0.0
141
0.0
142
1.0
143
1.0
 70
  1712
 72
     0
 73
     0
 74
     0
  7

 75
     0
 76
     0
 77
     2
 78
   300
147
1.0
148
0.0
149
0.0
100
AcDbLayout
  1
Model
 70
     1
 71
     0
 10
0.0
 20
0.0
 11
12.0
 21
9.0
 12
0.0
 22
0.0
 32
0.0
 14
1.000000000000000E+20
 24
1.000000000000000E+20
 34
1.000000000000000E+20
 15
-1.000000000000000E+20
 25
-1.000000000000000E+20
 35
-1.000000000000000E+20
146
0.0
 13
0.0
 23
0.0
 33
0.0
 16
1.0
 26
0.0
 36
0.0
 17
0.0
 27
1.0
 37
0.0
 76
     0
330
1F
331
29
  0
MATERIAL
  5
3D
102
{ACAD_REACTORS
330
3B
102
}
330
3B
100
AcDbMaterial
  1
ByBlock
 72
     1
 94
      127
  0
MATERIAL
  5
3C
102
{ACAD_REACTORS
330
3B
102
}
330
3B
100
AcDbMaterial
  1
ByLayer
 72
     1
 94
      127
  0
MATERIAL
  5
3E
102
{ACAD_REACTORS
330
3B
102
}
330
3B
100
AcDbMaterial
  1
Global
 72
     1
 94
      127
  0
MLINESTYLE
  5
18
102
{ACAD_REACTORS
330
17
102
}
330
17
100
AcDbMlineStyle
  2
Standard
 70
     0
  3

 62
   256
 51
90.0
 52
90.0
 71
     2
 49
0.5
 62
   256
  6
BYLAYER
 49
-0.5
 62
   256
  6
BYLAYER
  0
ACDBPLACEHOLDER
  5
F
102
{ACAD_REACTORS
330
E
102
}
330
E
  0
VISUALSTYLE
  5
2F
102
{ACAD_REACTORS
330
2A
102
}
330
2A
100
AcDbVisualStyle
  2
2dWireframe
 70
     4
177
     2
291
     0
 71
     0
176
     1
 72
     2
176
     1
 73
     0
176
     1
 90
        0
176
     1
 40
-0.6
176
     1
 41
-30.0
176
     1
 62
     5
 63
     7
421
 16777215
176
     1
 74
     1
176
     1
 91
        4
176
     1
 64
     7
176
     1
 65
   257
176
     1
 75
     1
176
     1
175
     1
176
     1
 42
1.0
176
     1
 92
        0
176
     1
 66
   257
176
     1
 43
1.0
176
     1
 76
     1
176
     1
 77
     6
176
     1
 78
     2
176
     1
 67
     7
176
     1
 79
     5
176
     1
170
     0
176
     1
171
     0
176
     1
290
     0
176
     1
 93
        1
176
     1
 44
0.0
176
     1
173
     0
176
     1
  0
VISUALSTYLE
  5
31
102
{ACAD_REACTORS
330
2A
102
}
330
2A
100
AcDbVisualStyle
  2
3D Hidden
 70
     6
177
     2
291
     0
 71
     1
176
     1
 72
     2
176
     1
 73
     2
176
     1
 90
        0
176
     1
 40
-0.6
176
     1
 41
-30.0
176
     1
 62
     5
 63
     7
421
 16777215
176
     1
 74
     2
176
     1
 91
        2
176
     1
 64
     7
176
     1
 65
   257
176
     1
 75
     2
176
     1
175
     1
176
     1
 42
40.0
176
     1
 92
        0
176
     1
 66
   257
176
     1
 43
1.0
176
     1
 76
     1
176
     1
 77
     6
176
     1
 78
     2
176
     1
 67
     7
176
     1
 79
     3
176
     1
170
     0
176
     1
171
     0
176
     1
290
     0
176
     1
 93
        1
176
     1
 44
0.0
176
     1
173
     0
176
     1
  0
VISUALSTYLE
  5
30
102
{ACAD_REACTORS
330
2A
102
}
330
2A
100
AcDbVisualStyle
  2
3dWireframe
 70
     5
177
     2
291
     0
 71
     0
176
     1
 72
     2
176
     1
 73
     0
176
     1
 90
        0
176
     1
 40
-0.6
176
     1
 41
-30.0
176
     1
 62
     5
 63
     7
421
 16777215
176
     1
 74
     1
176
     1
 91
        4
176
     1
 64
     7
176
     1
 65
   257
176
     1
 75
     1
176
     1
175
     1
176
     1
 42
1.0
176
     1
 92
        0
176
     1
 66
   257
176
     1
 43
1.0
176
     1
 76
     1
176
     1
 77
     6
176
     1
 78
     2
176
     1
 67
     7
176
     1
 79
     5
176
     1
170
     0
176
     1
171
     0
176
     1
290
     0
176
     1
 93
        1
176
     1
 44
0.0
176
     1
173
     0
176
     1
  0
VISUALSTYLE
  5
32
102
{ACAD_REACTORS
330
2A
102
}
330
2A
100
AcDbVisualStyle
  2
Basic
 70
     7
177
     2
291
     1
 71
     1
176
     1
 72
     0
176
     1
 73
     1
176
     1
 90
        0
176
     1
 40
-0.6
176
     1
 41
-30.0
176
     1
 62
     5
 63
     7
421
 16777215
176
     1
 74
     0
176
     1
 91
        4
176
     1
 64
     7
176
     1
 65
   257
176
     1
 75
     1
176
     1
175
     1
176
     1
 42
1.0
176
     1
 92
        8
176
     1
 66
     7
176
     1
 43
1.0
176
     1
 76
     1
176
     1
 77
     6
176
     1
 78
     2
176
     1
 67
     7
176
     1
 79
     5
176
     1
170
     0
176
     1
171
     0
176
     1
290
     0
176
     1
 93
        1
176
     1
 44
0.0
176
     1
173
     0
176
     1
  0
VISUALSTYLE
  5
36
102
{ACAD_REACTORS
330
2A
102
}
330
2A
100
AcDbVisualStyle
  2
Brighten
 70
    12
177
     2
291
     1
 71
     2
176
     1
 72
     2
176
     1
 73
     0
176
     1
 90
        0
176
     1
 40
-0.6
176
     1
 41
-30.0
176
     1
 62
     5
 63
     7
421
 16777215
176
     1
 74
     1
176
     1
 91
        4
176
     1
 64
     7
176
     1
 65
   257
176
     1
 75
     1
176
     1
175
     1
176
     1
 42
1.0
176
     1
 92
        8
176
     1
 66
     7
176
     1
 43
1.0
176
     1
 76
     1
176
     1
 77
     6
176
     1
 78
     2
176
     1
 67
     7
176
     1
 79
     5
176
     1
170
     0
176
     1
171
     0
176
     1
290
     0
176
     1
 93
        1
176
     1
 44
50.0
176
     1
173
     0
176
     1
  0
VISUALSTYLE
  5
3A
102
{ACAD_REACTORS
330
2A
102
}
330
2A
100
AcDbVisualStyle
  2
ColorChange
 70
    16
177
     2
291
     1
 71
     2
176
     1
 72
     2
176
     1
 73
     3
176
     1
 90
        0
176
     1
 40
-0.6
176
     1
 41
-30.0
176
     1
 62
     5
 63
     8
421
  8421504
176
     1
 74
     1
176
     1
 91
        4
176
     1
 64
     7
176
     1
 65
   257
176
     1
 75
     1
176
     1
175
     1
176
     1
 42
1.0
176
     1
 92
        8
176
     1
 66
     8
424
  8421504
176
     1
 43
1.0
176
     1
 76
     1
176
     1
 77
     6
176
     1
 78
     2
176
     1
 67
     7
176
     1
 79
     5
176
     1
170
     0
176
     1
171
     0
176
     1
290
     0
176
     1
 93
        1
176
     1
 44
0.0
176
     1
173
     0
176
     1
  0
VISUALSTYLE
  5
34
102
{ACAD_REACTORS
330
2A
102
}
330
2A
100
AcDbVisualStyle
  2
Conceptual
 70
     9
177
     2
291
     0
 71
     3
176
     1
 72
     2
176
     1
 73
     0
176
     1
 90
        0
176
     1
 40
-0.6
176
     1
 41
-30.0
176
     1
 62
     5
 63
     7
421
 16777215
176
     1
 74
     2
176
     1
 91
        2
176
     1
 64
     7
176
     1
 65
   257
176
     1
 75
     1
176
     1
175
     1
176
     1
 42
40.0
176
     1
 92
        8
176
     1
 66
     7
176
     1
 43
1.0
176
     1
 76
     1
176
     1
 77
     6
176
     1
 78
     2
176
     1
 67
     7
176
     1
 79
     3
176
     1
170
     0
176
     1
171
     0
176
     1
290
     0
176
     1
 93
        1
176
     1
 44
0.0
176
     1
173
     0
176
     1
  0
VISUALSTYLE
  5
35
102
{ACAD_REACTORS
330
2A
102
}
330
2A
100
AcDbVisualStyle
  2
Dim
 70
    11
177
     2
291
     1
 71
     2
176
     1
 72
     2
176
     1
 73
     0
176
     1
 90
        0
176
     1
 40
-0.6
176
     1
 41
-30.0
176
     1
 62
     5
 63
     7
421
 16777215
176
     1
 74
     1
176
     1
 91
        4
176
     1
 64
     7
176
     1
 65
   257
176
     1
 75
     1
176
     1
175
     1
176
     1
 42
1.0
176
     1
 92
        8
176
     1
 66
     7
176
     1
 43
1.0
176
     1
 76
     1
176
     1
 77
     6
176
     1
 78
     2
176
     1
 67
     7
176
     1
 79
     5
176
     1
170
     0
176
     1
171
     0
176
     1
290
     0
176
     1
 93
        1
176
     1
 44
-50.0
176
     1
173
     0
176
     1
  0
VISUALSTYLE
  5
39
102
{ACAD_REACTORS
330
2A
102
}
330
2A
100
AcDbVisualStyle
  2
Facepattern
 70
    15
177
     2
291
     1
 71
     2
176
     1
 72
     2
176
     1
 73
     0
176
     1
 90
        0
176
     1
 40
-0.6
176
     1
 41
-30.0
176
     1
 62
     5
 63
     7
421
 16777215
176
     1
 74
     1
176
     1
 91
        4
176
     1
 64
     7
176
     1
 65
   257
176
     1
 75
     1
176
     1
175
     1
176
     1
 42
1.0
176
     1
 92
        8
176
     1
 66
     7
176
     1
 43
1.0
176
     1
 76
     1
176
     1
 77
     6
176
     1
 78
     2
176
     1
 67
     7
176
     1
 79
     5
176
     1
170
     0
176
     1
171
     0
176
     1
290
     0
176
     1
 93
        1
176
     1
 44
0.0
176
     1
173
     0
176
     1
  0
VISUALSTYLE
  5
2B
102
{ACAD_REACTORS
330
2A
102
}
330
2A
100
AcDbVisualStyle
  2
Flat
 70
     0
177
     2
291
     1
 71
     2
176
     1
 72
     1
176
     1
 73
     1
176
     1
 90
        2
176
     1
 40
-0.6
176
     1
 41
30.0
176
     1
 62
     5
 63
     7
421
 16777215
176
     1
 74
     0
176
     1
 91
        4
176
     1
 64
     7
176
     1
 65
   257
176
     1
 75
     1
176
     1
175
     1
176
     1
 42
1.0
176
     1
 92
        8
176
     1
 66
     7
176
     1
 43
1.0
176
     1
 76
     1
176
     1
 77
     6
176
     1
 78
     2
176
     1
 67
     7
176
     1
 79
     5
176
     1
170
     0
176
     1
171
     0
176
     1
290
     0
176
     1
 93
       13
176
     1
 44
0.0
176
     1
173
     0
176
     1
  0
VISUALSTYLE
  5
2C
102
{ACAD_REACTORS
330
2A
102
}
330
2A
100
AcDbVisualStyle
  2
FlatWithEdges
 70
     1
177
     2
291
     1
 71
     2
176
     1
 72
     1
176
     1
 73
     1
176
     1
 90
        2
176
     1
 40
-0.6
176
     1
 41
30.0
176
     1
 62
     5
 63
     7
421
 16777215
176
     1
 74
     1
176
     1
 91
        4
176
     1
 64
     7
176
     1
 65
   257
176
     1
 75
     1
176
     1
175
     1
176
     1
 42
1.0
176
     1
 92
        0
176
     1
 66
   257
176
     1
 43
1.0
176
     1
 76
     1
176
     1
 77
     6
176
     1
 78
     2
176
     1
 67
     7
176
     1
 79
     5
176
     1
170
     0
176
     1
171
     0
176
     1
290
     0
176
     1
 93
       13
176
     1
 44
0.0
176
     1
173
     0
176
     1
  0
VISUALSTYLE
  5
2D
102
{ACAD_REACTORS
330
2A
102
}
330
2A
100
AcDbVisualStyle
  2
Gouraud
 70
     2
177
     2
291
     1
 71
     2
176
     1
 72
     2
176
     1
 73
     1
176
     1
 90
        2
176
     1
 40
-0.6
176
     1
 41
30.0
176
     1
 62
     5
 63
     7
421
 16777215
176
     1
 74
     0
176
     1
 91
        4
176
     1
 64
     7
176
     1
 65
   257
176
     1
 75
     1
176
     1
175
     1
176
     1
 42
1.0
176
     1
 92
        0
176
     1
 66
     7
176
     1
 43
1.0
176
     1
 76
     1
176
     1
 77
     6
176
     1
 78
     2
176
     1
 67
     7
176
     1
 79
     5
176
     1
170
     0
176
     1
171
     0
176
     1
290
     0
176
     1
 93
       13
176
     1
 44
0.0
176
     1
173
     0
176
     1
  0
VISUALSTYLE
  5
2E
102
{ACAD_REACTORS
330
2A
102
}
330
2A
100
AcDbVisualStyle
  2
GouraudWithEdges
 70
     3
177
     2
291
     1
 71
     2
176
     1
 72
     2
176
     1
 73
     1
176
     1
 90
        2
176
     1
 40
-0.6
176
     1
 41
30.0
176
     1
 62
     5
 63
     7
421
 16777215
176
     1
 74
     1
176
     1
 91
        4
176
     1
 64
     7
176
     1
 65
   257
176
     1
 75
     1
176
     1
175
     1
176
     1
 42
1.0
176
     1
 92
        0
176
     1
 66
   257
176
     1
 43
1.0
176
     1
 76
     1
176
     1
 77
     6
176
     1
 78
     2
176
     1
 67
     7
176
     1
 79
     5
176
     1
170
     0
176
     1
171
     0
176
     1
290
     0
176
     1
 93
       13
176
     1
 44
0.0
176
     1
173
     0
176
     1
  0
VISUALSTYLE
  5
38
102
{ACAD_REACTORS
330
2A
102
}
330
2A
100
AcDbVisualStyle
  2
Linepattern
 70
    14
177
     2
291
     1
 71
     2
176
     1
 72
     2
176
     1
 73
     0
176
     1
 90
        0
176
     1
 40
-0.6
176
     1
 41
-30.0
176
     1
 62
     5
 63
     7
421
 16777215
176
     1
 74
     1
176
     1
 91
        4
176
     1
 64
     7
176
     1
 65
   257
176
     1
 75
     7
176
     1
175
     7
176
     1
 42
1.0
176
     1
 92
        8
176
     1
 66
     7
176
     1
 43
1.0
176
     1
 76
     1
176
     1
 77
     6
176
     1
 78
     2
176
     1
 67
     7
176
     1
 79
     5
176
     1
170
     0
176
     1
171
     0
176
     1
290
     0
176
     1
 93
        1
176
     1
 44
0.0
176
     1
173
     0
176
     1
  0
VISUALSTYLE
  5
33
102
{ACAD_REACTORS
330
2A
102
}
330
2A
100
AcDbVisualStyle
  2
Realistic
 70
     8
177
     2
291
     0
 71
     2
176
     1
 72
     2
176
     1
 73
     0
176
     1
 90
        0
176
     1
 40
-0.6
176
     1
 41
-30.0
176
     1
 62
     5
 63
     7
421
 16777215
176
     1
 74
     1
176
     1
 91
        0
176
     1
 64
     7
176
     1
 65
   257
176
     1
 75
     1
176
     1
175
     1
176
     1
 42
1.0
176
     1
 92
        8
176
     1
 66
     8
424
  7895160
176
     1
 43
1.0
176
     1
 76
     1
176
     1
 77
     6
176
     1
 78
     2
176
     1
 67
     7
176
     1
 79
     5
176
     1
170
     0
176
     1
171
     0
176
     1
290
     0
176
     1
 93
       13
176
     1
 44
0.0
176
     1
173
     0
176
     1
  0
VISUALSTYLE
  5
37
102
{ACAD_REACTORS
330
2A
102
}
330
2A
100
AcDbVisualStyle
  2
Thicken
 70
    13
177
     2
291
     1
 71
     2
176
     1
 72
     2
176
     1
 73
     0
176
     1
 90
        0
176
     1
 40
-0.6
176
     1
 41
-30.0
176
     1
 62
     5
 63
     7
421
 16777215
176
     1
 74
     1
176
     1
 91
        4
176
     1
 64
     7
176
     1
 65
   257
176
     1
 75
     1
176
     1
175
     1
176
     1
 42
1.0
176
     1
 92
       12
176
     1
 66
     7
176
     1
 43
1.0
176
     1
 76
     1
176
     1
 77
     6
176
     1
 78
     2
176
     1
 67
     7
176
     1
 79
     5
176
     1
170
     0
176
     1
171
     0
176
     1
290
     0
176
     1
 93
        1
176
     1
 44
0.0
176
     1
173
     0
176
     1
  0
ENDSEC
  0
EOF
