  0
SECTION
  2
HEADER
  9
$ACADVER
  1
AC1024
  9
$ACADMAINTVER
 70
     6
  9
$DWGCODEPAGE
  3
UNDEFINED
  9
$INSBASE
 10
0.0
 20
0.0
 30
0.0
  9
$EXTMIN
 10
1.000000000000000E+20
 20
1.000000000000000E+20
 30
1.000000000000000E+20
  9
$EXTMAX
 10
-1.000000000000000E+20
 20
-1.000000000000000E+20
 30
-1.000000000000000E+20
  9
$LIMMIN
 10
0.0
 20
0.0
  9
$LIMMAX
 10
12.0
 20
9.0
  9
$ORTHOMODE
 70
     0
  9
$REGENMODE
 70
     1
  9
$FILLMODE
 70
     1
  9
$QTEXTMODE
 70
     0
  9
$MIRRTEXT
 70
     1
  9
$LTSCALE
 40
1.0
  9
$ATTMODE
 70
     1
  9
$TEXTSIZE
 40
0.2
  9
$TRACEWID
 40
0.05
  9
$TEXTSTYLE
  7
Standard
  9
$CLAYER
  8
0
  9
$CELTYPE
  6
ByLayer
  9
$CECOLOR
 62
   256
  9
$CELTSCALE
 40
1.0
  9
$DISPSILH
 70
     0
  9
$DIMSCALE
 40
1.0
  9
$DIMASZ
 40
0.18
  9
$DIMEXO
 40
0.0625
  9
$DIMDLI
 40
0.38
  9
$DIMRND
 40
0.0
  9
$DIMDLE
 40
0.0
  9
$DIMEXE
 40
0.18
  9
$DIMTP
 40
0.0
  9
$DIMTM
 40
0.0
  9
$DIMTXT
 40
0.18
  9
$DIMCEN
 40
0.09
  9
$DIMTSZ
 40
0.0
  9
$DIMTOL
 70
     0
  9
$DIMLIM
 70
     0
  9
$DIMTIH
 70
     1
  9
$DIMTOH
 70
     1
  9
$DIMSE1
 70
     0
  9
$DIMSE2
 70
     0
  9
$DIMTAD
 70
     0
  9
$DIMZIN
 70
     0
  9
$DIMBLK
  1

  9
$DIMASO
 70
     1
  9
$DIMSHO
 70
     1
  9
$DIMPOST
  1

  9
$DIMAPOST
  1

  9
$DIMALT
 70
     0
  9
$DIMALTD
 70
     2
  9
$DIMALTF
 40
25.4
  9
$DIMLFAC
 40
1.0
  9
$DIMTOFL
 70
     0
  9
$DIMTVP
 40
0.0
  9
$DIMTIX
 70
     0
  9
$DIMSOXD
 70
     0
  9
$DIMSAH
 70
     0
  9
$DIMBLK1
  1

  9
$DIMBLK2
  1

  9
$DIMSTYLE
  2
Standard
  9
$DIMCLRD
 70
     0
  9
$DIMCLRE
 70
     0
  9
$DIMCLRT
 70
     0
  9
$DIMTFAC
 40
1.0
  9
$DIMGAP
 40
0.09
  9
$DIMJUST
 70
     0
  9
$DIMSD1
 70
     0
  9
$DIMSD2
 70
     0
  9
$DIMTOLJ
 70
     1
  9
$DIMTZIN
 70
     0
  9
$DIMALTZ
 70
     0
  9
$DIMALTTZ
 70
     0
  9
$DIMUPT
 70
     0
  9
$DIMDEC
 70
     4
  9
$DIMTDEC
 70
     4
  9
$DIMALTU
 70
     2
  9
$DIMALTTD
 70
     2
  9
$DIMTXSTY
  7
Standard
  9
$DIMAUNIT
 70
     0
  9
$DIMADEC
 70
     0
  9
$DIMALTRND
 40
0.0
  9
$DIMAZIN
 70
     0
  9
$DIMDSEP
 70
    46
  9
$DIMATFIT
 70
     3
  9
$DIMFRAC
 70
     0
  9
$DIMLDRBLK
  1

  9
$DIMLUNIT
 70
     2
  9
$DIMLWD
 70
    -2
  9
$DIMLWE
 70
    -2
  9
$DIMTMOVE
 70
     0
  9
$DIMFXL
 40
1.0
  9
$DIMFXLON
 70
     0
  9
$DIMJOGANG
 40
0.7853981633974483
  9
$DIMTFILL
 70
     0
  9
$DIMTFILLCLR
 70
     0
  9
$DIMARCSYM
 70
     0
  9
$DIMLTYPE
  6

  9
$DIMLTEX1
  6

  9
$DIMLTEX2
  6

  9
$DIMTXTDIRECTION
 70
     0
  9
$LUNITS
 70
     2
  9
$LUPREC
 70
     4
  9
$SKETCHINC
 40
0.1
  9
$FILLETRAD
 40
0.5
  9
$AUNITS
 70
     0
  9
$AUPREC
 70
     0
  9
$MENU
  1
.
  9
$ELEVATION
 40
0.0
  9
$PELEVATION
 40
0.0
  9
$THICKNESS
 40
0.0
  9
$LIMCHECK
 70
     0
  9
$CHAMFERA
 40
0.5
  9
$CHAMFERB
 40
0.5
  9
$CHAMFERC
 40
1.0
  9
$CHAMFERD
 40
0.0
  9
$SKPOLY
 70
     0
  9
$TDCREATE
 40
2457917.594965266
  9
$TDUCREATE
 40
2457917.219965278
  9
$TDUPDATE
 40
2457917.594965266
  9
$TDUUPDATE
 40
2457917.219965278
  9
$TDINDWG
 40
0.0000000116
  9
$TDUSRTIMER
 40
0.0000000116
  9
$USRTIMER
 70
     1
  9
$ANGBASE
 50
0.0
  9
$ANGDIR
 70
     0
  9
$PDMODE
 70
     0
  9
$PDSIZE
 40
0.0
  9
$PLINEWID
 40
0.0
  9
$SPLFRAME
 70
     0
  9
$SPLINETYPE
 70
     6
  9
$SPLINESEGS
 70
     8
  9
$HANDSEED
  5
15B
  9
$SURFTAB1
 70
     6
  9
$SURFTAB2
 70
     6
  9
$SURFTYPE
 70
     6
  9
$SURFU
 70
     6
  9
$SURFV
 70
     6
  9
$UCSBASE
  2

  9
$UCSNAME
  2

  9
$UCSORG
 10
0.0
 20
0.0
 30
0.0
  9
$UCSXDIR
 10
1.0
 20
0.0
 30
0.0
  9
$UCSYDIR
 10
0.0
 20
1.0
 30
0.0
  9
$UCSORTHOREF
  2

  9
$UCSORTHOVIEW
 70
     0
  9
$UCSORGTOP
 10
0.0
 20
0.0
 30
0.0
  9
$UCSORGBOTTOM
 10
0.0
 20
0.0
 30
0.0
  9
$UCSORGLEFT
 10
0.0
 20
0.0
 30
0.0
  9
$UCSORGRIGHT
 10
0.0
 20
0.0
 30
0.0
  9
$UCSORGFRONT
 10
0.0
 20
0.0
 30
0.0
  9
$UCSORGBACK
 10
0.0
 20
0.0
 30
0.0
  9
$PUCSBASE
  2

  9
$PUCSNAME
  2

  9
$PUCSORG
 10
0.0
 20
0.0
 30
0.0
  9
$PUCSXDIR
 10
1.0
 20
0.0
 30
0.0
  9
$PUCSYDIR
 10
0.0
 20
1.0
 30
0.0
  9
$PUCSORTHOREF
  2

  9
$PUCSORTHOVIEW
 70
     0
  9
$PUCSORGTOP
 10
0.0
 20
0.0
 30
0.0
  9
$PUCSORGBOTTOM
 10
0.0
 20
0.0
 30
0.0
  9
$PUCSORGLEFT
 10
0.0
 20
0.0
 30
0.0
  9
$PUCSORGRIGHT
 10
0.0
 20
0.0
 30
0.0
  9
$PUCSORGFRONT
 10
0.0
 20
0.0
 30
0.0
  9
$PUCSORGBACK
 10
0.0
 20
0.0
 30
0.0
  9
$USERI1
 70
     0
  9
$USERI2
 70
     0
  9
$USERI3
 70
     0
  9
$USERI4
 70
     0
  9
$USERI5
 70
     0
  9
$USERR1
 40
0.0
  9
$USERR2
 40
0.0
  9
$USERR3
 40
0.0
  9
$USERR4
 40
0.0
  9
$USERR5
 40
0.0
  9
$WORLDVIEW
 70
     1
  9
$SHADEDGE
 70
     3
  9
$SHADEDIF
 70
    70
  9
$TILEMODE
 70
     1
  9
$MAXACTVP
 70
    64
  9
$PINSBASE
 10
0.0
 20
0.0
 30
0.0
  9
$PLIMCHECK
 70
     0
  9
$PEXTMIN
 10
1.000000000000000E+20
 20
1.000000000000000E+20
 30
1.000000000000000E+20
  9
$PEXTMAX
 10
-1.000000000000000E+20
 20
-1.000000000000000E+20
 30
-1.000000000000000E+20
  9
$PLIMMIN
 10
0.0
 20
0.0
  9
$PLIMMAX
 10
12.0
 20
9.0
  9
$UNITMODE
 70
     0
  9
$VISRETAIN
 70
     1
  9
$PLINEGEN
 70
     0
  9
$PSLTSCALE
 70
     1
  9
$TREEDEPTH
 70
  3020
  9
$CMLSTYLE
  2
Standard
  9
$CMLJUST
 70
     0
  9
$CMLSCALE
 40
1.0
  9
$PROXYGRAPHICS
 70
     1
  9
$MEASUREMENT
 70
     0
  9
$CELWEIGHT
370
    -1
  9
$ENDCAPS
280
     0
  9
$JOINSTYLE
280
     0
  9
$LWDISPLAY
290
     1
  9
$INSUNITS
 70
     1
  9
$HYPERLINKBASE
  1

  9
$STYLESHEET
  1

  9
$XEDIT
290
     1
  9
$CEPSNTYPE
380
     0
  9
$PSTYLEMODE
290
     1
  9
$FINGERPRINTGUID
  2
{0BB66F0D-8BFB-AB97-0CA7-EF8F6EE637A9}
  9
$VERSIONGUID
  2
{FAEB1C32-E019-11D5-929B-00C0DF256EC4}
  9
$EXTNAMES
290
     1
  9
$PSVPSCALE
 40
0.0
  9
$OLESTARTUP
290
     0
  9
$SORTENTS
280
   127
  9
$INDEXCTL
280
     0
  9
$HIDETEXT
280
     1
  9
$XCLIPFRAME
280
     2
  9
$HALOGAP
280
     0
  9
$OBSCOLOR
 70
   257
  9
$OBSLTYPE
280
     0
  9
$INTERSECTIONDISPLAY
280
     0
  9
$INTERSECTIONCOLOR
 70
   257
  9
$DIMASSOC
280
     2
  9
$PROJECTNAME
  1

  9
$CAMERADISPLAY
290
     0
  9
$LENSLENGTH
 40
50.0
  9
$CAMERAHEIGHT
 40
0.0
  9
$STEPSPERSEC
 40
2.0
  9
$STEPSIZE
 40
6.0
  9
$3DDWFPREC
 40
2.0
  9
$PSOLWIDTH
 40
0.25
  9
$PSOLHEIGHT
 40
4.0
  9
$LOFTANG1
 40
1.570796326794897
  9
$LOFTANG2
 40
1.570796326794897
  9
$LOFTMAG1
 40
0.0
  9
$LOFTMAG2
 40
0.0
  9
$LOFTPARAM
 70
     7
  9
$LOFTNORMALS
280
     1
  9
$LATITUDE
 40
37.795
  9
$LONGITUDE
 40
-122.394
  9
$NORTHDIRECTION
 40
0.0
  9
$TIMEZONE
 70
 -8000
  9
$LIGHTGLYPHDISPLAY
280
     1
  9
$TILEMODELIGHTSYNCH
280
     1
  9
$CMATERIAL
347
3C
  9
$SOLIDHIST
280
     1
  9
$SHOWHIST
280
     1
  9
$DWFFRAME
280
     2
  9
$DGNFRAME
280
     2
  9
$REALWORLDSCALE
290
     1
  9
$INTERFERECOLOR
 62
   256
  9
$CSHADOW
280
     0
  9
$SHADOWPLANELOCATION
 40
0.0
  0
ENDSEC
  0
SECTION
  2
CLASSES
  0
CLASS
  1
ACDBDICTIONARYWDFLT
  2
AcDbDictionaryWithDefault
  3
ObjectDBX Classes
 90
        0
 91
        4
280
     0
281
     0
  0
CLASS
  1
VISUALSTYLE
  2
AcDbVisualStyle
  3
ObjectDBX Classes
 90
     4095
 91
        4
280
     0
281
     0
  0
CLASS
  1
MATERIAL
  2
AcDbMaterial
  3
ObjectDBX Classes
 90
     1153
 91
        4
280
     0
281
     0
  0
CLASS
  1
SUN
  2
AcDbSun
  3
SCENEOE
 90
     1024
 91
        4
280
     0
281
     0
  0
ENDSEC
  0
SECTION
  2
TABLES
  0
TABLE
  2
VPORT
  5
8
330
0
100
AcDbSymbolTable
 70
     1
  0
VPORT
  5
29
330
8
100
AcDbSymbolTableRecord
100
AcDbViewportTableRecord
  2
*Active
 70
     0
 10
0.0
 20
0.0
 11
1.0
 21
1.0
 12
0.0
 22
0.0
 13
0.0
 23
0.0
 14
0.5
 24
0.5
 15
0.5
 25
0.5
 16
0.0
 26
0.0
 36
1.0
 17
91.00082462281999
 27
-128.4993055234307
 37
0.0
 40
256.9986110468615
 41
0.7081814508812795
 42
50.0
 43
0.0
 44
0.0
 50
0.0
 51
0.0
 71
     0
 72
   100
 73
     1
 74
     3
 75
     0
 76
     0
 77
     0
 78
     0
281
     0
 65
     1
110
0.0
120
0.0
130
0.0
111
1.0
121
0.0
131
0.0
112
0.0
122
1.0
132
0.0
 79
     0
146
0.0
 60
     3
 61
     5
292
     1
282
     1
141
0.0
142
0.0
 63
   250
361
3F
  0
ENDTAB
  0
TABLE
  2
LTYPE
  5
5
330
0
100
AcDbSymbolTable
 70
     1
  0
LTYPE
  5
14
330
5
100
AcDbSymbolTableRecord
100
AcDbLinetypeTableRecord
  2
ByBlock
 70
     0
  3

 72
    65
 73
     0
 40
0.0
  0
LTYPE
  5
15
330
5
100
AcDbSymbolTableRecord
100
AcDbLinetypeTableRecord
  2
ByLayer
 70
     0
  3

 72
    65
 73
     0
 40
0.0
  0
LTYPE
  5
16
330
5
100
AcDbSymbolTableRecord
100
AcDbLinetypeTableRecord
  2
Continuous
 70
     0
  3
Solid line
 72
    65
 73
     0
 40
0.0
  0
ENDTAB
  0
TABLE
  2
LAYER
  5
2
330
0
100
AcDbSymbolTable
 70
     2
  0
LAYER
  5
10
330
2
100
AcDbSymbolTableRecord
100
AcDbLayerTableRecord
  2
0
 70
     0
 62
     7
  6
Continuous
370
    -3
390
F
347
3E
  0
LAYER
  5
40
330
2
100
AcDbSymbolTableRecord
100
AcDbLayerTableRecord
  2
_U+30EC_U+30A4_U+30E4_U+30FC 1
 70
     0
 62
     7
  6
Continuous
370
    -3
390
F
347
3E
  0
ENDTAB
  0
TABLE
  2
STYLE
  5
3
330
0
100
AcDbSymbolTable
 70
     1
  0
STYLE
  5
11
330
3
100
AcDbSymbolTableRecord
100
AcDbTextStyleTableRecord
  2
Standard
 70
     0
 40
0.0
 41
1.0
 50
0.0
 71
     0
 42
0.2
  3
txt
  4

  0
ENDTAB
  0
TABLE
  2
VIEW
  5
6
330
0
100
AcDbSymbolTable
 70
     0
  0
ENDTAB
  0
TABLE
  2
UCS
  5
7
330
0
100
AcDbSymbolTable
 70
     0
  0
ENDTAB
  0
TABLE
  2
APPID
  5
9
330
0
100
AcDbSymbolTable
 70
     1
  0
APPID
  5
12
330
9
100
AcDbSymbolTableRecord
100
AcDbRegAppTableRecord
  2
ACAD
 70
     0
  0
ENDTAB
  0
TABLE
  2
DIMSTYLE
  5
A
330
0
100
AcDbSymbolTable
 70
     1
100
AcDbDimStyleTable
  0
DIMSTYLE
105
27
330
A
100
AcDbSymbolTableRecord
100
AcDbDimStyleTableRecord
  2
Standard
 70
     0
178
     0
340
11
  0
ENDTAB
  0
TABLE
  2
BLOCK_RECORD
  5
1
330
0
100
AcDbSymbolTable
 70
     8
  0
BLOCK_RECORD
  5
1F
330
1
100
AcDbSymbolTableRecord
100
AcDbBlockTableRecord
  2
*Model_Space
340
22
 70
     0
280
     1
281
     0
  0
BLOCK_RECORD
  5
1B
330
1
100
AcDbSymbolTableRecord
100
AcDbBlockTableRecord
  2
*Paper_Space
340
1E
 70
     0
280
     1
281
     0
  0
BLOCK_RECORD
  5
23
330
1
100
AcDbSymbolTableRecord
100
AcDbBlockTableRecord
  2
*Paper_Space0
340
26
 70
     0
280
     1
281
     0
  0
BLOCK_RECORD
  5
9A
330
1
100
AcDbSymbolTableRecord
100
AcDbBlockTableRecord
  2
block 2
340
0
102
{BLKREFS
331
9B
102
}
 70
     0
280
     1
281
     0
  0
BLOCK_RECORD
  5
C5
330
1
100
AcDbSymbolTableRecord
100
AcDbBlockTableRecord
  2
block 3
340
0
102
{BLKREFS
331
C6
102
}
 70
     0
280
     1
281
     0
  0
BLOCK_RECORD
  5
DC
330
1
100
AcDbSymbolTableRecord
100
AcDbBlockTableRecord
  2
block 4
340
0
102
{BLKREFS
331
DD
102
}
 70
     0
280
     1
281
     0
  0
BLOCK_RECORD
  5
F1
330
1
100
AcDbSymbolTableRecord
100
AcDbBlockTableRecord
  2
block 5
340
0
102
{BLKREFS
331
F2
102
}
 70
     0
280
     1
281
     0
  0
BLOCK_RECORD
  5
112
330
1
100
AcDbSymbolTableRecord
100
AcDbBlockTableRecord
  2
block 6
340
0
102
{BLKREFS
331
113
102
}
 70
     0
280
     1
281
     0
  0
BLOCK_RECORD
  5
123
330
1
100
AcDbSymbolTableRecord
100
AcDbBlockTableRecord
  2
block 7
340
0
102
{BLKREFS
331
124
102
}
 70
     0
280
     1
281
     0
  0
BLOCK_RECORD
  5
144
330
1
100
AcDbSymbolTableRecord
100
AcDbBlockTableRecord
  2
block 8
340
0
102
{BLKREFS
331
145
102
}
 70
     0
280
     1
281
     0
  0
ENDTAB
  0
ENDSEC
  0
SECTION
  2
BLOCKS
  0
BLOCK
  5
20
330
1F
100
AcDbEntity
  8
0
100
AcDbBlockBegin
  2
*Model_Space
 70
     0
 10
0.0
 20
0.0
 30
0.0
  3
*Model_Space
  1

  0
ENDBLK
  5
21
330
1F
100
AcDbEntity
  8
0
100
AcDbBlockEnd
  0
BLOCK
  5
1C
330
1B
100
AcDbEntity
 67
     1
  8
0
100
AcDbBlockBegin
  2
*Paper_Space
 70
     0
 10
0.0
 20
0.0
 30
0.0
  3
*Paper_Space
  1

  0
ENDBLK
  5
1D
330
1B
100
AcDbEntity
 67
     1
  8
0
100
AcDbBlockEnd
  0
BLOCK
  5
24
330
23
100
AcDbEntity
  8
0
100
AcDbBlockBegin
  2
*Paper_Space0
 70
     0
 10
0.0
 20
0.0
 30
0.0
  3
*Paper_Space0
  1

  0
ENDBLK
  5
25
330
23
100
AcDbEntity
  8
0
100
AcDbBlockEnd
  0
BLOCK
  5
9C
330
9A
100
AcDbEntity
  8
0
100
AcDbBlockBegin
  2
block 2
 70
     0
 10
0.0
 20
0.0
 30
0.0
  3
block 2
  1

  0
SPLINE
  5
9E
330
9A
100
AcDbEntity
  8
_U+30EC_U+30A4_U+30E4_U+30FC 1
370
     0
100
AcDbSpline
210
0.0
220
0.0
230
1.0
 70
    11
 71
     3
 72
    44
 73
    40
 74
     0
 42
0.0000000001
 43
0.0000000001
 12
1.0
 22
0.0
 32
0.0
 13
1.0
 23
0.0
 33
0.0
 40
0.0
 40
0.0
 40
0.0
 40
0.0
 40
1.0
 40
1.0
 40
1.0
 40
2.0
 40
2.0
 40
2.0
 40
3.0
 40
3.0
 40
3.0
 40
4.0
 40
4.0
 40
4.0
 40
5.0
 40
5.0
 40
5.0
 40
6.0
 40
6.0
 40
6.0
 40
7.0
 40
7.0
 40
7.0
 40
8.0
 40
8.0
 40
8.0
 40
9.0
 40
9.0
 40
9.0
 40
10.0
 40
10.0
 40
10.0
 40
11.0
 40
11.0
 40
11.0
 40
12.0
 40
12.0
 40
12.0
 40
13.0
 40
13.0
 40
13.0
 40
13.0
 10
70.79085555955923
 20
-142.9308105111423
 30
0.0
 10
70.76742891025954
 20
-142.8863687793826
 30
0.0
 10
70.74641382779951
 20
-142.8333143089097
 30
0.0
 10
70.7441745157341
 20
-142.6028374209465
 30
0.0
 10
70.7400404011518
 20
-142.3596136796879
 30
0.0
 10
70.6807847588055
 20
-142.2896782413373
 30
0.0
 10
70.50301783176661
 20
-142.2896782413373
 30
0.0
 10
70.50301783176661
 20
-142.2896782413373
 30
0.0
 10
70.0947740167645
 20
-142.2896782413373
 30
0.0
 10
70.0947740167645
 20
-142.2896782413373
 30
0.0
 10
70.0947740167645
 20
-142.2896782413373
 30
0.0
 10
70.0947740167645
 20
-142.9308105111423
 30
0.0
 10
70.0947740167645
 20
-142.9308105111423
 30
0.0
 10
70.0947740167645
 20
-142.9308105111423
 30
0.0
 10
69.85999075944473
 20
-142.9308105111423
 30
0.0
 10
69.85999075944473
 20
-142.9308105111423
 30
0.0
 10
69.85999075944473
 20
-142.9308105111423
 30
0.0
 10
69.85999075944473
 20
-141.3863742051048
 30
0.0
 10
69.85999075944473
 20
-141.3863742051048
 30
0.0
 10
69.85999075944473
 20
-141.3863742051048
 30
0.0
 10
70.53488496500518
 20
-141.3863742051048
 30
0.0
 10
70.53488496500518
 20
-141.3863742051048
 30
0.0
 10
70.84149846319241
 20
-141.3863742051048
 30
0.0
 10
71.00875784900128
 20
-141.5575954507217
 30
0.0
 10
71.00875784900128
 20
-141.8135660452758
 30
0.0
 10
71.00875784900128
 20
-141.8645534584575
 30
0.0
 10
71.00014511028816
 20
-141.9468912405549
 30
0.0
 10
70.95570337852844
 20
-142.0275064749098
 30
0.0
 10
70.89661999095641
 20
-142.1308593394673
 30
0.0
 10
70.8309909219624
 20
-142.1501518741847
 30
0.0
 10
70.76966822232495
 20
-142.1670328420624
 30
0.0
 10
70.90712753218642
 20
-142.209407516531
 30
0.0
 10
70.97482365847158
 20
-142.257983362873
 30
0.0
 10
70.97913002782813
 20
-142.5732095997734
 30
0.0
 10
70.98326414241043
 20
-142.843994104914
 30
0.0
 10
71.0192653902313
 20
-142.8756889833783
 30
0.0
 10
71.08696151651645
 20
-142.9308105111423
 30
0.0
 10
71.08696151651645
 20
-142.9308105111423
 30
0.0
 10
70.79085555955923
 20
-142.9308105111423
 30
0.0
 10
70.79085555955923
 20
-142.9308105111423
 30
0.0
  0
SPLINE
  5
9F
330
9A
100
AcDbEntity
  8
_U+30EC_U+30A4_U+30E4_U+30FC 1
370
     0
100
AcDbSpline
210
0.0
220
0.0
230
1.0
 70
    11
 71
     3
 72
    20
 73
    16
 74
     0
 42
0.0000000001
 43
0.0000000001
 12
1.0
 22
0.0
 32
0.0
 13
1.0
 23
0.0
 33
0.0
 40
0.0
 40
0.0
 40
0.0
 40
0.0
 40
1.0
 40
1.0
 40
1.0
 40
2.0
 40
2.0
 40
2.0
 40
3.0
 40
3.0
 40
3.0
 40
4.0
 40
4.0
 40
4.0
 40
5.0
 40
5.0
 40
5.0
 40
5.0
 10
70.53901907958748
 20
-141.5979030678992
 30
0.0
 10
70.53901907958748
 20
-141.5979030678992
 30
0.0
 10
70.0947740167645
 20
-141.5979030678992
 30
0.0
 10
70.0947740167645
 20
-141.5979030678992
 30
0.0
 10
70.0947740167645
 20
-141.5979030678992
 30
0.0
 10
70.0947740167645
 20
-142.078149378543
 30
0.0
 10
70.0947740167645
 20
-142.078149378543
 30
0.0
 10
70.0947740167645
 20
-142.078149378543
 30
0.0
 10
70.53695202229632
 20
-142.078149378543
 30
0.0
 10
70.53695202229632
 20
-142.078149378543
 30
0.0
 10
70.63634302704578
 20
-142.078149378543
 30
0.0
 10
70.7717352796161
 20
-142.0020127683189
 30
0.0
 10
70.7717352796161
 20
-141.8304470131535
 30
0.0
 10
70.7717352796161
 20
-141.7522433456383
 30
0.0
 10
70.73797334386065
 20
-141.5979030678992
 30
0.0
 10
70.53901907958748
 20
-141.5979030678992
 30
0.0
  0
HATCH
  5
A0
330
9A
100
AcDbEntity
  8
_U+30EC_U+30A4_U+30E4_U+30FC 1
 62
   179
420
  2234388
100
AcDbHatch
 10
0.0
 20
0.0
 30
0.0
210
0.0
220
0.0
230
1.0
  2
SOLID
 70
     1
 71
     0
 91
        2
 92
        1
 93
        1
 72
     4
 94
        3
 73
     0
 74
     1
 95
       44
 96
       40
 40
0.0
 40
0.0
 40
0.0
 40
0.0
 40
1.0
 40
1.0
 40
1.0
 40
2.0
 40
2.0
 40
2.0
 40
3.0
 40
3.0
 40
3.0
 40
4.0
 40
4.0
 40
4.0
 40
5.0
 40
5.0
 40
5.0
 40
6.0
 40
6.0
 40
6.0
 40
7.0
 40
7.0
 40
7.0
 40
8.0
 40
8.0
 40
8.0
 40
9.0
 40
9.0
 40
9.0
 40
10.0
 40
10.0
 40
10.0
 40
11.0
 40
11.0
 40
11.0
 40
12.0
 40
12.0
 40
12.0
 40
13.0
 40
13.0
 40
13.0
 40
13.0
 10
70.79085555955923
 20
-142.9308105111423
 10
70.76742891025954
 20
-142.8863687793826
 10
70.74641382779951
 20
-142.8333143089097
 10
70.7441745157341
 20
-142.6028374209465
 10
70.7400404011518
 20
-142.3596136796879
 10
70.6807847588055
 20
-142.2896782413373
 10
70.50301783176661
 20
-142.2896782413373
 10
70.50301783176661
 20
-142.2896782413373
 10
70.0947740167645
 20
-142.2896782413373
 10
70.0947740167645
 20
-142.2896782413373
 10
70.0947740167645
 20
-142.2896782413373
 10
70.0947740167645
 20
-142.9308105111423
 10
70.0947740167645
 20
-142.9308105111423
 10
70.0947740167645
 20
-142.9308105111423
 10
69.85999075944473
 20
-142.9308105111423
 10
69.85999075944473
 20
-142.9308105111423
 10
69.85999075944473
 20
-142.9308105111423
 10
69.85999075944473
 20
-141.3863742051048
 10
69.85999075944473
 20
-141.3863742051048
 10
69.85999075944473
 20
-141.3863742051048
 10
70.53488496500518
 20
-141.3863742051048
 10
70.53488496500518
 20
-141.3863742051048
 10
70.84149846319241
 20
-141.3863742051048
 10
71.00875784900128
 20
-141.5575954507217
 10
71.00875784900128
 20
-141.8135660452758
 10
71.00875784900128
 20
-141.8645534584575
 10
71.00014511028816
 20
-141.9468912405549
 10
70.95570337852844
 20
-142.0275064749098
 10
70.89661999095641
 20
-142.1308593394673
 10
70.8309909219624
 20
-142.1501518741847
 10
70.76966822232495
 20
-142.1670328420624
 10
70.90712753218642
 20
-142.209407516531
 10
70.97482365847158
 20
-142.257983362873
 10
70.97913002782813
 20
-142.5732095997734
 10
70.98326414241043
 20
-142.843994104914
 10
71.0192653902313
 20
-142.8756889833783
 10
71.08696151651645
 20
-142.9308105111423
 10
71.08696151651645
 20
-142.9308105111423
 10
70.79085555955923
 20
-142.9308105111423
 10
70.79085555955923
 20
-142.9308105111423
 97
        0
 97
        0
 92
        1
 93
        1
 72
     4
 94
        3
 73
     0
 74
     1
 95
       20
 96
       16
 40
0.0
 40
0.0
 40
0.0
 40
0.0
 40
1.0
 40
1.0
 40
1.0
 40
2.0
 40
2.0
 40
2.0
 40
3.0
 40
3.0
 40
3.0
 40
4.0
 40
4.0
 40
4.0
 40
5.0
 40
5.0
 40
5.0
 40
5.0
 10
70.53901907958748
 20
-141.5979030678992
 10
70.53901907958748
 20
-141.5979030678992
 10
70.0947740167645
 20
-141.5979030678992
 10
70.0947740167645
 20
-141.5979030678992
 10
70.0947740167645
 20
-141.5979030678992
 10
70.0947740167645
 20
-142.078149378543
 10
70.0947740167645
 20
-142.078149378543
 10
70.0947740167645
 20
-142.078149378543
 10
70.53695202229632
 20
-142.078149378543
 10
70.53695202229632
 20
-142.078149378543
 10
70.63634302704578
 20
-142.078149378543
 10
70.7717352796161
 20
-142.0020127683189
 10
70.7717352796161
 20
-141.8304470131535
 10
70.7717352796161
 20
-141.7522433456383
 10
70.73797334386065
 20
-141.5979030678992
 10
70.53901907958748
 20
-141.5979030678992
 97
        0
 97
        0
 75
     2
 76
     1
 98
        0
  0
SPLINE
  5
A1
330
9A
100
AcDbEntity
  8
_U+30EC_U+30A4_U+30E4_U+30FC 1
370
     0
100
AcDbSpline
210
0.0
220
0.0
230
1.0
 70
    11
 71
     3
 72
    44
 73
    40
 74
     0
 42
0.0000000001
 43
0.0000000001
 12
1.0
 22
0.0
 32
0.0
 13
1.0
 23
0.0
 33
0.0
 40
0.0
 40
0.0
 40
0.0
 40
0.0
 40
1.0
 40
1.0
 40
1.0
 40
2.0
 40
2.0
 40
2.0
 40
3.0
 40
3.0
 40
3.0
 40
4.0
 40
4.0
 40
4.0
 40
5.0
 40
5.0
 40
5.0
 40
6.0
 40
6.0
 40
6.0
 40
7.0
 40
7.0
 40
7.0
 40
8.0
 40
8.0
 40
8.0
 40
9.0
 40
9.0
 40
9.0
 40
10.0
 40
10.0
 40
10.0
 40
11.0
 40
11.0
 40
11.0
 40
12.0
 40
12.0
 40
12.0
 40
13.0
 40
13.0
 40
13.0
 40
13.0
 10
71.8197333262291
 20
-142.3489338836836
 30
0.0
 10
71.60183103678705
 20
-142.5074082760051
 30
0.0
 10
71.50864120391104
 20
-142.581477828938
 30
0.0
 10
71.46006535756902
 20
-142.7254828202214
 30
0.0
 10
71.46006535756902
 20
-142.7254828202214
 30
0.0
 10
72.23865693723548
 20
-142.7254828202214
 30
0.0
 10
72.23865693723548
 20
-142.7254828202214
 30
0.0
 10
72.23865693723548
 20
-142.7254828202214
 30
0.0
 10
72.23865693723548
 20
-142.9308105111423
 30
0.0
 10
72.23865693723548
 20
-142.9308105111423
 30
0.0
 10
72.23865693723548
 20
-142.9308105111423
 30
0.0
 10
71.21046818966266
 20
-142.9308105111423
 30
0.0
 10
71.21046818966266
 20
-142.9308105111423
 30
0.0
 10
71.24216306812696
 20
-142.5732095997734
 30
0.0
 10
71.30779213712097
 20
-142.4950059322582
 30
0.0
 10
71.69278155759764
 20
-142.1966606632356
 30
0.0
 10
71.9487521521517
 20
-141.9978786537366
 30
0.0
 10
72.01438122114571
 20
-141.9300102726772
 30
0.0
 10
72.01438122114571
 20
-141.7925509628158
 30
0.0
 10
72.01438122114571
 20
-141.6740396781232
 30
0.0
 10
71.94237872550399
 20
-141.5427815401351
 30
0.0
 10
71.74566377329623
 20
-141.5427815401351
 30
0.0
 10
71.4853868093856
 20
-141.5427815401351
 30
0.0
 10
71.47694632544673
 20
-141.7736029376469
 30
0.0
 10
71.47281221086443
 20
-141.8897026554998
 30
0.0
 10
71.47281221086443
 20
-141.8897026554998
 30
0.0
 10
71.24853649477467
 20
-141.8897026554998
 30
0.0
 10
71.24853649477467
 20
-141.8897026554998
 30
0.0
 10
71.25697697871354
 20
-141.7629231416426
 30
0.0
 10
71.26748451994355
 20
-141.650957538372
 30
0.0
 10
71.34792749952413
 20
-141.5324462536794
 30
0.0
 10
71.45799830027786
 20
-141.3715602945182
 30
0.0
 10
71.64403345648135
 20
-141.3377983587628
 30
0.0
 10
71.7604776838828
 20
-141.3377983587628
 30
0.0
 10
72.03763561567115
 20
-141.3377983587628
 30
0.0
 10
72.24485810910893
 20
-141.5217664576751
 30
0.0
 10
72.24485810910893
 20
-141.7946180201069
 30
0.0
 10
72.24485810910893
 20
-142.023027850779
 30
0.0
 10
72.12858613648174
 20
-142.1225911103027
 30
0.0
 10
71.8197333262291
 20
-142.3489338836836
 30
0.0
  0
HATCH
  5
A2
330
9A
100
AcDbEntity
  8
_U+30EC_U+30A4_U+30E4_U+30FC 1
 62
   179
420
  2234388
100
AcDbHatch
 10
0.0
 20
0.0
 30
0.0
210
0.0
220
0.0
230
1.0
  2
SOLID
 70
     1
 71
     0
 91
        1
 92
        1
 93
        1
 72
     4
 94
        3
 73
     0
 74
     1
 95
       44
 96
       40
 40
0.0
 40
0.0
 40
0.0
 40
0.0
 40
1.0
 40
1.0
 40
1.0
 40
2.0
 40
2.0
 40
2.0
 40
3.0
 40
3.0
 40
3.0
 40
4.0
 40
4.0
 40
4.0
 40
5.0
 40
5.0
 40
5.0
 40
6.0
 40
6.0
 40
6.0
 40
7.0
 40
7.0
 40
7.0
 40
8.0
 40
8.0
 40
8.0
 40
9.0
 40
9.0
 40
9.0
 40
10.0
 40
10.0
 40
10.0
 40
11.0
 40
11.0
 40
11.0
 40
12.0
 40
12.0
 40
12.0
 40
13.0
 40
13.0
 40
13.0
 40
13.0
 10
71.8197333262291
 20
-142.3489338836836
 10
71.60183103678705
 20
-142.5074082760051
 10
71.50864120391104
 20
-142.581477828938
 10
71.46006535756902
 20
-142.7254828202214
 10
71.46006535756902
 20
-142.7254828202214
 10
72.23865693723548
 20
-142.7254828202214
 10
72.23865693723548
 20
-142.7254828202214
 10
72.23865693723548
 20
-142.7254828202214
 10
72.23865693723548
 20
-142.9308105111423
 10
72.23865693723548
 20
-142.9308105111423
 10
72.23865693723548
 20
-142.9308105111423
 10
71.21046818966266
 20
-142.9308105111423
 10
71.21046818966266
 20
-142.9308105111423
 10
71.24216306812696
 20
-142.5732095997734
 10
71.30779213712097
 20
-142.4950059322582
 10
71.69278155759764
 20
-142.1966606632356
 10
71.9487521521517
 20
-141.9978786537366
 10
72.01438122114571
 20
-141.9300102726772
 10
72.01438122114571
 20
-141.7925509628158
 10
72.01438122114571
 20
-141.6740396781232
 10
71.94237872550399
 20
-141.5427815401351
 10
71.74566377329623
 20
-141.5427815401351
 10
71.4853868093856
 20
-141.5427815401351
 10
71.47694632544673
 20
-141.7736029376469
 10
71.47281221086443
 20
-141.8897026554998
 10
71.47281221086443
 20
-141.8897026554998
 10
71.24853649477467
 20
-141.8897026554998
 10
71.24853649477467
 20
-141.8897026554998
 10
71.25697697871354
 20
-141.7629231416426
 10
71.26748451994355
 20
-141.650957538372
 10
71.34792749952413
 20
-141.5324462536794
 10
71.45799830027786
 20
-141.3715602945182
 10
71.64403345648135
 20
-141.3377983587628
 10
71.7604776838828
 20
-141.3377983587628
 10
72.03763561567115
 20
-141.3377983587628
 10
72.24485810910893
 20
-141.5217664576751
 10
72.24485810910893
 20
-141.7946180201069
 10
72.24485810910893
 20
-142.023027850779
 10
72.12858613648174
 20
-142.1225911103027
 10
71.8197333262291
 20
-142.3489338836836
 97
        0
 97
        0
 75
     2
 76
     1
 98
        0
  0
POLYLINE
  5
A3
330
9A
100
AcDbEntity
  8
_U+30EC_U+30A4_U+30E4_U+30FC 1
370
     0
100
AcDb2dPolyline
 66
     1
 10
0.0
 20
0.0
 30
0.0
  0
VERTEX
  5
A4
330
A3
100
AcDbEntity
  8
_U+30EC_U+30A4_U+30E4_U+30FC 1
370
     0
100
AcDbVertex
100
AcDb2dVertex
 10
72.46344941764804
 20
-142.9308105111423
 30
0.0
  0
VERTEX
  5
A5
330
A3
100
AcDbEntity
  8
_U+30EC_U+30A4_U+30E4_U+30FC 1
370
     0
100
AcDbVertex
100
AcDb2dVertex
 10
72.46344941764804
 20
-142.6789740311706
 30
0.0
  0
VERTEX
  5
A6
330
A3
100
AcDbEntity
  8
_U+30EC_U+30A4_U+30E4_U+30FC 1
370
     0
100
AcDbVertex
100
AcDb2dVertex
 10
72.7152858976198
 20
-142.6789740311706
 30
0.0
  0
VERTEX
  5
A7
330
A3
100
AcDbEntity
  8
_U+30EC_U+30A4_U+30E4_U+30FC 1
370
     0
100
AcDbVertex
100
AcDb2dVertex
 10
72.7152858976198
 20
-142.9308105111423
 30
0.0
  0
VERTEX
  5
A8
330
A3
100
AcDbEntity
  8
_U+30EC_U+30A4_U+30E4_U+30FC 1
370
     0
100
AcDbVertex
100
AcDb2dVertex
 10
72.46344941764804
 20
-142.9308105111423
 30
0.0
  0
SEQEND
  5
A9
330
A3
100
AcDbEntity
  8
_U+30EC_U+30A4_U+30E4_U+30FC 1
370
     0
  0
HATCH
  5
AA
330
9A
100
AcDbEntity
  8
_U+30EC_U+30A4_U+30E4_U+30FC 1
 62
   179
420
  2234388
100
AcDbHatch
 10
0.0
 20
0.0
 30
0.0
210
0.0
220
0.0
230
1.0
  2
SOLID
 70
     1
 71
     0
 91
        1
 92
        1
 93
        4
 72
     1
 10
72.46344941764804
 20
-142.9308105111423
 11
72.46344941764804
 21
-142.6789740311706
 72
     1
 10
72.46344941764804
 20
-142.6789740311706
 11
72.7152858976198
 21
-142.6789740311706
 72
     1
 10
72.7152858976198
 20
-142.6789740311706
 11
72.7152858976198
 21
-142.9308105111423
 72
     1
 10
72.7152858976198
 20
-142.9308105111423
 11
72.46344941764804
 21
-142.9308105111423
 97
        0
 75
     2
 76
     1
 98
        0
  0
SPLINE
  5
AB
330
9A
100
AcDbEntity
  8
_U+30EC_U+30A4_U+30E4_U+30FC 1
370
     0
100
AcDbSpline
210
0.0
220
0.0
230
1.0
 70
    11
 71
     3
 72
    53
 73
    49
 74
     0
 42
0.0000000001
 43
0.0000000001
 12
1.0
 22
0.0
 32
0.0
 13
1.0
 23
0.0
 33
0.0
 40
0.0
 40
0.0
 40
0.0
 40
0.0
 40
1.0
 40
1.0
 40
1.0
 40
2.0
 40
2.0
 40
2.0
 40
3.0
 40
3.0
 40
3.0
 40
4.0
 40
4.0
 40
4.0
 40
5.0
 40
5.0
 40
5.0
 40
6.0
 40
6.0
 40
6.0
 40
7.0
 40
7.0
 40
7.0
 40
8.0
 40
8.0
 40
8.0
 40
9.0
 40
9.0
 40
9.0
 40
10.0
 40
10.0
 40
10.0
 40
11.0
 40
11.0
 40
11.0
 40
12.0
 40
12.0
 40
12.0
 40
13.0
 40
13.0
 40
13.0
 40
14.0
 40
14.0
 40
14.0
 40
15.0
 40
15.0
 40
15.0
 40
16.0
 40
16.0
 40
16.0
 40
16.0
 10
73.4325547776488
 20
-142.9814534147755
 30
0.0
 10
73.35435111013363
 20
-142.9814534147755
 30
0.0
 10
73.25289304809303
 20
-142.9645724468978
 30
0.0
 10
73.15126273127817
 20
-142.9011826899691
 30
0.0
 10
72.97780217359583
 20
-142.7909396344412
 30
0.0
 10
72.95661483636154
 20
-142.6600260060017
 30
0.0
 10
72.93766681119267
 20
-142.5518500077648
 30
0.0
 10
72.93766681119267
 20
-142.5518500077648
 30
0.0
 10
73.15970321521702
 20
-142.5518500077648
 30
0.0
 10
73.15970321521702
 20
-142.5518500077648
 30
0.0
 10
73.21482474298102
 20
-142.7509765268123
 30
0.0
 10
73.34160425683821
 20
-142.7806043479854
 30
0.0
 10
73.43479408971422
 20
-142.7806043479854
 30
0.0
 10
73.57432045686684
 20
-142.7806043479854
 30
0.0
 10
73.72676593208915
 20
-142.6810410884617
 30
0.0
 10
73.72676593208915
 20
-142.4484971432073
 30
0.0
 10
73.72676593208915
 20
-142.1925265486533
 30
0.0
 10
73.5469319477591
 20
-142.1225911103027
 30
0.0
 10
73.42635360577536
 20
-142.1225911103027
 30
0.0
 10
73.3944864725368
 20
-142.1225911103027
 30
0.0
 10
73.25289304809303
 20
-142.1225911103027
 30
0.0
 10
73.16400958457359
 20
-142.251437681451
 30
0.0
 10
73.16400958457359
 20
-142.251437681451
 30
0.0
 10
72.98830971482585
 20
-142.2324896562822
 30
0.0
 10
72.98830971482585
 20
-142.2324896562822
 30
0.0
 10
72.98830971482585
 20
-142.2324896562822
 30
0.0
 10
73.10888805680959
 20
-141.3863742051048
 30
0.0
 10
73.10888805680959
 20
-141.3863742051048
 30
0.0
 10
73.10888805680959
 20
-141.3863742051048
 30
0.0
 10
73.88747963647604
 20
-141.3863742051048
 30
0.0
 10
73.88747963647604
 20
-141.3863742051048
 30
0.0
 10
73.88747963647604
 20
-141.3863742051048
 30
0.0
 10
73.88747963647604
 20
-141.5810221000214
 30
0.0
 10
73.88747963647604
 20
-141.5810221000214
 30
0.0
 10
73.88747963647604
 20
-141.5810221000214
 30
0.0
 10
73.27184107326191
 20
-141.5810221000214
 30
0.0
 10
73.27184107326191
 20
-141.5810221000214
 30
0.0
 10
73.27184107326191
 20
-141.5810221000214
 30
0.0
 10
73.2062120042679
 20
-142.0040798256101
 30
0.0
 10
73.2062120042679
 20
-142.0040798256101
 30
0.0
 10
73.26770695867961
 20
-141.9703178898546
 30
0.0
 10
73.35021699555134
 20
-141.9300102726772
 30
0.0
 10
73.46855602546967
 20
-141.9300102726772
 30
0.0
 10
73.72245956273258
 20
-141.9300102726772
 30
0.0
 10
73.95948213211777
 20
-142.1160454288807
 30
0.0
 10
73.95948213211777
 20
-142.4292046084899
 30
0.0
 10
73.95948213211777
 20
-142.7464979026814
 30
0.0
 10
73.735206416028
 20
-142.9814534147755
 30
0.0
 10
73.4325547776488
 20
-142.9814534147755
 30
0.0
  0
HATCH
  5
AC
330
9A
100
AcDbEntity
  8
_U+30EC_U+30A4_U+30E4_U+30FC 1
 62
   179
420
  2234388
100
AcDbHatch
 10
0.0
 20
0.0
 30
0.0
210
0.0
220
0.0
230
1.0
  2
SOLID
 70
     1
 71
     0
 91
        1
 92
        1
 93
        1
 72
     4
 94
        3
 73
     0
 74
     1
 95
       53
 96
       49
 40
0.0
 40
0.0
 40
0.0
 40
0.0
 40
1.0
 40
1.0
 40
1.0
 40
2.0
 40
2.0
 40
2.0
 40
3.0
 40
3.0
 40
3.0
 40
4.0
 40
4.0
 40
4.0
 40
5.0
 40
5.0
 40
5.0
 40
6.0
 40
6.0
 40
6.0
 40
7.0
 40
7.0
 40
7.0
 40
8.0
 40
8.0
 40
8.0
 40
9.0
 40
9.0
 40
9.0
 40
10.0
 40
10.0
 40
10.0
 40
11.0
 40
11.0
 40
11.0
 40
12.0
 40
12.0
 40
12.0
 40
13.0
 40
13.0
 40
13.0
 40
14.0
 40
14.0
 40
14.0
 40
15.0
 40
15.0
 40
15.0
 40
16.0
 40
16.0
 40
16.0
 40
16.0
 10
73.4325547776488
 20
-142.9814534147755
 10
73.35435111013363
 20
-142.9814534147755
 10
73.25289304809303
 20
-142.9645724468978
 10
73.15126273127817
 20
-142.9011826899691
 10
72.97780217359583
 20
-142.7909396344412
 10
72.95661483636154
 20
-142.6600260060017
 10
72.93766681119267
 20
-142.5518500077648
 10
72.93766681119267
 20
-142.5518500077648
 10
73.15970321521702
 20
-142.5518500077648
 10
73.15970321521702
 20
-142.5518500077648
 10
73.21482474298102
 20
-142.7509765268123
 10
73.34160425683821
 20
-142.7806043479854
 10
73.43479408971422
 20
-142.7806043479854
 10
73.57432045686684
 20
-142.7806043479854
 10
73.72676593208915
 20
-142.6810410884617
 10
73.72676593208915
 20
-142.4484971432073
 10
73.72676593208915
 20
-142.1925265486533
 10
73.5469319477591
 20
-142.1225911103027
 10
73.42635360577536
 20
-142.1225911103027
 10
73.3944864725368
 20
-142.1225911103027
 10
73.25289304809303
 20
-142.1225911103027
 10
73.16400958457359
 20
-142.251437681451
 10
73.16400958457359
 20
-142.251437681451
 10
72.98830971482585
 20
-142.2324896562822
 10
72.98830971482585
 20
-142.2324896562822
 10
72.98830971482585
 20
-142.2324896562822
 10
73.10888805680959
 20
-141.3863742051048
 10
73.10888805680959
 20
-141.3863742051048
 10
73.10888805680959
 20
-141.3863742051048
 10
73.88747963647604
 20
-141.3863742051048
 10
73.88747963647604
 20
-141.3863742051048
 10
73.88747963647604
 20
-141.3863742051048
 10
73.88747963647604
 20
-141.5810221000214
 10
73.88747963647604
 20
-141.5810221000214
 10
73.88747963647604
 20
-141.5810221000214
 10
73.27184107326191
 20
-141.5810221000214
 10
73.27184107326191
 20
-141.5810221000214
 10
73.27184107326191
 20
-141.5810221000214
 10
73.2062120042679
 20
-142.0040798256101
 10
73.2062120042679
 20
-142.0040798256101
 10
73.26770695867961
 20
-141.9703178898546
 10
73.35021699555134
 20
-141.9300102726772
 10
73.46855602546967
 20
-141.9300102726772
 10
73.72245956273258
 20
-141.9300102726772
 10
73.95948213211777
 20
-142.1160454288807
 10
73.95948213211777
 20
-142.4292046084899
 10
73.95948213211777
 20
-142.7464979026814
 10
73.735206416028
 20
-142.9814534147755
 10
73.4325547776488
 20
-142.9814534147755
 97
        0
 97
        0
 75
     2
 76
     1
 98
        0
  0
ENDBLK
  5
9D
330
9A
100
AcDbEntity
  8
0
100
AcDbBlockEnd
  0
BLOCK
  5
C7
330
C5
100
AcDbEntity
  8
0
100
AcDbBlockBegin
  2
block 3
 70
     0
 10
0.0
 20
0.0
 30
0.0
  3
block 3
  1

  0
SPLINE
  5
C9
330
C5
100
AcDbEntity
  8
_U+30EC_U+30A4_U+30E4_U+30FC 1
370
     0
100
AcDbSpline
210
0.0
220
0.0
230
1.0
 70
    11
 71
     3
 72
    44
 73
    40
 74
     0
 42
0.0000000001
 43
0.0000000001
 12
1.0
 22
0.0
 32
0.0
 13
1.0
 23
0.0
 33
0.0
 40
0.0
 40
0.0
 40
0.0
 40
0.0
 40
1.0
 40
1.0
 40
1.0
 40
2.0
 40
2.0
 40
2.0
 40
3.0
 40
3.0
 40
3.0
 40
4.0
 40
4.0
 40
4.0
 40
5.0
 40
5.0
 40
5.0
 40
6.0
 40
6.0
 40
6.0
 40
7.0
 40
7.0
 40
7.0
 40
8.0
 40
8.0
 40
8.0
 40
9.0
 40
9.0
 40
9.0
 40
10.0
 40
10.0
 40
10.0
 40
11.0
 40
11.0
 40
11.0
 40
12.0
 40
12.0
 40
12.0
 40
13.0
 40
13.0
 40
13.0
 40
13.0
 10
110.9386203064667
 20
-121.9680935024941
 30
0.0
 10
111.0970946987882
 20
-122.1859957919362
 30
0.0
 10
111.1711642517211
 20
-122.2790133700379
 30
0.0
 10
111.3151692430045
 20
-122.3275892163799
 30
0.0
 10
111.3151692430045
 20
-122.3275892163799
 30
0.0
 10
111.3151692430045
 20
-121.5491698914877
 30
0.0
 10
111.3151692430045
 20
-121.5491698914877
 30
0.0
 10
111.3151692430045
 20
-121.5491698914877
 30
0.0
 10
111.5204969339254
 20
-121.5491698914877
 30
0.0
 10
111.5204969339254
 20
-121.5491698914877
 30
0.0
 10
111.5204969339254
 20
-121.5491698914877
 30
0.0
 10
111.5204969339254
 20
-122.5773586390605
 30
0.0
 10
111.5204969339254
 20
-122.5773586390605
 30
0.0
 10
111.1628960225565
 20
-122.545491505822
 30
0.0
 10
111.0846923550413
 20
-122.4800346916022
 30
0.0
 10
110.7863470860187
 20
-122.0948730163513
 30
0.0
 10
110.5875650765198
 20
-121.8389024217972
 30
0.0
 10
110.5196966954604
 20
-121.7734456075775
 30
0.0
 10
110.3822373855989
 20
-121.7734456075775
 30
0.0
 10
110.2637261009063
 20
-121.7734456075775
 30
0.0
 10
110.1324679629183
 20
-121.8452758484449
 30
0.0
 10
110.1324679629183
 20
-122.0419908006527
 30
0.0
 10
110.1324679629183
 20
-122.3022677645633
 30
0.0
 10
110.36328936043
 20
-122.3107082485022
 30
0.0
 10
110.4793890782829
 20
-122.3150146178588
 30
0.0
 10
110.4793890782829
 20
-122.3150146178588
 30
0.0
 10
110.4793890782829
 20
-122.5392903339485
 30
0.0
 10
110.4793890782829
 20
-122.5392903339485
 30
0.0
 10
110.3526095644257
 20
-122.5306775952354
 30
0.0
 10
110.2406439611551
 20
-122.5201700540054
 30
0.0
 10
110.1221326764625
 20
-122.4397270744248
 30
0.0
 10
109.9612467173014
 20
-122.3298285284453
 30
0.0
 10
109.9274847815459
 20
-122.1436211174676
 30
0.0
 10
109.9274847815459
 20
-122.0271768900661
 30
0.0
 10
109.9274847815459
 20
-121.750191213052
 30
0.0
 10
110.1114528804583
 20
-121.54279646484
 30
0.0
 10
110.38430444289
 20
-121.54279646484
 30
0.0
 10
110.6127142735621
 20
-121.54279646484
 30
0.0
 10
110.7122775330858
 20
-121.6590684374672
 30
0.0
 10
110.9386203064667
 20
-121.9680935024941
 30
0.0
  0
HATCH
  5
CA
330
C5
100
AcDbEntity
  8
_U+30EC_U+30A4_U+30E4_U+30FC 1
 62
   179
420
  2234388
100
AcDbHatch
 10
0.0
 20
0.0
 30
0.0
210
0.0
220
0.0
230
1.0
  2
SOLID
 70
     1
 71
     0
 91
        1
 92
        1
 93
        1
 72
     4
 94
        3
 73
     0
 74
     1
 95
       44
 96
       40
 40
0.0
 40
0.0
 40
0.0
 40
0.0
 40
1.0
 40
1.0
 40
1.0
 40
2.0
 40
2.0
 40
2.0
 40
3.0
 40
3.0
 40
3.0
 40
4.0
 40
4.0
 40
4.0
 40
5.0
 40
5.0
 40
5.0
 40
6.0
 40
6.0
 40
6.0
 40
7.0
 40
7.0
 40
7.0
 40
8.0
 40
8.0
 40
8.0
 40
9.0
 40
9.0
 40
9.0
 40
10.0
 40
10.0
 40
10.0
 40
11.0
 40
11.0
 40
11.0
 40
12.0
 40
12.0
 40
12.0
 40
13.0
 40
13.0
 40
13.0
 40
13.0
 10
110.9386203064667
 20
-121.9680935024941
 10
111.0970946987882
 20
-122.1859957919362
 10
111.1711642517211
 20
-122.2790133700379
 10
111.3151692430045
 20
-122.3275892163799
 10
111.3151692430045
 20
-122.3275892163799
 10
111.3151692430045
 20
-121.5491698914877
 10
111.3151692430045
 20
-121.5491698914877
 10
111.3151692430045
 20
-121.5491698914877
 10
111.5204969339254
 20
-121.5491698914877
 10
111.5204969339254
 20
-121.5491698914877
 10
111.5204969339254
 20
-121.5491698914877
 10
111.5204969339254
 20
-122.5773586390605
 10
111.5204969339254
 20
-122.5773586390605
 10
111.1628960225565
 20
-122.545491505822
 10
111.0846923550413
 20
-122.4800346916022
 10
110.7863470860187
 20
-122.0948730163513
 10
110.5875650765198
 20
-121.8389024217972
 10
110.5196966954604
 20
-121.7734456075775
 10
110.3822373855989
 20
-121.7734456075775
 10
110.2637261009063
 20
-121.7734456075775
 10
110.1324679629183
 20
-121.8452758484449
 10
110.1324679629183
 20
-122.0419908006527
 10
110.1324679629183
 20
-122.3022677645633
 10
110.36328936043
 20
-122.3107082485022
 10
110.4793890782829
 20
-122.3150146178588
 10
110.4793890782829
 20
-122.3150146178588
 10
110.4793890782829
 20
-122.5392903339485
 10
110.4793890782829
 20
-122.5392903339485
 10
110.3526095644257
 20
-122.5306775952354
 10
110.2406439611551
 20
-122.5201700540054
 10
110.1221326764625
 20
-122.4397270744248
 10
109.9612467173014
 20
-122.3298285284453
 10
109.9274847815459
 20
-122.1436211174676
 10
109.9274847815459
 20
-122.0271768900661
 10
109.9274847815459
 20
-121.750191213052
 10
110.1114528804583
 20
-121.54279646484
 10
110.38430444289
 20
-121.54279646484
 10
110.6127142735621
 20
-121.54279646484
 10
110.7122775330858
 20
-121.6590684374672
 10
110.9386203064667
 20
-121.9680935024941
 97
        0
 97
        0
 75
     2
 76
     1
 98
        0
  0
SPLINE
  5
CB
330
C5
100
AcDbEntity
  8
_U+30EC_U+30A4_U+30E4_U+30FC 1
370
     0
100
AcDbSpline
210
0.0
220
0.0
230
1.0
 70
    11
 71
     3
 72
    26
 73
    22
 74
     0
 42
0.0000000001
 43
0.0000000001
 12
1.0
 22
0.0
 32
0.0
 13
1.0
 23
0.0
 33
0.0
 40
0.0
 40
0.0
 40
0.0
 40
0.0
 40
1.0
 40
1.0
 40
1.0
 40
2.0
 40
2.0
 40
2.0
 40
3.0
 40
3.0
 40
3.0
 40
4.0
 40
4.0
 40
4.0
 40
5.0
 40
5.0
 40
5.0
 40
6.0
 40
6.0
 40
6.0
 40
7.0
 40
7.0
 40
7.0
 40
7.0
 10
111.5204969339254
 20
-120.9328423091765
 30
0.0
 10
111.5204969339254
 20
-120.9328423091765
 30
0.0
 10
110.4159993213543
 20
-120.9328423091765
 30
0.0
 10
110.4159993213543
 20
-120.9328423091765
 30
0.0
 10
110.4159993213543
 20
-120.9328423091765
 30
0.0
 10
110.4159993213543
 20
-121.2628824566634
 30
0.0
 10
110.4159993213543
 20
-121.2628824566634
 30
0.0
 10
110.4159993213543
 20
-121.2628824566634
 30
0.0
 10
110.2678602154886
 20
-121.2628824566634
 30
0.0
 10
110.2678602154886
 20
-121.2628824566634
 30
0.0
 10
110.253046304902
 20
-120.9307752518854
 30
0.0
 10
110.0904377979982
 20
-120.8842664628345
 30
0.0
 10
109.9760606278879
 20
-120.8546386416614
 30
0.0
 10
109.9760606278879
 20
-120.8546386416614
 30
0.0
 10
109.9760606278879
 20
-120.7085665930868
 30
0.0
 10
109.9760606278879
 20
-120.7085665930868
 30
0.0
 10
109.9760606278879
 20
-120.7085665930868
 30
0.0
 10
111.5204969339254
 20
-120.7085665930868
 30
0.0
 10
111.5204969339254
 20
-120.7085665930868
 30
0.0
 10
111.5204969339254
 20
-120.7085665930868
 30
0.0
 10
111.5204969339254
 20
-120.9328423091765
 30
0.0
 10
111.5204969339254
 20
-120.9328423091765
 30
0.0
  0
HATCH
  5
CC
330
C5
100
AcDbEntity
  8
_U+30EC_U+30A4_U+30E4_U+30FC 1
 62
   179
420
  2234388
100
AcDbHatch
 10
0.0
 20
0.0
 30
0.0
210
0.0
220
0.0
230
1.0
  2
SOLID
 70
     1
 71
     0
 91
        1
 92
        1
 93
        1
 72
     4
 94
        3
 73
     0
 74
     1
 95
       26
 96
       22
 40
0.0
 40
0.0
 40
0.0
 40
0.0
 40
1.0
 40
1.0
 40
1.0
 40
2.0
 40
2.0
 40
2.0
 40
3.0
 40
3.0
 40
3.0
 40
4.0
 40
4.0
 40
4.0
 40
5.0
 40
5.0
 40
5.0
 40
6.0
 40
6.0
 40
6.0
 40
7.0
 40
7.0
 40
7.0
 40
7.0
 10
111.5204969339254
 20
-120.9328423091765
 10
111.5204969339254
 20
-120.9328423091765
 10
110.4159993213543
 20
-120.9328423091765
 10
110.4159993213543
 20
-120.9328423091765
 10
110.4159993213543
 20
-120.9328423091765
 10
110.4159993213543
 20
-121.2628824566634
 10
110.4159993213543
 20
-121.2628824566634
 10
110.4159993213543
 20
-121.2628824566634
 10
110.2678602154886
 20
-121.2628824566634
 10
110.2678602154886
 20
-121.2628824566634
 10
110.253046304902
 20
-120.9307752518854
 10
110.0904377979982
 20
-120.8842664628345
 10
109.9760606278879
 20
-120.8546386416614
 10
109.9760606278879
 20
-120.8546386416614
 10
109.9760606278879
 20
-120.7085665930868
 10
109.9760606278879
 20
-120.7085665930868
 10
109.9760606278879
 20
-120.7085665930868
 10
111.5204969339254
 20
-120.7085665930868
 10
111.5204969339254
 20
-120.7085665930868
 10
111.5204969339254
 20
-120.7085665930868
 10
111.5204969339254
 20
-120.9328423091765
 10
111.5204969339254
 20
-120.9328423091765
 97
        0
 97
        0
 75
     2
 76
     1
 98
        0
  0
ENDBLK
  5
C8
330
C5
100
AcDbEntity
  8
0
100
AcDbBlockEnd
  0
BLOCK
  5
DE
330
DC
100
AcDbEntity
  8
0
100
AcDbBlockBegin
  2
block 4
 70
     0
 10
0.0
 20
0.0
 30
0.0
  3
block 4
  1

  0
SPLINE
  5
E0
330
DC
100
AcDbEntity
  8
_U+30EC_U+30A4_U+30E4_U+30FC 1
370
     0
100
AcDbSpline
210
0.0
220
0.0
230
1.0
 70
    11
 71
     3
 72
    26
 73
    22
 74
     0
 42
0.0000000001
 43
0.0000000001
 12
1.0
 22
0.0
 32
0.0
 13
1.0
 23
0.0
 33
0.0
 40
0.0
 40
0.0
 40
0.0
 40
0.0
 40
1.0
 40
1.0
 40
1.0
 40
2.0
 40
2.0
 40
2.0
 40
3.0
 40
3.0
 40
3.0
 40
4.0
 40
4.0
 40
4.0
 40
5.0
 40
5.0
 40
5.0
 40
6.0
 40
6.0
 40
6.0
 40
7.0
 40
7.0
 40
7.0
 40
7.0
 10
84.75572236379371
 20
-148.0998317772112
 30
0.0
 10
84.75572236379371
 20
-148.0998317772112
 30
0.0
 10
84.75572236379371
 20
-146.9953341646401
 30
0.0
 10
84.75572236379371
 20
-146.9953341646401
 30
0.0
 10
84.75572236379371
 20
-146.9953341646401
 30
0.0
 10
84.42568221630678
 20
-146.9953341646401
 30
0.0
 10
84.42568221630678
 20
-146.9953341646401
 30
0.0
 10
84.42568221630678
 20
-146.9953341646401
 30
0.0
 10
84.42568221630678
 20
-146.8471950587743
 30
0.0
 10
84.42568221630678
 20
-146.8471950587743
 30
0.0
 10
84.75778942108487
 20
-146.8323811481877
 30
0.0
 10
84.80429821013574
 20
-146.6697726412839
 30
0.0
 10
84.83392603130888
 20
-146.5553954711737
 30
0.0
 10
84.83392603130888
 20
-146.5553954711737
 30
0.0
 10
84.97982582510922
 20
-146.5553954711737
 30
0.0
 10
84.97982582510922
 20
-146.5553954711737
 30
0.0
 10
84.97982582510922
 20
-146.5553954711737
 30
0.0
 10
84.97982582510922
 20
-148.0998317772112
 30
0.0
 10
84.97982582510922
 20
-148.0998317772112
 30
0.0
 10
84.97982582510922
 20
-148.0998317772112
 30
0.0
 10
84.75572236379371
 20
-148.0998317772112
 30
0.0
 10
84.75572236379371
 20
-148.0998317772112
 30
0.0
  0
HATCH
  5
E1
330
DC
100
AcDbEntity
  8
_U+30EC_U+30A4_U+30E4_U+30FC 1
 62
   179
420
  2234388
100
AcDbHatch
 10
0.0
 20
0.0
 30
0.0
210
0.0
220
0.0
230
1.0
  2
SOLID
 70
     1
 71
     0
 91
        1
 92
        1
 93
        1
 72
     4
 94
        3
 73
     0
 74
     1
 95
       26
 96
       22
 40
0.0
 40
0.0
 40
0.0
 40
0.0
 40
1.0
 40
1.0
 40
1.0
 40
2.0
 40
2.0
 40
2.0
 40
3.0
 40
3.0
 40
3.0
 40
4.0
 40
4.0
 40
4.0
 40
5.0
 40
5.0
 40
5.0
 40
6.0
 40
6.0
 40
6.0
 40
7.0
 40
7.0
 40
7.0
 40
7.0
 10
84.75572236379371
 20
-148.0998317772112
 10
84.75572236379371
 20
-148.0998317772112
 10
84.75572236379371
 20
-146.9953341646401
 10
84.75572236379371
 20
-146.9953341646401
 10
84.75572236379371
 20
-146.9953341646401
 10
84.42568221630678
 20
-146.9953341646401
 10
84.42568221630678
 20
-146.9953341646401
 10
84.42568221630678
 20
-146.9953341646401
 10
84.42568221630678
 20
-146.8471950587743
 10
84.42568221630678
 20
-146.8471950587743
 10
84.75778942108487
 20
-146.8323811481877
 10
84.80429821013574
 20
-146.6697726412839
 10
84.83392603130888
 20
-146.5553954711737
 10
84.83392603130888
 20
-146.5553954711737
 10
84.97982582510922
 20
-146.5553954711737
 10
84.97982582510922
 20
-146.5553954711737
 10
84.97982582510922
 20
-146.5553954711737
 10
84.97982582510922
 20
-148.0998317772112
 10
84.97982582510922
 20
-148.0998317772112
 10
84.97982582510922
 20
-148.0998317772112
 10
84.75572236379371
 20
-148.0998317772112
 10
84.75572236379371
 20
-148.0998317772112
 97
        0
 97
        0
 75
     2
 76
     1
 98
        0
  0
SPLINE
  5
E2
330
DC
100
AcDbEntity
  8
_U+30EC_U+30A4_U+30E4_U+30FC 1
370
     0
100
AcDbSpline
210
0.0
220
0.0
230
1.0
 70
    11
 71
     3
 72
    29
 73
    25
 74
     0
 42
0.0000000001
 43
0.0000000001
 12
1.0
 22
0.0
 32
0.0
 13
1.0
 23
0.0
 33
0.0
 40
0.0
 40
0.0
 40
0.0
 40
0.0
 40
1.0
 40
1.0
 40
1.0
 40
2.0
 40
2.0
 40
2.0
 40
3.0
 40
3.0
 40
3.0
 40
4.0
 40
4.0
 40
4.0
 40
5.0
 40
5.0
 40
5.0
 40
6.0
 40
6.0
 40
6.0
 40
7.0
 40
7.0
 40
7.0
 40
8.0
 40
8.0
 40
8.0
 40
8.0
 10
85.98114282789707
 20
-148.1504746808443
 30
0.0
 10
85.714664692113
 20
-148.1504746808443
 30
0.0
 10
85.46076115485009
 20
-148.0130153709829
 30
0.0
 10
85.46076115485009
 20
-147.6640271983271
 30
0.0
 10
85.46076115485009
 20
-147.408056603773
 30
0.0
 10
85.60252683406812
 20
-147.3126274588316
 30
0.0
 10
85.70829126546529
 20
-147.2513047591941
 30
0.0
 10
85.58340655412499
 20
-147.1920491168478
 30
0.0
 10
85.50726994390097
 20
-147.0780164562861
 30
0.0
 10
85.50726994390097
 20
-146.9171304971249
 30
0.0
 10
85.50726994390097
 20
-146.642211877402
 30
0.0
 10
85.70622420817415
 20
-146.5068196248316
 30
0.0
 10
85.98114282789707
 20
-146.5068196248316
 30
0.0
 10
86.26467418633314
 20
-146.5068196248316
 30
0.0
 10
86.4550157118932
 20
-146.6504801065666
 30
0.0
 10
86.4550157118932
 20
-146.9171304971249
 30
0.0
 10
86.4550157118932
 20
-147.0780164562861
 30
0.0
 10
86.37681204437803
 20
-147.1920491168478
 30
0.0
 10
86.25192733303771
 20
-147.2513047591941
 30
0.0
 10
86.34081079655716
 20
-147.3022921723758
 30
0.0
 10
86.49945744365291
 20
-147.3973768077687
 30
0.0
 10
86.49945744365291
 20
-147.6595485741962
 30
0.0
 10
86.49945744365291
 20
-148.0340304534429
 30
0.0
 10
86.22023245457342
 20
-148.1504746808443
 30
0.0
 10
85.98114282789707
 20
-148.1504746808443
 30
0.0
  0
SPLINE
  5
E3
330
DC
100
AcDbEntity
  8
_U+30EC_U+30A4_U+30E4_U+30FC 1
370
     0
100
AcDbSpline
210
0.0
220
0.0
230
1.0
 70
    11
 71
     3
 72
    17
 73
    13
 74
     0
 42
0.0000000001
 43
0.0000000001
 12
1.0
 22
0.0
 32
0.0
 13
1.0
 23
0.0
 33
0.0
 40
0.0
 40
0.0
 40
0.0
 40
0.0
 40
1.0
 40
1.0
 40
1.0
 40
2.0
 40
2.0
 40
2.0
 40
3.0
 40
3.0
 40
3.0
 40
4.0
 40
4.0
 40
4.0
 40
4.0
 10
85.98114282789707
 20
-147.3591362478824
 30
0.0
 10
85.8373100913879
 20
-147.3591362478824
 30
0.0
 10
85.68503687093985
 20
-147.4459526541107
 30
0.0
 10
85.68503687093985
 20
-147.6492132877405
 30
0.0
 10
85.68503687093985
 20
-147.8541964691128
 30
0.0
 10
85.81198863957131
 20
-147.9558267859277
 30
0.0
 10
85.98114282789707
 20
-147.9558267859277
 30
0.0
 10
86.16735023887483
 20
-147.9558267859277
 30
0.0
 10
86.27742103962856
 20
-147.8331813866528
 30
0.0
 10
86.27742103962856
 20
-147.6554144596139
 30
0.0
 10
86.27742103962856
 20
-147.4332058008153
 30
0.0
 10
86.11446802317624
 20
-147.3591362478824
 30
0.0
 10
85.98114282789707
 20
-147.3591362478824
 30
0.0
  0
SPLINE
  5
E4
330
DC
100
AcDbEntity
  8
_U+30EC_U+30A4_U+30E4_U+30FC 1
370
     0
100
AcDbSpline
210
0.0
220
0.0
230
1.0
 70
    11
 71
     3
 72
    17
 73
    13
 74
     0
 42
0.0000000001
 43
0.0000000001
 12
1.0
 22
0.0
 32
0.0
 13
1.0
 23
0.0
 33
0.0
 40
0.0
 40
0.0
 40
0.0
 40
0.0
 40
1.0
 40
1.0
 40
1.0
 40
2.0
 40
2.0
 40
2.0
 40
3.0
 40
3.0
 40
3.0
 40
4.0
 40
4.0
 40
4.0
 40
4.0
 10
85.98114282789707
 20
-146.6990559529086
 30
0.0
 10
85.81612275415361
 20
-146.6990559529086
 30
0.0
 10
85.73154565999073
 20
-146.79448509785
 30
0.0
 10
85.73154565999073
 20
-146.9298773504203
 30
0.0
 10
85.73154565999073
 20
-147.0525227496952
 30
0.0
 10
85.80354815563246
 20
-147.1710340343878
 30
0.0
 10
85.98114282789707
 20
-147.1710340343878
 30
0.0
 10
86.15890975493598
 20
-147.1710340343878
 30
0.0
 10
86.23073999580343
 20
-147.0525227496952
 30
0.0
 10
86.23073999580343
 20
-146.9298773504203
 30
0.0
 10
86.23073999580343
 20
-146.79448509785
 30
0.0
 10
86.1440958443494
 20
-146.6990559529086
 30
0.0
 10
85.98114282789707
 20
-146.6990559529086
 30
0.0
  0
HATCH
  5
E5
330
DC
100
AcDbEntity
  8
_U+30EC_U+30A4_U+30E4_U+30FC 1
 62
   179
420
  2234388
100
AcDbHatch
 10
0.0
 20
0.0
 30
0.0
210
0.0
220
0.0
230
1.0
  2
SOLID
 70
     1
 71
     0
 91
        3
 92
        1
 93
        1
 72
     4
 94
        3
 73
     0
 74
     1
 95
       29
 96
       25
 40
0.0
 40
0.0
 40
0.0
 40
0.0
 40
1.0
 40
1.0
 40
1.0
 40
2.0
 40
2.0
 40
2.0
 40
3.0
 40
3.0
 40
3.0
 40
4.0
 40
4.0
 40
4.0
 40
5.0
 40
5.0
 40
5.0
 40
6.0
 40
6.0
 40
6.0
 40
7.0
 40
7.0
 40
7.0
 40
8.0
 40
8.0
 40
8.0
 40
8.0
 10
85.98114282789707
 20
-148.1504746808443
 10
85.714664692113
 20
-148.1504746808443
 10
85.46076115485009
 20
-148.0130153709829
 10
85.46076115485009
 20
-147.6640271983271
 10
85.46076115485009
 20
-147.408056603773
 10
85.60252683406812
 20
-147.3126274588316
 10
85.70829126546529
 20
-147.2513047591941
 10
85.58340655412499
 20
-147.1920491168478
 10
85.50726994390097
 20
-147.0780164562861
 10
85.50726994390097
 20
-146.9171304971249
 10
85.50726994390097
 20
-146.642211877402
 10
85.70622420817415
 20
-146.5068196248316
 10
85.98114282789707
 20
-146.5068196248316
 10
86.26467418633314
 20
-146.5068196248316
 10
86.4550157118932
 20
-146.6504801065666
 10
86.4550157118932
 20
-146.9171304971249
 10
86.4550157118932
 20
-147.0780164562861
 10
86.37681204437803
 20
-147.1920491168478
 10
86.25192733303771
 20
-147.2513047591941
 10
86.34081079655716
 20
-147.3022921723758
 10
86.49945744365291
 20
-147.3973768077687
 10
86.49945744365291
 20
-147.6595485741962
 10
86.49945744365291
 20
-148.0340304534429
 10
86.22023245457342
 20
-148.1504746808443
 10
85.98114282789707
 20
-148.1504746808443
 97
        0
 97
        0
 92
        1
 93
        1
 72
     4
 94
        3
 73
     0
 74
     1
 95
       17
 96
       13
 40
0.0
 40
0.0
 40
0.0
 40
0.0
 40
1.0
 40
1.0
 40
1.0
 40
2.0
 40
2.0
 40
2.0
 40
3.0
 40
3.0
 40
3.0
 40
4.0
 40
4.0
 40
4.0
 40
4.0
 10
85.98114282789707
 20
-147.3591362478824
 10
85.8373100913879
 20
-147.3591362478824
 10
85.68503687093985
 20
-147.4459526541107
 10
85.68503687093985
 20
-147.6492132877405
 10
85.68503687093985
 20
-147.8541964691128
 10
85.81198863957131
 20
-147.9558267859277
 10
85.98114282789707
 20
-147.9558267859277
 10
86.16735023887483
 20
-147.9558267859277
 10
86.27742103962856
 20
-147.8331813866528
 10
86.27742103962856
 20
-147.6554144596139
 10
86.27742103962856
 20
-147.4332058008153
 10
86.11446802317624
 20
-147.3591362478824
 10
85.98114282789707
 20
-147.3591362478824
 97
        0
 97
        0
 92
        1
 93
        1
 72
     4
 94
        3
 73
     0
 74
     1
 95
       17
 96
       13
 40
0.0
 40
0.0
 40
0.0
 40
0.0
 40
1.0
 40
1.0
 40
1.0
 40
2.0
 40
2.0
 40
2.0
 40
3.0
 40
3.0
 40
3.0
 40
4.0
 40
4.0
 40
4.0
 40
4.0
 10
85.98114282789707
 20
-146.6990559529086
 10
85.81612275415361
 20
-146.6990559529086
 10
85.73154565999073
 20
-146.79448509785
 10
85.73154565999073
 20
-146.9298773504203
 10
85.73154565999073
 20
-147.0525227496952
 10
85.80354815563246
 20
-147.1710340343878
 10
85.98114282789707
 20
-147.1710340343878
 10
86.15890975493598
 20
-147.1710340343878
 10
86.23073999580343
 20
-147.0525227496952
 10
86.23073999580343
 20
-146.9298773504203
 10
86.23073999580343
 20
-146.79448509785
 10
86.1440958443494
 20
-146.6990559529086
 10
85.98114282789707
 20
-146.6990559529086
 97
        0
 97
        0
 75
     2
 76
     1
 98
        0
  0
ENDBLK
  5
DF
330
DC
100
AcDbEntity
  8
0
100
AcDbBlockEnd
  0
BLOCK
  5
F3
330
F1
100
AcDbEntity
  8
0
100
AcDbBlockBegin
  2
block 5
 70
     0
 10
0.0
 20
0.0
 30
0.0
  3
block 5
  1

  0
SPLINE
  5
F5
330
F1
100
AcDbEntity
  8
_U+30EC_U+30A4_U+30E4_U+30FC 1
370
     0
100
AcDbSpline
210
0.0
220
0.0
230
1.0
 70
    11
 71
     3
 72
    29
 73
    25
 74
     0
 42
0.0000000001
 43
0.0000000001
 12
1.0
 22
0.0
 32
0.0
 13
1.0
 23
0.0
 33
0.0
 40
0.0
 40
0.0
 40
0.0
 40
0.0
 40
1.0
 40
1.0
 40
1.0
 40
2.0
 40
2.0
 40
2.0
 40
3.0
 40
3.0
 40
3.0
 40
4.0
 40
4.0
 40
4.0
 40
5.0
 40
5.0
 40
5.0
 40
6.0
 40
6.0
 40
6.0
 40
7.0
 40
7.0
 40
7.0
 40
8.0
 40
8.0
 40
8.0
 40
8.0
 10
80.78042668336393
 20
-120.1508056340248
 30
0.0
 10
80.51377629280559
 20
-120.1508056340248
 30
0.0
 10
80.26004501031694
 20
-120.0133463241633
 30
0.0
 10
80.26004501031694
 20
-119.6641858967333
 30
0.0
 10
80.26004501031694
 20
-119.4082153021792
 30
0.0
 10
80.4016384347607
 20
-119.3131306667863
 30
0.0
 10
80.50757512093213
 20
-119.2516357123746
 30
0.0
 10
80.38269040959183
 20
-119.1925523248026
 30
0.0
 10
80.3065537993678
 20
-119.0781751546923
 30
0.0
 10
80.3065537993678
 20
-118.9174614503054
 30
0.0
 10
80.3065537993678
 20
-118.6423705758082
 30
0.0
 10
80.50533580886673
 20
-118.5069783232378
 30
0.0
 10
80.78042668336393
 20
-118.5069783232378
 30
0.0
 10
81.06395804179999
 20
-118.5069783232378
 30
0.0
 10
81.25429956736004
 20
-118.6509833145213
 30
0.0
 10
81.25429956736004
 20
-118.9174614503054
 30
0.0
 10
81.25429956736004
 20
-119.0781751546923
 30
0.0
 10
81.17592364507061
 20
-119.1925523248026
 30
0.0
 10
81.05121118850457
 20
-119.2516357123746
 30
0.0
 10
81.140094652024
 20
-119.302450870782
 30
0.0
 10
81.29874129911977
 20
-119.3977077609492
 30
0.0
 10
81.29874129911977
 20
-119.660051782151
 30
0.0
 10
81.29874129911977
 20
-120.0343614066234
 30
0.0
 10
81.01951631004026
 20
-120.1508056340248
 30
0.0
 10
80.78042668336393
 20
-120.1508056340248
 30
0.0
  0
SPLINE
  5
F6
330
F1
100
AcDbEntity
  8
_U+30EC_U+30A4_U+30E4_U+30FC 1
370
     0
100
AcDbSpline
210
0.0
220
0.0
230
1.0
 70
    11
 71
     3
 72
    17
 73
    13
 74
     0
 42
0.0000000001
 43
0.0000000001
 12
1.0
 22
0.0
 32
0.0
 13
1.0
 23
0.0
 33
0.0
 40
0.0
 40
0.0
 40
0.0
 40
0.0
 40
1.0
 40
1.0
 40
1.0
 40
2.0
 40
2.0
 40
2.0
 40
3.0
 40
3.0
 40
3.0
 40
4.0
 40
4.0
 40
4.0
 40
4.0
 10
80.78042668336393
 20
-119.3596394558372
 30
0.0
 10
80.63659394685475
 20
-119.3596394558372
 30
0.0
 10
80.48414847163244
 20
-119.4462836072912
 30
0.0
 10
80.48414847163244
 20
-119.6493719861467
 30
0.0
 10
80.48414847163244
 20
-119.8546996770676
 30
0.0
 10
80.6111002402639
 20
-119.9561577391082
 30
0.0
 10
80.78042668336393
 20
-119.9561577391082
 30
0.0
 10
80.96663409434169
 20
-119.9561577391082
 30
0.0
 10
81.07653264032115
 20
-119.8335123398333
 30
0.0
 10
81.07653264032115
 20
-119.6557454127944
 30
0.0
 10
81.07653264032115
 20
-119.4337090087701
 30
0.0
 10
80.9137518786431
 20
-119.3596394558372
 30
0.0
 10
80.78042668336393
 20
-119.3596394558372
 30
0.0
  0
SPLINE
  5
F7
330
F1
100
AcDbEntity
  8
_U+30EC_U+30A4_U+30E4_U+30FC 1
370
     0
100
AcDbSpline
210
0.0
220
0.0
230
1.0
 70
    11
 71
     3
 72
    17
 73
    13
 74
     0
 42
0.0000000001
 43
0.0000000001
 12
1.0
 22
0.0
 32
0.0
 13
1.0
 23
0.0
 33
0.0
 40
0.0
 40
0.0
 40
0.0
 40
0.0
 40
1.0
 40
1.0
 40
1.0
 40
2.0
 40
2.0
 40
2.0
 40
3.0
 40
3.0
 40
3.0
 40
4.0
 40
4.0
 40
4.0
 40
4.0
 10
80.78042668336393
 20
-118.6995591608633
 30
0.0
 10
80.61540660962046
 20
-118.6995591608633
 30
0.0
 10
80.53082951545757
 20
-118.7948160510305
 30
0.0
 10
80.53082951545757
 20
-118.9302083036008
 30
0.0
 10
80.53082951545757
 20
-119.0528537028757
 30
0.0
 10
80.60265975632504
 20
-119.1713649875683
 30
0.0
 10
80.78042668336393
 20
-119.1713649875683
 30
0.0
 10
80.95802135562856
 20
-119.1713649875683
 30
0.0
 10
81.03002385127027
 20
-119.0528537028757
 30
0.0
 10
81.03002385127027
 20
-118.9302083036008
 30
0.0
 10
81.03002385127027
 20
-118.7948160510305
 30
0.0
 10
80.94320744504198
 20
-118.6995591608633
 30
0.0
 10
80.78042668336393
 20
-118.6995591608633
 30
0.0
  0
HATCH
  5
F8
330
F1
100
AcDbEntity
  8
_U+30EC_U+30A4_U+30E4_U+30FC 1
 62
   179
420
  2234388
100
AcDbHatch
 10
0.0
 20
0.0
 30
0.0
210
0.0
220
0.0
230
1.0
  2
SOLID
 70
     1
 71
     0
 91
        3
 92
        1
 93
        1
 72
     4
 94
        3
 73
     0
 74
     1
 95
       29
 96
       25
 40
0.0
 40
0.0
 40
0.0
 40
0.0
 40
1.0
 40
1.0
 40
1.0
 40
2.0
 40
2.0
 40
2.0
 40
3.0
 40
3.0
 40
3.0
 40
4.0
 40
4.0
 40
4.0
 40
5.0
 40
5.0
 40
5.0
 40
6.0
 40
6.0
 40
6.0
 40
7.0
 40
7.0
 40
7.0
 40
8.0
 40
8.0
 40
8.0
 40
8.0
 10
80.78042668336393
 20
-120.1508056340248
 10
80.51377629280559
 20
-120.1508056340248
 10
80.26004501031694
 20
-120.0133463241633
 10
80.26004501031694
 20
-119.6641858967333
 10
80.26004501031694
 20
-119.4082153021792
 10
80.4016384347607
 20
-119.3131306667863
 10
80.50757512093213
 20
-119.2516357123746
 10
80.38269040959183
 20
-119.1925523248026
 10
80.3065537993678
 20
-119.0781751546923
 10
80.3065537993678
 20
-118.9174614503054
 10
80.3065537993678
 20
-118.6423705758082
 10
80.50533580886673
 20
-118.5069783232378
 10
80.78042668336393
 20
-118.5069783232378
 10
81.06395804179999
 20
-118.5069783232378
 10
81.25429956736004
 20
-118.6509833145213
 10
81.25429956736004
 20
-118.9174614503054
 10
81.25429956736004
 20
-119.0781751546923
 10
81.17592364507061
 20
-119.1925523248026
 10
81.05121118850457
 20
-119.2516357123746
 10
81.140094652024
 20
-119.302450870782
 10
81.29874129911977
 20
-119.3977077609492
 10
81.29874129911977
 20
-119.660051782151
 10
81.29874129911977
 20
-120.0343614066234
 10
81.01951631004026
 20
-120.1508056340248
 10
80.78042668336393
 20
-120.1508056340248
 97
        0
 97
        0
 92
        1
 93
        1
 72
     4
 94
        3
 73
     0
 74
     1
 95
       17
 96
       13
 40
0.0
 40
0.0
 40
0.0
 40
0.0
 40
1.0
 40
1.0
 40
1.0
 40
2.0
 40
2.0
 40
2.0
 40
3.0
 40
3.0
 40
3.0
 40
4.0
 40
4.0
 40
4.0
 40
4.0
 10
80.78042668336393
 20
-119.3596394558372
 10
80.63659394685475
 20
-119.3596394558372
 10
80.48414847163244
 20
-119.4462836072912
 10
80.48414847163244
 20
-119.6493719861467
 10
80.48414847163244
 20
-119.8546996770676
 10
80.6111002402639
 20
-119.9561577391082
 10
80.78042668336393
 20
-119.9561577391082
 10
80.96663409434169
 20
-119.9561577391082
 10
81.07653264032115
 20
-119.8335123398333
 10
81.07653264032115
 20
-119.6557454127944
 10
81.07653264032115
 20
-119.4337090087701
 10
80.9137518786431
 20
-119.3596394558372
 10
80.78042668336393
 20
-119.3596394558372
 97
        0
 97
        0
 92
        1
 93
        1
 72
     4
 94
        3
 73
     0
 74
     1
 95
       17
 96
       13
 40
0.0
 40
0.0
 40
0.0
 40
0.0
 40
1.0
 40
1.0
 40
1.0
 40
2.0
 40
2.0
 40
2.0
 40
3.0
 40
3.0
 40
3.0
 40
4.0
 40
4.0
 40
4.0
 40
4.0
 10
80.78042668336393
 20
-118.6995591608633
 10
80.61540660962046
 20
-118.6995591608633
 10
80.53082951545757
 20
-118.7948160510305
 10
80.53082951545757
 20
-118.9302083036008
 10
80.53082951545757
 20
-119.0528537028757
 10
80.60265975632504
 20
-119.1713649875683
 10
80.78042668336393
 20
-119.1713649875683
 10
80.95802135562856
 20
-119.1713649875683
 10
81.03002385127027
 20
-119.0528537028757
 10
81.03002385127027
 20
-118.9302083036008
 10
81.03002385127027
 20
-118.7948160510305
 10
80.94320744504198
 20
-118.6995591608633
 10
80.78042668336393
 20
-118.6995591608633
 97
        0
 97
        0
 75
     2
 76
     1
 98
        0
  0
POLYLINE
  5
F9
330
F1
100
AcDbEntity
  8
_U+30EC_U+30A4_U+30E4_U+30FC 1
370
     0
100
AcDb2dPolyline
 66
     1
 10
0.0
 20
0.0
 30
0.0
  0
VERTEX
  5
FA
330
F9
100
AcDbEntity
  8
_U+30EC_U+30A4_U+30E4_U+30FC 1
370
     0
100
AcDbVertex
100
AcDb2dVertex
 10
81.5171603528846
 20
-120.0999904756174
 30
0.0
  0
VERTEX
  5
FB
330
F9
100
AcDbEntity
  8
_U+30EC_U+30A4_U+30E4_U+30FC 1
370
     0
100
AcDbVertex
100
AcDb2dVertex
 10
81.5171603528846
 20
-119.8483262504199
 30
0.0
  0
VERTEX
  5
FC
330
F9
100
AcDbEntity
  8
_U+30EC_U+30A4_U+30E4_U+30FC 1
370
     0
100
AcDbVertex
100
AcDb2dVertex
 10
81.76899683285636
 20
-119.8483262504199
 30
0.0
  0
VERTEX
  5
FD
330
F9
100
AcDbEntity
  8
_U+30EC_U+30A4_U+30E4_U+30FC 1
370
     0
100
AcDbVertex
100
AcDb2dVertex
 10
81.76899683285636
 20
-120.0999904756174
 30
0.0
  0
VERTEX
  5
FE
330
F9
100
AcDbEntity
  8
_U+30EC_U+30A4_U+30E4_U+30FC 1
370
     0
100
AcDbVertex
100
AcDb2dVertex
 10
81.5171603528846
 20
-120.0999904756174
 30
0.0
  0
SEQEND
  5
FF
330
F9
100
AcDbEntity
  8
_U+30EC_U+30A4_U+30E4_U+30FC 1
370
     0
  0
HATCH
  5
100
330
F1
100
AcDbEntity
  8
_U+30EC_U+30A4_U+30E4_U+30FC 1
 62
   179
420
  2234388
100
AcDbHatch
 10
0.0
 20
0.0
 30
0.0
210
0.0
220
0.0
230
1.0
  2
SOLID
 70
     1
 71
     0
 91
        1
 92
        1
 93
        4
 72
     1
 10
81.5171603528846
 20
-120.0999904756174
 11
81.5171603528846
 21
-119.8483262504199
 72
     1
 10
81.5171603528846
 20
-119.8483262504199
 11
81.76899683285636
 21
-119.8483262504199
 72
     1
 10
81.76899683285636
 20
-119.8483262504199
 11
81.76899683285636
 21
-120.0999904756174
 72
     1
 10
81.76899683285636
 20
-120.0999904756174
 11
81.5171603528846
 21
-120.0999904756174
 97
        0
 75
     2
 76
     1
 98
        0
  0
SPLINE
  5
101
330
F1
100
AcDbEntity
  8
_U+30EC_U+30A4_U+30E4_U+30FC 1
370
     0
100
AcDbSpline
210
0.0
220
0.0
230
1.0
 70
    11
 71
     3
 72
    53
 73
    49
 74
     0
 42
0.0000000001
 43
0.0000000001
 12
1.0
 22
0.0
 32
0.0
 13
1.0
 23
0.0
 33
0.0
 40
0.0
 40
0.0
 40
0.0
 40
0.0
 40
1.0
 40
1.0
 40
1.0
 40
2.0
 40
2.0
 40
2.0
 40
3.0
 40
3.0
 40
3.0
 40
4.0
 40
4.0
 40
4.0
 40
5.0
 40
5.0
 40
5.0
 40
6.0
 40
6.0
 40
6.0
 40
7.0
 40
7.0
 40
7.0
 40
8.0
 40
8.0
 40
8.0
 40
9.0
 40
9.0
 40
9.0
 40
10.0
 40
10.0
 40
10.0
 40
11.0
 40
11.0
 40
11.0
 40
12.0
 40
12.0
 40
12.0
 40
13.0
 40
13.0
 40
13.0
 40
14.0
 40
14.0
 40
14.0
 40
15.0
 40
15.0
 40
15.0
 40
16.0
 40
16.0
 40
16.0
 40
16.0
 10
82.48643796765964
 20
-120.1508056340248
 30
0.0
 10
82.40806204537022
 20
-120.1508056340248
 30
0.0
 10
82.30660398332961
 20
-120.1339246661471
 30
0.0
 10
82.20497366651473
 20
-120.0703626544442
 30
0.0
 10
82.0315131088324
 20
-119.9604641084647
 30
0.0
 10
82.01049802637237
 20
-119.8292059704767
 30
0.0
 10
81.99137774642924
 20
-119.7213744817884
 30
0.0
 10
81.99137774642924
 20
-119.7213744817884
 30
0.0
 10
82.21358640522786
 20
-119.7213744817884
 30
0.0
 10
82.21358640522786
 20
-119.7213744817884
 30
0.0
 10
82.26853567821759
 20
-119.9201564912873
 30
0.0
 10
82.39548744684905
 20
-119.9497843124605
 30
0.0
 10
82.4885050249508
 20
-119.9497843124605
 30
0.0
 10
82.62820364687768
 20
-119.9497843124605
 30
0.0
 10
82.78047686732572
 20
-119.850393307711
 30
0.0
 10
82.78047686732572
 20
-119.6176771076824
 30
0.0
 10
82.78047686732572
 20
-119.3617065131283
 30
0.0
 10
82.60064288299567
 20
-119.291943329552
 30
0.0
 10
82.48006454101193
 20
-119.291943329552
 30
0.0
 10
82.44836966254763
 20
-119.291943329552
 30
0.0
 10
82.30660398332961
 20
-119.291943329552
 30
0.0
 10
82.21772051981016
 20
-119.4209621554746
 30
0.0
 10
82.21772051981016
 20
-119.4209621554746
 30
0.0
 10
82.04219290483668
 20
-119.4018418755315
 30
0.0
 10
82.04219290483668
 20
-119.4018418755315
 30
0.0
 10
82.04219290483668
 20
-119.4018418755315
 30
0.0
 10
82.16277124682043
 20
-118.5557264243541
 30
0.0
 10
82.16277124682043
 20
-118.5557264243541
 30
0.0
 10
82.16277124682043
 20
-118.5557264243541
 30
0.0
 10
82.94119057171262
 20
-118.5557264243541
 30
0.0
 10
82.94119057171262
 20
-118.5557264243541
 30
0.0
 10
82.94119057171262
 20
-118.5557264243541
 30
0.0
 10
82.94119057171262
 20
-118.7503743192707
 30
0.0
 10
82.94119057171262
 20
-118.7503743192707
 30
0.0
 10
82.94119057171262
 20
-118.7503743192707
 30
0.0
 10
82.32555200849848
 20
-118.7503743192707
 30
0.0
 10
82.32555200849848
 20
-118.7503743192707
 30
0.0
 10
82.32555200849848
 20
-118.7503743192707
 30
0.0
 10
82.26009519427873
 20
-119.1734320448594
 30
0.0
 10
82.26009519427873
 20
-119.1734320448594
 30
0.0
 10
82.32141789391618
 20
-119.139670109104
 30
0.0
 10
82.40392793078792
 20
-119.0993624919266
 30
0.0
 10
82.5224392154805
 20
-119.0993624919266
 30
0.0
 10
82.77617049796916
 20
-119.0993624919266
 30
0.0
 10
83.01319306735435
 20
-119.2855699029043
 30
0.0
 10
83.01319306735435
 20
-119.5987290825135
 30
0.0
 10
83.01319306735435
 20
-119.916022376705
 30
0.0
 10
82.78891735126459
 20
-120.1508056340248
 30
0.0
 10
82.48643796765964
 20
-120.1508056340248
 30
0.0
  0
HATCH
  5
102
330
F1
100
AcDbEntity
  8
_U+30EC_U+30A4_U+30E4_U+30FC 1
 62
   179
420
  2234388
100
AcDbHatch
 10
0.0
 20
0.0
 30
0.0
210
0.0
220
0.0
230
1.0
  2
SOLID
 70
     1
 71
     0
 91
        1
 92
        1
 93
        1
 72
     4
 94
        3
 73
     0
 74
     1
 95
       53
 96
       49
 40
0.0
 40
0.0
 40
0.0
 40
0.0
 40
1.0
 40
1.0
 40
1.0
 40
2.0
 40
2.0
 40
2.0
 40
3.0
 40
3.0
 40
3.0
 40
4.0
 40
4.0
 40
4.0
 40
5.0
 40
5.0
 40
5.0
 40
6.0
 40
6.0
 40
6.0
 40
7.0
 40
7.0
 40
7.0
 40
8.0
 40
8.0
 40
8.0
 40
9.0
 40
9.0
 40
9.0
 40
10.0
 40
10.0
 40
10.0
 40
11.0
 40
11.0
 40
11.0
 40
12.0
 40
12.0
 40
12.0
 40
13.0
 40
13.0
 40
13.0
 40
14.0
 40
14.0
 40
14.0
 40
15.0
 40
15.0
 40
15.0
 40
16.0
 40
16.0
 40
16.0
 40
16.0
 10
82.48643796765964
 20
-120.1508056340248
 10
82.40806204537022
 20
-120.1508056340248
 10
82.30660398332961
 20
-120.1339246661471
 10
82.20497366651473
 20
-120.0703626544442
 10
82.0315131088324
 20
-119.9604641084647
 10
82.01049802637237
 20
-119.8292059704767
 10
81.99137774642924
 20
-119.7213744817884
 10
81.99137774642924
 20
-119.7213744817884
 10
82.21358640522786
 20
-119.7213744817884
 10
82.21358640522786
 20
-119.7213744817884
 10
82.26853567821759
 20
-119.9201564912873
 10
82.39548744684905
 20
-119.9497843124605
 10
82.4885050249508
 20
-119.9497843124605
 10
82.62820364687768
 20
-119.9497843124605
 10
82.78047686732572
 20
-119.850393307711
 10
82.78047686732572
 20
-119.6176771076824
 10
82.78047686732572
 20
-119.3617065131283
 10
82.60064288299567
 20
-119.291943329552
 10
82.48006454101193
 20
-119.291943329552
 10
82.44836966254763
 20
-119.291943329552
 10
82.30660398332961
 20
-119.291943329552
 10
82.21772051981016
 20
-119.4209621554746
 10
82.21772051981016
 20
-119.4209621554746
 10
82.04219290483668
 20
-119.4018418755315
 10
82.04219290483668
 20
-119.4018418755315
 10
82.04219290483668
 20
-119.4018418755315
 10
82.16277124682043
 20
-118.5557264243541
 10
82.16277124682043
 20
-118.5557264243541
 10
82.16277124682043
 20
-118.5557264243541
 10
82.94119057171262
 20
-118.5557264243541
 10
82.94119057171262
 20
-118.5557264243541
 10
82.94119057171262
 20
-118.5557264243541
 10
82.94119057171262
 20
-118.7503743192707
 10
82.94119057171262
 20
-118.7503743192707
 10
82.94119057171262
 20
-118.7503743192707
 10
82.32555200849848
 20
-118.7503743192707
 10
82.32555200849848
 20
-118.7503743192707
 10
82.32555200849848
 20
-118.7503743192707
 10
82.26009519427873
 20
-119.1734320448594
 10
82.26009519427873
 20
-119.1734320448594
 10
82.32141789391618
 20
-119.139670109104
 10
82.40392793078792
 20
-119.0993624919266
 10
82.5224392154805
 20
-119.0993624919266
 10
82.77617049796916
 20
-119.0993624919266
 10
83.01319306735435
 20
-119.2855699029043
 10
83.01319306735435
 20
-119.5987290825135
 10
83.01319306735435
 20
-119.916022376705
 10
82.78891735126459
 20
-120.1508056340248
 10
82.48643796765964
 20
-120.1508056340248
 97
        0
 97
        0
 75
     2
 76
     1
 98
        0
  0
ENDBLK
  5
F4
330
F1
100
AcDbEntity
  8
0
100
AcDbBlockEnd
  0
BLOCK
  5
114
330
112
100
AcDbEntity
  8
0
100
AcDbBlockBegin
  2
block 6
 70
     0
 10
0.0
 20
0.0
 30
0.0
  3
block 6
  1

  0
SPLINE
  5
116
330
112
100
AcDbEntity
  8
_U+30EC_U+30A4_U+30E4_U+30FC 1
370
     0
100
AcDbSpline
210
0.0
220
0.0
230
1.0
 70
    11
 71
     3
 72
    26
 73
    22
 74
     0
 42
0.0000000001
 43
0.0000000001
 12
1.0
 22
0.0
 32
0.0
 13
1.0
 23
0.0
 33
0.0
 40
0.0
 40
0.0
 40
0.0
 40
0.0
 40
1.0
 40
1.0
 40
1.0
 40
2.0
 40
2.0
 40
2.0
 40
3.0
 40
3.0
 40
3.0
 40
4.0
 40
4.0
 40
4.0
 40
5.0
 40
5.0
 40
5.0
 40
6.0
 40
6.0
 40
6.0
 40
7.0
 40
7.0
 40
7.0
 40
7.0
 10
73.34453258800067
 20
-120.0999904756174
 30
0.0
 10
73.34453258800067
 20
-120.0999904756174
 30
0.0
 10
73.34453258800067
 20
-118.9956651178205
 30
0.0
 10
73.34453258800067
 20
-118.9956651178205
 30
0.0
 10
73.34453258800067
 20
-118.9956651178205
 30
0.0
 10
73.01449244051373
 20
-118.9956651178205
 30
0.0
 10
73.01449244051373
 20
-118.9956651178205
 30
0.0
 10
73.01449244051373
 20
-118.9956651178205
 30
0.0
 10
73.01449244051373
 20
-118.8476982667291
 30
0.0
 10
73.01449244051373
 20
-118.8476982667291
 30
0.0
 10
73.34659964529183
 20
-118.8328843561425
 30
0.0
 10
73.3931084343427
 20
-118.6699313396902
 30
0.0
 10
73.42273625551584
 20
-118.5557264243541
 30
0.0
 10
73.42273625551584
 20
-118.5557264243541
 30
0.0
 10
73.56863604931618
 20
-118.5557264243541
 30
0.0
 10
73.56863604931618
 20
-118.5557264243541
 30
0.0
 10
73.56863604931618
 20
-118.5557264243541
 30
0.0
 10
73.56863604931618
 20
-120.0999904756174
 30
0.0
 10
73.56863604931618
 20
-120.0999904756174
 30
0.0
 10
73.56863604931618
 20
-120.0999904756174
 30
0.0
 10
73.34453258800067
 20
-120.0999904756174
 30
0.0
 10
73.34453258800067
 20
-120.0999904756174
 30
0.0
  0
HATCH
  5
117
330
112
100
AcDbEntity
  8
_U+30EC_U+30A4_U+30E4_U+30FC 1
 62
   179
420
  2234388
100
AcDbHatch
 10
0.0
 20
0.0
 30
0.0
210
0.0
220
0.0
230
1.0
  2
SOLID
 70
     1
 71
     0
 91
        1
 92
        1
 93
        1
 72
     4
 94
        3
 73
     0
 74
     1
 95
       26
 96
       22
 40
0.0
 40
0.0
 40
0.0
 40
0.0
 40
1.0
 40
1.0
 40
1.0
 40
2.0
 40
2.0
 40
2.0
 40
3.0
 40
3.0
 40
3.0
 40
4.0
 40
4.0
 40
4.0
 40
5.0
 40
5.0
 40
5.0
 40
6.0
 40
6.0
 40
6.0
 40
7.0
 40
7.0
 40
7.0
 40
7.0
 10
73.34453258800067
 20
-120.0999904756174
 10
73.34453258800067
 20
-120.0999904756174
 10
73.34453258800067
 20
-118.9956651178205
 10
73.34453258800067
 20
-118.9956651178205
 10
73.34453258800067
 20
-118.9956651178205
 10
73.01449244051373
 20
-118.9956651178205
 10
73.01449244051373
 20
-118.9956651178205
 10
73.01449244051373
 20
-118.9956651178205
 10
73.01449244051373
 20
-118.8476982667291
 10
73.01449244051373
 20
-118.8476982667291
 10
73.34659964529183
 20
-118.8328843561425
 10
73.3931084343427
 20
-118.6699313396902
 10
73.42273625551584
 20
-118.5557264243541
 10
73.42273625551584
 20
-118.5557264243541
 10
73.56863604931618
 20
-118.5557264243541
 10
73.56863604931618
 20
-118.5557264243541
 10
73.56863604931618
 20
-118.5557264243541
 10
73.56863604931618
 20
-120.0999904756174
 10
73.56863604931618
 20
-120.0999904756174
 10
73.56863604931618
 20
-120.0999904756174
 10
73.34453258800067
 20
-120.0999904756174
 10
73.34453258800067
 20
-120.0999904756174
 97
        0
 97
        0
 75
     2
 76
     1
 98
        0
  0
ENDBLK
  5
115
330
112
100
AcDbEntity
  8
0
100
AcDbBlockEnd
  0
BLOCK
  5
125
330
123
100
AcDbEntity
  8
0
100
AcDbBlockBegin
  2
block 7
 70
     0
 10
0.0
 20
0.0
 30
0.0
  3
block 7
  1

  0
SPLINE
  5
127
330
123
100
AcDbEntity
  8
_U+30EC_U+30A4_U+30E4_U+30FC 1
370
     0
100
AcDbSpline
210
0.0
220
0.0
230
1.0
 70
    11
 71
     3
 72
    26
 73
    22
 74
     0
 42
0.0000000001
 43
0.0000000001
 12
1.0
 22
0.0
 32
0.0
 13
1.0
 23
0.0
 33
0.0
 40
0.0
 40
0.0
 40
0.0
 40
0.0
 40
1.0
 40
1.0
 40
1.0
 40
2.0
 40
2.0
 40
2.0
 40
3.0
 40
3.0
 40
3.0
 40
4.0
 40
4.0
 40
4.0
 40
5.0
 40
5.0
 40
5.0
 40
6.0
 40
6.0
 40
6.0
 40
7.0
 40
7.0
 40
7.0
 40
7.0
 10
99.64318573897809
 20
-148.0998317772112
 30
0.0
 10
99.64318573897809
 20
-148.0998317772112
 30
0.0
 10
99.64318573897809
 20
-146.9953341646401
 30
0.0
 10
99.64318573897809
 20
-146.9953341646401
 30
0.0
 10
99.64318573897809
 20
-146.9953341646401
 30
0.0
 10
99.31314559149116
 20
-146.9953341646401
 30
0.0
 10
99.31314559149116
 20
-146.9953341646401
 30
0.0
 10
99.31314559149116
 20
-146.9953341646401
 30
0.0
 10
99.31314559149116
 20
-146.8471950587743
 30
0.0
 10
99.31314559149116
 20
-146.8471950587743
 30
0.0
 10
99.64525279626925
 20
-146.8323811481877
 30
0.0
 10
99.69176158532012
 20
-146.6697726412839
 30
0.0
 10
99.72138940649327
 20
-146.5553954711737
 30
0.0
 10
99.72138940649327
 20
-146.5553954711737
 30
0.0
 10
99.86746145506787
 20
-146.5553954711737
 30
0.0
 10
99.86746145506787
 20
-146.5553954711737
 30
0.0
 10
99.86746145506787
 20
-146.5553954711737
 30
0.0
 10
99.86746145506787
 20
-148.0998317772112
 30
0.0
 10
99.86746145506787
 20
-148.0998317772112
 30
0.0
 10
99.86746145506787
 20
-148.0998317772112
 30
0.0
 10
99.64318573897809
 20
-148.0998317772112
 30
0.0
 10
99.64318573897809
 20
-148.0998317772112
 30
0.0
  0
HATCH
  5
128
330
123
100
AcDbEntity
  8
_U+30EC_U+30A4_U+30E4_U+30FC 1
 62
   179
420
  2234388
100
AcDbHatch
 10
0.0
 20
0.0
 30
0.0
210
0.0
220
0.0
230
1.0
  2
SOLID
 70
     1
 71
     0
 91
        1
 92
        1
 93
        1
 72
     4
 94
        3
 73
     0
 74
     1
 95
       26
 96
       22
 40
0.0
 40
0.0
 40
0.0
 40
0.0
 40
1.0
 40
1.0
 40
1.0
 40
2.0
 40
2.0
 40
2.0
 40
3.0
 40
3.0
 40
3.0
 40
4.0
 40
4.0
 40
4.0
 40
5.0
 40
5.0
 40
5.0
 40
6.0
 40
6.0
 40
6.0
 40
7.0
 40
7.0
 40
7.0
 40
7.0
 10
99.64318573897809
 20
-148.0998317772112
 10
99.64318573897809
 20
-148.0998317772112
 10
99.64318573897809
 20
-146.9953341646401
 10
99.64318573897809
 20
-146.9953341646401
 10
99.64318573897809
 20
-146.9953341646401
 10
99.31314559149116
 20
-146.9953341646401
 10
99.31314559149116
 20
-146.9953341646401
 10
99.31314559149116
 20
-146.9953341646401
 10
99.31314559149116
 20
-146.8471950587743
 10
99.31314559149116
 20
-146.8471950587743
 10
99.64525279626925
 20
-146.8323811481877
 10
99.69176158532012
 20
-146.6697726412839
 10
99.72138940649327
 20
-146.5553954711737
 10
99.72138940649327
 20
-146.5553954711737
 10
99.86746145506787
 20
-146.5553954711737
 10
99.86746145506787
 20
-146.5553954711737
 10
99.86746145506787
 20
-146.5553954711737
 10
99.86746145506787
 20
-148.0998317772112
 10
99.86746145506787
 20
-148.0998317772112
 10
99.86746145506787
 20
-148.0998317772112
 10
99.64318573897809
 20
-148.0998317772112
 10
99.64318573897809
 20
-148.0998317772112
 97
        0
 97
        0
 75
     2
 76
     1
 98
        0
  0
SPLINE
  5
129
330
123
100
AcDbEntity
  8
_U+30EC_U+30A4_U+30E4_U+30FC 1
370
     0
100
AcDbSpline
210
0.0
220
0.0
230
1.0
 70
    11
 71
     3
 72
    44
 73
    40
 74
     0
 42
0.0000000001
 43
0.0000000001
 12
1.0
 22
0.0
 32
0.0
 13
1.0
 23
0.0
 33
0.0
 40
0.0
 40
0.0
 40
0.0
 40
0.0
 40
1.0
 40
1.0
 40
1.0
 40
2.0
 40
2.0
 40
2.0
 40
3.0
 40
3.0
 40
3.0
 40
4.0
 40
4.0
 40
4.0
 40
5.0
 40
5.0
 40
5.0
 40
6.0
 40
6.0
 40
6.0
 40
7.0
 40
7.0
 40
7.0
 40
8.0
 40
8.0
 40
8.0
 40
9.0
 40
9.0
 40
9.0
 40
10.0
 40
10.0
 40
10.0
 40
11.0
 40
11.0
 40
11.0
 40
12.0
 40
12.0
 40
12.0
 40
13.0
 40
13.0
 40
13.0
 40
13.0
 10
100.9616237811832
 20
-147.5179551497525
 30
0.0
 10
100.7438937465154
 20
-147.6764295420739
 30
0.0
 10
100.6505316588651
 20
-147.7504990950068
 30
0.0
 10
100.6019558125231
 20
-147.8945040862903
 30
0.0
 10
100.6019558125231
 20
-147.8945040862903
 30
0.0
 10
101.3805473921896
 20
-147.8945040862903
 30
0.0
 10
101.3805473921896
 20
-147.8945040862903
 30
0.0
 10
101.3805473921896
 20
-147.8945040862903
 30
0.0
 10
101.3805473921896
 20
-148.0998317772112
 30
0.0
 10
101.3805473921896
 20
-148.0998317772112
 30
0.0
 10
101.3805473921896
 20
-148.0998317772112
 30
0.0
 10
100.352530899391
 20
-148.0998317772112
 30
0.0
 10
100.352530899391
 20
-148.0998317772112
 30
0.0
 10
100.3842257778553
 20
-147.7422308658422
 30
0.0
 10
100.4496825920751
 20
-147.6640271983271
 30
0.0
 10
100.834844267326
 20
-147.3656819293044
 30
0.0
 10
101.0908148618801
 20
-147.1668999198055
 30
0.0
 10
101.1562716760998
 20
-147.0990315387461
 30
0.0
 10
101.1562716760998
 20
-146.9615722288846
 30
0.0
 10
101.1562716760998
 20
-146.843060944192
 30
0.0
 10
101.0842691804581
 20
-146.711802806204
 30
0.0
 10
100.8875542282503
 20
-146.711802806204
 30
0.0
 10
100.627449519114
 20
-146.711802806204
 30
0.0
 10
100.6188367804009
 20
-146.9426242037158
 30
0.0
 10
100.6147026658186
 20
-147.0587239215687
 30
0.0
 10
100.6147026658186
 20
-147.0587239215687
 30
0.0
 10
100.3904269497288
 20
-147.0587239215687
 30
0.0
 10
100.3904269497288
 20
-147.0587239215687
 30
0.0
 10
100.3990396884419
 20
-146.9319444077115
 30
0.0
 10
100.4093749748977
 20
-146.8199788044408
 30
0.0
 10
100.4899902092525
 20
-146.7014675197483
 30
0.0
 10
100.599888755232
 20
-146.5405815605871
 30
0.0
 10
100.7859239114355
 20
-146.5068196248316
 30
0.0
 10
100.9023681388369
 20
-146.5068196248316
 30
0.0
 10
101.1796983253995
 20
-146.5068196248316
 30
0.0
 10
101.386748564063
 20
-146.690787723744
 30
0.0
 10
101.386748564063
 20
-146.9636392861758
 30
0.0
 10
101.386748564063
 20
-147.1920491168478
 30
0.0
 10
101.2706488462101
 20
-147.2916123763715
 30
0.0
 10
100.9616237811832
 20
-147.5179551497525
 30
0.0
  0
HATCH
  5
12A
330
123
100
AcDbEntity
  8
_U+30EC_U+30A4_U+30E4_U+30FC 1
 62
   179
420
  2234388
100
AcDbHatch
 10
0.0
 20
0.0
 30
0.0
210
0.0
220
0.0
230
1.0
  2
SOLID
 70
     1
 71
     0
 91
        1
 92
        1
 93
        1
 72
     4
 94
        3
 73
     0
 74
     1
 95
       44
 96
       40
 40
0.0
 40
0.0
 40
0.0
 40
0.0
 40
1.0
 40
1.0
 40
1.0
 40
2.0
 40
2.0
 40
2.0
 40
3.0
 40
3.0
 40
3.0
 40
4.0
 40
4.0
 40
4.0
 40
5.0
 40
5.0
 40
5.0
 40
6.0
 40
6.0
 40
6.0
 40
7.0
 40
7.0
 40
7.0
 40
8.0
 40
8.0
 40
8.0
 40
9.0
 40
9.0
 40
9.0
 40
10.0
 40
10.0
 40
10.0
 40
11.0
 40
11.0
 40
11.0
 40
12.0
 40
12.0
 40
12.0
 40
13.0
 40
13.0
 40
13.0
 40
13.0
 10
100.9616237811832
 20
-147.5179551497525
 10
100.7438937465154
 20
-147.6764295420739
 10
100.6505316588651
 20
-147.7504990950068
 10
100.6019558125231
 20
-147.8945040862903
 10
100.6019558125231
 20
-147.8945040862903
 10
101.3805473921896
 20
-147.8945040862903
 10
101.3805473921896
 20
-147.8945040862903
 10
101.3805473921896
 20
-147.8945040862903
 10
101.3805473921896
 20
-148.0998317772112
 10
101.3805473921896
 20
-148.0998317772112
 10
101.3805473921896
 20
-148.0998317772112
 10
100.352530899391
 20
-148.0998317772112
 10
100.352530899391
 20
-148.0998317772112
 10
100.3842257778553
 20
-147.7422308658422
 10
100.4496825920751
 20
-147.6640271983271
 10
100.834844267326
 20
-147.3656819293044
 10
101.0908148618801
 20
-147.1668999198055
 10
101.1562716760998
 20
-147.0990315387461
 10
101.1562716760998
 20
-146.9615722288846
 10
101.1562716760998
 20
-146.843060944192
 10
101.0842691804581
 20
-146.711802806204
 10
100.8875542282503
 20
-146.711802806204
 10
100.627449519114
 20
-146.711802806204
 10
100.6188367804009
 20
-146.9426242037158
 10
100.6147026658186
 20
-147.0587239215687
 10
100.6147026658186
 20
-147.0587239215687
 10
100.3904269497288
 20
-147.0587239215687
 10
100.3904269497288
 20
-147.0587239215687
 10
100.3990396884419
 20
-146.9319444077115
 10
100.4093749748977
 20
-146.8199788044408
 10
100.4899902092525
 20
-146.7014675197483
 10
100.599888755232
 20
-146.5405815605871
 10
100.7859239114355
 20
-146.5068196248316
 10
100.9023681388369
 20
-146.5068196248316
 10
101.1796983253995
 20
-146.5068196248316
 10
101.386748564063
 20
-146.690787723744
 10
101.386748564063
 20
-146.9636392861758
 10
101.386748564063
 20
-147.1920491168478
 10
101.2706488462101
 20
-147.2916123763715
 10
100.9616237811832
 20
-147.5179551497525
 97
        0
 97
        0
 75
     2
 76
     1
 98
        0
  0
POLYLINE
  5
12B
330
123
100
AcDbEntity
  8
_U+30EC_U+30A4_U+30E4_U+30FC 1
370
     0
100
AcDb2dPolyline
 66
     1
 10
0.0
 20
0.0
 30
0.0
  0
VERTEX
  5
12C
330
12B
100
AcDbEntity
  8
_U+30EC_U+30A4_U+30E4_U+30FC 1
370
     0
100
AcDbVertex
100
AcDb2dVertex
 10
101.6055121273764
 20
-148.0998317772112
 30
0.0
  0
VERTEX
  5
12D
330
12B
100
AcDbEntity
  8
_U+30EC_U+30A4_U+30E4_U+30FC 1
370
     0
100
AcDbVertex
100
AcDb2dVertex
 10
101.6055121273764
 20
-147.8479952972394
 30
0.0
  0
VERTEX
  5
12E
330
12B
100
AcDbEntity
  8
_U+30EC_U+30A4_U+30E4_U+30FC 1
370
     0
100
AcDbVertex
100
AcDb2dVertex
 10
101.8570040977996
 20
-147.8479952972394
 30
0.0
  0
VERTEX
  5
12F
330
12B
100
AcDbEntity
  8
_U+30EC_U+30A4_U+30E4_U+30FC 1
370
     0
100
AcDbVertex
100
AcDb2dVertex
 10
101.8570040977996
 20
-148.0998317772112
 30
0.0
  0
VERTEX
  5
130
330
12B
100
AcDbEntity
  8
_U+30EC_U+30A4_U+30E4_U+30FC 1
370
     0
100
AcDbVertex
100
AcDb2dVertex
 10
101.6055121273764
 20
-148.0998317772112
 30
0.0
  0
SEQEND
  5
131
330
12B
100
AcDbEntity
  8
_U+30EC_U+30A4_U+30E4_U+30FC 1
370
     0
  0
HATCH
  5
132
330
123
100
AcDbEntity
  8
_U+30EC_U+30A4_U+30E4_U+30FC 1
 62
   179
420
  2234388
100
AcDbHatch
 10
0.0
 20
0.0
 30
0.0
210
0.0
220
0.0
230
1.0
  2
SOLID
 70
     1
 71
     0
 91
        1
 92
        1
 93
        4
 72
     1
 10
101.6055121273764
 20
-148.0998317772112
 11
101.6055121273764
 21
-147.8479952972394
 72
     1
 10
101.6055121273764
 20
-147.8479952972394
 11
101.8570040977996
 21
-147.8479952972394
 72
     1
 10
101.8570040977996
 20
-147.8479952972394
 11
101.8570040977996
 21
-148.0998317772112
 72
     1
 10
101.8570040977996
 20
-148.0998317772112
 11
101.6055121273764
 21
-148.0998317772112
 97
        0
 75
     2
 76
     1
 98
        0
  0
SPLINE
  5
133
330
123
100
AcDbEntity
  8
_U+30EC_U+30A4_U+30E4_U+30FC 1
370
     0
100
AcDbSpline
210
0.0
220
0.0
230
1.0
 70
    11
 71
     3
 72
    53
 73
    49
 74
     0
 42
0.0000000001
 43
0.0000000001
 12
1.0
 22
0.0
 32
0.0
 13
1.0
 23
0.0
 33
0.0
 40
0.0
 40
0.0
 40
0.0
 40
0.0
 40
1.0
 40
1.0
 40
1.0
 40
2.0
 40
2.0
 40
2.0
 40
3.0
 40
3.0
 40
3.0
 40
4.0
 40
4.0
 40
4.0
 40
5.0
 40
5.0
 40
5.0
 40
6.0
 40
6.0
 40
6.0
 40
7.0
 40
7.0
 40
7.0
 40
8.0
 40
8.0
 40
8.0
 40
9.0
 40
9.0
 40
9.0
 40
10.0
 40
10.0
 40
10.0
 40
11.0
 40
11.0
 40
11.0
 40
12.0
 40
12.0
 40
12.0
 40
13.0
 40
13.0
 40
13.0
 40
14.0
 40
14.0
 40
14.0
 40
15.0
 40
15.0
 40
15.0
 40
16.0
 40
16.0
 40
16.0
 40
16.0
 10
102.5746174873772
 20
-148.1504746808443
 30
0.0
 10
102.496413819862
 20
-148.1504746808443
 30
0.0
 10
102.3947835030471
 20
-148.1335937129666
 30
0.0
 10
102.2931531862323
 20
-148.070203956038
 30
0.0
 10
102.1198648833242
 20
-147.95996090051
 30
0.0
 10
102.0985052913157
 20
-147.8290472720705
 30
0.0
 10
102.0795572661468
 20
-147.7208712738337
 30
0.0
 10
102.0795572661468
 20
-147.7208712738337
 30
0.0
 10
102.3017659249454
 20
-147.7208712738337
 30
0.0
 10
102.3017659249454
 20
-147.7208712738337
 30
0.0
 10
102.3565429431609
 20
-147.9199977928811
 30
0.0
 10
102.4836669665666
 20
-147.9496256140543
 30
0.0
 10
102.5766845446683
 20
-147.9496256140543
 30
0.0
 10
102.716210911821
 20
-147.9496256140543
 30
0.0
 10
102.8688286418175
 20
-147.8500623545305
 30
0.0
 10
102.8688286418175
 20
-147.6175184092762
 30
0.0
 10
102.8688286418175
 20
-147.3615478147221
 30
0.0
 10
102.6889946574875
 20
-147.2916123763715
 30
0.0
 10
102.5684163155037
 20
-147.2916123763715
 30
0.0
 10
102.5363769274909
 20
-147.2916123763715
 30
0.0
 10
102.3947835030471
 20
-147.2916123763715
 30
0.0
 10
102.3059000395277
 20
-147.4204589475199
 30
0.0
 10
102.3059000395277
 20
-147.4204589475199
 30
0.0
 10
102.13020016978
 20
-147.401510922351
 30
0.0
 10
102.13020016978
 20
-147.401510922351
 30
0.0
 10
102.13020016978
 20
-147.401510922351
 30
0.0
 10
102.2507785117637
 20
-146.5553954711737
 30
0.0
 10
102.2507785117637
 20
-146.5553954711737
 30
0.0
 10
102.2507785117637
 20
-146.5553954711737
 30
0.0
 10
103.0293700914302
 20
-146.5553954711737
 30
0.0
 10
103.0293700914302
 20
-146.5553954711737
 30
0.0
 10
103.0293700914302
 20
-146.5553954711737
 30
0.0
 10
103.0293700914302
 20
-146.7500433660903
 30
0.0
 10
103.0293700914302
 20
-146.7500433660903
 30
0.0
 10
103.0293700914302
 20
-146.7500433660903
 30
0.0
 10
102.413731528216
 20
-146.7500433660903
 30
0.0
 10
102.413731528216
 20
-146.7500433660903
 30
0.0
 10
102.413731528216
 20
-146.7500433660903
 30
0.0
 10
102.3482747139963
 20
-147.1731010916789
 30
0.0
 10
102.3482747139963
 20
-147.1731010916789
 30
0.0
 10
102.4095974136337
 20
-147.1393391559235
 30
0.0
 10
102.4919351957312
 20
-147.0990315387461
 30
0.0
 10
102.6104464804238
 20
-147.0990315387461
 30
0.0
 10
102.8643500176867
 20
-147.0990315387461
 30
0.0
 10
103.1013725870719
 20
-147.2850666949496
 30
0.0
 10
103.1013725870719
 20
-147.5982258745588
 30
0.0
 10
103.1013725870719
 20
-147.9155191687503
 30
0.0
 10
102.8770968709821
 20
-148.1504746808443
 30
0.0
 10
102.5746174873772
 20
-148.1504746808443
 30
0.0
  0
HATCH
  5
134
330
123
100
AcDbEntity
  8
_U+30EC_U+30A4_U+30E4_U+30FC 1
 62
   179
420
  2234388
100
AcDbHatch
 10
0.0
 20
0.0
 30
0.0
210
0.0
220
0.0
230
1.0
  2
SOLID
 70
     1
 71
     0
 91
        1
 92
        1
 93
        1
 72
     4
 94
        3
 73
     0
 74
     1
 95
       53
 96
       49
 40
0.0
 40
0.0
 40
0.0
 40
0.0
 40
1.0
 40
1.0
 40
1.0
 40
2.0
 40
2.0
 40
2.0
 40
3.0
 40
3.0
 40
3.0
 40
4.0
 40
4.0
 40
4.0
 40
5.0
 40
5.0
 40
5.0
 40
6.0
 40
6.0
 40
6.0
 40
7.0
 40
7.0
 40
7.0
 40
8.0
 40
8.0
 40
8.0
 40
9.0
 40
9.0
 40
9.0
 40
10.0
 40
10.0
 40
10.0
 40
11.0
 40
11.0
 40
11.0
 40
12.0
 40
12.0
 40
12.0
 40
13.0
 40
13.0
 40
13.0
 40
14.0
 40
14.0
 40
14.0
 40
15.0
 40
15.0
 40
15.0
 40
16.0
 40
16.0
 40
16.0
 40
16.0
 10
102.5746174873772
 20
-148.1504746808443
 10
102.496413819862
 20
-148.1504746808443
 10
102.3947835030471
 20
-148.1335937129666
 10
102.2931531862323
 20
-148.070203956038
 10
102.1198648833242
 20
-147.95996090051
 10
102.0985052913157
 20
-147.8290472720705
 10
102.0795572661468
 20
-147.7208712738337
 10
102.0795572661468
 20
-147.7208712738337
 10
102.3017659249454
 20
-147.7208712738337
 10
102.3017659249454
 20
-147.7208712738337
 10
102.3565429431609
 20
-147.9199977928811
 10
102.4836669665666
 20
-147.9496256140543
 10
102.5766845446683
 20
-147.9496256140543
 10
102.716210911821
 20
-147.9496256140543
 10
102.8688286418175
 20
-147.8500623545305
 10
102.8688286418175
 20
-147.6175184092762
 10
102.8688286418175
 20
-147.3615478147221
 10
102.6889946574875
 20
-147.2916123763715
 10
102.5684163155037
 20
-147.2916123763715
 10
102.5363769274909
 20
-147.2916123763715
 10
102.3947835030471
 20
-147.2916123763715
 10
102.3059000395277
 20
-147.4204589475199
 10
102.3059000395277
 20
-147.4204589475199
 10
102.13020016978
 20
-147.401510922351
 10
102.13020016978
 20
-147.401510922351
 10
102.13020016978
 20
-147.401510922351
 10
102.2507785117637
 20
-146.5553954711737
 10
102.2507785117637
 20
-146.5553954711737
 10
102.2507785117637
 20
-146.5553954711737
 10
103.0293700914302
 20
-146.5553954711737
 10
103.0293700914302
 20
-146.5553954711737
 10
103.0293700914302
 20
-146.5553954711737
 10
103.0293700914302
 20
-146.7500433660903
 10
103.0293700914302
 20
-146.7500433660903
 10
103.0293700914302
 20
-146.7500433660903
 10
102.413731528216
 20
-146.7500433660903
 10
102.413731528216
 20
-146.7500433660903
 10
102.413731528216
 20
-146.7500433660903
 10
102.3482747139963
 20
-147.1731010916789
 10
102.3482747139963
 20
-147.1731010916789
 10
102.4095974136337
 20
-147.1393391559235
 10
102.4919351957312
 20
-147.0990315387461
 10
102.6104464804238
 20
-147.0990315387461
 10
102.8643500176867
 20
-147.0990315387461
 10
103.1013725870719
 20
-147.2850666949496
 10
103.1013725870719
 20
-147.5982258745588
 10
103.1013725870719
 20
-147.9155191687503
 10
102.8770968709821
 20
-148.1504746808443
 10
102.5746174873772
 20
-148.1504746808443
 97
        0
 97
        0
 75
     2
 76
     1
 98
        0
  0
ENDBLK
  5
126
330
123
100
AcDbEntity
  8
0
100
AcDbBlockEnd
  0
BLOCK
  5
146
330
144
100
AcDbEntity
  8
0
100
AcDbBlockBegin
  2
block 8
 70
     0
 10
0.0
 20
0.0
 30
0.0
  3
block 8
  1

  0
SPLINE
  5
148
330
144
100
AcDbEntity
  8
_U+30EC_U+30A4_U+30E4_U+30FC 1
370
     0
100
AcDbSpline
210
0.0
220
0.0
230
1.0
 70
    11
 71
     3
 72
    29
 73
    25
 74
     0
 42
0.0000000001
 43
0.0000000001
 12
1.0
 22
0.0
 32
0.0
 13
1.0
 23
0.0
 33
0.0
 40
0.0
 40
0.0
 40
0.0
 40
0.0
 40
1.0
 40
1.0
 40
1.0
 40
2.0
 40
2.0
 40
2.0
 40
3.0
 40
3.0
 40
3.0
 40
4.0
 40
4.0
 40
4.0
 40
5.0
 40
5.0
 40
5.0
 40
6.0
 40
6.0
 40
6.0
 40
7.0
 40
7.0
 40
7.0
 40
8.0
 40
8.0
 40
8.0
 40
8.0
 10
98.0711886690586
 20
-138.0852837111384
 30
0.0
 10
98.0711886690586
 20
-138.3519341016967
 30
0.0
 10
97.93372935919713
 20
-138.6054931294111
 30
0.0
 10
97.58474118654132
 20
-138.6054931294111
 30
0.0
 10
97.32877059198725
 20
-138.6054931294111
 30
0.0
 10
97.23334144704583
 20
-138.4638997049674
 30
0.0
 10
97.17201874740839
 20
-138.3581352735702
 30
0.0
 10
97.11276310506209
 20
-138.4828477301362
 30
0.0
 10
96.99873044450032
 20
-138.5589843403603
 30
0.0
 10
96.83784448533916
 20
-138.5589843403603
 30
0.0
 10
96.56292586561622
 20
-138.5589843403603
 30
0.0
 10
96.4275336130459
 20
-138.3602023308613
 30
0.0
 10
96.4275336130459
 20
-138.0852837111384
 30
0.0
 10
96.4275336130459
 20
-137.8017523527024
 30
0.0
 10
96.57119409478082
 20
-137.611238572368
 30
0.0
 10
96.83784448533916
 20
-137.611238572368
 30
0.0
 10
96.99873044450032
 20
-137.611238572368
 30
0.0
 10
97.11276310506209
 20
-137.6897867494317
 30
0.0
 10
97.17201874740839
 20
-137.8144992059978
 30
0.0
 10
97.22300616059009
 20
-137.7256157424783
 30
0.0
 10
97.31809079598298
 20
-137.5667968406083
 30
0.0
 10
97.5802625624105
 20
-137.5667968406083
 30
0.0
 10
97.95474444165716
 20
-137.5667968406083
 30
0.0
 10
98.0711886690586
 20
-137.8461940844621
 30
0.0
 10
98.0711886690586
 20
-138.0852837111384
 30
0.0
  0
SPLINE
  5
149
330
144
100
AcDbEntity
  8
_U+30EC_U+30A4_U+30E4_U+30FC 1
370
     0
100
AcDbSpline
210
0.0
220
0.0
230
1.0
 70
    11
 71
     3
 72
    17
 73
    13
 74
     0
 42
0.0000000001
 43
0.0000000001
 12
1.0
 22
0.0
 32
0.0
 13
1.0
 23
0.0
 33
0.0
 40
0.0
 40
0.0
 40
0.0
 40
0.0
 40
1.0
 40
1.0
 40
1.0
 40
2.0
 40
2.0
 40
2.0
 40
3.0
 40
3.0
 40
3.0
 40
4.0
 40
4.0
 40
4.0
 40
4.0
 10
96.61976994112284
 20
-138.0852837111384
 30
0.0
 10
96.61976994112284
 20
-138.2503037848819
 30
0.0
 10
96.71519908606426
 20
-138.3347086242705
 30
0.0
 10
96.85059133863457
 20
-138.3347086242705
 30
0.0
 10
96.97323673790947
 20
-138.3347086242705
 30
0.0
 10
97.09174802260206
 20
-138.2630506381773
 30
0.0
 10
97.09174802260206
 20
-138.0852837111384
 30
0.0
 10
97.09174802260206
 20
-137.9075167840995
 30
0.0
 10
96.97323673790947
 20
-137.8355142884578
 30
0.0
 10
96.85059133863457
 20
-137.8355142884578
 30
0.0
 10
96.71519908606426
 20
-137.8355142884578
 30
0.0
 10
96.61976994112284
 20
-137.9223306946861
 30
0.0
 10
96.61976994112284
 20
-138.0852837111384
 30
0.0
  0
SPLINE
  5
14A
330
144
100
AcDbEntity
  8
_U+30EC_U+30A4_U+30E4_U+30FC 1
370
     0
100
AcDbSpline
210
0.0
220
0.0
230
1.0
 70
    11
 71
     3
 72
    17
 73
    13
 74
     0
 42
0.0000000001
 43
0.0000000001
 12
1.0
 22
0.0
 32
0.0
 13
1.0
 23
0.0
 33
0.0
 40
0.0
 40
0.0
 40
0.0
 40
0.0
 40
1.0
 40
1.0
 40
1.0
 40
2.0
 40
2.0
 40
2.0
 40
3.0
 40
3.0
 40
3.0
 40
4.0
 40
4.0
 40
4.0
 40
4.0
 10
97.2798502360967
 20
-138.0852837111384
 30
0.0
 10
97.2798502360967
 20
-138.2289441928733
 30
0.0
 10
97.366666642325
 20
-138.3815619228699
 30
0.0
 10
97.56992727595474
 20
-138.3815619228699
 30
0.0
 10
97.77491045732711
 20
-138.3815619228699
 30
0.0
 10
97.87654077414199
 20
-138.2544378994642
 30
0.0
 10
97.87654077414199
 20
-138.0852837111384
 30
0.0
 10
97.87654077414199
 20
-137.8989040453864
 30
0.0
 10
97.75389537486708
 20
-137.7890054994069
 30
0.0
 10
97.5761284478282
 20
-137.7890054994069
 30
0.0
 10
97.35391978902958
 20
-137.7890054994069
 30
0.0
 10
97.2798502360967
 20
-137.9519585158592
 30
0.0
 10
97.2798502360967
 20
-138.0852837111384
 30
0.0
  0
HATCH
  5
14B
330
144
100
AcDbEntity
  8
_U+30EC_U+30A4_U+30E4_U+30FC 1
 62
   179
420
  2234388
100
AcDbHatch
 10
0.0
 20
0.0
 30
0.0
210
0.0
220
0.0
230
1.0
  2
SOLID
 70
     1
 71
     0
 91
        3
 92
        1
 93
        1
 72
     4
 94
        3
 73
     0
 74
     1
 95
       29
 96
       25
 40
0.0
 40
0.0
 40
0.0
 40
0.0
 40
1.0
 40
1.0
 40
1.0
 40
2.0
 40
2.0
 40
2.0
 40
3.0
 40
3.0
 40
3.0
 40
4.0
 40
4.0
 40
4.0
 40
5.0
 40
5.0
 40
5.0
 40
6.0
 40
6.0
 40
6.0
 40
7.0
 40
7.0
 40
7.0
 40
8.0
 40
8.0
 40
8.0
 40
8.0
 10
98.0711886690586
 20
-138.0852837111384
 10
98.0711886690586
 20
-138.3519341016967
 10
97.93372935919713
 20
-138.6054931294111
 10
97.58474118654132
 20
-138.6054931294111
 10
97.32877059198725
 20
-138.6054931294111
 10
97.23334144704583
 20
-138.4638997049674
 10
97.17201874740839
 20
-138.3581352735702
 10
97.11276310506209
 20
-138.4828477301362
 10
96.99873044450032
 20
-138.5589843403603
 10
96.83784448533916
 20
-138.5589843403603
 10
96.56292586561622
 20
-138.5589843403603
 10
96.4275336130459
 20
-138.3602023308613
 10
96.4275336130459
 20
-138.0852837111384
 10
96.4275336130459
 20
-137.8017523527024
 10
96.57119409478082
 20
-137.611238572368
 10
96.83784448533916
 20
-137.611238572368
 10
96.99873044450032
 20
-137.611238572368
 10
97.11276310506209
 20
-137.6897867494317
 10
97.17201874740839
 20
-137.8144992059978
 10
97.22300616059009
 20
-137.7256157424783
 10
97.31809079598298
 20
-137.5667968406083
 10
97.5802625624105
 20
-137.5667968406083
 10
97.95474444165716
 20
-137.5667968406083
 10
98.0711886690586
 20
-137.8461940844621
 10
98.0711886690586
 20
-138.0852837111384
 97
        0
 97
        0
 92
        1
 93
        1
 72
     4
 94
        3
 73
     0
 74
     1
 95
       17
 96
       13
 40
0.0
 40
0.0
 40
0.0
 40
0.0
 40
1.0
 40
1.0
 40
1.0
 40
2.0
 40
2.0
 40
2.0
 40
3.0
 40
3.0
 40
3.0
 40
4.0
 40
4.0
 40
4.0
 40
4.0
 10
96.61976994112284
 20
-138.0852837111384
 10
96.61976994112284
 20
-138.2503037848819
 10
96.71519908606426
 20
-138.3347086242705
 10
96.85059133863457
 20
-138.3347086242705
 10
96.97323673790947
 20
-138.3347086242705
 10
97.09174802260206
 20
-138.2630506381773
 10
97.09174802260206
 20
-138.0852837111384
 10
97.09174802260206
 20
-137.9075167840995
 10
96.97323673790947
 20
-137.8355142884578
 10
96.85059133863457
 20
-137.8355142884578
 10
96.71519908606426
 20
-137.8355142884578
 10
96.61976994112284
 20
-137.9223306946861
 10
96.61976994112284
 20
-138.0852837111384
 97
        0
 97
        0
 92
        1
 93
        1
 72
     4
 94
        3
 73
     0
 74
     1
 95
       17
 96
       13
 40
0.0
 40
0.0
 40
0.0
 40
0.0
 40
1.0
 40
1.0
 40
1.0
 40
2.0
 40
2.0
 40
2.0
 40
3.0
 40
3.0
 40
3.0
 40
4.0
 40
4.0
 40
4.0
 40
4.0
 10
97.2798502360967
 20
-138.0852837111384
 10
97.2798502360967
 20
-138.2289441928733
 10
97.366666642325
 20
-138.3815619228699
 10
97.56992727595474
 20
-138.3815619228699
 10
97.77491045732711
 20
-138.3815619228699
 10
97.87654077414199
 20
-138.2544378994642
 10
97.87654077414199
 20
-138.0852837111384
 10
97.87654077414199
 20
-137.8989040453864
 10
97.75389537486708
 20
-137.7890054994069
 10
97.5761284478282
 20
-137.7890054994069
 10
97.35391978902958
 20
-137.7890054994069
 10
97.2798502360967
 20
-137.9519585158592
 10
97.2798502360967
 20
-138.0852837111384
 97
        0
 97
        0
 75
     2
 76
     1
 98
        0
  0
POLYLINE
  5
14C
330
144
100
AcDbEntity
  8
_U+30EC_U+30A4_U+30E4_U+30FC 1
370
     0
100
AcDb2dPolyline
 66
     1
 10
0.0
 20
0.0
 30
0.0
  0
VERTEX
  5
14D
330
14C
100
AcDbEntity
  8
_U+30EC_U+30A4_U+30E4_U+30FC 1
370
     0
100
AcDbVertex
100
AcDb2dVertex
 10
98.02054576542542
 20
-137.3483777868435
 30
0.0
  0
VERTEX
  5
14E
330
14C
100
AcDbEntity
  8
_U+30EC_U+30A4_U+30E4_U+30FC 1
370
     0
100
AcDbVertex
100
AcDb2dVertex
 10
97.76870928545367
 20
-137.3483777868435
 30
0.0
  0
VERTEX
  5
14F
330
14C
100
AcDbEntity
  8
_U+30EC_U+30A4_U+30E4_U+30FC 1
370
     0
100
AcDbVertex
100
AcDb2dVertex
 10
97.76870928545367
 20
-137.0965413068717
 30
0.0
  0
VERTEX
  5
150
330
14C
100
AcDbEntity
  8
_U+30EC_U+30A4_U+30E4_U+30FC 1
370
     0
100
AcDbVertex
100
AcDb2dVertex
 10
98.02054576542542
 20
-137.0965413068717
 30
0.0
  0
VERTEX
  5
151
330
14C
100
AcDbEntity
  8
_U+30EC_U+30A4_U+30E4_U+30FC 1
370
     0
100
AcDbVertex
100
AcDb2dVertex
 10
98.02054576542542
 20
-137.3483777868435
 30
0.0
  0
SEQEND
  5
152
330
14C
100
AcDbEntity
  8
_U+30EC_U+30A4_U+30E4_U+30FC 1
370
     0
  0
HATCH
  5
153
330
144
100
AcDbEntity
  8
_U+30EC_U+30A4_U+30E4_U+30FC 1
 62
   179
420
  2234388
100
AcDbHatch
 10
0.0
 20
0.0
 30
0.0
210
0.0
220
0.0
230
1.0
  2
SOLID
 70
     1
 71
     0
 91
        1
 92
        1
 93
        4
 72
     1
 10
98.02054576542542
 20
-137.3483777868435
 11
97.76870928545367
 21
-137.3483777868435
 72
     1
 10
97.76870928545367
 20
-137.3483777868435
 11
97.76870928545367
 21
-137.0965413068717
 72
     1
 10
97.76870928545367
 20
-137.0965413068717
 11
98.02054576542542
 21
-137.0965413068717
 72
     1
 10
98.02054576542542
 20
-137.0965413068717
 11
98.02054576542542
 21
-137.3483777868435
 97
        0
 75
     2
 76
     1
 98
        0
  0
SPLINE
  5
154
330
144
100
AcDbEntity
  8
_U+30EC_U+30A4_U+30E4_U+30FC 1
370
     0
100
AcDbSpline
210
0.0
220
0.0
230
1.0
 70
    11
 71
     3
 72
    53
 73
    49
 74
     0
 42
0.0000000001
 43
0.0000000001
 12
1.0
 22
0.0
 32
0.0
 13
1.0
 23
0.0
 33
0.0
 40
0.0
 40
0.0
 40
0.0
 40
0.0
 40
1.0
 40
1.0
 40
1.0
 40
2.0
 40
2.0
 40
2.0
 40
3.0
 40
3.0
 40
3.0
 40
4.0
 40
4.0
 40
4.0
 40
5.0
 40
5.0
 40
5.0
 40
6.0
 40
6.0
 40
6.0
 40
7.0
 40
7.0
 40
7.0
 40
8.0
 40
8.0
 40
8.0
 40
9.0
 40
9.0
 40
9.0
 40
10.0
 40
10.0
 40
10.0
 40
11.0
 40
11.0
 40
11.0
 40
12.0
 40
12.0
 40
12.0
 40
13.0
 40
13.0
 40
13.0
 40
14.0
 40
14.0
 40
14.0
 40
15.0
 40
15.0
 40
15.0
 40
16.0
 40
16.0
 40
16.0
 40
16.0
 10
98.0711886690586
 20
-136.3792724268427
 30
0.0
 10
98.0711886690586
 20
-136.4574760943579
 30
0.0
 10
98.05430770118087
 20
-136.5591064111727
 30
0.0
 10
97.99091794425227
 20
-136.6607367279876
 30
0.0
 10
97.88067488872429
 20
-136.8340250308957
 30
0.0
 10
97.74976126028479
 20
-136.8550401133557
 30
0.0
 10
97.64158526204794
 20
-136.8743326480731
 30
0.0
 10
97.64158526204794
 20
-136.8743326480731
 30
0.0
 10
97.64158526204794
 20
-136.6521239892745
 30
0.0
 10
97.64158526204794
 20
-136.6521239892745
 30
0.0
 10
97.84071178109538
 20
-136.5970024615105
 30
0.0
 10
97.87033960226853
 20
-136.4702229476533
 30
0.0
 10
97.87033960226853
 20
-136.3772053695515
 30
0.0
 10
97.87033960226853
 20
-136.2373344928504
 30
0.0
 10
97.77077634274481
 20
-136.0850612724024
 30
0.0
 10
97.53823239749045
 20
-136.0850612724024
 30
0.0
 10
97.28226180293639
 20
-136.0850612724024
 30
0.0
 10
97.2123263645858
 20
-136.2648952567324
 30
0.0
 10
97.2123263645858
 20
-136.3854735987161
 30
0.0
 10
97.2123263645858
 20
-136.4171684771804
 30
0.0
 10
97.2123263645858
 20
-136.5591064111727
 30
0.0
 10
97.34117293573415
 20
-136.6479898746922
 30
0.0
 10
97.34117293573415
 20
-136.6479898746922
 30
0.0
 10
97.32222491056528
 20
-136.8233452348914
 30
0.0
 10
97.32222491056528
 20
-136.8233452348914
 30
0.0
 10
97.32222491056528
 20
-136.8233452348914
 30
0.0
 10
96.47610945938793
 20
-136.7027668929076
 30
0.0
 10
96.47610945938793
 20
-136.7027668929076
 30
0.0
 10
96.47610945938793
 20
-136.7027668929076
 30
0.0
 10
96.47610945938793
 20
-135.9245198227897
 30
0.0
 10
96.47610945938793
 20
-135.9245198227897
 30
0.0
 10
96.47610945938793
 20
-135.9245198227897
 30
0.0
 10
96.67075735430454
 20
-135.9245198227897
 30
0.0
 10
96.67075735430454
 20
-135.9245198227897
 30
0.0
 10
96.67075735430454
 20
-135.9245198227897
 30
0.0
 10
96.67075735430454
 20
-136.5401583860039
 30
0.0
 10
96.67075735430454
 20
-136.5401583860039
 30
0.0
 10
96.67075735430454
 20
-136.5401583860039
 30
0.0
 10
97.09381507989322
 20
-136.6056152002236
 30
0.0
 10
97.09381507989322
 20
-136.6056152002236
 30
0.0
 10
97.06005314413777
 20
-136.5442925005862
 30
0.0
 10
97.01974552696035
 20
-136.4616102089402
 30
0.0
 10
97.01974552696035
 20
-136.3430989242476
 30
0.0
 10
97.01974552696035
 20
-136.0895398965332
 30
0.0
 10
97.20578068316384
 20
-135.852517327148
 30
0.0
 10
97.51893986277305
 20
-135.852517327148
 30
0.0
 10
97.83623315696455
 20
-135.852517327148
 30
0.0
 10
98.0711886690586
 20
-136.0767930432378
 30
0.0
 10
98.0711886690586
 20
-136.3792724268427
 30
0.0
  0
HATCH
  5
155
330
144
100
AcDbEntity
  8
_U+30EC_U+30A4_U+30E4_U+30FC 1
 62
   179
420
  2234388
100
AcDbHatch
 10
0.0
 20
0.0
 30
0.0
210
0.0
220
0.0
230
1.0
  2
SOLID
 70
     1
 71
     0
 91
        1
 92
        1
 93
        1
 72
     4
 94
        3
 73
     0
 74
     1
 95
       53
 96
       49
 40
0.0
 40
0.0
 40
0.0
 40
0.0
 40
1.0
 40
1.0
 40
1.0
 40
2.0
 40
2.0
 40
2.0
 40
3.0
 40
3.0
 40
3.0
 40
4.0
 40
4.0
 40
4.0
 40
5.0
 40
5.0
 40
5.0
 40
6.0
 40
6.0
 40
6.0
 40
7.0
 40
7.0
 40
7.0
 40
8.0
 40
8.0
 40
8.0
 40
9.0
 40
9.0
 40
9.0
 40
10.0
 40
10.0
 40
10.0
 40
11.0
 40
11.0
 40
11.0
 40
12.0
 40
12.0
 40
12.0
 40
13.0
 40
13.0
 40
13.0
 40
14.0
 40
14.0
 40
14.0
 40
15.0
 40
15.0
 40
15.0
 40
16.0
 40
16.0
 40
16.0
 40
16.0
 10
98.0711886690586
 20
-136.3792724268427
 10
98.0711886690586
 20
-136.4574760943579
 10
98.05430770118087
 20
-136.5591064111727
 10
97.99091794425227
 20
-136.6607367279876
 10
97.88067488872429
 20
-136.8340250308957
 10
97.74976126028479
 20
-136.8550401133557
 10
97.64158526204794
 20
-136.8743326480731
 10
97.64158526204794
 20
-136.8743326480731
 10
97.64158526204794
 20
-136.6521239892745
 10
97.64158526204794
 20
-136.6521239892745
 10
97.84071178109538
 20
-136.5970024615105
 10
97.87033960226853
 20
-136.4702229476533
 10
97.87033960226853
 20
-136.3772053695515
 10
97.87033960226853
 20
-136.2373344928504
 10
97.77077634274481
 20
-136.0850612724024
 10
97.53823239749045
 20
-136.0850612724024
 10
97.28226180293639
 20
-136.0850612724024
 10
97.2123263645858
 20
-136.2648952567324
 10
97.2123263645858
 20
-136.3854735987161
 10
97.2123263645858
 20
-136.4171684771804
 10
97.2123263645858
 20
-136.5591064111727
 10
97.34117293573415
 20
-136.6479898746922
 10
97.34117293573415
 20
-136.6479898746922
 10
97.32222491056528
 20
-136.8233452348914
 10
97.32222491056528
 20
-136.8233452348914
 10
97.32222491056528
 20
-136.8233452348914
 10
96.47610945938793
 20
-136.7027668929076
 10
96.47610945938793
 20
-136.7027668929076
 10
96.47610945938793
 20
-136.7027668929076
 10
96.47610945938793
 20
-135.9245198227897
 10
96.47610945938793
 20
-135.9245198227897
 10
96.47610945938793
 20
-135.9245198227897
 10
96.67075735430454
 20
-135.9245198227897
 10
96.67075735430454
 20
-135.9245198227897
 10
96.67075735430454
 20
-135.9245198227897
 10
96.67075735430454
 20
-136.5401583860039
 10
96.67075735430454
 20
-136.5401583860039
 10
96.67075735430454
 20
-136.5401583860039
 10
97.09381507989322
 20
-136.6056152002236
 10
97.09381507989322
 20
-136.6056152002236
 10
97.06005314413777
 20
-136.5442925005862
 10
97.01974552696035
 20
-136.4616102089402
 10
97.01974552696035
 20
-136.3430989242476
 10
97.01974552696035
 20
-136.0895398965332
 10
97.20578068316384
 20
-135.852517327148
 10
97.51893986277305
 20
-135.852517327148
 10
97.83623315696455
 20
-135.852517327148
 10
98.0711886690586
 20
-136.0767930432378
 10
98.0711886690586
 20
-136.3792724268427
 97
        0
 97
        0
 75
     2
 76
     1
 98
        0
  0
ENDBLK
  5
147
330
144
100
AcDbEntity
  8
0
100
AcDbBlockEnd
  0
ENDSEC
  0
SECTION
  2
ENTITIES
  0
POLYLINE
  5
41
330
1F
100
AcDbEntity
  8
_U+30EC_U+30A4_U+30E4_U+30FC 1
 62
   179
420
  2234388
370
    25
100
AcDb2dPolyline
 66
     1
 10
0.0
 20
0.0
 30
0.0
  0
VERTEX
  5
42
330
41
100
AcDbEntity
  8
_U+30EC_U+30A4_U+30E4_U+30FC 1
 62
   179
420
  2234388
370
    25
100
AcDbVertex
100
AcDb2dVertex
 10
76.3929322177206
 20
-125.4724369130763
 30
0.0
  0
VERTEX
  5
43
330
41
100
AcDbEntity
  8
_U+30EC_U+30A4_U+30E4_U+30FC 1
 62
   179
420
  2234388
370
    25
100
AcDbVertex
100
AcDb2dVertex
 10
76.3929322177206
 20
-139.9728382983402
 30
0.0
  0
SEQEND
  5
44
330
41
100
AcDbEntity
  8
_U+30EC_U+30A4_U+30E4_U+30FC 1
 62
   179
420
  2234388
370
    25
  0
POLYLINE
  5
45
330
1F
100
AcDbEntity
  8
_U+30EC_U+30A4_U+30E4_U+30FC 1
 62
   179
420
  2234388
370
    25
100
AcDb2dPolyline
 66
     1
 10
0.0
 20
0.0
 30
0.0
  0
VERTEX
  5
46
330
45
100
AcDbEntity
  8
_U+30EC_U+30A4_U+30E4_U+30FC 1
 62
   179
420
  2234388
370
    25
100
AcDbVertex
100
AcDb2dVertex
 10
78.89338576503982
 20
-142.4726216310483
 30
0.0
  0
VERTEX
  5
47
330
45
100
AcDbEntity
  8
_U+30EC_U+30A4_U+30E4_U+30FC 1
 62
   179
420
  2234388
370
    25
100
AcDbVertex
100
AcDb2dVertex
 10
93.3930812284551
 20
-142.4726216310483
 30
0.0
  0
SEQEND
  5
48
330
45
100
AcDbEntity
  8
_U+30EC_U+30A4_U+30E4_U+30FC 1
 62
   179
420
  2234388
370
    25
  0
POLYLINE
  5
49
330
1F
100
AcDbEntity
  8
_U+30EC_U+30A4_U+30E4_U+30FC 1
 62
   179
420
  2234388
370
    25
100
AcDb2dPolyline
 66
     1
 10
0.0
 20
0.0
 30
0.0
  0
VERTEX
  5
4A
330
49
100
AcDbEntity
  8
_U+30EC_U+30A4_U+30E4_U+30FC 1
 62
   179
420
  2234388
370
    25
100
AcDbVertex
100
AcDb2dVertex
 10
78.82448826679754
 20
-141.4728494090764
 30
0.0
  0
VERTEX
  5
4B
330
49
100
AcDbEntity
  8
_U+30EC_U+30A4_U+30E4_U+30FC 1
 62
   179
420
  2234388
370
    25
100
AcDbVertex
100
AcDb2dVertex
 10
94.39285342517101
 20
-141.4728494090764
 30
0.0
  0
SEQEND
  5
4C
330
49
100
AcDbEntity
  8
_U+30EC_U+30A4_U+30E4_U+30FC 1
 62
   179
420
  2234388
370
    25
  0
POLYLINE
  5
4D
330
1F
100
AcDbEntity
  8
_U+30EC_U+30A4_U+30E4_U+30FC 1
 62
   179
420
  2234388
370
    25
100
AcDb2dPolyline
 66
     1
 10
0.0
 20
0.0
 30
0.0
  0
VERTEX
  5
4E
330
4D
100
AcDbEntity
  8
_U+30EC_U+30A4_U+30E4_U+30FC 1
 62
   179
420
  2234388
370
    25
100
AcDbVertex
100
AcDb2dVertex
 10
77.39337469219718
 20
-124.4726646911041
 30
0.0
  0
VERTEX
  5
4F
330
4D
100
AcDbEntity
  8
_U+30EC_U+30A4_U+30E4_U+30FC 1
 62
   179
420
  2234388
370
    25
100
AcDbVertex
100
AcDb2dVertex
 10
77.39337469219718
 20
-140.0410655205453
 30
0.0
  0
SEQEND
  5
50
330
4D
100
AcDbEntity
  8
_U+30EC_U+30A4_U+30E4_U+30FC 1
 62
   179
420
  2234388
370
    25
  0
POLYLINE
  5
51
330
1F
100
AcDbEntity
  8
_U+30EC_U+30A4_U+30E4_U+30FC 1
 62
   179
420
  2234388
370
    25
100
AcDb2dPolyline
 66
     1
 10
0.0
 20
0.0
 30
0.0
  0
VERTEX
  5
52
330
51
100
AcDbEntity
  8
_U+30EC_U+30A4_U+30E4_U+30FC 1
 62
   179
420
  2234388
370
    25
100
AcDbVertex
100
AcDb2dVertex
 10
86.89286861651156
 20
-131.972649689229
 30
0.0
  0
VERTEX
  5
53
330
51
100
AcDbEntity
  8
_U+30EC_U+30A4_U+30E4_U+30FC 1
 62
   179
420
  2234388
370
    25
100
AcDbVertex
100
AcDb2dVertex
 10
107.8934822474079
 20
-131.972649689229
 30
0.0
  0
SEQEND
  5
54
330
51
100
AcDbEntity
  8
_U+30EC_U+30A4_U+30E4_U+30FC 1
 62
   179
420
  2234388
370
    25
  0
POLYLINE
  5
55
330
1F
100
AcDbEntity
  8
_U+30EC_U+30A4_U+30E4_U+30FC 1
 62
   179
420
  2234388
370
    25
100
AcDb2dPolyline
 66
     1
 10
0.0
 20
0.0
 30
0.0
  0
VERTEX
  5
56
330
55
100
AcDbEntity
  8
_U+30EC_U+30A4_U+30E4_U+30FC 1
 62
   179
420
  2234388
370
    25
100
AcDbVertex
100
AcDb2dVertex
 10
86.89286861651156
 20
-110.9725646944791
 30
0.0
  0
VERTEX
  5
57
330
55
100
AcDbEntity
  8
_U+30EC_U+30A4_U+30E4_U+30FC 1
 62
   179
420
  2234388
370
    25
100
AcDbVertex
100
AcDb2dVertex
 10
86.89286861651156
 20
-131.972649689229
 30
0.0
  0
SEQEND
  5
58
330
55
100
AcDbEntity
  8
_U+30EC_U+30A4_U+30E4_U+30FC 1
 62
   179
420
  2234388
370
    25
  0
POLYLINE
  5
59
330
1F
100
AcDbEntity
  8
_U+30EC_U+30A4_U+30E4_U+30FC 1
 62
   179
420
  2234388
370
     5
100
AcDb2dPolyline
 66
     1
 10
0.0
 20
0.0
 30
0.0
  0
VERTEX
  5
5A
330
59
100
AcDbEntity
  8
_U+30EC_U+30A4_U+30E4_U+30FC 1
 62
   179
420
  2234388
370
     5
100
AcDbVertex
100
AcDb2dVertex
 10
85.7932250334547
 20
-126.072582468482
 30
0.0
  0
VERTEX
  5
5B
330
59
100
AcDbEntity
  8
_U+30EC_U+30A4_U+30E4_U+30FC 1
 62
   179
420
  2234388
370
     5
100
AcDbVertex
100
AcDb2dVertex
 10
85.89313169757254
 20
-125.9726758018403
 30
0.0
  0
SEQEND
  5
5C
330
59
100
AcDbEntity
  8
_U+30EC_U+30A4_U+30E4_U+30FC 1
 62
   179
420
  2234388
370
     5
  0
POLYLINE
  5
5D
330
1F
100
AcDbEntity
  8
_U+30EC_U+30A4_U+30E4_U+30FC 1
 62
   179
420
  2234388
370
     5
100
AcDb2dPolyline
 66
     1
 10
0.0
 20
0.0
 30
0.0
  0
VERTEX
  5
5E
330
5D
100
AcDbEntity
  8
_U+30EC_U+30A4_U+30E4_U+30FC 1
 62
   179
420
  2234388
370
     5
100
AcDbVertex
100
AcDb2dVertex
 10
94.39285342517101
 20
-133.0723285778432
 30
0.0
  0
VERTEX
  5
5F
330
5D
100
AcDbEntity
  8
_U+30EC_U+30A4_U+30E4_U+30FC 1
 62
   179
420
  2234388
370
     5
100
AcDbVertex
100
AcDb2dVertex
 10
94.4934656448264
 20
-132.9724219112016
 30
0.0
  0
SEQEND
  5
60
330
5D
100
AcDbEntity
  8
_U+30EC_U+30A4_U+30E4_U+30FC 1
 62
   179
420
  2234388
370
     5
  0
POLYLINE
  5
61
330
1F
100
AcDbEntity
  8
_U+30EC_U+30A4_U+30E4_U+30FC 1
 62
   179
420
  2234388
370
     9
100
AcDb2dPolyline
 66
     1
 10
0.0
 20
0.0
 30
0.0
  0
VERTEX
  5
62
330
61
100
AcDbEntity
  8
_U+30EC_U+30A4_U+30E4_U+30FC 1
 62
   179
420
  2234388
370
     9
100
AcDbVertex
100
AcDb2dVertex
 10
76.75946831948059
 20
-141.2757877424589
 30
0.0
  0
VERTEX
  5
63
330
61
100
AcDbEntity
  8
_U+30EC_U+30A4_U+30E4_U+30FC 1
 62
   179
420
  2234388
370
     9
100
AcDbVertex
100
AcDb2dVertex
 10
75.80037139950475
 20
-141.5582921868324
 30
0.0
  0
SEQEND
  5
64
330
61
100
AcDbEntity
  8
_U+30EC_U+30A4_U+30E4_U+30FC 1
 62
   179
420
  2234388
370
     9
  0
POLYLINE
  5
65
330
1F
100
AcDbEntity
  8
_U+30EC_U+30A4_U+30E4_U+30FC 1
 62
   179
420
  2234388
370
     9
100
AcDb2dPolyline
 66
     1
 10
0.0
 20
0.0
 30
0.0
  0
VERTEX
  5
66
330
65
100
AcDbEntity
  8
_U+30EC_U+30A4_U+30E4_U+30FC 1
 62
   179
420
  2234388
370
     9
100
AcDbVertex
100
AcDb2dVertex
 10
76.75946831948059
 20
-141.2757877424589
 30
0.0
  0
VERTEX
  5
67
330
65
100
AcDbEntity
  8
_U+30EC_U+30A4_U+30E4_U+30FC 1
 62
   179
420
  2234388
370
     9
100
AcDbVertex
100
AcDb2dVertex
 10
76.07045805928094
 20
-141.9999346867224
 30
0.0
  0
SEQEND
  5
68
330
65
100
AcDbEntity
  8
_U+30EC_U+30A4_U+30E4_U+30FC 1
 62
   179
420
  2234388
370
     9
  0
POLYLINE
  5
69
330
1F
100
AcDbEntity
  8
_U+30EC_U+30A4_U+30E4_U+30FC 1
 62
   179
420
  2234388
370
    25
100
AcDb2dPolyline
 66
     1
 10
0.0
 20
0.0
 30
0.0
  0
VERTEX
  5
6A
330
69
100
AcDbEntity
  8
_U+30EC_U+30A4_U+30E4_U+30FC 1
 62
   179
420
  2234388
370
    25
100
AcDbVertex
100
AcDb2dVertex
 10
85.89313169757254
 20
-111.9726544164512
 30
0.0
  0
VERTEX
  5
6B
330
69
100
AcDbEntity
  8
_U+30EC_U+30A4_U+30E4_U+30FC 1
 62
   179
420
  2234388
370
    25
100
AcDbVertex
100
AcDb2dVertex
 10
85.89313169757254
 20
-125.9726758018403
 30
0.0
  0
SEQEND
  5
6C
330
69
100
AcDbEntity
  8
_U+30EC_U+30A4_U+30E4_U+30FC 1
 62
   179
420
  2234388
370
    25
  0
POLYLINE
  5
6D
330
1F
100
AcDbEntity
  8
_U+30EC_U+30A4_U+30E4_U+30FC 1
 62
   179
420
  2234388
370
    25
100
AcDb2dPolyline
 66
     1
 10
0.0
 20
0.0
 30
0.0
  0
VERTEX
  5
6E
330
6D
100
AcDbEntity
  8
_U+30EC_U+30A4_U+30E4_U+30FC 1
 62
   179
420
  2234388
370
    25
100
AcDbVertex
100
AcDb2dVertex
 10
85.7932250334547
 20
-126.072582468482
 30
0.0
  0
VERTEX
  5
6F
330
6D
100
AcDbEntity
  8
_U+30EC_U+30A4_U+30E4_U+30FC 1
 62
   179
420
  2234388
370
    25
100
AcDbVertex
100
AcDb2dVertex
 10
85.7932250334547
 20
-132.7905296890246
 30
0.0
  0
SEQEND
  5
70
330
6D
100
AcDbEntity
  8
_U+30EC_U+30A4_U+30E4_U+30FC 1
 62
   179
420
  2234388
370
    25
  0
POLYLINE
  5
71
330
1F
100
AcDbEntity
  8
_U+30EC_U+30A4_U+30E4_U+30FC 1
 62
   179
420
  2234388
370
    25
100
AcDb2dPolyline
 66
     1
 10
0.0
 20
0.0
 30
0.0
  0
VERTEX
  5
72
330
71
100
AcDbEntity
  8
_U+30EC_U+30A4_U+30E4_U+30FC 1
 62
   179
420
  2234388
370
    25
100
AcDbVertex
100
AcDb2dVertex
 10
86.95008917060731
 20
-133.0723285778432
 30
0.0
  0
VERTEX
  5
73
330
71
100
AcDbEntity
  8
_U+30EC_U+30A4_U+30E4_U+30FC 1
 62
   179
420
  2234388
370
    25
100
AcDbVertex
100
AcDb2dVertex
 10
94.39285342517101
 20
-133.0723285778432
 30
0.0
  0
SEQEND
  5
74
330
71
100
AcDbEntity
  8
_U+30EC_U+30A4_U+30E4_U+30FC 1
 62
   179
420
  2234388
370
    25
  0
POLYLINE
  5
75
330
1F
100
AcDbEntity
  8
_U+30EC_U+30A4_U+30E4_U+30FC 1
 62
   179
420
  2234388
370
    25
100
AcDb2dPolyline
 66
     1
 10
0.0
 20
0.0
 30
0.0
  0
VERTEX
  5
76
330
75
100
AcDbEntity
  8
_U+30EC_U+30A4_U+30E4_U+30FC 1
 62
   179
420
  2234388
370
    25
100
AcDbVertex
100
AcDb2dVertex
 10
94.4934656448264
 20
-132.9724219112016
 30
0.0
  0
VERTEX
  5
77
330
75
100
AcDbEntity
  8
_U+30EC_U+30A4_U+30E4_U+30FC 1
 62
   179
420
  2234388
370
    25
100
AcDbVertex
100
AcDb2dVertex
 10
106.8930397729314
 20
-132.9724219112016
 30
0.0
  0
SEQEND
  5
78
330
75
100
AcDbEntity
  8
_U+30EC_U+30A4_U+30E4_U+30FC 1
 62
   179
420
  2234388
370
    25
  0
POLYLINE
  5
79
330
1F
100
AcDbEntity
  8
_U+30EC_U+30A4_U+30E4_U+30FC 1
 62
   179
420
  2234388
370
    25
100
AcDb2dPolyline
 66
     1
 10
0.0
 20
0.0
 30
0.0
  0
VERTEX
  5
7A
330
79
100
AcDbEntity
  8
_U+30EC_U+30A4_U+30E4_U+30FC 1
 62
   179
420
  2234388
370
    25
100
AcDbVertex
100
AcDb2dVertex
 10
86.95008917060731
 20
-133.0723285778432
 30
0.0
  0
VERTEX
  5
7B
330
79
100
AcDbEntity
  8
_U+30EC_U+30A4_U+30E4_U+30FC 1
 62
   179
420
  2234388
370
    25
100
AcDbVertex
100
AcDb2dVertex
 10
78.61846604983138
 20
-140.9546894092057
 30
0.0
  0
SEQEND
  5
7C
330
79
100
AcDbEntity
  8
_U+30EC_U+30A4_U+30E4_U+30FC 1
 62
   179
420
  2234388
370
    25
  0
POLYLINE
  5
7D
330
1F
100
AcDbEntity
  8
_U+30EC_U+30A4_U+30E4_U+30FC 1
 62
   179
420
  2234388
370
    25
100
AcDb2dPolyline
 66
     1
 10
0.0
 20
0.0
 30
0.0
  0
VERTEX
  5
7E
330
7D
100
AcDbEntity
  8
_U+30EC_U+30A4_U+30E4_U+30FC 1
 62
   179
420
  2234388
370
    25
100
AcDbVertex
100
AcDb2dVertex
 10
85.7932250334547
 20
-132.7905296890246
 30
0.0
  0
VERTEX
  5
7F
330
7D
100
AcDbEntity
  8
_U+30EC_U+30A4_U+30E4_U+30FC 1
 62
   179
420
  2234388
370
    25
100
AcDbVertex
100
AcDb2dVertex
 10
77.93083162292996
 20
-140.2284610760539
 30
0.0
  0
SEQEND
  5
80
330
7D
100
AcDbEntity
  8
_U+30EC_U+30A4_U+30E4_U+30FC 1
 62
   179
420
  2234388
370
    25
  0
SPLINE
  5
81
330
1F
100
AcDbEntity
  8
_U+30EC_U+30A4_U+30E4_U+30FC 1
 62
   179
420
  2234388
370
    25
100
AcDbSpline
210
0.0
220
0.0
230
1.0
 70
     8
 71
     3
 72
     8
 73
     4
 74
     0
 42
0.0000000001
 43
0.0000000001
 12
1.0
 22
0.0
 32
0.0
 13
1.0
 23
0.0
 33
0.0
 40
0.0
 40
0.0
 40
0.0
 40
0.0
 40
1.0
 40
1.0
 40
1.0
 40
1.0
 10
76.3929322177206
 20
-139.9728382983402
 30
0.0
 10
76.3929322177206
 20
-141.3536457979949
 30
0.0
 10
77.51257830026715
 20
-142.4726216310483
 30
0.0
 10
78.89338576503982
 20
-142.4726216310483
 30
0.0
  0
SPLINE
  5
82
330
1F
100
AcDbEntity
  8
_U+30EC_U+30A4_U+30E4_U+30FC 1
 62
   179
420
  2234388
370
     9
100
AcDbSpline
210
0.0
220
0.0
230
1.0
 70
    11
 71
     3
 72
    17
 73
    13
 74
     0
 42
0.0000000001
 43
0.0000000001
 12
1.0
 22
0.0
 32
0.0
 13
1.0
 23
0.0
 33
0.0
 40
0.0
 40
0.0
 40
0.0
 40
0.0
 40
1.0
 40
1.0
 40
1.0
 40
2.0
 40
2.0
 40
2.0
 40
3.0
 40
3.0
 40
3.0
 40
4.0
 40
4.0
 40
4.0
 40
4.0
 10
111.9931479761501
 20
-131.972649689229
 30
0.0
 10
111.9931479761501
 20
-131.9175458003541
 30
0.0
 10
111.9483833053465
 20
-131.8727430225874
 30
0.0
 10
111.8932413120323
 20
-131.8727430225874
 30
0.0
 10
111.8381374245492
 20
-131.8727430225874
 30
0.0
 10
111.7933346479144
 20
-131.9175458003541
 30
0.0
 10
111.7933346479144
 20
-131.972649689229
 30
0.0
 10
111.7933346479144
 20
-132.0277888558821
 30
0.0
 10
111.8381374245492
 20
-132.0725563558707
 30
0.0
 10
111.8932413120323
 20
-132.0725563558707
 30
0.0
 10
111.9483833053465
 20
-132.0725563558707
 30
0.0
 10
111.9931479761501
 20
-132.0277888558821
 30
0.0
 10
111.9931479761501
 20
-131.972649689229
 30
0.0
  0
SPLINE
  5
83
330
1F
100
AcDbEntity
  8
_U+30EC_U+30A4_U+30E4_U+30FC 1
 62
   179
420
  2234388
370
     9
100
AcDbSpline
210
0.0
220
0.0
230
1.0
 70
    11
 71
     3
 72
    17
 73
    13
 74
     0
 42
0.0000000001
 43
0.0000000001
 12
1.0
 22
0.0
 32
0.0
 13
1.0
 23
0.0
 33
0.0
 40
0.0
 40
0.0
 40
0.0
 40
0.0
 40
1.0
 40
1.0
 40
1.0
 40
2.0
 40
2.0
 40
2.0
 40
3.0
 40
3.0
 40
3.0
 40
4.0
 40
4.0
 40
4.0
 40
4.0
 10
76.49283888183844
 20
-148.4725955184376
 30
0.0
 10
76.49283888183844
 20
-148.4174563517846
 30
0.0
 10
76.44874166074122
 20
-148.372688851796
 30
0.0
 10
76.3929322177206
 20
-148.372688851796
 30
0.0
 10
76.33779305246065
 20
-148.372688851796
 30
0.0
 10
76.29302555360276
 20
-148.4174563517846
 30
0.0
 10
76.29302555360276
 20
-148.4725955184376
 30
0.0
 10
76.29302555360276
 20
-148.5276994073126
 30
0.0
 10
76.33779305246065
 20
-148.5725021850793
 30
0.0
 10
76.3929322177206
 20
-148.5725021850793
 30
0.0
 10
76.44874166074122
 20
-148.5725021850793
 30
0.0
 10
76.49283888183844
 20
-148.5276994073126
 30
0.0
 10
76.49283888183844
 20
-148.4725955184376
 30
0.0
  0
SPLINE
  5
84
330
1F
100
AcDbEntity
  8
_U+30EC_U+30A4_U+30E4_U+30FC 1
 62
   179
420
  2234388
370
    25
100
AcDbSpline
210
0.0
220
0.0
230
1.0
 70
     8
 71
     3
 72
     8
 73
     4
 74
     0
 42
0.0000000001
 43
0.0000000001
 12
1.0
 22
0.0
 32
0.0
 13
1.0
 23
0.0
 33
0.0
 40
0.0
 40
0.0
 40
0.0
 40
0.0
 40
1.0
 40
1.0
 40
1.0
 40
1.0
 10
86.89286861651156
 20
-110.9725646944791
 30
0.0
 10
86.3409830750358
 20
-110.9725646944791
 30
0.0
 10
85.89313169757254
 20
-111.4204160832561
 30
0.0
 10
85.89313169757254
 20
-111.9726544164512
 30
0.0
  0
SPLINE
  5
85
330
1F
100
AcDbEntity
  8
_U+30EC_U+30A4_U+30E4_U+30FC 1
 62
   179
420
  2234388
370
    25
100
AcDbSpline
210
0.0
220
0.0
230
1.0
 70
     8
 71
     3
 72
     8
 73
     4
 74
     0
 42
0.0000000001
 43
0.0000000001
 12
1.0
 22
0.0
 32
0.0
 13
1.0
 23
0.0
 33
0.0
 40
0.0
 40
0.0
 40
0.0
 40
0.0
 40
1.0
 40
1.0
 40
1.0
 40
1.0
 10
106.8930397729314
 20
-132.9724219112016
 30
0.0
 10
107.4456308699447
 20
-132.9724219112016
 30
0.0
 10
107.8934822474079
 20
-132.5252408002019
 30
0.0
 10
107.8934822474079
 20
-131.972649689229
 30
0.0
  0
SPLINE
  5
86
330
1F
100
AcDbEntity
  8
_U+30EC_U+30A4_U+30E4_U+30FC 1
 62
   179
420
  2234388
370
     9
100
AcDbSpline
210
0.0
220
0.0
230
1.0
 70
    11
 71
     3
 72
    17
 73
    13
 74
     0
 42
0.0000000001
 43
0.0000000001
 12
1.0
 22
0.0
 32
0.0
 13
1.0
 23
0.0
 33
0.0
 40
0.0
 40
0.0
 40
0.0
 40
0.0
 40
1.0
 40
1.0
 40
1.0
 40
2.0
 40
2.0
 40
2.0
 40
3.0
 40
3.0
 40
3.0
 40
4.0
 40
4.0
 40
4.0
 40
4.0
 10
111.9931479761501
 20
-110.9725646944791
 30
0.0
 10
111.9931479761501
 20
-110.9174255278263
 30
0.0
 10
111.9483833053465
 20
-110.8726580278374
 30
0.0
 10
111.8932413120323
 20
-110.8726580278374
 30
0.0
 10
111.8381374245492
 20
-110.8726580278374
 30
0.0
 10
111.7933346479144
 20
-110.9174255278263
 30
0.0
 10
111.7933346479144
 20
-110.9725646944791
 30
0.0
 10
111.7933346479144
 20
-111.0276685833543
 30
0.0
 10
111.8381374245492
 20
-111.0724713611207
 30
0.0
 10
111.8932413120323
 20
-111.0724713611207
 30
0.0
 10
111.9483833053465
 20
-111.0724713611207
 30
0.0
 10
111.9931479761501
 20
-111.0276685833543
 30
0.0
 10
111.9931479761501
 20
-110.9725646944791
 30
0.0
  0
SPLINE
  5
87
330
1F
100
AcDbEntity
  8
_U+30EC_U+30A4_U+30E4_U+30FC 1
 62
   179
420
  2234388
370
    25
100
AcDbSpline
210
0.0
220
0.0
230
1.0
 70
     8
 71
     3
 72
    11
 73
     7
 74
     0
 42
0.0000000001
 43
0.0000000001
 12
1.0
 22
0.0
 32
0.0
 13
1.0
 23
0.0
 33
0.0
 40
0.0
 40
0.0
 40
0.0
 40
0.0
 40
1.0
 40
1.0
 40
1.0
 40
2.0
 40
2.0
 40
2.0
 40
2.0
 10
78.61846604983138
 20
-140.9546894092057
 30
0.0
 10
78.49788660846318
 20
-141.068389686955
 30
0.0
 10
78.4930555359323
 20
-141.2585721869075
 30
0.0
 10
78.60675382790797
 20
-141.3784460757663
 30
0.0
 10
78.66323354868928
 20
-141.438383020196
 30
0.0
 10
78.74179715779606
 20
-141.4728494090764
 30
0.0
 10
78.82448826679754
 20
-141.4728494090764
 30
0.0
  0
SPLINE
  5
88
330
1F
100
AcDbEntity
  8
_U+30EC_U+30A4_U+30E4_U+30FC 1
 62
   179
420
  2234388
370
    25
100
AcDbSpline
210
0.0
220
0.0
230
1.0
 70
     8
 71
     3
 72
    11
 73
     7
 74
     0
 42
0.0000000001
 43
0.0000000001
 12
1.0
 22
0.0
 32
0.0
 13
1.0
 23
0.0
 33
0.0
 40
0.0
 40
0.0
 40
0.0
 40
0.0
 40
1.0
 40
1.0
 40
1.0
 40
2.0
 40
2.0
 40
2.0
 40
2.0
 10
77.39337469219718
 20
-140.0410655205453
 30
0.0
 10
77.39337469219718
 20
-140.2071180205038
 30
0.0
 10
77.5277477443246
 20
-140.3414910760258
 30
0.0
 10
77.69309468455069
 20
-140.3414910760258
 30
0.0
 10
77.77649134908972
 20
-140.3414910760258
 30
0.0
 10
77.85639551371787
 20
-140.3063544093681
 30
0.0
 10
77.91291051227606
 20
-140.2457119093828
 30
0.0
  0
SPLINE
  5
89
330
1F
100
AcDbEntity
  8
_U+30EC_U+30A4_U+30E4_U+30FC 1
 62
   179
420
  2234388
370
    25
100
AcDbSpline
210
0.0
220
0.0
230
1.0
 70
     8
 71
     3
 72
     8
 73
     4
 74
     0
 42
0.0000000001
 43
0.0000000001
 12
1.0
 22
0.0
 32
0.0
 13
1.0
 23
0.0
 33
0.0
 40
0.0
 40
0.0
 40
0.0
 40
0.0
 40
1.0
 40
1.0
 40
1.0
 40
1.0
 10
93.3930812284551
 20
-142.4726216310483
 30
0.0
 10
93.94567232546845
 20
-142.4726216310483
 30
0.0
 10
94.39285342517101
 20
-142.0247349644937
 30
0.0
 10
94.39285342517101
 20
-141.4728494090764
 30
0.0
  0
SPLINE
  5
8A
330
1F
100
AcDbEntity
  8
_U+30EC_U+30A4_U+30E4_U+30FC 1
 62
   179
420
  2234388
370
    25
100
AcDbSpline
210
0.0
220
0.0
230
1.0
 70
     8
 71
     3
 72
     8
 73
     4
 74
     0
 42
0.0000000001
 43
0.0000000001
 12
1.0
 22
0.0
 32
0.0
 13
1.0
 23
0.0
 33
0.0
 40
0.0
 40
0.0
 40
0.0
 40
0.0
 40
1.0
 40
1.0
 40
1.0
 40
1.0
 10
77.39337469219718
 20
-124.4726646911041
 30
0.0
 10
76.84078359518385
 20
-124.4726646911041
 30
0.0
 10
76.3929322177206
 20
-124.9205513576586
 30
0.0
 10
76.3929322177206
 20
-125.4724369130763
 30
0.0
  0
SPLINE
  5
8B
330
1F
100
AcDbEntity
  8
_U+30EC_U+30A4_U+30E4_U+30FC 1
 62
   179
420
  2234388
370
     9
100
AcDbSpline
210
0.0
220
0.0
230
1.0
 70
    11
 71
     3
 72
    17
 73
    13
 74
     0
 42
0.0000000001
 43
0.0000000001
 12
1.0
 22
0.0
 32
0.0
 13
1.0
 23
0.0
 33
0.0
 40
0.0
 40
0.0
 40
0.0
 40
0.0
 40
1.0
 40
1.0
 40
1.0
 40
2.0
 40
2.0
 40
2.0
 40
3.0
 40
3.0
 40
3.0
 40
4.0
 40
4.0
 40
4.0
 40
4.0
 10
76.49283888183844
 20
-120.4729055254372
 30
0.0
 10
76.49283888183844
 20
-120.4170960810067
 30
0.0
 10
76.44874166074122
 20
-120.3723285810182
 30
0.0
 10
76.3929322177206
 20
-120.3723285810182
 30
0.0
 10
76.33779305246065
 20
-120.3723285810182
 30
0.0
 10
76.29302555360276
 20
-120.4170960810067
 30
0.0
 10
76.29302555360276
 20
-120.4729055254372
 30
0.0
 10
76.29302555360276
 20
-120.5280446920903
 30
0.0
 10
76.33779305246065
 20
-120.5728474698567
 30
0.0
 10
76.3929322177206
 20
-120.5728474698567
 30
0.0
 10
76.44874166074122
 20
-120.5728474698567
 30
0.0
 10
76.49283888183844
 20
-120.5280446920903
 30
0.0
 10
76.49283888183844
 20
-120.4729055254372
 30
0.0
  0
SPLINE
  5
8C
330
1F
100
AcDbEntity
  8
_U+30EC_U+30A4_U+30E4_U+30FC 1
 62
   179
420
  2234388
370
     9
100
AcDbSpline
210
0.0
220
0.0
230
1.0
 70
    11
 71
     3
 72
    17
 73
    13
 74
     0
 42
0.0000000001
 43
0.0000000001
 12
1.0
 22
0.0
 32
0.0
 13
1.0
 23
0.0
 33
0.0
 40
0.0
 40
0.0
 40
0.0
 40
0.0
 40
1.0
 40
1.0
 40
1.0
 40
2.0
 40
2.0
 40
2.0
 40
3.0
 40
3.0
 40
3.0
 40
4.0
 40
4.0
 40
4.0
 40
4.0
 10
77.49328331396008
 20
-120.4729055254372
 30
0.0
 10
77.49328331396008
 20
-120.4170960810067
 30
0.0
 10
77.44851385745713
 20
-120.3723285810182
 30
0.0
 10
77.39337469219718
 20
-120.3723285810182
 30
0.0
 10
77.33827080471411
 20
-120.3723285810182
 30
0.0
 10
77.29346802807935
 20
-120.4170960810067
 30
0.0
 10
77.29346802807935
 20
-120.4729055254372
 30
0.0
 10
77.29346802807935
 20
-120.5280446920903
 30
0.0
 10
77.33827080471411
 20
-120.5728474698567
 30
0.0
 10
77.39337469219718
 20
-120.5728474698567
 30
0.0
 10
77.44851385745713
 20
-120.5728474698567
 30
0.0
 10
77.49328331396008
 20
-120.5280446920903
 30
0.0
 10
77.49328331396008
 20
-120.4729055254372
 30
0.0
  0
SPLINE
  5
8D
330
1F
100
AcDbEntity
  8
_U+30EC_U+30A4_U+30E4_U+30FC 1
 62
   179
420
  2234388
370
     9
100
AcDbSpline
210
0.0
220
0.0
230
1.0
 70
    11
 71
     3
 72
    17
 73
    13
 74
     0
 42
0.0000000001
 43
0.0000000001
 12
1.0
 22
0.0
 32
0.0
 13
1.0
 23
0.0
 33
0.0
 40
0.0
 40
0.0
 40
0.0
 40
0.0
 40
1.0
 40
1.0
 40
1.0
 40
2.0
 40
2.0
 40
2.0
 40
3.0
 40
3.0
 40
3.0
 40
4.0
 40
4.0
 40
4.0
 40
4.0
 10
85.99303836169038
 20
-120.4729055254372
 30
0.0
 10
85.99303836169038
 20
-120.4170960810067
 30
0.0
 10
85.94823558505561
 20
-120.3723285810182
 30
0.0
 10
85.89313169757254
 20
-120.3723285810182
 30
0.0
 10
85.83799253231258
 20
-120.3723285810182
 30
0.0
 10
85.7932250334547
 20
-120.4170960810067
 30
0.0
 10
85.7932250334547
 20
-120.4729055254372
 30
0.0
 10
85.7932250334547
 20
-120.5280446920903
 30
0.0
 10
85.83799253231258
 20
-120.5728474698567
 30
0.0
 10
85.89313169757254
 20
-120.5728474698567
 30
0.0
 10
85.94823558505561
 20
-120.5728474698567
 30
0.0
 10
85.99303836169038
 20
-120.5280446920903
 30
0.0
 10
85.99303836169038
 20
-120.4729055254372
 30
0.0
  0
SPLINE
  5
8E
330
1F
100
AcDbEntity
  8
_U+30EC_U+30A4_U+30E4_U+30FC 1
 62
   179
420
  2234388
370
     9
100
AcDbSpline
210
0.0
220
0.0
230
1.0
 70
    11
 71
     3
 72
    17
 73
    13
 74
     0
 42
0.0000000001
 43
0.0000000001
 12
1.0
 22
0.0
 32
0.0
 13
1.0
 23
0.0
 33
0.0
 40
0.0
 40
0.0
 40
0.0
 40
0.0
 40
1.0
 40
1.0
 40
1.0
 40
2.0
 40
2.0
 40
2.0
 40
3.0
 40
3.0
 40
3.0
 40
4.0
 40
4.0
 40
4.0
 40
4.0
 10
98.49322470945071
 20
-132.9724219112016
 30
0.0
 10
98.49322470945071
 20
-132.9172827445485
 30
0.0
 10
98.44842193281596
 20
-132.8725152445599
 30
0.0
 10
98.39331804533289
 20
-132.8725152445599
 30
0.0
 10
98.33817888007293
 20
-132.8725152445599
 30
0.0
 10
98.29341386431568
 20
-132.9172827445485
 30
0.0
 10
98.29341386431568
 20
-132.9724219112016
 30
0.0
 10
98.29341386431568
 20
-133.0275258000765
 30
0.0
 10
98.33817888007293
 20
-133.0723285778432
 30
0.0
 10
98.39331804533289
 20
-133.0723285778432
 30
0.0
 10
98.44842193281596
 20
-133.0723285778432
 30
0.0
 10
98.49322470945071
 20
-133.0275258000765
 30
0.0
 10
98.49322470945071
 20
-132.9724219112016
 30
0.0
  0
SPLINE
  5
8F
330
1F
100
AcDbEntity
  8
_U+30EC_U+30A4_U+30E4_U+30FC 1
 62
   179
420
  2234388
370
     9
100
AcDbSpline
210
0.0
220
0.0
230
1.0
 70
    11
 71
     3
 72
    17
 73
    13
 74
     0
 42
0.0000000001
 43
0.0000000001
 12
1.0
 22
0.0
 32
0.0
 13
1.0
 23
0.0
 33
0.0
 40
0.0
 40
0.0
 40
0.0
 40
0.0
 40
1.0
 40
1.0
 40
1.0
 40
2.0
 40
2.0
 40
2.0
 40
3.0
 40
3.0
 40
3.0
 40
4.0
 40
4.0
 40
4.0
 40
4.0
 10
98.49322470945071
 20
-141.4728494090764
 30
0.0
 10
98.49322470945071
 20
-141.4177102424233
 30
0.0
 10
98.44842193281596
 20
-141.3729427424348
 30
0.0
 10
98.39331804533289
 20
-141.3729427424348
 30
0.0
 10
98.33817888007293
 20
-141.3729427424348
 30
0.0
 10
98.29341386431568
 20
-141.4177102424233
 30
0.0
 10
98.29341386431568
 20
-141.4728494090764
 30
0.0
 10
98.29341386431568
 20
-141.5279532979513
 30
0.0
 10
98.33817888007293
 20
-141.572756075718
 30
0.0
 10
98.39331804533289
 20
-141.572756075718
 30
0.0
 10
98.44842193281596
 20
-141.572756075718
 30
0.0
 10
98.49322470945071
 20
-141.5279532979513
 30
0.0
 10
98.49322470945071
 20
-141.4728494090764
 30
0.0
  0
SPLINE
  5
90
330
1F
100
AcDbEntity
  8
_U+30EC_U+30A4_U+30E4_U+30FC 1
 62
   179
420
  2234388
370
     9
100
AcDbSpline
210
0.0
220
0.0
230
1.0
 70
    11
 71
     3
 72
    17
 73
    13
 74
     0
 42
0.0000000001
 43
0.0000000001
 12
1.0
 22
0.0
 32
0.0
 13
1.0
 23
0.0
 33
0.0
 40
0.0
 40
0.0
 40
0.0
 40
0.0
 40
1.0
 40
1.0
 40
1.0
 40
2.0
 40
2.0
 40
2.0
 40
3.0
 40
3.0
 40
3.0
 40
4.0
 40
4.0
 40
4.0
 40
4.0
 10
107.9933916396682
 20
-148.4725955184376
 30
0.0
 10
107.9933916396682
 20
-148.4174563517846
 30
0.0
 10
107.9486214126679
 20
-148.372688851796
 30
0.0
 10
107.8934822474079
 20
-148.372688851796
 30
0.0
 10
107.8376728043873
 20
-148.372688851796
 30
0.0
 10
107.7929053055294
 20
-148.4174563517846
 30
0.0
 10
107.7929053055294
 20
-148.4725955184376
 30
0.0
 10
107.7929053055294
 20
-148.5276994073126
 30
0.0
 10
107.8376728043873
 20
-148.5725021850793
 30
0.0
 10
107.8934822474079
 20
-148.5725021850793
 30
0.0
 10
107.9486214126679
 20
-148.5725021850793
 30
0.0
 10
107.9933916396682
 20
-148.5276994073126
 30
0.0
 10
107.9933916396682
 20
-148.4725955184376
 30
0.0
  0
SPLINE
  5
91
330
1F
100
AcDbEntity
  8
_U+30EC_U+30A4_U+30E4_U+30FC 1
 62
   179
420
  2234388
370
     9
100
AcDbSpline
210
0.0
220
0.0
230
1.0
 70
    11
 71
     3
 72
    17
 73
    13
 74
     0
 42
0.0000000001
 43
0.0000000001
 12
1.0
 22
0.0
 32
0.0
 13
1.0
 23
0.0
 33
0.0
 40
0.0
 40
0.0
 40
0.0
 40
0.0
 40
1.0
 40
1.0
 40
1.0
 40
2.0
 40
2.0
 40
2.0
 40
3.0
 40
3.0
 40
3.0
 40
4.0
 40
4.0
 40
4.0
 40
4.0
 10
94.4934656448264
 20
-148.4725955184376
 30
0.0
 10
94.4934656448264
 20
-148.4174563517846
 30
0.0
 10
94.44866286819165
 20
-148.372688851796
 30
0.0
 10
94.39285342517101
 20
-148.372688851796
 30
0.0
 10
94.33774953768794
 20
-148.372688851796
 30
0.0
 10
94.29294676105319
 20
-148.4174563517846
 30
0.0
 10
94.29294676105319
 20
-148.4725955184376
 30
0.0
 10
94.29294676105319
 20
-148.5276994073126
 30
0.0
 10
94.33774953768794
 20
-148.5725021850793
 30
0.0
 10
94.39285342517101
 20
-148.5725021850793
 30
0.0
 10
94.44866286819165
 20
-148.5725021850793
 30
0.0
 10
94.4934656448264
 20
-148.5276994073126
 30
0.0
 10
94.4934656448264
 20
-148.4725955184376
 30
0.0
  0
POLYLINE
  5
92
330
1F
100
AcDbEntity
  8
_U+30EC_U+30A4_U+30E4_U+30FC 1
 62
   179
420
  2234388
370
     9
100
AcDb2dPolyline
 66
     1
 10
0.0
 20
0.0
 30
0.0
  0
VERTEX
  5
93
330
92
100
AcDbEntity
  8
_U+30EC_U+30A4_U+30E4_U+30FC 1
 62
   179
420
  2234388
370
     9
100
AcDbVertex
100
AcDb2dVertex
 10
76.75946831948059
 20
-141.2757877424589
 30
0.0
  0
VERTEX
  5
94
330
92
100
AcDbEntity
  8
_U+30EC_U+30A4_U+30E4_U+30FC 1
 62
   179
420
  2234388
370
     9
100
AcDbVertex
100
AcDb2dVertex
 10
73.44046451526654
 20
-143.3028841308411
 30
0.0
  0
SEQEND
  5
95
330
92
100
AcDbEntity
  8
_U+30EC_U+30A4_U+30E4_U+30FC 1
 62
   179
420
  2234388
370
     9
  0
POLYLINE
  5
96
330
1F
100
AcDbEntity
  8
_U+30EC_U+30A4_U+30E4_U+30FC 1
 62
   179
420
  2234388
370
     9
100
AcDb2dPolyline
 66
     1
 10
0.0
 20
0.0
 30
0.0
  0
VERTEX
  5
97
330
96
100
AcDbEntity
  8
_U+30EC_U+30A4_U+30E4_U+30FC 1
 62
   179
420
  2234388
370
     9
100
AcDbVertex
100
AcDb2dVertex
 10
73.44046451526654
 20
-143.3028841308411
 30
0.0
  0
VERTEX
  5
98
330
96
100
AcDbEntity
  8
_U+30EC_U+30A4_U+30E4_U+30FC 1
 62
   179
420
  2234388
370
     9
100
AcDbVertex
100
AcDb2dVertex
 10
67.93935553857067
 20
-143.3028841308411
 30
0.0
  0
SEQEND
  5
99
330
96
100
AcDbEntity
  8
_U+30EC_U+30A4_U+30E4_U+30FC 1
 62
   179
420
  2234388
370
     9
  0
INSERT
  5
9B
330
1F
100
AcDbEntity
  8
_U+30EC_U+30A4_U+30E4_U+30FC 1
100
AcDbBlockReference
  2
block 2
 10
0.0
 20
0.0
 30
0.0
  0
SPLINE
  5
AD
330
1F
100
AcDbEntity
  8
_U+30EC_U+30A4_U+30E4_U+30FC 1
 62
   179
420
  2234388
370
     9
100
AcDbSpline
210
0.0
220
0.0
230
1.0
 70
    11
 71
     3
 72
    17
 73
    13
 74
     0
 42
0.0000000001
 43
0.0000000001
 12
1.0
 22
0.0
 32
0.0
 13
1.0
 23
0.0
 33
0.0
 40
0.0
 40
0.0
 40
0.0
 40
0.0
 40
1.0
 40
1.0
 40
1.0
 40
2.0
 40
2.0
 40
2.0
 40
3.0
 40
3.0
 40
3.0
 40
4.0
 40
4.0
 40
4.0
 40
4.0
 10
76.7953105407884
 20
-141.2757877424589
 30
0.0
 10
76.7953105407884
 20
-141.2950846868987
 30
0.0
 10
76.77947081897028
 20
-141.3109244091166
 30
0.0
 10
76.75946831948059
 20
-141.3109244091166
 30
0.0
 10
76.74020665330534
 20
-141.3109244091166
 30
0.0
 10
76.72433165371034
 20
-141.2950846868987
 30
0.0
 10
76.72433165371034
 20
-141.2757877424589
 30
0.0
 10
76.72433165371034
 20
-141.2564907980191
 30
0.0
 10
76.74020665330534
 20
-141.2406510758012
 30
0.0
 10
76.75946831948059
 20
-141.2406510758012
 30
0.0
 10
76.77947081897028
 20
-141.2406510758012
 30
0.0
 10
76.7953105407884
 20
-141.2564907980191
 30
0.0
 10
76.7953105407884
 20
-141.2757877424589
 30
0.0
  0
SPLINE
  5
AE
330
1F
100
AcDbEntity
  8
_U+30EC_U+30A4_U+30E4_U+30FC 1
 62
   179
420
  2234388
370
     9
100
AcDbSpline
210
0.0
220
0.0
230
1.0
 70
    11
 71
     3
 72
    17
 73
    13
 74
     0
 42
0.0000000001
 43
0.0000000001
 12
1.0
 22
0.0
 32
0.0
 13
1.0
 23
0.0
 33
0.0
 40
0.0
 40
0.0
 40
0.0
 40
0.0
 40
1.0
 40
1.0
 40
1.0
 40
2.0
 40
2.0
 40
2.0
 40
3.0
 40
3.0
 40
3.0
 40
4.0
 40
4.0
 40
4.0
 40
4.0
 10
73.47630673657436
 20
-143.3028841308411
 30
0.0
 10
73.47630673657436
 20
-143.3228513530583
 30
0.0
 10
73.46046701475623
 20
-143.3380207974988
 30
0.0
 10
73.44046451526654
 20
-143.3380207974988
 30
0.0
 10
73.42116942608901
 20
-143.3380207974988
 30
0.0
 10
73.40532784949629
 20
-143.3228513530583
 30
0.0
 10
73.40532784949629
 20
-143.3028841308411
 30
0.0
 10
73.40532784949629
 20
-143.2835871864013
 30
0.0
 10
73.42116942608901
 20
-143.2677474641834
 30
0.0
 10
73.44046451526654
 20
-143.2677474641834
 30
0.0
 10
73.46046701475623
 20
-143.2677474641834
 30
0.0
 10
73.47630673657436
 20
-143.2835871864013
 30
0.0
 10
73.47630673657436
 20
-143.3028841308411
 30
0.0
  0
POLYLINE
  5
AF
330
1F
100
AcDbEntity
  8
_U+30EC_U+30A4_U+30E4_U+30FC 1
 62
   179
420
  2234388
370
     9
100
AcDb2dPolyline
 66
     1
 10
0.0
 20
0.0
 30
0.0
  0
VERTEX
  5
B0
330
AF
100
AcDbEntity
  8
_U+30EC_U+30A4_U+30E4_U+30FC 1
 62
   179
420
  2234388
370
     9
100
AcDbVertex
100
AcDb2dVertex
 10
86.89286861651156
 20
-108.4324941395585
 30
0.0
  0
VERTEX
  5
B1
330
AF
100
AcDbEntity
  8
_U+30EC_U+30A4_U+30E4_U+30FC 1
 62
   179
420
  2234388
370
     9
100
AcDbVertex
100
AcDb2dVertex
 10
86.89286861651156
 20
-105.9726805290625
 30
0.0
  0
SEQEND
  5
B2
330
AF
100
AcDbEntity
  8
_U+30EC_U+30A4_U+30E4_U+30FC 1
 62
   179
420
  2234388
370
     9
  0
POLYLINE
  5
B3
330
1F
100
AcDbEntity
  8
_U+30EC_U+30A4_U+30E4_U+30FC 1
 62
   179
420
  2234388
370
     9
100
AcDb2dPolyline
 66
     1
 10
0.0
 20
0.0
 30
0.0
  0
VERTEX
  5
B4
330
B3
100
AcDbEntity
  8
_U+30EC_U+30A4_U+30E4_U+30FC 1
 62
   179
420
  2234388
370
     9
100
AcDbVertex
100
AcDb2dVertex
 10
107.8934822474079
 20
-129.4329319120865
 30
0.0
  0
VERTEX
  5
B5
330
B3
100
AcDbEntity
  8
_U+30EC_U+30A4_U+30E4_U+30FC 1
 62
   179
420
  2234388
370
     9
100
AcDbVertex
100
AcDb2dVertex
 10
107.8934822474079
 20
-105.9726805290625
 30
0.0
  0
SEQEND
  5
B6
330
B3
100
AcDbEntity
  8
_U+30EC_U+30A4_U+30E4_U+30FC 1
 62
   179
420
  2234388
370
     9
  0
SPLINE
  5
B7
330
1F
100
AcDbEntity
  8
_U+30EC_U+30A4_U+30E4_U+30FC 1
 62
   179
420
  2234388
370
     5
100
AcDbSpline
210
0.0
220
0.0
230
1.0
 70
    11
 71
     3
 72
    17
 73
    13
 74
     0
 42
0.0000000001
 43
0.0000000001
 12
1.0
 22
0.0
 32
0.0
 13
1.0
 23
0.0
 33
0.0
 40
0.0
 40
0.0
 40
0.0
 40
0.0
 40
1.0
 40
1.0
 40
1.0
 40
2.0
 40
2.0
 40
2.0
 40
3.0
 40
3.0
 40
3.0
 40
4.0
 40
4.0
 40
4.0
 40
4.0
 10
86.92871083781938
 20
-110.9725646944791
 30
0.0
 10
86.92871083781938
 20
-110.9921791389185
 30
0.0
 10
86.91287111600127
 20
-111.0080541389146
 30
0.0
 10
86.89286861651156
 20
-111.0080541389146
 30
0.0
 10
86.87360695033631
 20
-111.0080541389146
 30
0.0
 10
86.85773195074131
 20
-110.9921791389185
 30
0.0
 10
86.85773195074131
 20
-110.9725646944791
 30
0.0
 10
86.85773195074131
 20
-110.9532677500396
 30
0.0
 10
86.87360695033631
 20
-110.9374280278214
 30
0.0
 10
86.89286861651156
 20
-110.9374280278214
 30
0.0
 10
86.91287111600127
 20
-110.9374280278214
 30
0.0
 10
86.92871083781938
 20
-110.9532677500396
 30
0.0
 10
86.92871083781938
 20
-110.9725646944791
 30
0.0
  0
SPLINE
  5
B8
330
1F
100
AcDbEntity
  8
_U+30EC_U+30A4_U+30E4_U+30FC 1
 62
   179
420
  2234388
370
    25
100
AcDbSpline
210
0.0
220
0.0
230
1.0
 70
    11
 71
     3
 72
    17
 73
    13
 74
     0
 42
0.0000000001
 43
0.0000000001
 12
1.0
 22
0.0
 32
0.0
 13
1.0
 23
0.0
 33
0.0
 40
0.0
 40
0.0
 40
0.0
 40
0.0
 40
1.0
 40
1.0
 40
1.0
 40
2.0
 40
2.0
 40
2.0
 40
3.0
 40
3.0
 40
3.0
 40
4.0
 40
4.0
 40
4.0
 40
4.0
 10
107.9286541909551
 20
-131.972649689229
 30
0.0
 10
107.9286541909551
 20
-131.9919466336688
 30
0.0
 10
107.9127791913601
 20
-132.0077863558867
 30
0.0
 10
107.8934822474079
 20
-132.0077863558867
 30
0.0
 10
107.8735150256951
 20
-132.0077863558867
 30
0.0
 10
107.857675303877
 20
-131.9919466336688
 30
0.0
 10
107.857675303877
 20
-131.972649689229
 30
0.0
 10
107.857675303877
 20
-131.9533527447892
 30
0.0
 10
107.8735150256951
 20
-131.9375130225713
 30
0.0
 10
107.8934822474079
 20
-131.9375130225713
 30
0.0
 10
107.9127791913601
 20
-131.9375130225713
 30
0.0
 10
107.9286541909551
 20
-131.9533527447892
 30
0.0
 10
107.9286541909551
 20
-131.972649689229
 30
0.0
  0
POLYLINE
  5
B9
330
1F
100
AcDbEntity
  8
_U+30EC_U+30A4_U+30E4_U+30FC 1
 62
   179
420
  2234388
370
     9
100
AcDb2dPolyline
 66
     1
 10
0.0
 20
0.0
 30
0.0
  0
VERTEX
  5
BA
330
B9
100
AcDbEntity
  8
_U+30EC_U+30A4_U+30E4_U+30FC 1
 62
   179
420
  2234388
370
     9
100
AcDbVertex
100
AcDb2dVertex
 10
111.8932413120323
 20
-110.9725646944791
 30
0.0
  0
VERTEX
  5
BB
330
B9
100
AcDbEntity
  8
_U+30EC_U+30A4_U+30E4_U+30FC 1
 62
   179
420
  2234388
370
     9
100
AcDbVertex
100
AcDb2dVertex
 10
111.8932413120323
 20
-131.972649689229
 30
0.0
  0
SEQEND
  5
BC
330
B9
100
AcDbEntity
  8
_U+30EC_U+30A4_U+30E4_U+30FC 1
 62
   179
420
  2234388
370
     9
  0
POLYLINE
  5
BD
330
1F
100
AcDbEntity
  8
_U+30EC_U+30A4_U+30E4_U+30FC 1
 62
   179
420
  2234388
370
     9
100
AcDb2dPolyline
 66
     1
 10
0.0
 20
0.0
 30
0.0
  0
VERTEX
  5
BE
330
BD
100
AcDbEntity
  8
_U+30EC_U+30A4_U+30E4_U+30FC 1
 62
   179
420
  2234388
370
     9
100
AcDbVertex
100
AcDb2dVertex
 10
89.43329188503331
 20
-110.9725646944791
 30
0.0
  0
VERTEX
  5
BF
330
BD
100
AcDbEntity
  8
_U+30EC_U+30A4_U+30E4_U+30FC 1
 62
   179
420
  2234388
370
     9
100
AcDbVertex
100
AcDb2dVertex
 10
112.8930135087482
 20
-110.9725646944791
 30
0.0
  0
SEQEND
  5
C0
330
BD
100
AcDbEntity
  8
_U+30EC_U+30A4_U+30E4_U+30FC 1
 62
   179
420
  2234388
370
     9
  0
POLYLINE
  5
C1
330
1F
100
AcDbEntity
  8
_U+30EC_U+30A4_U+30E4_U+30FC 1
 62
   179
420
  2234388
370
     9
100
AcDb2dPolyline
 66
     1
 10
0.0
 20
0.0
 30
0.0
  0
VERTEX
  5
C2
330
C1
100
AcDbEntity
  8
_U+30EC_U+30A4_U+30E4_U+30FC 1
 62
   179
420
  2234388
370
     9
100
AcDbVertex
100
AcDb2dVertex
 10
110.433235238169
 20
-131.972649689229
 30
0.0
  0
VERTEX
  5
C3
330
C1
100
AcDbEntity
  8
_U+30EC_U+30A4_U+30E4_U+30FC 1
 62
   179
420
  2234388
370
     9
100
AcDbVertex
100
AcDb2dVertex
 10
112.8930135087482
 20
-131.972649689229
 30
0.0
  0
SEQEND
  5
C4
330
C1
100
AcDbEntity
  8
_U+30EC_U+30A4_U+30E4_U+30FC 1
 62
   179
420
  2234388
370
     9
  0
INSERT
  5
C6
330
1F
100
AcDbEntity
  8
_U+30EC_U+30A4_U+30E4_U+30FC 1
100
AcDbBlockReference
  2
block 3
 10
0.0
 20
0.0
 30
0.0
  0
SPLINE
  5
CD
330
1F
100
AcDbEntity
  8
_U+30EC_U+30A4_U+30E4_U+30FC 1
 62
   179
420
  2234388
370
     5
100
AcDbSpline
210
0.0
220
0.0
230
1.0
 70
    11
 71
     3
 72
    17
 73
    13
 74
     0
 42
0.0000000001
 43
0.0000000001
 12
1.0
 22
0.0
 32
0.0
 13
1.0
 23
0.0
 33
0.0
 40
0.0
 40
0.0
 40
0.0
 40
0.0
 40
1.0
 40
1.0
 40
1.0
 40
2.0
 40
2.0
 40
2.0
 40
3.0
 40
3.0
 40
3.0
 40
4.0
 40
4.0
 40
4.0
 40
4.0
 10
86.92871083781938
 20
-110.9725646944791
 30
0.0
 10
86.92871083781938
 20
-110.9921791389185
 30
0.0
 10
86.91287111600127
 20
-111.0080541389146
 30
0.0
 10
86.89286861651156
 20
-111.0080541389146
 30
0.0
 10
86.87360695033631
 20
-111.0080541389146
 30
0.0
 10
86.85773195074131
 20
-110.9921791389185
 30
0.0
 10
86.85773195074131
 20
-110.9725646944791
 30
0.0
 10
86.85773195074131
 20
-110.9532677500396
 30
0.0
 10
86.87360695033631
 20
-110.9374280278214
 30
0.0
 10
86.89286861651156
 20
-110.9374280278214
 30
0.0
 10
86.91287111600127
 20
-110.9374280278214
 30
0.0
 10
86.92871083781938
 20
-110.9532677500396
 30
0.0
 10
86.92871083781938
 20
-110.9725646944791
 30
0.0
  0
SPLINE
  5
CE
330
1F
100
AcDbEntity
  8
_U+30EC_U+30A4_U+30E4_U+30FC 1
 62
   179
420
  2234388
370
    25
100
AcDbSpline
210
0.0
220
0.0
230
1.0
 70
    11
 71
     3
 72
    17
 73
    13
 74
     0
 42
0.0000000001
 43
0.0000000001
 12
1.0
 22
0.0
 32
0.0
 13
1.0
 23
0.0
 33
0.0
 40
0.0
 40
0.0
 40
0.0
 40
0.0
 40
1.0
 40
1.0
 40
1.0
 40
2.0
 40
2.0
 40
2.0
 40
3.0
 40
3.0
 40
3.0
 40
4.0
 40
4.0
 40
4.0
 40
4.0
 10
107.9286541909551
 20
-131.972649689229
 30
0.0
 10
107.9286541909551
 20
-131.9919466336688
 30
0.0
 10
107.9127791913601
 20
-132.0077863558867
 30
0.0
 10
107.8934822474079
 20
-132.0077863558867
 30
0.0
 10
107.8735150256951
 20
-132.0077863558867
 30
0.0
 10
107.857675303877
 20
-131.9919466336688
 30
0.0
 10
107.857675303877
 20
-131.972649689229
 30
0.0
 10
107.857675303877
 20
-131.9533527447892
 30
0.0
 10
107.8735150256951
 20
-131.9375130225713
 30
0.0
 10
107.8934822474079
 20
-131.9375130225713
 30
0.0
 10
107.9127791913601
 20
-131.9375130225713
 30
0.0
 10
107.9286541909551
 20
-131.9533527447892
 30
0.0
 10
107.9286541909551
 20
-131.972649689229
 30
0.0
  0
SPLINE
  5
CF
330
1F
100
AcDbEntity
  8
_U+30EC_U+30A4_U+30E4_U+30FC 1
 62
   179
420
  2234388
370
     9
100
AcDbSpline
210
0.0
220
0.0
230
1.0
 70
    11
 71
     3
 72
    17
 73
    13
 74
     0
 42
0.0000000001
 43
0.0000000001
 12
1.0
 22
0.0
 32
0.0
 13
1.0
 23
0.0
 33
0.0
 40
0.0
 40
0.0
 40
0.0
 40
0.0
 40
1.0
 40
1.0
 40
1.0
 40
2.0
 40
2.0
 40
2.0
 40
3.0
 40
3.0
 40
3.0
 40
4.0
 40
4.0
 40
4.0
 40
4.0
 10
111.9283779778025
 20
-131.972649689229
 30
0.0
 10
111.9283779778025
 20
-131.9919466336688
 30
0.0
 10
111.9125382559844
 20
-132.0077863558867
 30
0.0
 10
111.8932413120323
 20
-132.0077863558867
 30
0.0
 10
111.8739471942536
 20
-132.0077863558867
 30
0.0
 10
111.858104646262
 20
-131.9919466336688
 30
0.0
 10
111.858104646262
 20
-131.972649689229
 30
0.0
 10
111.858104646262
 20
-131.9533527447892
 30
0.0
 10
111.8739471942536
 20
-131.9375130225713
 30
0.0
 10
111.8932413120323
 20
-131.9375130225713
 30
0.0
 10
111.9125382559844
 20
-131.9375130225713
 30
0.0
 10
111.9283779778025
 20
-131.9533527447892
 30
0.0
 10
111.9283779778025
 20
-131.972649689229
 30
0.0
  0
POLYLINE
  5
D0
330
1F
100
AcDbEntity
  8
_U+30EC_U+30A4_U+30E4_U+30FC 1
 62
   179
420
  2234388
370
     9
100
AcDb2dPolyline
 66
     1
 10
0.0
 20
0.0
 30
0.0
  0
VERTEX
  5
D1
330
D0
100
AcDbEntity
  8
_U+30EC_U+30A4_U+30E4_U+30FC 1
 62
   179
420
  2234388
370
     9
100
AcDbVertex
100
AcDb2dVertex
 10
76.3929322177206
 20
-148.4725955184376
 30
0.0
  0
VERTEX
  5
D2
330
D0
100
AcDbEntity
  8
_U+30EC_U+30A4_U+30E4_U+30FC 1
 62
   179
420
  2234388
370
     9
100
AcDbVertex
100
AcDb2dVertex
 10
94.39285342517101
 20
-148.4725955184376
 30
0.0
  0
SEQEND
  5
D3
330
D0
100
AcDbEntity
  8
_U+30EC_U+30A4_U+30E4_U+30FC 1
 62
   179
420
  2234388
370
     9
  0
POLYLINE
  5
D4
330
1F
100
AcDbEntity
  8
_U+30EC_U+30A4_U+30E4_U+30FC 1
 62
   179
420
  2234388
370
     9
100
AcDb2dPolyline
 66
     1
 10
0.0
 20
0.0
 30
0.0
  0
VERTEX
  5
D5
330
D4
100
AcDbEntity
  8
_U+30EC_U+30A4_U+30E4_U+30FC 1
 62
   179
420
  2234388
370
     9
100
AcDbVertex
100
AcDb2dVertex
 10
76.3929322177206
 20
-142.5125913532608
 30
0.0
  0
VERTEX
  5
D6
330
D4
100
AcDbEntity
  8
_U+30EC_U+30A4_U+30E4_U+30FC 1
 62
   179
420
  2234388
370
     9
100
AcDbVertex
100
AcDb2dVertex
 10
76.3929322177206
 20
-149.4723677404095
 30
0.0
  0
SEQEND
  5
D7
330
D4
100
AcDbEntity
  8
_U+30EC_U+30A4_U+30E4_U+30FC 1
 62
   179
420
  2234388
370
     9
  0
POLYLINE
  5
D8
330
1F
100
AcDbEntity
  8
_U+30EC_U+30A4_U+30E4_U+30FC 1
 62
   179
420
  2234388
370
     9
100
AcDb2dPolyline
 66
     1
 10
0.0
 20
0.0
 30
0.0
  0
VERTEX
  5
D9
330
D8
100
AcDbEntity
  8
_U+30EC_U+30A4_U+30E4_U+30FC 1
 62
   179
420
  2234388
370
     9
100
AcDbVertex
100
AcDb2dVertex
 10
94.39285342517101
 20
-144.0125671862189
 30
0.0
  0
VERTEX
  5
DA
330
D8
100
AcDbEntity
  8
_U+30EC_U+30A4_U+30E4_U+30FC 1
 62
   179
420
  2234388
370
     9
100
AcDbVertex
100
AcDb2dVertex
 10
94.39285342517101
 20
-149.4723677404095
 30
0.0
  0
SEQEND
  5
DB
330
D8
100
AcDbEntity
  8
_U+30EC_U+30A4_U+30E4_U+30FC 1
 62
   179
420
  2234388
370
     9
  0
INSERT
  5
DD
330
1F
100
AcDbEntity
  8
_U+30EC_U+30A4_U+30E4_U+30FC 1
100
AcDbBlockReference
  2
block 4
 10
0.0
 20
0.0
 30
0.0
  0
SPLINE
  5
E6
330
1F
100
AcDbEntity
  8
_U+30EC_U+30A4_U+30E4_U+30FC 1
 62
   179
420
  2234388
370
     5
100
AcDbSpline
210
0.0
220
0.0
230
1.0
 70
    11
 71
     3
 72
    17
 73
    13
 74
     0
 42
0.0000000001
 43
0.0000000001
 12
1.0
 22
0.0
 32
0.0
 13
1.0
 23
0.0
 33
0.0
 40
0.0
 40
0.0
 40
0.0
 40
0.0
 40
1.0
 40
1.0
 40
1.0
 40
2.0
 40
2.0
 40
2.0
 40
3.0
 40
3.0
 40
3.0
 40
4.0
 40
4.0
 40
4.0
 40
4.0
 10
76.42873916125153
 20
-139.9728382983402
 30
0.0
 10
76.42873916125153
 20
-139.99213524278
 30
0.0
 10
76.41289943943342
 20
-140.0079749649979
 30
0.0
 10
76.3929322177206
 20
-140.0079749649979
 30
0.0
 10
76.37363527376846
 20
-140.0079749649979
 30
0.0
 10
76.35779555195035
 20
-139.99213524278
 30
0.0
 10
76.35779555195035
 20
-139.9728382983402
 30
0.0
 10
76.35779555195035
 20
-139.952871076123
 30
0.0
 10
76.37363527376846
 20
-139.9370313539044
 30
0.0
 10
76.3929322177206
 20
-139.9370313539044
 30
0.0
 10
76.41289943943342
 20
-139.9370313539044
 30
0.0
 10
76.42873916125153
 20
-139.952871076123
 30
0.0
 10
76.42873916125153
 20
-139.9728382983402
 30
0.0
  0
SPLINE
  5
E7
330
1F
100
AcDbEntity
  8
_U+30EC_U+30A4_U+30E4_U+30FC 1
 62
   179
420
  2234388
370
    25
100
AcDbSpline
210
0.0
220
0.0
230
1.0
 70
    11
 71
     3
 72
    17
 73
    13
 74
     0
 42
0.0000000001
 43
0.0000000001
 12
1.0
 22
0.0
 32
0.0
 13
1.0
 23
0.0
 33
0.0
 40
0.0
 40
0.0
 40
0.0
 40
0.0
 40
1.0
 40
1.0
 40
1.0
 40
2.0
 40
2.0
 40
2.0
 40
3.0
 40
3.0
 40
3.0
 40
4.0
 40
4.0
 40
4.0
 40
4.0
 10
94.42869564647883
 20
-141.4728494090764
 30
0.0
 10
94.42869564647883
 20
-141.4921463535156
 30
0.0
 10
94.41285830973027
 20
-141.5079860757341
 30
0.0
 10
94.39285342517101
 20
-141.5079860757341
 30
0.0
 10
94.37355648121888
 20
-141.5079860757341
 30
0.0
 10
94.35771675940076
 20
-141.4921463535156
 30
0.0
 10
94.35771675940076
 20
-141.4728494090764
 30
0.0
 10
94.35771675940076
 20
-141.4528821868592
 30
0.0
 10
94.37355648121888
 20
-141.4370071868632
 30
0.0
 10
94.39285342517101
 20
-141.4370071868632
 30
0.0
 10
94.41285830973027
 20
-141.4370071868632
 30
0.0
 10
94.42869564647883
 20
-141.4528821868592
 30
0.0
 10
94.42869564647883
 20
-141.4728494090764
 30
0.0
  0
SPLINE
  5
E8
330
1F
100
AcDbEntity
  8
_U+30EC_U+30A4_U+30E4_U+30FC 1
 62
   179
420
  2234388
370
     9
100
AcDbSpline
210
0.0
220
0.0
230
1.0
 70
    11
 71
     3
 72
    17
 73
    13
 74
     0
 42
0.0000000001
 43
0.0000000001
 12
1.0
 22
0.0
 32
0.0
 13
1.0
 23
0.0
 33
0.0
 40
0.0
 40
0.0
 40
0.0
 40
0.0
 40
1.0
 40
1.0
 40
1.0
 40
2.0
 40
2.0
 40
2.0
 40
3.0
 40
3.0
 40
3.0
 40
4.0
 40
4.0
 40
4.0
 40
4.0
 10
94.42869564647883
 20
-148.4725955184376
 30
0.0
 10
94.42869564647883
 20
-148.4918924628768
 30
0.0
 10
94.41285830973027
 20
-148.5077321850953
 30
0.0
 10
94.39285342517101
 20
-148.5077321850953
 30
0.0
 10
94.37355648121888
 20
-148.5077321850953
 30
0.0
 10
94.35771675940076
 20
-148.4918924628768
 30
0.0
 10
94.35771675940076
 20
-148.4725955184376
 30
0.0
 10
94.35771675940076
 20
-148.4532985739978
 30
0.0
 10
94.37355648121888
 20
-148.4374588517793
 30
0.0
 10
94.39285342517101
 20
-148.4374588517793
 30
0.0
 10
94.41285830973027
 20
-148.4374588517793
 30
0.0
 10
94.42869564647883
 20
-148.4532985739978
 30
0.0
 10
94.42869564647883
 20
-148.4725955184376
 30
0.0
  0
POLYLINE
  5
E9
330
1F
100
AcDbEntity
  8
_U+30EC_U+30A4_U+30E4_U+30FC 1
 62
   179
420
  2234388
370
     9
100
AcDb2dPolyline
 66
     1
 10
0.0
 20
0.0
 30
0.0
  0
VERTEX
  5
EA
330
E9
100
AcDbEntity
  8
_U+30EC_U+30A4_U+30E4_U+30FC 1
 62
   179
420
  2234388
370
     9
100
AcDbVertex
100
AcDb2dVertex
 10
77.39337469219718
 20
-120.4729055254372
 30
0.0
  0
VERTEX
  5
EB
330
E9
100
AcDbEntity
  8
_U+30EC_U+30A4_U+30E4_U+30FC 1
 62
   179
420
  2234388
370
     9
100
AcDbVertex
100
AcDb2dVertex
 10
85.89313169757254
 20
-120.4729055254372
 30
0.0
  0
SEQEND
  5
EC
330
E9
100
AcDbEntity
  8
_U+30EC_U+30A4_U+30E4_U+30FC 1
 62
   179
420
  2234388
370
     9
  0
POLYLINE
  5
ED
330
1F
100
AcDbEntity
  8
_U+30EC_U+30A4_U+30E4_U+30FC 1
 62
   179
420
  2234388
370
     9
100
AcDb2dPolyline
 66
     1
 10
0.0
 20
0.0
 30
0.0
  0
VERTEX
  5
EE
330
ED
100
AcDbEntity
  8
_U+30EC_U+30A4_U+30E4_U+30FC 1
 62
   179
420
  2234388
370
     9
100
AcDbVertex
100
AcDb2dVertex
 10
77.39337469219718
 20
-121.9329469139612
 30
0.0
  0
VERTEX
  5
EF
330
ED
100
AcDbEntity
  8
_U+30EC_U+30A4_U+30E4_U+30FC 1
 62
   179
420
  2234388
370
     9
100
AcDbVertex
100
AcDb2dVertex
 10
77.39337469219718
 20
-119.4724630256873
 30
0.0
  0
SEQEND
  5
F0
330
ED
100
AcDbEntity
  8
_U+30EC_U+30A4_U+30E4_U+30FC 1
 62
   179
420
  2234388
370
     9
  0
INSERT
  5
F2
330
1F
100
AcDbEntity
  8
_U+30EC_U+30A4_U+30E4_U+30FC 1
100
AcDbBlockReference
  2
block 5
 10
0.0
 20
0.0
 30
0.0
  0
SPLINE
  5
103
330
1F
100
AcDbEntity
  8
_U+30EC_U+30A4_U+30E4_U+30FC 1
 62
   179
420
  2234388
370
    25
100
AcDbSpline
210
0.0
220
0.0
230
1.0
 70
    11
 71
     3
 72
    17
 73
    13
 74
     0
 42
0.0000000001
 43
0.0000000001
 12
1.0
 22
0.0
 32
0.0
 13
1.0
 23
0.0
 33
0.0
 40
0.0
 40
0.0
 40
0.0
 40
0.0
 40
1.0
 40
1.0
 40
1.0
 40
2.0
 40
2.0
 40
2.0
 40
3.0
 40
3.0
 40
3.0
 40
4.0
 40
4.0
 40
4.0
 40
4.0
 10
77.42851135796744
 20
-124.4726646911041
 30
0.0
 10
77.42851135796744
 20
-124.4919616355436
 30
0.0
 10
77.41267163614933
 20
-124.5078013577618
 30
0.0
 10
77.39337469219718
 20
-124.5078013577618
 30
0.0
 10
77.37340747048437
 20
-124.5078013577618
 30
0.0
 10
77.35823802642693
 20
-124.4919616355436
 30
0.0
 10
77.35823802642693
 20
-124.4726646911041
 30
0.0
 10
77.35823802642693
 20
-124.4534030244421
 30
0.0
 10
77.37340747048437
 20
-124.4375280244464
 30
0.0
 10
77.39337469219718
 20
-124.4375280244464
 30
0.0
 10
77.41267163614933
 20
-124.4375280244464
 30
0.0
 10
77.42851135796744
 20
-124.4534030244421
 30
0.0
 10
77.42851135796744
 20
-124.4726646911041
 30
0.0
  0
SPLINE
  5
104
330
1F
100
AcDbEntity
  8
_U+30EC_U+30A4_U+30E4_U+30FC 1
 62
   179
420
  2234388
370
     9
100
AcDbSpline
210
0.0
220
0.0
230
1.0
 70
    11
 71
     3
 72
    17
 73
    13
 74
     0
 42
0.0000000001
 43
0.0000000001
 12
1.0
 22
0.0
 32
0.0
 13
1.0
 23
0.0
 33
0.0
 40
0.0
 40
0.0
 40
0.0
 40
0.0
 40
1.0
 40
1.0
 40
1.0
 40
2.0
 40
2.0
 40
2.0
 40
3.0
 40
3.0
 40
3.0
 40
4.0
 40
4.0
 40
4.0
 40
4.0
 10
85.9282683633428
 20
-120.4729055254372
 30
0.0
 10
85.9282683633428
 20
-120.492202469877
 30
0.0
 10
85.91242864152468
 20
-120.5080774698731
 30
0.0
 10
85.89313169757254
 20
-120.5080774698731
 30
0.0
 10
85.8738347536204
 20
-120.5080774698731
 30
0.0
 10
85.85799720075786
 20
-120.492202469877
 30
0.0
 10
85.85799720075786
 20
-120.4729055254372
 30
0.0
 10
85.85799720075786
 20
-120.45293830322
 30
0.0
 10
85.8738347536204
 20
-120.4370985810018
 30
0.0
 10
85.89313169757254
 20
-120.4370985810018
 30
0.0
 10
85.91242864152468
 20
-120.4370985810018
 30
0.0
 10
85.9282683633428
 20
-120.45293830322
 30
0.0
 10
85.9282683633428
 20
-120.4729055254372
 30
0.0
  0
SPLINE
  5
105
330
1F
100
AcDbEntity
  8
_U+30EC_U+30A4_U+30E4_U+30FC 1
 62
   179
420
  2234388
370
     9
100
AcDbSpline
210
0.0
220
0.0
230
1.0
 70
    11
 71
     3
 72
    17
 73
    13
 74
     0
 42
0.0000000001
 43
0.0000000001
 12
1.0
 22
0.0
 32
0.0
 13
1.0
 23
0.0
 33
0.0
 40
0.0
 40
0.0
 40
0.0
 40
0.0
 40
1.0
 40
1.0
 40
1.0
 40
2.0
 40
2.0
 40
2.0
 40
3.0
 40
3.0
 40
3.0
 40
4.0
 40
4.0
 40
4.0
 40
4.0
 10
85.9282683633428
 20
-120.4729055254372
 30
0.0
 10
85.9282683633428
 20
-120.492202469877
 30
0.0
 10
85.91242864152468
 20
-120.5080774698731
 30
0.0
 10
85.89313169757254
 20
-120.5080774698731
 30
0.0
 10
85.8738347536204
 20
-120.5080774698731
 30
0.0
 10
85.85799720075786
 20
-120.492202469877
 30
0.0
 10
85.85799720075786
 20
-120.4729055254372
 30
0.0
 10
85.85799720075786
 20
-120.45293830322
 30
0.0
 10
85.8738347536204
 20
-120.4370985810018
 30
0.0
 10
85.89313169757254
 20
-120.4370985810018
 30
0.0
 10
85.91242864152468
 20
-120.4370985810018
 30
0.0
 10
85.9282683633428
 20
-120.45293830322
 30
0.0
 10
85.9282683633428
 20
-120.4729055254372
 30
0.0
  0
POLYLINE
  5
106
330
1F
100
AcDbEntity
  8
_U+30EC_U+30A4_U+30E4_U+30FC 1
 62
   179
420
  2234388
370
     9
100
AcDb2dPolyline
 66
     1
 10
0.0
 20
0.0
 30
0.0
  0
VERTEX
  5
107
330
106
100
AcDbEntity
  8
_U+30EC_U+30A4_U+30E4_U+30FC 1
 62
   179
420
  2234388
370
     9
100
AcDbVertex
100
AcDb2dVertex
 10
76.3929322177206
 20
-120.4729055254372
 30
0.0
  0
VERTEX
  5
108
330
106
100
AcDbEntity
  8
_U+30EC_U+30A4_U+30E4_U+30FC 1
 62
   179
420
  2234388
370
     9
100
AcDbVertex
100
AcDb2dVertex
 10
72.62261981390928
 20
-120.4729055254372
 30
0.0
  0
SEQEND
  5
109
330
106
100
AcDbEntity
  8
_U+30EC_U+30A4_U+30E4_U+30FC 1
 62
   179
420
  2234388
370
     9
  0
POLYLINE
  5
10A
330
1F
100
AcDbEntity
  8
_U+30EC_U+30A4_U+30E4_U+30FC 1
 62
   179
420
  2234388
370
     9
100
AcDb2dPolyline
 66
     1
 10
0.0
 20
0.0
 30
0.0
  0
VERTEX
  5
10B
330
10A
100
AcDbEntity
  8
_U+30EC_U+30A4_U+30E4_U+30FC 1
 62
   179
420
  2234388
370
     9
100
AcDbVertex
100
AcDb2dVertex
 10
77.39337469219718
 20
-120.4729055254372
 30
0.0
  0
VERTEX
  5
10C
330
10A
100
AcDbEntity
  8
_U+30EC_U+30A4_U+30E4_U+30FC 1
 62
   179
420
  2234388
370
     9
100
AcDbVertex
100
AcDb2dVertex
 10
76.3929322177206
 20
-120.4729055254372
 30
0.0
  0
SEQEND
  5
10D
330
10A
100
AcDbEntity
  8
_U+30EC_U+30A4_U+30E4_U+30FC 1
 62
   179
420
  2234388
370
     9
  0
POLYLINE
  5
10E
330
1F
100
AcDbEntity
  8
_U+30EC_U+30A4_U+30E4_U+30FC 1
 62
   179
420
  2234388
370
     9
100
AcDb2dPolyline
 66
     1
 10
0.0
 20
0.0
 30
0.0
  0
VERTEX
  5
10F
330
10E
100
AcDbEntity
  8
_U+30EC_U+30A4_U+30E4_U+30FC 1
 62
   179
420
  2234388
370
     9
100
AcDbVertex
100
AcDb2dVertex
 10
76.3929322177206
 20
-122.9327191359334
 30
0.0
  0
VERTEX
  5
110
330
10E
100
AcDbEntity
  8
_U+30EC_U+30A4_U+30E4_U+30FC 1
 62
   179
420
  2234388
370
     9
100
AcDbVertex
100
AcDb2dVertex
 10
76.3929322177206
 20
-119.4724630256873
 30
0.0
  0
SEQEND
  5
111
330
10E
100
AcDbEntity
  8
_U+30EC_U+30A4_U+30E4_U+30FC 1
 62
   179
420
  2234388
370
     9
  0
INSERT
  5
113
330
1F
100
AcDbEntity
  8
_U+30EC_U+30A4_U+30E4_U+30FC 1
100
AcDbBlockReference
  2
block 6
 10
0.0
 20
0.0
 30
0.0
  0
SPLINE
  5
118
330
1F
100
AcDbEntity
  8
_U+30EC_U+30A4_U+30E4_U+30FC 1
 62
   179
420
  2234388
370
    25
100
AcDbSpline
210
0.0
220
0.0
230
1.0
 70
    11
 71
     3
 72
    17
 73
    13
 74
     0
 42
0.0000000001
 43
0.0000000001
 12
1.0
 22
0.0
 32
0.0
 13
1.0
 23
0.0
 33
0.0
 40
0.0
 40
0.0
 40
0.0
 40
0.0
 40
1.0
 40
1.0
 40
1.0
 40
2.0
 40
2.0
 40
2.0
 40
3.0
 40
3.0
 40
3.0
 40
4.0
 40
4.0
 40
4.0
 40
4.0
 10
77.42851135796744
 20
-124.4726646911041
 30
0.0
 10
77.42851135796744
 20
-124.4919616355436
 30
0.0
 10
77.41267163614933
 20
-124.5078013577618
 30
0.0
 10
77.39337469219718
 20
-124.5078013577618
 30
0.0
 10
77.37340747048437
 20
-124.5078013577618
 30
0.0
 10
77.35823802642693
 20
-124.4919616355436
 30
0.0
 10
77.35823802642693
 20
-124.4726646911041
 30
0.0
 10
77.35823802642693
 20
-124.4534030244421
 30
0.0
 10
77.37340747048437
 20
-124.4375280244464
 30
0.0
 10
77.39337469219718
 20
-124.4375280244464
 30
0.0
 10
77.41267163614933
 20
-124.4375280244464
 30
0.0
 10
77.42851135796744
 20
-124.4534030244421
 30
0.0
 10
77.42851135796744
 20
-124.4726646911041
 30
0.0
  0
SPLINE
  5
119
330
1F
100
AcDbEntity
  8
_U+30EC_U+30A4_U+30E4_U+30FC 1
 62
   179
420
  2234388
370
    25
100
AcDbSpline
210
0.0
220
0.0
230
1.0
 70
    11
 71
     3
 72
    17
 73
    13
 74
     0
 42
0.0000000001
 43
0.0000000001
 12
1.0
 22
0.0
 32
0.0
 13
1.0
 23
0.0
 33
0.0
 40
0.0
 40
0.0
 40
0.0
 40
0.0
 40
1.0
 40
1.0
 40
1.0
 40
2.0
 40
2.0
 40
2.0
 40
3.0
 40
3.0
 40
3.0
 40
4.0
 40
4.0
 40
4.0
 40
4.0
 10
76.42873916125153
 20
-125.4724369130763
 30
0.0
 10
76.42873916125153
 20
-125.4924394130713
 30
0.0
 10
76.41289943943342
 20
-125.5075735797343
 30
0.0
 10
76.3929322177206
 20
-125.5075735797343
 30
0.0
 10
76.37363527376846
 20
-125.5075735797343
 30
0.0
 10
76.35779555195035
 20
-125.4924394130713
 30
0.0
 10
76.35779555195035
 20
-125.4724369130763
 30
0.0
 10
76.35779555195035
 20
-125.4531399686368
 30
0.0
 10
76.37363527376846
 20
-125.4373002464186
 30
0.0
 10
76.3929322177206
 20
-125.4373002464186
 30
0.0
 10
76.41289943943342
 20
-125.4373002464186
 30
0.0
 10
76.42873916125153
 20
-125.4531399686368
 30
0.0
 10
76.42873916125153
 20
-125.4724369130763
 30
0.0
  0
SPLINE
  5
11A
330
1F
100
AcDbEntity
  8
_U+30EC_U+30A4_U+30E4_U+30FC 1
 62
   179
420
  2234388
370
     9
100
AcDbSpline
210
0.0
220
0.0
230
1.0
 70
    11
 71
     3
 72
    17
 73
    13
 74
     0
 42
0.0000000001
 43
0.0000000001
 12
1.0
 22
0.0
 32
0.0
 13
1.0
 23
0.0
 33
0.0
 40
0.0
 40
0.0
 40
0.0
 40
0.0
 40
1.0
 40
1.0
 40
1.0
 40
2.0
 40
2.0
 40
2.0
 40
3.0
 40
3.0
 40
3.0
 40
4.0
 40
4.0
 40
4.0
 40
4.0
 10
76.42873916125153
 20
-120.4729055254372
 30
0.0
 10
76.42873916125153
 20
-120.492202469877
 30
0.0
 10
76.41289943943342
 20
-120.5080774698731
 30
0.0
 10
76.3929322177206
 20
-120.5080774698731
 30
0.0
 10
76.37363527376846
 20
-120.5080774698731
 30
0.0
 10
76.35779555195035
 20
-120.492202469877
 30
0.0
 10
76.35779555195035
 20
-120.4729055254372
 30
0.0
 10
76.35779555195035
 20
-120.45293830322
 30
0.0
 10
76.37363527376846
 20
-120.4370985810018
 30
0.0
 10
76.3929322177206
 20
-120.4370985810018
 30
0.0
 10
76.41289943943342
 20
-120.4370985810018
 30
0.0
 10
76.42873916125153
 20
-120.45293830322
 30
0.0
 10
76.42873916125153
 20
-120.4729055254372
 30
0.0
  0
POLYLINE
  5
11B
330
1F
100
AcDbEntity
  8
_U+30EC_U+30A4_U+30E4_U+30FC 1
 62
   179
420
  2234388
370
     9
100
AcDb2dPolyline
 66
     1
 10
0.0
 20
0.0
 30
0.0
  0
VERTEX
  5
11C
330
11B
100
AcDbEntity
  8
_U+30EC_U+30A4_U+30E4_U+30FC 1
 62
   179
420
  2234388
370
     9
100
AcDbVertex
100
AcDb2dVertex
 10
94.39285342517101
 20
-148.4725955184376
 30
0.0
  0
VERTEX
  5
11D
330
11B
100
AcDbEntity
  8
_U+30EC_U+30A4_U+30E4_U+30FC 1
 62
   179
420
  2234388
370
     9
100
AcDbVertex
100
AcDb2dVertex
 10
107.8934822474079
 20
-148.4725955184376
 30
0.0
  0
SEQEND
  5
11E
330
11B
100
AcDbEntity
  8
_U+30EC_U+30A4_U+30E4_U+30FC 1
 62
   179
420
  2234388
370
     9
  0
POLYLINE
  5
11F
330
1F
100
AcDbEntity
  8
_U+30EC_U+30A4_U+30E4_U+30FC 1
 62
   179
420
  2234388
370
     9
100
AcDb2dPolyline
 66
     1
 10
0.0
 20
0.0
 30
0.0
  0
VERTEX
  5
120
330
11F
100
AcDbEntity
  8
_U+30EC_U+30A4_U+30E4_U+30FC 1
 62
   179
420
  2234388
370
     9
100
AcDbVertex
100
AcDb2dVertex
 10
107.8934822474079
 20
-134.5123674663722
 30
0.0
  0
VERTEX
  5
121
330
11F
100
AcDbEntity
  8
_U+30EC_U+30A4_U+30E4_U+30FC 1
 62
   179
420
  2234388
370
     9
100
AcDbVertex
100
AcDb2dVertex
 10
107.8934822474079
 20
-149.4723677404095
 30
0.0
  0
SEQEND
  5
122
330
11F
100
AcDbEntity
  8
_U+30EC_U+30A4_U+30E4_U+30FC 1
 62
   179
420
  2234388
370
     9
  0
INSERT
  5
124
330
1F
100
AcDbEntity
  8
_U+30EC_U+30A4_U+30E4_U+30FC 1
100
AcDbBlockReference
  2
block 7
 10
0.0
 20
0.0
 30
0.0
  0
SPLINE
  5
135
330
1F
100
AcDbEntity
  8
_U+30EC_U+30A4_U+30E4_U+30FC 1
 62
   179
420
  2234388
370
    25
100
AcDbSpline
210
0.0
220
0.0
230
1.0
 70
    11
 71
     3
 72
    17
 73
    13
 74
     0
 42
0.0000000001
 43
0.0000000001
 12
1.0
 22
0.0
 32
0.0
 13
1.0
 23
0.0
 33
0.0
 40
0.0
 40
0.0
 40
0.0
 40
0.0
 40
1.0
 40
1.0
 40
1.0
 40
2.0
 40
2.0
 40
2.0
 40
3.0
 40
3.0
 40
3.0
 40
4.0
 40
4.0
 40
4.0
 40
4.0
 10
94.42869564647883
 20
-141.4728494090764
 30
0.0
 10
94.42869564647883
 20
-141.4921463535156
 30
0.0
 10
94.41285830973027
 20
-141.5079860757341
 30
0.0
 10
94.39285342517101
 20
-141.5079860757341
 30
0.0
 10
94.37355648121888
 20
-141.5079860757341
 30
0.0
 10
94.35771675940076
 20
-141.4921463535156
 30
0.0
 10
94.35771675940076
 20
-141.4728494090764
 30
0.0
 10
94.35771675940076
 20
-141.4528821868592
 30
0.0
 10
94.37355648121888
 20
-141.4370071868632
 30
0.0
 10
94.39285342517101
 20
-141.4370071868632
 30
0.0
 10
94.41285830973027
 20
-141.4370071868632
 30
0.0
 10
94.42869564647883
 20
-141.4528821868592
 30
0.0
 10
94.42869564647883
 20
-141.4728494090764
 30
0.0
  0
SPLINE
  5
136
330
1F
100
AcDbEntity
  8
_U+30EC_U+30A4_U+30E4_U+30FC 1
 62
   179
420
  2234388
370
    25
100
AcDbSpline
210
0.0
220
0.0
230
1.0
 70
    11
 71
     3
 72
    17
 73
    13
 74
     0
 42
0.0000000001
 43
0.0000000001
 12
1.0
 22
0.0
 32
0.0
 13
1.0
 23
0.0
 33
0.0
 40
0.0
 40
0.0
 40
0.0
 40
0.0
 40
1.0
 40
1.0
 40
1.0
 40
2.0
 40
2.0
 40
2.0
 40
3.0
 40
3.0
 40
3.0
 40
4.0
 40
4.0
 40
4.0
 40
4.0
 10
107.9286541909551
 20
-131.972649689229
 30
0.0
 10
107.9286541909551
 20
-131.9919466336688
 30
0.0
 10
107.9127791913601
 20
-132.0077863558867
 30
0.0
 10
107.8934822474079
 20
-132.0077863558867
 30
0.0
 10
107.8735150256951
 20
-132.0077863558867
 30
0.0
 10
107.857675303877
 20
-131.9919466336688
 30
0.0
 10
107.857675303877
 20
-131.972649689229
 30
0.0
 10
107.857675303877
 20
-131.9533527447892
 30
0.0
 10
107.8735150256951
 20
-131.9375130225713
 30
0.0
 10
107.8934822474079
 20
-131.9375130225713
 30
0.0
 10
107.9127791913601
 20
-131.9375130225713
 30
0.0
 10
107.9286541909551
 20
-131.9533527447892
 30
0.0
 10
107.9286541909551
 20
-131.972649689229
 30
0.0
  0
SPLINE
  5
137
330
1F
100
AcDbEntity
  8
_U+30EC_U+30A4_U+30E4_U+30FC 1
 62
   179
420
  2234388
370
     9
100
AcDbSpline
210
0.0
220
0.0
230
1.0
 70
    11
 71
     3
 72
    17
 73
    13
 74
     0
 42
0.0000000001
 43
0.0000000001
 12
1.0
 22
0.0
 32
0.0
 13
1.0
 23
0.0
 33
0.0
 40
0.0
 40
0.0
 40
0.0
 40
0.0
 40
1.0
 40
1.0
 40
1.0
 40
2.0
 40
2.0
 40
2.0
 40
3.0
 40
3.0
 40
3.0
 40
4.0
 40
4.0
 40
4.0
 40
4.0
 10
107.9286541909551
 20
-148.4725955184376
 30
0.0
 10
107.9286541909551
 20
-148.4918924628768
 30
0.0
 10
107.9127791913601
 20
-148.5077321850953
 30
0.0
 10
107.8934822474079
 20
-148.5077321850953
 30
0.0
 10
107.8735150256951
 20
-148.5077321850953
 30
0.0
 10
107.857675303877
 20
-148.4918924628768
 30
0.0
 10
107.857675303877
 20
-148.4725955184376
 30
0.0
 10
107.857675303877
 20
-148.4532985739978
 30
0.0
 10
107.8735150256951
 20
-148.4374588517793
 30
0.0
 10
107.8934822474079
 20
-148.4374588517793
 30
0.0
 10
107.9127791913601
 20
-148.4374588517793
 30
0.0
 10
107.9286541909551
 20
-148.4532985739978
 30
0.0
 10
107.9286541909551
 20
-148.4725955184376
 30
0.0
  0
POLYLINE
  5
138
330
1F
100
AcDbEntity
  8
_U+30EC_U+30A4_U+30E4_U+30FC 1
 62
   179
420
  2234388
370
     9
100
AcDb2dPolyline
 66
     1
 10
0.0
 20
0.0
 30
0.0
  0
VERTEX
  5
139
330
138
100
AcDbEntity
  8
_U+30EC_U+30A4_U+30E4_U+30FC 1
 62
   179
420
  2234388
370
     9
100
AcDbVertex
100
AcDb2dVertex
 10
98.39331804533289
 20
-132.9724219112016
 30
0.0
  0
VERTEX
  5
13A
330
138
100
AcDbEntity
  8
_U+30EC_U+30A4_U+30E4_U+30FC 1
 62
   179
420
  2234388
370
     9
100
AcDbVertex
100
AcDb2dVertex
 10
98.39331804533289
 20
-141.4728494090764
 30
0.0
  0
SEQEND
  5
13B
330
138
100
AcDbEntity
  8
_U+30EC_U+30A4_U+30E4_U+30FC 1
 62
   179
420
  2234388
370
     9
  0
POLYLINE
  5
13C
330
1F
100
AcDbEntity
  8
_U+30EC_U+30A4_U+30E4_U+30FC 1
 62
   179
420
  2234388
370
     5
100
AcDb2dPolyline
 66
     1
 10
0.0
 20
0.0
 30
0.0
  0
VERTEX
  5
13D
330
13C
100
AcDbEntity
  8
_U+30EC_U+30A4_U+30E4_U+30FC 1
 62
   179
420
  2234388
370
     5
100
AcDbVertex
100
AcDb2dVertex
 10
100.9330357583171
 20
-132.9724219112016
 30
0.0
  0
VERTEX
  5
13E
330
13C
100
AcDbEntity
  8
_U+30EC_U+30A4_U+30E4_U+30FC 1
 62
   179
420
  2234388
370
     5
100
AcDbVertex
100
AcDb2dVertex
 10
100.3928271609878
 20
-132.9724219112016
 30
0.0
  0
SEQEND
  5
13F
330
13C
100
AcDbEntity
  8
_U+30EC_U+30A4_U+30E4_U+30FC 1
 62
   179
420
  2234388
370
     5
  0
POLYLINE
  5
140
330
1F
100
AcDbEntity
  8
_U+30EC_U+30A4_U+30E4_U+30FC 1
 62
   179
420
  2234388
370
     9
100
AcDb2dPolyline
 66
     1
 10
0.0
 20
0.0
 30
0.0
  0
VERTEX
  5
141
330
140
100
AcDbEntity
  8
_U+30EC_U+30A4_U+30E4_U+30FC 1
 62
   179
420
  2234388
370
     9
100
AcDbVertex
100
AcDb2dVertex
 10
96.93327669369275
 20
-141.4728494090764
 30
0.0
  0
VERTEX
  5
142
330
140
100
AcDbEntity
  8
_U+30EC_U+30A4_U+30E4_U+30FC 1
 62
   179
420
  2234388
370
     9
100
AcDbVertex
100
AcDb2dVertex
 10
99.39305496427191
 20
-141.4728494090764
 30
0.0
  0
SEQEND
  5
143
330
140
100
AcDbEntity
  8
_U+30EC_U+30A4_U+30E4_U+30FC 1
 62
   179
420
  2234388
370
     9
  0
INSERT
  5
145
330
1F
100
AcDbEntity
  8
_U+30EC_U+30A4_U+30E4_U+30FC 1
100
AcDbBlockReference
  2
block 8
 10
0.0
 20
0.0
 30
0.0
  0
SPLINE
  5
156
330
1F
100
AcDbEntity
  8
_U+30EC_U+30A4_U+30E4_U+30FC 1
 62
   179
420
  2234388
370
     9
100
AcDbSpline
210
0.0
220
0.0
230
1.0
 70
    11
 71
     3
 72
    17
 73
    13
 74
     0
 42
0.0000000001
 43
0.0000000001
 12
1.0
 22
0.0
 32
0.0
 13
1.0
 23
0.0
 33
0.0
 40
0.0
 40
0.0
 40
0.0
 40
0.0
 40
1.0
 40
1.0
 40
1.0
 40
2.0
 40
2.0
 40
2.0
 40
3.0
 40
3.0
 40
3.0
 40
4.0
 40
4.0
 40
4.0
 40
4.0
 10
98.42845471110314
 20
-132.9724219112016
 30
0.0
 10
98.42845471110314
 20
-132.9923891334188
 30
0.0
 10
98.41257971150814
 20
-133.0075585778593
 30
0.0
 10
98.39331804533289
 20
-133.0075585778593
 30
0.0
 10
98.37402110138075
 20
-133.0075585778593
 30
0.0
 10
98.35814610178575
 20
-132.9923891334188
 30
0.0
 10
98.35814610178575
 20
-132.9724219112016
 30
0.0
 10
98.35814610178575
 20
-132.9531249667617
 30
0.0
 10
98.37402110138075
 20
-132.9372852445432
 30
0.0
 10
98.39331804533289
 20
-132.9372852445432
 30
0.0
 10
98.41257971150814
 20
-132.9372852445432
 30
0.0
 10
98.42845471110314
 20
-132.9531249667617
 30
0.0
 10
98.42845471110314
 20
-132.9724219112016
 30
0.0
  0
SPLINE
  5
157
330
1F
100
AcDbEntity
  8
_U+30EC_U+30A4_U+30E4_U+30FC 1
 62
   179
420
  2234388
370
    25
100
AcDbSpline
210
0.0
220
0.0
230
1.0
 70
    11
 71
     3
 72
    17
 73
    13
 74
     0
 42
0.0000000001
 43
0.0000000001
 12
1.0
 22
0.0
 32
0.0
 13
1.0
 23
0.0
 33
0.0
 40
0.0
 40
0.0
 40
0.0
 40
0.0
 40
1.0
 40
1.0
 40
1.0
 40
2.0
 40
2.0
 40
2.0
 40
3.0
 40
3.0
 40
3.0
 40
4.0
 40
4.0
 40
4.0
 40
4.0
 10
94.42869564647883
 20
-141.4728494090764
 30
0.0
 10
94.42869564647883
 20
-141.4921463535156
 30
0.0
 10
94.41285830973027
 20
-141.5079860757341
 30
0.0
 10
94.39285342517101
 20
-141.5079860757341
 30
0.0
 10
94.37355648121888
 20
-141.5079860757341
 30
0.0
 10
94.35771675940076
 20
-141.4921463535156
 30
0.0
 10
94.35771675940076
 20
-141.4728494090764
 30
0.0
 10
94.35771675940076
 20
-141.4528821868592
 30
0.0
 10
94.37355648121888
 20
-141.4370071868632
 30
0.0
 10
94.39285342517101
 20
-141.4370071868632
 30
0.0
 10
94.41285830973027
 20
-141.4370071868632
 30
0.0
 10
94.42869564647883
 20
-141.4528821868592
 30
0.0
 10
94.42869564647883
 20
-141.4728494090764
 30
0.0
  0
SPLINE
  5
158
330
1F
100
AcDbEntity
  8
_U+30EC_U+30A4_U+30E4_U+30FC 1
 62
   179
420
  2234388
370
     9
100
AcDbSpline
210
0.0
220
0.0
230
1.0
 70
    11
 71
     3
 72
    17
 73
    13
 74
     0
 42
0.0000000001
 43
0.0000000001
 12
1.0
 22
0.0
 32
0.0
 13
1.0
 23
0.0
 33
0.0
 40
0.0
 40
0.0
 40
0.0
 40
0.0
 40
1.0
 40
1.0
 40
1.0
 40
2.0
 40
2.0
 40
2.0
 40
3.0
 40
3.0
 40
3.0
 40
4.0
 40
4.0
 40
4.0
 40
4.0
 10
98.42845471110314
 20
-141.4728494090764
 30
0.0
 10
98.42845471110314
 20
-141.4921463535156
 30
0.0
 10
98.41257971150814
 20
-141.5079860757341
 30
0.0
 10
98.39331804533289
 20
-141.5079860757341
 30
0.0
 10
98.37402110138075
 20
-141.5079860757341
 30
0.0
 10
98.35814610178575
 20
-141.4921463535156
 30
0.0
 10
98.35814610178575
 20
-141.4728494090764
 30
0.0
 10
98.35814610178575
 20
-141.4528821868592
 30
0.0
 10
98.37402110138075
 20
-141.4370071868632
 30
0.0
 10
98.39331804533289
 20
-141.4370071868632
 30
0.0
 10
98.41257971150814
 20
-141.4370071868632
 30
0.0
 10
98.42845471110314
 20
-141.4528821868592
 30
0.0
 10
98.42845471110314
 20
-141.4728494090764
 30
0.0
  0
ENDSEC
  0
SECTION
  2
OBJECTS
  0
DICTIONARY
  5
C
330
0
100
AcDbDictionary
281
     1
  3
ACAD_GROUP
350
D
  3
ACAD_LAYOUT
350
1A
  3
ACAD_MATERIAL
350
3B
  3
ACAD_MLEADERSTYLE
350
15A
  3
ACAD_MLINESTYLE
350
17
  3
ACAD_PLOTSETTINGS
350
19
  3
ACAD_PLOTSTYLENAME
350
E
  3
ACAD_TABLESTYLE
350
159
  3
ACAD_VISUALSTYLE
350
2A
  0
SUN
  5
3F
330
29
100
AcDbSun
 90
        1
290
     0
 63
     7
421
 16777215
 40
1.0
291
     1
 91
  2455826
 92
 54000000
292
     0
 70
     2
 71
   256
280
     1
  0
DICTIONARY
  5
D
102
{ACAD_REACTORS
330
C
102
}
330
C
100
AcDbDictionary
281
     1
  0
DICTIONARY
  5
1A
102
{ACAD_REACTORS
330
C
102
}
330
C
100
AcDbDictionary
281
     1
  3
Layout1
350
1E
  3
Layout2
350
26
  3
Model
350
22
  0
DICTIONARY
  5
3B
102
{ACAD_REACTORS
330
C
102
}
330
C
100
AcDbDictionary
281
     1
  3
ByBlock
350
3D
  3
ByLayer
350
3C
  3
Global
350
3E
  0
DICTIONARY
  5
15A
102
{ACAD_REACTORS
330
C
102
}
330
C
100
AcDbDictionary
281
     1
  0
DICTIONARY
  5
17
102
{ACAD_REACTORS
330
C
102
}
330
C
100
AcDbDictionary
281
     1
  3
Standard
350
18
  0
DICTIONARY
  5
19
102
{ACAD_REACTORS
330
C
102
}
330
C
100
AcDbDictionary
281
     1
  0
ACDBDICTIONARYWDFLT
  5
E
102
{ACAD_REACTORS
330
C
102
}
330
C
100
AcDbDictionary
281
     1
  3
Normal
350
F
100
AcDbDictionaryWithDefault
340
F
  0
DICTIONARY
  5
159
102
{ACAD_REACTORS
330
C
102
}
330
C
100
AcDbDictionary
281
     1
  0
DICTIONARY
  5
2A
102
{ACAD_REACTORS
330
C
102
}
330
C
100
AcDbDictionary
281
     1
  3
2dWireframe
350
2F
  3
3D Hidden
350
31
  3
3dWireframe
350
30
  3
Basic
350
32
  3
Brighten
350
36
  3
ColorChange
350
3A
  3
Conceptual
350
34
  3
Dim
350
35
  3
Facepattern
350
39
  3
Flat
350
2B
  3
FlatWithEdges
350
2C
  3
Gouraud
350
2D
  3
GouraudWithEdges
350
2E
  3
Linepattern
350
38
  3
Realistic
350
33
  3
Thicken
350
37
  0
LAYOUT
  5
1E
102
{ACAD_REACTORS
330
1A
102
}
330
1A
100
AcDbPlotSettings
  1

  2
none_device
  4

  6

 40
0.0
 41
0.0
 42
0.0
 43
0.0
 44
0.0
 45
0.0
 46
0.0
 47
0.0
 48
0.0
 49
0.0
140
0.0
141
0.0
142
1.0
143
1.0
 70
   688
 72
     0
 73
     0
 74
     5
  7

 75
    16
 76
     0
 77
     2
 78
   300
147
1.0
148
0.0
149
0.0
100
AcDbLayout
  1
Layout1
 70
     1
 71
     1
 10
0.0
 20
0.0
 11
12.0
 21
9.0
 12
0.0
 22
0.0
 32
0.0
 14
1.000000000000000E+20
 24
1.000000000000000E+20
 34
1.000000000000000E+20
 15
-1.000000000000000E+20
 25
-1.000000000000000E+20
 35
-1.000000000000000E+20
146
0.0
 13
0.0
 23
0.0
 33
0.0
 16
1.0
 26
0.0
 36
0.0
 17
0.0
 27
1.0
 37
0.0
 76
     0
330
1B
  0
LAYOUT
  5
26
102
{ACAD_REACTORS
330
1A
102
}
330
1A
100
AcDbPlotSettings
  1

  2
none_device
  4

  6

 40
0.0
 41
0.0
 42
0.0
 43
0.0
 44
0.0
 45
0.0
 46
0.0
 47
0.0
 48
0.0
 49
0.0
140
0.0
141
0.0
142
1.0
143
1.0
 70
   688
 72
     0
 73
     0
 74
     5
  7

 75
    16
 76
     0
 77
     2
 78
   300
147
1.0
148
0.0
149
0.0
100
AcDbLayout
  1
Layout2
 70
     1
 71
     2
 10
0.0
 20
0.0
 11
0.0
 21
0.0
 12
0.0
 22
0.0
 32
0.0
 14
0.0
 24
0.0
 34
0.0
 15
0.0
 25
0.0
 35
0.0
146
0.0
 13
0.0
 23
0.0
 33
0.0
 16
1.0
 26
0.0
 36
0.0
 17
0.0
 27
1.0
 37
0.0
 76
     0
330
23
  0
LAYOUT
  5
22
102
{ACAD_REACTORS
330
1A
102
}
330
1A
100
AcDbPlotSettings
  1

  2
none_device
  4

  6

 40
0.0
 41
0.0
 42
0.0
 43
0.0
 44
0.0
 45
0.0
 46
0.0
 47
0.0
 48
0.0
 49
0.0
140
0.0
141
0.0
142
1.0
143
1.0
 70
  1712
 72
     0
 73
     0
 74
     0
  7

 75
     0
 76
     0
 77
     2
 78
   300
147
1.0
148
0.0
149
0.0
100
AcDbLayout
  1
Model
 70
     1
 71
     0
 10
0.0
 20
0.0
 11
12.0
 21
9.0
 12
0.0
 22
0.0
 32
0.0
 14
1.000000000000000E+20
 24
1.000000000000000E+20
 34
1.000000000000000E+20
 15
-1.000000000000000E+20
 25
-1.000000000000000E+20
 35
-1.000000000000000E+20
146
0.0
 13
0.0
 23
0.0
 33
0.0
 16
1.0
 26
0.0
 36
0.0
 17
0.0
 27
1.0
 37
0.0
 76
     0
330
1F
331
29
  0
MATERIAL
  5
3D
102
{ACAD_REACTORS
330
3B
102
}
330
3B
100
AcDbMaterial
  1
ByBlock
 72
     1
 94
      127
  0
MATERIAL
  5
3C
102
{ACAD_REACTORS
330
3B
102
}
330
3B
100
AcDbMaterial
  1
ByLayer
 72
     1
 94
      127
  0
MATERIAL
  5
3E
102
{ACAD_REACTORS
330
3B
102
}
330
3B
100
AcDbMaterial
  1
Global
 72
     1
 94
      127
  0
MLINESTYLE
  5
18
102
{ACAD_REACTORS
330
17
102
}
330
17
100
AcDbMlineStyle
  2
Standard
 70
     0
  3

 62
   256
 51
90.0
 52
90.0
 71
     2
 49
0.5
 62
   256
  6
BYLAYER
 49
-0.5
 62
   256
  6
BYLAYER
  0
ACDBPLACEHOLDER
  5
F
102
{ACAD_REACTORS
330
E
102
}
330
E
  0
VISUALSTYLE
  5
2F
102
{ACAD_REACTORS
330
2A
102
}
330
2A
100
AcDbVisualStyle
  2
2dWireframe
 70
     4
177
     2
291
     0
 71
     0
176
     1
 72
     2
176
     1
 73
     0
176
     1
 90
        0
176
     1
 40
-0.6
176
     1
 41
-30.0
176
     1
 62
     5
 63
     7
421
 16777215
176
     1
 74
     1
176
     1
 91
        4
176
     1
 64
     7
176
     1
 65
   257
176
     1
 75
     1
176
     1
175
     1
176
     1
 42
1.0
176
     1
 92
        0
176
     1
 66
   257
176
     1
 43
1.0
176
     1
 76
     1
176
     1
 77
     6
176
     1
 78
     2
176
     1
 67
     7
176
     1
 79
     5
176
     1
170
     0
176
     1
171
     0
176
     1
290
     0
176
     1
 93
        1
176
     1
 44
0.0
176
     1
173
     0
176
     1
  0
VISUALSTYLE
  5
31
102
{ACAD_REACTORS
330
2A
102
}
330
2A
100
AcDbVisualStyle
  2
3D Hidden
 70
     6
177
     2
291
     0
 71
     1
176
     1
 72
     2
176
     1
 73
     2
176
     1
 90
        0
176
     1
 40
-0.6
176
     1
 41
-30.0
176
     1
 62
     5
 63
     7
421
 16777215
176
     1
 74
     2
176
     1
 91
        2
176
     1
 64
     7
176
     1
 65
   257
176
     1
 75
     2
176
     1
175
     1
176
     1
 42
40.0
176
     1
 92
        0
176
     1
 66
   257
176
     1
 43
1.0
176
     1
 76
     1
176
     1
 77
     6
176
     1
 78
     2
176
     1
 67
     7
176
     1
 79
     3
176
     1
170
     0
176
     1
171
     0
176
     1
290
     0
176
     1
 93
        1
176
     1
 44
0.0
176
     1
173
     0
176
     1
  0
VISUALSTYLE
  5
30
102
{ACAD_REACTORS
330
2A
102
}
330
2A
100
AcDbVisualStyle
  2
3dWireframe
 70
     5
177
     2
291
     0
 71
     0
176
     1
 72
     2
176
     1
 73
     0
176
     1
 90
        0
176
     1
 40
-0.6
176
     1
 41
-30.0
176
     1
 62
     5
 63
     7
421
 16777215
176
     1
 74
     1
176
     1
 91
        4
176
     1
 64
     7
176
     1
 65
   257
176
     1
 75
     1
176
     1
175
     1
176
     1
 42
1.0
176
     1
 92
        0
176
     1
 66
   257
176
     1
 43
1.0
176
     1
 76
     1
176
     1
 77
     6
176
     1
 78
     2
176
     1
 67
     7
176
     1
 79
     5
176
     1
170
     0
176
     1
171
     0
176
     1
290
     0
176
     1
 93
        1
176
     1
 44
0.0
176
     1
173
     0
176
     1
  0
VISUALSTYLE
  5
32
102
{ACAD_REACTORS
330
2A
102
}
330
2A
100
AcDbVisualStyle
  2
Basic
 70
     7
177
     2
291
     1
 71
     1
176
     1
 72
     0
176
     1
 73
     1
176
     1
 90
        0
176
     1
 40
-0.6
176
     1
 41
-30.0
176
     1
 62
     5
 63
     7
421
 16777215
176
     1
 74
     0
176
     1
 91
        4
176
     1
 64
     7
176
     1
 65
   257
176
     1
 75
     1
176
     1
175
     1
176
     1
 42
1.0
176
     1
 92
        8
176
     1
 66
     7
176
     1
 43
1.0
176
     1
 76
     1
176
     1
 77
     6
176
     1
 78
     2
176
     1
 67
     7
176
     1
 79
     5
176
     1
170
     0
176
     1
171
     0
176
     1
290
     0
176
     1
 93
        1
176
     1
 44
0.0
176
     1
173
     0
176
     1
  0
VISUALSTYLE
  5
36
102
{ACAD_REACTORS
330
2A
102
}
330
2A
100
AcDbVisualStyle
  2
Brighten
 70
    12
177
     2
291
     1
 71
     2
176
     1
 72
     2
176
     1
 73
     0
176
     1
 90
        0
176
     1
 40
-0.6
176
     1
 41
-30.0
176
     1
 62
     5
 63
     7
421
 16777215
176
     1
 74
     1
176
     1
 91
        4
176
     1
 64
     7
176
     1
 65
   257
176
     1
 75
     1
176
     1
175
     1
176
     1
 42
1.0
176
     1
 92
        8
176
     1
 66
     7
176
     1
 43
1.0
176
     1
 76
     1
176
     1
 77
     6
176
     1
 78
     2
176
     1
 67
     7
176
     1
 79
     5
176
     1
170
     0
176
     1
171
     0
176
     1
290
     0
176
     1
 93
        1
176
     1
 44
50.0
176
     1
173
     0
176
     1
  0
VISUALSTYLE
  5
3A
102
{ACAD_REACTORS
330
2A
102
}
330
2A
100
AcDbVisualStyle
  2
ColorChange
 70
    16
177
     2
291
     1
 71
     2
176
     1
 72
     2
176
     1
 73
     3
176
     1
 90
        0
176
     1
 40
-0.6
176
     1
 41
-30.0
176
     1
 62
     5
 63
     8
421
  8421504
176
     1
 74
     1
176
     1
 91
        4
176
     1
 64
     7
176
     1
 65
   257
176
     1
 75
     1
176
     1
175
     1
176
     1
 42
1.0
176
     1
 92
        8
176
     1
 66
     8
424
  8421504
176
     1
 43
1.0
176
     1
 76
     1
176
     1
 77
     6
176
     1
 78
     2
176
     1
 67
     7
176
     1
 79
     5
176
     1
170
     0
176
     1
171
     0
176
     1
290
     0
176
     1
 93
        1
176
     1
 44
0.0
176
     1
173
     0
176
     1
  0
VISUALSTYLE
  5
34
102
{ACAD_REACTORS
330
2A
102
}
330
2A
100
AcDbVisualStyle
  2
Conceptual
 70
     9
177
     2
291
     0
 71
     3
176
     1
 72
     2
176
     1
 73
     0
176
     1
 90
        0
176
     1
 40
-0.6
176
     1
 41
-30.0
176
     1
 62
     5
 63
     7
421
 16777215
176
     1
 74
     2
176
     1
 91
        2
176
     1
 64
     7
176
     1
 65
   257
176
     1
 75
     1
176
     1
175
     1
176
     1
 42
40.0
176
     1
 92
        8
176
     1
 66
     7
176
     1
 43
1.0
176
     1
 76
     1
176
     1
 77
     6
176
     1
 78
     2
176
     1
 67
     7
176
     1
 79
     3
176
     1
170
     0
176
     1
171
     0
176
     1
290
     0
176
     1
 93
        1
176
     1
 44
0.0
176
     1
173
     0
176
     1
  0
VISUALSTYLE
  5
35
102
{ACAD_REACTORS
330
2A
102
}
330
2A
100
AcDbVisualStyle
  2
Dim
 70
    11
177
     2
291
     1
 71
     2
176
     1
 72
     2
176
     1
 73
     0
176
     1
 90
        0
176
     1
 40
-0.6
176
     1
 41
-30.0
176
     1
 62
     5
 63
     7
421
 16777215
176
     1
 74
     1
176
     1
 91
        4
176
     1
 64
     7
176
     1
 65
   257
176
     1
 75
     1
176
     1
175
     1
176
     1
 42
1.0
176
     1
 92
        8
176
     1
 66
     7
176
     1
 43
1.0
176
     1
 76
     1
176
     1
 77
     6
176
     1
 78
     2
176
     1
 67
     7
176
     1
 79
     5
176
     1
170
     0
176
     1
171
     0
176
     1
290
     0
176
     1
 93
        1
176
     1
 44
-50.0
176
     1
173
     0
176
     1
  0
VISUALSTYLE
  5
39
102
{ACAD_REACTORS
330
2A
102
}
330
2A
100
AcDbVisualStyle
  2
Facepattern
 70
    15
177
     2
291
     1
 71
     2
176
     1
 72
     2
176
     1
 73
     0
176
     1
 90
        0
176
     1
 40
-0.6
176
     1
 41
-30.0
176
     1
 62
     5
 63
     7
421
 16777215
176
     1
 74
     1
176
     1
 91
        4
176
     1
 64
     7
176
     1
 65
   257
176
     1
 75
     1
176
     1
175
     1
176
     1
 42
1.0
176
     1
 92
        8
176
     1
 66
     7
176
     1
 43
1.0
176
     1
 76
     1
176
     1
 77
     6
176
     1
 78
     2
176
     1
 67
     7
176
     1
 79
     5
176
     1
170
     0
176
     1
171
     0
176
     1
290
     0
176
     1
 93
        1
176
     1
 44
0.0
176
     1
173
     0
176
     1
  0
VISUALSTYLE
  5
2B
102
{ACAD_REACTORS
330
2A
102
}
330
2A
100
AcDbVisualStyle
  2
Flat
 70
     0
177
     2
291
     1
 71
     2
176
     1
 72
     1
176
     1
 73
     1
176
     1
 90
        2
176
     1
 40
-0.6
176
     1
 41
30.0
176
     1
 62
     5
 63
     7
421
 16777215
176
     1
 74
     0
176
     1
 91
        4
176
     1
 64
     7
176
     1
 65
   257
176
     1
 75
     1
176
     1
175
     1
176
     1
 42
1.0
176
     1
 92
        8
176
     1
 66
     7
176
     1
 43
1.0
176
     1
 76
     1
176
     1
 77
     6
176
     1
 78
     2
176
     1
 67
     7
176
     1
 79
     5
176
     1
170
     0
176
     1
171
     0
176
     1
290
     0
176
     1
 93
       13
176
     1
 44
0.0
176
     1
173
     0
176
     1
  0
VISUALSTYLE
  5
2C
102
{ACAD_REACTORS
330
2A
102
}
330
2A
100
AcDbVisualStyle
  2
FlatWithEdges
 70
     1
177
     2
291
     1
 71
     2
176
     1
 72
     1
176
     1
 73
     1
176
     1
 90
        2
176
     1
 40
-0.6
176
     1
 41
30.0
176
     1
 62
     5
 63
     7
421
 16777215
176
     1
 74
     1
176
     1
 91
        4
176
     1
 64
     7
176
     1
 65
   257
176
     1
 75
     1
176
     1
175
     1
176
     1
 42
1.0
176
     1
 92
        0
176
     1
 66
   257
176
     1
 43
1.0
176
     1
 76
     1
176
     1
 77
     6
176
     1
 78
     2
176
     1
 67
     7
176
     1
 79
     5
176
     1
170
     0
176
     1
171
     0
176
     1
290
     0
176
     1
 93
       13
176
     1
 44
0.0
176
     1
173
     0
176
     1
  0
VISUALSTYLE
  5
2D
102
{ACAD_REACTORS
330
2A
102
}
330
2A
100
AcDbVisualStyle
  2
Gouraud
 70
     2
177
     2
291
     1
 71
     2
176
     1
 72
     2
176
     1
 73
     1
176
     1
 90
        2
176
     1
 40
-0.6
176
     1
 41
30.0
176
     1
 62
     5
 63
     7
421
 16777215
176
     1
 74
     0
176
     1
 91
        4
176
     1
 64
     7
176
     1
 65
   257
176
     1
 75
     1
176
     1
175
     1
176
     1
 42
1.0
176
     1
 92
        0
176
     1
 66
     7
176
     1
 43
1.0
176
     1
 76
     1
176
     1
 77
     6
176
     1
 78
     2
176
     1
 67
     7
176
     1
 79
     5
176
     1
170
     0
176
     1
171
     0
176
     1
290
     0
176
     1
 93
       13
176
     1
 44
0.0
176
     1
173
     0
176
     1
  0
VISUALSTYLE
  5
2E
102
{ACAD_REACTORS
330
2A
102
}
330
2A
100
AcDbVisualStyle
  2
GouraudWithEdges
 70
     3
177
     2
291
     1
 71
     2
176
     1
 72
     2
176
     1
 73
     1
176
     1
 90
        2
176
     1
 40
-0.6
176
     1
 41
30.0
176
     1
 62
     5
 63
     7
421
 16777215
176
     1
 74
     1
176
     1
 91
        4
176
     1
 64
     7
176
     1
 65
   257
176
     1
 75
     1
176
     1
175
     1
176
     1
 42
1.0
176
     1
 92
        0
176
     1
 66
   257
176
     1
 43
1.0
176
     1
 76
     1
176
     1
 77
     6
176
     1
 78
     2
176
     1
 67
     7
176
     1
 79
     5
176
     1
170
     0
176
     1
171
     0
176
     1
290
     0
176
     1
 93
       13
176
     1
 44
0.0
176
     1
173
     0
176
     1
  0
VISUALSTYLE
  5
38
102
{ACAD_REACTORS
330
2A
102
}
330
2A
100
AcDbVisualStyle
  2
Linepattern
 70
    14
177
     2
291
     1
 71
     2
176
     1
 72
     2
176
     1
 73
     0
176
     1
 90
        0
176
     1
 40
-0.6
176
     1
 41
-30.0
176
     1
 62
     5
 63
     7
421
 16777215
176
     1
 74
     1
176
     1
 91
        4
176
     1
 64
     7
176
     1
 65
   257
176
     1
 75
     7
176
     1
175
     7
176
     1
 42
1.0
176
     1
 92
        8
176
     1
 66
     7
176
     1
 43
1.0
176
     1
 76
     1
176
     1
 77
     6
176
     1
 78
     2
176
     1
 67
     7
176
     1
 79
     5
176
     1
170
     0
176
     1
171
     0
176
     1
290
     0
176
     1
 93
        1
176
     1
 44
0.0
176
     1
173
     0
176
     1
  0
VISUALSTYLE
  5
33
102
{ACAD_REACTORS
330
2A
102
}
330
2A
100
AcDbVisualStyle
  2
Realistic
 70
     8
177
     2
291
     0
 71
     2
176
     1
 72
     2
176
     1
 73
     0
176
     1
 90
        0
176
     1
 40
-0.6
176
     1
 41
-30.0
176
     1
 62
     5
 63
     7
421
 16777215
176
     1
 74
     1
176
     1
 91
        0
176
     1
 64
     7
176
     1
 65
   257
176
     1
 75
     1
176
     1
175
     1
176
     1
 42
1.0
176
     1
 92
        8
176
     1
 66
     8
424
  7895160
176
     1
 43
1.0
176
     1
 76
     1
176
     1
 77
     6
176
     1
 78
     2
176
     1
 67
     7
176
     1
 79
     5
176
     1
170
     0
176
     1
171
     0
176
     1
290
     0
176
     1
 93
       13
176
     1
 44
0.0
176
     1
173
     0
176
     1
  0
VISUALSTYLE
  5
37
102
{ACAD_REACTORS
330
2A
102
}
330
2A
100
AcDbVisualStyle
  2
Thicken
 70
    13
177
     2
291
     1
 71
     2
176
     1
 72
     2
176
     1
 73
     0
176
     1
 90
        0
176
     1
 40
-0.6
176
     1
 41
-30.0
176
     1
 62
     5
 63
     7
421
 16777215
176
     1
 74
     1
176
     1
 91
        4
176
     1
 64
     7
176
     1
 65
   257
176
     1
 75
     1
176
     1
175
     1
176
     1
 42
1.0
176
     1
 92
       12
176
     1
 66
     7
176
     1
 43
1.0
176
     1
 76
     1
176
     1
 77
     6
176
     1
 78
     2
176
     1
 67
     7
176
     1
 79
     5
176
     1
170
     0
176
     1
171
     0
176
     1
290
     0
176
     1
 93
        1
176
     1
 44
0.0
176
     1
173
     0
176
     1
  0
ENDSEC
  0
EOF
