  0
SECTION
  2
HEADER
  9
$ACADVER
  1
AC1024
  9
$ACADMAINTVER
 70
     6
  9
$DWGCODEPAGE
  3
UNDEFINED
  9
$INSBASE
 10
0.0
 20
0.0
 30
0.0
  9
$EXTMIN
 10
1.000000000000000E+20
 20
1.000000000000000E+20
 30
1.000000000000000E+20
  9
$EXTMAX
 10
-1.000000000000000E+20
 20
-1.000000000000000E+20
 30
-1.000000000000000E+20
  9
$LIMMIN
 10
0.0
 20
0.0
  9
$LIMMAX
 10
12.0
 20
9.0
  9
$ORTHOMODE
 70
     0
  9
$REGENMODE
 70
     1
  9
$FILLMODE
 70
     1
  9
$QTEXTMODE
 70
     0
  9
$MIRRTEXT
 70
     1
  9
$LTSCALE
 40
1.0
  9
$ATTMODE
 70
     1
  9
$TEXTSIZE
 40
0.2
  9
$TRACEWID
 40
0.05
  9
$TEXTSTYLE
  7
Standard
  9
$CLAYER
  8
0
  9
$CELTYPE
  6
ByLayer
  9
$CECOLOR
 62
   256
  9
$CELTSCALE
 40
1.0
  9
$DISPSILH
 70
     0
  9
$DIMSCALE
 40
1.0
  9
$DIMASZ
 40
0.18
  9
$DIMEXO
 40
0.0625
  9
$DIMDLI
 40
0.38
  9
$DIMRND
 40
0.0
  9
$DIMDLE
 40
0.0
  9
$DIMEXE
 40
0.18
  9
$DIMTP
 40
0.0
  9
$DIMTM
 40
0.0
  9
$DIMTXT
 40
0.18
  9
$DIMCEN
 40
0.09
  9
$DIMTSZ
 40
0.0
  9
$DIMTOL
 70
     0
  9
$DIMLIM
 70
     0
  9
$DIMTIH
 70
     1
  9
$DIMTOH
 70
     1
  9
$DIMSE1
 70
     0
  9
$DIMSE2
 70
     0
  9
$DIMTAD
 70
     0
  9
$DIMZIN
 70
     0
  9
$DIMBLK
  1

  9
$DIMASO
 70
     1
  9
$DIMSHO
 70
     1
  9
$DIMPOST
  1

  9
$DIMAPOST
  1

  9
$DIMALT
 70
     0
  9
$DIMALTD
 70
     2
  9
$DIMALTF
 40
25.4
  9
$DIMLFAC
 40
1.0
  9
$DIMTOFL
 70
     0
  9
$DIMTVP
 40
0.0
  9
$DIMTIX
 70
     0
  9
$DIMSOXD
 70
     0
  9
$DIMSAH
 70
     0
  9
$DIMBLK1
  1

  9
$DIMBLK2
  1

  9
$DIMSTYLE
  2
Standard
  9
$DIMCLRD
 70
     0
  9
$DIMCLRE
 70
     0
  9
$DIMCLRT
 70
     0
  9
$DIMTFAC
 40
1.0
  9
$DIMGAP
 40
0.09
  9
$DIMJUST
 70
     0
  9
$DIMSD1
 70
     0
  9
$DIMSD2
 70
     0
  9
$DIMTOLJ
 70
     1
  9
$DIMTZIN
 70
     0
  9
$DIMALTZ
 70
     0
  9
$DIMALTTZ
 70
     0
  9
$DIMUPT
 70
     0
  9
$DIMDEC
 70
     4
  9
$DIMTDEC
 70
     4
  9
$DIMALTU
 70
     2
  9
$DIMALTTD
 70
     2
  9
$DIMTXSTY
  7
Standard
  9
$DIMAUNIT
 70
     0
  9
$DIMADEC
 70
     0
  9
$DIMALTRND
 40
0.0
  9
$DIMAZIN
 70
     0
  9
$DIMDSEP
 70
    46
  9
$DIMATFIT
 70
     3
  9
$DIMFRAC
 70
     0
  9
$DIMLDRBLK
  1

  9
$DIMLUNIT
 70
     2
  9
$DIMLWD
 70
    -2
  9
$DIMLWE
 70
    -2
  9
$DIMTMOVE
 70
     0
  9
$DIMFXL
 40
1.0
  9
$DIMFXLON
 70
     0
  9
$DIMJOGANG
 40
0.7853981633974483
  9
$DIMTFILL
 70
     0
  9
$DIMTFILLCLR
 70
     0
  9
$DIMARCSYM
 70
     0
  9
$DIMLTYPE
  6

  9
$DIMLTEX1
  6

  9
$DIMLTEX2
  6

  9
$DIMTXTDIRECTION
 70
     0
  9
$LUNITS
 70
     2
  9
$LUPREC
 70
     4
  9
$SKETCHINC
 40
0.1
  9
$FILLETRAD
 40
0.5
  9
$AUNITS
 70
     0
  9
$AUPREC
 70
     0
  9
$MENU
  1
.
  9
$ELEVATION
 40
0.0
  9
$PELEVATION
 40
0.0
  9
$THICKNESS
 40
0.0
  9
$LIMCHECK
 70
     0
  9
$CHAMFERA
 40
0.5
  9
$CHAMFERB
 40
0.5
  9
$CHAMFERC
 40
1.0
  9
$CHAMFERD
 40
0.0
  9
$SKPOLY
 70
     0
  9
$TDCREATE
 40
2457917.594918982
  9
$TDUCREATE
 40
2457917.219918982
  9
$TDUPDATE
 40
2457917.594918982
  9
$TDUUPDATE
 40
2457917.219918982
  9
$TDINDWG
 40
0.0000000116
  9
$TDUSRTIMER
 40
0.0000000116
  9
$USRTIMER
 70
     1
  9
$ANGBASE
 50
0.0
  9
$ANGDIR
 70
     0
  9
$PDMODE
 70
     0
  9
$PDSIZE
 40
0.0
  9
$PLINEWID
 40
0.0
  9
$SPLFRAME
 70
     0
  9
$SPLINETYPE
 70
     6
  9
$SPLINESEGS
 70
     8
  9
$HANDSEED
  5
13B
  9
$SURFTAB1
 70
     6
  9
$SURFTAB2
 70
     6
  9
$SURFTYPE
 70
     6
  9
$SURFU
 70
     6
  9
$SURFV
 70
     6
  9
$UCSBASE
  2

  9
$UCSNAME
  2

  9
$UCSORG
 10
0.0
 20
0.0
 30
0.0
  9
$UCSXDIR
 10
1.0
 20
0.0
 30
0.0
  9
$UCSYDIR
 10
0.0
 20
1.0
 30
0.0
  9
$UCSORTHOREF
  2

  9
$UCSORTHOVIEW
 70
     0
  9
$UCSORGTOP
 10
0.0
 20
0.0
 30
0.0
  9
$UCSORGBOTTOM
 10
0.0
 20
0.0
 30
0.0
  9
$UCSORGLEFT
 10
0.0
 20
0.0
 30
0.0
  9
$UCSORGRIGHT
 10
0.0
 20
0.0
 30
0.0
  9
$UCSORGFRONT
 10
0.0
 20
0.0
 30
0.0
  9
$UCSORGBACK
 10
0.0
 20
0.0
 30
0.0
  9
$PUCSBASE
  2

  9
$PUCSNAME
  2

  9
$PUCSORG
 10
0.0
 20
0.0
 30
0.0
  9
$PUCSXDIR
 10
1.0
 20
0.0
 30
0.0
  9
$PUCSYDIR
 10
0.0
 20
1.0
 30
0.0
  9
$PUCSORTHOREF
  2

  9
$PUCSORTHOVIEW
 70
     0
  9
$PUCSORGTOP
 10
0.0
 20
0.0
 30
0.0
  9
$PUCSORGBOTTOM
 10
0.0
 20
0.0
 30
0.0
  9
$PUCSORGLEFT
 10
0.0
 20
0.0
 30
0.0
  9
$PUCSORGRIGHT
 10
0.0
 20
0.0
 30
0.0
  9
$PUCSORGFRONT
 10
0.0
 20
0.0
 30
0.0
  9
$PUCSORGBACK
 10
0.0
 20
0.0
 30
0.0
  9
$USERI1
 70
     0
  9
$USERI2
 70
     0
  9
$USERI3
 70
     0
  9
$USERI4
 70
     0
  9
$USERI5
 70
     0
  9
$USERR1
 40
0.0
  9
$USERR2
 40
0.0
  9
$USERR3
 40
0.0
  9
$USERR4
 40
0.0
  9
$USERR5
 40
0.0
  9
$WORLDVIEW
 70
     1
  9
$SHADEDGE
 70
     3
  9
$SHADEDIF
 70
    70
  9
$TILEMODE
 70
     1
  9
$MAXACTVP
 70
    64
  9
$PINSBASE
 10
0.0
 20
0.0
 30
0.0
  9
$PLIMCHECK
 70
     0
  9
$PEXTMIN
 10
1.000000000000000E+20
 20
1.000000000000000E+20
 30
1.000000000000000E+20
  9
$PEXTMAX
 10
-1.000000000000000E+20
 20
-1.000000000000000E+20
 30
-1.000000000000000E+20
  9
$PLIMMIN
 10
0.0
 20
0.0
  9
$PLIMMAX
 10
12.0
 20
9.0
  9
$UNITMODE
 70
     0
  9
$VISRETAIN
 70
     1
  9
$PLINEGEN
 70
     0
  9
$PSLTSCALE
 70
     1
  9
$TREEDEPTH
 70
  3020
  9
$CMLSTYLE
  2
Standard
  9
$CMLJUST
 70
     0
  9
$CMLSCALE
 40
1.0
  9
$PROXYGRAPHICS
 70
     1
  9
$MEASUREMENT
 70
     0
  9
$CELWEIGHT
370
    -1
  9
$ENDCAPS
280
     0
  9
$JOINSTYLE
280
     0
  9
$LWDISPLAY
290
     1
  9
$INSUNITS
 70
     1
  9
$HYPERLINKBASE
  1

  9
$STYLESHEET
  1

  9
$XEDIT
290
     1
  9
$CEPSNTYPE
380
     0
  9
$PSTYLEMODE
290
     1
  9
$FINGERPRINTGUID
  2
{DB631018-C446-1F73-95A6-ECA9C0DCF6EA}
  9
$VERSIONGUID
  2
{FAEB1C32-E019-11D5-929B-00C0DF256EC4}
  9
$EXTNAMES
290
     1
  9
$PSVPSCALE
 40
0.0
  9
$OLESTARTUP
290
     0
  9
$SORTENTS
280
   127
  9
$INDEXCTL
280
     0
  9
$HIDETEXT
280
     1
  9
$XCLIPFRAME
280
     2
  9
$HALOGAP
280
     0
  9
$OBSCOLOR
 70
   257
  9
$OBSLTYPE
280
     0
  9
$INTERSECTIONDISPLAY
280
     0
  9
$INTERSECTIONCOLOR
 70
   257
  9
$DIMASSOC
280
     2
  9
$PROJECTNAME
  1

  9
$CAMERADISPLAY
290
     0
  9
$LENSLENGTH
 40
50.0
  9
$CAMERAHEIGHT
 40
0.0
  9
$STEPSPERSEC
 40
2.0
  9
$STEPSIZE
 40
6.0
  9
$3DDWFPREC
 40
2.0
  9
$PSOLWIDTH
 40
0.25
  9
$PSOLHEIGHT
 40
4.0
  9
$LOFTANG1
 40
1.570796326794897
  9
$LOFTANG2
 40
1.570796326794897
  9
$LOFTMAG1
 40
0.0
  9
$LOFTMAG2
 40
0.0
  9
$LOFTPARAM
 70
     7
  9
$LOFTNORMALS
280
     1
  9
$LATITUDE
 40
37.795
  9
$LONGITUDE
 40
-122.394
  9
$NORTHDIRECTION
 40
0.0
  9
$TIMEZONE
 70
 -8000
  9
$LIGHTGLYPHDISPLAY
280
     1
  9
$TILEMODELIGHTSYNCH
280
     1
  9
$CMATERIAL
347
3C
  9
$SOLIDHIST
280
     1
  9
$SHOWHIST
280
     1
  9
$DWFFRAME
280
     2
  9
$DGNFRAME
280
     2
  9
$REALWORLDSCALE
290
     1
  9
$INTERFERECOLOR
 62
   256
  9
$CSHADOW
280
     0
  9
$SHADOWPLANELOCATION
 40
0.0
  0
ENDSEC
  0
SECTION
  2
CLASSES
  0
CLASS
  1
ACDBDICTIONARYWDFLT
  2
AcDbDictionaryWithDefault
  3
ObjectDBX Classes
 90
        0
 91
        4
280
     0
281
     0
  0
CLASS
  1
VISUALSTYLE
  2
AcDbVisualStyle
  3
ObjectDBX Classes
 90
     4095
 91
        4
280
     0
281
     0
  0
CLASS
  1
MATERIAL
  2
AcDbMaterial
  3
ObjectDBX Classes
 90
     1153
 91
        4
280
     0
281
     0
  0
CLASS
  1
SUN
  2
AcDbSun
  3
SCENEOE
 90
     1024
 91
        4
280
     0
281
     0
  0
ENDSEC
  0
SECTION
  2
TABLES
  0
TABLE
  2
VPORT
  5
8
330
0
100
AcDbSymbolTable
 70
     1
  0
VPORT
  5
29
330
8
100
AcDbSymbolTableRecord
100
AcDbViewportTableRecord
  2
*Active
 70
     0
 10
0.0
 20
0.0
 11
1.0
 21
1.0
 12
0.0
 22
0.0
 13
0.0
 23
0.0
 14
0.5
 24
0.5
 15
0.5
 25
0.5
 16
0.0
 26
0.0
 36
1.0
 17
91.00082462281999
 27
-128.4993055234307
 37
0.0
 40
256.9986110468615
 41
0.7081814508812795
 42
50.0
 43
0.0
 44
0.0
 50
0.0
 51
0.0
 71
     0
 72
   100
 73
     1
 74
     3
 75
     0
 76
     0
 77
     0
 78
     0
281
     0
 65
     1
110
0.0
120
0.0
130
0.0
111
1.0
121
0.0
131
0.0
112
0.0
122
1.0
132
0.0
 79
     0
146
0.0
 60
     3
 61
     5
292
     1
282
     1
141
0.0
142
0.0
 63
   250
361
3F
  0
ENDTAB
  0
TABLE
  2
LTYPE
  5
5
330
0
100
AcDbSymbolTable
 70
     1
  0
LTYPE
  5
14
330
5
100
AcDbSymbolTableRecord
100
AcDbLinetypeTableRecord
  2
ByBlock
 70
     0
  3

 72
    65
 73
     0
 40
0.0
  0
LTYPE
  5
15
330
5
100
AcDbSymbolTableRecord
100
AcDbLinetypeTableRecord
  2
ByLayer
 70
     0
  3

 72
    65
 73
     0
 40
0.0
  0
LTYPE
  5
16
330
5
100
AcDbSymbolTableRecord
100
AcDbLinetypeTableRecord
  2
Continuous
 70
     0
  3
Solid line
 72
    65
 73
     0
 40
0.0
  0
ENDTAB
  0
TABLE
  2
LAYER
  5
2
330
0
100
AcDbSymbolTable
 70
     2
  0
LAYER
  5
10
330
2
100
AcDbSymbolTableRecord
100
AcDbLayerTableRecord
  2
0
 70
     0
 62
     7
  6
Continuous
370
    -3
390
F
347
3E
  0
LAYER
  5
40
330
2
100
AcDbSymbolTableRecord
100
AcDbLayerTableRecord
  2
_U+30EC_U+30A4_U+30E4_U+30FC 1
 70
     0
 62
     7
  6
Continuous
370
    -3
390
F
347
3E
  0
ENDTAB
  0
TABLE
  2
STYLE
  5
3
330
0
100
AcDbSymbolTable
 70
     1
  0
STYLE
  5
11
330
3
100
AcDbSymbolTableRecord
100
AcDbTextStyleTableRecord
  2
Standard
 70
     0
 40
0.0
 41
1.0
 50
0.0
 71
     0
 42
0.2
  3
txt
  4

  0
ENDTAB
  0
TABLE
  2
VIEW
  5
6
330
0
100
AcDbSymbolTable
 70
     0
  0
ENDTAB
  0
TABLE
  2
UCS
  5
7
330
0
100
AcDbSymbolTable
 70
     0
  0
ENDTAB
  0
TABLE
  2
APPID
  5
9
330
0
100
AcDbSymbolTable
 70
     1
  0
APPID
  5
12
330
9
100
AcDbSymbolTableRecord
100
AcDbRegAppTableRecord
  2
ACAD
 70
     0
  0
ENDTAB
  0
TABLE
  2
DIMSTYLE
  5
A
330
0
100
AcDbSymbolTable
 70
     1
100
AcDbDimStyleTable
  0
DIMSTYLE
105
27
330
A
100
AcDbSymbolTableRecord
100
AcDbDimStyleTableRecord
  2
Standard
 70
     0
178
     0
340
11
  0
ENDTAB
  0
TABLE
  2
BLOCK_RECORD
  5
1
330
0
100
AcDbSymbolTable
 70
     9
  0
BLOCK_RECORD
  5
1F
330
1
100
AcDbSymbolTableRecord
100
AcDbBlockTableRecord
  2
*Model_Space
340
22
 70
     0
280
     1
281
     0
  0
BLOCK_RECORD
  5
1B
330
1
100
AcDbSymbolTableRecord
100
AcDbBlockTableRecord
  2
*Paper_Space
340
1E
 70
     0
280
     1
281
     0
  0
BLOCK_RECORD
  5
23
330
1
100
AcDbSymbolTableRecord
100
AcDbBlockTableRecord
  2
*Paper_Space0
340
26
 70
     0
280
     1
281
     0
  0
BLOCK_RECORD
  5
A4
330
1
100
AcDbSymbolTableRecord
100
AcDbBlockTableRecord
  2
block 2
340
0
102
{BLKREFS
331
A5
102
}
 70
     0
280
     1
281
     0
  0
BLOCK_RECORD
  5
B2
330
1
100
AcDbSymbolTableRecord
100
AcDbBlockTableRecord
  2
block 3
340
0
102
{BLKREFS
331
B3
102
}
 70
     0
280
     1
281
     0
  0
BLOCK_RECORD
  5
D1
330
1
100
AcDbSymbolTableRecord
100
AcDbBlockTableRecord
  2
block 4
340
0
102
{BLKREFS
331
D2
102
}
 70
     0
280
     1
281
     0
  0
BLOCK_RECORD
  5
E3
330
1
100
AcDbSymbolTableRecord
100
AcDbBlockTableRecord
  2
block 5
340
0
102
{BLKREFS
331
E4
102
}
 70
     0
280
     1
281
     0
  0
BLOCK_RECORD
  5
F7
330
1
100
AcDbSymbolTableRecord
100
AcDbBlockTableRecord
  2
block 6
340
0
102
{BLKREFS
331
F8
102
}
 70
     0
280
     1
281
     0
  0
BLOCK_RECORD
  5
10B
330
1
100
AcDbSymbolTableRecord
100
AcDbBlockTableRecord
  2
block 7
340
0
102
{BLKREFS
331
10C
102
}
 70
     0
280
     1
281
     0
  0
BLOCK_RECORD
  5
11B
330
1
100
AcDbSymbolTableRecord
100
AcDbBlockTableRecord
  2
block 8
340
0
102
{BLKREFS
331
11C
102
}
 70
     0
280
     1
281
     0
  0
BLOCK_RECORD
  5
130
330
1
100
AcDbSymbolTableRecord
100
AcDbBlockTableRecord
  2
block 9
340
0
102
{BLKREFS
331
131
102
}
 70
     0
280
     1
281
     0
  0
ENDTAB
  0
ENDSEC
  0
SECTION
  2
BLOCKS
  0
BLOCK
  5
20
330
1F
100
AcDbEntity
  8
0
100
AcDbBlockBegin
  2
*Model_Space
 70
     0
 10
0.0
 20
0.0
 30
0.0
  3
*Model_Space
  1

  0
ENDBLK
  5
21
330
1F
100
AcDbEntity
  8
0
100
AcDbBlockEnd
  0
BLOCK
  5
1C
330
1B
100
AcDbEntity
 67
     1
  8
0
100
AcDbBlockBegin
  2
*Paper_Space
 70
     0
 10
0.0
 20
0.0
 30
0.0
  3
*Paper_Space
  1

  0
ENDBLK
  5
1D
330
1B
100
AcDbEntity
 67
     1
  8
0
100
AcDbBlockEnd
  0
BLOCK
  5
24
330
23
100
AcDbEntity
  8
0
100
AcDbBlockBegin
  2
*Paper_Space0
 70
     0
 10
0.0
 20
0.0
 30
0.0
  3
*Paper_Space0
  1

  0
ENDBLK
  5
25
330
23
100
AcDbEntity
  8
0
100
AcDbBlockEnd
  0
BLOCK
  5
A6
330
A4
100
AcDbEntity
  8
0
100
AcDbBlockBegin
  2
block 2
 70
     0
 10
0.0
 20
0.0
 30
0.0
  3
block 2
  1

  0
SPLINE
  5
A8
330
A4
100
AcDbEntity
  8
_U+30EC_U+30A4_U+30E4_U+30FC 1
370
     0
100
AcDbSpline
210
0.0
220
0.0
230
1.0
 70
    11
 71
     3
 72
    26
 73
    22
 74
     0
 42
0.0000000001
 43
0.0000000001
 12
1.0
 22
0.0
 32
0.0
 13
1.0
 23
0.0
 33
0.0
 40
0.0
 40
0.0
 40
0.0
 40
0.0
 40
1.0
 40
1.0
 40
1.0
 40
2.0
 40
2.0
 40
2.0
 40
3.0
 40
3.0
 40
3.0
 40
4.0
 40
4.0
 40
4.0
 40
5.0
 40
5.0
 40
5.0
 40
6.0
 40
6.0
 40
6.0
 40
7.0
 40
7.0
 40
7.0
 40
7.0
 10
73.15488008153767
 20
-123.2410562842939
 30
0.0
 10
73.15488008153767
 20
-123.2410562842939
 30
0.0
 10
73.15488008153767
 20
-122.1367309264971
 30
0.0
 10
73.15488008153767
 20
-122.1367309264971
 30
0.0
 10
73.15488008153767
 20
-122.1367309264971
 30
0.0
 10
72.82483993405074
 20
-122.1367309264971
 30
0.0
 10
72.82483993405074
 20
-122.1367309264971
 30
0.0
 10
72.82483993405074
 20
-122.1367309264971
 30
0.0
 10
72.82483993405074
 20
-121.9887640754056
 30
0.0
 10
72.82483993405074
 20
-121.9887640754056
 30
0.0
 10
73.15694713882883
 20
-121.973950164819
 30
0.0
 10
73.2034559278797
 20
-121.8109971483667
 30
0.0
 10
73.23308374905284
 20
-121.6967922330307
 30
0.0
 10
73.23308374905284
 20
-121.6967922330307
 30
0.0
 10
73.37915579762743
 20
-121.6967922330307
 30
0.0
 10
73.37915579762743
 20
-121.6967922330307
 30
0.0
 10
73.37915579762743
 20
-121.6967922330307
 30
0.0
 10
73.37915579762743
 20
-123.2410562842939
 30
0.0
 10
73.37915579762743
 20
-123.2410562842939
 30
0.0
 10
73.37915579762743
 20
-123.2410562842939
 30
0.0
 10
73.15488008153767
 20
-123.2410562842939
 30
0.0
 10
73.15488008153767
 20
-123.2410562842939
 30
0.0
  0
HATCH
  5
A9
330
A4
100
AcDbEntity
  8
_U+30EC_U+30A4_U+30E4_U+30FC 1
 62
   179
420
  2234388
100
AcDbHatch
 10
0.0
 20
0.0
 30
0.0
210
0.0
220
0.0
230
1.0
  2
SOLID
 70
     1
 71
     0
 91
        1
 92
        1
 93
        1
 72
     4
 94
        3
 73
     0
 74
     1
 95
       26
 96
       22
 40
0.0
 40
0.0
 40
0.0
 40
0.0
 40
1.0
 40
1.0
 40
1.0
 40
2.0
 40
2.0
 40
2.0
 40
3.0
 40
3.0
 40
3.0
 40
4.0
 40
4.0
 40
4.0
 40
5.0
 40
5.0
 40
5.0
 40
6.0
 40
6.0
 40
6.0
 40
7.0
 40
7.0
 40
7.0
 40
7.0
 10
73.15488008153767
 20
-123.2410562842939
 10
73.15488008153767
 20
-123.2410562842939
 10
73.15488008153767
 20
-122.1367309264971
 10
73.15488008153767
 20
-122.1367309264971
 10
73.15488008153767
 20
-122.1367309264971
 10
72.82483993405074
 20
-122.1367309264971
 10
72.82483993405074
 20
-122.1367309264971
 10
72.82483993405074
 20
-122.1367309264971
 10
72.82483993405074
 20
-121.9887640754056
 10
72.82483993405074
 20
-121.9887640754056
 10
73.15694713882883
 20
-121.973950164819
 10
73.2034559278797
 20
-121.8109971483667
 10
73.23308374905284
 20
-121.6967922330307
 10
73.23308374905284
 20
-121.6967922330307
 10
73.37915579762743
 20
-121.6967922330307
 10
73.37915579762743
 20
-121.6967922330307
 10
73.37915579762743
 20
-121.6967922330307
 10
73.37915579762743
 20
-123.2410562842939
 10
73.37915579762743
 20
-123.2410562842939
 10
73.37915579762743
 20
-123.2410562842939
 10
73.15488008153767
 20
-123.2410562842939
 10
73.15488008153767
 20
-123.2410562842939
 97
        0
 97
        0
 75
     2
 76
     1
 98
        0
  0
ENDBLK
  5
A7
330
A4
100
AcDbEntity
  8
0
100
AcDbBlockEnd
  0
BLOCK
  5
B4
330
B2
100
AcDbEntity
  8
0
100
AcDbBlockBegin
  2
block 3
 70
     0
 10
0.0
 20
0.0
 30
0.0
  3
block 3
  1

  0
SPLINE
  5
B6
330
B2
100
AcDbEntity
  8
_U+30EC_U+30A4_U+30E4_U+30FC 1
370
     0
100
AcDbSpline
210
0.0
220
0.0
230
1.0
 70
    11
 71
     3
 72
    44
 73
    40
 74
     0
 42
0.0000000001
 43
0.0000000001
 12
1.0
 22
0.0
 32
0.0
 13
1.0
 23
0.0
 33
0.0
 40
0.0
 40
0.0
 40
0.0
 40
0.0
 40
1.0
 40
1.0
 40
1.0
 40
2.0
 40
2.0
 40
2.0
 40
3.0
 40
3.0
 40
3.0
 40
4.0
 40
4.0
 40
4.0
 40
5.0
 40
5.0
 40
5.0
 40
6.0
 40
6.0
 40
6.0
 40
7.0
 40
7.0
 40
7.0
 40
8.0
 40
8.0
 40
8.0
 40
9.0
 40
9.0
 40
9.0
 40
10.0
 40
10.0
 40
10.0
 40
11.0
 40
11.0
 40
11.0
 40
12.0
 40
12.0
 40
12.0
 40
13.0
 40
13.0
 40
13.0
 40
13.0
 10
69.90288219823609
 20
-145.0719373552251
 30
0.0
 10
69.87945554893639
 20
-145.0274956234653
 30
0.0
 10
69.85844046647637
 20
-144.974785662541
 30
0.0
 10
69.85620115441095
 20
-144.7439642650293
 30
0.0
 10
69.85206703982865
 20
-144.5007405237706
 30
0.0
 10
69.79281139748235
 20
-144.4308050854201
 30
0.0
 10
69.61504447044346
 20
-144.4308050854201
 30
0.0
 10
69.61504447044346
 20
-144.4308050854201
 30
0.0
 10
69.20680065544136
 20
-144.4308050854201
 30
0.0
 10
69.20680065544136
 20
-144.4308050854201
 30
0.0
 10
69.20680065544136
 20
-144.4308050854201
 30
0.0
 10
69.20680065544136
 20
-145.0719373552251
 30
0.0
 10
69.20680065544136
 20
-145.0719373552251
 30
0.0
 10
69.20680065544136
 20
-145.0719373552251
 30
0.0
 10
68.97201739812158
 20
-145.0719373552251
 30
0.0
 10
68.97201739812158
 20
-145.0719373552251
 30
0.0
 10
68.97201739812158
 20
-145.0719373552251
 30
0.0
 10
68.97201739812158
 20
-143.5275010491876
 30
0.0
 10
68.97201739812158
 20
-143.5275010491876
 30
0.0
 10
68.97201739812158
 20
-143.5275010491876
 30
0.0
 10
69.64673934890776
 20
-143.5275010491876
 30
0.0
 10
69.64673934890776
 20
-143.5275010491876
 30
0.0
 10
69.95352510186926
 20
-143.5275010491876
 30
0.0
 10
70.12078448767814
 20
-143.699066804353
 30
0.0
 10
70.12078448767814
 20
-143.9550373989071
 30
0.0
 10
70.12078448767814
 20
-144.0056803025402
 30
0.0
 10
70.11217174896501
 20
-144.0883625941862
 30
0.0
 10
70.06773001720529
 20
-144.1686333189926
 30
0.0
 10
70.00864662963326
 20
-144.2723306930986
 30
0.0
 10
69.94301756063925
 20
-144.2912787182675
 30
0.0
 10
69.8816948610018
 20
-144.3081596861452
 30
0.0
 10
70.01915417086327
 20
-144.3505343606138
 30
0.0
 10
70.08685029714843
 20
-144.3991102069558
 30
0.0
 10
70.09115666650499
 20
-144.7143364438562
 30
0.0
 10
70.09529078108729
 20
-144.9851209489968
 30
0.0
 10
70.13129202890815
 20
-145.0168158274611
 30
0.0
 10
70.1989881551933
 20
-145.0719373552251
 30
0.0
 10
70.1989881551933
 20
-145.0719373552251
 30
0.0
 10
69.90288219823609
 20
-145.0719373552251
 30
0.0
 10
69.90288219823609
 20
-145.0719373552251
 30
0.0
  0
SPLINE
  5
B7
330
B2
100
AcDbEntity
  8
_U+30EC_U+30A4_U+30E4_U+30FC 1
370
     0
100
AcDbSpline
210
0.0
220
0.0
230
1.0
 70
    11
 71
     3
 72
    20
 73
    16
 74
     0
 42
0.0000000001
 43
0.0000000001
 12
1.0
 22
0.0
 32
0.0
 13
1.0
 23
0.0
 33
0.0
 40
0.0
 40
0.0
 40
0.0
 40
0.0
 40
1.0
 40
1.0
 40
1.0
 40
2.0
 40
2.0
 40
2.0
 40
3.0
 40
3.0
 40
3.0
 40
4.0
 40
4.0
 40
4.0
 40
5.0
 40
5.0
 40
5.0
 40
5.0
 10
69.65104571826433
 20
-143.7390299119819
 30
0.0
 10
69.65104571826433
 20
-143.7390299119819
 30
0.0
 10
69.20680065544136
 20
-143.7390299119819
 30
0.0
 10
69.20680065544136
 20
-143.7390299119819
 30
0.0
 10
69.20680065544136
 20
-143.7390299119819
 30
0.0
 10
69.20680065544136
 20
-144.2192762226258
 30
0.0
 10
69.20680065544136
 20
-144.2192762226258
 30
0.0
 10
69.20680065544136
 20
-144.2192762226258
 30
0.0
 10
69.64897866097317
 20
-144.2192762226258
 30
0.0
 10
69.64897866097317
 20
-144.2192762226258
 30
0.0
 10
69.74836966572263
 20
-144.2192762226258
 30
0.0
 10
69.88376191829295
 20
-144.1431396124017
 30
0.0
 10
69.88376191829295
 20
-143.9719183667848
 30
0.0
 10
69.88376191829295
 20
-143.8937146992696
 30
0.0
 10
69.8499999825375
 20
-143.7390299119819
 30
0.0
 10
69.65104571826433
 20
-143.7390299119819
 30
0.0
  0
HATCH
  5
B8
330
B2
100
AcDbEntity
  8
_U+30EC_U+30A4_U+30E4_U+30FC 1
 62
   179
420
  2234388
100
AcDbHatch
 10
0.0
 20
0.0
 30
0.0
210
0.0
220
0.0
230
1.0
  2
SOLID
 70
     1
 71
     0
 91
        2
 92
        1
 93
        1
 72
     4
 94
        3
 73
     0
 74
     1
 95
       44
 96
       40
 40
0.0
 40
0.0
 40
0.0
 40
0.0
 40
1.0
 40
1.0
 40
1.0
 40
2.0
 40
2.0
 40
2.0
 40
3.0
 40
3.0
 40
3.0
 40
4.0
 40
4.0
 40
4.0
 40
5.0
 40
5.0
 40
5.0
 40
6.0
 40
6.0
 40
6.0
 40
7.0
 40
7.0
 40
7.0
 40
8.0
 40
8.0
 40
8.0
 40
9.0
 40
9.0
 40
9.0
 40
10.0
 40
10.0
 40
10.0
 40
11.0
 40
11.0
 40
11.0
 40
12.0
 40
12.0
 40
12.0
 40
13.0
 40
13.0
 40
13.0
 40
13.0
 10
69.90288219823609
 20
-145.0719373552251
 10
69.87945554893639
 20
-145.0274956234653
 10
69.85844046647637
 20
-144.974785662541
 10
69.85620115441095
 20
-144.7439642650293
 10
69.85206703982865
 20
-144.5007405237706
 10
69.79281139748235
 20
-144.4308050854201
 10
69.61504447044346
 20
-144.4308050854201
 10
69.61504447044346
 20
-144.4308050854201
 10
69.20680065544136
 20
-144.4308050854201
 10
69.20680065544136
 20
-144.4308050854201
 10
69.20680065544136
 20
-144.4308050854201
 10
69.20680065544136
 20
-145.0719373552251
 10
69.20680065544136
 20
-145.0719373552251
 10
69.20680065544136
 20
-145.0719373552251
 10
68.97201739812158
 20
-145.0719373552251
 10
68.97201739812158
 20
-145.0719373552251
 10
68.97201739812158
 20
-145.0719373552251
 10
68.97201739812158
 20
-143.5275010491876
 10
68.97201739812158
 20
-143.5275010491876
 10
68.97201739812158
 20
-143.5275010491876
 10
69.64673934890776
 20
-143.5275010491876
 10
69.64673934890776
 20
-143.5275010491876
 10
69.95352510186926
 20
-143.5275010491876
 10
70.12078448767814
 20
-143.699066804353
 10
70.12078448767814
 20
-143.9550373989071
 10
70.12078448767814
 20
-144.0056803025402
 10
70.11217174896501
 20
-144.0883625941862
 10
70.06773001720529
 20
-144.1686333189926
 10
70.00864662963326
 20
-144.2723306930986
 10
69.94301756063925
 20
-144.2912787182675
 10
69.8816948610018
 20
-144.3081596861452
 10
70.01915417086327
 20
-144.3505343606138
 10
70.08685029714843
 20
-144.3991102069558
 10
70.09115666650499
 20
-144.7143364438562
 10
70.09529078108729
 20
-144.9851209489968
 10
70.13129202890815
 20
-145.0168158274611
 10
70.1989881551933
 20
-145.0719373552251
 10
70.1989881551933
 20
-145.0719373552251
 10
69.90288219823609
 20
-145.0719373552251
 10
69.90288219823609
 20
-145.0719373552251
 97
        0
 97
        0
 92
        1
 93
        1
 72
     4
 94
        3
 73
     0
 74
     1
 95
       20
 96
       16
 40
0.0
 40
0.0
 40
0.0
 40
0.0
 40
1.0
 40
1.0
 40
1.0
 40
2.0
 40
2.0
 40
2.0
 40
3.0
 40
3.0
 40
3.0
 40
4.0
 40
4.0
 40
4.0
 40
5.0
 40
5.0
 40
5.0
 40
5.0
 10
69.65104571826433
 20
-143.7390299119819
 10
69.65104571826433
 20
-143.7390299119819
 10
69.20680065544136
 20
-143.7390299119819
 10
69.20680065544136
 20
-143.7390299119819
 10
69.20680065544136
 20
-143.7390299119819
 10
69.20680065544136
 20
-144.2192762226258
 10
69.20680065544136
 20
-144.2192762226258
 10
69.20680065544136
 20
-144.2192762226258
 10
69.64897866097317
 20
-144.2192762226258
 10
69.64897866097317
 20
-144.2192762226258
 10
69.74836966572263
 20
-144.2192762226258
 10
69.88376191829295
 20
-144.1431396124017
 10
69.88376191829295
 20
-143.9719183667848
 10
69.88376191829295
 20
-143.8937146992696
 10
69.8499999825375
 20
-143.7390299119819
 10
69.65104571826433
 20
-143.7390299119819
 97
        0
 97
        0
 75
     2
 76
     1
 98
        0
  0
SPLINE
  5
B9
330
B2
100
AcDbEntity
  8
_U+30EC_U+30A4_U+30E4_U+30FC 1
370
     0
100
AcDbSpline
210
0.0
220
0.0
230
1.0
 70
    11
 71
     3
 72
    44
 73
    40
 74
     0
 42
0.0000000001
 43
0.0000000001
 12
1.0
 22
0.0
 32
0.0
 13
1.0
 23
0.0
 33
0.0
 40
0.0
 40
0.0
 40
0.0
 40
0.0
 40
1.0
 40
1.0
 40
1.0
 40
2.0
 40
2.0
 40
2.0
 40
3.0
 40
3.0
 40
3.0
 40
4.0
 40
4.0
 40
4.0
 40
5.0
 40
5.0
 40
5.0
 40
6.0
 40
6.0
 40
6.0
 40
7.0
 40
7.0
 40
7.0
 40
8.0
 40
8.0
 40
8.0
 40
9.0
 40
9.0
 40
9.0
 40
10.0
 40
10.0
 40
10.0
 40
11.0
 40
11.0
 40
11.0
 40
12.0
 40
12.0
 40
12.0
 40
13.0
 40
13.0
 40
13.0
 40
13.0
 10
70.93175996490595
 20
-144.4900607277664
 30
0.0
 10
70.7138576754639
 20
-144.6488796296364
 30
0.0
 10
70.62066784258789
 20
-144.7229491825693
 30
0.0
 10
70.57209199624587
 20
-144.8666096643042
 30
0.0
 10
70.57209199624587
 20
-144.8666096643042
 30
0.0
 10
71.35051132113807
 20
-144.8666096643042
 30
0.0
 10
71.35051132113807
 20
-144.8666096643042
 30
0.0
 10
71.35051132113807
 20
-144.8666096643042
 30
0.0
 10
71.35051132113807
 20
-145.0719373552251
 30
0.0
 10
71.35051132113807
 20
-145.0719373552251
 30
0.0
 10
71.35051132113807
 20
-145.0719373552251
 30
0.0
 10
70.32249482833952
 20
-145.0719373552251
 30
0.0
 10
70.32249482833952
 20
-145.0719373552251
 30
0.0
 10
70.35418970680382
 20
-144.7143364438562
 30
0.0
 10
70.41981877579782
 20
-144.636132776341
 30
0.0
 10
70.8048081962745
 20
-144.3377875073183
 30
0.0
 10
71.06077879082856
 20
-144.1390054978194
 30
0.0
 10
71.12623560504831
 20
-144.07113711676
 30
0.0
 10
71.12623560504831
 20
-143.9336778068985
 30
0.0
 10
71.12623560504831
 20
-143.8151665222059
 30
0.0
 10
71.05440536418085
 20
-143.6842528937665
 30
0.0
 10
70.85769041197308
 20
-143.6842528937665
 30
0.0
 10
70.59741344806245
 20
-143.6842528937665
 30
0.0
 10
70.5889729641236
 20
-143.9147297817296
 30
0.0
 10
70.58466659476703
 20
-144.0311740091311
 30
0.0
 10
70.58466659476703
 20
-144.0311740091311
 30
0.0
 10
70.36056313345154
 20
-144.0311740091311
 30
0.0
 10
70.36056313345154
 20
-144.0311740091311
 30
0.0
 10
70.36900361739039
 20
-143.9040499857254
 30
0.0
 10
70.3795111586204
 20
-143.7920843824548
 30
0.0
 10
70.45995413820098
 20
-143.6735730977622
 30
0.0
 10
70.56985268418046
 20
-143.512687138601
 30
0.0
 10
70.7560600951582
 20
-143.4789252028455
 30
0.0
 10
70.87250432255965
 20
-143.4789252028455
 30
0.0
 10
71.149662254348
 20
-143.4789252028455
 30
0.0
 10
71.35688474778578
 20
-143.6628933017579
 30
0.0
 10
71.35688474778578
 20
-143.9357448641897
 30
0.0
 10
71.35688474778578
 20
-144.1644992044103
 30
0.0
 10
71.2406127751586
 20
-144.2637179543855
 30
0.0
 10
70.93175996490595
 20
-144.4900607277664
 30
0.0
  0
HATCH
  5
BA
330
B2
100
AcDbEntity
  8
_U+30EC_U+30A4_U+30E4_U+30FC 1
 62
   179
420
  2234388
100
AcDbHatch
 10
0.0
 20
0.0
 30
0.0
210
0.0
220
0.0
230
1.0
  2
SOLID
 70
     1
 71
     0
 91
        1
 92
        1
 93
        1
 72
     4
 94
        3
 73
     0
 74
     1
 95
       44
 96
       40
 40
0.0
 40
0.0
 40
0.0
 40
0.0
 40
1.0
 40
1.0
 40
1.0
 40
2.0
 40
2.0
 40
2.0
 40
3.0
 40
3.0
 40
3.0
 40
4.0
 40
4.0
 40
4.0
 40
5.0
 40
5.0
 40
5.0
 40
6.0
 40
6.0
 40
6.0
 40
7.0
 40
7.0
 40
7.0
 40
8.0
 40
8.0
 40
8.0
 40
9.0
 40
9.0
 40
9.0
 40
10.0
 40
10.0
 40
10.0
 40
11.0
 40
11.0
 40
11.0
 40
12.0
 40
12.0
 40
12.0
 40
13.0
 40
13.0
 40
13.0
 40
13.0
 10
70.93175996490595
 20
-144.4900607277664
 10
70.7138576754639
 20
-144.6488796296364
 10
70.62066784258789
 20
-144.7229491825693
 10
70.57209199624587
 20
-144.8666096643042
 10
70.57209199624587
 20
-144.8666096643042
 10
71.35051132113807
 20
-144.8666096643042
 10
71.35051132113807
 20
-144.8666096643042
 10
71.35051132113807
 20
-144.8666096643042
 10
71.35051132113807
 20
-145.0719373552251
 10
71.35051132113807
 20
-145.0719373552251
 10
71.35051132113807
 20
-145.0719373552251
 10
70.32249482833952
 20
-145.0719373552251
 10
70.32249482833952
 20
-145.0719373552251
 10
70.35418970680382
 20
-144.7143364438562
 10
70.41981877579782
 20
-144.636132776341
 10
70.8048081962745
 20
-144.3377875073183
 10
71.06077879082856
 20
-144.1390054978194
 10
71.12623560504831
 20
-144.07113711676
 10
71.12623560504831
 20
-143.9336778068985
 10
71.12623560504831
 20
-143.8151665222059
 10
71.05440536418085
 20
-143.6842528937665
 10
70.85769041197308
 20
-143.6842528937665
 10
70.59741344806245
 20
-143.6842528937665
 10
70.5889729641236
 20
-143.9147297817296
 10
70.58466659476703
 20
-144.0311740091311
 10
70.58466659476703
 20
-144.0311740091311
 10
70.36056313345154
 20
-144.0311740091311
 10
70.36056313345154
 20
-144.0311740091311
 10
70.36900361739039
 20
-143.9040499857254
 10
70.3795111586204
 20
-143.7920843824548
 10
70.45995413820098
 20
-143.6735730977622
 10
70.56985268418046
 20
-143.512687138601
 10
70.7560600951582
 20
-143.4789252028455
 10
70.87250432255965
 20
-143.4789252028455
 10
71.149662254348
 20
-143.4789252028455
 10
71.35688474778578
 20
-143.6628933017579
 10
71.35688474778578
 20
-143.9357448641897
 10
71.35688474778578
 20
-144.1644992044103
 10
71.2406127751586
 20
-144.2637179543855
 10
70.93175996490595
 20
-144.4900607277664
 97
        0
 97
        0
 75
     2
 76
     1
 98
        0
  0
POLYLINE
  5
BB
330
B2
100
AcDbEntity
  8
_U+30EC_U+30A4_U+30E4_U+30FC 1
370
     0
100
AcDb2dPolyline
 66
     1
 10
0.0
 20
0.0
 30
0.0
  0
VERTEX
  5
BC
330
BB
100
AcDbEntity
  8
_U+30EC_U+30A4_U+30E4_U+30FC 1
370
     0
100
AcDbVertex
100
AcDb2dVertex
 10
71.57547605632489
 20
-145.0719373552251
 30
0.0
  0
VERTEX
  5
BD
330
BB
100
AcDbEntity
  8
_U+30EC_U+30A4_U+30E4_U+30FC 1
370
     0
100
AcDbVertex
100
AcDb2dVertex
 10
71.57547605632489
 20
-144.8201008752533
 30
0.0
  0
VERTEX
  5
BE
330
BB
100
AcDbEntity
  8
_U+30EC_U+30A4_U+30E4_U+30FC 1
370
     0
100
AcDbVertex
100
AcDb2dVertex
 10
71.82714028152239
 20
-144.8201008752533
 30
0.0
  0
VERTEX
  5
BF
330
BB
100
AcDbEntity
  8
_U+30EC_U+30A4_U+30E4_U+30FC 1
370
     0
100
AcDbVertex
100
AcDb2dVertex
 10
71.82714028152239
 20
-145.0719373552251
 30
0.0
  0
VERTEX
  5
C0
330
BB
100
AcDbEntity
  8
_U+30EC_U+30A4_U+30E4_U+30FC 1
370
     0
100
AcDbVertex
100
AcDb2dVertex
 10
71.57547605632489
 20
-145.0719373552251
 30
0.0
  0
SEQEND
  5
C1
330
BB
100
AcDbEntity
  8
_U+30EC_U+30A4_U+30E4_U+30FC 1
370
     0
  0
HATCH
  5
C2
330
B2
100
AcDbEntity
  8
_U+30EC_U+30A4_U+30E4_U+30FC 1
 62
   179
420
  2234388
100
AcDbHatch
 10
0.0
 20
0.0
 30
0.0
210
0.0
220
0.0
230
1.0
  2
SOLID
 70
     1
 71
     0
 91
        1
 92
        1
 93
        4
 72
     1
 10
71.57547605632489
 20
-145.0719373552251
 11
71.57547605632489
 21
-144.8201008752533
 72
     1
 10
71.57547605632489
 20
-144.8201008752533
 11
71.82714028152239
 21
-144.8201008752533
 72
     1
 10
71.82714028152239
 20
-144.8201008752533
 11
71.82714028152239
 21
-145.0719373552251
 72
     1
 10
71.82714028152239
 20
-145.0719373552251
 11
71.57547605632489
 21
-145.0719373552251
 97
        0
 75
     2
 76
     1
 98
        0
  0
SPLINE
  5
C3
330
B2
100
AcDbEntity
  8
_U+30EC_U+30A4_U+30E4_U+30FC 1
370
     0
100
AcDbSpline
210
0.0
220
0.0
230
1.0
 70
    11
 71
     3
 72
    53
 73
    49
 74
     0
 42
0.0000000001
 43
0.0000000001
 12
1.0
 22
0.0
 32
0.0
 13
1.0
 23
0.0
 33
0.0
 40
0.0
 40
0.0
 40
0.0
 40
0.0
 40
1.0
 40
1.0
 40
1.0
 40
2.0
 40
2.0
 40
2.0
 40
3.0
 40
3.0
 40
3.0
 40
4.0
 40
4.0
 40
4.0
 40
5.0
 40
5.0
 40
5.0
 40
6.0
 40
6.0
 40
6.0
 40
7.0
 40
7.0
 40
7.0
 40
8.0
 40
8.0
 40
8.0
 40
9.0
 40
9.0
 40
9.0
 40
10.0
 40
10.0
 40
10.0
 40
11.0
 40
11.0
 40
11.0
 40
12.0
 40
12.0
 40
12.0
 40
13.0
 40
13.0
 40
13.0
 40
14.0
 40
14.0
 40
14.0
 40
15.0
 40
15.0
 40
15.0
 40
16.0
 40
16.0
 40
16.0
 40
16.0
 10
72.54475367109993
 20
-145.1225802588582
 30
0.0
 10
72.46637774881049
 20
-145.1225802588582
 30
0.0
 10
72.36491968676988
 20
-145.1056992909805
 30
0.0
 10
72.26328936995502
 20
-145.0423095340519
 30
0.0
 10
72.08982881227269
 20
-144.9324109880725
 30
0.0
 10
72.0686414750384
 20
-144.8011528500844
 30
0.0
 10
72.04969344986952
 20
-144.6933213613961
 30
0.0
 10
72.04969344986952
 20
-144.6933213613961
 30
0.0
 10
72.27172985389387
 20
-144.6933213613961
 30
0.0
 10
72.27172985389387
 20
-144.6933213613961
 30
0.0
 10
72.32685138165787
 20
-144.892103370895
 30
0.0
 10
72.45380315028933
 20
-144.9217311920682
 30
0.0
 10
72.54682072839108
 20
-144.9217311920682
 30
0.0
 10
72.6863470955437
 20
-144.9217311920682
 30
0.0
 10
72.838792570766
 20
-144.8221679325445
 30
0.0
 10
72.838792570766
 20
-144.5896239872901
 30
0.0
 10
72.838792570766
 20
-144.333653392736
 30
0.0
 10
72.65895858643596
 20
-144.2637179543855
 30
0.0
 10
72.53838024445221
 20
-144.2637179543855
 30
0.0
 10
72.50668536598792
 20
-144.2637179543855
 30
0.0
 10
72.36491968676988
 20
-144.2637179543855
 30
0.0
 10
72.27603622325044
 20
-144.3929090350823
 30
0.0
 10
72.27603622325044
 20
-144.3929090350823
 30
0.0
 10
72.10050860827695
 20
-144.3739610099135
 30
0.0
 10
72.10050860827695
 20
-144.3739610099135
 30
0.0
 10
72.10050860827695
 20
-144.3739610099135
 30
0.0
 10
72.2210869502607
 20
-143.5275010491876
 30
0.0
 10
72.2210869502607
 20
-143.5275010491876
 30
0.0
 10
72.2210869502607
 20
-143.5275010491876
 30
0.0
 10
72.99950627515291
 20
-143.5275010491876
 30
0.0
 10
72.99950627515291
 20
-143.5275010491876
 30
0.0
 10
72.99950627515291
 20
-143.5275010491876
 30
0.0
 10
72.99950627515291
 20
-143.7221489441042
 30
0.0
 10
72.99950627515291
 20
-143.7221489441042
 30
0.0
 10
72.99950627515291
 20
-143.7221489441042
 30
0.0
 10
72.38386771193876
 20
-143.7221489441042
 30
0.0
 10
72.38386771193876
 20
-143.7221489441042
 30
0.0
 10
72.38386771193876
 20
-143.7221489441042
 30
0.0
 10
72.318410897719
 20
-144.1452066696929
 30
0.0
 10
72.318410897719
 20
-144.1452066696929
 30
0.0
 10
72.37973359735646
 20
-144.1114447339374
 30
0.0
 10
72.46224363422819
 20
-144.07113711676
 30
0.0
 10
72.58058266414652
 20
-144.07113711676
 30
0.0
 10
72.83448620140943
 20
-144.07113711676
 30
0.0
 10
73.07150877079462
 20
-144.257516782512
 30
0.0
 10
73.07150877079462
 20
-144.5706759621212
 30
0.0
 10
73.07150877079462
 20
-144.8879692563127
 30
0.0
 10
72.84723305470486
 20
-145.1225802588582
 30
0.0
 10
72.54475367109993
 20
-145.1225802588582
 30
0.0
  0
HATCH
  5
C4
330
B2
100
AcDbEntity
  8
_U+30EC_U+30A4_U+30E4_U+30FC 1
 62
   179
420
  2234388
100
AcDbHatch
 10
0.0
 20
0.0
 30
0.0
210
0.0
220
0.0
230
1.0
  2
SOLID
 70
     1
 71
     0
 91
        1
 92
        1
 93
        1
 72
     4
 94
        3
 73
     0
 74
     1
 95
       53
 96
       49
 40
0.0
 40
0.0
 40
0.0
 40
0.0
 40
1.0
 40
1.0
 40
1.0
 40
2.0
 40
2.0
 40
2.0
 40
3.0
 40
3.0
 40
3.0
 40
4.0
 40
4.0
 40
4.0
 40
5.0
 40
5.0
 40
5.0
 40
6.0
 40
6.0
 40
6.0
 40
7.0
 40
7.0
 40
7.0
 40
8.0
 40
8.0
 40
8.0
 40
9.0
 40
9.0
 40
9.0
 40
10.0
 40
10.0
 40
10.0
 40
11.0
 40
11.0
 40
11.0
 40
12.0
 40
12.0
 40
12.0
 40
13.0
 40
13.0
 40
13.0
 40
14.0
 40
14.0
 40
14.0
 40
15.0
 40
15.0
 40
15.0
 40
16.0
 40
16.0
 40
16.0
 40
16.0
 10
72.54475367109993
 20
-145.1225802588582
 10
72.46637774881049
 20
-145.1225802588582
 10
72.36491968676988
 20
-145.1056992909805
 10
72.26328936995502
 20
-145.0423095340519
 10
72.08982881227269
 20
-144.9324109880725
 10
72.0686414750384
 20
-144.8011528500844
 10
72.04969344986952
 20
-144.6933213613961
 10
72.04969344986952
 20
-144.6933213613961
 10
72.27172985389387
 20
-144.6933213613961
 10
72.27172985389387
 20
-144.6933213613961
 10
72.32685138165787
 20
-144.892103370895
 10
72.45380315028933
 20
-144.9217311920682
 10
72.54682072839108
 20
-144.9217311920682
 10
72.6863470955437
 20
-144.9217311920682
 10
72.838792570766
 20
-144.8221679325445
 10
72.838792570766
 20
-144.5896239872901
 10
72.838792570766
 20
-144.333653392736
 10
72.65895858643596
 20
-144.2637179543855
 10
72.53838024445221
 20
-144.2637179543855
 10
72.50668536598792
 20
-144.2637179543855
 10
72.36491968676988
 20
-144.2637179543855
 10
72.27603622325044
 20
-144.3929090350823
 10
72.27603622325044
 20
-144.3929090350823
 10
72.10050860827695
 20
-144.3739610099135
 10
72.10050860827695
 20
-144.3739610099135
 10
72.10050860827695
 20
-144.3739610099135
 10
72.2210869502607
 20
-143.5275010491876
 10
72.2210869502607
 20
-143.5275010491876
 10
72.2210869502607
 20
-143.5275010491876
 10
72.99950627515291
 20
-143.5275010491876
 10
72.99950627515291
 20
-143.5275010491876
 10
72.99950627515291
 20
-143.5275010491876
 10
72.99950627515291
 20
-143.7221489441042
 10
72.99950627515291
 20
-143.7221489441042
 10
72.99950627515291
 20
-143.7221489441042
 10
72.38386771193876
 20
-143.7221489441042
 10
72.38386771193876
 20
-143.7221489441042
 10
72.38386771193876
 20
-143.7221489441042
 10
72.318410897719
 20
-144.1452066696929
 10
72.318410897719
 20
-144.1452066696929
 10
72.37973359735646
 20
-144.1114447339374
 10
72.46224363422819
 20
-144.07113711676
 10
72.58058266414652
 20
-144.07113711676
 10
72.83448620140943
 20
-144.07113711676
 10
73.07150877079462
 20
-144.257516782512
 10
73.07150877079462
 20
-144.5706759621212
 10
73.07150877079462
 20
-144.8879692563127
 10
72.84723305470486
 20
-145.1225802588582
 10
72.54475367109993
 20
-145.1225802588582
 97
        0
 97
        0
 75
     2
 76
     1
 98
        0
  0
ENDBLK
  5
B5
330
B2
100
AcDbEntity
  8
0
100
AcDbBlockEnd
  0
BLOCK
  5
D3
330
D1
100
AcDbEntity
  8
0
100
AcDbBlockBegin
  2
block 4
 70
     0
 10
0.0
 20
0.0
 30
0.0
  3
block 4
  1

  0
SPLINE
  5
D5
330
D1
100
AcDbEntity
  8
_U+30EC_U+30A4_U+30E4_U+30FC 1
370
     0
100
AcDbSpline
210
0.0
220
0.0
230
1.0
 70
    11
 71
     3
 72
    26
 73
    22
 74
     0
 42
0.0000000001
 43
0.0000000001
 12
1.0
 22
0.0
 32
0.0
 13
1.0
 23
0.0
 33
0.0
 40
0.0
 40
0.0
 40
0.0
 40
0.0
 40
1.0
 40
1.0
 40
1.0
 40
2.0
 40
2.0
 40
2.0
 40
3.0
 40
3.0
 40
3.0
 40
4.0
 40
4.0
 40
4.0
 40
5.0
 40
5.0
 40
5.0
 40
6.0
 40
6.0
 40
6.0
 40
7.0
 40
7.0
 40
7.0
 40
7.0
 10
84.48872746368686
 20
-150.241647640391
 30
0.0
 10
84.48872746368686
 20
-150.241647640391
 30
0.0
 10
84.48872746368686
 20
-149.1374945373684
 30
0.0
 10
84.48872746368686
 20
-149.1374945373684
 30
0.0
 10
84.48872746368686
 20
-149.1374945373684
 30
0.0
 10
84.15868731619992
 20
-149.1374945373684
 30
0.0
 10
84.15868731619992
 20
-149.1374945373684
 30
0.0
 10
84.15868731619992
 20
-149.1374945373684
 30
0.0
 10
84.15868731619992
 20
-148.9893554315027
 30
0.0
 10
84.15868731619992
 20
-148.9893554315027
 30
0.0
 10
84.490794520978
 20
-148.9745415209161
 30
0.0
 10
84.53730331002888
 20
-148.8115885044638
 30
0.0
 10
84.56693113120203
 20
-148.6972113343535
 30
0.0
 10
84.56693113120203
 20
-148.6972113343535
 30
0.0
 10
84.71300317977662
 20
-148.6972113343535
 30
0.0
 10
84.71300317977662
 20
-148.6972113343535
 30
0.0
 10
84.71300317977662
 20
-148.6972113343535
 30
0.0
 10
84.71300317977662
 20
-150.241647640391
 30
0.0
 10
84.71300317977662
 20
-150.241647640391
 30
0.0
 10
84.71300317977662
 20
-150.241647640391
 30
0.0
 10
84.48872746368686
 20
-150.241647640391
 30
0.0
 10
84.48872746368686
 20
-150.241647640391
 30
0.0
  0
HATCH
  5
D6
330
D1
100
AcDbEntity
  8
_U+30EC_U+30A4_U+30E4_U+30FC 1
 62
   179
420
  2234388
100
AcDbHatch
 10
0.0
 20
0.0
 30
0.0
210
0.0
220
0.0
230
1.0
  2
SOLID
 70
     1
 71
     0
 91
        1
 92
        1
 93
        1
 72
     4
 94
        3
 73
     0
 74
     1
 95
       26
 96
       22
 40
0.0
 40
0.0
 40
0.0
 40
0.0
 40
1.0
 40
1.0
 40
1.0
 40
2.0
 40
2.0
 40
2.0
 40
3.0
 40
3.0
 40
3.0
 40
4.0
 40
4.0
 40
4.0
 40
5.0
 40
5.0
 40
5.0
 40
6.0
 40
6.0
 40
6.0
 40
7.0
 40
7.0
 40
7.0
 40
7.0
 10
84.48872746368686
 20
-150.241647640391
 10
84.48872746368686
 20
-150.241647640391
 10
84.48872746368686
 20
-149.1374945373684
 10
84.48872746368686
 20
-149.1374945373684
 10
84.48872746368686
 20
-149.1374945373684
 10
84.15868731619992
 20
-149.1374945373684
 10
84.15868731619992
 20
-149.1374945373684
 10
84.15868731619992
 20
-149.1374945373684
 10
84.15868731619992
 20
-148.9893554315027
 10
84.15868731619992
 20
-148.9893554315027
 10
84.490794520978
 20
-148.9745415209161
 10
84.53730331002888
 20
-148.8115885044638
 10
84.56693113120203
 20
-148.6972113343535
 10
84.56693113120203
 20
-148.6972113343535
 10
84.71300317977662
 20
-148.6972113343535
 10
84.71300317977662
 20
-148.6972113343535
 10
84.71300317977662
 20
-148.6972113343535
 10
84.71300317977662
 20
-150.241647640391
 10
84.71300317977662
 20
-150.241647640391
 10
84.71300317977662
 20
-150.241647640391
 10
84.48872746368686
 20
-150.241647640391
 10
84.48872746368686
 20
-150.241647640391
 97
        0
 97
        0
 75
     2
 76
     1
 98
        0
  0
SPLINE
  5
D7
330
D1
100
AcDbEntity
  8
_U+30EC_U+30A4_U+30E4_U+30FC 1
370
     0
100
AcDbSpline
210
0.0
220
0.0
230
1.0
 70
    11
 71
     3
 72
    29
 73
    25
 74
     0
 42
0.0000000001
 43
0.0000000001
 12
1.0
 22
0.0
 32
0.0
 13
1.0
 23
0.0
 33
0.0
 40
0.0
 40
0.0
 40
0.0
 40
0.0
 40
1.0
 40
1.0
 40
1.0
 40
2.0
 40
2.0
 40
2.0
 40
3.0
 40
3.0
 40
3.0
 40
4.0
 40
4.0
 40
4.0
 40
5.0
 40
5.0
 40
5.0
 40
6.0
 40
6.0
 40
6.0
 40
7.0
 40
7.0
 40
7.0
 40
8.0
 40
8.0
 40
8.0
 40
8.0
 10
85.71414792779022
 20
-150.2922905440242
 30
0.0
 10
85.44749753723188
 20
-150.2922905440242
 30
0.0
 10
85.19359399996897
 20
-150.1548312341627
 30
0.0
 10
85.19359399996897
 20
-149.8058430615069
 30
0.0
 10
85.19359399996897
 20
-149.5498724669528
 30
0.0
 10
85.33553193396126
 20
-149.4547878315599
 30
0.0
 10
85.44129636535843
 20
-149.3934651319225
 30
0.0
 10
85.31658390879238
 20
-149.3342094895762
 30
0.0
 10
85.24044729856837
 20
-149.2198323194659
 30
0.0
 10
85.24044729856837
 20
-149.0589463603047
 30
0.0
 10
85.24044729856837
 20
-148.7840277405818
 30
0.0
 10
85.43922930806728
 20
-148.6486354880115
 30
0.0
 10
85.71414792779022
 20
-148.6486354880115
 30
0.0
 10
85.99767928622627
 20
-148.6486354880115
 30
0.0
 10
86.1881930665606
 20
-148.7926404792949
 30
0.0
 10
86.1881930665606
 20
-149.0589463603047
 30
0.0
 10
86.1881930665606
 20
-149.2198323194659
 30
0.0
 10
86.10964488949689
 20
-149.3342094895762
 30
0.0
 10
85.98493243293085
 20
-149.3934651319225
 30
0.0
 10
86.0738158964503
 20
-149.4441080355556
 30
0.0
 10
86.23263479832032
 20
-149.5391926709486
 30
0.0
 10
86.23263479832032
 20
-149.8017089469246
 30
0.0
 10
86.23263479832032
 20
-150.1761908261713
 30
0.0
 10
85.95323755446655
 20
-150.2922905440242
 30
0.0
 10
85.71414792779022
 20
-150.2922905440242
 30
0.0
  0
SPLINE
  5
D8
330
D1
100
AcDbEntity
  8
_U+30EC_U+30A4_U+30E4_U+30FC 1
370
     0
100
AcDbSpline
210
0.0
220
0.0
230
1.0
 70
    11
 71
     3
 72
    17
 73
    13
 74
     0
 42
0.0000000001
 43
0.0000000001
 12
1.0
 22
0.0
 32
0.0
 13
1.0
 23
0.0
 33
0.0
 40
0.0
 40
0.0
 40
0.0
 40
0.0
 40
1.0
 40
1.0
 40
1.0
 40
2.0
 40
2.0
 40
2.0
 40
3.0
 40
3.0
 40
3.0
 40
4.0
 40
4.0
 40
4.0
 40
4.0
 10
85.71414792779022
 20
-149.5012966206108
 30
0.0
 10
85.5704874460553
 20
-149.5012966206108
 30
0.0
 10
85.41786971605873
 20
-149.5881130268391
 30
0.0
 10
85.41786971605873
 20
-149.7910291509203
 30
0.0
 10
85.41786971605873
 20
-149.9963568418412
 30
0.0
 10
85.54499373946445
 20
-150.0976426491075
 30
0.0
 10
85.71414792779022
 20
-150.0976426491075
 30
0.0
 10
85.90018308399371
 20
-150.0976426491075
 30
0.0
 10
86.0104261395217
 20
-149.9749972498327
 30
0.0
 10
86.0104261395217
 20
-149.7972303227938
 30
0.0
 10
86.0104261395217
 20
-149.5753661735437
 30
0.0
 10
85.84747312306939
 20
-149.5012966206108
 30
0.0
 10
85.71414792779022
 20
-149.5012966206108
 30
0.0
  0
SPLINE
  5
D9
330
D1
100
AcDbEntity
  8
_U+30EC_U+30A4_U+30E4_U+30FC 1
370
     0
100
AcDbSpline
210
0.0
220
0.0
230
1.0
 70
    11
 71
     3
 72
    17
 73
    13
 74
     0
 42
0.0000000001
 43
0.0000000001
 12
1.0
 22
0.0
 32
0.0
 13
1.0
 23
0.0
 33
0.0
 40
0.0
 40
0.0
 40
0.0
 40
0.0
 40
1.0
 40
1.0
 40
1.0
 40
2.0
 40
2.0
 40
2.0
 40
3.0
 40
3.0
 40
3.0
 40
4.0
 40
4.0
 40
4.0
 40
4.0
 10
85.71414792779022
 20
-148.8412163256369
 30
0.0
 10
85.54912785404674
 20
-148.8412163256369
 30
0.0
 10
85.46437850510961
 20
-148.9363009610298
 30
0.0
 10
85.46437850510961
 20
-149.0716932136001
 30
0.0
 10
85.46437850510961
 20
-149.194338612875
 30
0.0
 10
85.53638100075132
 20
-149.3128498975676
 30
0.0
 10
85.71414792779022
 20
-149.3128498975676
 30
0.0
 10
85.89191485482911
 20
-149.3128498975676
 30
0.0
 10
85.96391735047084
 20
-149.194338612875
 30
0.0
 10
85.96391735047084
 20
-149.0716932136001
 30
0.0
 10
85.96391735047084
 20
-148.9363009610298
 30
0.0
 10
85.87710094424253
 20
-148.8412163256369
 30
0.0
 10
85.71414792779022
 20
-148.8412163256369
 30
0.0
  0
HATCH
  5
DA
330
D1
100
AcDbEntity
  8
_U+30EC_U+30A4_U+30E4_U+30FC 1
 62
   179
420
  2234388
100
AcDbHatch
 10
0.0
 20
0.0
 30
0.0
210
0.0
220
0.0
230
1.0
  2
SOLID
 70
     1
 71
     0
 91
        3
 92
        1
 93
        1
 72
     4
 94
        3
 73
     0
 74
     1
 95
       29
 96
       25
 40
0.0
 40
0.0
 40
0.0
 40
0.0
 40
1.0
 40
1.0
 40
1.0
 40
2.0
 40
2.0
 40
2.0
 40
3.0
 40
3.0
 40
3.0
 40
4.0
 40
4.0
 40
4.0
 40
5.0
 40
5.0
 40
5.0
 40
6.0
 40
6.0
 40
6.0
 40
7.0
 40
7.0
 40
7.0
 40
8.0
 40
8.0
 40
8.0
 40
8.0
 10
85.71414792779022
 20
-150.2922905440242
 10
85.44749753723188
 20
-150.2922905440242
 10
85.19359399996897
 20
-150.1548312341627
 10
85.19359399996897
 20
-149.8058430615069
 10
85.19359399996897
 20
-149.5498724669528
 10
85.33553193396126
 20
-149.4547878315599
 10
85.44129636535843
 20
-149.3934651319225
 10
85.31658390879238
 20
-149.3342094895762
 10
85.24044729856837
 20
-149.2198323194659
 10
85.24044729856837
 20
-149.0589463603047
 10
85.24044729856837
 20
-148.7840277405818
 10
85.43922930806728
 20
-148.6486354880115
 10
85.71414792779022
 20
-148.6486354880115
 10
85.99767928622627
 20
-148.6486354880115
 10
86.1881930665606
 20
-148.7926404792949
 10
86.1881930665606
 20
-149.0589463603047
 10
86.1881930665606
 20
-149.2198323194659
 10
86.10964488949689
 20
-149.3342094895762
 10
85.98493243293085
 20
-149.3934651319225
 10
86.0738158964503
 20
-149.4441080355556
 10
86.23263479832032
 20
-149.5391926709486
 10
86.23263479832032
 20
-149.8017089469246
 10
86.23263479832032
 20
-150.1761908261713
 10
85.95323755446655
 20
-150.2922905440242
 10
85.71414792779022
 20
-150.2922905440242
 97
        0
 97
        0
 92
        1
 93
        1
 72
     4
 94
        3
 73
     0
 74
     1
 95
       17
 96
       13
 40
0.0
 40
0.0
 40
0.0
 40
0.0
 40
1.0
 40
1.0
 40
1.0
 40
2.0
 40
2.0
 40
2.0
 40
3.0
 40
3.0
 40
3.0
 40
4.0
 40
4.0
 40
4.0
 40
4.0
 10
85.71414792779022
 20
-149.5012966206108
 10
85.5704874460553
 20
-149.5012966206108
 10
85.41786971605873
 20
-149.5881130268391
 10
85.41786971605873
 20
-149.7910291509203
 10
85.41786971605873
 20
-149.9963568418412
 10
85.54499373946445
 20
-150.0976426491075
 10
85.71414792779022
 20
-150.0976426491075
 10
85.90018308399371
 20
-150.0976426491075
 10
86.0104261395217
 20
-149.9749972498327
 10
86.0104261395217
 20
-149.7972303227938
 10
86.0104261395217
 20
-149.5753661735437
 10
85.84747312306939
 20
-149.5012966206108
 10
85.71414792779022
 20
-149.5012966206108
 97
        0
 97
        0
 92
        1
 93
        1
 72
     4
 94
        3
 73
     0
 74
     1
 95
       17
 96
       13
 40
0.0
 40
0.0
 40
0.0
 40
0.0
 40
1.0
 40
1.0
 40
1.0
 40
2.0
 40
2.0
 40
2.0
 40
3.0
 40
3.0
 40
3.0
 40
4.0
 40
4.0
 40
4.0
 40
4.0
 10
85.71414792779022
 20
-148.8412163256369
 10
85.54912785404674
 20
-148.8412163256369
 10
85.46437850510961
 20
-148.9363009610298
 10
85.46437850510961
 20
-149.0716932136001
 10
85.46437850510961
 20
-149.194338612875
 10
85.53638100075132
 20
-149.3128498975676
 10
85.71414792779022
 20
-149.3128498975676
 10
85.89191485482911
 20
-149.3128498975676
 10
85.96391735047084
 20
-149.194338612875
 10
85.96391735047084
 20
-149.0716932136001
 10
85.96391735047084
 20
-148.9363009610298
 10
85.87710094424253
 20
-148.8412163256369
 10
85.71414792779022
 20
-148.8412163256369
 97
        0
 97
        0
 75
     2
 76
     1
 98
        0
  0
ENDBLK
  5
D4
330
D1
100
AcDbEntity
  8
0
100
AcDbBlockEnd
  0
BLOCK
  5
E5
330
E3
100
AcDbEntity
  8
0
100
AcDbBlockBegin
  2
block 5
 70
     0
 10
0.0
 20
0.0
 30
0.0
  3
block 5
  1

  0
SPLINE
  5
E7
330
E3
100
AcDbEntity
  8
_U+30EC_U+30A4_U+30E4_U+30FC 1
370
     0
100
AcDbSpline
210
0.0
220
0.0
230
1.0
 70
    11
 71
     3
 72
    26
 73
    22
 74
     0
 42
0.0000000001
 43
0.0000000001
 12
1.0
 22
0.0
 32
0.0
 13
1.0
 23
0.0
 33
0.0
 40
0.0
 40
0.0
 40
0.0
 40
0.0
 40
1.0
 40
1.0
 40
1.0
 40
2.0
 40
2.0
 40
2.0
 40
3.0
 40
3.0
 40
3.0
 40
4.0
 40
4.0
 40
4.0
 40
5.0
 40
5.0
 40
5.0
 40
6.0
 40
6.0
 40
6.0
 40
7.0
 40
7.0
 40
7.0
 40
7.0
 10
100.9884955259682
 20
-150.241647640391
 30
0.0
 10
100.9884955259682
 20
-150.241647640391
 30
0.0
 10
100.9884955259682
 20
-149.1374945373684
 30
0.0
 10
100.9884955259682
 20
-149.1374945373684
 30
0.0
 10
100.9884955259682
 20
-149.1374945373684
 30
0.0
 10
100.6584553784812
 20
-149.1374945373684
 30
0.0
 10
100.6584553784812
 20
-149.1374945373684
 30
0.0
 10
100.6584553784812
 20
-149.1374945373684
 30
0.0
 10
100.6584553784812
 20
-148.9893554315027
 30
0.0
 10
100.6584553784812
 20
-148.9893554315027
 30
0.0
 10
100.9905625832593
 20
-148.9745415209161
 30
0.0
 10
101.0370713723102
 20
-148.8115885044638
 30
0.0
 10
101.0666991934833
 20
-148.6972113343535
 30
0.0
 10
101.0666991934833
 20
-148.6972113343535
 30
0.0
 10
101.2127712420579
 20
-148.6972113343535
 30
0.0
 10
101.2127712420579
 20
-148.6972113343535
 30
0.0
 10
101.2127712420579
 20
-148.6972113343535
 30
0.0
 10
101.2127712420579
 20
-150.241647640391
 30
0.0
 10
101.2127712420579
 20
-150.241647640391
 30
0.0
 10
101.2127712420579
 20
-150.241647640391
 30
0.0
 10
100.9884955259682
 20
-150.241647640391
 30
0.0
 10
100.9884955259682
 20
-150.241647640391
 30
0.0
  0
HATCH
  5
E8
330
E3
100
AcDbEntity
  8
_U+30EC_U+30A4_U+30E4_U+30FC 1
 62
   179
420
  2234388
100
AcDbHatch
 10
0.0
 20
0.0
 30
0.0
210
0.0
220
0.0
230
1.0
  2
SOLID
 70
     1
 71
     0
 91
        1
 92
        1
 93
        1
 72
     4
 94
        3
 73
     0
 74
     1
 95
       26
 96
       22
 40
0.0
 40
0.0
 40
0.0
 40
0.0
 40
1.0
 40
1.0
 40
1.0
 40
2.0
 40
2.0
 40
2.0
 40
3.0
 40
3.0
 40
3.0
 40
4.0
 40
4.0
 40
4.0
 40
5.0
 40
5.0
 40
5.0
 40
6.0
 40
6.0
 40
6.0
 40
7.0
 40
7.0
 40
7.0
 40
7.0
 10
100.9884955259682
 20
-150.241647640391
 10
100.9884955259682
 20
-150.241647640391
 10
100.9884955259682
 20
-149.1374945373684
 10
100.9884955259682
 20
-149.1374945373684
 10
100.9884955259682
 20
-149.1374945373684
 10
100.6584553784812
 20
-149.1374945373684
 10
100.6584553784812
 20
-149.1374945373684
 10
100.6584553784812
 20
-149.1374945373684
 10
100.6584553784812
 20
-148.9893554315027
 10
100.6584553784812
 20
-148.9893554315027
 10
100.9905625832593
 20
-148.9745415209161
 10
101.0370713723102
 20
-148.8115885044638
 10
101.0666991934833
 20
-148.6972113343535
 10
101.0666991934833
 20
-148.6972113343535
 10
101.2127712420579
 20
-148.6972113343535
 10
101.2127712420579
 20
-148.6972113343535
 10
101.2127712420579
 20
-148.6972113343535
 10
101.2127712420579
 20
-150.241647640391
 10
101.2127712420579
 20
-150.241647640391
 10
101.2127712420579
 20
-150.241647640391
 10
100.9884955259682
 20
-150.241647640391
 10
100.9884955259682
 20
-150.241647640391
 97
        0
 97
        0
 75
     2
 76
     1
 98
        0
  0
SPLINE
  5
E9
330
E3
100
AcDbEntity
  8
_U+30EC_U+30A4_U+30E4_U+30FC 1
370
     0
100
AcDbSpline
210
0.0
220
0.0
230
1.0
 70
    11
 71
     3
 72
    53
 73
    49
 74
     0
 42
0.0000000001
 43
0.0000000001
 12
1.0
 22
0.0
 32
0.0
 13
1.0
 23
0.0
 33
0.0
 40
0.0
 40
0.0
 40
0.0
 40
0.0
 40
1.0
 40
1.0
 40
1.0
 40
2.0
 40
2.0
 40
2.0
 40
3.0
 40
3.0
 40
3.0
 40
4.0
 40
4.0
 40
4.0
 40
5.0
 40
5.0
 40
5.0
 40
6.0
 40
6.0
 40
6.0
 40
7.0
 40
7.0
 40
7.0
 40
8.0
 40
8.0
 40
8.0
 40
9.0
 40
9.0
 40
9.0
 40
10.0
 40
10.0
 40
10.0
 40
11.0
 40
11.0
 40
11.0
 40
12.0
 40
12.0
 40
12.0
 40
13.0
 40
13.0
 40
13.0
 40
14.0
 40
14.0
 40
14.0
 40
15.0
 40
15.0
 40
15.0
 40
16.0
 40
16.0
 40
16.0
 40
16.0
 10
102.1949679649026
 20
-150.2922905440242
 30
0.0
 10
102.1167642973875
 20
-150.2922905440242
 30
0.0
 10
102.0151339805726
 20
-150.2754095761464
 30
0.0
 10
101.9135036637577
 20
-150.2120198192178
 30
0.0
 10
101.7402153608497
 20
-150.1021212732384
 30
0.0
 10
101.7188557688411
 20
-149.9708631352503
 30
0.0
 10
101.6999077436723
 20
-149.863031646562
 30
0.0
 10
101.6999077436723
 20
-149.863031646562
 30
0.0
 10
101.9221164024709
 20
-149.863031646562
 30
0.0
 10
101.9221164024709
 20
-149.863031646562
 30
0.0
 10
101.9768934206863
 20
-150.0618136560609
 30
0.0
 10
102.1040174440921
 20
-150.0914414772341
 30
0.0
 10
102.1970350221938
 20
-150.0914414772341
 30
0.0
 10
102.3365613893464
 20
-150.0914414772341
 30
0.0
 10
102.4888346097945
 20
-149.9918782177104
 30
0.0
 10
102.4888346097945
 20
-149.759334272456
 30
0.0
 10
102.4888346097945
 20
-149.5033636779019
 30
0.0
 10
102.3090006254644
 20
-149.4334282395514
 30
0.0
 10
102.1884222834807
 20
-149.4334282395514
 30
0.0
 10
102.1567274050164
 20
-149.4334282395514
 30
0.0
 10
102.0151339805726
 20
-149.4334282395514
 30
0.0
 10
101.9262505170532
 20
-149.5626193202482
 30
0.0
 10
101.9262505170532
 20
-149.5626193202482
 30
0.0
 10
101.7505506473054
 20
-149.5436712950794
 30
0.0
 10
101.7505506473054
 20
-149.5436712950794
 30
0.0
 10
101.7505506473054
 20
-149.5436712950794
 30
0.0
 10
101.8711289892892
 20
-148.6972113343535
 30
0.0
 10
101.8711289892892
 20
-148.6972113343535
 30
0.0
 10
101.8711289892892
 20
-148.6972113343535
 30
0.0
 10
102.6497205689556
 20
-148.6972113343535
 30
0.0
 10
102.6497205689556
 20
-148.6972113343535
 30
0.0
 10
102.6497205689556
 20
-148.6972113343535
 30
0.0
 10
102.6497205689556
 20
-148.8918592292701
 30
0.0
 10
102.6497205689556
 20
-148.8918592292701
 30
0.0
 10
102.6497205689556
 20
-148.8918592292701
 30
0.0
 10
102.0340820057415
 20
-148.8918592292701
 30
0.0
 10
102.0340820057415
 20
-148.8918592292701
 30
0.0
 10
102.0340820057415
 20
-148.8918592292701
 30
0.0
 10
101.9686251915217
 20
-149.3149169548588
 30
0.0
 10
101.9686251915217
 20
-149.3149169548588
 30
0.0
 10
102.0299478911592
 20
-149.2811550191033
 30
0.0
 10
102.1122856732567
 20
-149.2408474019259
 30
0.0
 10
102.2307969579493
 20
-149.2408474019259
 30
0.0
 10
102.4847004952122
 20
-149.2408474019259
 30
0.0
 10
102.7217230645974
 20
-149.4272270676779
 30
0.0
 10
102.7217230645974
 20
-149.7403862472871
 30
0.0
 10
102.7217230645974
 20
-150.0576795414786
 30
0.0
 10
102.4974473485076
 20
-150.2922905440242
 30
0.0
 10
102.1949679649026
 20
-150.2922905440242
 30
0.0
  0
HATCH
  5
EA
330
E3
100
AcDbEntity
  8
_U+30EC_U+30A4_U+30E4_U+30FC 1
 62
   179
420
  2234388
100
AcDbHatch
 10
0.0
 20
0.0
 30
0.0
210
0.0
220
0.0
230
1.0
  2
SOLID
 70
     1
 71
     0
 91
        1
 92
        1
 93
        1
 72
     4
 94
        3
 73
     0
 74
     1
 95
       53
 96
       49
 40
0.0
 40
0.0
 40
0.0
 40
0.0
 40
1.0
 40
1.0
 40
1.0
 40
2.0
 40
2.0
 40
2.0
 40
3.0
 40
3.0
 40
3.0
 40
4.0
 40
4.0
 40
4.0
 40
5.0
 40
5.0
 40
5.0
 40
6.0
 40
6.0
 40
6.0
 40
7.0
 40
7.0
 40
7.0
 40
8.0
 40
8.0
 40
8.0
 40
9.0
 40
9.0
 40
9.0
 40
10.0
 40
10.0
 40
10.0
 40
11.0
 40
11.0
 40
11.0
 40
12.0
 40
12.0
 40
12.0
 40
13.0
 40
13.0
 40
13.0
 40
14.0
 40
14.0
 40
14.0
 40
15.0
 40
15.0
 40
15.0
 40
16.0
 40
16.0
 40
16.0
 40
16.0
 10
102.1949679649026
 20
-150.2922905440242
 10
102.1167642973875
 20
-150.2922905440242
 10
102.0151339805726
 20
-150.2754095761464
 10
101.9135036637577
 20
-150.2120198192178
 10
101.7402153608497
 20
-150.1021212732384
 10
101.7188557688411
 20
-149.9708631352503
 10
101.6999077436723
 20
-149.863031646562
 10
101.6999077436723
 20
-149.863031646562
 10
101.9221164024709
 20
-149.863031646562
 10
101.9221164024709
 20
-149.863031646562
 10
101.9768934206863
 20
-150.0618136560609
 10
102.1040174440921
 20
-150.0914414772341
 10
102.1970350221938
 20
-150.0914414772341
 10
102.3365613893464
 20
-150.0914414772341
 10
102.4888346097945
 20
-149.9918782177104
 10
102.4888346097945
 20
-149.759334272456
 10
102.4888346097945
 20
-149.5033636779019
 10
102.3090006254644
 20
-149.4334282395514
 10
102.1884222834807
 20
-149.4334282395514
 10
102.1567274050164
 20
-149.4334282395514
 10
102.0151339805726
 20
-149.4334282395514
 10
101.9262505170532
 20
-149.5626193202482
 10
101.9262505170532
 20
-149.5626193202482
 10
101.7505506473054
 20
-149.5436712950794
 10
101.7505506473054
 20
-149.5436712950794
 10
101.7505506473054
 20
-149.5436712950794
 10
101.8711289892892
 20
-148.6972113343535
 10
101.8711289892892
 20
-148.6972113343535
 10
101.8711289892892
 20
-148.6972113343535
 10
102.6497205689556
 20
-148.6972113343535
 10
102.6497205689556
 20
-148.6972113343535
 10
102.6497205689556
 20
-148.6972113343535
 10
102.6497205689556
 20
-148.8918592292701
 10
102.6497205689556
 20
-148.8918592292701
 10
102.6497205689556
 20
-148.8918592292701
 10
102.0340820057415
 20
-148.8918592292701
 10
102.0340820057415
 20
-148.8918592292701
 10
102.0340820057415
 20
-148.8918592292701
 10
101.9686251915217
 20
-149.3149169548588
 10
101.9686251915217
 20
-149.3149169548588
 10
102.0299478911592
 20
-149.2811550191033
 10
102.1122856732567
 20
-149.2408474019259
 10
102.2307969579493
 20
-149.2408474019259
 10
102.4847004952122
 20
-149.2408474019259
 10
102.7217230645974
 20
-149.4272270676779
 10
102.7217230645974
 20
-149.7403862472871
 10
102.7217230645974
 20
-150.0576795414786
 10
102.4974473485076
 20
-150.2922905440242
 10
102.1949679649026
 20
-150.2922905440242
 97
        0
 97
        0
 75
     2
 76
     1
 98
        0
  0
ENDBLK
  5
E6
330
E3
100
AcDbEntity
  8
0
100
AcDbBlockEnd
  0
BLOCK
  5
F9
330
F7
100
AcDbEntity
  8
0
100
AcDbBlockBegin
  2
block 6
 70
     0
 10
0.0
 20
0.0
 30
0.0
  3
block 6
  1

  0
SPLINE
  5
FB
330
F7
100
AcDbEntity
  8
_U+30EC_U+30A4_U+30E4_U+30FC 1
370
     0
100
AcDbSpline
210
0.0
220
0.0
230
1.0
 70
    11
 71
     3
 72
    44
 73
    40
 74
     0
 42
0.0000000001
 43
0.0000000001
 12
1.0
 22
0.0
 32
0.0
 13
1.0
 23
0.0
 33
0.0
 40
0.0
 40
0.0
 40
0.0
 40
0.0
 40
1.0
 40
1.0
 40
1.0
 40
2.0
 40
2.0
 40
2.0
 40
3.0
 40
3.0
 40
3.0
 40
4.0
 40
4.0
 40
4.0
 40
5.0
 40
5.0
 40
5.0
 40
6.0
 40
6.0
 40
6.0
 40
7.0
 40
7.0
 40
7.0
 40
8.0
 40
8.0
 40
8.0
 40
9.0
 40
9.0
 40
9.0
 40
10.0
 40
10.0
 40
10.0
 40
11.0
 40
11.0
 40
11.0
 40
12.0
 40
12.0
 40
12.0
 40
13.0
 40
13.0
 40
13.0
 40
13.0
 10
98.13009980185637
 20
-106.6596394590122
 30
0.0
 10
97.91236976718858
 20
-106.8182861061079
 30
0.0
 10
97.81935218908683
 20
-106.8923556590408
 30
0.0
 10
97.77043183319628
 20
-107.03618839555
 30
0.0
 10
97.77043183319628
 20
-107.03618839555
 30
0.0
 10
98.54902341286275
 20
-107.03618839555
 30
0.0
 10
98.54902341286275
 20
-107.03618839555
 30
0.0
 10
98.54902341286275
 20
-107.03618839555
 30
0.0
 10
98.54902341286275
 20
-107.2413438316966
 30
0.0
 10
98.54902341286275
 20
-107.2413438316966
 30
0.0
 10
98.54902341286275
 20
-107.2413438316966
 30
0.0
 10
97.5210069200642
 20
-107.2413438316966
 30
0.0
 10
97.5210069200642
 20
-107.2413438316966
 30
0.0
 10
97.5527017985285
 20
-106.8837429203277
 30
0.0
 10
97.61815861274825
 20
-106.8055392528125
 30
0.0
 10
98.00332028799917
 20
-106.5071939837899
 30
0.0
 10
98.25929088255323
 20
-106.308411974291
 30
0.0
 10
98.32474769677299
 20
-106.2407158480058
 30
0.0
 10
98.32474769677299
 20
-106.1032565381443
 30
0.0
 10
98.32474769677299
 20
-105.9847452534517
 30
0.0
 10
98.25274520113126
 20
-105.853659370238
 30
0.0
 10
98.05603024892349
 20
-105.853659370238
 30
0.0
 10
97.79592553978713
 20
-105.853659370238
 30
0.0
 10
97.78731280107401
 20
-106.0841362582012
 30
0.0
 10
97.78317868649171
 20
-106.2005804856026
 30
0.0
 10
97.78317868649171
 20
-106.2005804856026
 30
0.0
 10
97.55890297040195
 20
-106.2005804856026
 30
0.0
 10
97.55890297040195
 20
-106.2005804856026
 30
0.0
 10
97.56751570911507
 20
-106.0736287169712
 30
0.0
 10
97.57819550511934
 20
-105.9614908589263
 30
0.0
 10
97.65846622992566
 20
-105.8429795742337
 30
0.0
 10
97.76836477590514
 20
-105.6822658698468
 30
0.0
 10
97.95474444165716
 20
-105.6483316793171
 30
0.0
 10
98.07084415951007
 20
-105.6483316793171
 30
0.0
 10
98.34817434607268
 20
-105.6483316793171
 30
0.0
 10
98.55556909428472
 20
-105.8324720330037
 30
0.0
 10
98.55556909428472
 20
-106.1053235954355
 30
0.0
 10
98.55556909428472
 20
-106.3337334261075
 30
0.0
 10
98.43912486688328
 20
-106.4332966856313
 30
0.0
 10
98.13009980185637
 20
-106.6596394590122
 30
0.0
  0
HATCH
  5
FC
330
F7
100
AcDbEntity
  8
_U+30EC_U+30A4_U+30E4_U+30FC 1
 62
   179
420
  2234388
100
AcDbHatch
 10
0.0
 20
0.0
 30
0.0
210
0.0
220
0.0
230
1.0
  2
SOLID
 70
     1
 71
     0
 91
        1
 92
        1
 93
        1
 72
     4
 94
        3
 73
     0
 74
     1
 95
       44
 96
       40
 40
0.0
 40
0.0
 40
0.0
 40
0.0
 40
1.0
 40
1.0
 40
1.0
 40
2.0
 40
2.0
 40
2.0
 40
3.0
 40
3.0
 40
3.0
 40
4.0
 40
4.0
 40
4.0
 40
5.0
 40
5.0
 40
5.0
 40
6.0
 40
6.0
 40
6.0
 40
7.0
 40
7.0
 40
7.0
 40
8.0
 40
8.0
 40
8.0
 40
9.0
 40
9.0
 40
9.0
 40
10.0
 40
10.0
 40
10.0
 40
11.0
 40
11.0
 40
11.0
 40
12.0
 40
12.0
 40
12.0
 40
13.0
 40
13.0
 40
13.0
 40
13.0
 10
98.13009980185637
 20
-106.6596394590122
 10
97.91236976718858
 20
-106.8182861061079
 10
97.81935218908683
 20
-106.8923556590408
 10
97.77043183319628
 20
-107.03618839555
 10
97.77043183319628
 20
-107.03618839555
 10
98.54902341286275
 20
-107.03618839555
 10
98.54902341286275
 20
-107.03618839555
 10
98.54902341286275
 20
-107.03618839555
 10
98.54902341286275
 20
-107.2413438316966
 10
98.54902341286275
 20
-107.2413438316966
 10
98.54902341286275
 20
-107.2413438316966
 10
97.5210069200642
 20
-107.2413438316966
 10
97.5210069200642
 20
-107.2413438316966
 10
97.5527017985285
 20
-106.8837429203277
 10
97.61815861274825
 20
-106.8055392528125
 10
98.00332028799917
 20
-106.5071939837899
 10
98.25929088255323
 20
-106.308411974291
 10
98.32474769677299
 20
-106.2407158480058
 10
98.32474769677299
 20
-106.1032565381443
 10
98.32474769677299
 20
-105.9847452534517
 10
98.25274520113126
 20
-105.853659370238
 10
98.05603024892349
 20
-105.853659370238
 10
97.79592553978713
 20
-105.853659370238
 10
97.78731280107401
 20
-106.0841362582012
 10
97.78317868649171
 20
-106.2005804856026
 10
97.78317868649171
 20
-106.2005804856026
 10
97.55890297040195
 20
-106.2005804856026
 10
97.55890297040195
 20
-106.2005804856026
 10
97.56751570911507
 20
-106.0736287169712
 10
97.57819550511934
 20
-105.9614908589263
 10
97.65846622992566
 20
-105.8429795742337
 10
97.76836477590514
 20
-105.6822658698468
 10
97.95474444165716
 20
-105.6483316793171
 10
98.07084415951007
 20
-105.6483316793171
 10
98.34817434607268
 20
-105.6483316793171
 10
98.55556909428472
 20
-105.8324720330037
 10
98.55556909428472
 20
-106.1053235954355
 10
98.55556909428472
 20
-106.3337334261075
 10
98.43912486688328
 20
-106.4332966856313
 10
98.13009980185637
 20
-106.6596394590122
 97
        0
 97
        0
 75
     2
 76
     1
 98
        0
  0
SPLINE
  5
FD
330
F7
100
AcDbEntity
  8
_U+30EC_U+30A4_U+30E4_U+30FC 1
370
     0
100
AcDbSpline
210
0.0
220
0.0
230
1.0
 70
    11
 71
     3
 72
    26
 73
    22
 74
     0
 42
0.0000000001
 43
0.0000000001
 12
1.0
 22
0.0
 32
0.0
 13
1.0
 23
0.0
 33
0.0
 40
0.0
 40
0.0
 40
0.0
 40
0.0
 40
1.0
 40
1.0
 40
1.0
 40
2.0
 40
2.0
 40
2.0
 40
3.0
 40
3.0
 40
3.0
 40
4.0
 40
4.0
 40
4.0
 40
5.0
 40
5.0
 40
5.0
 40
6.0
 40
6.0
 40
6.0
 40
7.0
 40
7.0
 40
7.0
 40
7.0
 10
99.16535099517394
 20
-107.2413438316966
 30
0.0
 10
99.16535099517394
 20
-107.2413438316966
 30
0.0
 10
99.16535099517394
 20
-106.1370184738998
 30
0.0
 10
99.16535099517394
 20
-106.1370184738998
 30
0.0
 10
99.16535099517394
 20
-106.1370184738998
 30
0.0
 10
98.83531084768701
 20
-106.1370184738998
 30
0.0
 10
98.83531084768701
 20
-106.1370184738998
 30
0.0
 10
98.83531084768701
 20
-106.1370184738998
 30
0.0
 10
98.83531084768701
 20
-105.9890516228083
 30
0.0
 10
98.83531084768701
 20
-105.9890516228083
 30
0.0
 10
99.1674180524651
 20
-105.9742377122217
 30
0.0
 10
99.21392684151597
 20
-105.8112846957694
 30
0.0
 10
99.24355466268912
 20
-105.6970797804334
 30
0.0
 10
99.24355466268912
 20
-105.6970797804334
 30
0.0
 10
99.3896267112637
 20
-105.6970797804334
 30
0.0
 10
99.3896267112637
 20
-105.6970797804334
 30
0.0
 10
99.3896267112637
 20
-105.6970797804334
 30
0.0
 10
99.3896267112637
 20
-107.2413438316966
 30
0.0
 10
99.3896267112637
 20
-107.2413438316966
 30
0.0
 10
99.3896267112637
 20
-107.2413438316966
 30
0.0
 10
99.16535099517394
 20
-107.2413438316966
 30
0.0
 10
99.16535099517394
 20
-107.2413438316966
 30
0.0
  0
HATCH
  5
FE
330
F7
100
AcDbEntity
  8
_U+30EC_U+30A4_U+30E4_U+30FC 1
 62
   179
420
  2234388
100
AcDbHatch
 10
0.0
 20
0.0
 30
0.0
210
0.0
220
0.0
230
1.0
  2
SOLID
 70
     1
 71
     0
 91
        1
 92
        1
 93
        1
 72
     4
 94
        3
 73
     0
 74
     1
 95
       26
 96
       22
 40
0.0
 40
0.0
 40
0.0
 40
0.0
 40
1.0
 40
1.0
 40
1.0
 40
2.0
 40
2.0
 40
2.0
 40
3.0
 40
3.0
 40
3.0
 40
4.0
 40
4.0
 40
4.0
 40
5.0
 40
5.0
 40
5.0
 40
6.0
 40
6.0
 40
6.0
 40
7.0
 40
7.0
 40
7.0
 40
7.0
 10
99.16535099517394
 20
-107.2413438316966
 10
99.16535099517394
 20
-107.2413438316966
 10
99.16535099517394
 20
-106.1370184738998
 10
99.16535099517394
 20
-106.1370184738998
 10
99.16535099517394
 20
-106.1370184738998
 10
98.83531084768701
 20
-106.1370184738998
 10
98.83531084768701
 20
-106.1370184738998
 10
98.83531084768701
 20
-106.1370184738998
 10
98.83531084768701
 20
-105.9890516228083
 10
98.83531084768701
 20
-105.9890516228083
 10
99.1674180524651
 20
-105.9742377122217
 10
99.21392684151597
 20
-105.8112846957694
 10
99.24355466268912
 20
-105.6970797804334
 10
99.24355466268912
 20
-105.6970797804334
 10
99.3896267112637
 20
-105.6970797804334
 10
99.3896267112637
 20
-105.6970797804334
 10
99.3896267112637
 20
-105.6970797804334
 10
99.3896267112637
 20
-107.2413438316966
 10
99.3896267112637
 20
-107.2413438316966
 10
99.3896267112637
 20
-107.2413438316966
 10
99.16535099517394
 20
-107.2413438316966
 10
99.16535099517394
 20
-107.2413438316966
 97
        0
 97
        0
 75
     2
 76
     1
 98
        0
  0
ENDBLK
  5
FA
330
F7
100
AcDbEntity
  8
0
100
AcDbBlockEnd
  0
BLOCK
  5
10D
330
10B
100
AcDbEntity
  8
0
100
AcDbBlockBegin
  2
block 7
 70
     0
 10
0.0
 20
0.0
 30
0.0
  3
block 7
  1

  0
SPLINE
  5
10F
330
10B
100
AcDbEntity
  8
_U+30EC_U+30A4_U+30E4_U+30FC 1
370
     0
100
AcDbSpline
210
0.0
220
0.0
230
1.0
 70
    11
 71
     3
 72
    44
 73
    40
 74
     0
 42
0.0000000001
 43
0.0000000001
 12
1.0
 22
0.0
 32
0.0
 13
1.0
 23
0.0
 33
0.0
 40
0.0
 40
0.0
 40
0.0
 40
0.0
 40
1.0
 40
1.0
 40
1.0
 40
2.0
 40
2.0
 40
2.0
 40
3.0
 40
3.0
 40
3.0
 40
4.0
 40
4.0
 40
4.0
 40
5.0
 40
5.0
 40
5.0
 40
6.0
 40
6.0
 40
6.0
 40
7.0
 40
7.0
 40
7.0
 40
8.0
 40
8.0
 40
8.0
 40
9.0
 40
9.0
 40
9.0
 40
10.0
 40
10.0
 40
10.0
 40
11.0
 40
11.0
 40
11.0
 40
12.0
 40
12.0
 40
12.0
 40
13.0
 40
13.0
 40
13.0
 40
13.0
 10
112.0234808747719
 20
-122.9089490795158
 30
0.0
 10
112.1822997766419
 20
-123.1266791141836
 30
0.0
 10
112.2563693295748
 20
-123.2196966922854
 30
0.0
 10
112.4000298113097
 20
-123.2686170481759
 30
0.0
 10
112.4000298113097
 20
-123.2686170481759
 30
0.0
 10
112.4000298113097
 20
-122.4900254685094
 30
0.0
 10
112.4000298113097
 20
-122.4900254685094
 30
0.0
 10
112.4000298113097
 20
-122.4900254685094
 30
0.0
 10
112.6053575022306
 20
-122.4900254685094
 30
0.0
 10
112.6053575022306
 20
-122.4900254685094
 30
0.0
 10
112.6053575022306
 20
-122.4900254685094
 30
0.0
 10
112.6053575022306
 20
-123.518041961308
 30
0.0
 10
112.6053575022306
 20
-123.518041961308
 30
0.0
 10
112.2477565908617
 20
-123.4863470828437
 30
0.0
 10
112.1695529233465
 20
-123.4208902686239
 30
0.0
 10
111.8712076543239
 20
-123.035728593373
 30
0.0
 10
111.672425644825
 20
-122.779757998819
 30
0.0
 10
111.6045572637655
 20
-122.7143011845992
 30
0.0
 10
111.4670979539041
 20
-122.7143011845992
 30
0.0
 10
111.3485866692115
 20
-122.7143011845992
 30
0.0
 10
111.217673040772
 20
-122.7863036802409
 30
0.0
 10
111.217673040772
 20
-122.9830186324487
 30
0.0
 10
111.217673040772
 20
-123.2431233415851
 30
0.0
 10
111.4481499287352
 20
-123.2517360802982
 30
0.0
 10
111.5645941561366
 20
-123.2558701948805
 30
0.0
 10
111.5645941561366
 20
-123.2558701948805
 30
0.0
 10
111.5645941561366
 20
-123.4801459109703
 30
0.0
 10
111.5645941561366
 20
-123.4801459109703
 30
0.0
 10
111.4374701327309
 20
-123.4715331722571
 30
0.0
 10
111.3255045294603
 20
-123.4608533762528
 30
0.0
 10
111.2069932447677
 20
-123.3805826514465
 30
0.0
 10
111.0461072856065
 20
-123.2706841054671
 30
0.0
 10
111.0123453498511
 20
-123.084304439715
 30
0.0
 10
111.0123453498511
 20
-122.9682047218621
 30
0.0
 10
111.0123453498511
 20
-122.6908745352995
 30
0.0
 10
111.1963134487634
 20
-122.4834797870875
 30
0.0
 10
111.4691650111952
 20
-122.4834797870875
 30
0.0
 10
111.6979193514158
 20
-122.4834797870875
 30
0.0
 10
111.797138101391
 20
-122.5999240144889
 30
0.0
 10
112.0234808747719
 20
-122.9089490795158
 30
0.0
  0
HATCH
  5
110
330
10B
100
AcDbEntity
  8
_U+30EC_U+30A4_U+30E4_U+30FC 1
 62
   179
420
  2234388
100
AcDbHatch
 10
0.0
 20
0.0
 30
0.0
210
0.0
220
0.0
230
1.0
  2
SOLID
 70
     1
 71
     0
 91
        1
 92
        1
 93
        1
 72
     4
 94
        3
 73
     0
 74
     1
 95
       44
 96
       40
 40
0.0
 40
0.0
 40
0.0
 40
0.0
 40
1.0
 40
1.0
 40
1.0
 40
2.0
 40
2.0
 40
2.0
 40
3.0
 40
3.0
 40
3.0
 40
4.0
 40
4.0
 40
4.0
 40
5.0
 40
5.0
 40
5.0
 40
6.0
 40
6.0
 40
6.0
 40
7.0
 40
7.0
 40
7.0
 40
8.0
 40
8.0
 40
8.0
 40
9.0
 40
9.0
 40
9.0
 40
10.0
 40
10.0
 40
10.0
 40
11.0
 40
11.0
 40
11.0
 40
12.0
 40
12.0
 40
12.0
 40
13.0
 40
13.0
 40
13.0
 40
13.0
 10
112.0234808747719
 20
-122.9089490795158
 10
112.1822997766419
 20
-123.1266791141836
 10
112.2563693295748
 20
-123.2196966922854
 10
112.4000298113097
 20
-123.2686170481759
 10
112.4000298113097
 20
-123.2686170481759
 10
112.4000298113097
 20
-122.4900254685094
 10
112.4000298113097
 20
-122.4900254685094
 10
112.4000298113097
 20
-122.4900254685094
 10
112.6053575022306
 20
-122.4900254685094
 10
112.6053575022306
 20
-122.4900254685094
 10
112.6053575022306
 20
-122.4900254685094
 10
112.6053575022306
 20
-123.518041961308
 10
112.6053575022306
 20
-123.518041961308
 10
112.2477565908617
 20
-123.4863470828437
 10
112.1695529233465
 20
-123.4208902686239
 10
111.8712076543239
 20
-123.035728593373
 10
111.672425644825
 20
-122.779757998819
 10
111.6045572637655
 20
-122.7143011845992
 10
111.4670979539041
 20
-122.7143011845992
 10
111.3485866692115
 20
-122.7143011845992
 10
111.217673040772
 20
-122.7863036802409
 10
111.217673040772
 20
-122.9830186324487
 10
111.217673040772
 20
-123.2431233415851
 10
111.4481499287352
 20
-123.2517360802982
 10
111.5645941561366
 20
-123.2558701948805
 10
111.5645941561366
 20
-123.2558701948805
 10
111.5645941561366
 20
-123.4801459109703
 10
111.5645941561366
 20
-123.4801459109703
 10
111.4374701327309
 20
-123.4715331722571
 10
111.3255045294603
 20
-123.4608533762528
 10
111.2069932447677
 20
-123.3805826514465
 10
111.0461072856065
 20
-123.2706841054671
 10
111.0123453498511
 20
-123.084304439715
 10
111.0123453498511
 20
-122.9682047218621
 10
111.0123453498511
 20
-122.6908745352995
 10
111.1963134487634
 20
-122.4834797870875
 10
111.4691650111952
 20
-122.4834797870875
 10
111.6979193514158
 20
-122.4834797870875
 10
111.797138101391
 20
-122.5999240144889
 10
112.0234808747719
 20
-122.9089490795158
 97
        0
 97
        0
 75
     2
 76
     1
 98
        0
  0
SPLINE
  5
111
330
10B
100
AcDbEntity
  8
_U+30EC_U+30A4_U+30E4_U+30FC 1
370
     0
100
AcDbSpline
210
0.0
220
0.0
230
1.0
 70
    11
 71
     3
 72
    26
 73
    22
 74
     0
 42
0.0000000001
 43
0.0000000001
 12
1.0
 22
0.0
 32
0.0
 13
1.0
 23
0.0
 33
0.0
 40
0.0
 40
0.0
 40
0.0
 40
0.0
 40
1.0
 40
1.0
 40
1.0
 40
2.0
 40
2.0
 40
2.0
 40
3.0
 40
3.0
 40
3.0
 40
4.0
 40
4.0
 40
4.0
 40
5.0
 40
5.0
 40
5.0
 40
6.0
 40
6.0
 40
6.0
 40
7.0
 40
7.0
 40
7.0
 40
7.0
 10
112.6053575022306
 20
-121.8736978861982
 30
0.0
 10
112.6053575022306
 20
-121.8736978861982
 30
0.0
 10
111.501204399208
 20
-121.8736978861982
 30
0.0
 10
111.501204399208
 20
-121.8736978861982
 30
0.0
 10
111.501204399208
 20
-121.8736978861982
 30
0.0
 10
111.501204399208
 20
-122.2037380336852
 30
0.0
 10
111.501204399208
 20
-122.2037380336852
 30
0.0
 10
111.501204399208
 20
-122.2037380336852
 30
0.0
 10
111.3530652933423
 20
-122.2037380336852
 30
0.0
 10
111.3530652933423
 20
-122.2037380336852
 30
0.0
 10
111.3382513827557
 20
-121.8716308289071
 30
0.0
 10
111.1752983663034
 20
-121.8251220398562
 30
0.0
 10
111.0609211961931
 20
-121.7954942186831
 30
0.0
 10
111.0609211961931
 20
-121.7954942186831
 30
0.0
 10
111.0609211961931
 20
-121.6494221701085
 30
0.0
 10
111.0609211961931
 20
-121.6494221701085
 30
0.0
 10
111.0609211961931
 20
-121.6494221701085
 30
0.0
 10
112.6053575022306
 20
-121.6494221701085
 30
0.0
 10
112.6053575022306
 20
-121.6494221701085
 30
0.0
 10
112.6053575022306
 20
-121.6494221701085
 30
0.0
 10
112.6053575022306
 20
-121.8736978861982
 30
0.0
 10
112.6053575022306
 20
-121.8736978861982
 30
0.0
  0
HATCH
  5
112
330
10B
100
AcDbEntity
  8
_U+30EC_U+30A4_U+30E4_U+30FC 1
 62
   179
420
  2234388
100
AcDbHatch
 10
0.0
 20
0.0
 30
0.0
210
0.0
220
0.0
230
1.0
  2
SOLID
 70
     1
 71
     0
 91
        1
 92
        1
 93
        1
 72
     4
 94
        3
 73
     0
 74
     1
 95
       26
 96
       22
 40
0.0
 40
0.0
 40
0.0
 40
0.0
 40
1.0
 40
1.0
 40
1.0
 40
2.0
 40
2.0
 40
2.0
 40
3.0
 40
3.0
 40
3.0
 40
4.0
 40
4.0
 40
4.0
 40
5.0
 40
5.0
 40
5.0
 40
6.0
 40
6.0
 40
6.0
 40
7.0
 40
7.0
 40
7.0
 40
7.0
 10
112.6053575022306
 20
-121.8736978861982
 10
112.6053575022306
 20
-121.8736978861982
 10
111.501204399208
 20
-121.8736978861982
 10
111.501204399208
 20
-121.8736978861982
 10
111.501204399208
 20
-121.8736978861982
 10
111.501204399208
 20
-122.2037380336852
 10
111.501204399208
 20
-122.2037380336852
 10
111.501204399208
 20
-122.2037380336852
 10
111.3530652933423
 20
-122.2037380336852
 10
111.3530652933423
 20
-122.2037380336852
 10
111.3382513827557
 20
-121.8716308289071
 10
111.1752983663034
 20
-121.8251220398562
 10
111.0609211961931
 20
-121.7954942186831
 10
111.0609211961931
 20
-121.7954942186831
 10
111.0609211961931
 20
-121.6494221701085
 10
111.0609211961931
 20
-121.6494221701085
 10
111.0609211961931
 20
-121.6494221701085
 10
112.6053575022306
 20
-121.6494221701085
 10
112.6053575022306
 20
-121.6494221701085
 10
112.6053575022306
 20
-121.6494221701085
 10
112.6053575022306
 20
-121.8736978861982
 10
112.6053575022306
 20
-121.8736978861982
 97
        0
 97
        0
 75
     2
 76
     1
 98
        0
  0
ENDBLK
  5
10E
330
10B
100
AcDbEntity
  8
0
100
AcDbBlockEnd
  0
BLOCK
  5
11D
330
11B
100
AcDbEntity
  8
0
100
AcDbBlockBegin
  2
block 8
 70
     0
 10
0.0
 20
0.0
 30
0.0
  3
block 8
  1

  0
SPLINE
  5
11F
330
11B
100
AcDbEntity
  8
_U+30EC_U+30A4_U+30E4_U+30FC 1
370
     0
100
AcDbSpline
210
0.0
220
0.0
230
1.0
 70
    11
 71
     3
 72
    26
 73
    22
 74
     0
 42
0.0000000001
 43
0.0000000001
 12
1.0
 22
0.0
 32
0.0
 13
1.0
 23
0.0
 33
0.0
 40
0.0
 40
0.0
 40
0.0
 40
0.0
 40
1.0
 40
1.0
 40
1.0
 40
2.0
 40
2.0
 40
2.0
 40
3.0
 40
3.0
 40
3.0
 40
4.0
 40
4.0
 40
4.0
 40
5.0
 40
5.0
 40
5.0
 40
6.0
 40
6.0
 40
6.0
 40
7.0
 40
7.0
 40
7.0
 40
7.0
 10
81.48856606035703
 20
-123.2414007938424
 30
0.0
 10
81.48856606035703
 20
-123.2414007938424
 30
0.0
 10
81.48856606035703
 20
-122.1372476908199
 30
0.0
 10
81.48856606035703
 20
-122.1372476908199
 30
0.0
 10
81.48856606035703
 20
-122.1372476908199
 30
0.0
 10
81.15852591287009
 20
-122.1372476908199
 30
0.0
 10
81.15852591287009
 20
-122.1372476908199
 30
0.0
 10
81.15852591287009
 20
-122.1372476908199
 30
0.0
 10
81.15852591287009
 20
-121.9891085849541
 30
0.0
 10
81.15852591287009
 20
-121.9891085849541
 30
0.0
 10
81.49063311764817
 20
-121.9742946743675
 30
0.0
 10
81.53714190669905
 20
-121.8113416579152
 30
0.0
 10
81.5667697278722
 20
-121.6969644878049
 30
0.0
 10
81.5667697278722
 20
-121.6969644878049
 30
0.0
 10
81.7128417764468
 20
-121.6969644878049
 30
0.0
 10
81.7128417764468
 20
-121.6969644878049
 30
0.0
 10
81.7128417764468
 20
-121.6969644878049
 30
0.0
 10
81.7128417764468
 20
-123.2414007938424
 30
0.0
 10
81.7128417764468
 20
-123.2414007938424
 30
0.0
 10
81.7128417764468
 20
-123.2414007938424
 30
0.0
 10
81.48856606035703
 20
-123.2414007938424
 30
0.0
 10
81.48856606035703
 20
-123.2414007938424
 30
0.0
  0
HATCH
  5
120
330
11B
100
AcDbEntity
  8
_U+30EC_U+30A4_U+30E4_U+30FC 1
 62
   179
420
  2234388
100
AcDbHatch
 10
0.0
 20
0.0
 30
0.0
210
0.0
220
0.0
230
1.0
  2
SOLID
 70
     1
 71
     0
 91
        1
 92
        1
 93
        1
 72
     4
 94
        3
 73
     0
 74
     1
 95
       26
 96
       22
 40
0.0
 40
0.0
 40
0.0
 40
0.0
 40
1.0
 40
1.0
 40
1.0
 40
2.0
 40
2.0
 40
2.0
 40
3.0
 40
3.0
 40
3.0
 40
4.0
 40
4.0
 40
4.0
 40
5.0
 40
5.0
 40
5.0
 40
6.0
 40
6.0
 40
6.0
 40
7.0
 40
7.0
 40
7.0
 40
7.0
 10
81.48856606035703
 20
-123.2414007938424
 10
81.48856606035703
 20
-123.2414007938424
 10
81.48856606035703
 20
-122.1372476908199
 10
81.48856606035703
 20
-122.1372476908199
 10
81.48856606035703
 20
-122.1372476908199
 10
81.15852591287009
 20
-122.1372476908199
 10
81.15852591287009
 20
-122.1372476908199
 10
81.15852591287009
 20
-122.1372476908199
 10
81.15852591287009
 20
-121.9891085849541
 10
81.15852591287009
 20
-121.9891085849541
 10
81.49063311764817
 20
-121.9742946743675
 10
81.53714190669905
 20
-121.8113416579152
 10
81.5667697278722
 20
-121.6969644878049
 10
81.5667697278722
 20
-121.6969644878049
 10
81.7128417764468
 20
-121.6969644878049
 10
81.7128417764468
 20
-121.6969644878049
 10
81.7128417764468
 20
-121.6969644878049
 10
81.7128417764468
 20
-123.2414007938424
 10
81.7128417764468
 20
-123.2414007938424
 10
81.7128417764468
 20
-123.2414007938424
 10
81.48856606035703
 20
-123.2414007938424
 10
81.48856606035703
 20
-123.2414007938424
 97
        0
 97
        0
 75
     2
 76
     1
 98
        0
  0
SPLINE
  5
121
330
11B
100
AcDbEntity
  8
_U+30EC_U+30A4_U+30E4_U+30FC 1
370
     0
100
AcDbSpline
210
0.0
220
0.0
230
1.0
 70
    11
 71
     3
 72
    29
 73
    25
 74
     0
 42
0.0000000001
 43
0.0000000001
 12
1.0
 22
0.0
 32
0.0
 13
1.0
 23
0.0
 33
0.0
 40
0.0
 40
0.0
 40
0.0
 40
0.0
 40
1.0
 40
1.0
 40
1.0
 40
2.0
 40
2.0
 40
2.0
 40
3.0
 40
3.0
 40
3.0
 40
4.0
 40
4.0
 40
4.0
 40
5.0
 40
5.0
 40
5.0
 40
6.0
 40
6.0
 40
6.0
 40
7.0
 40
7.0
 40
7.0
 40
8.0
 40
8.0
 40
8.0
 40
8.0
 10
83.11189505300675
 20
-123.0636338668035
 30
0.0
 10
83.0037190547699
 20
-123.2730956723067
 30
0.0
 10
82.83043075186184
 20
-123.2920436974756
 30
0.0
 10
82.7139865244604
 20
-123.2920436974756
 30
0.0
 10
82.55310056529923
 20
-123.2920436974756
 30
0.0
 10
82.41150714085546
 20
-123.2455349084247
 30
0.0
 10
82.31642250546257
 20
-123.0636338668035
 30
0.0
 10
82.21272513135655
 20
-122.8689859718869
 30
0.0
 10
82.19343259663914
 20
-122.6323079120503
 30
0.0
 10
82.19343259663914
 20
-122.4693548955979
 30
0.0
 10
82.19343259663914
 20
-122.3253499043145
 30
0.0
 10
82.21065807406539
 20
-122.0735134243427
 30
0.0
 10
82.31642250546257
 20
-121.8747314148438
 30
0.0
 10
82.42425399415089
 20
-121.6718152907626
 30
0.0
 10
82.58513995331205
 20
-121.6483886414629
 30
0.0
 10
82.7139865244604
 20
-121.6483886414629
 30
0.0
 10
82.87280542633042
 20
-121.6483886414629
 30
0.0
 10
83.01646590806533
 20
-121.6928303732226
 30
0.0
 10
83.11189505300675
 20
-121.8747314148438
 30
0.0
 10
83.21111380298194
 20
-122.0673122524693
 30
0.0
 10
83.23454045228165
 20
-122.2957220831414
 30
0.0
 10
83.23454045228165
 20
-122.4693548955979
 30
0.0
 10
83.23454045228165
 20
-122.6405761412149
 30
0.0
 10
83.2131808602731
 20
-122.8710530291781
 30
0.0
 10
83.11189505300675
 20
-123.0636338668035
 30
0.0
  0
SPLINE
  5
122
330
11B
100
AcDbEntity
  8
_U+30EC_U+30A4_U+30E4_U+30FC 1
370
     0
100
AcDbSpline
210
0.0
220
0.0
230
1.0
 70
    11
 71
     3
 72
    17
 73
    13
 74
     0
 42
0.0000000001
 43
0.0000000001
 12
1.0
 22
0.0
 32
0.0
 13
1.0
 23
0.0
 33
0.0
 40
0.0
 40
0.0
 40
0.0
 40
0.0
 40
1.0
 40
1.0
 40
1.0
 40
2.0
 40
2.0
 40
2.0
 40
3.0
 40
3.0
 40
3.0
 40
4.0
 40
4.0
 40
4.0
 40
4.0
 10
82.7139865244604
 20
-121.8409694790884
 30
0.0
 10
82.46421710177978
 20
-121.8409694790884
 30
0.0
 10
82.4177083127289
 20
-122.1245008375244
 30
0.0
 10
82.4177083127289
 20
-122.4693548955979
 30
0.0
 10
82.4177083127289
 20
-122.7887152470806
 30
0.0
 10
82.45388181532404
 20
-123.097395802559
 30
0.0
 10
82.7139865244604
 20
-123.097395802559
 30
0.0
 10
82.96168888984985
 20
-123.097395802559
 30
0.0
 10
83.01026473619189
 20
-122.8162760109626
 30
0.0
 10
83.01026473619189
 20
-122.4693548955979
 30
0.0
 10
83.01026473619189
 20
-122.1496500345668
 30
0.0
 10
82.97202417630561
 20
-121.8409694790884
 30
0.0
 10
82.7139865244604
 20
-121.8409694790884
 30
0.0
  0
HATCH
  5
123
330
11B
100
AcDbEntity
  8
_U+30EC_U+30A4_U+30E4_U+30FC 1
 62
   179
420
  2234388
100
AcDbHatch
 10
0.0
 20
0.0
 30
0.0
210
0.0
220
0.0
230
1.0
  2
SOLID
 70
     1
 71
     0
 91
        2
 92
        1
 93
        1
 72
     4
 94
        3
 73
     0
 74
     1
 95
       29
 96
       25
 40
0.0
 40
0.0
 40
0.0
 40
0.0
 40
1.0
 40
1.0
 40
1.0
 40
2.0
 40
2.0
 40
2.0
 40
3.0
 40
3.0
 40
3.0
 40
4.0
 40
4.0
 40
4.0
 40
5.0
 40
5.0
 40
5.0
 40
6.0
 40
6.0
 40
6.0
 40
7.0
 40
7.0
 40
7.0
 40
8.0
 40
8.0
 40
8.0
 40
8.0
 10
83.11189505300675
 20
-123.0636338668035
 10
83.0037190547699
 20
-123.2730956723067
 10
82.83043075186184
 20
-123.2920436974756
 10
82.7139865244604
 20
-123.2920436974756
 10
82.55310056529923
 20
-123.2920436974756
 10
82.41150714085546
 20
-123.2455349084247
 10
82.31642250546257
 20
-123.0636338668035
 10
82.21272513135655
 20
-122.8689859718869
 10
82.19343259663914
 20
-122.6323079120503
 10
82.19343259663914
 20
-122.4693548955979
 10
82.19343259663914
 20
-122.3253499043145
 10
82.21065807406539
 20
-122.0735134243427
 10
82.31642250546257
 20
-121.8747314148438
 10
82.42425399415089
 20
-121.6718152907626
 10
82.58513995331205
 20
-121.6483886414629
 10
82.7139865244604
 20
-121.6483886414629
 10
82.87280542633042
 20
-121.6483886414629
 10
83.01646590806533
 20
-121.6928303732226
 10
83.11189505300675
 20
-121.8747314148438
 10
83.21111380298194
 20
-122.0673122524693
 10
83.23454045228165
 20
-122.2957220831414
 10
83.23454045228165
 20
-122.4693548955979
 10
83.23454045228165
 20
-122.6405761412149
 10
83.2131808602731
 20
-122.8710530291781
 10
83.11189505300675
 20
-123.0636338668035
 97
        0
 97
        0
 92
        1
 93
        1
 72
     4
 94
        3
 73
     0
 74
     1
 95
       17
 96
       13
 40
0.0
 40
0.0
 40
0.0
 40
0.0
 40
1.0
 40
1.0
 40
1.0
 40
2.0
 40
2.0
 40
2.0
 40
3.0
 40
3.0
 40
3.0
 40
4.0
 40
4.0
 40
4.0
 40
4.0
 10
82.7139865244604
 20
-121.8409694790884
 10
82.46421710177978
 20
-121.8409694790884
 10
82.4177083127289
 20
-122.1245008375244
 10
82.4177083127289
 20
-122.4693548955979
 10
82.4177083127289
 20
-122.7887152470806
 10
82.45388181532404
 20
-123.097395802559
 10
82.7139865244604
 20
-123.097395802559
 10
82.96168888984985
 20
-123.097395802559
 10
83.01026473619189
 20
-122.8162760109626
 10
83.01026473619189
 20
-122.4693548955979
 10
83.01026473619189
 20
-122.1496500345668
 10
82.97202417630561
 20
-121.8409694790884
 10
82.7139865244604
 20
-121.8409694790884
 97
        0
 97
        0
 75
     2
 76
     1
 98
        0
  0
ENDBLK
  5
11E
330
11B
100
AcDbEntity
  8
0
100
AcDbBlockEnd
  0
BLOCK
  5
132
330
130
100
AcDbEntity
  8
0
100
AcDbBlockBegin
  2
block 9
 70
     0
 10
0.0
 20
0.0
 30
0.0
  3
block 9
  1

  0
SPLINE
  5
134
330
130
100
AcDbEntity
  8
_U+30EC_U+30A4_U+30E4_U+30FC 1
370
     0
100
AcDbSpline
210
0.0
220
0.0
230
1.0
 70
    11
 71
     3
 72
    26
 73
    22
 74
     0
 42
0.0000000001
 43
0.0000000001
 12
1.0
 22
0.0
 32
0.0
 13
1.0
 23
0.0
 33
0.0
 40
0.0
 40
0.0
 40
0.0
 40
0.0
 40
1.0
 40
1.0
 40
1.0
 40
2.0
 40
2.0
 40
2.0
 40
3.0
 40
3.0
 40
3.0
 40
4.0
 40
4.0
 40
4.0
 40
5.0
 40
5.0
 40
5.0
 40
6.0
 40
6.0
 40
6.0
 40
7.0
 40
7.0
 40
7.0
 40
7.0
 10
97.6050672499043
 20
-139.5511718401122
 30
0.0
 10
97.6050672499043
 20
-139.5511718401122
 30
0.0
 10
96.50091414688173
 20
-139.5511718401122
 30
0.0
 10
96.50091414688173
 20
-139.5511718401122
 30
0.0
 10
96.50091414688173
 20
-139.5511718401122
 30
0.0
 10
96.50091414688173
 20
-139.8812119875992
 30
0.0
 10
96.50091414688173
 20
-139.8812119875992
 30
0.0
 10
96.50091414688173
 20
-139.8812119875992
 30
0.0
 10
96.35277504101597
 20
-139.8812119875992
 30
0.0
 10
96.35277504101597
 20
-139.8812119875992
 30
0.0
 10
96.3379611304294
 20
-139.5491047828211
 30
0.0
 10
96.17500811397709
 20
-139.5025959937702
 30
0.0
 10
96.0606309438668
 20
-139.472968172597
 30
0.0
 10
96.0606309438668
 20
-139.472968172597
 30
0.0
 10
96.0606309438668
 20
-139.3268961240225
 30
0.0
 10
96.0606309438668
 20
-139.3268961240225
 30
0.0
 10
96.0606309438668
 20
-139.3268961240225
 30
0.0
 10
97.6050672499043
 20
-139.3268961240225
 30
0.0
 10
97.6050672499043
 20
-139.3268961240225
 30
0.0
 10
97.6050672499043
 20
-139.3268961240225
 30
0.0
 10
97.6050672499043
 20
-139.5511718401122
 30
0.0
 10
97.6050672499043
 20
-139.5511718401122
 30
0.0
  0
HATCH
  5
135
330
130
100
AcDbEntity
  8
_U+30EC_U+30A4_U+30E4_U+30FC 1
 62
   179
420
  2234388
100
AcDbHatch
 10
0.0
 20
0.0
 30
0.0
210
0.0
220
0.0
230
1.0
  2
SOLID
 70
     1
 71
     0
 91
        1
 92
        1
 93
        1
 72
     4
 94
        3
 73
     0
 74
     1
 95
       26
 96
       22
 40
0.0
 40
0.0
 40
0.0
 40
0.0
 40
1.0
 40
1.0
 40
1.0
 40
2.0
 40
2.0
 40
2.0
 40
3.0
 40
3.0
 40
3.0
 40
4.0
 40
4.0
 40
4.0
 40
5.0
 40
5.0
 40
5.0
 40
6.0
 40
6.0
 40
6.0
 40
7.0
 40
7.0
 40
7.0
 40
7.0
 10
97.6050672499043
 20
-139.5511718401122
 10
97.6050672499043
 20
-139.5511718401122
 10
96.50091414688173
 20
-139.5511718401122
 10
96.50091414688173
 20
-139.5511718401122
 10
96.50091414688173
 20
-139.5511718401122
 10
96.50091414688173
 20
-139.8812119875992
 10
96.50091414688173
 20
-139.8812119875992
 10
96.50091414688173
 20
-139.8812119875992
 10
96.35277504101597
 20
-139.8812119875992
 10
96.35277504101597
 20
-139.8812119875992
 10
96.3379611304294
 20
-139.5491047828211
 10
96.17500811397709
 20
-139.5025959937702
 10
96.0606309438668
 20
-139.472968172597
 10
96.0606309438668
 20
-139.472968172597
 10
96.0606309438668
 20
-139.3268961240225
 10
96.0606309438668
 20
-139.3268961240225
 10
96.0606309438668
 20
-139.3268961240225
 10
97.6050672499043
 20
-139.3268961240225
 10
97.6050672499043
 20
-139.3268961240225
 10
97.6050672499043
 20
-139.3268961240225
 10
97.6050672499043
 20
-139.5511718401122
 10
97.6050672499043
 20
-139.5511718401122
 97
        0
 97
        0
 75
     2
 76
     1
 98
        0
  0
SPLINE
  5
136
330
130
100
AcDbEntity
  8
_U+30EC_U+30A4_U+30E4_U+30FC 1
370
     0
100
AcDbSpline
210
0.0
220
0.0
230
1.0
 70
    11
 71
     3
 72
    29
 73
    25
 74
     0
 42
0.0000000001
 43
0.0000000001
 12
1.0
 22
0.0
 32
0.0
 13
1.0
 23
0.0
 33
0.0
 40
0.0
 40
0.0
 40
0.0
 40
0.0
 40
1.0
 40
1.0
 40
1.0
 40
2.0
 40
2.0
 40
2.0
 40
3.0
 40
3.0
 40
3.0
 40
4.0
 40
4.0
 40
4.0
 40
5.0
 40
5.0
 40
5.0
 40
6.0
 40
6.0
 40
6.0
 40
7.0
 40
7.0
 40
7.0
 40
8.0
 40
8.0
 40
8.0
 40
8.0
 10
97.4273003228654
 20
-137.9278428474625
 30
0.0
 10
97.63676212836859
 20
-138.0360188456993
 30
0.0
 10
97.65571015353747
 20
-138.2093071486074
 30
0.0
 10
97.65571015353747
 20
-138.3257513760088
 30
0.0
 10
97.65571015353747
 20
-138.48663733517
 30
0.0
 10
97.6092013644866
 20
-138.6282307596138
 30
0.0
 10
97.4273003228654
 20
-138.7233153950067
 30
0.0
 10
97.23265242794879
 20
-138.8270127691127
 30
0.0
 10
96.9956298585636
 20
-138.8463053038301
 30
0.0
 10
96.83302135165981
 20
-138.8463053038301
 30
0.0
 10
96.68901636037636
 20
-138.8463053038301
 30
0.0
 10
96.4371798804046
 20
-138.8290798264038
 30
0.0
 10
96.23839787090569
 20
-138.7233153950067
 30
0.0
 10
96.03548174682447
 20
-138.6154839063184
 30
0.0
 10
96.01205509752477
 20
-138.4545979471572
 30
0.0
 10
96.01205509752477
 20
-138.3257513760088
 30
0.0
 10
96.01205509752477
 20
-138.1669324741388
 30
0.0
 10
96.0564968292845
 20
-138.0232719924039
 30
0.0
 10
96.23839787090569
 20
-137.9278428474625
 30
0.0
 10
96.43097870853114
 20
-137.8286240974873
 30
0.0
 10
96.6593885392032
 20
-137.8051974481876
 30
0.0
 10
96.83302135165981
 20
-137.8051974481876
 30
0.0
 10
97.00424259727671
 20
-137.8051974481876
 30
0.0
 10
97.23471948523994
 20
-137.8265570401961
 30
0.0
 10
97.4273003228654
 20
-137.9278428474625
 30
0.0
  0
SPLINE
  5
137
330
130
100
AcDbEntity
  8
_U+30EC_U+30A4_U+30E4_U+30FC 1
370
     0
100
AcDbSpline
210
0.0
220
0.0
230
1.0
 70
    11
 71
     3
 72
    17
 73
    13
 74
     0
 42
0.0000000001
 43
0.0000000001
 12
1.0
 22
0.0
 32
0.0
 13
1.0
 23
0.0
 33
0.0
 40
0.0
 40
0.0
 40
0.0
 40
0.0
 40
1.0
 40
1.0
 40
1.0
 40
2.0
 40
2.0
 40
2.0
 40
3.0
 40
3.0
 40
3.0
 40
4.0
 40
4.0
 40
4.0
 40
4.0
 10
96.20463593515024
 20
-138.3257513760088
 30
0.0
 10
96.20463593515024
 20
-138.5755207986895
 30
0.0
 10
96.4881672935863
 20
-138.6220295877403
 30
0.0
 10
96.83302135165981
 20
-138.6220295877403
 30
0.0
 10
97.15238170314247
 20
-138.6220295877403
 30
0.0
 10
97.46106225862086
 20
-138.5858560851452
 30
0.0
 10
97.46106225862086
 20
-138.3257513760088
 30
0.0
 10
97.46106225862086
 20
-138.0780490106194
 30
0.0
 10
97.17994246702446
 20
-138.0294731642774
 30
0.0
 10
96.83302135165981
 20
-138.0294731642774
 30
0.0
 10
96.51331649062863
 20
-138.0294731642774
 30
0.0
 10
96.20463593515024
 20
-138.0677137241636
 30
0.0
 10
96.20463593515024
 20
-138.3257513760088
 30
0.0
  0
HATCH
  5
138
330
130
100
AcDbEntity
  8
_U+30EC_U+30A4_U+30E4_U+30FC 1
 62
   179
420
  2234388
100
AcDbHatch
 10
0.0
 20
0.0
 30
0.0
210
0.0
220
0.0
230
1.0
  2
SOLID
 70
     1
 71
     0
 91
        2
 92
        1
 93
        1
 72
     4
 94
        3
 73
     0
 74
     1
 95
       29
 96
       25
 40
0.0
 40
0.0
 40
0.0
 40
0.0
 40
1.0
 40
1.0
 40
1.0
 40
2.0
 40
2.0
 40
2.0
 40
3.0
 40
3.0
 40
3.0
 40
4.0
 40
4.0
 40
4.0
 40
5.0
 40
5.0
 40
5.0
 40
6.0
 40
6.0
 40
6.0
 40
7.0
 40
7.0
 40
7.0
 40
8.0
 40
8.0
 40
8.0
 40
8.0
 10
97.4273003228654
 20
-137.9278428474625
 10
97.63676212836859
 20
-138.0360188456993
 10
97.65571015353747
 20
-138.2093071486074
 10
97.65571015353747
 20
-138.3257513760088
 10
97.65571015353747
 20
-138.48663733517
 10
97.6092013644866
 20
-138.6282307596138
 10
97.4273003228654
 20
-138.7233153950067
 10
97.23265242794879
 20
-138.8270127691127
 10
96.9956298585636
 20
-138.8463053038301
 10
96.83302135165981
 20
-138.8463053038301
 10
96.68901636037636
 20
-138.8463053038301
 10
96.4371798804046
 20
-138.8290798264038
 10
96.23839787090569
 20
-138.7233153950067
 10
96.03548174682447
 20
-138.6154839063184
 10
96.01205509752477
 20
-138.4545979471572
 10
96.01205509752477
 20
-138.3257513760088
 10
96.01205509752477
 20
-138.1669324741388
 10
96.0564968292845
 20
-138.0232719924039
 10
96.23839787090569
 20
-137.9278428474625
 10
96.43097870853114
 20
-137.8286240974873
 10
96.6593885392032
 20
-137.8051974481876
 10
96.83302135165981
 20
-137.8051974481876
 10
97.00424259727671
 20
-137.8051974481876
 10
97.23471948523994
 20
-137.8265570401961
 10
97.4273003228654
 20
-137.9278428474625
 97
        0
 97
        0
 92
        1
 93
        1
 72
     4
 94
        3
 73
     0
 74
     1
 95
       17
 96
       13
 40
0.0
 40
0.0
 40
0.0
 40
0.0
 40
1.0
 40
1.0
 40
1.0
 40
2.0
 40
2.0
 40
2.0
 40
3.0
 40
3.0
 40
3.0
 40
4.0
 40
4.0
 40
4.0
 40
4.0
 10
96.20463593515024
 20
-138.3257513760088
 10
96.20463593515024
 20
-138.5755207986895
 10
96.4881672935863
 20
-138.6220295877403
 10
96.83302135165981
 20
-138.6220295877403
 10
97.15238170314247
 20
-138.6220295877403
 10
97.46106225862086
 20
-138.5858560851452
 10
97.46106225862086
 20
-138.3257513760088
 10
97.46106225862086
 20
-138.0780490106194
 10
97.17994246702446
 20
-138.0294731642774
 10
96.83302135165981
 20
-138.0294731642774
 10
96.51331649062863
 20
-138.0294731642774
 10
96.20463593515024
 20
-138.0677137241636
 10
96.20463593515024
 20
-138.3257513760088
 97
        0
 97
        0
 75
     2
 76
     1
 98
        0
  0
ENDBLK
  5
133
330
130
100
AcDbEntity
  8
0
100
AcDbBlockEnd
  0
ENDSEC
  0
SECTION
  2
ENTITIES
  0
POLYLINE
  5
41
330
1F
100
AcDbEntity
  8
_U+30EC_U+30A4_U+30E4_U+30FC 1
 62
   179
420
  2234388
370
    25
100
AcDb2dPolyline
 66
     1
 10
0.0
 20
0.0
 30
0.0
  0
VERTEX
  5
42
330
41
100
AcDbEntity
  8
_U+30EC_U+30A4_U+30E4_U+30FC 1
 62
   179
420
  2234388
370
    25
100
AcDbVertex
100
AcDb2dVertex
 10
76.20119750038994
 20
-127.837494412485
 30
0.0
  0
VERTEX
  5
43
330
41
100
AcDbEntity
  8
_U+30EC_U+30A4_U+30E4_U+30FC 1
 62
   179
420
  2234388
370
    25
100
AcDbVertex
100
AcDb2dVertex
 10
76.20119750038994
 20
-142.3378957977492
 30
0.0
  0
SEQEND
  5
44
330
41
100
AcDbEntity
  8
_U+30EC_U+30A4_U+30E4_U+30FC 1
 62
   179
420
  2234388
370
    25
  0
POLYLINE
  5
45
330
1F
100
AcDbEntity
  8
_U+30EC_U+30A4_U+30E4_U+30FC 1
 62
   179
420
  2234388
370
    25
100
AcDb2dPolyline
 66
     1
 10
0.0
 20
0.0
 30
0.0
  0
VERTEX
  5
46
330
45
100
AcDbEntity
  8
_U+30EC_U+30A4_U+30E4_U+30FC 1
 62
   179
420
  2234388
370
    25
100
AcDbVertex
100
AcDb2dVertex
 10
78.70098076994849
 20
-144.8376791304573
 30
0.0
  0
VERTEX
  5
47
330
45
100
AcDbEntity
  8
_U+30EC_U+30A4_U+30E4_U+30FC 1
 62
   179
420
  2234388
370
    25
100
AcDbVertex
100
AcDb2dVertex
 10
93.20155817778571
 20
-144.8376791304573
 30
0.0
  0
SEQEND
  5
48
330
45
100
AcDbEntity
  8
_U+30EC_U+30A4_U+30E4_U+30FC 1
 62
   179
420
  2234388
370
    25
  0
POLYLINE
  5
49
330
1F
100
AcDbEntity
  8
_U+30EC_U+30A4_U+30E4_U+30FC 1
 62
   179
420
  2234388
370
    25
100
AcDb2dPolyline
 66
     1
 10
0.0
 20
0.0
 30
0.0
  0
VERTEX
  5
4A
330
49
100
AcDbEntity
  8
_U+30EC_U+30A4_U+30E4_U+30FC 1
 62
   179
420
  2234388
370
    25
100
AcDbVertex
100
AcDb2dVertex
 10
78.57556827314802
 20
-143.8379069084848
 30
0.0
  0
VERTEX
  5
4B
330
49
100
AcDbEntity
  8
_U+30EC_U+30A4_U+30E4_U+30FC 1
 62
   179
420
  2234388
370
    25
100
AcDbVertex
100
AcDb2dVertex
 10
94.20129509672475
 20
-143.8379069084848
 30
0.0
  0
SEQEND
  5
4C
330
49
100
AcDbEntity
  8
_U+30EC_U+30A4_U+30E4_U+30FC 1
 62
   179
420
  2234388
370
    25
  0
POLYLINE
  5
4D
330
1F
100
AcDbEntity
  8
_U+30EC_U+30A4_U+30E4_U+30FC 1
 62
   179
420
  2234388
370
    25
100
AcDb2dPolyline
 66
     1
 10
0.0
 20
0.0
 30
0.0
  0
VERTEX
  5
4E
330
4D
100
AcDbEntity
  8
_U+30EC_U+30A4_U+30E4_U+30FC 1
 62
   179
420
  2234388
370
    25
100
AcDbVertex
100
AcDb2dVertex
 10
77.20096969710585
 20
-126.8377221905128
 30
0.0
  0
VERTEX
  5
4F
330
4D
100
AcDbEntity
  8
_U+30EC_U+30A4_U+30E4_U+30FC 1
 62
   179
420
  2234388
370
    25
100
AcDbVertex
100
AcDb2dVertex
 10
77.20096969710585
 20
-142.3523949644117
 30
0.0
  0
SEQEND
  5
50
330
4D
100
AcDbEntity
  8
_U+30EC_U+30A4_U+30E4_U+30FC 1
 62
   179
420
  2234388
370
    25
  0
POLYLINE
  5
51
330
1F
100
AcDbEntity
  8
_U+30EC_U+30A4_U+30E4_U+30FC 1
 62
   179
420
  2234388
370
    25
100
AcDb2dPolyline
 66
     1
 10
0.0
 20
0.0
 30
0.0
  0
VERTEX
  5
52
330
51
100
AcDbEntity
  8
_U+30EC_U+30A4_U+30E4_U+30FC 1
 62
   179
420
  2234388
370
    25
100
AcDbVertex
100
AcDb2dVertex
 10
88.20114720017202
 20
-132.8377313556793
 30
0.0
  0
VERTEX
  5
53
330
51
100
AcDbEntity
  8
_U+30EC_U+30A4_U+30E4_U+30FC 1
 62
   179
420
  2234388
370
    25
100
AcDbVertex
100
AcDb2dVertex
 10
109.2012647140436
 20
-132.8377313556793
 30
0.0
  0
SEQEND
  5
54
330
51
100
AcDbEntity
  8
_U+30EC_U+30A4_U+30E4_U+30FC 1
 62
   179
420
  2234388
370
    25
  0
POLYLINE
  5
55
330
1F
100
AcDbEntity
  8
_U+30EC_U+30A4_U+30E4_U+30FC 1
 62
   179
420
  2234388
370
    25
100
AcDb2dPolyline
 66
     1
 10
0.0
 20
0.0
 30
0.0
  0
VERTEX
  5
56
330
55
100
AcDbEntity
  8
_U+30EC_U+30A4_U+30E4_U+30FC 1
 62
   179
420
  2234388
370
    25
100
AcDbVertex
100
AcDb2dVertex
 10
88.20114720017202
 20
-111.8377874720404
 30
0.0
  0
VERTEX
  5
57
330
55
100
AcDbEntity
  8
_U+30EC_U+30A4_U+30E4_U+30FC 1
 62
   179
420
  2234388
370
    25
100
AcDbVertex
100
AcDb2dVertex
 10
88.20114720017202
 20
-132.8377313556793
 30
0.0
  0
SEQEND
  5
58
330
55
100
AcDbEntity
  8
_U+30EC_U+30A4_U+30E4_U+30FC 1
 62
   179
420
  2234388
370
    25
  0
POLYLINE
  5
59
330
1F
100
AcDbEntity
  8
_U+30EC_U+30A4_U+30E4_U+30FC 1
 62
   179
420
  2234388
370
    25
100
AcDb2dPolyline
 66
     1
 10
0.0
 20
0.0
 30
0.0
  0
VERTEX
  5
5A
330
59
100
AcDbEntity
  8
_U+30EC_U+30A4_U+30E4_U+30FC 1
 62
   179
420
  2234388
370
    25
100
AcDbVertex
100
AcDb2dVertex
 10
87.10150138896668
 20
-125.3377463575544
 30
0.0
  0
VERTEX
  5
5B
330
59
100
AcDbEntity
  8
_U+30EC_U+30A4_U+30E4_U+30FC 1
 62
   179
420
  2234388
370
    25
100
AcDbVertex
100
AcDb2dVertex
 10
87.20140805308452
 20
-125.2378396909127
 30
0.0
  0
SEQEND
  5
5C
330
59
100
AcDbEntity
  8
_U+30EC_U+30A4_U+30E4_U+30FC 1
 62
   179
420
  2234388
370
    25
  0
POLYLINE
  5
5D
330
1F
100
AcDbEntity
  8
_U+30EC_U+30A4_U+30E4_U+30FC 1
 62
   179
420
  2234388
370
    25
100
AcDb2dPolyline
 66
     1
 10
0.0
 20
0.0
 30
0.0
  0
VERTEX
  5
5E
330
5D
100
AcDbEntity
  8
_U+30EC_U+30A4_U+30E4_U+30FC 1
 62
   179
420
  2234388
370
    25
100
AcDbVertex
100
AcDb2dVertex
 10
95.70130616956739
 20
-133.937374966516
 30
0.0
  0
VERTEX
  5
5F
330
5D
100
AcDbEntity
  8
_U+30EC_U+30A4_U+30E4_U+30FC 1
 62
   179
420
  2234388
370
    25
100
AcDbVertex
100
AcDb2dVertex
 10
95.80121283368521
 20
-133.8374682998737
 30
0.0
  0
SEQEND
  5
60
330
5D
100
AcDbEntity
  8
_U+30EC_U+30A4_U+30E4_U+30FC 1
 62
   179
420
  2234388
370
    25
  0
POLYLINE
  5
61
330
1F
100
AcDbEntity
  8
_U+30EC_U+30A4_U+30E4_U+30FC 1
 62
   179
420
  2234388
370
    25
100
AcDb2dPolyline
 66
     1
 10
0.0
 20
0.0
 30
0.0
  0
VERTEX
  5
62
330
61
100
AcDbEntity
  8
_U+30EC_U+30A4_U+30E4_U+30FC 1
 62
   179
420
  2234388
370
    25
100
AcDbVertex
100
AcDb2dVertex
 10
78.37300327831589
 20
-143.316324964171
 30
0.0
  0
VERTEX
  5
63
330
61
100
AcDbEntity
  8
_U+30EC_U+30A4_U+30E4_U+30FC 1
 62
   179
420
  2234388
370
    25
100
AcDbVertex
100
AcDb2dVertex
 10
88.60835635052361
 20
-133.937374966516
 30
0.0
  0
SEQEND
  5
64
330
61
100
AcDbEntity
  8
_U+30EC_U+30A4_U+30E4_U+30FC 1
 62
   179
420
  2234388
370
    25
  0
POLYLINE
  5
65
330
1F
100
AcDbEntity
  8
_U+30EC_U+30A4_U+30E4_U+30FC 1
 62
   179
420
  2234388
370
    25
100
AcDb2dPolyline
 66
     1
 10
0.0
 20
0.0
 30
0.0
  0
VERTEX
  5
66
330
65
100
AcDbEntity
  8
_U+30EC_U+30A4_U+30E4_U+30FC 1
 62
   179
420
  2234388
370
    25
100
AcDbVertex
100
AcDb2dVertex
 10
77.70396023982904
 20
-142.5735513532457
 30
0.0
  0
VERTEX
  5
67
330
65
100
AcDbEntity
  8
_U+30EC_U+30A4_U+30E4_U+30FC 1
 62
   179
420
  2234388
370
    25
100
AcDbVertex
100
AcDb2dVertex
 10
87.10150138896668
 20
-133.9622105220649
 30
0.0
  0
SEQEND
  5
68
330
65
100
AcDbEntity
  8
_U+30EC_U+30A4_U+30E4_U+30FC 1
 62
   179
420
  2234388
370
    25
  0
POLYLINE
  5
69
330
1F
100
AcDbEntity
  8
_U+30EC_U+30A4_U+30E4_U+30FC 1
 62
   179
420
  2234388
370
     9
100
AcDb2dPolyline
 66
     1
 10
0.0
 20
0.0
 30
0.0
  0
VERTEX
  5
6A
330
69
100
AcDbEntity
  8
_U+30EC_U+30A4_U+30E4_U+30FC 1
 62
   179
420
  2234388
370
     9
100
AcDbVertex
100
AcDb2dVertex
 10
76.5677688799268
 20
-143.6408452418673
 30
0.0
  0
VERTEX
  5
6B
330
69
100
AcDbEntity
  8
_U+30EC_U+30A4_U+30E4_U+30FC 1
 62
   179
420
  2234388
370
     9
100
AcDbVertex
100
AcDb2dVertex
 10
75.6086366821741
 20
-143.9233496862414
 30
0.0
  0
SEQEND
  5
6C
330
69
100
AcDbEntity
  8
_U+30EC_U+30A4_U+30E4_U+30FC 1
 62
   179
420
  2234388
370
     9
  0
POLYLINE
  5
6D
330
1F
100
AcDbEntity
  8
_U+30EC_U+30A4_U+30E4_U+30FC 1
 62
   179
420
  2234388
370
     9
100
AcDb2dPolyline
 66
     1
 10
0.0
 20
0.0
 30
0.0
  0
VERTEX
  5
6E
330
6D
100
AcDbEntity
  8
_U+30EC_U+30A4_U+30E4_U+30FC 1
 62
   179
420
  2234388
370
     9
100
AcDbVertex
100
AcDb2dVertex
 10
76.5677688799268
 20
-143.6408452418673
 30
0.0
  0
VERTEX
  5
6F
330
6D
100
AcDbEntity
  8
_U+30EC_U+30A4_U+30E4_U+30FC 1
 62
   179
420
  2234388
370
     9
100
AcDbVertex
100
AcDb2dVertex
 10
75.87805306418959
 20
-144.3649921861308
 30
0.0
  0
SEQEND
  5
70
330
6D
100
AcDbEntity
  8
_U+30EC_U+30A4_U+30E4_U+30FC 1
 62
   179
420
  2234388
370
     9
  0
POLYLINE
  5
71
330
1F
100
AcDbEntity
  8
_U+30EC_U+30A4_U+30E4_U+30FC 1
 62
   179
420
  2234388
370
    25
100
AcDb2dPolyline
 66
     1
 10
0.0
 20
0.0
 30
0.0
  0
VERTEX
  5
72
330
71
100
AcDbEntity
  8
_U+30EC_U+30A4_U+30E4_U+30FC 1
 62
   179
420
  2234388
370
    25
100
AcDbVertex
100
AcDb2dVertex
 10
87.20140805308452
 20
-112.837559694013
 30
0.0
  0
VERTEX
  5
73
330
71
100
AcDbEntity
  8
_U+30EC_U+30A4_U+30E4_U+30FC 1
 62
   179
420
  2234388
370
    25
100
AcDbVertex
100
AcDb2dVertex
 10
87.20140805308452
 20
-125.2378396909127
 30
0.0
  0
SEQEND
  5
74
330
71
100
AcDbEntity
  8
_U+30EC_U+30A4_U+30E4_U+30FC 1
 62
   179
420
  2234388
370
    25
  0
POLYLINE
  5
75
330
1F
100
AcDbEntity
  8
_U+30EC_U+30A4_U+30E4_U+30FC 1
 62
   179
420
  2234388
370
    25
100
AcDb2dPolyline
 66
     1
 10
0.0
 20
0.0
 30
0.0
  0
VERTEX
  5
76
330
75
100
AcDbEntity
  8
_U+30EC_U+30A4_U+30E4_U+30FC 1
 62
   179
420
  2234388
370
    25
100
AcDbVertex
100
AcDb2dVertex
 10
87.10150138896668
 20
-125.3377463575544
 30
0.0
  0
VERTEX
  5
77
330
75
100
AcDbEntity
  8
_U+30EC_U+30A4_U+30E4_U+30FC 1
 62
   179
420
  2234388
370
    25
100
AcDbVertex
100
AcDb2dVertex
 10
87.10150138896668
 20
-133.9622105220649
 30
0.0
  0
SEQEND
  5
78
330
75
100
AcDbEntity
  8
_U+30EC_U+30A4_U+30E4_U+30FC 1
 62
   179
420
  2234388
370
    25
  0
POLYLINE
  5
79
330
1F
100
AcDbEntity
  8
_U+30EC_U+30A4_U+30E4_U+30FC 1
 62
   179
420
  2234388
370
    25
100
AcDb2dPolyline
 66
     1
 10
0.0
 20
0.0
 30
0.0
  0
VERTEX
  5
7A
330
79
100
AcDbEntity
  8
_U+30EC_U+30A4_U+30E4_U+30FC 1
 62
   179
420
  2234388
370
    25
100
AcDbVertex
100
AcDb2dVertex
 10
88.60835635052361
 20
-133.937374966516
 30
0.0
  0
VERTEX
  5
7B
330
79
100
AcDbEntity
  8
_U+30EC_U+30A4_U+30E4_U+30FC 1
 62
   179
420
  2234388
370
    25
100
AcDbVertex
100
AcDb2dVertex
 10
95.70130616956739
 20
-133.937374966516
 30
0.0
  0
SEQEND
  5
7C
330
79
100
AcDbEntity
  8
_U+30EC_U+30A4_U+30E4_U+30FC 1
 62
   179
420
  2234388
370
    25
  0
POLYLINE
  5
7D
330
1F
100
AcDbEntity
  8
_U+30EC_U+30A4_U+30E4_U+30FC 1
 62
   179
420
  2234388
370
    25
100
AcDb2dPolyline
 66
     1
 10
0.0
 20
0.0
 30
0.0
  0
VERTEX
  5
7E
330
7D
100
AcDbEntity
  8
_U+30EC_U+30A4_U+30E4_U+30FC 1
 62
   179
420
  2234388
370
    25
100
AcDbVertex
100
AcDb2dVertex
 10
95.80121283368521
 20
-133.8374682998737
 30
0.0
  0
VERTEX
  5
7F
330
7D
100
AcDbEntity
  8
_U+30EC_U+30A4_U+30E4_U+30FC 1
 62
   179
420
  2234388
370
    25
100
AcDbVertex
100
AcDb2dVertex
 10
108.2014925173277
 20
-133.8374682998737
 30
0.0
  0
SEQEND
  5
80
330
7D
100
AcDbEntity
  8
_U+30EC_U+30A4_U+30E4_U+30FC 1
 62
   179
420
  2234388
370
    25
  0
SPLINE
  5
81
330
1F
100
AcDbEntity
  8
_U+30EC_U+30A4_U+30E4_U+30FC 1
 62
   179
420
  2234388
370
    25
100
AcDbSpline
210
0.0
220
0.0
230
1.0
 70
     8
 71
     3
 72
     8
 73
     4
 74
     0
 42
0.0000000001
 43
0.0000000001
 12
1.0
 22
0.0
 32
0.0
 13
1.0
 23
0.0
 33
0.0
 40
0.0
 40
0.0
 40
0.0
 40
0.0
 40
1.0
 40
1.0
 40
1.0
 40
1.0
 10
76.20119750038994
 20
-142.3378957977492
 30
0.0
 10
76.20119750038994
 20
-143.7179977418484
 30
0.0
 10
77.32017330517581
 20
-144.8376791304573
 30
0.0
 10
78.70098076994849
 20
-144.8376791304573
 30
0.0
  0
SPLINE
  5
82
330
1F
100
AcDbEntity
  8
_U+30EC_U+30A4_U+30E4_U+30FC 1
 62
   179
420
  2234388
370
    25
100
AcDbSpline
210
0.0
220
0.0
230
1.0
 70
     8
 71
     3
 72
     8
 73
     4
 74
     0
 42
0.0000000001
 43
0.0000000001
 12
1.0
 22
0.0
 32
0.0
 13
1.0
 23
0.0
 33
0.0
 40
0.0
 40
0.0
 40
0.0
 40
0.0
 40
1.0
 40
1.0
 40
1.0
 40
1.0
 10
93.20155817778571
 20
-144.8376791304573
 30
0.0
 10
93.7534437192615
 20
-144.8376791304573
 30
0.0
 10
94.20129509672475
 20
-144.3897924639028
 30
0.0
 10
94.20129509672475
 20
-143.8379069084848
 30
0.0
  0
SPLINE
  5
83
330
1F
100
AcDbEntity
  8
_U+30EC_U+30A4_U+30E4_U+30FC 1
 62
   179
420
  2234388
370
    25
100
AcDbSpline
210
0.0
220
0.0
230
1.0
 70
     8
 71
     3
 72
     8
 73
     4
 74
     0
 42
0.0000000001
 43
0.0000000001
 12
1.0
 22
0.0
 32
0.0
 13
1.0
 23
0.0
 33
0.0
 40
0.0
 40
0.0
 40
0.0
 40
0.0
 40
1.0
 40
1.0
 40
1.0
 40
1.0
 10
77.20096969710585
 20
-126.8377221905128
 30
0.0
 10
76.64904887785319
 20
-126.8377221905128
 30
0.0
 10
76.20119750038994
 20
-127.2856088570673
 30
0.0
 10
76.20119750038994
 20
-127.837494412485
 30
0.0
  0
SPLINE
  5
84
330
1F
100
AcDbEntity
  8
_U+30EC_U+30A4_U+30E4_U+30FC 1
 62
   179
420
  2234388
370
    25
100
AcDbSpline
210
0.0
220
0.0
230
1.0
 70
     8
 71
     3
 72
    11
 73
     7
 74
     0
 42
0.0000000001
 43
0.0000000001
 12
1.0
 22
0.0
 32
0.0
 13
1.0
 23
0.0
 33
0.0
 40
0.0
 40
0.0
 40
0.0
 40
0.0
 40
1.0
 40
1.0
 40
1.0
 40
2.0
 40
2.0
 40
2.0
 40
2.0
 10
78.37300327831589
 20
-143.316324964171
 30
0.0
 10
78.25104998043734
 20
-143.4286141308093
 30
0.0
 10
78.24275772608317
 20
-143.6180910752068
 30
0.0
 10
78.35437661212443
 20
-143.740046352954
 30
0.0
 10
78.41156386928608
 20
-143.8020646862715
 30
0.0
 10
78.49150133084831
 20
-143.8379069084848
 30
0.0
 10
78.57556827314802
 20
-143.8379069084848
 30
0.0
  0
SPLINE
  5
85
330
1F
100
AcDbEntity
  8
_U+30EC_U+30A4_U+30E4_U+30FC 1
 62
   179
420
  2234388
370
    25
100
AcDbSpline
210
0.0
220
0.0
230
1.0
 70
     8
 71
     3
 72
    11
 73
     7
 74
     0
 42
0.0000000001
 43
0.0000000001
 12
1.0
 22
0.0
 32
0.0
 13
1.0
 23
0.0
 33
0.0
 40
0.0
 40
0.0
 40
0.0
 40
0.0
 40
1.0
 40
1.0
 40
1.0
 40
2.0
 40
2.0
 40
2.0
 40
2.0
 10
77.20096969710585
 20
-142.3523949644117
 30
0.0
 10
77.20096969710585
 20
-142.5177419088153
 30
0.0
 10
77.33534274923326
 20
-142.6521149643373
 30
0.0
 10
77.50139720284699
 20
-142.6521149643373
 30
0.0
 10
77.57650163196968
 20
-142.6521149643373
 30
0.0
 10
77.6488210745691
 20
-142.623857464344
 30
0.0
 10
77.70396023982904
 20
-142.5735513532457
 30
0.0
  0
SPLINE
  5
86
330
1F
100
AcDbEntity
  8
_U+30EC_U+30A4_U+30E4_U+30FC 1
 62
   179
420
  2234388
370
     9
100
AcDbSpline
210
0.0
220
0.0
230
1.0
 70
    11
 71
     3
 72
    17
 73
    13
 74
     0
 42
0.0000000001
 43
0.0000000001
 12
1.0
 22
0.0
 32
0.0
 13
1.0
 23
0.0
 33
0.0
 40
0.0
 40
0.0
 40
0.0
 40
0.0
 40
1.0
 40
1.0
 40
1.0
 40
2.0
 40
2.0
 40
2.0
 40
3.0
 40
3.0
 40
3.0
 40
4.0
 40
4.0
 40
4.0
 40
4.0
 10
76.30110416450778
 20
-123.8377352468184
 30
0.0
 10
76.30110416450778
 20
-123.7826313579432
 30
0.0
 10
76.25633666564988
 20
-123.7378285801768
 30
0.0
 10
76.20119750038994
 20
-123.7378285801768
 30
0.0
 10
76.14609361290687
 20
-123.7378285801768
 30
0.0
 10
76.1012908362721
 20
-123.7826313579432
 30
0.0
 10
76.1012908362721
 20
-123.8377352468184
 30
0.0
 10
76.1012908362721
 20
-123.8928744134712
 30
0.0
 10
76.14609361290687
 20
-123.9376419134601
 30
0.0
 10
76.20119750038994
 20
-123.9376419134601
 30
0.0
 10
76.25633666564988
 20
-123.9376419134601
 30
0.0
 10
76.30110416450778
 20
-123.8928744134712
 30
0.0
 10
76.30110416450778
 20
-123.8377352468184
 30
0.0
  0
SPLINE
  5
87
330
1F
100
AcDbEntity
  8
_U+30EC_U+30A4_U+30E4_U+30FC 1
 62
   179
420
  2234388
370
     9
100
AcDbSpline
210
0.0
220
0.0
230
1.0
 70
    11
 71
     3
 72
    17
 73
    13
 74
     0
 42
0.0000000001
 43
0.0000000001
 12
1.0
 22
0.0
 32
0.0
 13
1.0
 23
0.0
 33
0.0
 40
0.0
 40
0.0
 40
0.0
 40
0.0
 40
1.0
 40
1.0
 40
1.0
 40
2.0
 40
2.0
 40
2.0
 40
3.0
 40
3.0
 40
3.0
 40
4.0
 40
4.0
 40
4.0
 40
4.0
 10
77.30087636122369
 20
-123.8377352468184
 30
0.0
 10
77.30087636122369
 20
-123.7826313579432
 30
0.0
 10
77.25610886236579
 20
-123.7378285801768
 30
0.0
 10
77.20096969710585
 20
-123.7378285801768
 30
0.0
 10
77.14586580962278
 20
-123.7378285801768
 30
0.0
 10
77.10106303298801
 20
-123.7826313579432
 30
0.0
 10
77.10106303298801
 20
-123.8377352468184
 30
0.0
 10
77.10106303298801
 20
-123.8928744134712
 30
0.0
 10
77.14586580962278
 20
-123.9376419134601
 30
0.0
 10
77.20096969710585
 20
-123.9376419134601
 30
0.0
 10
77.25610886236579
 20
-123.9376419134601
 30
0.0
 10
77.30087636122369
 20
-123.8928744134712
 30
0.0
 10
77.30087636122369
 20
-123.8377352468184
 30
0.0
  0
SPLINE
  5
88
330
1F
100
AcDbEntity
  8
_U+30EC_U+30A4_U+30E4_U+30FC 1
 62
   179
420
  2234388
370
     9
100
AcDbSpline
210
0.0
220
0.0
230
1.0
 70
    11
 71
     3
 72
    17
 73
    13
 74
     0
 42
0.0000000001
 43
0.0000000001
 12
1.0
 22
0.0
 32
0.0
 13
1.0
 23
0.0
 33
0.0
 40
0.0
 40
0.0
 40
0.0
 40
0.0
 40
1.0
 40
1.0
 40
1.0
 40
2.0
 40
2.0
 40
2.0
 40
3.0
 40
3.0
 40
3.0
 40
4.0
 40
4.0
 40
4.0
 40
4.0
 10
88.30105163614138
 20
-107.8376755285961
 30
0.0
 10
88.30105163614138
 20
-107.7822188619434
 30
0.0
 10
88.2562841372835
 20
-107.7374513619545
 30
0.0
 10
88.20114720017202
 20
-107.7374513619545
 30
0.0
 10
88.14604108454047
 20
-107.7374513619545
 30
0.0
 10
88.10123830790572
 20
-107.7822188619434
 30
0.0
 10
88.10123830790572
 20
-107.8376755285961
 30
0.0
 10
88.10123830790572
 20
-107.8928146952492
 30
0.0
 10
88.14604108454047
 20
-107.9375821952377
 30
0.0
 10
88.20114720017202
 20
-107.9375821952377
 30
0.0
 10
88.2562841372835
 20
-107.9375821952377
 30
0.0
 10
88.30105163614138
 20
-107.8928146952492
 30
0.0
 10
88.30105163614138
 20
-107.8376755285961
 30
0.0
  0
SPLINE
  5
89
330
1F
100
AcDbEntity
  8
_U+30EC_U+30A4_U+30E4_U+30FC 1
 62
   179
420
  2234388
370
     9
100
AcDbSpline
210
0.0
220
0.0
230
1.0
 70
    11
 71
     3
 72
    17
 73
    13
 74
     0
 42
0.0000000001
 43
0.0000000001
 12
1.0
 22
0.0
 32
0.0
 13
1.0
 23
0.0
 33
0.0
 40
0.0
 40
0.0
 40
0.0
 40
0.0
 40
1.0
 40
1.0
 40
1.0
 40
2.0
 40
2.0
 40
2.0
 40
3.0
 40
3.0
 40
3.0
 40
4.0
 40
4.0
 40
4.0
 40
4.0
 10
113.3016007205465
 20
-132.8377313556793
 30
0.0
 10
113.3016007205465
 20
-132.7825921890269
 30
0.0
 10
113.2568360827968
 20
-132.7377894112602
 30
0.0
 10
113.2016940564286
 20
-132.7377894112602
 30
0.0
 10
113.145884613408
 20
-132.7377894112602
 30
0.0
 10
113.1011171145501
 20
-132.7825921890269
 30
0.0
 10
113.1011171145501
 20
-132.8377313556793
 30
0.0
 10
113.1011171145501
 20
-132.8928352445549
 30
0.0
 10
113.145884613408
 20
-132.937638022321
 30
0.0
 10
113.2016940564286
 20
-132.937638022321
 30
0.0
 10
113.2568360827968
 20
-132.937638022321
 30
0.0
 10
113.3016007205465
 20
-132.8928352445549
 30
0.0
 10
113.3016007205465
 20
-132.8377313556793
 30
0.0
  0
SPLINE
  5
8A
330
1F
100
AcDbEntity
  8
_U+30EC_U+30A4_U+30E4_U+30FC 1
 62
   179
420
  2234388
370
     9
100
AcDbSpline
210
0.0
220
0.0
230
1.0
 70
    11
 71
     3
 72
    17
 73
    13
 74
     0
 42
0.0000000001
 43
0.0000000001
 12
1.0
 22
0.0
 32
0.0
 13
1.0
 23
0.0
 33
0.0
 40
0.0
 40
0.0
 40
0.0
 40
0.0
 40
1.0
 40
1.0
 40
1.0
 40
2.0
 40
2.0
 40
2.0
 40
3.0
 40
3.0
 40
3.0
 40
4.0
 40
4.0
 40
4.0
 40
4.0
 10
76.30110416450778
 20
-150.837653017846
 30
0.0
 10
76.30110416450778
 20
-150.7825138511936
 30
0.0
 10
76.25633666564988
 20
-150.7377463512044
 30
0.0
 10
76.20119750038994
 20
-150.7377463512044
 30
0.0
 10
76.14609361290687
 20
-150.7377463512044
 30
0.0
 10
76.1012908362721
 20
-150.7825138511936
 30
0.0
 10
76.1012908362721
 20
-150.837653017846
 30
0.0
 10
76.1012908362721
 20
-150.8927569067216
 30
0.0
 10
76.14609361290687
 20
-150.9375596844876
 30
0.0
 10
76.20119750038994
 20
-150.9375596844876
 30
0.0
 10
76.25633666564988
 20
-150.9375596844876
 30
0.0
 10
76.30110416450778
 20
-150.8927569067216
 30
0.0
 10
76.30110416450778
 20
-150.837653017846
 30
0.0
  0
SPLINE
  5
8B
330
1F
100
AcDbEntity
  8
_U+30EC_U+30A4_U+30E4_U+30FC 1
 62
   179
420
  2234388
370
    25
100
AcDbSpline
210
0.0
220
0.0
230
1.0
 70
     8
 71
     3
 72
     8
 73
     4
 74
     0
 42
0.0000000001
 43
0.0000000001
 12
1.0
 22
0.0
 32
0.0
 13
1.0
 23
0.0
 33
0.0
 40
0.0
 40
0.0
 40
0.0
 40
0.0
 40
1.0
 40
1.0
 40
1.0
 40
1.0
 10
88.20114720017202
 20
-111.8377874720404
 30
0.0
 10
87.64855387501021
 20
-111.8377874720404
 30
0.0
 10
87.20140805308452
 20
-112.2853213608175
 30
0.0
 10
87.20140805308452
 20
-112.837559694013
 30
0.0
  0
SPLINE
  5
8C
330
1F
100
AcDbEntity
  8
_U+30EC_U+30A4_U+30E4_U+30FC 1
 62
   179
420
  2234388
370
    25
100
AcDbSpline
210
0.0
220
0.0
230
1.0
 70
     8
 71
     3
 72
     8
 73
     4
 74
     0
 42
0.0000000001
 43
0.0000000001
 12
1.0
 22
0.0
 32
0.0
 13
1.0
 23
0.0
 33
0.0
 40
0.0
 40
0.0
 40
0.0
 40
0.0
 40
1.0
 40
1.0
 40
1.0
 40
1.0
 10
108.2014925173277
 20
-133.8374682998737
 30
0.0
 10
108.7533780588035
 20
-133.8374682998737
 30
0.0
 10
109.2012647140436
 20
-133.3896169110973
 30
0.0
 10
109.2012647140436
 20
-132.8377313556793
 30
0.0
  0
SPLINE
  5
8D
330
1F
100
AcDbEntity
  8
_U+30EC_U+30A4_U+30E4_U+30FC 1
 62
   179
420
  2234388
370
     9
100
AcDbSpline
210
0.0
220
0.0
230
1.0
 70
    11
 71
     3
 72
    17
 73
    13
 74
     0
 42
0.0000000001
 43
0.0000000001
 12
1.0
 22
0.0
 32
0.0
 13
1.0
 23
0.0
 33
0.0
 40
0.0
 40
0.0
 40
0.0
 40
0.0
 40
1.0
 40
1.0
 40
1.0
 40
2.0
 40
2.0
 40
2.0
 40
3.0
 40
3.0
 40
3.0
 40
4.0
 40
4.0
 40
4.0
 40
4.0
 10
94.30120176084257
 20
-150.837653017846
 30
0.0
 10
94.30120176084257
 20
-150.7825138511936
 30
0.0
 10
94.2564342619847
 20
-150.7377463512044
 30
0.0
 10
94.20129509672475
 20
-150.7377463512044
 30
0.0
 10
94.14619120924168
 20
-150.7377463512044
 30
0.0
 10
94.10138843260691
 20
-150.7825138511936
 30
0.0
 10
94.10138843260691
 20
-150.837653017846
 30
0.0
 10
94.10138843260691
 20
-150.8927569067216
 30
0.0
 10
94.14619120924168
 20
-150.9375596844876
 30
0.0
 10
94.20129509672475
 20
-150.9375596844876
 30
0.0
 10
94.2564342619847
 20
-150.9375596844876
 30
0.0
 10
94.30120176084257
 20
-150.8927569067216
 30
0.0
 10
94.30120176084257
 20
-150.837653017846
 30
0.0
  0
SPLINE
  5
8E
330
1F
100
AcDbEntity
  8
_U+30EC_U+30A4_U+30E4_U+30FC 1
 62
   179
420
  2234388
370
     9
100
AcDbSpline
210
0.0
220
0.0
230
1.0
 70
    11
 71
     3
 72
    17
 73
    13
 74
     0
 42
0.0000000001
 43
0.0000000001
 12
1.0
 22
0.0
 32
0.0
 13
1.0
 23
0.0
 33
0.0
 40
0.0
 40
0.0
 40
0.0
 40
0.0
 40
1.0
 40
1.0
 40
1.0
 40
2.0
 40
2.0
 40
2.0
 40
3.0
 40
3.0
 40
3.0
 40
4.0
 40
4.0
 40
4.0
 40
4.0
 10
113.3016007205465
 20
-111.8377874720404
 30
0.0
 10
113.3016007205465
 20
-111.7826835831655
 30
0.0
 10
113.2568360827968
 20
-111.7378808053988
 30
0.0
 10
113.2016940564286
 20
-111.7378808053988
 30
0.0
 10
113.145884613408
 20
-111.7378808053988
 30
0.0
 10
113.1011171145501
 20
-111.7826835831655
 30
0.0
 10
113.1011171145501
 20
-111.8377874720404
 30
0.0
 10
113.1011171145501
 20
-111.8929266386935
 30
0.0
 10
113.145884613408
 20
-111.9376941386824
 30
0.0
 10
113.2016940564286
 20
-111.9376941386824
 30
0.0
 10
113.2568360827968
 20
-111.9376941386824
 30
0.0
 10
113.3016007205465
 20
-111.8929266386935
 30
0.0
 10
113.3016007205465
 20
-111.8377874720404
 30
0.0
  0
SPLINE
  5
8F
330
1F
100
AcDbEntity
  8
_U+30EC_U+30A4_U+30E4_U+30FC 1
 62
   179
420
  2234388
370
     9
100
AcDbSpline
210
0.0
220
0.0
230
1.0
 70
    11
 71
     3
 72
    17
 73
    13
 74
     0
 42
0.0000000001
 43
0.0000000001
 12
1.0
 22
0.0
 32
0.0
 13
1.0
 23
0.0
 33
0.0
 40
0.0
 40
0.0
 40
0.0
 40
0.0
 40
1.0
 40
1.0
 40
1.0
 40
2.0
 40
2.0
 40
2.0
 40
3.0
 40
3.0
 40
3.0
 40
4.0
 40
4.0
 40
4.0
 40
4.0
 10
109.3011713781615
 20
-107.8376755285961
 30
0.0
 10
109.3011713781615
 20
-107.7822188619434
 30
0.0
 10
109.2563686015267
 20
-107.7374513619545
 30
0.0
 10
109.2012647140436
 20
-107.7374513619545
 30
0.0
 10
109.1461255487837
 20
-107.7374513619545
 30
0.0
 10
109.1013580499258
 20
-107.7822188619434
 30
0.0
 10
109.1013580499258
 20
-107.8376755285961
 30
0.0
 10
109.1013580499258
 20
-107.8928146952492
 30
0.0
 10
109.1461255487837
 20
-107.9375821952377
 30
0.0
 10
109.2012647140436
 20
-107.9375821952377
 30
0.0
 10
109.2563686015267
 20
-107.9375821952377
 30
0.0
 10
109.3011713781615
 20
-107.8928146952492
 30
0.0
 10
109.3011713781615
 20
-107.8376755285961
 30
0.0
  0
SPLINE
  5
90
330
1F
100
AcDbEntity
  8
_U+30EC_U+30A4_U+30E4_U+30FC 1
 62
   179
420
  2234388
370
     9
100
AcDbSpline
210
0.0
220
0.0
230
1.0
 70
    11
 71
     3
 72
    17
 73
    13
 74
     0
 42
0.0000000001
 43
0.0000000001
 12
1.0
 22
0.0
 32
0.0
 13
1.0
 23
0.0
 33
0.0
 40
0.0
 40
0.0
 40
0.0
 40
0.0
 40
1.0
 40
1.0
 40
1.0
 40
2.0
 40
2.0
 40
2.0
 40
3.0
 40
3.0
 40
3.0
 40
4.0
 40
4.0
 40
4.0
 40
4.0
 10
109.3011713781615
 20
-150.837653017846
 30
0.0
 10
109.3011713781615
 20
-150.7825138511936
 30
0.0
 10
109.2563686015267
 20
-150.7377463512044
 30
0.0
 10
109.2012647140436
 20
-150.7377463512044
 30
0.0
 10
109.1461255487837
 20
-150.7377463512044
 30
0.0
 10
109.1013580499258
 20
-150.7825138511936
 30
0.0
 10
109.1013580499258
 20
-150.837653017846
 30
0.0
 10
109.1013580499258
 20
-150.8927569067216
 30
0.0
 10
109.1461255487837
 20
-150.9375596844876
 30
0.0
 10
109.2012647140436
 20
-150.9375596844876
 30
0.0
 10
109.2563686015267
 20
-150.9375596844876
 30
0.0
 10
109.3011713781615
 20
-150.8927569067216
 30
0.0
 10
109.3011713781615
 20
-150.837653017846
 30
0.0
  0
SPLINE
  5
91
330
1F
100
AcDbEntity
  8
_U+30EC_U+30A4_U+30E4_U+30FC 1
 62
   179
420
  2234388
370
     9
100
AcDbSpline
210
0.0
220
0.0
230
1.0
 70
    11
 71
     3
 72
    17
 73
    13
 74
     0
 42
0.0000000001
 43
0.0000000001
 12
1.0
 22
0.0
 32
0.0
 13
1.0
 23
0.0
 33
0.0
 40
0.0
 40
0.0
 40
0.0
 40
0.0
 40
1.0
 40
1.0
 40
1.0
 40
2.0
 40
2.0
 40
2.0
 40
3.0
 40
3.0
 40
3.0
 40
4.0
 40
4.0
 40
4.0
 40
4.0
 10
87.30131471720236
 20
-123.8377352468184
 30
0.0
 10
87.30131471720236
 20
-123.7826313579432
 30
0.0
 10
87.25651194056759
 20
-123.7378285801768
 30
0.0
 10
87.20140805308452
 20
-123.7378285801768
 30
0.0
 10
87.14626888782456
 20
-123.7378285801768
 30
0.0
 10
87.10150138896668
 20
-123.7826313579432
 30
0.0
 10
87.10150138896668
 20
-123.8377352468184
 30
0.0
 10
87.10150138896668
 20
-123.8928744134712
 30
0.0
 10
87.14626888782456
 20
-123.9376419134601
 30
0.0
 10
87.20140805308452
 20
-123.9376419134601
 30
0.0
 10
87.25651194056759
 20
-123.9376419134601
 30
0.0
 10
87.30131471720236
 20
-123.8928744134712
 30
0.0
 10
87.30131471720236
 20
-123.8377352468184
 30
0.0
  0
SPLINE
  5
92
330
1F
100
AcDbEntity
  8
_U+30EC_U+30A4_U+30E4_U+30FC 1
 62
   179
420
  2234388
370
     9
100
AcDbSpline
210
0.0
220
0.0
230
1.0
 70
    11
 71
     3
 72
    17
 73
    13
 74
     0
 42
0.0000000001
 43
0.0000000001
 12
1.0
 22
0.0
 32
0.0
 13
1.0
 23
0.0
 33
0.0
 40
0.0
 40
0.0
 40
0.0
 40
0.0
 40
1.0
 40
1.0
 40
1.0
 40
2.0
 40
2.0
 40
2.0
 40
3.0
 40
3.0
 40
3.0
 40
4.0
 40
4.0
 40
4.0
 40
4.0
 10
98.30166638100445
 20
-133.8374682998737
 30
0.0
 10
98.30166638100445
 20
-133.7823644109988
 30
0.0
 10
98.25686360436968
 20
-133.737561633232
 30
0.0
 10
98.20175971688661
 20
-133.737561633232
 30
0.0
 10
98.14595275324156
 20
-133.737561633232
 30
0.0
 10
98.10114997547484
 20
-133.7823644109988
 30
0.0
 10
98.10114997547484
 20
-133.8374682998737
 30
0.0
 10
98.10114997547484
 20
-133.8926074665268
 30
0.0
 10
98.14595275324156
 20
-133.937374966516
 30
0.0
 10
98.20175971688661
 20
-133.937374966516
 30
0.0
 10
98.25686360436968
 20
-133.937374966516
 30
0.0
 10
98.30166638100445
 20
-133.8926074665268
 30
0.0
 10
98.30166638100445
 20
-133.8374682998737
 30
0.0
  0
SPLINE
  5
93
330
1F
100
AcDbEntity
  8
_U+30EC_U+30A4_U+30E4_U+30FC 1
 62
   179
420
  2234388
370
     9
100
AcDbSpline
210
0.0
220
0.0
230
1.0
 70
    11
 71
     3
 72
    17
 73
    13
 74
     0
 42
0.0000000001
 43
0.0000000001
 12
1.0
 22
0.0
 32
0.0
 13
1.0
 23
0.0
 33
0.0
 40
0.0
 40
0.0
 40
0.0
 40
0.0
 40
1.0
 40
1.0
 40
1.0
 40
2.0
 40
2.0
 40
2.0
 40
3.0
 40
3.0
 40
3.0
 40
4.0
 40
4.0
 40
4.0
 40
4.0
 10
98.30166638100445
 20
-143.8379069084848
 30
0.0
 10
98.30166638100445
 20
-143.7820974640543
 30
0.0
 10
98.25686360436968
 20
-143.7372946862876
 30
0.0
 10
98.20175971688661
 20
-143.7372946862876
 30
0.0
 10
98.14595275324156
 20
-143.7372946862876
 30
0.0
 10
98.10114997547484
 20
-143.7820974640543
 30
0.0
 10
98.10114997547484
 20
-143.8379069084848
 30
0.0
 10
98.10114997547484
 20
-143.8930107973603
 30
0.0
 10
98.14595275324156
 20
-143.9378135751264
 30
0.0
 10
98.20175971688661
 20
-143.9378135751264
 30
0.0
 10
98.25686360436968
 20
-143.9378135751264
 30
0.0
 10
98.30166638100445
 20
-143.8930107973603
 30
0.0
 10
98.30166638100445
 20
-143.8379069084848
 30
0.0
  0
POLYLINE
  5
94
330
1F
100
AcDbEntity
  8
_U+30EC_U+30A4_U+30E4_U+30FC 1
 62
   179
420
  2234388
370
     9
100
AcDb2dPolyline
 66
     1
 10
0.0
 20
0.0
 30
0.0
  0
VERTEX
  5
95
330
94
100
AcDbEntity
  8
_U+30EC_U+30A4_U+30E4_U+30FC 1
 62
   179
420
  2234388
370
     9
100
AcDbVertex
100
AcDb2dVertex
 10
76.20119750038994
 20
-123.8377352468184
 30
0.0
  0
VERTEX
  5
96
330
94
100
AcDbEntity
  8
_U+30EC_U+30A4_U+30E4_U+30FC 1
 62
   179
420
  2234388
370
     9
100
AcDbVertex
100
AcDb2dVertex
 10
72.43088509657862
 20
-123.8377352468184
 30
0.0
  0
SEQEND
  5
97
330
94
100
AcDbEntity
  8
_U+30EC_U+30A4_U+30E4_U+30FC 1
 62
   179
420
  2234388
370
     9
  0
POLYLINE
  5
98
330
1F
100
AcDbEntity
  8
_U+30EC_U+30A4_U+30E4_U+30FC 1
 62
   179
420
  2234388
370
     9
100
AcDb2dPolyline
 66
     1
 10
0.0
 20
0.0
 30
0.0
  0
VERTEX
  5
99
330
98
100
AcDbEntity
  8
_U+30EC_U+30A4_U+30E4_U+30FC 1
 62
   179
420
  2234388
370
     9
100
AcDbVertex
100
AcDb2dVertex
 10
77.20096969710585
 20
-123.8377352468184
 30
0.0
  0
VERTEX
  5
9A
330
98
100
AcDbEntity
  8
_U+30EC_U+30A4_U+30E4_U+30FC 1
 62
   179
420
  2234388
370
     9
100
AcDbVertex
100
AcDb2dVertex
 10
76.20119750038994
 20
-123.8377352468184
 30
0.0
  0
SEQEND
  5
9B
330
98
100
AcDbEntity
  8
_U+30EC_U+30A4_U+30E4_U+30FC 1
 62
   179
420
  2234388
370
     9
  0
POLYLINE
  5
9C
330
1F
100
AcDbEntity
  8
_U+30EC_U+30A4_U+30E4_U+30FC 1
 62
   179
420
  2234388
370
     9
100
AcDb2dPolyline
 66
     1
 10
0.0
 20
0.0
 30
0.0
  0
VERTEX
  5
9D
330
9C
100
AcDbEntity
  8
_U+30EC_U+30A4_U+30E4_U+30FC 1
 62
   179
420
  2234388
370
     9
100
AcDbVertex
100
AcDb2dVertex
 10
77.20096969710585
 20
-125.2977766353421
 30
0.0
  0
VERTEX
  5
9E
330
9C
100
AcDbEntity
  8
_U+30EC_U+30A4_U+30E4_U+30FC 1
 62
   179
420
  2234388
370
     9
100
AcDbVertex
100
AcDb2dVertex
 10
77.20096969710585
 20
-122.8372927470685
 30
0.0
  0
SEQEND
  5
9F
330
9C
100
AcDbEntity
  8
_U+30EC_U+30A4_U+30E4_U+30FC 1
 62
   179
420
  2234388
370
     9
  0
POLYLINE
  5
A0
330
1F
100
AcDbEntity
  8
_U+30EC_U+30A4_U+30E4_U+30FC 1
 62
   179
420
  2234388
370
     9
100
AcDb2dPolyline
 66
     1
 10
0.0
 20
0.0
 30
0.0
  0
VERTEX
  5
A1
330
A0
100
AcDbEntity
  8
_U+30EC_U+30A4_U+30E4_U+30FC 1
 62
   179
420
  2234388
370
     9
100
AcDbVertex
100
AcDb2dVertex
 10
76.20119750038994
 20
-126.2975488573144
 30
0.0
  0
VERTEX
  5
A2
330
A0
100
AcDbEntity
  8
_U+30EC_U+30A4_U+30E4_U+30FC 1
 62
   179
420
  2234388
370
     9
100
AcDbVertex
100
AcDb2dVertex
 10
76.20119750038994
 20
-122.8372927470685
 30
0.0
  0
SEQEND
  5
A3
330
A0
100
AcDbEntity
  8
_U+30EC_U+30A4_U+30E4_U+30FC 1
 62
   179
420
  2234388
370
     9
  0
INSERT
  5
A5
330
1F
100
AcDbEntity
  8
_U+30EC_U+30A4_U+30E4_U+30FC 1
100
AcDbBlockReference
  2
block 2
 10
0.0
 20
0.0
 30
0.0
  0
POLYLINE
  5
AA
330
1F
100
AcDbEntity
  8
_U+30EC_U+30A4_U+30E4_U+30FC 1
 62
   179
420
  2234388
370
     9
100
AcDb2dPolyline
 66
     1
 10
0.0
 20
0.0
 30
0.0
  0
VERTEX
  5
AB
330
AA
100
AcDbEntity
  8
_U+30EC_U+30A4_U+30E4_U+30FC 1
 62
   179
420
  2234388
370
     9
100
AcDbVertex
100
AcDb2dVertex
 10
76.5677688799268
 20
-143.6408452418673
 30
0.0
  0
VERTEX
  5
AC
330
AA
100
AcDbEntity
  8
_U+30EC_U+30A4_U+30E4_U+30FC 1
 62
   179
420
  2234388
370
     9
100
AcDbVertex
100
AcDb2dVertex
 10
73.24876507571277
 20
-145.6679416302495
 30
0.0
  0
SEQEND
  5
AD
330
AA
100
AcDbEntity
  8
_U+30EC_U+30A4_U+30E4_U+30FC 1
 62
   179
420
  2234388
370
     9
  0
POLYLINE
  5
AE
330
1F
100
AcDbEntity
  8
_U+30EC_U+30A4_U+30E4_U+30FC 1
 62
   179
420
  2234388
370
     9
100
AcDb2dPolyline
 66
     1
 10
0.0
 20
0.0
 30
0.0
  0
VERTEX
  5
AF
330
AE
100
AcDbEntity
  8
_U+30EC_U+30A4_U+30E4_U+30FC 1
 62
   179
420
  2234388
370
     9
100
AcDbVertex
100
AcDb2dVertex
 10
73.24876507571277
 20
-145.6679416302495
 30
0.0
  0
VERTEX
  5
B0
330
AE
100
AcDbEntity
  8
_U+30EC_U+30A4_U+30E4_U+30FC 1
 62
   179
420
  2234388
370
     9
100
AcDbVertex
100
AcDb2dVertex
 10
67.7469488271869
 20
-145.6679416302495
 30
0.0
  0
SEQEND
  5
B1
330
AE
100
AcDbEntity
  8
_U+30EC_U+30A4_U+30E4_U+30FC 1
 62
   179
420
  2234388
370
     9
  0
INSERT
  5
B3
330
1F
100
AcDbEntity
  8
_U+30EC_U+30A4_U+30E4_U+30FC 1
100
AcDbBlockReference
  2
block 3
 10
0.0
 20
0.0
 30
0.0
  0
POLYLINE
  5
C5
330
1F
100
AcDbEntity
  8
_U+30EC_U+30A4_U+30E4_U+30FC 1
 62
   179
420
  2234388
370
     9
100
AcDb2dPolyline
 66
     1
 10
0.0
 20
0.0
 30
0.0
  0
VERTEX
  5
C6
330
C5
100
AcDbEntity
  8
_U+30EC_U+30A4_U+30E4_U+30FC 1
 62
   179
420
  2234388
370
     9
100
AcDbVertex
100
AcDb2dVertex
 10
76.20119750038994
 20
-150.837653017846
 30
0.0
  0
VERTEX
  5
C7
330
C5
100
AcDbEntity
  8
_U+30EC_U+30A4_U+30E4_U+30FC 1
 62
   179
420
  2234388
370
     9
100
AcDbVertex
100
AcDb2dVertex
 10
94.20129509672475
 20
-150.837653017846
 30
0.0
  0
SEQEND
  5
C8
330
C5
100
AcDbEntity
  8
_U+30EC_U+30A4_U+30E4_U+30FC 1
 62
   179
420
  2234388
370
     9
  0
POLYLINE
  5
C9
330
1F
100
AcDbEntity
  8
_U+30EC_U+30A4_U+30E4_U+30FC 1
 62
   179
420
  2234388
370
     9
100
AcDb2dPolyline
 66
     1
 10
0.0
 20
0.0
 30
0.0
  0
VERTEX
  5
CA
330
C9
100
AcDbEntity
  8
_U+30EC_U+30A4_U+30E4_U+30FC 1
 62
   179
420
  2234388
370
     9
100
AcDbVertex
100
AcDb2dVertex
 10
76.20119750038994
 20
-144.8776488526692
 30
0.0
  0
VERTEX
  5
CB
330
C9
100
AcDbEntity
  8
_U+30EC_U+30A4_U+30E4_U+30FC 1
 62
   179
420
  2234388
370
     9
100
AcDbVertex
100
AcDb2dVertex
 10
76.20119750038994
 20
-151.8374252398185
 30
0.0
  0
SEQEND
  5
CC
330
C9
100
AcDbEntity
  8
_U+30EC_U+30A4_U+30E4_U+30FC 1
 62
   179
420
  2234388
370
     9
  0
POLYLINE
  5
CD
330
1F
100
AcDbEntity
  8
_U+30EC_U+30A4_U+30E4_U+30FC 1
 62
   179
420
  2234388
370
     9
100
AcDb2dPolyline
 66
     1
 10
0.0
 20
0.0
 30
0.0
  0
VERTEX
  5
CE
330
CD
100
AcDbEntity
  8
_U+30EC_U+30A4_U+30E4_U+30FC 1
 62
   179
420
  2234388
370
     9
100
AcDbVertex
100
AcDb2dVertex
 10
94.20129509672475
 20
-146.3776246856279
 30
0.0
  0
VERTEX
  5
CF
330
CD
100
AcDbEntity
  8
_U+30EC_U+30A4_U+30E4_U+30FC 1
 62
   179
420
  2234388
370
     9
100
AcDbVertex
100
AcDb2dVertex
 10
94.20129509672475
 20
-151.8374252398185
 30
0.0
  0
SEQEND
  5
D0
330
CD
100
AcDbEntity
  8
_U+30EC_U+30A4_U+30E4_U+30FC 1
 62
   179
420
  2234388
370
     9
  0
INSERT
  5
D2
330
1F
100
AcDbEntity
  8
_U+30EC_U+30A4_U+30E4_U+30FC 1
100
AcDbBlockReference
  2
block 4
 10
0.0
 20
0.0
 30
0.0
  0
POLYLINE
  5
DB
330
1F
100
AcDbEntity
  8
_U+30EC_U+30A4_U+30E4_U+30FC 1
 62
   179
420
  2234388
370
     9
100
AcDb2dPolyline
 66
     1
 10
0.0
 20
0.0
 30
0.0
  0
VERTEX
  5
DC
330
DB
100
AcDbEntity
  8
_U+30EC_U+30A4_U+30E4_U+30FC 1
 62
   179
420
  2234388
370
     9
100
AcDbVertex
100
AcDb2dVertex
 10
94.20129509672475
 20
-150.837653017846
 30
0.0
  0
VERTEX
  5
DD
330
DB
100
AcDbEntity
  8
_U+30EC_U+30A4_U+30E4_U+30FC 1
 62
   179
420
  2234388
370
     9
100
AcDbVertex
100
AcDb2dVertex
 10
109.2012647140436
 20
-150.837653017846
 30
0.0
  0
SEQEND
  5
DE
330
DB
100
AcDbEntity
  8
_U+30EC_U+30A4_U+30E4_U+30FC 1
 62
   179
420
  2234388
370
     9
  0
POLYLINE
  5
DF
330
1F
100
AcDbEntity
  8
_U+30EC_U+30A4_U+30E4_U+30FC 1
 62
   179
420
  2234388
370
     9
100
AcDb2dPolyline
 66
     1
 10
0.0
 20
0.0
 30
0.0
  0
VERTEX
  5
E0
330
DF
100
AcDbEntity
  8
_U+30EC_U+30A4_U+30E4_U+30FC 1
 62
   179
420
  2234388
370
     9
100
AcDbVertex
100
AcDb2dVertex
 10
109.2012647140436
 20
-135.3774491328225
 30
0.0
  0
VERTEX
  5
E1
330
DF
100
AcDbEntity
  8
_U+30EC_U+30A4_U+30E4_U+30FC 1
 62
   179
420
  2234388
370
     9
100
AcDbVertex
100
AcDb2dVertex
 10
109.2012647140436
 20
-151.8374252398185
 30
0.0
  0
SEQEND
  5
E2
330
DF
100
AcDbEntity
  8
_U+30EC_U+30A4_U+30E4_U+30FC 1
 62
   179
420
  2234388
370
     9
  0
INSERT
  5
E4
330
1F
100
AcDbEntity
  8
_U+30EC_U+30A4_U+30E4_U+30FC 1
100
AcDbBlockReference
  2
block 5
 10
0.0
 20
0.0
 30
0.0
  0
POLYLINE
  5
EB
330
1F
100
AcDbEntity
  8
_U+30EC_U+30A4_U+30E4_U+30FC 1
 62
   179
420
  2234388
370
     9
100
AcDb2dPolyline
 66
     1
 10
0.0
 20
0.0
 30
0.0
  0
VERTEX
  5
EC
330
EB
100
AcDbEntity
  8
_U+30EC_U+30A4_U+30E4_U+30FC 1
 62
   179
420
  2234388
370
     9
100
AcDbVertex
100
AcDb2dVertex
 10
88.20114720017202
 20
-107.8376755285961
 30
0.0
  0
VERTEX
  5
ED
330
EB
100
AcDbEntity
  8
_U+30EC_U+30A4_U+30E4_U+30FC 1
 62
   179
420
  2234388
370
     9
100
AcDbVertex
100
AcDb2dVertex
 10
109.2012647140436
 20
-107.8376755285961
 30
0.0
  0
SEQEND
  5
EE
330
EB
100
AcDbEntity
  8
_U+30EC_U+30A4_U+30E4_U+30FC 1
 62
   179
420
  2234388
370
     9
  0
POLYLINE
  5
EF
330
1F
100
AcDbEntity
  8
_U+30EC_U+30A4_U+30E4_U+30FC 1
 62
   179
420
  2234388
370
     9
100
AcDb2dPolyline
 66
     1
 10
0.0
 20
0.0
 30
0.0
  0
VERTEX
  5
F0
330
EF
100
AcDbEntity
  8
_U+30EC_U+30A4_U+30E4_U+30FC 1
 62
   179
420
  2234388
370
     9
100
AcDbVertex
100
AcDb2dVertex
 10
88.20114720017202
 20
-109.2977169171201
 30
0.0
  0
VERTEX
  5
F1
330
EF
100
AcDbEntity
  8
_U+30EC_U+30A4_U+30E4_U+30FC 1
 62
   179
420
  2234388
370
     9
100
AcDbVertex
100
AcDb2dVertex
 10
88.20114720017202
 20
-106.837585806624
 30
0.0
  0
SEQEND
  5
F2
330
EF
100
AcDbEntity
  8
_U+30EC_U+30A4_U+30E4_U+30FC 1
 62
   179
420
  2234388
370
     9
  0
POLYLINE
  5
F3
330
1F
100
AcDbEntity
  8
_U+30EC_U+30A4_U+30E4_U+30FC 1
 62
   179
420
  2234388
370
     9
100
AcDb2dPolyline
 66
     1
 10
0.0
 20
0.0
 30
0.0
  0
VERTEX
  5
F4
330
F3
100
AcDbEntity
  8
_U+30EC_U+30A4_U+30E4_U+30FC 1
 62
   179
420
  2234388
370
     9
100
AcDbVertex
100
AcDb2dVertex
 10
109.2012647140436
 20
-130.2973080229812
 30
0.0
  0
VERTEX
  5
F5
330
F3
100
AcDbEntity
  8
_U+30EC_U+30A4_U+30E4_U+30FC 1
 62
   179
420
  2234388
370
     9
100
AcDbVertex
100
AcDb2dVertex
 10
109.2012647140436
 20
-106.837585806624
 30
0.0
  0
SEQEND
  5
F6
330
F3
100
AcDbEntity
  8
_U+30EC_U+30A4_U+30E4_U+30FC 1
 62
   179
420
  2234388
370
     9
  0
INSERT
  5
F8
330
1F
100
AcDbEntity
  8
_U+30EC_U+30A4_U+30E4_U+30FC 1
100
AcDbBlockReference
  2
block 6
 10
0.0
 20
0.0
 30
0.0
  0
POLYLINE
  5
FF
330
1F
100
AcDbEntity
  8
_U+30EC_U+30A4_U+30E4_U+30FC 1
 62
   179
420
  2234388
370
     9
100
AcDb2dPolyline
 66
     1
 10
0.0
 20
0.0
 30
0.0
  0
VERTEX
  5
100
330
FF
100
AcDbEntity
  8
_U+30EC_U+30A4_U+30E4_U+30FC 1
 62
   179
420
  2234388
370
     9
100
AcDbVertex
100
AcDb2dVertex
 10
113.2016940564286
 20
-111.8377874720404
 30
0.0
  0
VERTEX
  5
101
330
FF
100
AcDbEntity
  8
_U+30EC_U+30A4_U+30E4_U+30FC 1
 62
   179
420
  2234388
370
     9
100
AcDbVertex
100
AcDb2dVertex
 10
113.2016940564286
 20
-132.8377313556793
 30
0.0
  0
SEQEND
  5
102
330
FF
100
AcDbEntity
  8
_U+30EC_U+30A4_U+30E4_U+30FC 1
 62
   179
420
  2234388
370
     9
  0
POLYLINE
  5
103
330
1F
100
AcDbEntity
  8
_U+30EC_U+30A4_U+30E4_U+30FC 1
 62
   179
420
  2234388
370
     9
100
AcDb2dPolyline
 66
     1
 10
0.0
 20
0.0
 30
0.0
  0
VERTEX
  5
104
330
103
100
AcDbEntity
  8
_U+30EC_U+30A4_U+30E4_U+30FC 1
 62
   179
420
  2234388
370
     9
100
AcDbVertex
100
AcDb2dVertex
 10
90.74156824054529
 20
-111.8377874720404
 30
0.0
  0
VERTEX
  5
105
330
103
100
AcDbEntity
  8
_U+30EC_U+30A4_U+30E4_U+30FC 1
 62
   179
420
  2234388
370
     9
100
AcDbVertex
100
AcDb2dVertex
 10
114.2014662531445
 20
-111.8377874720404
 30
0.0
  0
SEQEND
  5
106
330
103
100
AcDbEntity
  8
_U+30EC_U+30A4_U+30E4_U+30FC 1
 62
   179
420
  2234388
370
     9
  0
POLYLINE
  5
107
330
1F
100
AcDbEntity
  8
_U+30EC_U+30A4_U+30E4_U+30FC 1
 62
   179
420
  2234388
370
     9
100
AcDb2dPolyline
 66
     1
 10
0.0
 20
0.0
 30
0.0
  0
VERTEX
  5
108
330
107
100
AcDbEntity
  8
_U+30EC_U+30A4_U+30E4_U+30FC 1
 62
   179
420
  2234388
370
     9
100
AcDbVertex
100
AcDb2dVertex
 10
111.74165552762
 20
-132.8377313556793
 30
0.0
  0
VERTEX
  5
109
330
107
100
AcDbEntity
  8
_U+30EC_U+30A4_U+30E4_U+30FC 1
 62
   179
420
  2234388
370
     9
100
AcDbVertex
100
AcDb2dVertex
 10
114.2014662531445
 20
-132.8377313556793
 30
0.0
  0
SEQEND
  5
10A
330
107
100
AcDbEntity
  8
_U+30EC_U+30A4_U+30E4_U+30FC 1
 62
   179
420
  2234388
370
     9
  0
INSERT
  5
10C
330
1F
100
AcDbEntity
  8
_U+30EC_U+30A4_U+30E4_U+30FC 1
100
AcDbBlockReference
  2
block 7
 10
0.0
 20
0.0
 30
0.0
  0
POLYLINE
  5
113
330
1F
100
AcDbEntity
  8
_U+30EC_U+30A4_U+30E4_U+30FC 1
 62
   179
420
  2234388
370
     9
100
AcDb2dPolyline
 66
     1
 10
0.0
 20
0.0
 30
0.0
  0
VERTEX
  5
114
330
113
100
AcDbEntity
  8
_U+30EC_U+30A4_U+30E4_U+30FC 1
 62
   179
420
  2234388
370
     9
100
AcDbVertex
100
AcDb2dVertex
 10
77.20096969710585
 20
-123.8377352468184
 30
0.0
  0
VERTEX
  5
115
330
113
100
AcDbEntity
  8
_U+30EC_U+30A4_U+30E4_U+30FC 1
 62
   179
420
  2234388
370
     9
100
AcDbVertex
100
AcDb2dVertex
 10
87.20140805308452
 20
-123.8377352468184
 30
0.0
  0
SEQEND
  5
116
330
113
100
AcDbEntity
  8
_U+30EC_U+30A4_U+30E4_U+30FC 1
 62
   179
420
  2234388
370
     9
  0
POLYLINE
  5
117
330
1F
100
AcDbEntity
  8
_U+30EC_U+30A4_U+30E4_U+30FC 1
 62
   179
420
  2234388
370
     9
100
AcDb2dPolyline
 66
     1
 10
0.0
 20
0.0
 30
0.0
  0
VERTEX
  5
118
330
117
100
AcDbEntity
  8
_U+30EC_U+30A4_U+30E4_U+30FC 1
 62
   179
420
  2234388
370
     9
100
AcDbVertex
100
AcDb2dVertex
 10
77.20096969710585
 20
-124.2973341355923
 30
0.0
  0
VERTEX
  5
119
330
117
100
AcDbEntity
  8
_U+30EC_U+30A4_U+30E4_U+30FC 1
 62
   179
420
  2234388
370
     9
100
AcDbVertex
100
AcDb2dVertex
 10
77.20096969710585
 20
-122.8372927470685
 30
0.0
  0
SEQEND
  5
11A
330
117
100
AcDbEntity
  8
_U+30EC_U+30A4_U+30E4_U+30FC 1
 62
   179
420
  2234388
370
     9
  0
INSERT
  5
11C
330
1F
100
AcDbEntity
  8
_U+30EC_U+30A4_U+30E4_U+30FC 1
100
AcDbBlockReference
  2
block 8
 10
0.0
 20
0.0
 30
0.0
  0
POLYLINE
  5
124
330
1F
100
AcDbEntity
  8
_U+30EC_U+30A4_U+30E4_U+30FC 1
 62
   179
420
  2234388
370
     9
100
AcDb2dPolyline
 66
     1
 10
0.0
 20
0.0
 30
0.0
  0
VERTEX
  5
125
330
124
100
AcDbEntity
  8
_U+30EC_U+30A4_U+30E4_U+30FC 1
 62
   179
420
  2234388
370
     9
100
AcDbVertex
100
AcDb2dVertex
 10
98.20175971688661
 20
-143.8379069084848
 30
0.0
  0
VERTEX
  5
126
330
124
100
AcDbEntity
  8
_U+30EC_U+30A4_U+30E4_U+30FC 1
 62
   179
420
  2234388
370
     9
100
AcDbVertex
100
AcDb2dVertex
 10
98.20175971688661
 20
-133.8374682998737
 30
0.0
  0
SEQEND
  5
127
330
124
100
AcDbEntity
  8
_U+30EC_U+30A4_U+30E4_U+30FC 1
 62
   179
420
  2234388
370
     9
  0
POLYLINE
  5
128
330
1F
100
AcDbEntity
  8
_U+30EC_U+30A4_U+30E4_U+30FC 1
 62
   179
420
  2234388
370
     9
100
AcDb2dPolyline
 66
     1
 10
0.0
 20
0.0
 30
0.0
  0
VERTEX
  5
129
330
128
100
AcDbEntity
  8
_U+30EC_U+30A4_U+30E4_U+30FC 1
 62
   179
420
  2234388
370
     9
100
AcDbVertex
100
AcDb2dVertex
 10
96.74171836524648
 20
-143.8379069084848
 30
0.0
  0
VERTEX
  5
12A
330
128
100
AcDbEntity
  8
_U+30EC_U+30A4_U+30E4_U+30FC 1
 62
   179
420
  2234388
370
     9
100
AcDbVertex
100
AcDb2dVertex
 10
99.20153191360252
 20
-143.8379069084848
 30
0.0
  0
SEQEND
  5
12B
330
128
100
AcDbEntity
  8
_U+30EC_U+30A4_U+30E4_U+30FC 1
 62
   179
420
  2234388
370
     9
  0
POLYLINE
  5
12C
330
1F
100
AcDbEntity
  8
_U+30EC_U+30A4_U+30E4_U+30FC 1
 62
   179
420
  2234388
370
     9
100
AcDb2dPolyline
 66
     1
 10
0.0
 20
0.0
 30
0.0
  0
VERTEX
  5
12D
330
12C
100
AcDbEntity
  8
_U+30EC_U+30A4_U+30E4_U+30FC 1
 62
   179
420
  2234388
370
     9
100
AcDbVertex
100
AcDb2dVertex
 10
100.7414774298708
 20
-133.8374682998737
 30
0.0
  0
VERTEX
  5
12E
330
12C
100
AcDbEntity
  8
_U+30EC_U+30A4_U+30E4_U+30FC 1
 62
   179
420
  2234388
370
     9
100
AcDbVertex
100
AcDb2dVertex
 10
100.2013041103184
 20
-133.8374682998737
 30
0.0
  0
SEQEND
  5
12F
330
12C
100
AcDbEntity
  8
_U+30EC_U+30A4_U+30E4_U+30FC 1
 62
   179
420
  2234388
370
     9
  0
INSERT
  5
131
330
1F
100
AcDbEntity
  8
_U+30EC_U+30A4_U+30E4_U+30FC 1
100
AcDbBlockReference
  2
block 9
 10
0.0
 20
0.0
 30
0.0
  0
ENDSEC
  0
SECTION
  2
OBJECTS
  0
DICTIONARY
  5
C
330
0
100
AcDbDictionary
281
     1
  3
ACAD_GROUP
350
D
  3
ACAD_LAYOUT
350
1A
  3
ACAD_MATERIAL
350
3B
  3
ACAD_MLEADERSTYLE
350
13A
  3
ACAD_MLINESTYLE
350
17
  3
ACAD_PLOTSETTINGS
350
19
  3
ACAD_PLOTSTYLENAME
350
E
  3
ACAD_TABLESTYLE
350
139
  3
ACAD_VISUALSTYLE
350
2A
  0
SUN
  5
3F
330
29
100
AcDbSun
 90
        1
290
     0
 63
     7
421
 16777215
 40
1.0
291
     1
 91
  2455826
 92
 54000000
292
     0
 70
     2
 71
   256
280
     1
  0
DICTIONARY
  5
D
102
{ACAD_REACTORS
330
C
102
}
330
C
100
AcDbDictionary
281
     1
  0
DICTIONARY
  5
1A
102
{ACAD_REACTORS
330
C
102
}
330
C
100
AcDbDictionary
281
     1
  3
Layout1
350
1E
  3
Layout2
350
26
  3
Model
350
22
  0
DICTIONARY
  5
3B
102
{ACAD_REACTORS
330
C
102
}
330
C
100
AcDbDictionary
281
     1
  3
ByBlock
350
3D
  3
ByLayer
350
3C
  3
Global
350
3E
  0
DICTIONARY
  5
13A
102
{ACAD_REACTORS
330
C
102
}
330
C
100
AcDbDictionary
281
     1
  0
DICTIONARY
  5
17
102
{ACAD_REACTORS
330
C
102
}
330
C
100
AcDbDictionary
281
     1
  3
Standard
350
18
  0
DICTIONARY
  5
19
102
{ACAD_REACTORS
330
C
102
}
330
C
100
AcDbDictionary
281
     1
  0
ACDBDICTIONARYWDFLT
  5
E
102
{ACAD_REACTORS
330
C
102
}
330
C
100
AcDbDictionary
281
     1
  3
Normal
350
F
100
AcDbDictionaryWithDefault
340
F
  0
DICTIONARY
  5
139
102
{ACAD_REACTORS
330
C
102
}
330
C
100
AcDbDictionary
281
     1
  0
DICTIONARY
  5
2A
102
{ACAD_REACTORS
330
C
102
}
330
C
100
AcDbDictionary
281
     1
  3
2dWireframe
350
2F
  3
3D Hidden
350
31
  3
3dWireframe
350
30
  3
Basic
350
32
  3
Brighten
350
36
  3
ColorChange
350
3A
  3
Conceptual
350
34
  3
Dim
350
35
  3
Facepattern
350
39
  3
Flat
350
2B
  3
FlatWithEdges
350
2C
  3
Gouraud
350
2D
  3
GouraudWithEdges
350
2E
  3
Linepattern
350
38
  3
Realistic
350
33
  3
Thicken
350
37
  0
LAYOUT
  5
1E
102
{ACAD_REACTORS
330
1A
102
}
330
1A
100
AcDbPlotSettings
  1

  2
none_device
  4

  6

 40
0.0
 41
0.0
 42
0.0
 43
0.0
 44
0.0
 45
0.0
 46
0.0
 47
0.0
 48
0.0
 49
0.0
140
0.0
141
0.0
142
1.0
143
1.0
 70
   688
 72
     0
 73
     0
 74
     5
  7

 75
    16
 76
     0
 77
     2
 78
   300
147
1.0
148
0.0
149
0.0
100
AcDbLayout
  1
Layout1
 70
     1
 71
     1
 10
0.0
 20
0.0
 11
12.0
 21
9.0
 12
0.0
 22
0.0
 32
0.0
 14
1.000000000000000E+20
 24
1.000000000000000E+20
 34
1.000000000000000E+20
 15
-1.000000000000000E+20
 25
-1.000000000000000E+20
 35
-1.000000000000000E+20
146
0.0
 13
0.0
 23
0.0
 33
0.0
 16
1.0
 26
0.0
 36
0.0
 17
0.0
 27
1.0
 37
0.0
 76
     0
330
1B
  0
LAYOUT
  5
26
102
{ACAD_REACTORS
330
1A
102
}
330
1A
100
AcDbPlotSettings
  1

  2
none_device
  4

  6

 40
0.0
 41
0.0
 42
0.0
 43
0.0
 44
0.0
 45
0.0
 46
0.0
 47
0.0
 48
0.0
 49
0.0
140
0.0
141
0.0
142
1.0
143
1.0
 70
   688
 72
     0
 73
     0
 74
     5
  7

 75
    16
 76
     0
 77
     2
 78
   300
147
1.0
148
0.0
149
0.0
100
AcDbLayout
  1
Layout2
 70
     1
 71
     2
 10
0.0
 20
0.0
 11
0.0
 21
0.0
 12
0.0
 22
0.0
 32
0.0
 14
0.0
 24
0.0
 34
0.0
 15
0.0
 25
0.0
 35
0.0
146
0.0
 13
0.0
 23
0.0
 33
0.0
 16
1.0
 26
0.0
 36
0.0
 17
0.0
 27
1.0
 37
0.0
 76
     0
330
23
  0
LAYOUT
  5
22
102
{ACAD_REACTORS
330
1A
102
}
330
1A
100
AcDbPlotSettings
  1

  2
none_device
  4

  6

 40
0.0
 41
0.0
 42
0.0
 43
0.0
 44
0.0
 45
0.0
 46
0.0
 47
0.0
 48
0.0
 49
0.0
140
0.0
141
0.0
142
1.0
143
1.0
 70
  1712
 72
     0
 73
     0
 74
     0
  7

 75
     0
 76
     0
 77
     2
 78
   300
147
1.0
148
0.0
149
0.0
100
AcDbLayout
  1
Model
 70
     1
 71
     0
 10
0.0
 20
0.0
 11
12.0
 21
9.0
 12
0.0
 22
0.0
 32
0.0
 14
1.000000000000000E+20
 24
1.000000000000000E+20
 34
1.000000000000000E+20
 15
-1.000000000000000E+20
 25
-1.000000000000000E+20
 35
-1.000000000000000E+20
146
0.0
 13
0.0
 23
0.0
 33
0.0
 16
1.0
 26
0.0
 36
0.0
 17
0.0
 27
1.0
 37
0.0
 76
     0
330
1F
331
29
  0
MATERIAL
  5
3D
102
{ACAD_REACTORS
330
3B
102
}
330
3B
100
AcDbMaterial
  1
ByBlock
 72
     1
 94
      127
  0
MATERIAL
  5
3C
102
{ACAD_REACTORS
330
3B
102
}
330
3B
100
AcDbMaterial
  1
ByLayer
 72
     1
 94
      127
  0
MATERIAL
  5
3E
102
{ACAD_REACTORS
330
3B
102
}
330
3B
100
AcDbMaterial
  1
Global
 72
     1
 94
      127
  0
MLINESTYLE
  5
18
102
{ACAD_REACTORS
330
17
102
}
330
17
100
AcDbMlineStyle
  2
Standard
 70
     0
  3

 62
   256
 51
90.0
 52
90.0
 71
     2
 49
0.5
 62
   256
  6
BYLAYER
 49
-0.5
 62
   256
  6
BYLAYER
  0
ACDBPLACEHOLDER
  5
F
102
{ACAD_REACTORS
330
E
102
}
330
E
  0
VISUALSTYLE
  5
2F
102
{ACAD_REACTORS
330
2A
102
}
330
2A
100
AcDbVisualStyle
  2
2dWireframe
 70
     4
177
     2
291
     0
 71
     0
176
     1
 72
     2
176
     1
 73
     0
176
     1
 90
        0
176
     1
 40
-0.6
176
     1
 41
-30.0
176
     1
 62
     5
 63
     7
421
 16777215
176
     1
 74
     1
176
     1
 91
        4
176
     1
 64
     7
176
     1
 65
   257
176
     1
 75
     1
176
     1
175
     1
176
     1
 42
1.0
176
     1
 92
        0
176
     1
 66
   257
176
     1
 43
1.0
176
     1
 76
     1
176
     1
 77
     6
176
     1
 78
     2
176
     1
 67
     7
176
     1
 79
     5
176
     1
170
     0
176
     1
171
     0
176
     1
290
     0
176
     1
 93
        1
176
     1
 44
0.0
176
     1
173
     0
176
     1
  0
VISUALSTYLE
  5
31
102
{ACAD_REACTORS
330
2A
102
}
330
2A
100
AcDbVisualStyle
  2
3D Hidden
 70
     6
177
     2
291
     0
 71
     1
176
     1
 72
     2
176
     1
 73
     2
176
     1
 90
        0
176
     1
 40
-0.6
176
     1
 41
-30.0
176
     1
 62
     5
 63
     7
421
 16777215
176
     1
 74
     2
176
     1
 91
        2
176
     1
 64
     7
176
     1
 65
   257
176
     1
 75
     2
176
     1
175
     1
176
     1
 42
40.0
176
     1
 92
        0
176
     1
 66
   257
176
     1
 43
1.0
176
     1
 76
     1
176
     1
 77
     6
176
     1
 78
     2
176
     1
 67
     7
176
     1
 79
     3
176
     1
170
     0
176
     1
171
     0
176
     1
290
     0
176
     1
 93
        1
176
     1
 44
0.0
176
     1
173
     0
176
     1
  0
VISUALSTYLE
  5
30
102
{ACAD_REACTORS
330
2A
102
}
330
2A
100
AcDbVisualStyle
  2
3dWireframe
 70
     5
177
     2
291
     0
 71
     0
176
     1
 72
     2
176
     1
 73
     0
176
     1
 90
        0
176
     1
 40
-0.6
176
     1
 41
-30.0
176
     1
 62
     5
 63
     7
421
 16777215
176
     1
 74
     1
176
     1
 91
        4
176
     1
 64
     7
176
     1
 65
   257
176
     1
 75
     1
176
     1
175
     1
176
     1
 42
1.0
176
     1
 92
        0
176
     1
 66
   257
176
     1
 43
1.0
176
     1
 76
     1
176
     1
 77
     6
176
     1
 78
     2
176
     1
 67
     7
176
     1
 79
     5
176
     1
170
     0
176
     1
171
     0
176
     1
290
     0
176
     1
 93
        1
176
     1
 44
0.0
176
     1
173
     0
176
     1
  0
VISUALSTYLE
  5
32
102
{ACAD_REACTORS
330
2A
102
}
330
2A
100
AcDbVisualStyle
  2
Basic
 70
     7
177
     2
291
     1
 71
     1
176
     1
 72
     0
176
     1
 73
     1
176
     1
 90
        0
176
     1
 40
-0.6
176
     1
 41
-30.0
176
     1
 62
     5
 63
     7
421
 16777215
176
     1
 74
     0
176
     1
 91
        4
176
     1
 64
     7
176
     1
 65
   257
176
     1
 75
     1
176
     1
175
     1
176
     1
 42
1.0
176
     1
 92
        8
176
     1
 66
     7
176
     1
 43
1.0
176
     1
 76
     1
176
     1
 77
     6
176
     1
 78
     2
176
     1
 67
     7
176
     1
 79
     5
176
     1
170
     0
176
     1
171
     0
176
     1
290
     0
176
     1
 93
        1
176
     1
 44
0.0
176
     1
173
     0
176
     1
  0
VISUALSTYLE
  5
36
102
{ACAD_REACTORS
330
2A
102
}
330
2A
100
AcDbVisualStyle
  2
Brighten
 70
    12
177
     2
291
     1
 71
     2
176
     1
 72
     2
176
     1
 73
     0
176
     1
 90
        0
176
     1
 40
-0.6
176
     1
 41
-30.0
176
     1
 62
     5
 63
     7
421
 16777215
176
     1
 74
     1
176
     1
 91
        4
176
     1
 64
     7
176
     1
 65
   257
176
     1
 75
     1
176
     1
175
     1
176
     1
 42
1.0
176
     1
 92
        8
176
     1
 66
     7
176
     1
 43
1.0
176
     1
 76
     1
176
     1
 77
     6
176
     1
 78
     2
176
     1
 67
     7
176
     1
 79
     5
176
     1
170
     0
176
     1
171
     0
176
     1
290
     0
176
     1
 93
        1
176
     1
 44
50.0
176
     1
173
     0
176
     1
  0
VISUALSTYLE
  5
3A
102
{ACAD_REACTORS
330
2A
102
}
330
2A
100
AcDbVisualStyle
  2
ColorChange
 70
    16
177
     2
291
     1
 71
     2
176
     1
 72
     2
176
     1
 73
     3
176
     1
 90
        0
176
     1
 40
-0.6
176
     1
 41
-30.0
176
     1
 62
     5
 63
     8
421
  8421504
176
     1
 74
     1
176
     1
 91
        4
176
     1
 64
     7
176
     1
 65
   257
176
     1
 75
     1
176
     1
175
     1
176
     1
 42
1.0
176
     1
 92
        8
176
     1
 66
     8
424
  8421504
176
     1
 43
1.0
176
     1
 76
     1
176
     1
 77
     6
176
     1
 78
     2
176
     1
 67
     7
176
     1
 79
     5
176
     1
170
     0
176
     1
171
     0
176
     1
290
     0
176
     1
 93
        1
176
     1
 44
0.0
176
     1
173
     0
176
     1
  0
VISUALSTYLE
  5
34
102
{ACAD_REACTORS
330
2A
102
}
330
2A
100
AcDbVisualStyle
  2
Conceptual
 70
     9
177
     2
291
     0
 71
     3
176
     1
 72
     2
176
     1
 73
     0
176
     1
 90
        0
176
     1
 40
-0.6
176
     1
 41
-30.0
176
     1
 62
     5
 63
     7
421
 16777215
176
     1
 74
     2
176
     1
 91
        2
176
     1
 64
     7
176
     1
 65
   257
176
     1
 75
     1
176
     1
175
     1
176
     1
 42
40.0
176
     1
 92
        8
176
     1
 66
     7
176
     1
 43
1.0
176
     1
 76
     1
176
     1
 77
     6
176
     1
 78
     2
176
     1
 67
     7
176
     1
 79
     3
176
     1
170
     0
176
     1
171
     0
176
     1
290
     0
176
     1
 93
        1
176
     1
 44
0.0
176
     1
173
     0
176
     1
  0
VISUALSTYLE
  5
35
102
{ACAD_REACTORS
330
2A
102
}
330
2A
100
AcDbVisualStyle
  2
Dim
 70
    11
177
     2
291
     1
 71
     2
176
     1
 72
     2
176
     1
 73
     0
176
     1
 90
        0
176
     1
 40
-0.6
176
     1
 41
-30.0
176
     1
 62
     5
 63
     7
421
 16777215
176
     1
 74
     1
176
     1
 91
        4
176
     1
 64
     7
176
     1
 65
   257
176
     1
 75
     1
176
     1
175
     1
176
     1
 42
1.0
176
     1
 92
        8
176
     1
 66
     7
176
     1
 43
1.0
176
     1
 76
     1
176
     1
 77
     6
176
     1
 78
     2
176
     1
 67
     7
176
     1
 79
     5
176
     1
170
     0
176
     1
171
     0
176
     1
290
     0
176
     1
 93
        1
176
     1
 44
-50.0
176
     1
173
     0
176
     1
  0
VISUALSTYLE
  5
39
102
{ACAD_REACTORS
330
2A
102
}
330
2A
100
AcDbVisualStyle
  2
Facepattern
 70
    15
177
     2
291
     1
 71
     2
176
     1
 72
     2
176
     1
 73
     0
176
     1
 90
        0
176
     1
 40
-0.6
176
     1
 41
-30.0
176
     1
 62
     5
 63
     7
421
 16777215
176
     1
 74
     1
176
     1
 91
        4
176
     1
 64
     7
176
     1
 65
   257
176
     1
 75
     1
176
     1
175
     1
176
     1
 42
1.0
176
     1
 92
        8
176
     1
 66
     7
176
     1
 43
1.0
176
     1
 76
     1
176
     1
 77
     6
176
     1
 78
     2
176
     1
 67
     7
176
     1
 79
     5
176
     1
170
     0
176
     1
171
     0
176
     1
290
     0
176
     1
 93
        1
176
     1
 44
0.0
176
     1
173
     0
176
     1
  0
VISUALSTYLE
  5
2B
102
{ACAD_REACTORS
330
2A
102
}
330
2A
100
AcDbVisualStyle
  2
Flat
 70
     0
177
     2
291
     1
 71
     2
176
     1
 72
     1
176
     1
 73
     1
176
     1
 90
        2
176
     1
 40
-0.6
176
     1
 41
30.0
176
     1
 62
     5
 63
     7
421
 16777215
176
     1
 74
     0
176
     1
 91
        4
176
     1
 64
     7
176
     1
 65
   257
176
     1
 75
     1
176
     1
175
     1
176
     1
 42
1.0
176
     1
 92
        8
176
     1
 66
     7
176
     1
 43
1.0
176
     1
 76
     1
176
     1
 77
     6
176
     1
 78
     2
176
     1
 67
     7
176
     1
 79
     5
176
     1
170
     0
176
     1
171
     0
176
     1
290
     0
176
     1
 93
       13
176
     1
 44
0.0
176
     1
173
     0
176
     1
  0
VISUALSTYLE
  5
2C
102
{ACAD_REACTORS
330
2A
102
}
330
2A
100
AcDbVisualStyle
  2
FlatWithEdges
 70
     1
177
     2
291
     1
 71
     2
176
     1
 72
     1
176
     1
 73
     1
176
     1
 90
        2
176
     1
 40
-0.6
176
     1
 41
30.0
176
     1
 62
     5
 63
     7
421
 16777215
176
     1
 74
     1
176
     1
 91
        4
176
     1
 64
     7
176
     1
 65
   257
176
     1
 75
     1
176
     1
175
     1
176
     1
 42
1.0
176
     1
 92
        0
176
     1
 66
   257
176
     1
 43
1.0
176
     1
 76
     1
176
     1
 77
     6
176
     1
 78
     2
176
     1
 67
     7
176
     1
 79
     5
176
     1
170
     0
176
     1
171
     0
176
     1
290
     0
176
     1
 93
       13
176
     1
 44
0.0
176
     1
173
     0
176
     1
  0
VISUALSTYLE
  5
2D
102
{ACAD_REACTORS
330
2A
102
}
330
2A
100
AcDbVisualStyle
  2
Gouraud
 70
     2
177
     2
291
     1
 71
     2
176
     1
 72
     2
176
     1
 73
     1
176
     1
 90
        2
176
     1
 40
-0.6
176
     1
 41
30.0
176
     1
 62
     5
 63
     7
421
 16777215
176
     1
 74
     0
176
     1
 91
        4
176
     1
 64
     7
176
     1
 65
   257
176
     1
 75
     1
176
     1
175
     1
176
     1
 42
1.0
176
     1
 92
        0
176
     1
 66
     7
176
     1
 43
1.0
176
     1
 76
     1
176
     1
 77
     6
176
     1
 78
     2
176
     1
 67
     7
176
     1
 79
     5
176
     1
170
     0
176
     1
171
     0
176
     1
290
     0
176
     1
 93
       13
176
     1
 44
0.0
176
     1
173
     0
176
     1
  0
VISUALSTYLE
  5
2E
102
{ACAD_REACTORS
330
2A
102
}
330
2A
100
AcDbVisualStyle
  2
GouraudWithEdges
 70
     3
177
     2
291
     1
 71
     2
176
     1
 72
     2
176
     1
 73
     1
176
     1
 90
        2
176
     1
 40
-0.6
176
     1
 41
30.0
176
     1
 62
     5
 63
     7
421
 16777215
176
     1
 74
     1
176
     1
 91
        4
176
     1
 64
     7
176
     1
 65
   257
176
     1
 75
     1
176
     1
175
     1
176
     1
 42
1.0
176
     1
 92
        0
176
     1
 66
   257
176
     1
 43
1.0
176
     1
 76
     1
176
     1
 77
     6
176
     1
 78
     2
176
     1
 67
     7
176
     1
 79
     5
176
     1
170
     0
176
     1
171
     0
176
     1
290
     0
176
     1
 93
       13
176
     1
 44
0.0
176
     1
173
     0
176
     1
  0
VISUALSTYLE
  5
38
102
{ACAD_REACTORS
330
2A
102
}
330
2A
100
AcDbVisualStyle
  2
Linepattern
 70
    14
177
     2
291
     1
 71
     2
176
     1
 72
     2
176
     1
 73
     0
176
     1
 90
        0
176
     1
 40
-0.6
176
     1
 41
-30.0
176
     1
 62
     5
 63
     7
421
 16777215
176
     1
 74
     1
176
     1
 91
        4
176
     1
 64
     7
176
     1
 65
   257
176
     1
 75
     7
176
     1
175
     7
176
     1
 42
1.0
176
     1
 92
        8
176
     1
 66
     7
176
     1
 43
1.0
176
     1
 76
     1
176
     1
 77
     6
176
     1
 78
     2
176
     1
 67
     7
176
     1
 79
     5
176
     1
170
     0
176
     1
171
     0
176
     1
290
     0
176
     1
 93
        1
176
     1
 44
0.0
176
     1
173
     0
176
     1
  0
VISUALSTYLE
  5
33
102
{ACAD_REACTORS
330
2A
102
}
330
2A
100
AcDbVisualStyle
  2
Realistic
 70
     8
177
     2
291
     0
 71
     2
176
     1
 72
     2
176
     1
 73
     0
176
     1
 90
        0
176
     1
 40
-0.6
176
     1
 41
-30.0
176
     1
 62
     5
 63
     7
421
 16777215
176
     1
 74
     1
176
     1
 91
        0
176
     1
 64
     7
176
     1
 65
   257
176
     1
 75
     1
176
     1
175
     1
176
     1
 42
1.0
176
     1
 92
        8
176
     1
 66
     8
424
  7895160
176
     1
 43
1.0
176
     1
 76
     1
176
     1
 77
     6
176
     1
 78
     2
176
     1
 67
     7
176
     1
 79
     5
176
     1
170
     0
176
     1
171
     0
176
     1
290
     0
176
     1
 93
       13
176
     1
 44
0.0
176
     1
173
     0
176
     1
  0
VISUALSTYLE
  5
37
102
{ACAD_REACTORS
330
2A
102
}
330
2A
100
AcDbVisualStyle
  2
Thicken
 70
    13
177
     2
291
     1
 71
     2
176
     1
 72
     2
176
     1
 73
     0
176
     1
 90
        0
176
     1
 40
-0.6
176
     1
 41
-30.0
176
     1
 62
     5
 63
     7
421
 16777215
176
     1
 74
     1
176
     1
 91
        4
176
     1
 64
     7
176
     1
 65
   257
176
     1
 75
     1
176
     1
175
     1
176
     1
 42
1.0
176
     1
 92
       12
176
     1
 66
     7
176
     1
 43
1.0
176
     1
 76
     1
176
     1
 77
     6
176
     1
 78
     2
176
     1
 67
     7
176
     1
 79
     5
176
     1
170
     0
176
     1
171
     0
176
     1
290
     0
176
     1
 93
        1
176
     1
 44
0.0
176
     1
173
     0
176
     1
  0
ENDSEC
  0
EOF
