  0
SECTION
  2
HEADER
  9
$ACADVER
  1
AC1024
  9
$ACADMAINTVER
 70
     6
  9
$DWGCODEPAGE
  3
UNDEFINED
  9
$INSBASE
 10
0.0
 20
0.0
 30
0.0
  9
$EXTMIN
 10
1.000000000000000E+20
 20
1.000000000000000E+20
 30
1.000000000000000E+20
  9
$EXTMAX
 10
-1.000000000000000E+20
 20
-1.000000000000000E+20
 30
-1.000000000000000E+20
  9
$LIMMIN
 10
0.0
 20
0.0
  9
$LIMMAX
 10
12.0
 20
9.0
  9
$ORTHOMODE
 70
     0
  9
$REGENMODE
 70
     1
  9
$FILLMODE
 70
     1
  9
$QTEXTMODE
 70
     0
  9
$MIRRTEXT
 70
     1
  9
$LTSCALE
 40
1.0
  9
$ATTMODE
 70
     1
  9
$TEXTSIZE
 40
0.2
  9
$TRACEWID
 40
0.05
  9
$TEXTSTYLE
  7
Standard
  9
$CLAYER
  8
0
  9
$CELTYPE
  6
ByLayer
  9
$CECOLOR
 62
   256
  9
$CELTSCALE
 40
1.0
  9
$DISPSILH
 70
     0
  9
$DIMSCALE
 40
1.0
  9
$DIMASZ
 40
0.18
  9
$DIMEXO
 40
0.0625
  9
$DIMDLI
 40
0.38
  9
$DIMRND
 40
0.0
  9
$DIMDLE
 40
0.0
  9
$DIMEXE
 40
0.18
  9
$DIMTP
 40
0.0
  9
$DIMTM
 40
0.0
  9
$DIMTXT
 40
0.18
  9
$DIMCEN
 40
0.09
  9
$DIMTSZ
 40
0.0
  9
$DIMTOL
 70
     0
  9
$DIMLIM
 70
     0
  9
$DIMTIH
 70
     1
  9
$DIMTOH
 70
     1
  9
$DIMSE1
 70
     0
  9
$DIMSE2
 70
     0
  9
$DIMTAD
 70
     0
  9
$DIMZIN
 70
     0
  9
$DIMBLK
  1

  9
$DIMASO
 70
     1
  9
$DIMSHO
 70
     1
  9
$DIMPOST
  1

  9
$DIMAPOST
  1

  9
$DIMALT
 70
     0
  9
$DIMALTD
 70
     2
  9
$DIMALTF
 40
25.4
  9
$DIMLFAC
 40
1.0
  9
$DIMTOFL
 70
     0
  9
$DIMTVP
 40
0.0
  9
$DIMTIX
 70
     0
  9
$DIMSOXD
 70
     0
  9
$DIMSAH
 70
     0
  9
$DIMBLK1
  1

  9
$DIMBLK2
  1

  9
$DIMSTYLE
  2
Standard
  9
$DIMCLRD
 70
     0
  9
$DIMCLRE
 70
     0
  9
$DIMCLRT
 70
     0
  9
$DIMTFAC
 40
1.0
  9
$DIMGAP
 40
0.09
  9
$DIMJUST
 70
     0
  9
$DIMSD1
 70
     0
  9
$DIMSD2
 70
     0
  9
$DIMTOLJ
 70
     1
  9
$DIMTZIN
 70
     0
  9
$DIMALTZ
 70
     0
  9
$DIMALTTZ
 70
     0
  9
$DIMUPT
 70
     0
  9
$DIMDEC
 70
     4
  9
$DIMTDEC
 70
     4
  9
$DIMALTU
 70
     2
  9
$DIMALTTD
 70
     2
  9
$DIMTXSTY
  7
Standard
  9
$DIMAUNIT
 70
     0
  9
$DIMADEC
 70
     0
  9
$DIMALTRND
 40
0.0
  9
$DIMAZIN
 70
     0
  9
$DIMDSEP
 70
    46
  9
$DIMATFIT
 70
     3
  9
$DIMFRAC
 70
     0
  9
$DIMLDRBLK
  1

  9
$DIMLUNIT
 70
     2
  9
$DIMLWD
 70
    -2
  9
$DIMLWE
 70
    -2
  9
$DIMTMOVE
 70
     0
  9
$DIMFXL
 40
1.0
  9
$DIMFXLON
 70
     0
  9
$DIMJOGANG
 40
0.7853981633974483
  9
$DIMTFILL
 70
     0
  9
$DIMTFILLCLR
 70
     0
  9
$DIMARCSYM
 70
     0
  9
$DIMLTYPE
  6

  9
$DIMLTEX1
  6

  9
$DIMLTEX2
  6

  9
$DIMTXTDIRECTION
 70
     0
  9
$LUNITS
 70
     2
  9
$LUPREC
 70
     4
  9
$SKETCHINC
 40
0.1
  9
$FILLETRAD
 40
0.5
  9
$AUNITS
 70
     0
  9
$AUPREC
 70
     0
  9
$MENU
  1
.
  9
$ELEVATION
 40
0.0
  9
$PELEVATION
 40
0.0
  9
$THICKNESS
 40
0.0
  9
$LIMCHECK
 70
     0
  9
$CHAMFERA
 40
0.5
  9
$CHAMFERB
 40
0.5
  9
$CHAMFERC
 40
1.0
  9
$CHAMFERD
 40
0.0
  9
$SKPOLY
 70
     0
  9
$TDCREATE
 40
2457917.594895822
  9
$TDUCREATE
 40
2457917.219895833
  9
$TDUPDATE
 40
2457917.594895822
  9
$TDUUPDATE
 40
2457917.219895833
  9
$TDINDWG
 40
0.0000000116
  9
$TDUSRTIMER
 40
0.0000000116
  9
$USRTIMER
 70
     1
  9
$ANGBASE
 50
0.0
  9
$ANGDIR
 70
     0
  9
$PDMODE
 70
     0
  9
$PDSIZE
 40
0.0
  9
$PLINEWID
 40
0.0
  9
$SPLFRAME
 70
     0
  9
$SPLINETYPE
 70
     6
  9
$SPLINESEGS
 70
     8
  9
$HANDSEED
  5
15A
  9
$SURFTAB1
 70
     6
  9
$SURFTAB2
 70
     6
  9
$SURFTYPE
 70
     6
  9
$SURFU
 70
     6
  9
$SURFV
 70
     6
  9
$UCSBASE
  2

  9
$UCSNAME
  2

  9
$UCSORG
 10
0.0
 20
0.0
 30
0.0
  9
$UCSXDIR
 10
1.0
 20
0.0
 30
0.0
  9
$UCSYDIR
 10
0.0
 20
1.0
 30
0.0
  9
$UCSORTHOREF
  2

  9
$UCSORTHOVIEW
 70
     0
  9
$UCSORGTOP
 10
0.0
 20
0.0
 30
0.0
  9
$UCSORGBOTTOM
 10
0.0
 20
0.0
 30
0.0
  9
$UCSORGLEFT
 10
0.0
 20
0.0
 30
0.0
  9
$UCSORGRIGHT
 10
0.0
 20
0.0
 30
0.0
  9
$UCSORGFRONT
 10
0.0
 20
0.0
 30
0.0
  9
$UCSORGBACK
 10
0.0
 20
0.0
 30
0.0
  9
$PUCSBASE
  2

  9
$PUCSNAME
  2

  9
$PUCSORG
 10
0.0
 20
0.0
 30
0.0
  9
$PUCSXDIR
 10
1.0
 20
0.0
 30
0.0
  9
$PUCSYDIR
 10
0.0
 20
1.0
 30
0.0
  9
$PUCSORTHOREF
  2

  9
$PUCSORTHOVIEW
 70
     0
  9
$PUCSORGTOP
 10
0.0
 20
0.0
 30
0.0
  9
$PUCSORGBOTTOM
 10
0.0
 20
0.0
 30
0.0
  9
$PUCSORGLEFT
 10
0.0
 20
0.0
 30
0.0
  9
$PUCSORGRIGHT
 10
0.0
 20
0.0
 30
0.0
  9
$PUCSORGFRONT
 10
0.0
 20
0.0
 30
0.0
  9
$PUCSORGBACK
 10
0.0
 20
0.0
 30
0.0
  9
$USERI1
 70
     0
  9
$USERI2
 70
     0
  9
$USERI3
 70
     0
  9
$USERI4
 70
     0
  9
$USERI5
 70
     0
  9
$USERR1
 40
0.0
  9
$USERR2
 40
0.0
  9
$USERR3
 40
0.0
  9
$USERR4
 40
0.0
  9
$USERR5
 40
0.0
  9
$WORLDVIEW
 70
     1
  9
$SHADEDGE
 70
     3
  9
$SHADEDIF
 70
    70
  9
$TILEMODE
 70
     1
  9
$MAXACTVP
 70
    64
  9
$PINSBASE
 10
0.0
 20
0.0
 30
0.0
  9
$PLIMCHECK
 70
     0
  9
$PEXTMIN
 10
1.000000000000000E+20
 20
1.000000000000000E+20
 30
1.000000000000000E+20
  9
$PEXTMAX
 10
-1.000000000000000E+20
 20
-1.000000000000000E+20
 30
-1.000000000000000E+20
  9
$PLIMMIN
 10
0.0
 20
0.0
  9
$PLIMMAX
 10
12.0
 20
9.0
  9
$UNITMODE
 70
     0
  9
$VISRETAIN
 70
     1
  9
$PLINEGEN
 70
     0
  9
$PSLTSCALE
 70
     1
  9
$TREEDEPTH
 70
  3020
  9
$CMLSTYLE
  2
Standard
  9
$CMLJUST
 70
     0
  9
$CMLSCALE
 40
1.0
  9
$PROXYGRAPHICS
 70
     1
  9
$MEASUREMENT
 70
     0
  9
$CELWEIGHT
370
    -1
  9
$ENDCAPS
280
     0
  9
$JOINSTYLE
280
     0
  9
$LWDISPLAY
290
     1
  9
$INSUNITS
 70
     1
  9
$HYPERLINKBASE
  1

  9
$STYLESHEET
  1

  9
$XEDIT
290
     1
  9
$CEPSNTYPE
380
     0
  9
$PSTYLEMODE
290
     1
  9
$FINGERPRINTGUID
  2
{FE831CB9-4BA4-B0E7-27B4-73FD8E6BC037}
  9
$VERSIONGUID
  2
{FAEB1C32-E019-11D5-929B-00C0DF256EC4}
  9
$EXTNAMES
290
     1
  9
$PSVPSCALE
 40
0.0
  9
$OLESTARTUP
290
     0
  9
$SORTENTS
280
   127
  9
$INDEXCTL
280
     0
  9
$HIDETEXT
280
     1
  9
$XCLIPFRAME
280
     2
  9
$HALOGAP
280
     0
  9
$OBSCOLOR
 70
   257
  9
$OBSLTYPE
280
     0
  9
$INTERSECTIONDISPLAY
280
     0
  9
$INTERSECTIONCOLOR
 70
   257
  9
$DIMASSOC
280
     2
  9
$PROJECTNAME
  1

  9
$CAMERADISPLAY
290
     0
  9
$LENSLENGTH
 40
50.0
  9
$CAMERAHEIGHT
 40
0.0
  9
$STEPSPERSEC
 40
2.0
  9
$STEPSIZE
 40
6.0
  9
$3DDWFPREC
 40
2.0
  9
$PSOLWIDTH
 40
0.25
  9
$PSOLHEIGHT
 40
4.0
  9
$LOFTANG1
 40
1.570796326794897
  9
$LOFTANG2
 40
1.570796326794897
  9
$LOFTMAG1
 40
0.0
  9
$LOFTMAG2
 40
0.0
  9
$LOFTPARAM
 70
     7
  9
$LOFTNORMALS
280
     1
  9
$LATITUDE
 40
37.795
  9
$LONGITUDE
 40
-122.394
  9
$NORTHDIRECTION
 40
0.0
  9
$TIMEZONE
 70
 -8000
  9
$LIGHTGLYPHDISPLAY
280
     1
  9
$TILEMODELIGHTSYNCH
280
     1
  9
$CMATERIAL
347
3C
  9
$SOLIDHIST
280
     1
  9
$SHOWHIST
280
     1
  9
$DWFFRAME
280
     2
  9
$DGNFRAME
280
     2
  9
$REALWORLDSCALE
290
     1
  9
$INTERFERECOLOR
 62
   256
  9
$CSHADOW
280
     0
  9
$SHADOWPLANELOCATION
 40
0.0
  0
ENDSEC
  0
SECTION
  2
CLASSES
  0
CLASS
  1
ACDBDICTIONARYWDFLT
  2
AcDbDictionaryWithDefault
  3
ObjectDBX Classes
 90
        0
 91
        4
280
     0
281
     0
  0
CLASS
  1
VISUALSTYLE
  2
AcDbVisualStyle
  3
ObjectDBX Classes
 90
     4095
 91
        4
280
     0
281
     0
  0
CLASS
  1
MATERIAL
  2
AcDbMaterial
  3
ObjectDBX Classes
 90
     1153
 91
        4
280
     0
281
     0
  0
CLASS
  1
SUN
  2
AcDbSun
  3
SCENEOE
 90
     1024
 91
        4
280
     0
281
     0
  0
ENDSEC
  0
SECTION
  2
TABLES
  0
TABLE
  2
VPORT
  5
8
330
0
100
AcDbSymbolTable
 70
     1
  0
VPORT
  5
29
330
8
100
AcDbSymbolTableRecord
100
AcDbViewportTableRecord
  2
*Active
 70
     0
 10
0.0
 20
0.0
 11
1.0
 21
1.0
 12
0.0
 22
0.0
 13
0.0
 23
0.0
 14
0.5
 24
0.5
 15
0.5
 25
0.5
 16
0.0
 26
0.0
 36
1.0
 17
91.00082462281999
 27
-128.4993055234307
 37
0.0
 40
256.9986110468615
 41
0.7081814508812795
 42
50.0
 43
0.0
 44
0.0
 50
0.0
 51
0.0
 71
     0
 72
   100
 73
     1
 74
     3
 75
     0
 76
     0
 77
     0
 78
     0
281
     0
 65
     1
110
0.0
120
0.0
130
0.0
111
1.0
121
0.0
131
0.0
112
0.0
122
1.0
132
0.0
 79
     0
146
0.0
 60
     3
 61
     5
292
     1
282
     1
141
0.0
142
0.0
 63
   250
361
3F
  0
ENDTAB
  0
TABLE
  2
LTYPE
  5
5
330
0
100
AcDbSymbolTable
 70
     1
  0
LTYPE
  5
14
330
5
100
AcDbSymbolTableRecord
100
AcDbLinetypeTableRecord
  2
ByBlock
 70
     0
  3

 72
    65
 73
     0
 40
0.0
  0
LTYPE
  5
15
330
5
100
AcDbSymbolTableRecord
100
AcDbLinetypeTableRecord
  2
ByLayer
 70
     0
  3

 72
    65
 73
     0
 40
0.0
  0
LTYPE
  5
16
330
5
100
AcDbSymbolTableRecord
100
AcDbLinetypeTableRecord
  2
Continuous
 70
     0
  3
Solid line
 72
    65
 73
     0
 40
0.0
  0
ENDTAB
  0
TABLE
  2
LAYER
  5
2
330
0
100
AcDbSymbolTable
 70
     2
  0
LAYER
  5
10
330
2
100
AcDbSymbolTableRecord
100
AcDbLayerTableRecord
  2
0
 70
     0
 62
     7
  6
Continuous
370
    -3
390
F
347
3E
  0
LAYER
  5
40
330
2
100
AcDbSymbolTableRecord
100
AcDbLayerTableRecord
  2
_U+30EC_U+30A4_U+30E4_U+30FC 1
 70
     0
 62
     7
  6
Continuous
370
    -3
390
F
347
3E
  0
ENDTAB
  0
TABLE
  2
STYLE
  5
3
330
0
100
AcDbSymbolTable
 70
     1
  0
STYLE
  5
11
330
3
100
AcDbSymbolTableRecord
100
AcDbTextStyleTableRecord
  2
Standard
 70
     0
 40
0.0
 41
1.0
 50
0.0
 71
     0
 42
0.2
  3
txt
  4

  0
ENDTAB
  0
TABLE
  2
VIEW
  5
6
330
0
100
AcDbSymbolTable
 70
     0
  0
ENDTAB
  0
TABLE
  2
UCS
  5
7
330
0
100
AcDbSymbolTable
 70
     0
  0
ENDTAB
  0
TABLE
  2
APPID
  5
9
330
0
100
AcDbSymbolTable
 70
     1
  0
APPID
  5
12
330
9
100
AcDbSymbolTableRecord
100
AcDbRegAppTableRecord
  2
ACAD
 70
     0
  0
ENDTAB
  0
TABLE
  2
DIMSTYLE
  5
A
330
0
100
AcDbSymbolTable
 70
     1
100
AcDbDimStyleTable
  0
DIMSTYLE
105
27
330
A
100
AcDbSymbolTableRecord
100
AcDbDimStyleTableRecord
  2
Standard
 70
     0
178
     0
340
11
  0
ENDTAB
  0
TABLE
  2
BLOCK_RECORD
  5
1
330
0
100
AcDbSymbolTable
 70
     9
  0
BLOCK_RECORD
  5
1F
330
1
100
AcDbSymbolTableRecord
100
AcDbBlockTableRecord
  2
*Model_Space
340
22
 70
     0
280
     1
281
     0
  0
BLOCK_RECORD
  5
1B
330
1
100
AcDbSymbolTableRecord
100
AcDbBlockTableRecord
  2
*Paper_Space
340
1E
 70
     0
280
     1
281
     0
  0
BLOCK_RECORD
  5
23
330
1
100
AcDbSymbolTableRecord
100
AcDbBlockTableRecord
  2
*Paper_Space0
340
26
 70
     0
280
     1
281
     0
  0
BLOCK_RECORD
  5
A4
330
1
100
AcDbSymbolTableRecord
100
AcDbBlockTableRecord
  2
block 2
340
0
102
{BLKREFS
331
A5
102
}
 70
     0
280
     1
281
     0
  0
BLOCK_RECORD
  5
B6
330
1
100
AcDbSymbolTableRecord
100
AcDbBlockTableRecord
  2
block 3
340
0
102
{BLKREFS
331
B7
102
}
 70
     0
280
     1
281
     0
  0
BLOCK_RECORD
  5
CB
330
1
100
AcDbSymbolTableRecord
100
AcDbBlockTableRecord
  2
block 4
340
0
102
{BLKREFS
331
CC
102
}
 70
     0
280
     1
281
     0
  0
BLOCK_RECORD
  5
DC
330
1
100
AcDbSymbolTableRecord
100
AcDbBlockTableRecord
  2
block 5
340
0
102
{BLKREFS
331
DD
102
}
 70
     0
280
     1
281
     0
  0
BLOCK_RECORD
  5
F7
330
1
100
AcDbSymbolTableRecord
100
AcDbBlockTableRecord
  2
block 6
340
0
102
{BLKREFS
331
F8
102
}
 70
     0
280
     1
281
     0
  0
BLOCK_RECORD
  5
115
330
1
100
AcDbSymbolTableRecord
100
AcDbBlockTableRecord
  2
block 7
340
0
102
{BLKREFS
331
116
102
}
 70
     0
280
     1
281
     0
  0
BLOCK_RECORD
  5
12A
330
1
100
AcDbSymbolTableRecord
100
AcDbBlockTableRecord
  2
block 8
340
0
102
{BLKREFS
331
12B
102
}
 70
     0
280
     1
281
     0
  0
BLOCK_RECORD
  5
147
330
1
100
AcDbSymbolTableRecord
100
AcDbBlockTableRecord
  2
block 9
340
0
102
{BLKREFS
331
148
102
}
 70
     0
280
     1
281
     0
  0
ENDTAB
  0
ENDSEC
  0
SECTION
  2
BLOCKS
  0
BLOCK
  5
20
330
1F
100
AcDbEntity
  8
0
100
AcDbBlockBegin
  2
*Model_Space
 70
     0
 10
0.0
 20
0.0
 30
0.0
  3
*Model_Space
  1

  0
ENDBLK
  5
21
330
1F
100
AcDbEntity
  8
0
100
AcDbBlockEnd
  0
BLOCK
  5
1C
330
1B
100
AcDbEntity
 67
     1
  8
0
100
AcDbBlockBegin
  2
*Paper_Space
 70
     0
 10
0.0
 20
0.0
 30
0.0
  3
*Paper_Space
  1

  0
ENDBLK
  5
1D
330
1B
100
AcDbEntity
 67
     1
  8
0
100
AcDbBlockEnd
  0
BLOCK
  5
24
330
23
100
AcDbEntity
  8
0
100
AcDbBlockBegin
  2
*Paper_Space0
 70
     0
 10
0.0
 20
0.0
 30
0.0
  3
*Paper_Space0
  1

  0
ENDBLK
  5
25
330
23
100
AcDbEntity
  8
0
100
AcDbBlockEnd
  0
BLOCK
  5
A6
330
A4
100
AcDbEntity
  8
0
100
AcDbBlockBegin
  2
block 2
 70
     0
 10
0.0
 20
0.0
 30
0.0
  3
block 2
  1

  0
SPLINE
  5
A8
330
A4
100
AcDbEntity
  8
_U+30EC_U+30A4_U+30E4_U+30FC 1
370
     0
100
AcDbSpline
210
0.0
220
0.0
230
1.0
 70
    11
 71
     3
 72
    26
 73
    22
 74
     0
 42
0.0000000001
 43
0.0000000001
 12
1.0
 22
0.0
 32
0.0
 13
1.0
 23
0.0
 33
0.0
 40
0.0
 40
0.0
 40
0.0
 40
0.0
 40
1.0
 40
1.0
 40
1.0
 40
2.0
 40
2.0
 40
2.0
 40
3.0
 40
3.0
 40
3.0
 40
4.0
 40
4.0
 40
4.0
 40
5.0
 40
5.0
 40
5.0
 40
6.0
 40
6.0
 40
6.0
 40
7.0
 40
7.0
 40
7.0
 40
7.0
 10
75.31719426285473
 20
-122.977334224898
 30
0.0
 10
75.31719426285473
 20
-122.977334224898
 30
0.0
 10
75.31719426285473
 20
-121.8730088671012
 30
0.0
 10
75.31719426285473
 20
-121.8730088671012
 30
0.0
 10
75.31719426285473
 20
-121.8730088671012
 30
0.0
 10
74.9871541153678
 20
-121.8730088671012
 30
0.0
 10
74.9871541153678
 20
-121.8730088671012
 30
0.0
 10
74.9871541153678
 20
-121.8730088671012
 30
0.0
 10
74.9871541153678
 20
-121.7248697612355
 30
0.0
 10
74.9871541153678
 20
-121.7248697612355
 30
0.0
 10
75.31926132014588
 20
-121.7102281054231
 30
0.0
 10
75.36577010919676
 20
-121.5472750889708
 30
0.0
 10
75.39539793036991
 20
-121.4330701736348
 30
0.0
 10
75.39539793036991
 20
-121.4330701736348
 30
0.0
 10
75.54146997894449
 20
-121.4330701736348
 30
0.0
 10
75.54146997894449
 20
-121.4330701736348
 30
0.0
 10
75.54146997894449
 20
-121.4330701736348
 30
0.0
 10
75.54146997894449
 20
-122.977334224898
 30
0.0
 10
75.54146997894449
 20
-122.977334224898
 30
0.0
 10
75.54146997894449
 20
-122.977334224898
 30
0.0
 10
75.31719426285473
 20
-122.977334224898
 30
0.0
 10
75.31719426285473
 20
-122.977334224898
 30
0.0
  0
HATCH
  5
A9
330
A4
100
AcDbEntity
  8
_U+30EC_U+30A4_U+30E4_U+30FC 1
 62
   179
420
  2234388
100
AcDbHatch
 10
0.0
 20
0.0
 30
0.0
210
0.0
220
0.0
230
1.0
  2
SOLID
 70
     1
 71
     0
 91
        1
 92
        1
 93
        1
 72
     4
 94
        3
 73
     0
 74
     1
 95
       26
 96
       22
 40
0.0
 40
0.0
 40
0.0
 40
0.0
 40
1.0
 40
1.0
 40
1.0
 40
2.0
 40
2.0
 40
2.0
 40
3.0
 40
3.0
 40
3.0
 40
4.0
 40
4.0
 40
4.0
 40
5.0
 40
5.0
 40
5.0
 40
6.0
 40
6.0
 40
6.0
 40
7.0
 40
7.0
 40
7.0
 40
7.0
 10
75.31719426285473
 20
-122.977334224898
 10
75.31719426285473
 20
-122.977334224898
 10
75.31719426285473
 20
-121.8730088671012
 10
75.31719426285473
 20
-121.8730088671012
 10
75.31719426285473
 20
-121.8730088671012
 10
74.9871541153678
 20
-121.8730088671012
 10
74.9871541153678
 20
-121.8730088671012
 10
74.9871541153678
 20
-121.8730088671012
 10
74.9871541153678
 20
-121.7248697612355
 10
74.9871541153678
 20
-121.7248697612355
 10
75.31926132014588
 20
-121.7102281054231
 10
75.36577010919676
 20
-121.5472750889708
 10
75.39539793036991
 20
-121.4330701736348
 10
75.39539793036991
 20
-121.4330701736348
 10
75.54146997894449
 20
-121.4330701736348
 10
75.54146997894449
 20
-121.4330701736348
 10
75.54146997894449
 20
-121.4330701736348
 10
75.54146997894449
 20
-122.977334224898
 10
75.54146997894449
 20
-122.977334224898
 10
75.54146997894449
 20
-122.977334224898
 10
75.31719426285473
 20
-122.977334224898
 10
75.31719426285473
 20
-122.977334224898
 97
        0
 97
        0
 75
     2
 76
     1
 98
        0
  0
ENDBLK
  5
A7
330
A4
100
AcDbEntity
  8
0
100
AcDbBlockEnd
  0
BLOCK
  5
B8
330
B6
100
AcDbEntity
  8
0
100
AcDbBlockBegin
  2
block 3
 70
     0
 10
0.0
 20
0.0
 30
0.0
  3
block 3
  1

  0
SPLINE
  5
BA
330
B6
100
AcDbEntity
  8
_U+30EC_U+30A4_U+30E4_U+30FC 1
370
     0
100
AcDbSpline
210
0.0
220
0.0
230
1.0
 70
    11
 71
     3
 72
    44
 73
    40
 74
     0
 42
0.0000000001
 43
0.0000000001
 12
1.0
 22
0.0
 32
0.0
 13
1.0
 23
0.0
 33
0.0
 40
0.0
 40
0.0
 40
0.0
 40
0.0
 40
1.0
 40
1.0
 40
1.0
 40
2.0
 40
2.0
 40
2.0
 40
3.0
 40
3.0
 40
3.0
 40
4.0
 40
4.0
 40
4.0
 40
5.0
 40
5.0
 40
5.0
 40
6.0
 40
6.0
 40
6.0
 40
7.0
 40
7.0
 40
7.0
 40
8.0
 40
8.0
 40
8.0
 40
9.0
 40
9.0
 40
9.0
 40
10.0
 40
10.0
 40
10.0
 40
11.0
 40
11.0
 40
11.0
 40
12.0
 40
12.0
 40
12.0
 40
13.0
 40
13.0
 40
13.0
 40
13.0
 10
96.29214136047558
 20
-108.8955064289393
 30
0.0
 10
96.07441132580779
 20
-109.0541530760351
 30
0.0
 10
95.98139374770605
 20
-109.1282226289679
 30
0.0
 10
95.93247339181549
 20
-109.2720553654771
 30
0.0
 10
95.93247339181549
 20
-109.2720553654771
 30
0.0
 10
96.71106497148196
 20
-109.2720553654771
 30
0.0
 10
96.71106497148196
 20
-109.2720553654771
 30
0.0
 10
96.71106497148196
 20
-109.2720553654771
 30
0.0
 10
96.71106497148196
 20
-109.4772108016238
 30
0.0
 10
96.71106497148196
 20
-109.4772108016238
 30
0.0
 10
96.71106497148196
 20
-109.4772108016238
 30
0.0
 10
95.6830484786834
 20
-109.4772108016238
 30
0.0
 10
95.6830484786834
 20
-109.4772108016238
 30
0.0
 10
95.71474335714771
 20
-109.1196098902548
 30
0.0
 10
95.78020017136745
 20
-109.0414062227397
 30
0.0
 10
96.16536184661838
 20
-108.743060953717
 30
0.0
 10
96.42133244117245
 20
-108.5442789442181
 30
0.0
 10
96.4867892553922
 20
-108.4765828179329
 30
0.0
 10
96.4867892553922
 20
-108.3391235080715
 30
0.0
 10
96.4867892553922
 20
-108.2206122233789
 30
0.0
 10
96.41478675975047
 20
-108.0895263401651
 30
0.0
 10
96.21807180754271
 20
-108.0895263401651
 30
0.0
 10
95.95796709840634
 20
-108.0895263401651
 30
0.0
 10
95.94969886924174
 20
-108.3200032281283
 30
0.0
 10
95.94522024511092
 20
-108.4364474555298
 30
0.0
 10
95.94522024511092
 20
-108.4364474555298
 30
0.0
 10
95.72094452902115
 20
-108.4364474555298
 30
0.0
 10
95.72094452902115
 20
-108.4364474555298
 30
0.0
 10
95.72955726773428
 20
-108.3094956868983
 30
0.0
 10
95.74023706373856
 20
-108.1973578288534
 30
0.0
 10
95.82050778854487
 20
-108.0788465441609
 30
0.0
 10
95.93040633452435
 20
-107.9181328397739
 30
0.0
 10
96.11678600027636
 20
-107.8841986492442
 30
0.0
 10
96.23288571812928
 20
-107.8841986492442
 30
0.0
 10
96.51021590469189
 20
-107.8841986492442
 30
0.0
 10
96.71761065290393
 20
-108.0683390029308
 30
0.0
 10
96.71761065290393
 20
-108.3411905653626
 30
0.0
 10
96.71761065290393
 20
-108.5696003960347
 30
0.0
 10
96.60116642550248
 20
-108.6691636555584
 30
0.0
 10
96.29214136047558
 20
-108.8955064289393
 30
0.0
  0
HATCH
  5
BB
330
B6
100
AcDbEntity
  8
_U+30EC_U+30A4_U+30E4_U+30FC 1
 62
   179
420
  2234388
100
AcDbHatch
 10
0.0
 20
0.0
 30
0.0
210
0.0
220
0.0
230
1.0
  2
SOLID
 70
     1
 71
     0
 91
        1
 92
        1
 93
        1
 72
     4
 94
        3
 73
     0
 74
     1
 95
       44
 96
       40
 40
0.0
 40
0.0
 40
0.0
 40
0.0
 40
1.0
 40
1.0
 40
1.0
 40
2.0
 40
2.0
 40
2.0
 40
3.0
 40
3.0
 40
3.0
 40
4.0
 40
4.0
 40
4.0
 40
5.0
 40
5.0
 40
5.0
 40
6.0
 40
6.0
 40
6.0
 40
7.0
 40
7.0
 40
7.0
 40
8.0
 40
8.0
 40
8.0
 40
9.0
 40
9.0
 40
9.0
 40
10.0
 40
10.0
 40
10.0
 40
11.0
 40
11.0
 40
11.0
 40
12.0
 40
12.0
 40
12.0
 40
13.0
 40
13.0
 40
13.0
 40
13.0
 10
96.29214136047558
 20
-108.8955064289393
 10
96.07441132580779
 20
-109.0541530760351
 10
95.98139374770605
 20
-109.1282226289679
 10
95.93247339181549
 20
-109.2720553654771
 10
95.93247339181549
 20
-109.2720553654771
 10
96.71106497148196
 20
-109.2720553654771
 10
96.71106497148196
 20
-109.2720553654771
 10
96.71106497148196
 20
-109.2720553654771
 10
96.71106497148196
 20
-109.4772108016238
 10
96.71106497148196
 20
-109.4772108016238
 10
96.71106497148196
 20
-109.4772108016238
 10
95.6830484786834
 20
-109.4772108016238
 10
95.6830484786834
 20
-109.4772108016238
 10
95.71474335714771
 20
-109.1196098902548
 10
95.78020017136745
 20
-109.0414062227397
 10
96.16536184661838
 20
-108.743060953717
 10
96.42133244117245
 20
-108.5442789442181
 10
96.4867892553922
 20
-108.4765828179329
 10
96.4867892553922
 20
-108.3391235080715
 10
96.4867892553922
 20
-108.2206122233789
 10
96.41478675975047
 20
-108.0895263401651
 10
96.21807180754271
 20
-108.0895263401651
 10
95.95796709840634
 20
-108.0895263401651
 10
95.94969886924174
 20
-108.3200032281283
 10
95.94522024511092
 20
-108.4364474555298
 10
95.94522024511092
 20
-108.4364474555298
 10
95.72094452902115
 20
-108.4364474555298
 10
95.72094452902115
 20
-108.4364474555298
 10
95.72955726773428
 20
-108.3094956868983
 10
95.74023706373856
 20
-108.1973578288534
 10
95.82050778854487
 20
-108.0788465441609
 10
95.93040633452435
 20
-107.9181328397739
 10
96.11678600027636
 20
-107.8841986492442
 10
96.23288571812928
 20
-107.8841986492442
 10
96.51021590469189
 20
-107.8841986492442
 10
96.71761065290393
 20
-108.0683390029308
 10
96.71761065290393
 20
-108.3411905653626
 10
96.71761065290393
 20
-108.5696003960347
 10
96.60116642550248
 20
-108.6691636555584
 10
96.29214136047558
 20
-108.8955064289393
 97
        0
 97
        0
 75
     2
 76
     1
 98
        0
  0
SPLINE
  5
BC
330
B6
100
AcDbEntity
  8
_U+30EC_U+30A4_U+30E4_U+30FC 1
370
     0
100
AcDbSpline
210
0.0
220
0.0
230
1.0
 70
    11
 71
     3
 72
    29
 73
    25
 74
     0
 42
0.0000000001
 43
0.0000000001
 12
1.0
 22
0.0
 32
0.0
 13
1.0
 23
0.0
 33
0.0
 40
0.0
 40
0.0
 40
0.0
 40
0.0
 40
1.0
 40
1.0
 40
1.0
 40
2.0
 40
2.0
 40
2.0
 40
3.0
 40
3.0
 40
3.0
 40
4.0
 40
4.0
 40
4.0
 40
5.0
 40
5.0
 40
5.0
 40
6.0
 40
6.0
 40
6.0
 40
7.0
 40
7.0
 40
7.0
 40
8.0
 40
8.0
 40
8.0
 40
8.0
 10
97.77387692868153
 20
-109.2994438745849
 30
0.0
 10
97.66570093044469
 20
-109.5089056800881
 30
0.0
 10
97.49241262753662
 20
-109.5280259600312
 30
0.0
 10
97.37596840013518
 20
-109.5280259600312
 30
0.0
 10
97.21508244097402
 20
-109.5280259600312
 30
0.0
 10
97.07348901653025
 20
-109.4815171709803
 30
0.0
 10
96.97840438113735
 20
-109.2994438745849
 30
0.0
 10
96.87470700703133
 20
-109.1047959796683
 30
0.0
 10
96.85575898186245
 20
-108.8679456650573
 30
0.0
 10
96.85575898186245
 20
-108.704992648605
 30
0.0
 10
96.85575898186245
 20
-108.5611599120958
 30
0.0
 10
96.87263994974018
 20
-108.3094956868983
 30
0.0
 10
96.97840438113735
 20
-108.1105414226251
 30
0.0
 10
97.08623586982567
 20
-107.9074530437697
 30
0.0
 10
97.24712182898683
 20
-107.8841986492442
 30
0.0
 10
97.37596840013518
 20
-107.8841986492442
 30
0.0
 10
97.5347873020052
 20
-107.8841986492442
 30
0.0
 10
97.67844778374011
 20
-107.928640381004
 30
0.0
 10
97.77387692868153
 20
-108.1105414226251
 30
0.0
 10
97.87309567865672
 20
-108.3031222602506
 30
0.0
 10
97.89652232795643
 20
-108.5315320909227
 30
0.0
 10
97.89652232795643
 20
-108.704992648605
 30
0.0
 10
97.89652232795643
 20
-108.8763861489962
 30
0.0
 10
97.87516273594788
 20
-109.1070352917337
 30
0.0
 10
97.77387692868153
 20
-109.2994438745849
 30
0.0
  0
SPLINE
  5
BD
330
B6
100
AcDbEntity
  8
_U+30EC_U+30A4_U+30E4_U+30FC 1
370
     0
100
AcDbSpline
210
0.0
220
0.0
230
1.0
 70
    11
 71
     3
 72
    17
 73
    13
 74
     0
 42
0.0000000001
 43
0.0000000001
 12
1.0
 22
0.0
 32
0.0
 13
1.0
 23
0.0
 33
0.0
 40
0.0
 40
0.0
 40
0.0
 40
0.0
 40
1.0
 40
1.0
 40
1.0
 40
2.0
 40
2.0
 40
2.0
 40
3.0
 40
3.0
 40
3.0
 40
4.0
 40
4.0
 40
4.0
 40
4.0
 10
97.37596840013518
 20
-108.0767794868697
 30
0.0
 10
97.12654348700309
 20
-108.0767794868697
 30
0.0
 10
97.07969018840369
 20
-108.3603108453058
 30
0.0
 10
97.07969018840369
 20
-108.704992648605
 30
0.0
 10
97.07969018840369
 20
-109.0245252548619
 30
0.0
 10
97.11586369099882
 20
-109.3333780651146
 30
0.0
 10
97.37596840013518
 20
-109.3333780651146
 30
0.0
 10
97.62367076552464
 20
-109.3333780651146
 30
0.0
 10
97.67224661186667
 20
-109.0519137639697
 30
0.0
 10
97.67224661186667
 20
-108.704992648605
 30
0.0
 10
97.67224661186667
 20
-108.3856322971223
 30
0.0
 10
97.63400605198039
 20
-108.0767794868697
 30
0.0
 10
97.37596840013518
 20
-108.0767794868697
 30
0.0
  0
HATCH
  5
BE
330
B6
100
AcDbEntity
  8
_U+30EC_U+30A4_U+30E4_U+30FC 1
 62
   179
420
  2234388
100
AcDbHatch
 10
0.0
 20
0.0
 30
0.0
210
0.0
220
0.0
230
1.0
  2
SOLID
 70
     1
 71
     0
 91
        2
 92
        1
 93
        1
 72
     4
 94
        3
 73
     0
 74
     1
 95
       29
 96
       25
 40
0.0
 40
0.0
 40
0.0
 40
0.0
 40
1.0
 40
1.0
 40
1.0
 40
2.0
 40
2.0
 40
2.0
 40
3.0
 40
3.0
 40
3.0
 40
4.0
 40
4.0
 40
4.0
 40
5.0
 40
5.0
 40
5.0
 40
6.0
 40
6.0
 40
6.0
 40
7.0
 40
7.0
 40
7.0
 40
8.0
 40
8.0
 40
8.0
 40
8.0
 10
97.77387692868153
 20
-109.2994438745849
 10
97.66570093044469
 20
-109.5089056800881
 10
97.49241262753662
 20
-109.5280259600312
 10
97.37596840013518
 20
-109.5280259600312
 10
97.21508244097402
 20
-109.5280259600312
 10
97.07348901653025
 20
-109.4815171709803
 10
96.97840438113735
 20
-109.2994438745849
 10
96.87470700703133
 20
-109.1047959796683
 10
96.85575898186245
 20
-108.8679456650573
 10
96.85575898186245
 20
-108.704992648605
 10
96.85575898186245
 20
-108.5611599120958
 10
96.87263994974018
 20
-108.3094956868983
 10
96.97840438113735
 20
-108.1105414226251
 10
97.08623586982567
 20
-107.9074530437697
 10
97.24712182898683
 20
-107.8841986492442
 10
97.37596840013518
 20
-107.8841986492442
 10
97.5347873020052
 20
-107.8841986492442
 10
97.67844778374011
 20
-107.928640381004
 10
97.77387692868153
 20
-108.1105414226251
 10
97.87309567865672
 20
-108.3031222602506
 10
97.89652232795643
 20
-108.5315320909227
 10
97.89652232795643
 20
-108.704992648605
 10
97.89652232795643
 20
-108.8763861489962
 10
97.87516273594788
 20
-109.1070352917337
 10
97.77387692868153
 20
-109.2994438745849
 97
        0
 97
        0
 92
        1
 93
        1
 72
     4
 94
        3
 73
     0
 74
     1
 95
       17
 96
       13
 40
0.0
 40
0.0
 40
0.0
 40
0.0
 40
1.0
 40
1.0
 40
1.0
 40
2.0
 40
2.0
 40
2.0
 40
3.0
 40
3.0
 40
3.0
 40
4.0
 40
4.0
 40
4.0
 40
4.0
 10
97.37596840013518
 20
-108.0767794868697
 10
97.12654348700309
 20
-108.0767794868697
 10
97.07969018840369
 20
-108.3603108453058
 10
97.07969018840369
 20
-108.704992648605
 10
97.07969018840369
 20
-109.0245252548619
 10
97.11586369099882
 20
-109.3333780651146
 10
97.37596840013518
 20
-109.3333780651146
 10
97.62367076552464
 20
-109.3333780651146
 10
97.67224661186667
 20
-109.0519137639697
 10
97.67224661186667
 20
-108.704992648605
 10
97.67224661186667
 20
-108.3856322971223
 10
97.63400605198039
 20
-108.0767794868697
 10
97.37596840013518
 20
-108.0767794868697
 97
        0
 97
        0
 75
     2
 76
     1
 98
        0
  0
ENDBLK
  5
B9
330
B6
100
AcDbEntity
  8
0
100
AcDbBlockEnd
  0
BLOCK
  5
CD
330
CB
100
AcDbEntity
  8
0
100
AcDbBlockBegin
  2
block 4
 70
     0
 10
0.0
 20
0.0
 30
0.0
  3
block 4
  1

  0
SPLINE
  5
CF
330
CB
100
AcDbEntity
  8
_U+30EC_U+30A4_U+30E4_U+30FC 1
370
     0
100
AcDbSpline
210
0.0
220
0.0
230
1.0
 70
    11
 71
     3
 72
    44
 73
    40
 74
     0
 42
0.0000000001
 43
0.0000000001
 12
1.0
 22
0.0
 32
0.0
 13
1.0
 23
0.0
 33
0.0
 40
0.0
 40
0.0
 40
0.0
 40
0.0
 40
1.0
 40
1.0
 40
1.0
 40
2.0
 40
2.0
 40
2.0
 40
3.0
 40
3.0
 40
3.0
 40
4.0
 40
4.0
 40
4.0
 40
5.0
 40
5.0
 40
5.0
 40
6.0
 40
6.0
 40
6.0
 40
7.0
 40
7.0
 40
7.0
 40
8.0
 40
8.0
 40
8.0
 40
9.0
 40
9.0
 40
9.0
 40
10.0
 40
10.0
 40
10.0
 40
11.0
 40
11.0
 40
11.0
 40
12.0
 40
12.0
 40
12.0
 40
13.0
 40
13.0
 40
13.0
 40
13.0
 10
109.6856390784814
 20
-124.6445881849847
 30
0.0
 10
109.8444579803514
 20
-124.8623182196525
 30
0.0
 10
109.9185275332843
 20
-124.9553357977542
 30
0.0
 10
110.0621880150192
 20
-125.0042561536448
 30
0.0
 10
110.0621880150192
 20
-125.0042561536448
 30
0.0
 10
110.0621880150192
 20
-124.2256645739783
 30
0.0
 10
110.0621880150192
 20
-124.2256645739783
 30
0.0
 10
110.0621880150192
 20
-124.2256645739783
 30
0.0
 10
110.2675157059401
 20
-124.2256645739783
 30
0.0
 10
110.2675157059401
 20
-124.2256645739783
 30
0.0
 10
110.2675157059401
 20
-124.2256645739783
 30
0.0
 10
110.2675157059401
 20
-125.2536810667769
 30
0.0
 10
110.2675157059401
 20
-125.2536810667769
 30
0.0
 10
109.9099147945711
 20
-125.2219861883126
 30
0.0
 10
109.831711127056
 20
-125.1565293740928
 30
0.0
 10
109.5333658580333
 20
-124.7713676988419
 30
0.0
 10
109.3345838485344
 20
-124.5153971042878
 30
0.0
 10
109.266715467475
 20
-124.4499402900681
 30
0.0
 10
109.1292561576135
 20
-124.4499402900681
 30
0.0
 10
109.0107448729209
 20
-124.4499402900681
 30
0.0
 10
108.8798312444814
 20
-124.5219427857098
 30
0.0
 10
108.8798312444814
 20
-124.7186577379176
 30
0.0
 10
108.8798312444814
 20
-124.9787624470539
 30
0.0
 10
109.1103081324446
 20
-124.987375185767
 30
0.0
 10
109.2267523598461
 20
-124.9915093003493
 30
0.0
 10
109.2267523598461
 20
-124.9915093003493
 30
0.0
 10
109.2267523598461
 20
-125.2157850164391
 30
0.0
 10
109.2267523598461
 20
-125.2157850164391
 30
0.0
 10
109.0996283364404
 20
-125.207172277726
 30
0.0
 10
108.9876627331698
 20
-125.1964924817217
 30
0.0
 10
108.8691514484772
 20
-125.1162217569154
 30
0.0
 10
108.708265489316
 20
-125.0063232109359
 30
0.0
 10
108.6745035535605
 20
-124.8199435451839
 30
0.0
 10
108.6745035535605
 20
-124.703843827331
 30
0.0
 10
108.6745035535605
 20
-124.4265136407684
 30
0.0
 10
108.8584716524729
 20
-124.2191188925563
 30
0.0
 10
109.1313232149047
 20
-124.2191188925563
 30
0.0
 10
109.3600775551253
 20
-124.2191188925563
 30
0.0
 10
109.4592963051005
 20
-124.3355631199578
 30
0.0
 10
109.6856390784814
 20
-124.6445881849847
 30
0.0
  0
HATCH
  5
D0
330
CB
100
AcDbEntity
  8
_U+30EC_U+30A4_U+30E4_U+30FC 1
 62
   179
420
  2234388
100
AcDbHatch
 10
0.0
 20
0.0
 30
0.0
210
0.0
220
0.0
230
1.0
  2
SOLID
 70
     1
 71
     0
 91
        1
 92
        1
 93
        1
 72
     4
 94
        3
 73
     0
 74
     1
 95
       44
 96
       40
 40
0.0
 40
0.0
 40
0.0
 40
0.0
 40
1.0
 40
1.0
 40
1.0
 40
2.0
 40
2.0
 40
2.0
 40
3.0
 40
3.0
 40
3.0
 40
4.0
 40
4.0
 40
4.0
 40
5.0
 40
5.0
 40
5.0
 40
6.0
 40
6.0
 40
6.0
 40
7.0
 40
7.0
 40
7.0
 40
8.0
 40
8.0
 40
8.0
 40
9.0
 40
9.0
 40
9.0
 40
10.0
 40
10.0
 40
10.0
 40
11.0
 40
11.0
 40
11.0
 40
12.0
 40
12.0
 40
12.0
 40
13.0
 40
13.0
 40
13.0
 40
13.0
 10
109.6856390784814
 20
-124.6445881849847
 10
109.8444579803514
 20
-124.8623182196525
 10
109.9185275332843
 20
-124.9553357977542
 10
110.0621880150192
 20
-125.0042561536448
 10
110.0621880150192
 20
-125.0042561536448
 10
110.0621880150192
 20
-124.2256645739783
 10
110.0621880150192
 20
-124.2256645739783
 10
110.0621880150192
 20
-124.2256645739783
 10
110.2675157059401
 20
-124.2256645739783
 10
110.2675157059401
 20
-124.2256645739783
 10
110.2675157059401
 20
-124.2256645739783
 10
110.2675157059401
 20
-125.2536810667769
 10
110.2675157059401
 20
-125.2536810667769
 10
109.9099147945711
 20
-125.2219861883126
 10
109.831711127056
 20
-125.1565293740928
 10
109.5333658580333
 20
-124.7713676988419
 10
109.3345838485344
 20
-124.5153971042878
 10
109.266715467475
 20
-124.4499402900681
 10
109.1292561576135
 20
-124.4499402900681
 10
109.0107448729209
 20
-124.4499402900681
 10
108.8798312444814
 20
-124.5219427857098
 10
108.8798312444814
 20
-124.7186577379176
 10
108.8798312444814
 20
-124.9787624470539
 10
109.1103081324446
 20
-124.987375185767
 10
109.2267523598461
 20
-124.9915093003493
 10
109.2267523598461
 20
-124.9915093003493
 10
109.2267523598461
 20
-125.2157850164391
 10
109.2267523598461
 20
-125.2157850164391
 10
109.0996283364404
 20
-125.207172277726
 10
108.9876627331698
 20
-125.1964924817217
 10
108.8691514484772
 20
-125.1162217569154
 10
108.708265489316
 20
-125.0063232109359
 10
108.6745035535605
 20
-124.8199435451839
 10
108.6745035535605
 20
-124.703843827331
 10
108.6745035535605
 20
-124.4265136407684
 10
108.8584716524729
 20
-124.2191188925563
 10
109.1313232149047
 20
-124.2191188925563
 10
109.3600775551253
 20
-124.2191188925563
 10
109.4592963051005
 20
-124.3355631199578
 10
109.6856390784814
 20
-124.6445881849847
 97
        0
 97
        0
 75
     2
 76
     1
 98
        0
  0
SPLINE
  5
D1
330
CB
100
AcDbEntity
  8
_U+30EC_U+30A4_U+30E4_U+30FC 1
370
     0
100
AcDbSpline
210
0.0
220
0.0
230
1.0
 70
    11
 71
     3
 72
    29
 73
    25
 74
     0
 42
0.0000000001
 43
0.0000000001
 12
1.0
 22
0.0
 32
0.0
 13
1.0
 23
0.0
 33
0.0
 40
0.0
 40
0.0
 40
0.0
 40
0.0
 40
1.0
 40
1.0
 40
1.0
 40
2.0
 40
2.0
 40
2.0
 40
3.0
 40
3.0
 40
3.0
 40
4.0
 40
4.0
 40
4.0
 40
5.0
 40
5.0
 40
5.0
 40
6.0
 40
6.0
 40
6.0
 40
7.0
 40
7.0
 40
7.0
 40
8.0
 40
8.0
 40
8.0
 40
8.0
 10
110.0897487789012
 20
-123.1628526167787
 30
0.0
 10
110.2992105844044
 20
-123.2710286150156
 30
0.0
 10
110.3181586095732
 20
-123.4443169179236
 30
0.0
 10
110.3181586095732
 20
-123.5607611453251
 30
0.0
 10
110.3181586095732
 20
-123.7216471044863
 30
0.0
 10
110.2716498205224
 20
-123.86324052893
 30
0.0
 10
110.0897487789012
 20
-123.9583251643229
 30
0.0
 10
109.8951008839846
 20
-124.0620225384289
 30
0.0
 10
109.6584228241479
 20
-124.0813150731463
 30
0.0
 10
109.4954698076956
 20
-124.0813150731463
 30
0.0
 10
109.3514648164121
 20
-124.0813150731463
 30
0.0
 10
109.0996283364404
 20
-124.0640895957201
 30
0.0
 10
108.9008463269415
 20
-123.9583251643229
 30
0.0
 10
108.6979302028602
 20
-123.8504936756346
 30
0.0
 10
108.6745035535605
 20
-123.6896077164734
 30
0.0
 10
108.6745035535605
 20
-123.5607611453251
 30
0.0
 10
108.6745035535605
 20
-123.4019422434551
 30
0.0
 10
108.7189452853203
 20
-123.2582817617202
 30
0.0
 10
108.9008463269415
 20
-123.1628526167787
 30
0.0
 10
109.0934271645669
 20
-123.0636338668035
 30
0.0
 10
109.321836995239
 20
-123.0402072175038
 30
0.0
 10
109.4954698076956
 20
-123.0402072175038
 30
0.0
 10
109.6666910533125
 20
-123.0402072175038
 30
0.0
 10
109.8971679412757
 20
-123.0615668095124
 30
0.0
 10
110.0897487789012
 20
-123.1628526167787
 30
0.0
  0
SPLINE
  5
D2
330
CB
100
AcDbEntity
  8
_U+30EC_U+30A4_U+30E4_U+30FC 1
370
     0
100
AcDbSpline
210
0.0
220
0.0
230
1.0
 70
    11
 71
     3
 72
    17
 73
    13
 74
     0
 42
0.0000000001
 43
0.0000000001
 12
1.0
 22
0.0
 32
0.0
 13
1.0
 23
0.0
 33
0.0
 40
0.0
 40
0.0
 40
0.0
 40
0.0
 40
1.0
 40
1.0
 40
1.0
 40
2.0
 40
2.0
 40
2.0
 40
3.0
 40
3.0
 40
3.0
 40
4.0
 40
4.0
 40
4.0
 40
4.0
 10
108.867084391186
 20
-123.5607611453251
 30
0.0
 10
108.867084391186
 20
-123.8105305680057
 30
0.0
 10
109.1506157496221
 20
-123.8570393570566
 30
0.0
 10
109.4954698076956
 20
-123.8570393570566
 30
0.0
 10
109.8148301591782
 20
-123.8570393570566
 30
0.0
 10
110.1235107146566
 20
-123.8208658544615
 30
0.0
 10
110.1235107146566
 20
-123.5607611453251
 30
0.0
 10
110.1235107146566
 20
-123.3130587799356
 30
0.0
 10
109.8423909230602
 20
-123.2644829335936
 30
0.0
 10
109.4954698076956
 20
-123.2644829335936
 30
0.0
 10
109.1757649466644
 20
-123.2644829335936
 30
0.0
 10
108.867084391186
 20
-123.3027234934799
 30
0.0
 10
108.867084391186
 20
-123.5607611453251
 30
0.0
  0
HATCH
  5
D3
330
CB
100
AcDbEntity
  8
_U+30EC_U+30A4_U+30E4_U+30FC 1
 62
   179
420
  2234388
100
AcDbHatch
 10
0.0
 20
0.0
 30
0.0
210
0.0
220
0.0
230
1.0
  2
SOLID
 70
     1
 71
     0
 91
        2
 92
        1
 93
        1
 72
     4
 94
        3
 73
     0
 74
     1
 95
       29
 96
       25
 40
0.0
 40
0.0
 40
0.0
 40
0.0
 40
1.0
 40
1.0
 40
1.0
 40
2.0
 40
2.0
 40
2.0
 40
3.0
 40
3.0
 40
3.0
 40
4.0
 40
4.0
 40
4.0
 40
5.0
 40
5.0
 40
5.0
 40
6.0
 40
6.0
 40
6.0
 40
7.0
 40
7.0
 40
7.0
 40
8.0
 40
8.0
 40
8.0
 40
8.0
 10
110.0897487789012
 20
-123.1628526167787
 10
110.2992105844044
 20
-123.2710286150156
 10
110.3181586095732
 20
-123.4443169179236
 10
110.3181586095732
 20
-123.5607611453251
 10
110.3181586095732
 20
-123.7216471044863
 10
110.2716498205224
 20
-123.86324052893
 10
110.0897487789012
 20
-123.9583251643229
 10
109.8951008839846
 20
-124.0620225384289
 10
109.6584228241479
 20
-124.0813150731463
 10
109.4954698076956
 20
-124.0813150731463
 10
109.3514648164121
 20
-124.0813150731463
 10
109.0996283364404
 20
-124.0640895957201
 10
108.9008463269415
 20
-123.9583251643229
 10
108.6979302028602
 20
-123.8504936756346
 10
108.6745035535605
 20
-123.6896077164734
 10
108.6745035535605
 20
-123.5607611453251
 10
108.6745035535605
 20
-123.4019422434551
 10
108.7189452853203
 20
-123.2582817617202
 10
108.9008463269415
 20
-123.1628526167787
 10
109.0934271645669
 20
-123.0636338668035
 10
109.321836995239
 20
-123.0402072175038
 10
109.4954698076956
 20
-123.0402072175038
 10
109.6666910533125
 20
-123.0402072175038
 10
109.8971679412757
 20
-123.0615668095124
 10
110.0897487789012
 20
-123.1628526167787
 97
        0
 97
        0
 92
        1
 93
        1
 72
     4
 94
        3
 73
     0
 74
     1
 95
       17
 96
       13
 40
0.0
 40
0.0
 40
0.0
 40
0.0
 40
1.0
 40
1.0
 40
1.0
 40
2.0
 40
2.0
 40
2.0
 40
3.0
 40
3.0
 40
3.0
 40
4.0
 40
4.0
 40
4.0
 40
4.0
 10
108.867084391186
 20
-123.5607611453251
 10
108.867084391186
 20
-123.8105305680057
 10
109.1506157496221
 20
-123.8570393570566
 10
109.4954698076956
 20
-123.8570393570566
 10
109.8148301591782
 20
-123.8570393570566
 10
110.1235107146566
 20
-123.8208658544615
 10
110.1235107146566
 20
-123.5607611453251
 10
110.1235107146566
 20
-123.3130587799356
 10
109.8423909230602
 20
-123.2644829335936
 10
109.4954698076956
 20
-123.2644829335936
 10
109.1757649466644
 20
-123.2644829335936
 10
108.867084391186
 20
-123.3027234934799
 10
108.867084391186
 20
-123.5607611453251
 97
        0
 97
        0
 75
     2
 76
     1
 98
        0
  0
ENDBLK
  5
CE
330
CB
100
AcDbEntity
  8
0
100
AcDbBlockEnd
  0
BLOCK
  5
DE
330
DC
100
AcDbEntity
  8
0
100
AcDbBlockBegin
  2
block 5
 70
     0
 10
0.0
 20
0.0
 30
0.0
  3
block 5
  1

  0
SPLINE
  5
E0
330
DC
100
AcDbEntity
  8
_U+30EC_U+30A4_U+30E4_U+30FC 1
370
     0
100
AcDbSpline
210
0.0
220
0.0
230
1.0
 70
    11
 71
     3
 72
    44
 73
    40
 74
     0
 42
0.0000000001
 43
0.0000000001
 12
1.0
 22
0.0
 32
0.0
 13
1.0
 23
0.0
 33
0.0
 40
0.0
 40
0.0
 40
0.0
 40
0.0
 40
1.0
 40
1.0
 40
1.0
 40
2.0
 40
2.0
 40
2.0
 40
3.0
 40
3.0
 40
3.0
 40
4.0
 40
4.0
 40
4.0
 40
5.0
 40
5.0
 40
5.0
 40
6.0
 40
6.0
 40
6.0
 40
7.0
 40
7.0
 40
7.0
 40
8.0
 40
8.0
 40
8.0
 40
9.0
 40
9.0
 40
9.0
 40
10.0
 40
10.0
 40
10.0
 40
11.0
 40
11.0
 40
11.0
 40
12.0
 40
12.0
 40
12.0
 40
13.0
 40
13.0
 40
13.0
 40
13.0
 10
72.06485187000462
 20
-142.8078206023189
 30
0.0
 10
72.04142522070492
 20
-142.7633788705592
 30
0.0
 10
72.0204101382449
 20
-142.7106689096348
 30
0.0
 10
72.01817082617949
 20
-142.4798475121231
 30
0.0
 10
72.01403671159719
 20
-142.2366237708645
 30
0.0
 10
71.95478106925088
 20
-142.1666883325139
 30
0.0
 10
71.777014142212
 20
-142.1666883325139
 30
0.0
 10
71.777014142212
 20
-142.1666883325139
 30
0.0
 10
71.36877032720989
 20
-142.1666883325139
 30
0.0
 10
71.36877032720989
 20
-142.1666883325139
 30
0.0
 10
71.36877032720989
 20
-142.1666883325139
 30
0.0
 10
71.36877032720989
 20
-142.8078206023189
 30
0.0
 10
71.36877032720989
 20
-142.8078206023189
 30
0.0
 10
71.36877032720989
 20
-142.8078206023189
 30
0.0
 10
71.13398706989011
 20
-142.8078206023189
 30
0.0
 10
71.13398706989011
 20
-142.8078206023189
 30
0.0
 10
71.13398706989011
 20
-142.8078206023189
 30
0.0
 10
71.13398706989011
 20
-141.2633842962814
 30
0.0
 10
71.13398706989011
 20
-141.2633842962814
 30
0.0
 10
71.13398706989011
 20
-141.2633842962814
 30
0.0
 10
71.80888127545056
 20
-141.2633842962814
 30
0.0
 10
71.80888127545056
 20
-141.2633842962814
 30
0.0
 10
72.11549477363779
 20
-141.2633842962814
 30
0.0
 10
72.28258190467241
 20
-141.4349500514468
 30
0.0
 10
72.28258190467241
 20
-141.6909206460009
 30
0.0
 10
72.28258190467241
 20
-141.7415635496341
 30
0.0
 10
72.27414142073356
 20
-141.8242458412801
 30
0.0
 10
72.22969968897382
 20
-141.9045165660864
 30
0.0
 10
72.1706163014018
 20
-142.0082139401924
 30
0.0
 10
72.10498723240778
 20
-142.0271619653613
 30
0.0
 10
72.04366453277034
 20
-142.044042933239
 30
0.0
 10
72.1811238426318
 20
-142.0864176077076
 30
0.0
 10
72.24881996891696
 20
-142.1349934540496
 30
0.0
 10
72.25312633827353
 20
-142.45021969095
 30
0.0
 10
72.25726045285583
 20
-142.7210041960906
 30
0.0
 10
72.2932617006767
 20
-142.7526990745549
 30
0.0
 10
72.36095782696185
 20
-142.8078206023189
 30
0.0
 10
72.36095782696185
 20
-142.8078206023189
 30
0.0
 10
72.06485187000462
 20
-142.8078206023189
 30
0.0
 10
72.06485187000462
 20
-142.8078206023189
 30
0.0
  0
SPLINE
  5
E1
330
DC
100
AcDbEntity
  8
_U+30EC_U+30A4_U+30E4_U+30FC 1
370
     0
100
AcDbSpline
210
0.0
220
0.0
230
1.0
 70
    11
 71
     3
 72
    20
 73
    16
 74
     0
 42
0.0000000001
 43
0.0000000001
 12
1.0
 22
0.0
 32
0.0
 13
1.0
 23
0.0
 33
0.0
 40
0.0
 40
0.0
 40
0.0
 40
0.0
 40
1.0
 40
1.0
 40
1.0
 40
2.0
 40
2.0
 40
2.0
 40
3.0
 40
3.0
 40
3.0
 40
4.0
 40
4.0
 40
4.0
 40
5.0
 40
5.0
 40
5.0
 40
5.0
 10
71.81301539003286
 20
-141.4749131590757
 30
0.0
 10
71.81301539003286
 20
-141.4749131590757
 30
0.0
 10
71.36877032720989
 20
-141.4749131590757
 30
0.0
 10
71.36877032720989
 20
-141.4749131590757
 30
0.0
 10
71.36877032720989
 20
-141.4749131590757
 30
0.0
 10
71.36877032720989
 20
-141.9551594697195
 30
0.0
 10
71.36877032720989
 20
-141.9551594697195
 30
0.0
 10
71.36877032720989
 20
-141.9551594697195
 30
0.0
 10
71.81094833274172
 20
-141.9551594697195
 30
0.0
 10
71.81094833274172
 20
-141.9551594697195
 30
0.0
 10
71.91033933749117
 20
-141.9551594697195
 30
0.0
 10
72.0457315900615
 20
-141.8790228594955
 30
0.0
 10
72.0457315900615
 20
-141.7078016138786
 30
0.0
 10
72.0457315900615
 20
-141.6295979463634
 30
0.0
 10
72.01179739953177
 20
-141.4749131590757
 30
0.0
 10
71.81301539003286
 20
-141.4749131590757
 30
0.0
  0
HATCH
  5
E2
330
DC
100
AcDbEntity
  8
_U+30EC_U+30A4_U+30E4_U+30FC 1
 62
   179
420
  2234388
100
AcDbHatch
 10
0.0
 20
0.0
 30
0.0
210
0.0
220
0.0
230
1.0
  2
SOLID
 70
     1
 71
     0
 91
        2
 92
        1
 93
        1
 72
     4
 94
        3
 73
     0
 74
     1
 95
       44
 96
       40
 40
0.0
 40
0.0
 40
0.0
 40
0.0
 40
1.0
 40
1.0
 40
1.0
 40
2.0
 40
2.0
 40
2.0
 40
3.0
 40
3.0
 40
3.0
 40
4.0
 40
4.0
 40
4.0
 40
5.0
 40
5.0
 40
5.0
 40
6.0
 40
6.0
 40
6.0
 40
7.0
 40
7.0
 40
7.0
 40
8.0
 40
8.0
 40
8.0
 40
9.0
 40
9.0
 40
9.0
 40
10.0
 40
10.0
 40
10.0
 40
11.0
 40
11.0
 40
11.0
 40
12.0
 40
12.0
 40
12.0
 40
13.0
 40
13.0
 40
13.0
 40
13.0
 10
72.06485187000462
 20
-142.8078206023189
 10
72.04142522070492
 20
-142.7633788705592
 10
72.0204101382449
 20
-142.7106689096348
 10
72.01817082617949
 20
-142.4798475121231
 10
72.01403671159719
 20
-142.2366237708645
 10
71.95478106925088
 20
-142.1666883325139
 10
71.777014142212
 20
-142.1666883325139
 10
71.777014142212
 20
-142.1666883325139
 10
71.36877032720989
 20
-142.1666883325139
 10
71.36877032720989
 20
-142.1666883325139
 10
71.36877032720989
 20
-142.1666883325139
 10
71.36877032720989
 20
-142.8078206023189
 10
71.36877032720989
 20
-142.8078206023189
 10
71.36877032720989
 20
-142.8078206023189
 10
71.13398706989011
 20
-142.8078206023189
 10
71.13398706989011
 20
-142.8078206023189
 10
71.13398706989011
 20
-142.8078206023189
 10
71.13398706989011
 20
-141.2633842962814
 10
71.13398706989011
 20
-141.2633842962814
 10
71.13398706989011
 20
-141.2633842962814
 10
71.80888127545056
 20
-141.2633842962814
 10
71.80888127545056
 20
-141.2633842962814
 10
72.11549477363779
 20
-141.2633842962814
 10
72.28258190467241
 20
-141.4349500514468
 10
72.28258190467241
 20
-141.6909206460009
 10
72.28258190467241
 20
-141.7415635496341
 10
72.27414142073356
 20
-141.8242458412801
 10
72.22969968897382
 20
-141.9045165660864
 10
72.1706163014018
 20
-142.0082139401924
 10
72.10498723240778
 20
-142.0271619653613
 10
72.04366453277034
 20
-142.044042933239
 10
72.1811238426318
 20
-142.0864176077076
 10
72.24881996891696
 20
-142.1349934540496
 10
72.25312633827353
 20
-142.45021969095
 10
72.25726045285583
 20
-142.7210041960906
 10
72.2932617006767
 20
-142.7526990745549
 10
72.36095782696185
 20
-142.8078206023189
 10
72.36095782696185
 20
-142.8078206023189
 10
72.06485187000462
 20
-142.8078206023189
 10
72.06485187000462
 20
-142.8078206023189
 97
        0
 97
        0
 92
        1
 93
        1
 72
     4
 94
        3
 73
     0
 74
     1
 95
       20
 96
       16
 40
0.0
 40
0.0
 40
0.0
 40
0.0
 40
1.0
 40
1.0
 40
1.0
 40
2.0
 40
2.0
 40
2.0
 40
3.0
 40
3.0
 40
3.0
 40
4.0
 40
4.0
 40
4.0
 40
5.0
 40
5.0
 40
5.0
 40
5.0
 10
71.81301539003286
 20
-141.4749131590757
 10
71.81301539003286
 20
-141.4749131590757
 10
71.36877032720989
 20
-141.4749131590757
 10
71.36877032720989
 20
-141.4749131590757
 10
71.36877032720989
 20
-141.4749131590757
 10
71.36877032720989
 20
-141.9551594697195
 10
71.36877032720989
 20
-141.9551594697195
 10
71.36877032720989
 20
-141.9551594697195
 10
71.81094833274172
 20
-141.9551594697195
 10
71.81094833274172
 20
-141.9551594697195
 10
71.91033933749117
 20
-141.9551594697195
 10
72.0457315900615
 20
-141.8790228594955
 10
72.0457315900615
 20
-141.7078016138786
 10
72.0457315900615
 20
-141.6295979463634
 10
72.01179739953177
 20
-141.4749131590757
 10
71.81301539003286
 20
-141.4749131590757
 97
        0
 97
        0
 75
     2
 76
     1
 98
        0
  0
SPLINE
  5
E3
330
DC
100
AcDbEntity
  8
_U+30EC_U+30A4_U+30E4_U+30FC 1
370
     0
100
AcDbSpline
210
0.0
220
0.0
230
1.0
 70
    11
 71
     3
 72
    44
 73
    40
 74
     0
 42
0.0000000001
 43
0.0000000001
 12
1.0
 22
0.0
 32
0.0
 13
1.0
 23
0.0
 33
0.0
 40
0.0
 40
0.0
 40
0.0
 40
0.0
 40
1.0
 40
1.0
 40
1.0
 40
2.0
 40
2.0
 40
2.0
 40
3.0
 40
3.0
 40
3.0
 40
4.0
 40
4.0
 40
4.0
 40
5.0
 40
5.0
 40
5.0
 40
6.0
 40
6.0
 40
6.0
 40
7.0
 40
7.0
 40
7.0
 40
8.0
 40
8.0
 40
8.0
 40
9.0
 40
9.0
 40
9.0
 40
10.0
 40
10.0
 40
10.0
 40
11.0
 40
11.0
 40
11.0
 40
12.0
 40
12.0
 40
12.0
 40
13.0
 40
13.0
 40
13.0
 40
13.0
 10
73.09372963667448
 20
-142.2259439748602
 30
0.0
 10
72.87582734723243
 20
-142.3847628767302
 30
0.0
 10
72.78263751435642
 20
-142.4588324296631
 30
0.0
 10
72.7340616680144
 20
-142.602492911398
 30
0.0
 10
72.7340616680144
 20
-142.602492911398
 30
0.0
 10
73.5124809929066
 20
-142.602492911398
 30
0.0
 10
73.5124809929066
 20
-142.602492911398
 30
0.0
 10
73.5124809929066
 20
-142.602492911398
 30
0.0
 10
73.5124809929066
 20
-142.8078206023189
 30
0.0
 10
73.5124809929066
 20
-142.8078206023189
 30
0.0
 10
73.5124809929066
 20
-142.8078206023189
 30
0.0
 10
72.48446450010806
 20
-142.8078206023189
 30
0.0
 10
72.48446450010806
 20
-142.8078206023189
 30
0.0
 10
72.51615937857235
 20
-142.45021969095
 30
0.0
 10
72.5816161927921
 20
-142.3720160234348
 30
0.0
 10
72.96677786804302
 20
-142.0736707544121
 30
0.0
 10
73.2227484625971
 20
-141.8748887449132
 30
0.0
 10
73.28820527681684
 20
-141.8070203638538
 30
0.0
 10
73.28820527681684
 20
-141.6695610539923
 30
0.0
 10
73.28820527681684
 20
-141.5510497692997
 30
0.0
 10
73.21637503594938
 20
-141.4201361408603
 30
0.0
 10
73.01966008374161
 20
-141.4201361408603
 30
0.0
 10
72.75938311983099
 20
-141.4201361408603
 30
0.0
 10
72.75094263589213
 20
-141.6506130288235
 30
0.0
 10
72.74663626653556
 20
-141.7670572562249
 30
0.0
 10
72.74663626653556
 20
-141.7670572562249
 30
0.0
 10
72.52253280522007
 20
-141.7670572562249
 30
0.0
 10
72.52253280522007
 20
-141.7670572562249
 30
0.0
 10
72.53097328915892
 20
-141.6399332328192
 30
0.0
 10
72.54148083038893
 20
-141.5279676295486
 30
0.0
 10
72.62192380996952
 20
-141.409456344856
 30
0.0
 10
72.73182235594899
 20
-141.2485703856948
 30
0.0
 10
72.91802976692675
 20
-141.2148084499394
 30
0.0
 10
73.0344739943282
 20
-141.2148084499394
 30
0.0
 10
73.31163192611653
 20
-141.2148084499394
 30
0.0
 10
73.51885441955432
 20
-141.3987765488517
 30
0.0
 10
73.51885441955432
 20
-141.6716281112835
 30
0.0
 10
73.51885441955432
 20
-141.9003824515041
 30
0.0
 10
73.40258244692714
 20
-141.9996012014793
 30
0.0
 10
73.09372963667448
 20
-142.2259439748602
 30
0.0
  0
HATCH
  5
E4
330
DC
100
AcDbEntity
  8
_U+30EC_U+30A4_U+30E4_U+30FC 1
 62
   179
420
  2234388
100
AcDbHatch
 10
0.0
 20
0.0
 30
0.0
210
0.0
220
0.0
230
1.0
  2
SOLID
 70
     1
 71
     0
 91
        1
 92
        1
 93
        1
 72
     4
 94
        3
 73
     0
 74
     1
 95
       44
 96
       40
 40
0.0
 40
0.0
 40
0.0
 40
0.0
 40
1.0
 40
1.0
 40
1.0
 40
2.0
 40
2.0
 40
2.0
 40
3.0
 40
3.0
 40
3.0
 40
4.0
 40
4.0
 40
4.0
 40
5.0
 40
5.0
 40
5.0
 40
6.0
 40
6.0
 40
6.0
 40
7.0
 40
7.0
 40
7.0
 40
8.0
 40
8.0
 40
8.0
 40
9.0
 40
9.0
 40
9.0
 40
10.0
 40
10.0
 40
10.0
 40
11.0
 40
11.0
 40
11.0
 40
12.0
 40
12.0
 40
12.0
 40
13.0
 40
13.0
 40
13.0
 40
13.0
 10
73.09372963667448
 20
-142.2259439748602
 10
72.87582734723243
 20
-142.3847628767302
 10
72.78263751435642
 20
-142.4588324296631
 10
72.7340616680144
 20
-142.602492911398
 10
72.7340616680144
 20
-142.602492911398
 10
73.5124809929066
 20
-142.602492911398
 10
73.5124809929066
 20
-142.602492911398
 10
73.5124809929066
 20
-142.602492911398
 10
73.5124809929066
 20
-142.8078206023189
 10
73.5124809929066
 20
-142.8078206023189
 10
73.5124809929066
 20
-142.8078206023189
 10
72.48446450010806
 20
-142.8078206023189
 10
72.48446450010806
 20
-142.8078206023189
 10
72.51615937857235
 20
-142.45021969095
 10
72.5816161927921
 20
-142.3720160234348
 10
72.96677786804302
 20
-142.0736707544121
 10
73.2227484625971
 20
-141.8748887449132
 10
73.28820527681684
 20
-141.8070203638538
 10
73.28820527681684
 20
-141.6695610539923
 10
73.28820527681684
 20
-141.5510497692997
 10
73.21637503594938
 20
-141.4201361408603
 10
73.01966008374161
 20
-141.4201361408603
 10
72.75938311983099
 20
-141.4201361408603
 10
72.75094263589213
 20
-141.6506130288235
 10
72.74663626653556
 20
-141.7670572562249
 10
72.74663626653556
 20
-141.7670572562249
 10
72.52253280522007
 20
-141.7670572562249
 10
72.52253280522007
 20
-141.7670572562249
 10
72.53097328915892
 20
-141.6399332328192
 10
72.54148083038893
 20
-141.5279676295486
 10
72.62192380996952
 20
-141.409456344856
 10
72.73182235594899
 20
-141.2485703856948
 10
72.91802976692675
 20
-141.2148084499394
 10
73.0344739943282
 20
-141.2148084499394
 10
73.31163192611653
 20
-141.2148084499394
 10
73.51885441955432
 20
-141.3987765488517
 10
73.51885441955432
 20
-141.6716281112835
 10
73.51885441955432
 20
-141.9003824515041
 10
73.40258244692714
 20
-141.9996012014793
 10
73.09372963667448
 20
-142.2259439748602
 97
        0
 97
        0
 75
     2
 76
     1
 98
        0
  0
POLYLINE
  5
E5
330
DC
100
AcDbEntity
  8
_U+30EC_U+30A4_U+30E4_U+30FC 1
370
     0
100
AcDb2dPolyline
 66
     1
 10
0.0
 20
0.0
 30
0.0
  0
VERTEX
  5
E6
330
E5
100
AcDbEntity
  8
_U+30EC_U+30A4_U+30E4_U+30FC 1
370
     0
100
AcDbVertex
100
AcDb2dVertex
 10
73.73744572809342
 20
-142.8078206023189
 30
0.0
  0
VERTEX
  5
E7
330
E5
100
AcDbEntity
  8
_U+30EC_U+30A4_U+30E4_U+30FC 1
370
     0
100
AcDbVertex
100
AcDb2dVertex
 10
73.73744572809342
 20
-142.5559841223471
 30
0.0
  0
VERTEX
  5
E8
330
E5
100
AcDbEntity
  8
_U+30EC_U+30A4_U+30E4_U+30FC 1
370
     0
100
AcDbVertex
100
AcDb2dVertex
 10
73.98910995329092
 20
-142.5559841223471
 30
0.0
  0
VERTEX
  5
E9
330
E5
100
AcDbEntity
  8
_U+30EC_U+30A4_U+30E4_U+30FC 1
370
     0
100
AcDbVertex
100
AcDb2dVertex
 10
73.98910995329092
 20
-142.8078206023189
 30
0.0
  0
VERTEX
  5
EA
330
E5
100
AcDbEntity
  8
_U+30EC_U+30A4_U+30E4_U+30FC 1
370
     0
100
AcDbVertex
100
AcDb2dVertex
 10
73.73744572809342
 20
-142.8078206023189
 30
0.0
  0
SEQEND
  5
EB
330
E5
100
AcDbEntity
  8
_U+30EC_U+30A4_U+30E4_U+30FC 1
370
     0
  0
HATCH
  5
EC
330
DC
100
AcDbEntity
  8
_U+30EC_U+30A4_U+30E4_U+30FC 1
 62
   179
420
  2234388
100
AcDbHatch
 10
0.0
 20
0.0
 30
0.0
210
0.0
220
0.0
230
1.0
  2
SOLID
 70
     1
 71
     0
 91
        1
 92
        1
 93
        4
 72
     1
 10
73.73744572809342
 20
-142.8078206023189
 11
73.73744572809342
 21
-142.5559841223471
 72
     1
 10
73.73744572809342
 20
-142.5559841223471
 11
73.98910995329092
 21
-142.5559841223471
 72
     1
 10
73.98910995329092
 20
-142.5559841223471
 11
73.98910995329092
 21
-142.8078206023189
 72
     1
 10
73.98910995329092
 20
-142.8078206023189
 11
73.73744572809342
 21
-142.8078206023189
 97
        0
 75
     2
 76
     1
 98
        0
  0
SPLINE
  5
ED
330
DC
100
AcDbEntity
  8
_U+30EC_U+30A4_U+30E4_U+30FC 1
370
     0
100
AcDbSpline
210
0.0
220
0.0
230
1.0
 70
    11
 71
     3
 72
    53
 73
    49
 74
     0
 42
0.0000000001
 43
0.0000000001
 12
1.0
 22
0.0
 32
0.0
 13
1.0
 23
0.0
 33
0.0
 40
0.0
 40
0.0
 40
0.0
 40
0.0
 40
1.0
 40
1.0
 40
1.0
 40
2.0
 40
2.0
 40
2.0
 40
3.0
 40
3.0
 40
3.0
 40
4.0
 40
4.0
 40
4.0
 40
5.0
 40
5.0
 40
5.0
 40
6.0
 40
6.0
 40
6.0
 40
7.0
 40
7.0
 40
7.0
 40
8.0
 40
8.0
 40
8.0
 40
9.0
 40
9.0
 40
9.0
 40
10.0
 40
10.0
 40
10.0
 40
11.0
 40
11.0
 40
11.0
 40
12.0
 40
12.0
 40
12.0
 40
13.0
 40
13.0
 40
13.0
 40
14.0
 40
14.0
 40
14.0
 40
15.0
 40
15.0
 40
15.0
 40
16.0
 40
16.0
 40
16.0
 40
16.0
 10
74.70672334286846
 20
-142.858463505952
 30
0.0
 10
74.62834742057903
 20
-142.858463505952
 30
0.0
 10
74.52688935853843
 20
-142.8415825380743
 30
0.0
 10
74.42525904172355
 20
-142.7781927811457
 30
0.0
 10
74.25179848404122
 20
-142.6682942351663
 30
0.0
 10
74.23061114680694
 20
-142.5370360971783
 30
0.0
 10
74.21166312163805
 20
-142.4292046084899
 30
0.0
 10
74.21166312163805
 20
-142.4292046084899
 30
0.0
 10
74.4336995256624
 20
-142.4292046084899
 30
0.0
 10
74.4336995256624
 20
-142.4292046084899
 30
0.0
 10
74.4888210534264
 20
-142.6279866179889
 30
0.0
 10
74.61577282205786
 20
-142.657614439162
 30
0.0
 10
74.70879040015961
 20
-142.657614439162
 30
0.0
 10
74.8484890220865
 20
-142.657614439162
 30
0.0
 10
75.00076224253453
 20
-142.5580511796383
 30
0.0
 10
75.00076224253453
 20
-142.3255072343839
 30
0.0
 10
75.00076224253453
 20
-142.0695366398298
 30
0.0
 10
74.82092825820449
 20
-141.9996012014793
 30
0.0
 10
74.70034991622074
 20
-141.9996012014793
 30
0.0
 10
74.66865503775645
 20
-141.9996012014793
 30
0.0
 10
74.52688935853843
 20
-141.9996012014793
 30
0.0
 10
74.43800589501897
 20
-142.1287922821761
 30
0.0
 10
74.43800589501897
 20
-142.1287922821761
 30
0.0
 10
74.2624782800455
 20
-142.1098442570073
 30
0.0
 10
74.2624782800455
 20
-142.1098442570073
 30
0.0
 10
74.2624782800455
 20
-142.1098442570073
 30
0.0
 10
74.38305662202924
 20
-141.2633842962814
 30
0.0
 10
74.38305662202924
 20
-141.2633842962814
 30
0.0
 10
74.38305662202924
 20
-141.2633842962814
 30
0.0
 10
75.16147594692144
 20
-141.2633842962814
 30
0.0
 10
75.16147594692144
 20
-141.2633842962814
 30
0.0
 10
75.16147594692144
 20
-141.2633842962814
 30
0.0
 10
75.16147594692144
 20
-141.458032191198
 30
0.0
 10
75.16147594692144
 20
-141.458032191198
 30
0.0
 10
75.16147594692144
 20
-141.458032191198
 30
0.0
 10
74.5458373837073
 20
-141.458032191198
 30
0.0
 10
74.5458373837073
 20
-141.458032191198
 30
0.0
 10
74.5458373837073
 20
-141.458032191198
 30
0.0
 10
74.48038056948755
 20
-141.8810899167867
 30
0.0
 10
74.48038056948755
 20
-141.8810899167867
 30
0.0
 10
74.541703269125
 20
-141.8473279810312
 30
0.0
 10
74.62421330599673
 20
-141.8070203638538
 30
0.0
 10
74.74255233591506
 20
-141.8070203638538
 30
0.0
 10
74.99645587317798
 20
-141.8070203638538
 30
0.0
 10
75.23347844256317
 20
-141.9934000296058
 30
0.0
 10
75.23347844256317
 20
-142.306559209215
 30
0.0
 10
75.23347844256317
 20
-142.6238525034065
 30
0.0
 10
75.0092027264734
 20
-142.858463505952
 30
0.0
 10
74.70672334286846
 20
-142.858463505952
 30
0.0
  0
HATCH
  5
EE
330
DC
100
AcDbEntity
  8
_U+30EC_U+30A4_U+30E4_U+30FC 1
 62
   179
420
  2234388
100
AcDbHatch
 10
0.0
 20
0.0
 30
0.0
210
0.0
220
0.0
230
1.0
  2
SOLID
 70
     1
 71
     0
 91
        1
 92
        1
 93
        1
 72
     4
 94
        3
 73
     0
 74
     1
 95
       53
 96
       49
 40
0.0
 40
0.0
 40
0.0
 40
0.0
 40
1.0
 40
1.0
 40
1.0
 40
2.0
 40
2.0
 40
2.0
 40
3.0
 40
3.0
 40
3.0
 40
4.0
 40
4.0
 40
4.0
 40
5.0
 40
5.0
 40
5.0
 40
6.0
 40
6.0
 40
6.0
 40
7.0
 40
7.0
 40
7.0
 40
8.0
 40
8.0
 40
8.0
 40
9.0
 40
9.0
 40
9.0
 40
10.0
 40
10.0
 40
10.0
 40
11.0
 40
11.0
 40
11.0
 40
12.0
 40
12.0
 40
12.0
 40
13.0
 40
13.0
 40
13.0
 40
14.0
 40
14.0
 40
14.0
 40
15.0
 40
15.0
 40
15.0
 40
16.0
 40
16.0
 40
16.0
 40
16.0
 10
74.70672334286846
 20
-142.858463505952
 10
74.62834742057903
 20
-142.858463505952
 10
74.52688935853843
 20
-142.8415825380743
 10
74.42525904172355
 20
-142.7781927811457
 10
74.25179848404122
 20
-142.6682942351663
 10
74.23061114680694
 20
-142.5370360971783
 10
74.21166312163805
 20
-142.4292046084899
 10
74.21166312163805
 20
-142.4292046084899
 10
74.4336995256624
 20
-142.4292046084899
 10
74.4336995256624
 20
-142.4292046084899
 10
74.4888210534264
 20
-142.6279866179889
 10
74.61577282205786
 20
-142.657614439162
 10
74.70879040015961
 20
-142.657614439162
 10
74.8484890220865
 20
-142.657614439162
 10
75.00076224253453
 20
-142.5580511796383
 10
75.00076224253453
 20
-142.3255072343839
 10
75.00076224253453
 20
-142.0695366398298
 10
74.82092825820449
 20
-141.9996012014793
 10
74.70034991622074
 20
-141.9996012014793
 10
74.66865503775645
 20
-141.9996012014793
 10
74.52688935853843
 20
-141.9996012014793
 10
74.43800589501897
 20
-142.1287922821761
 10
74.43800589501897
 20
-142.1287922821761
 10
74.2624782800455
 20
-142.1098442570073
 10
74.2624782800455
 20
-142.1098442570073
 10
74.2624782800455
 20
-142.1098442570073
 10
74.38305662202924
 20
-141.2633842962814
 10
74.38305662202924
 20
-141.2633842962814
 10
74.38305662202924
 20
-141.2633842962814
 10
75.16147594692144
 20
-141.2633842962814
 10
75.16147594692144
 20
-141.2633842962814
 10
75.16147594692144
 20
-141.2633842962814
 10
75.16147594692144
 20
-141.458032191198
 10
75.16147594692144
 20
-141.458032191198
 10
75.16147594692144
 20
-141.458032191198
 10
74.5458373837073
 20
-141.458032191198
 10
74.5458373837073
 20
-141.458032191198
 10
74.5458373837073
 20
-141.458032191198
 10
74.48038056948755
 20
-141.8810899167867
 10
74.48038056948755
 20
-141.8810899167867
 10
74.541703269125
 20
-141.8473279810312
 10
74.62421330599673
 20
-141.8070203638538
 10
74.74255233591506
 20
-141.8070203638538
 10
74.99645587317798
 20
-141.8070203638538
 10
75.23347844256317
 20
-141.9934000296058
 10
75.23347844256317
 20
-142.306559209215
 10
75.23347844256317
 20
-142.6238525034065
 10
75.0092027264734
 20
-142.858463505952
 10
74.70672334286846
 20
-142.858463505952
 97
        0
 97
        0
 75
     2
 76
     1
 98
        0
  0
ENDBLK
  5
DF
330
DC
100
AcDbEntity
  8
0
100
AcDbBlockEnd
  0
BLOCK
  5
F9
330
F7
100
AcDbEntity
  8
0
100
AcDbBlockBegin
  2
block 6
 70
     0
 10
0.0
 20
0.0
 30
0.0
  3
block 6
  1

  0
SPLINE
  5
FB
330
F7
100
AcDbEntity
  8
_U+30EC_U+30A4_U+30E4_U+30FC 1
370
     0
100
AcDbSpline
210
0.0
220
0.0
230
1.0
 70
    11
 71
     3
 72
    26
 73
    22
 74
     0
 42
0.0000000001
 43
0.0000000001
 12
1.0
 22
0.0
 32
0.0
 13
1.0
 23
0.0
 33
0.0
 40
0.0
 40
0.0
 40
0.0
 40
0.0
 40
1.0
 40
1.0
 40
1.0
 40
2.0
 40
2.0
 40
2.0
 40
3.0
 40
3.0
 40
3.0
 40
4.0
 40
4.0
 40
4.0
 40
5.0
 40
5.0
 40
5.0
 40
6.0
 40
6.0
 40
6.0
 40
7.0
 40
7.0
 40
7.0
 40
7.0
 10
99.23218584758779
 20
-147.9775308874848
 30
0.0
 10
99.23218584758779
 20
-147.9775308874848
 30
0.0
 10
99.23218584758779
 20
-146.8733777844622
 30
0.0
 10
99.23218584758779
 20
-146.8733777844622
 30
0.0
 10
99.23218584758779
 20
-146.8733777844622
 30
0.0
 10
98.90214570010086
 20
-146.8733777844622
 30
0.0
 10
98.90214570010086
 20
-146.8733777844622
 30
0.0
 10
98.90214570010086
 20
-146.8733777844622
 30
0.0
 10
98.90214570010086
 20
-146.7252386785965
 30
0.0
 10
98.90214570010086
 20
-146.7252386785965
 30
0.0
 10
99.23425290487894
 20
-146.7104247680099
 30
0.0
 10
99.28076169392982
 20
-146.5474717515576
 30
0.0
 10
99.31038951510297
 20
-146.4330945814473
 30
0.0
 10
99.31038951510297
 20
-146.4330945814473
 30
0.0
 10
99.45646156367755
 20
-146.4330945814473
 30
0.0
 10
99.45646156367755
 20
-146.4330945814473
 30
0.0
 10
99.45646156367755
 20
-146.4330945814473
 30
0.0
 10
99.45646156367755
 20
-147.9775308874848
 30
0.0
 10
99.45646156367755
 20
-147.9775308874848
 30
0.0
 10
99.45646156367755
 20
-147.9775308874848
 30
0.0
 10
99.23218584758779
 20
-147.9775308874848
 30
0.0
 10
99.23218584758779
 20
-147.9775308874848
 30
0.0
  0
HATCH
  5
FC
330
F7
100
AcDbEntity
  8
_U+30EC_U+30A4_U+30E4_U+30FC 1
 62
   179
420
  2234388
100
AcDbHatch
 10
0.0
 20
0.0
 30
0.0
210
0.0
220
0.0
230
1.0
  2
SOLID
 70
     1
 71
     0
 91
        1
 92
        1
 93
        1
 72
     4
 94
        3
 73
     0
 74
     1
 95
       26
 96
       22
 40
0.0
 40
0.0
 40
0.0
 40
0.0
 40
1.0
 40
1.0
 40
1.0
 40
2.0
 40
2.0
 40
2.0
 40
3.0
 40
3.0
 40
3.0
 40
4.0
 40
4.0
 40
4.0
 40
5.0
 40
5.0
 40
5.0
 40
6.0
 40
6.0
 40
6.0
 40
7.0
 40
7.0
 40
7.0
 40
7.0
 10
99.23218584758779
 20
-147.9775308874848
 10
99.23218584758779
 20
-147.9775308874848
 10
99.23218584758779
 20
-146.8733777844622
 10
99.23218584758779
 20
-146.8733777844622
 10
99.23218584758779
 20
-146.8733777844622
 10
98.90214570010086
 20
-146.8733777844622
 10
98.90214570010086
 20
-146.8733777844622
 10
98.90214570010086
 20
-146.8733777844622
 10
98.90214570010086
 20
-146.7252386785965
 10
98.90214570010086
 20
-146.7252386785965
 10
99.23425290487894
 20
-146.7104247680099
 10
99.28076169392982
 20
-146.5474717515576
 10
99.31038951510297
 20
-146.4330945814473
 10
99.31038951510297
 20
-146.4330945814473
 10
99.45646156367755
 20
-146.4330945814473
 10
99.45646156367755
 20
-146.4330945814473
 10
99.45646156367755
 20
-146.4330945814473
 10
99.45646156367755
 20
-147.9775308874848
 10
99.45646156367755
 20
-147.9775308874848
 10
99.45646156367755
 20
-147.9775308874848
 10
99.23218584758779
 20
-147.9775308874848
 10
99.23218584758779
 20
-147.9775308874848
 97
        0
 97
        0
 75
     2
 76
     1
 98
        0
  0
SPLINE
  5
FD
330
F7
100
AcDbEntity
  8
_U+30EC_U+30A4_U+30E4_U+30FC 1
370
     0
100
AcDbSpline
210
0.0
220
0.0
230
1.0
 70
    11
 71
     3
 72
    44
 73
    40
 74
     0
 42
0.0000000001
 43
0.0000000001
 12
1.0
 22
0.0
 32
0.0
 13
1.0
 23
0.0
 33
0.0
 40
0.0
 40
0.0
 40
0.0
 40
0.0
 40
1.0
 40
1.0
 40
1.0
 40
2.0
 40
2.0
 40
2.0
 40
3.0
 40
3.0
 40
3.0
 40
4.0
 40
4.0
 40
4.0
 40
5.0
 40
5.0
 40
5.0
 40
6.0
 40
6.0
 40
6.0
 40
7.0
 40
7.0
 40
7.0
 40
8.0
 40
8.0
 40
8.0
 40
9.0
 40
9.0
 40
9.0
 40
10.0
 40
10.0
 40
10.0
 40
11.0
 40
11.0
 40
11.0
 40
12.0
 40
12.0
 40
12.0
 40
13.0
 40
13.0
 40
13.0
 40
13.0
 10
100.5506238897929
 20
-147.3956542600261
 30
0.0
 10
100.3328938551251
 20
-147.5544731618961
 30
0.0
 10
100.2398762770234
 20
-147.628542714829
 30
0.0
 10
100.1909559211328
 20
-147.7722031965639
 30
0.0
 10
100.1909559211328
 20
-147.7722031965639
 30
0.0
 10
100.9695475007993
 20
-147.7722031965639
 30
0.0
 10
100.9695475007993
 20
-147.7722031965639
 30
0.0
 10
100.9695475007993
 20
-147.7722031965639
 30
0.0
 10
100.9695475007993
 20
-147.9775308874848
 30
0.0
 10
100.9695475007993
 20
-147.9775308874848
 30
0.0
 10
100.9695475007993
 20
-147.9775308874848
 30
0.0
 10
99.94153100800074
 20
-147.9775308874848
 30
0.0
 10
99.94153100800074
 20
-147.9775308874848
 30
0.0
 10
99.97322588646503
 20
-147.6199299761159
 30
0.0
 10
100.0386827006848
 20
-147.5417263086007
 30
0.0
 10
100.4238443759357
 20
-147.2433810395781
 30
0.0
 10
100.6798149704898
 20
-147.0445990300791
 30
0.0
 10
100.7452717847095
 20
-146.9767306490197
 30
0.0
 10
100.7452717847095
 20
-146.8392713391582
 30
0.0
 10
100.7452717847095
 20
-146.7207600544656
 30
0.0
 10
100.6732692890678
 20
-146.5898464260262
 30
0.0
 10
100.47655433686
 20
-146.5898464260262
 30
0.0
 10
100.2164496277237
 20
-146.5898464260262
 30
0.0
 10
100.2078368890106
 20
-146.8203233139894
 30
0.0
 10
100.2037027744283
 20
-146.9367675413908
 30
0.0
 10
100.2037027744283
 20
-146.9367675413908
 30
0.0
 10
99.97942705833849
 20
-146.9367675413908
 30
0.0
 10
99.97942705833849
 20
-146.9367675413908
 30
0.0
 10
99.98803979705161
 20
-146.8096435179851
 30
0.0
 10
99.99871959305588
 20
-146.6976779147145
 30
0.0
 10
100.0789903178622
 20
-146.5791666300219
 30
0.0
 10
100.1888888638417
 20
-146.4182806708607
 30
0.0
 10
100.3752685295937
 20
-146.3845187351053
 30
0.0
 10
100.4913682474466
 20
-146.3845187351053
 30
0.0
 10
100.7686984340092
 20
-146.3845187351053
 30
0.0
 10
100.9760931822213
 20
-146.5684868340176
 30
0.0
 10
100.9760931822213
 20
-146.8413383964494
 30
0.0
 10
100.9760931822213
 20
-147.07009273667
 30
0.0
 10
100.8596489548198
 20
-147.1693114866452
 30
0.0
 10
100.5506238897929
 20
-147.3956542600261
 30
0.0
  0
HATCH
  5
FE
330
F7
100
AcDbEntity
  8
_U+30EC_U+30A4_U+30E4_U+30FC 1
 62
   179
420
  2234388
100
AcDbHatch
 10
0.0
 20
0.0
 30
0.0
210
0.0
220
0.0
230
1.0
  2
SOLID
 70
     1
 71
     0
 91
        1
 92
        1
 93
        1
 72
     4
 94
        3
 73
     0
 74
     1
 95
       44
 96
       40
 40
0.0
 40
0.0
 40
0.0
 40
0.0
 40
1.0
 40
1.0
 40
1.0
 40
2.0
 40
2.0
 40
2.0
 40
3.0
 40
3.0
 40
3.0
 40
4.0
 40
4.0
 40
4.0
 40
5.0
 40
5.0
 40
5.0
 40
6.0
 40
6.0
 40
6.0
 40
7.0
 40
7.0
 40
7.0
 40
8.0
 40
8.0
 40
8.0
 40
9.0
 40
9.0
 40
9.0
 40
10.0
 40
10.0
 40
10.0
 40
11.0
 40
11.0
 40
11.0
 40
12.0
 40
12.0
 40
12.0
 40
13.0
 40
13.0
 40
13.0
 40
13.0
 10
100.5506238897929
 20
-147.3956542600261
 10
100.3328938551251
 20
-147.5544731618961
 10
100.2398762770234
 20
-147.628542714829
 10
100.1909559211328
 20
-147.7722031965639
 10
100.1909559211328
 20
-147.7722031965639
 10
100.9695475007993
 20
-147.7722031965639
 10
100.9695475007993
 20
-147.7722031965639
 10
100.9695475007993
 20
-147.7722031965639
 10
100.9695475007993
 20
-147.9775308874848
 10
100.9695475007993
 20
-147.9775308874848
 10
100.9695475007993
 20
-147.9775308874848
 10
99.94153100800074
 20
-147.9775308874848
 10
99.94153100800074
 20
-147.9775308874848
 10
99.97322588646503
 20
-147.6199299761159
 10
100.0386827006848
 20
-147.5417263086007
 10
100.4238443759357
 20
-147.2433810395781
 10
100.6798149704898
 20
-147.0445990300791
 10
100.7452717847095
 20
-146.9767306490197
 10
100.7452717847095
 20
-146.8392713391582
 10
100.7452717847095
 20
-146.7207600544656
 10
100.6732692890678
 20
-146.5898464260262
 10
100.47655433686
 20
-146.5898464260262
 10
100.2164496277237
 20
-146.5898464260262
 10
100.2078368890106
 20
-146.8203233139894
 10
100.2037027744283
 20
-146.9367675413908
 10
100.2037027744283
 20
-146.9367675413908
 10
99.97942705833849
 20
-146.9367675413908
 10
99.97942705833849
 20
-146.9367675413908
 10
99.98803979705161
 20
-146.8096435179851
 10
99.99871959305588
 20
-146.6976779147145
 10
100.0789903178622
 20
-146.5791666300219
 10
100.1888888638417
 20
-146.4182806708607
 10
100.3752685295937
 20
-146.3845187351053
 10
100.4913682474466
 20
-146.3845187351053
 10
100.7686984340092
 20
-146.3845187351053
 10
100.9760931822213
 20
-146.5684868340176
 10
100.9760931822213
 20
-146.8413383964494
 10
100.9760931822213
 20
-147.07009273667
 10
100.8596489548198
 20
-147.1693114866452
 10
100.5506238897929
 20
-147.3956542600261
 97
        0
 97
        0
 75
     2
 76
     1
 98
        0
  0
POLYLINE
  5
FF
330
F7
100
AcDbEntity
  8
_U+30EC_U+30A4_U+30E4_U+30FC 1
370
     0
100
AcDb2dPolyline
 66
     1
 10
0.0
 20
0.0
 30
0.0
  0
VERTEX
  5
100
330
FF
100
AcDbEntity
  8
_U+30EC_U+30A4_U+30E4_U+30FC 1
370
     0
100
AcDbVertex
100
AcDb2dVertex
 10
101.1945122359861
 20
-147.9775308874848
 30
0.0
  0
VERTEX
  5
101
330
FF
100
AcDbEntity
  8
_U+30EC_U+30A4_U+30E4_U+30FC 1
370
     0
100
AcDbVertex
100
AcDb2dVertex
 10
101.1945122359861
 20
-147.725694407513
 30
0.0
  0
VERTEX
  5
102
330
FF
100
AcDbEntity
  8
_U+30EC_U+30A4_U+30E4_U+30FC 1
370
     0
100
AcDbVertex
100
AcDb2dVertex
 10
101.4463487159579
 20
-147.725694407513
 30
0.0
  0
VERTEX
  5
103
330
FF
100
AcDbEntity
  8
_U+30EC_U+30A4_U+30E4_U+30FC 1
370
     0
100
AcDbVertex
100
AcDb2dVertex
 10
101.4463487159579
 20
-147.9775308874848
 30
0.0
  0
VERTEX
  5
104
330
FF
100
AcDbEntity
  8
_U+30EC_U+30A4_U+30E4_U+30FC 1
370
     0
100
AcDbVertex
100
AcDb2dVertex
 10
101.1945122359861
 20
-147.9775308874848
 30
0.0
  0
SEQEND
  5
105
330
FF
100
AcDbEntity
  8
_U+30EC_U+30A4_U+30E4_U+30FC 1
370
     0
  0
HATCH
  5
106
330
F7
100
AcDbEntity
  8
_U+30EC_U+30A4_U+30E4_U+30FC 1
 62
   179
420
  2234388
100
AcDbHatch
 10
0.0
 20
0.0
 30
0.0
210
0.0
220
0.0
230
1.0
  2
SOLID
 70
     1
 71
     0
 91
        1
 92
        1
 93
        4
 72
     1
 10
101.1945122359861
 20
-147.9775308874848
 11
101.1945122359861
 21
-147.725694407513
 72
     1
 10
101.1945122359861
 20
-147.725694407513
 11
101.4463487159579
 21
-147.725694407513
 72
     1
 10
101.4463487159579
 20
-147.725694407513
 11
101.4463487159579
 21
-147.9775308874848
 72
     1
 10
101.4463487159579
 20
-147.9775308874848
 11
101.1945122359861
 21
-147.9775308874848
 97
        0
 75
     2
 76
     1
 98
        0
  0
SPLINE
  5
107
330
F7
100
AcDbEntity
  8
_U+30EC_U+30A4_U+30E4_U+30FC 1
370
     0
100
AcDbSpline
210
0.0
220
0.0
230
1.0
 70
    11
 71
     3
 72
    53
 73
    49
 74
     0
 42
0.0000000001
 43
0.0000000001
 12
1.0
 22
0.0
 32
0.0
 13
1.0
 23
0.0
 33
0.0
 40
0.0
 40
0.0
 40
0.0
 40
0.0
 40
1.0
 40
1.0
 40
1.0
 40
2.0
 40
2.0
 40
2.0
 40
3.0
 40
3.0
 40
3.0
 40
4.0
 40
4.0
 40
4.0
 40
5.0
 40
5.0
 40
5.0
 40
6.0
 40
6.0
 40
6.0
 40
7.0
 40
7.0
 40
7.0
 40
8.0
 40
8.0
 40
8.0
 40
9.0
 40
9.0
 40
9.0
 40
10.0
 40
10.0
 40
10.0
 40
11.0
 40
11.0
 40
11.0
 40
12.0
 40
12.0
 40
12.0
 40
13.0
 40
13.0
 40
13.0
 40
14.0
 40
14.0
 40
14.0
 40
15.0
 40
15.0
 40
15.0
 40
16.0
 40
16.0
 40
16.0
 40
16.0
 10
102.1636175959869
 20
-148.028173791118
 30
0.0
 10
102.0854139284717
 20
-148.028173791118
 30
0.0
 10
101.9837836116568
 20
-148.0112928232402
 30
0.0
 10
101.882153294842
 20
-147.9479030663117
 30
0.0
 10
101.7088649919339
 20
-147.8380045203322
 30
0.0
 10
101.6875053999254
 20
-147.7067463823442
 30
0.0
 10
101.6685573747565
 20
-147.5989148936558
 30
0.0
 10
101.6685573747565
 20
-147.5989148936558
 30
0.0
 10
101.8907660335551
 20
-147.5989148936558
 30
0.0
 10
101.8907660335551
 20
-147.5989148936558
 30
0.0
 10
101.9455430517706
 20
-147.7976969031548
 30
0.0
 10
102.0726670751763
 20
-147.8273247243279
 30
0.0
 10
102.165684653278
 20
-147.8273247243279
 30
0.0
 10
102.3052110204306
 20
-147.8273247243279
 30
0.0
 10
102.4574842408787
 20
-147.7277614648042
 30
0.0
 10
102.4574842408787
 20
-147.4952175195498
 30
0.0
 10
102.4574842408787
 20
-147.2392469249957
 30
0.0
 10
102.2776502565487
 20
-147.1693114866452
 30
0.0
 10
102.1570719145649
 20
-147.1693114866452
 30
0.0
 10
102.1253770361006
 20
-147.1693114866452
 30
0.0
 10
101.9837836116568
 20
-147.1693114866452
 30
0.0
 10
101.8949001481374
 20
-147.298502567342
 30
0.0
 10
101.8949001481374
 20
-147.298502567342
 30
0.0
 10
101.7192002783896
 20
-147.2795545421732
 30
0.0
 10
101.7192002783896
 20
-147.2795545421732
 30
0.0
 10
101.7192002783896
 20
-147.2795545421732
 30
0.0
 10
101.8397786203734
 20
-146.4330945814473
 30
0.0
 10
101.8397786203734
 20
-146.4330945814473
 30
0.0
 10
101.8397786203734
 20
-146.4330945814473
 30
0.0
 10
102.6183702000399
 20
-146.4330945814473
 30
0.0
 10
102.6183702000399
 20
-146.4330945814473
 30
0.0
 10
102.6183702000399
 20
-146.4330945814473
 30
0.0
 10
102.6183702000399
 20
-146.6277424763639
 30
0.0
 10
102.6183702000399
 20
-146.6277424763639
 30
0.0
 10
102.6183702000399
 20
-146.6277424763639
 30
0.0
 10
102.0027316368257
 20
-146.6277424763639
 30
0.0
 10
102.0027316368257
 20
-146.6277424763639
 30
0.0
 10
102.0027316368257
 20
-146.6277424763639
 30
0.0
 10
101.937274822606
 20
-147.0508002019526
 30
0.0
 10
101.937274822606
 20
-147.0508002019526
 30
0.0
 10
101.9985975222434
 20
-147.0170382661971
 30
0.0
 10
102.0809353043409
 20
-146.9767306490197
 30
0.0
 10
102.1994465890335
 20
-146.9767306490197
 30
0.0
 10
102.4533501262964
 20
-146.9767306490197
 30
0.0
 10
102.6903726956816
 20
-147.1631103147717
 30
0.0
 10
102.6903726956816
 20
-147.4762694943809
 30
0.0
 10
102.6903726956816
 20
-147.7935627885724
 30
0.0
 10
102.4660969795918
 20
-148.028173791118
 30
0.0
 10
102.1636175959869
 20
-148.028173791118
 30
0.0
  0
HATCH
  5
108
330
F7
100
AcDbEntity
  8
_U+30EC_U+30A4_U+30E4_U+30FC 1
 62
   179
420
  2234388
100
AcDbHatch
 10
0.0
 20
0.0
 30
0.0
210
0.0
220
0.0
230
1.0
  2
SOLID
 70
     1
 71
     0
 91
        1
 92
        1
 93
        1
 72
     4
 94
        3
 73
     0
 74
     1
 95
       53
 96
       49
 40
0.0
 40
0.0
 40
0.0
 40
0.0
 40
1.0
 40
1.0
 40
1.0
 40
2.0
 40
2.0
 40
2.0
 40
3.0
 40
3.0
 40
3.0
 40
4.0
 40
4.0
 40
4.0
 40
5.0
 40
5.0
 40
5.0
 40
6.0
 40
6.0
 40
6.0
 40
7.0
 40
7.0
 40
7.0
 40
8.0
 40
8.0
 40
8.0
 40
9.0
 40
9.0
 40
9.0
 40
10.0
 40
10.0
 40
10.0
 40
11.0
 40
11.0
 40
11.0
 40
12.0
 40
12.0
 40
12.0
 40
13.0
 40
13.0
 40
13.0
 40
14.0
 40
14.0
 40
14.0
 40
15.0
 40
15.0
 40
15.0
 40
16.0
 40
16.0
 40
16.0
 40
16.0
 10
102.1636175959869
 20
-148.028173791118
 10
102.0854139284717
 20
-148.028173791118
 10
101.9837836116568
 20
-148.0112928232402
 10
101.882153294842
 20
-147.9479030663117
 10
101.7088649919339
 20
-147.8380045203322
 10
101.6875053999254
 20
-147.7067463823442
 10
101.6685573747565
 20
-147.5989148936558
 10
101.6685573747565
 20
-147.5989148936558
 10
101.8907660335551
 20
-147.5989148936558
 10
101.8907660335551
 20
-147.5989148936558
 10
101.9455430517706
 20
-147.7976969031548
 10
102.0726670751763
 20
-147.8273247243279
 10
102.165684653278
 20
-147.8273247243279
 10
102.3052110204306
 20
-147.8273247243279
 10
102.4574842408787
 20
-147.7277614648042
 10
102.4574842408787
 20
-147.4952175195498
 10
102.4574842408787
 20
-147.2392469249957
 10
102.2776502565487
 20
-147.1693114866452
 10
102.1570719145649
 20
-147.1693114866452
 10
102.1253770361006
 20
-147.1693114866452
 10
101.9837836116568
 20
-147.1693114866452
 10
101.8949001481374
 20
-147.298502567342
 10
101.8949001481374
 20
-147.298502567342
 10
101.7192002783896
 20
-147.2795545421732
 10
101.7192002783896
 20
-147.2795545421732
 10
101.7192002783896
 20
-147.2795545421732
 10
101.8397786203734
 20
-146.4330945814473
 10
101.8397786203734
 20
-146.4330945814473
 10
101.8397786203734
 20
-146.4330945814473
 10
102.6183702000399
 20
-146.4330945814473
 10
102.6183702000399
 20
-146.4330945814473
 10
102.6183702000399
 20
-146.4330945814473
 10
102.6183702000399
 20
-146.6277424763639
 10
102.6183702000399
 20
-146.6277424763639
 10
102.6183702000399
 20
-146.6277424763639
 10
102.0027316368257
 20
-146.6277424763639
 10
102.0027316368257
 20
-146.6277424763639
 10
102.0027316368257
 20
-146.6277424763639
 10
101.937274822606
 20
-147.0508002019526
 10
101.937274822606
 20
-147.0508002019526
 10
101.9985975222434
 20
-147.0170382661971
 10
102.0809353043409
 20
-146.9767306490197
 10
102.1994465890335
 20
-146.9767306490197
 10
102.4533501262964
 20
-146.9767306490197
 10
102.6903726956816
 20
-147.1631103147717
 10
102.6903726956816
 20
-147.4762694943809
 10
102.6903726956816
 20
-147.7935627885724
 10
102.4660969795918
 20
-148.028173791118
 10
102.1636175959869
 20
-148.028173791118
 97
        0
 97
        0
 75
     2
 76
     1
 98
        0
  0
ENDBLK
  5
FA
330
F7
100
AcDbEntity
  8
0
100
AcDbBlockEnd
  0
BLOCK
  5
117
330
115
100
AcDbEntity
  8
0
100
AcDbBlockBegin
  2
block 7
 70
     0
 10
0.0
 20
0.0
 30
0.0
  3
block 7
  1

  0
SPLINE
  5
119
330
115
100
AcDbEntity
  8
_U+30EC_U+30A4_U+30E4_U+30FC 1
370
     0
100
AcDbSpline
210
0.0
220
0.0
230
1.0
 70
    11
 71
     3
 72
    26
 73
    22
 74
     0
 42
0.0000000001
 43
0.0000000001
 12
1.0
 22
0.0
 32
0.0
 13
1.0
 23
0.0
 33
0.0
 40
0.0
 40
0.0
 40
0.0
 40
0.0
 40
1.0
 40
1.0
 40
1.0
 40
2.0
 40
2.0
 40
2.0
 40
3.0
 40
3.0
 40
3.0
 40
4.0
 40
4.0
 40
4.0
 40
5.0
 40
5.0
 40
5.0
 40
6.0
 40
6.0
 40
6.0
 40
7.0
 40
7.0
 40
7.0
 40
7.0
 10
85.65058591608735
 20
-147.9775308874848
 30
0.0
 10
85.65058591608735
 20
-147.9775308874848
 30
0.0
 10
85.65058591608735
 20
-146.8733777844622
 30
0.0
 10
85.65058591608735
 20
-146.8733777844622
 30
0.0
 10
85.65058591608735
 20
-146.8733777844622
 30
0.0
 10
85.32054576860043
 20
-146.8733777844622
 30
0.0
 10
85.32054576860043
 20
-146.8733777844622
 30
0.0
 10
85.32054576860043
 20
-146.8733777844622
 30
0.0
 10
85.32054576860043
 20
-146.7252386785965
 30
0.0
 10
85.32054576860043
 20
-146.7252386785965
 30
0.0
 10
85.65265297337851
 20
-146.7104247680099
 30
0.0
 10
85.69916176242938
 20
-146.5474717515576
 30
0.0
 10
85.72878958360253
 20
-146.4330945814473
 30
0.0
 10
85.72878958360253
 20
-146.4330945814473
 30
0.0
 10
85.87486163217712
 20
-146.4330945814473
 30
0.0
 10
85.87486163217712
 20
-146.4330945814473
 30
0.0
 10
85.87486163217712
 20
-146.4330945814473
 30
0.0
 10
85.87486163217712
 20
-147.9775308874848
 30
0.0
 10
85.87486163217712
 20
-147.9775308874848
 30
0.0
 10
85.87486163217712
 20
-147.9775308874848
 30
0.0
 10
85.65058591608735
 20
-147.9775308874848
 30
0.0
 10
85.65058591608735
 20
-147.9775308874848
 30
0.0
  0
HATCH
  5
11A
330
115
100
AcDbEntity
  8
_U+30EC_U+30A4_U+30E4_U+30FC 1
 62
   179
420
  2234388
100
AcDbHatch
 10
0.0
 20
0.0
 30
0.0
210
0.0
220
0.0
230
1.0
  2
SOLID
 70
     1
 71
     0
 91
        1
 92
        1
 93
        1
 72
     4
 94
        3
 73
     0
 74
     1
 95
       26
 96
       22
 40
0.0
 40
0.0
 40
0.0
 40
0.0
 40
1.0
 40
1.0
 40
1.0
 40
2.0
 40
2.0
 40
2.0
 40
3.0
 40
3.0
 40
3.0
 40
4.0
 40
4.0
 40
4.0
 40
5.0
 40
5.0
 40
5.0
 40
6.0
 40
6.0
 40
6.0
 40
7.0
 40
7.0
 40
7.0
 40
7.0
 10
85.65058591608735
 20
-147.9775308874848
 10
85.65058591608735
 20
-147.9775308874848
 10
85.65058591608735
 20
-146.8733777844622
 10
85.65058591608735
 20
-146.8733777844622
 10
85.65058591608735
 20
-146.8733777844622
 10
85.32054576860043
 20
-146.8733777844622
 10
85.32054576860043
 20
-146.8733777844622
 10
85.32054576860043
 20
-146.8733777844622
 10
85.32054576860043
 20
-146.7252386785965
 10
85.32054576860043
 20
-146.7252386785965
 10
85.65265297337851
 20
-146.7104247680099
 10
85.69916176242938
 20
-146.5474717515576
 10
85.72878958360253
 20
-146.4330945814473
 10
85.72878958360253
 20
-146.4330945814473
 10
85.87486163217712
 20
-146.4330945814473
 10
85.87486163217712
 20
-146.4330945814473
 10
85.87486163217712
 20
-146.4330945814473
 10
85.87486163217712
 20
-147.9775308874848
 10
85.87486163217712
 20
-147.9775308874848
 10
85.87486163217712
 20
-147.9775308874848
 10
85.65058591608735
 20
-147.9775308874848
 10
85.65058591608735
 20
-147.9775308874848
 97
        0
 97
        0
 75
     2
 76
     1
 98
        0
  0
SPLINE
  5
11B
330
115
100
AcDbEntity
  8
_U+30EC_U+30A4_U+30E4_U+30FC 1
370
     0
100
AcDbSpline
210
0.0
220
0.0
230
1.0
 70
    11
 71
     3
 72
    32
 73
    28
 74
     0
 42
0.0000000001
 43
0.0000000001
 12
1.0
 22
0.0
 32
0.0
 13
1.0
 23
0.0
 33
0.0
 40
0.0
 40
0.0
 40
0.0
 40
0.0
 40
1.0
 40
1.0
 40
1.0
 40
2.0
 40
2.0
 40
2.0
 40
3.0
 40
3.0
 40
3.0
 40
4.0
 40
4.0
 40
4.0
 40
5.0
 40
5.0
 40
5.0
 40
6.0
 40
6.0
 40
6.0
 40
7.0
 40
7.0
 40
7.0
 40
8.0
 40
8.0
 40
8.0
 40
9.0
 40
9.0
 40
9.0
 40
9.0
 10
86.88014049477303
 20
-148.028173791118
 30
0.0
 10
86.3640651910826
 20
-148.028173791118
 30
0.0
 10
86.355796961918
 20
-147.4742024370898
 30
0.0
 10
86.355796961918
 20
-147.2602620074558
 30
0.0
 10
86.355796961918
 20
-147.0297851194926
 30
0.0
 10
86.37474498708687
 20
-146.3824516778141
 30
0.0
 10
86.91838105465929
 20
-146.3824516778141
 30
0.0
 10
87.09166935756737
 20
-146.3824516778141
 30
0.0
 10
87.33730466566568
 20
-146.4523871161647
 30
0.0
 10
87.37520071600342
 20
-146.7844943209428
 30
0.0
 10
87.37520071600342
 20
-146.7844943209428
 30
0.0
 10
87.16160479591794
 20
-146.7844943209428
 30
0.0
 10
87.16160479591794
 20
-146.7844943209428
 30
0.0
 10
87.15092499991366
 20
-146.7273057358876
 30
0.0
 10
87.11923012144936
 20
-146.5791666300219
 30
0.0
 10
86.91631399736815
 20
-146.5791666300219
 30
0.0
 10
86.62416990021896
 20
-146.5791666300219
 30
0.0
 10
86.58420679259007
 20
-146.9071397202177
 30
0.0
 10
86.57145993929464
 20
-147.11212290159
 30
0.0
 10
86.66447751739638
 20
-147.0339192340749
 30
0.0
 10
86.7323458984558
 20
-146.9746635917286
 30
0.0
 10
86.91424694007699
 20
-146.9746635917286
 30
0.0
 10
87.09408092440704
 20
-146.9746635917286
 30
0.0
 10
87.39656030801197
 20
-147.0828395899654
 30
0.0
 10
87.39656030801197
 20
-147.4890163476764
 30
0.0
 10
87.39656030801197
 20
-147.808376699159
 30
0.0
 10
87.19743378896453
 20
-148.028173791118
 30
0.0
 10
86.88014049477303
 20
-148.028173791118
 30
0.0
  0
SPLINE
  5
11C
330
115
100
AcDbEntity
  8
_U+30EC_U+30A4_U+30E4_U+30FC 1
370
     0
100
AcDbSpline
210
0.0
220
0.0
230
1.0
 70
    11
 71
     3
 72
    17
 73
    13
 74
     0
 42
0.0000000001
 43
0.0000000001
 12
1.0
 22
0.0
 32
0.0
 13
1.0
 23
0.0
 33
0.0
 40
0.0
 40
0.0
 40
0.0
 40
0.0
 40
1.0
 40
1.0
 40
1.0
 40
2.0
 40
2.0
 40
2.0
 40
3.0
 40
3.0
 40
3.0
 40
4.0
 40
4.0
 40
4.0
 40
4.0
 10
86.89736597219927
 20
-147.1693114866452
 30
0.0
 10
86.63484969622324
 20
-147.1693114866452
 30
0.0
 10
86.59695364588549
 20
-147.3808403494395
 30
0.0
 10
86.59695364588549
 20
-147.497284576841
 30
0.0
 10
86.59695364588549
 20
-147.6729844465887
 30
0.0
 10
86.69203828127839
 20
-147.835937463041
 30
0.0
 10
86.87600638019073
 20
-147.835937463041
 30
0.0
 10
86.99658472217448
 20
-147.835937463041
 30
0.0
 10
87.1722845919222
 20
-147.7766818206947
 30
0.0
 10
87.1722845919222
 20
-147.4910834049675
 30
0.0
 10
87.1722845919222
 20
-147.2668076888777
 30
0.0
 10
87.03241371522107
 20
-147.1693114866452
 30
0.0
 10
86.89736597219927
 20
-147.1693114866452
 30
0.0
  0
HATCH
  5
11D
330
115
100
AcDbEntity
  8
_U+30EC_U+30A4_U+30E4_U+30FC 1
 62
   179
420
  2234388
100
AcDbHatch
 10
0.0
 20
0.0
 30
0.0
210
0.0
220
0.0
230
1.0
  2
SOLID
 70
     1
 71
     0
 91
        2
 92
        1
 93
        1
 72
     4
 94
        3
 73
     0
 74
     1
 95
       32
 96
       28
 40
0.0
 40
0.0
 40
0.0
 40
0.0
 40
1.0
 40
1.0
 40
1.0
 40
2.0
 40
2.0
 40
2.0
 40
3.0
 40
3.0
 40
3.0
 40
4.0
 40
4.0
 40
4.0
 40
5.0
 40
5.0
 40
5.0
 40
6.0
 40
6.0
 40
6.0
 40
7.0
 40
7.0
 40
7.0
 40
8.0
 40
8.0
 40
8.0
 40
9.0
 40
9.0
 40
9.0
 40
9.0
 10
86.88014049477303
 20
-148.028173791118
 10
86.3640651910826
 20
-148.028173791118
 10
86.355796961918
 20
-147.4742024370898
 10
86.355796961918
 20
-147.2602620074558
 10
86.355796961918
 20
-147.0297851194926
 10
86.37474498708687
 20
-146.3824516778141
 10
86.91838105465929
 20
-146.3824516778141
 10
87.09166935756737
 20
-146.3824516778141
 10
87.33730466566568
 20
-146.4523871161647
 10
87.37520071600342
 20
-146.7844943209428
 10
87.37520071600342
 20
-146.7844943209428
 10
87.16160479591794
 20
-146.7844943209428
 10
87.16160479591794
 20
-146.7844943209428
 10
87.15092499991366
 20
-146.7273057358876
 10
87.11923012144936
 20
-146.5791666300219
 10
86.91631399736815
 20
-146.5791666300219
 10
86.62416990021896
 20
-146.5791666300219
 10
86.58420679259007
 20
-146.9071397202177
 10
86.57145993929464
 20
-147.11212290159
 10
86.66447751739638
 20
-147.0339192340749
 10
86.7323458984558
 20
-146.9746635917286
 10
86.91424694007699
 20
-146.9746635917286
 10
87.09408092440704
 20
-146.9746635917286
 10
87.39656030801197
 20
-147.0828395899654
 10
87.39656030801197
 20
-147.4890163476764
 10
87.39656030801197
 20
-147.808376699159
 10
87.19743378896453
 20
-148.028173791118
 10
86.88014049477303
 20
-148.028173791118
 97
        0
 97
        0
 92
        1
 93
        1
 72
     4
 94
        3
 73
     0
 74
     1
 95
       17
 96
       13
 40
0.0
 40
0.0
 40
0.0
 40
0.0
 40
1.0
 40
1.0
 40
1.0
 40
2.0
 40
2.0
 40
2.0
 40
3.0
 40
3.0
 40
3.0
 40
4.0
 40
4.0
 40
4.0
 40
4.0
 10
86.89736597219927
 20
-147.1693114866452
 10
86.63484969622324
 20
-147.1693114866452
 10
86.59695364588549
 20
-147.3808403494395
 10
86.59695364588549
 20
-147.497284576841
 10
86.59695364588549
 20
-147.6729844465887
 10
86.69203828127839
 20
-147.835937463041
 10
86.87600638019073
 20
-147.835937463041
 10
86.99658472217448
 20
-147.835937463041
 10
87.1722845919222
 20
-147.7766818206947
 10
87.1722845919222
 20
-147.4910834049675
 10
87.1722845919222
 20
-147.2668076888777
 10
87.03241371522107
 20
-147.1693114866452
 10
86.89736597219927
 20
-147.1693114866452
 97
        0
 97
        0
 75
     2
 76
     1
 98
        0
  0
ENDBLK
  5
118
330
115
100
AcDbEntity
  8
0
100
AcDbBlockEnd
  0
BLOCK
  5
12C
330
12A
100
AcDbEntity
  8
0
100
AcDbBlockBegin
  2
block 8
 70
     0
 10
0.0
 20
0.0
 30
0.0
  3
block 8
  1

  0
SPLINE
  5
12E
330
12A
100
AcDbEntity
  8
_U+30EC_U+30A4_U+30E4_U+30FC 1
370
     0
100
AcDbSpline
210
0.0
220
0.0
230
1.0
 70
    11
 71
     3
 72
    32
 73
    28
 74
     0
 42
0.0000000001
 43
0.0000000001
 12
1.0
 22
0.0
 32
0.0
 13
1.0
 23
0.0
 33
0.0
 40
0.0
 40
0.0
 40
0.0
 40
0.0
 40
1.0
 40
1.0
 40
1.0
 40
2.0
 40
2.0
 40
2.0
 40
3.0
 40
3.0
 40
3.0
 40
4.0
 40
4.0
 40
4.0
 40
5.0
 40
5.0
 40
5.0
 40
6.0
 40
6.0
 40
6.0
 40
7.0
 40
7.0
 40
7.0
 40
8.0
 40
8.0
 40
8.0
 40
9.0
 40
9.0
 40
9.0
 40
9.0
 10
97.81797415089274
 20
-139.134315286397
 30
0.0
 10
97.81797415089274
 20
-139.6503905900874
 30
0.0
 10
97.26400279686456
 20
-139.658658819252
 30
0.0
 10
97.05006236723054
 20
-139.658658819252
 30
0.0
 10
96.81958547926733
 20
-139.658658819252
 30
0.0
 10
96.17225203758889
 20
-139.6397107940831
 30
0.0
 10
96.17225203758889
 20
-139.0960747265107
 30
0.0
 10
96.17225203758889
 20
-138.9227864236026
 30
0.0
 10
96.24218747593946
 20
-138.6771511155043
 30
0.0
 10
96.57429468071754
 20
-138.6392550651666
 30
0.0
 10
96.57429468071754
 20
-138.6392550651666
 30
0.0
 10
96.57429468071754
 20
-138.8528509852521
 30
0.0
 10
96.57429468071754
 20
-138.8528509852521
 30
0.0
 10
96.5171060956624
 20
-138.8635307812563
 30
0.0
 10
96.36896698979665
 20
-138.8952256597206
 30
0.0
 10
96.36896698979665
 20
-139.0981417838019
 30
0.0
 10
96.36896698979665
 20
-139.390285880951
 30
0.0
 10
96.69694007999243
 20
-139.4302489885799
 30
0.0
 10
96.9019232613648
 20
-139.4429958418754
 30
0.0
 10
96.82371959384963
 20
-139.3499782637736
 30
0.0
 10
96.76446395150333
 20
-139.2821098827142
 30
0.0
 10
96.76446395150333
 20
-139.100208841093
 30
0.0
 10
96.76446395150333
 20
-138.920374856763
 30
0.0
 10
96.87263994974018
 20
-138.617895473158
 30
0.0
 10
97.27881670745113
 20
-138.617895473158
 30
0.0
 10
97.5981770589338
 20
-138.617895473158
 30
0.0
 10
97.81797415089274
 20
-138.8170219922055
 30
0.0
 10
97.81797415089274
 20
-139.134315286397
 30
0.0
  0
SPLINE
  5
12F
330
12A
100
AcDbEntity
  8
_U+30EC_U+30A4_U+30E4_U+30FC 1
370
     0
100
AcDbSpline
210
0.0
220
0.0
230
1.0
 70
    11
 71
     3
 72
    17
 73
    13
 74
     0
 42
0.0000000001
 43
0.0000000001
 12
1.0
 22
0.0
 32
0.0
 13
1.0
 23
0.0
 33
0.0
 40
0.0
 40
0.0
 40
0.0
 40
0.0
 40
1.0
 40
1.0
 40
1.0
 40
2.0
 40
2.0
 40
2.0
 40
3.0
 40
3.0
 40
3.0
 40
4.0
 40
4.0
 40
4.0
 40
4.0
 10
96.95911184641994
 20
-139.1170898089707
 30
0.0
 10
96.95911184641994
 20
-139.3796060849468
 30
0.0
 10
97.17064070921428
 20
-139.4175021352845
 30
0.0
 10
97.28708493661573
 20
-139.4175021352845
 30
0.0
 10
97.46278480636347
 20
-139.4175021352845
 30
0.0
 10
97.6257378228158
 20
-139.3224174998916
 30
0.0
 10
97.6257378228158
 20
-139.1384494009793
 30
0.0
 10
97.6257378228158
 20
-139.0178710589955
 30
0.0
 10
97.56648218046949
 20
-138.8421711892478
 30
0.0
 10
97.28088376474228
 20
-138.8421711892478
 30
0.0
 10
97.05660804865252
 20
-138.8421711892478
 30
0.0
 10
96.95911184641994
 20
-138.9820420659489
 30
0.0
 10
96.95911184641994
 20
-139.1170898089707
 30
0.0
  0
HATCH
  5
130
330
12A
100
AcDbEntity
  8
_U+30EC_U+30A4_U+30E4_U+30FC 1
 62
   179
420
  2234388
100
AcDbHatch
 10
0.0
 20
0.0
 30
0.0
210
0.0
220
0.0
230
1.0
  2
SOLID
 70
     1
 71
     0
 91
        2
 92
        1
 93
        1
 72
     4
 94
        3
 73
     0
 74
     1
 95
       32
 96
       28
 40
0.0
 40
0.0
 40
0.0
 40
0.0
 40
1.0
 40
1.0
 40
1.0
 40
2.0
 40
2.0
 40
2.0
 40
3.0
 40
3.0
 40
3.0
 40
4.0
 40
4.0
 40
4.0
 40
5.0
 40
5.0
 40
5.0
 40
6.0
 40
6.0
 40
6.0
 40
7.0
 40
7.0
 40
7.0
 40
8.0
 40
8.0
 40
8.0
 40
9.0
 40
9.0
 40
9.0
 40
9.0
 10
97.81797415089274
 20
-139.134315286397
 10
97.81797415089274
 20
-139.6503905900874
 10
97.26400279686456
 20
-139.658658819252
 10
97.05006236723054
 20
-139.658658819252
 10
96.81958547926733
 20
-139.658658819252
 10
96.17225203758889
 20
-139.6397107940831
 10
96.17225203758889
 20
-139.0960747265107
 10
96.17225203758889
 20
-138.9227864236026
 10
96.24218747593946
 20
-138.6771511155043
 10
96.57429468071754
 20
-138.6392550651666
 10
96.57429468071754
 20
-138.6392550651666
 10
96.57429468071754
 20
-138.8528509852521
 10
96.57429468071754
 20
-138.8528509852521
 10
96.5171060956624
 20
-138.8635307812563
 10
96.36896698979665
 20
-138.8952256597206
 10
96.36896698979665
 20
-139.0981417838019
 10
96.36896698979665
 20
-139.390285880951
 10
96.69694007999243
 20
-139.4302489885799
 10
96.9019232613648
 20
-139.4429958418754
 10
96.82371959384963
 20
-139.3499782637736
 10
96.76446395150333
 20
-139.2821098827142
 10
96.76446395150333
 20
-139.100208841093
 10
96.76446395150333
 20
-138.920374856763
 10
96.87263994974018
 20
-138.617895473158
 10
97.27881670745113
 20
-138.617895473158
 10
97.5981770589338
 20
-138.617895473158
 10
97.81797415089274
 20
-138.8170219922055
 10
97.81797415089274
 20
-139.134315286397
 97
        0
 97
        0
 92
        1
 93
        1
 72
     4
 94
        3
 73
     0
 74
     1
 95
       17
 96
       13
 40
0.0
 40
0.0
 40
0.0
 40
0.0
 40
1.0
 40
1.0
 40
1.0
 40
2.0
 40
2.0
 40
2.0
 40
3.0
 40
3.0
 40
3.0
 40
4.0
 40
4.0
 40
4.0
 40
4.0
 10
96.95911184641994
 20
-139.1170898089707
 10
96.95911184641994
 20
-139.3796060849468
 10
97.17064070921428
 20
-139.4175021352845
 10
97.28708493661573
 20
-139.4175021352845
 10
97.46278480636347
 20
-139.4175021352845
 10
97.6257378228158
 20
-139.3224174998916
 10
97.6257378228158
 20
-139.1384494009793
 10
97.6257378228158
 20
-139.0178710589955
 10
97.56648218046949
 20
-138.8421711892478
 10
97.28088376474228
 20
-138.8421711892478
 10
97.05660804865252
 20
-138.8421711892478
 10
96.95911184641994
 20
-138.9820420659489
 10
96.95911184641994
 20
-139.1170898089707
 97
        0
 97
        0
 75
     2
 76
     1
 98
        0
  0
POLYLINE
  5
131
330
12A
100
AcDbEntity
  8
_U+30EC_U+30A4_U+30E4_U+30FC 1
370
     0
100
AcDb2dPolyline
 66
     1
 10
0.0
 20
0.0
 30
0.0
  0
VERTEX
  5
132
330
131
100
AcDbEntity
  8
_U+30EC_U+30A4_U+30E4_U+30FC 1
370
     0
100
AcDbVertex
100
AcDb2dVertex
 10
97.76733124725956
 20
-138.4015434766843
 30
0.0
  0
VERTEX
  5
133
330
131
100
AcDbEntity
  8
_U+30EC_U+30A4_U+30E4_U+30FC 1
370
     0
100
AcDbVertex
100
AcDb2dVertex
 10
97.51549476728779
 20
-138.4015434766843
 30
0.0
  0
VERTEX
  5
134
330
131
100
AcDbEntity
  8
_U+30EC_U+30A4_U+30E4_U+30FC 1
370
     0
100
AcDbVertex
100
AcDb2dVertex
 10
97.51549476728779
 20
-138.1497069967126
 30
0.0
  0
VERTEX
  5
135
330
131
100
AcDbEntity
  8
_U+30EC_U+30A4_U+30E4_U+30FC 1
370
     0
100
AcDbVertex
100
AcDb2dVertex
 10
97.76733124725956
 20
-138.1497069967126
 30
0.0
  0
VERTEX
  5
136
330
131
100
AcDbEntity
  8
_U+30EC_U+30A4_U+30E4_U+30FC 1
370
     0
100
AcDbVertex
100
AcDb2dVertex
 10
97.76733124725956
 20
-138.4015434766843
 30
0.0
  0
SEQEND
  5
137
330
131
100
AcDbEntity
  8
_U+30EC_U+30A4_U+30E4_U+30FC 1
370
     0
  0
HATCH
  5
138
330
12A
100
AcDbEntity
  8
_U+30EC_U+30A4_U+30E4_U+30FC 1
 62
   179
420
  2234388
100
AcDbHatch
 10
0.0
 20
0.0
 30
0.0
210
0.0
220
0.0
230
1.0
  2
SOLID
 70
     1
 71
     0
 91
        1
 92
        1
 93
        4
 72
     1
 10
97.76733124725956
 20
-138.4015434766843
 11
97.51549476728779
 21
-138.4015434766843
 72
     1
 10
97.51549476728779
 20
-138.4015434766843
 11
97.51549476728779
 21
-138.1497069967126
 72
     1
 10
97.51549476728779
 20
-138.1497069967126
 11
97.76733124725956
 21
-138.1497069967126
 72
     1
 10
97.76733124725956
 20
-138.1497069967126
 11
97.76733124725956
 21
-138.4015434766843
 97
        0
 75
     2
 76
     1
 98
        0
  0
SPLINE
  5
139
330
12A
100
AcDbEntity
  8
_U+30EC_U+30A4_U+30E4_U+30FC 1
370
     0
100
AcDbSpline
210
0.0
220
0.0
230
1.0
 70
    11
 71
     3
 72
    53
 73
    49
 74
     0
 42
0.0000000001
 43
0.0000000001
 12
1.0
 22
0.0
 32
0.0
 13
1.0
 23
0.0
 33
0.0
 40
0.0
 40
0.0
 40
0.0
 40
0.0
 40
1.0
 40
1.0
 40
1.0
 40
2.0
 40
2.0
 40
2.0
 40
3.0
 40
3.0
 40
3.0
 40
4.0
 40
4.0
 40
4.0
 40
5.0
 40
5.0
 40
5.0
 40
6.0
 40
6.0
 40
6.0
 40
7.0
 40
7.0
 40
7.0
 40
8.0
 40
8.0
 40
8.0
 40
9.0
 40
9.0
 40
9.0
 40
10.0
 40
10.0
 40
10.0
 40
11.0
 40
11.0
 40
11.0
 40
12.0
 40
12.0
 40
12.0
 40
13.0
 40
13.0
 40
13.0
 40
14.0
 40
14.0
 40
14.0
 40
15.0
 40
15.0
 40
15.0
 40
16.0
 40
16.0
 40
16.0
 40
16.0
 10
97.81797415089274
 20
-137.4324381166836
 30
0.0
 10
97.81797415089274
 20
-137.5106417841987
 30
0.0
 10
97.80109318301501
 20
-137.6122721010136
 30
0.0
 10
97.73770342608641
 20
-137.7139024178285
 30
0.0
 10
97.62780488010694
 20
-137.8871907207366
 30
0.0
 10
97.49654674211892
 20
-137.9085503127451
 30
0.0
 10
97.3887152534306
 20
-137.927498337914
 30
0.0
 10
97.3887152534306
 20
-137.927498337914
 30
0.0
 10
97.3887152534306
 20
-137.7052896791153
 30
0.0
 10
97.3887152534306
 20
-137.7052896791153
 30
0.0
 10
97.58749726292952
 20
-137.6505126608999
 30
0.0
 10
97.61712508410267
 20
-137.5233886374942
 30
0.0
 10
97.61712508410267
 20
-137.4303710593924
 30
0.0
 10
97.61712508410267
 20
-137.2908446922398
 30
0.0
 10
97.51756182457895
 20
-137.1385714717917
 30
0.0
 10
97.28501787932458
 20
-137.1385714717917
 30
0.0
 10
97.02904728477053
 20
-137.1385714717917
 30
0.0
 10
96.95911184641994
 20
-137.3184054561218
 30
0.0
 10
96.95911184641994
 20
-137.4389837981055
 30
0.0
 10
96.95911184641994
 20
-137.4706786765698
 30
0.0
 10
96.95911184641994
 20
-137.6122721010136
 30
0.0
 10
97.08830292711681
 20
-137.7011555645331
 30
0.0
 10
97.08830292711681
 20
-137.7011555645331
 30
0.0
 10
97.06935490194795
 20
-137.8768554342808
 30
0.0
 10
97.06935490194795
 20
-137.8768554342808
 30
0.0
 10
97.06935490194795
 20
-137.8768554342808
 30
0.0
 10
96.22289494122205
 20
-137.756277092297
 30
0.0
 10
96.22289494122205
 20
-137.756277092297
 30
0.0
 10
96.22289494122205
 20
-137.756277092297
 30
0.0
 10
96.22289494122205
 20
-136.9776855126306
 30
0.0
 10
96.22289494122205
 20
-136.9776855126306
 30
0.0
 10
96.22289494122205
 20
-136.9776855126306
 30
0.0
 10
96.41754283613868
 20
-136.9776855126306
 30
0.0
 10
96.41754283613868
 20
-136.9776855126306
 30
0.0
 10
96.41754283613868
 20
-136.9776855126306
 30
0.0
 10
96.41754283613868
 20
-137.5933240758447
 30
0.0
 10
96.41754283613868
 20
-137.5933240758447
 30
0.0
 10
96.41754283613868
 20
-137.5933240758447
 30
0.0
 10
96.84060056172736
 20
-137.6587808900645
 30
0.0
 10
96.84060056172736
 20
-137.6587808900645
 30
0.0
 10
96.8068386259719
 20
-137.597458190427
 30
0.0
 10
96.76653100879449
 20
-137.5151204083296
 30
0.0
 10
96.76653100879449
 20
-137.396609123637
 30
0.0
 10
96.76653100879449
 20
-137.1427055863741
 30
0.0
 10
96.9529106745465
 20
-136.9056830169889
 30
0.0
 10
97.2660698541557
 20
-136.9056830169889
 30
0.0
 10
97.58336314834722
 20
-136.9056830169889
 30
0.0
 10
97.81797415089274
 20
-137.1299587330786
 30
0.0
 10
97.81797415089274
 20
-137.4324381166836
 30
0.0
  0
HATCH
  5
13A
330
12A
100
AcDbEntity
  8
_U+30EC_U+30A4_U+30E4_U+30FC 1
 62
   179
420
  2234388
100
AcDbHatch
 10
0.0
 20
0.0
 30
0.0
210
0.0
220
0.0
230
1.0
  2
SOLID
 70
     1
 71
     0
 91
        1
 92
        1
 93
        1
 72
     4
 94
        3
 73
     0
 74
     1
 95
       53
 96
       49
 40
0.0
 40
0.0
 40
0.0
 40
0.0
 40
1.0
 40
1.0
 40
1.0
 40
2.0
 40
2.0
 40
2.0
 40
3.0
 40
3.0
 40
3.0
 40
4.0
 40
4.0
 40
4.0
 40
5.0
 40
5.0
 40
5.0
 40
6.0
 40
6.0
 40
6.0
 40
7.0
 40
7.0
 40
7.0
 40
8.0
 40
8.0
 40
8.0
 40
9.0
 40
9.0
 40
9.0
 40
10.0
 40
10.0
 40
10.0
 40
11.0
 40
11.0
 40
11.0
 40
12.0
 40
12.0
 40
12.0
 40
13.0
 40
13.0
 40
13.0
 40
14.0
 40
14.0
 40
14.0
 40
15.0
 40
15.0
 40
15.0
 40
16.0
 40
16.0
 40
16.0
 40
16.0
 10
97.81797415089274
 20
-137.4324381166836
 10
97.81797415089274
 20
-137.5106417841987
 10
97.80109318301501
 20
-137.6122721010136
 10
97.73770342608641
 20
-137.7139024178285
 10
97.62780488010694
 20
-137.8871907207366
 10
97.49654674211892
 20
-137.9085503127451
 10
97.3887152534306
 20
-137.927498337914
 10
97.3887152534306
 20
-137.927498337914
 10
97.3887152534306
 20
-137.7052896791153
 10
97.3887152534306
 20
-137.7052896791153
 10
97.58749726292952
 20
-137.6505126608999
 10
97.61712508410267
 20
-137.5233886374942
 10
97.61712508410267
 20
-137.4303710593924
 10
97.61712508410267
 20
-137.2908446922398
 10
97.51756182457895
 20
-137.1385714717917
 10
97.28501787932458
 20
-137.1385714717917
 10
97.02904728477053
 20
-137.1385714717917
 10
96.95911184641994
 20
-137.3184054561218
 10
96.95911184641994
 20
-137.4389837981055
 10
96.95911184641994
 20
-137.4706786765698
 10
96.95911184641994
 20
-137.6122721010136
 10
97.08830292711681
 20
-137.7011555645331
 10
97.08830292711681
 20
-137.7011555645331
 10
97.06935490194795
 20
-137.8768554342808
 10
97.06935490194795
 20
-137.8768554342808
 10
97.06935490194795
 20
-137.8768554342808
 10
96.22289494122205
 20
-137.756277092297
 10
96.22289494122205
 20
-137.756277092297
 10
96.22289494122205
 20
-137.756277092297
 10
96.22289494122205
 20
-136.9776855126306
 10
96.22289494122205
 20
-136.9776855126306
 10
96.22289494122205
 20
-136.9776855126306
 10
96.41754283613868
 20
-136.9776855126306
 10
96.41754283613868
 20
-136.9776855126306
 10
96.41754283613868
 20
-136.9776855126306
 10
96.41754283613868
 20
-137.5933240758447
 10
96.41754283613868
 20
-137.5933240758447
 10
96.41754283613868
 20
-137.5933240758447
 10
96.84060056172736
 20
-137.6587808900645
 10
96.84060056172736
 20
-137.6587808900645
 10
96.8068386259719
 20
-137.597458190427
 10
96.76653100879449
 20
-137.5151204083296
 10
96.76653100879449
 20
-137.396609123637
 10
96.76653100879449
 20
-137.1427055863741
 10
96.9529106745465
 20
-136.9056830169889
 10
97.2660698541557
 20
-136.9056830169889
 10
97.58336314834722
 20
-136.9056830169889
 10
97.81797415089274
 20
-137.1299587330786
 10
97.81797415089274
 20
-137.4324381166836
 97
        0
 97
        0
 75
     2
 76
     1
 98
        0
  0
ENDBLK
  5
12D
330
12A
100
AcDbEntity
  8
0
100
AcDbBlockEnd
  0
BLOCK
  5
149
330
147
100
AcDbEntity
  8
0
100
AcDbBlockBegin
  2
block 9
 70
     0
 10
0.0
 20
0.0
 30
0.0
  3
block 9
  1

  0
SPLINE
  5
14B
330
147
100
AcDbEntity
  8
_U+30EC_U+30A4_U+30E4_U+30FC 1
370
     0
100
AcDbSpline
210
0.0
220
0.0
230
1.0
 70
    11
 71
     3
 72
    32
 73
    28
 74
     0
 42
0.0000000001
 43
0.0000000001
 12
1.0
 22
0.0
 32
0.0
 13
1.0
 23
0.0
 33
0.0
 40
0.0
 40
0.0
 40
0.0
 40
0.0
 40
1.0
 40
1.0
 40
1.0
 40
2.0
 40
2.0
 40
2.0
 40
3.0
 40
3.0
 40
3.0
 40
4.0
 40
4.0
 40
4.0
 40
5.0
 40
5.0
 40
5.0
 40
6.0
 40
6.0
 40
6.0
 40
7.0
 40
7.0
 40
7.0
 40
8.0
 40
8.0
 40
8.0
 40
9.0
 40
9.0
 40
9.0
 40
9.0
 10
81.80310327816034
 20
-123.0281493833055
 30
0.0
 10
81.28702797446991
 20
-123.0281493833055
 30
0.0
 10
81.27841523575678
 20
-122.4741780292773
 30
0.0
 10
81.27841523575678
 20
-122.2602375996433
 30
0.0
 10
81.27841523575678
 20
-122.0297607116801
 30
0.0
 10
81.29770777047419
 20
-121.3824272700016
 30
0.0
 10
81.84134383804661
 20
-121.3824272700016
 30
0.0
 10
82.01463214095467
 20
-121.3824272700016
 30
0.0
 10
82.26026744905299
 20
-121.4523627083522
 30
0.0
 10
82.29816349939074
 20
-121.7844699131303
 30
0.0
 10
82.29816349939074
 20
-121.7844699131303
 30
0.0
 10
82.08456757930526
 20
-121.7844699131303
 30
0.0
 10
82.08456757930526
 20
-121.7844699131303
 30
0.0
 10
82.07388778330098
 20
-121.7272813280751
 30
0.0
 10
82.04219290483668
 20
-121.5791422222094
 30
0.0
 10
81.83927678075547
 20
-121.5791422222094
 30
0.0
 10
81.54713268360628
 20
-121.5791422222094
 30
0.0
 10
81.50716957597737
 20
-121.9071153124052
 30
0.0
 10
81.49442272268196
 20
-122.1120984937775
 30
0.0
 10
81.5874403007837
 20
-122.0338948262624
 30
0.0
 10
81.65530868184312
 20
-121.9746391839161
 30
0.0
 10
81.83720972346431
 20
-121.9746391839161
 30
0.0
 10
82.01704370779436
 20
-121.9746391839161
 30
0.0
 10
82.31952309139929
 20
-122.0828151821529
 30
0.0
 10
82.31952309139929
 20
-122.4889919398639
 30
0.0
 10
82.31952309139929
 20
-122.8083522913465
 30
0.0
 10
82.12039657235185
 20
-123.0281493833055
 30
0.0
 10
81.80310327816034
 20
-123.0281493833055
 30
0.0
  0
SPLINE
  5
14C
330
147
100
AcDbEntity
  8
_U+30EC_U+30A4_U+30E4_U+30FC 1
370
     0
100
AcDbSpline
210
0.0
220
0.0
230
1.0
 70
    11
 71
     3
 72
    17
 73
    13
 74
     0
 42
0.0000000001
 43
0.0000000001
 12
1.0
 22
0.0
 32
0.0
 13
1.0
 23
0.0
 33
0.0
 40
0.0
 40
0.0
 40
0.0
 40
0.0
 40
1.0
 40
1.0
 40
1.0
 40
2.0
 40
2.0
 40
2.0
 40
3.0
 40
3.0
 40
3.0
 40
4.0
 40
4.0
 40
4.0
 40
4.0
 10
81.81998424603806
 20
-122.1692870788327
 30
0.0
 10
81.55781247961055
 20
-122.1692870788327
 30
0.0
 10
81.5199164292728
 20
-122.380815941627
 30
0.0
 10
81.5199164292728
 20
-122.4972601690285
 30
0.0
 10
81.5199164292728
 20
-122.6729600387762
 30
0.0
 10
81.61500106466569
 20
-122.8359130552285
 30
0.0
 10
81.79896916357804
 20
-122.8359130552285
 30
0.0
 10
81.91954750556178
 20
-122.8359130552285
 30
0.0
 10
82.09524737530953
 20
-122.7766574128822
 30
0.0
 10
82.09524737530953
 20
-122.491058997155
 30
0.0
 10
82.09524737530953
 20
-122.2667832810653
 30
0.0
 10
81.95572100815691
 20
-122.1692870788327
 30
0.0
 10
81.81998424603806
 20
-122.1692870788327
 30
0.0
  0
HATCH
  5
14D
330
147
100
AcDbEntity
  8
_U+30EC_U+30A4_U+30E4_U+30FC 1
 62
   179
420
  2234388
100
AcDbHatch
 10
0.0
 20
0.0
 30
0.0
210
0.0
220
0.0
230
1.0
  2
SOLID
 70
     1
 71
     0
 91
        2
 92
        1
 93
        1
 72
     4
 94
        3
 73
     0
 74
     1
 95
       32
 96
       28
 40
0.0
 40
0.0
 40
0.0
 40
0.0
 40
1.0
 40
1.0
 40
1.0
 40
2.0
 40
2.0
 40
2.0
 40
3.0
 40
3.0
 40
3.0
 40
4.0
 40
4.0
 40
4.0
 40
5.0
 40
5.0
 40
5.0
 40
6.0
 40
6.0
 40
6.0
 40
7.0
 40
7.0
 40
7.0
 40
8.0
 40
8.0
 40
8.0
 40
9.0
 40
9.0
 40
9.0
 40
9.0
 10
81.80310327816034
 20
-123.0281493833055
 10
81.28702797446991
 20
-123.0281493833055
 10
81.27841523575678
 20
-122.4741780292773
 10
81.27841523575678
 20
-122.2602375996433
 10
81.27841523575678
 20
-122.0297607116801
 10
81.29770777047419
 20
-121.3824272700016
 10
81.84134383804661
 20
-121.3824272700016
 10
82.01463214095467
 20
-121.3824272700016
 10
82.26026744905299
 20
-121.4523627083522
 10
82.29816349939074
 20
-121.7844699131303
 10
82.29816349939074
 20
-121.7844699131303
 10
82.08456757930526
 20
-121.7844699131303
 10
82.08456757930526
 20
-121.7844699131303
 10
82.07388778330098
 20
-121.7272813280751
 10
82.04219290483668
 20
-121.5791422222094
 10
81.83927678075547
 20
-121.5791422222094
 10
81.54713268360628
 20
-121.5791422222094
 10
81.50716957597737
 20
-121.9071153124052
 10
81.49442272268196
 20
-122.1120984937775
 10
81.5874403007837
 20
-122.0338948262624
 10
81.65530868184312
 20
-121.9746391839161
 10
81.83720972346431
 20
-121.9746391839161
 10
82.01704370779436
 20
-121.9746391839161
 10
82.31952309139929
 20
-122.0828151821529
 10
82.31952309139929
 20
-122.4889919398639
 10
82.31952309139929
 20
-122.8083522913465
 10
82.12039657235185
 20
-123.0281493833055
 10
81.80310327816034
 20
-123.0281493833055
 97
        0
 97
        0
 92
        1
 93
        1
 72
     4
 94
        3
 73
     0
 74
     1
 95
       17
 96
       13
 40
0.0
 40
0.0
 40
0.0
 40
0.0
 40
1.0
 40
1.0
 40
1.0
 40
2.0
 40
2.0
 40
2.0
 40
3.0
 40
3.0
 40
3.0
 40
4.0
 40
4.0
 40
4.0
 40
4.0
 10
81.81998424603806
 20
-122.1692870788327
 10
81.55781247961055
 20
-122.1692870788327
 10
81.5199164292728
 20
-122.380815941627
 10
81.5199164292728
 20
-122.4972601690285
 10
81.5199164292728
 20
-122.6729600387762
 10
81.61500106466569
 20
-122.8359130552285
 10
81.79896916357804
 20
-122.8359130552285
 10
81.91954750556178
 20
-122.8359130552285
 10
82.09524737530953
 20
-122.7766574128822
 10
82.09524737530953
 20
-122.491058997155
 10
82.09524737530953
 20
-122.2667832810653
 10
81.95572100815691
 20
-122.1692870788327
 10
81.81998424603806
 20
-122.1692870788327
 97
        0
 97
        0
 75
     2
 76
     1
 98
        0
  0
POLYLINE
  5
14E
330
147
100
AcDbEntity
  8
_U+30EC_U+30A4_U+30E4_U+30FC 1
370
     0
100
AcDb2dPolyline
 66
     1
 10
0.0
 20
0.0
 30
0.0
  0
VERTEX
  5
14F
330
14E
100
AcDbEntity
  8
_U+30EC_U+30A4_U+30E4_U+30FC 1
370
     0
100
AcDbVertex
100
AcDb2dVertex
 10
82.53587508787298
 20
-122.9775064796723
 30
0.0
  0
VERTEX
  5
150
330
14E
100
AcDbEntity
  8
_U+30EC_U+30A4_U+30E4_U+30FC 1
370
     0
100
AcDbVertex
100
AcDb2dVertex
 10
82.53587508787298
 20
-122.7256699997005
 30
0.0
  0
VERTEX
  5
151
330
14E
100
AcDbEntity
  8
_U+30EC_U+30A4_U+30E4_U+30FC 1
370
     0
100
AcDbVertex
100
AcDb2dVertex
 10
82.78771156784474
 20
-122.7256699997005
 30
0.0
  0
VERTEX
  5
152
330
14E
100
AcDbEntity
  8
_U+30EC_U+30A4_U+30E4_U+30FC 1
370
     0
100
AcDbVertex
100
AcDb2dVertex
 10
82.78771156784474
 20
-122.9775064796723
 30
0.0
  0
VERTEX
  5
153
330
14E
100
AcDbEntity
  8
_U+30EC_U+30A4_U+30E4_U+30FC 1
370
     0
100
AcDbVertex
100
AcDb2dVertex
 10
82.53587508787298
 20
-122.9775064796723
 30
0.0
  0
SEQEND
  5
154
330
14E
100
AcDbEntity
  8
_U+30EC_U+30A4_U+30E4_U+30FC 1
370
     0
  0
HATCH
  5
155
330
147
100
AcDbEntity
  8
_U+30EC_U+30A4_U+30E4_U+30FC 1
 62
   179
420
  2234388
100
AcDbHatch
 10
0.0
 20
0.0
 30
0.0
210
0.0
220
0.0
230
1.0
  2
SOLID
 70
     1
 71
     0
 91
        1
 92
        1
 93
        4
 72
     1
 10
82.53587508787298
 20
-122.9775064796723
 11
82.53587508787298
 21
-122.7256699997005
 72
     1
 10
82.53587508787298
 20
-122.7256699997005
 11
82.78771156784474
 21
-122.7256699997005
 72
     1
 10
82.78771156784474
 20
-122.7256699997005
 11
82.78771156784474
 21
-122.9775064796723
 72
     1
 10
82.78771156784474
 20
-122.9775064796723
 11
82.53587508787298
 21
-122.9775064796723
 97
        0
 75
     2
 76
     1
 98
        0
  0
SPLINE
  5
156
330
147
100
AcDbEntity
  8
_U+30EC_U+30A4_U+30E4_U+30FC 1
370
     0
100
AcDbSpline
210
0.0
220
0.0
230
1.0
 70
    11
 71
     3
 72
    53
 73
    49
 74
     0
 42
0.0000000001
 43
0.0000000001
 12
1.0
 22
0.0
 32
0.0
 13
1.0
 23
0.0
 33
0.0
 40
0.0
 40
0.0
 40
0.0
 40
0.0
 40
1.0
 40
1.0
 40
1.0
 40
2.0
 40
2.0
 40
2.0
 40
3.0
 40
3.0
 40
3.0
 40
4.0
 40
4.0
 40
4.0
 40
5.0
 40
5.0
 40
5.0
 40
6.0
 40
6.0
 40
6.0
 40
7.0
 40
7.0
 40
7.0
 40
8.0
 40
8.0
 40
8.0
 40
9.0
 40
9.0
 40
9.0
 40
10.0
 40
10.0
 40
10.0
 40
11.0
 40
11.0
 40
11.0
 40
12.0
 40
12.0
 40
12.0
 40
13.0
 40
13.0
 40
13.0
 40
14.0
 40
14.0
 40
14.0
 40
15.0
 40
15.0
 40
15.0
 40
16.0
 40
16.0
 40
16.0
 40
16.0
 10
83.50498044787376
 20
-123.0281493833055
 30
0.0
 10
83.4267767803586
 20
-123.0281493833055
 30
0.0
 10
83.32514646354372
 20
-123.0112684154278
 30
0.0
 10
83.22351614672884
 20
-122.9478786584991
 30
0.0
 10
83.05022784382078
 20
-122.8379801125197
 30
0.0
 10
83.02886825181223
 20
-122.7067219745317
 30
0.0
 10
83.00992022664336
 20
-122.5988904858433
 30
0.0
 10
83.00992022664336
 20
-122.5988904858433
 30
0.0
 10
83.23212888544197
 20
-122.5988904858433
 30
0.0
 10
83.23212888544197
 20
-122.5988904858433
 30
0.0
 10
83.28690590365744
 20
-122.7976724953423
 30
0.0
 10
83.41402992706317
 20
-122.8273003165154
 30
0.0
 10
83.5070475051649
 20
-122.8273003165154
 30
0.0
 10
83.64657387231753
 20
-122.8273003165154
 30
0.0
 10
83.79884709276557
 20
-122.7277370569917
 30
0.0
 10
83.79884709276557
 20
-122.4951931117373
 30
0.0
 10
83.79884709276557
 20
-122.2392225171833
 30
0.0
 10
83.61901310843552
 20
-122.1692870788327
 30
0.0
 10
83.49843476645178
 20
-122.1692870788327
 30
0.0
 10
83.46673988798749
 20
-122.1692870788327
 30
0.0
 10
83.32514646354372
 20
-122.1692870788327
 30
0.0
 10
83.23626300002427
 20
-122.2984781595296
 30
0.0
 10
83.23626300002427
 20
-122.2984781595296
 30
0.0
 10
83.06056313027653
 20
-122.2795301343607
 30
0.0
 10
83.06056313027653
 20
-122.2795301343607
 30
0.0
 10
83.06056313027653
 20
-122.2795301343607
 30
0.0
 10
83.18114147226028
 20
-121.4330701736348
 30
0.0
 10
83.18114147226028
 20
-121.4330701736348
 30
0.0
 10
83.18114147226028
 20
-121.4330701736348
 30
0.0
 10
83.95973305192673
 20
-121.4330701736348
 30
0.0
 10
83.95973305192673
 20
-121.4330701736348
 30
0.0
 10
83.95973305192673
 20
-121.4330701736348
 30
0.0
 10
83.95973305192673
 20
-121.6277180685514
 30
0.0
 10
83.95973305192673
 20
-121.6277180685514
 30
0.0
 10
83.95973305192673
 20
-121.6277180685514
 30
0.0
 10
83.34409448871259
 20
-121.6277180685514
 30
0.0
 10
83.34409448871259
 20
-121.6277180685514
 30
0.0
 10
83.34409448871259
 20
-121.6277180685514
 30
0.0
 10
83.27863767449284
 20
-122.0507757941401
 30
0.0
 10
83.27863767449284
 20
-122.0507757941401
 30
0.0
 10
83.33996037413029
 20
-122.0170138583846
 30
0.0
 10
83.42229815622777
 20
-121.9767062412072
 30
0.0
 10
83.54080944092036
 20
-121.9767062412072
 30
0.0
 10
83.79471297818327
 20
-121.9767062412072
 30
0.0
 10
84.03173554756846
 20
-122.1630859069592
 30
0.0
 10
84.03173554756846
 20
-122.4762450865684
 30
0.0
 10
84.03173554756846
 20
-122.79353838076
 30
0.0
 10
83.8074598314787
 20
-123.0281493833055
 30
0.0
 10
83.50498044787376
 20
-123.0281493833055
 30
0.0
  0
HATCH
  5
157
330
147
100
AcDbEntity
  8
_U+30EC_U+30A4_U+30E4_U+30FC 1
 62
   179
420
  2234388
100
AcDbHatch
 10
0.0
 20
0.0
 30
0.0
210
0.0
220
0.0
230
1.0
  2
SOLID
 70
     1
 71
     0
 91
        1
 92
        1
 93
        1
 72
     4
 94
        3
 73
     0
 74
     1
 95
       53
 96
       49
 40
0.0
 40
0.0
 40
0.0
 40
0.0
 40
1.0
 40
1.0
 40
1.0
 40
2.0
 40
2.0
 40
2.0
 40
3.0
 40
3.0
 40
3.0
 40
4.0
 40
4.0
 40
4.0
 40
5.0
 40
5.0
 40
5.0
 40
6.0
 40
6.0
 40
6.0
 40
7.0
 40
7.0
 40
7.0
 40
8.0
 40
8.0
 40
8.0
 40
9.0
 40
9.0
 40
9.0
 40
10.0
 40
10.0
 40
10.0
 40
11.0
 40
11.0
 40
11.0
 40
12.0
 40
12.0
 40
12.0
 40
13.0
 40
13.0
 40
13.0
 40
14.0
 40
14.0
 40
14.0
 40
15.0
 40
15.0
 40
15.0
 40
16.0
 40
16.0
 40
16.0
 40
16.0
 10
83.50498044787376
 20
-123.0281493833055
 10
83.4267767803586
 20
-123.0281493833055
 10
83.32514646354372
 20
-123.0112684154278
 10
83.22351614672884
 20
-122.9478786584991
 10
83.05022784382078
 20
-122.8379801125197
 10
83.02886825181223
 20
-122.7067219745317
 10
83.00992022664336
 20
-122.5988904858433
 10
83.00992022664336
 20
-122.5988904858433
 10
83.23212888544197
 20
-122.5988904858433
 10
83.23212888544197
 20
-122.5988904858433
 10
83.28690590365744
 20
-122.7976724953423
 10
83.41402992706317
 20
-122.8273003165154
 10
83.5070475051649
 20
-122.8273003165154
 10
83.64657387231753
 20
-122.8273003165154
 10
83.79884709276557
 20
-122.7277370569917
 10
83.79884709276557
 20
-122.4951931117373
 10
83.79884709276557
 20
-122.2392225171833
 10
83.61901310843552
 20
-122.1692870788327
 10
83.49843476645178
 20
-122.1692870788327
 10
83.46673988798749
 20
-122.1692870788327
 10
83.32514646354372
 20
-122.1692870788327
 10
83.23626300002427
 20
-122.2984781595296
 10
83.23626300002427
 20
-122.2984781595296
 10
83.06056313027653
 20
-122.2795301343607
 10
83.06056313027653
 20
-122.2795301343607
 10
83.06056313027653
 20
-122.2795301343607
 10
83.18114147226028
 20
-121.4330701736348
 10
83.18114147226028
 20
-121.4330701736348
 10
83.18114147226028
 20
-121.4330701736348
 10
83.95973305192673
 20
-121.4330701736348
 10
83.95973305192673
 20
-121.4330701736348
 10
83.95973305192673
 20
-121.4330701736348
 10
83.95973305192673
 20
-121.6277180685514
 10
83.95973305192673
 20
-121.6277180685514
 10
83.95973305192673
 20
-121.6277180685514
 10
83.34409448871259
 20
-121.6277180685514
 10
83.34409448871259
 20
-121.6277180685514
 10
83.34409448871259
 20
-121.6277180685514
 10
83.27863767449284
 20
-122.0507757941401
 10
83.27863767449284
 20
-122.0507757941401
 10
83.33996037413029
 20
-122.0170138583846
 10
83.42229815622777
 20
-121.9767062412072
 10
83.54080944092036
 20
-121.9767062412072
 10
83.79471297818327
 20
-121.9767062412072
 10
84.03173554756846
 20
-122.1630859069592
 10
84.03173554756846
 20
-122.4762450865684
 10
84.03173554756846
 20
-122.79353838076
 10
83.8074598314787
 20
-123.0281493833055
 10
83.50498044787376
 20
-123.0281493833055
 97
        0
 97
        0
 75
     2
 76
     1
 98
        0
  0
ENDBLK
  5
14A
330
147
100
AcDbEntity
  8
0
100
AcDbBlockEnd
  0
ENDSEC
  0
SECTION
  2
ENTITIES
  0
POLYLINE
  5
41
330
1F
100
AcDbEntity
  8
_U+30EC_U+30A4_U+30E4_U+30FC 1
 62
   179
420
  2234388
370
    25
100
AcDb2dPolyline
 66
     1
 10
0.0
 20
0.0
 30
0.0
  0
VERTEX
  5
42
330
41
100
AcDbEntity
  8
_U+30EC_U+30A4_U+30E4_U+30FC 1
 62
   179
420
  2234388
370
    25
100
AcDbVertex
100
AcDb2dVertex
 10
78.36316077856699
 20
-127.5737930236622
 30
0.0
  0
VERTEX
  5
43
330
41
100
AcDbEntity
  8
_U+30EC_U+30A4_U+30E4_U+30FC 1
 62
   179
420
  2234388
370
    25
100
AcDbVertex
100
AcDb2dVertex
 10
78.36316077856699
 20
-140.0738032983151
 30
0.0
  0
SEQEND
  5
44
330
41
100
AcDbEntity
  8
_U+30EC_U+30A4_U+30E4_U+30FC 1
 62
   179
420
  2234388
370
    25
  0
POLYLINE
  5
45
330
1F
100
AcDbEntity
  8
_U+30EC_U+30A4_U+30E4_U+30FC 1
 62
   179
420
  2234388
370
    25
100
AcDb2dPolyline
 66
     1
 10
0.0
 20
0.0
 30
0.0
  0
VERTEX
  5
46
330
45
100
AcDbEntity
  8
_U+30EC_U+30A4_U+30E4_U+30FC 1
 62
   179
420
  2234388
370
    25
100
AcDbVertex
100
AcDb2dVertex
 10
80.86361432588622
 20
-142.5735513532457
 30
0.0
  0
VERTEX
  5
47
330
45
100
AcDbEntity
  8
_U+30EC_U+30A4_U+30E4_U+30FC 1
 62
   179
420
  2234388
370
    25
100
AcDbVertex
100
AcDb2dVertex
 10
93.36344789587778
 20
-142.5735513532457
 30
0.0
  0
SEQEND
  5
48
330
45
100
AcDbEntity
  8
_U+30EC_U+30A4_U+30E4_U+30FC 1
 62
   179
420
  2234388
370
    25
  0
POLYLINE
  5
49
330
1F
100
AcDbEntity
  8
_U+30EC_U+30A4_U+30E4_U+30FC 1
 62
   179
420
  2234388
370
    25
100
AcDb2dPolyline
 66
     1
 10
0.0
 20
0.0
 30
0.0
  0
VERTEX
  5
4A
330
49
100
AcDbEntity
  8
_U+30EC_U+30A4_U+30E4_U+30FC 1
 62
   179
420
  2234388
370
    25
100
AcDbVertex
100
AcDb2dVertex
 10
80.73823710686264
 20
-141.5737791312732
 30
0.0
  0
VERTEX
  5
4B
330
49
100
AcDbEntity
  8
_U+30EC_U+30A4_U+30E4_U+30FC 1
 62
   179
420
  2234388
370
    25
100
AcDbVertex
100
AcDb2dVertex
 10
94.36322009259369
 20
-141.5737791312732
 30
0.0
  0
SEQEND
  5
4C
330
49
100
AcDbEntity
  8
_U+30EC_U+30A4_U+30E4_U+30FC 1
 62
   179
420
  2234388
370
    25
  0
POLYLINE
  5
4D
330
1F
100
AcDbEntity
  8
_U+30EC_U+30A4_U+30E4_U+30FC 1
 62
   179
420
  2234388
370
    25
100
AcDb2dPolyline
 66
     1
 10
0.0
 20
0.0
 30
0.0
  0
VERTEX
  5
4E
330
4D
100
AcDbEntity
  8
_U+30EC_U+30A4_U+30E4_U+30FC 1
 62
   179
420
  2234388
370
    25
100
AcDbVertex
100
AcDb2dVertex
 10
79.36363853082045
 20
-126.5733152461345
 30
0.0
  0
VERTEX
  5
4F
330
4D
100
AcDbEntity
  8
_U+30EC_U+30A4_U+30E4_U+30FC 1
 62
   179
420
  2234388
370
    25
100
AcDbVertex
100
AcDb2dVertex
 10
79.36363853082045
 20
-140.0882671872001
 30
0.0
  0
SEQEND
  5
50
330
4D
100
AcDbEntity
  8
_U+30EC_U+30A4_U+30E4_U+30FC 1
 62
   179
420
  2234388
370
    25
  0
POLYLINE
  5
51
330
1F
100
AcDbEntity
  8
_U+30EC_U+30A4_U+30E4_U+30FC 1
 62
   179
420
  2234388
370
    25
100
AcDb2dPolyline
 66
     1
 10
0.0
 20
0.0
 30
0.0
  0
VERTEX
  5
52
330
51
100
AcDbEntity
  8
_U+30EC_U+30A4_U+30E4_U+30FC 1
 62
   179
420
  2234388
370
    25
100
AcDbVertex
100
AcDb2dVertex
 10
86.86327056171112
 20
-134.0734766331486
 30
0.0
  0
VERTEX
  5
53
330
51
100
AcDbEntity
  8
_U+30EC_U+30A4_U+30E4_U+30FC 1
 62
   179
420
  2234388
370
    25
100
AcDbVertex
100
AcDb2dVertex
 10
106.863406440354
 20
-134.0734766331486
 30
0.0
  0
SEQEND
  5
54
330
51
100
AcDbEntity
  8
_U+30EC_U+30A4_U+30E4_U+30FC 1
 62
   179
420
  2234388
370
    25
  0
POLYLINE
  5
55
330
1F
100
AcDbEntity
  8
_U+30EC_U+30A4_U+30E4_U+30FC 1
 62
   179
420
  2234388
370
    25
100
AcDb2dPolyline
 66
     1
 10
0.0
 20
0.0
 30
0.0
  0
VERTEX
  5
56
330
55
100
AcDbEntity
  8
_U+30EC_U+30A4_U+30E4_U+30FC 1
 62
   179
420
  2234388
370
    25
100
AcDbVertex
100
AcDb2dVertex
 10
86.86327056171112
 20
-114.0734813603705
 30
0.0
  0
VERTEX
  5
57
330
55
100
AcDbEntity
  8
_U+30EC_U+30A4_U+30E4_U+30FC 1
 62
   179
420
  2234388
370
    25
100
AcDbVertex
100
AcDb2dVertex
 10
86.86327056171112
 20
-134.0734766331486
 30
0.0
  0
SEQEND
  5
58
330
55
100
AcDbEntity
  8
_U+30EC_U+30A4_U+30E4_U+30FC 1
 62
   179
420
  2234388
370
    25
  0
POLYLINE
  5
59
330
1F
100
AcDbEntity
  8
_U+30EC_U+30A4_U+30E4_U+30FC 1
 62
   179
420
  2234388
370
    25
100
AcDb2dPolyline
 66
     1
 10
0.0
 20
0.0
 30
0.0
  0
VERTEX
  5
5A
330
59
100
AcDbEntity
  8
_U+30EC_U+30A4_U+30E4_U+30FC 1
 62
   179
420
  2234388
370
    25
100
AcDbVertex
100
AcDb2dVertex
 10
85.76359170087738
 20
-126.5733152461345
 30
0.0
  0
VERTEX
  5
5B
330
59
100
AcDbEntity
  8
_U+30EC_U+30A4_U+30E4_U+30FC 1
 62
   179
420
  2234388
370
    25
100
AcDbVertex
100
AcDb2dVertex
 10
85.86349836499521
 20
-126.4734085794928
 30
0.0
  0
SEQEND
  5
5C
330
59
100
AcDbEntity
  8
_U+30EC_U+30A4_U+30E4_U+30FC 1
 62
   179
420
  2234388
370
    25
  0
POLYLINE
  5
5D
330
1F
100
AcDbEntity
  8
_U+30EC_U+30A4_U+30E4_U+30FC 1
 62
   179
420
  2234388
370
    25
100
AcDb2dPolyline
 66
     1
 10
0.0
 20
0.0
 30
0.0
  0
VERTEX
  5
5E
330
5D
100
AcDbEntity
  8
_U+30EC_U+30A4_U+30E4_U+30FC 1
 62
   179
420
  2234388
370
    25
100
AcDbVertex
100
AcDb2dVertex
 10
94.36322009259369
 20
-135.1738257995402
 30
0.0
  0
VERTEX
  5
5F
330
5D
100
AcDbEntity
  8
_U+30EC_U+30A4_U+30E4_U+30FC 1
 62
   179
420
  2234388
370
    25
100
AcDbVertex
100
AcDb2dVertex
 10
94.4634795344803
 20
-135.0732488551205
 30
0.0
  0
SEQEND
  5
60
330
5D
100
AcDbEntity
  8
_U+30EC_U+30A4_U+30E4_U+30FC 1
 62
   179
420
  2234388
370
    25
  0
POLYLINE
  5
61
330
1F
100
AcDbEntity
  8
_U+30EC_U+30A4_U+30E4_U+30FC 1
 62
   179
420
  2234388
370
    25
100
AcDb2dPolyline
 66
     1
 10
0.0
 20
0.0
 30
0.0
  0
VERTEX
  5
62
330
61
100
AcDbEntity
  8
_U+30EC_U+30A4_U+30E4_U+30FC 1
 62
   179
420
  2234388
370
    25
100
AcDbVertex
100
AcDb2dVertex
 10
80.53531933426171
 20
-141.0521971869594
 30
0.0
  0
VERTEX
  5
63
330
61
100
AcDbEntity
  8
_U+30EC_U+30A4_U+30E4_U+30FC 1
 62
   179
420
  2234388
370
    25
100
AcDbVertex
100
AcDb2dVertex
 10
86.95075944836799
 20
-135.1738257995402
 30
0.0
  0
SEQEND
  5
64
330
61
100
AcDbEntity
  8
_U+30EC_U+30A4_U+30E4_U+30FC 1
 62
   179
420
  2234388
370
    25
  0
POLYLINE
  5
65
330
1F
100
AcDbEntity
  8
_U+30EC_U+30A4_U+30E4_U+30FC 1
 62
   179
420
  2234388
370
    25
100
AcDb2dPolyline
 66
     1
 10
0.0
 20
0.0
 30
0.0
  0
VERTEX
  5
66
330
65
100
AcDbEntity
  8
_U+30EC_U+30A4_U+30E4_U+30FC 1
 62
   179
420
  2234388
370
    25
100
AcDbVertex
100
AcDb2dVertex
 10
79.8659235180061
 20
-140.3094235760341
 30
0.0
  0
VERTEX
  5
67
330
65
100
AcDbEntity
  8
_U+30EC_U+30A4_U+30E4_U+30FC 1
 62
   179
420
  2234388
370
    25
100
AcDbVertex
100
AcDb2dVertex
 10
85.76359170087738
 20
-134.9051149662737
 30
0.0
  0
SEQEND
  5
68
330
65
100
AcDbEntity
  8
_U+30EC_U+30A4_U+30E4_U+30FC 1
 62
   179
420
  2234388
370
    25
  0
POLYLINE
  5
69
330
1F
100
AcDbEntity
  8
_U+30EC_U+30A4_U+30E4_U+30FC 1
 62
   179
420
  2234388
370
     9
100
AcDb2dPolyline
 66
     1
 10
0.0
 20
0.0
 30
0.0
  0
VERTEX
  5
6A
330
69
100
AcDbEntity
  8
_U+30EC_U+30A4_U+30E4_U+30FC 1
 62
   179
420
  2234388
370
     9
100
AcDbVertex
100
AcDb2dVertex
 10
78.72973215810386
 20
-141.3767174646557
 30
0.0
  0
VERTEX
  5
6B
330
69
100
AcDbEntity
  8
_U+30EC_U+30A4_U+30E4_U+30FC 1
 62
   179
420
  2234388
370
     9
100
AcDbVertex
100
AcDb2dVertex
 10
77.77059996035115
 20
-141.6592219090298
 30
0.0
  0
SEQEND
  5
6C
330
69
100
AcDbEntity
  8
_U+30EC_U+30A4_U+30E4_U+30FC 1
 62
   179
420
  2234388
370
     9
  0
POLYLINE
  5
6D
330
1F
100
AcDbEntity
  8
_U+30EC_U+30A4_U+30E4_U+30FC 1
 62
   179
420
  2234388
370
     9
100
AcDb2dPolyline
 66
     1
 10
0.0
 20
0.0
 30
0.0
  0
VERTEX
  5
6E
330
6D
100
AcDbEntity
  8
_U+30EC_U+30A4_U+30E4_U+30FC 1
 62
   179
420
  2234388
370
     9
100
AcDbVertex
100
AcDb2dVertex
 10
78.72973215810386
 20
-141.3767174646557
 30
0.0
  0
VERTEX
  5
6F
330
6D
100
AcDbEntity
  8
_U+30EC_U+30A4_U+30E4_U+30FC 1
 62
   179
420
  2234388
370
     9
100
AcDbVertex
100
AcDb2dVertex
 10
78.0407218979042
 20
-142.1008996866973
 30
0.0
  0
SEQEND
  5
70
330
6D
100
AcDbEntity
  8
_U+30EC_U+30A4_U+30E4_U+30FC 1
 62
   179
420
  2234388
370
     9
  0
POLYLINE
  5
71
330
1F
100
AcDbEntity
  8
_U+30EC_U+30A4_U+30E4_U+30FC 1
 62
   179
420
  2234388
370
    25
100
AcDb2dPolyline
 66
     1
 10
0.0
 20
0.0
 30
0.0
  0
VERTEX
  5
72
330
71
100
AcDbEntity
  8
_U+30EC_U+30A4_U+30E4_U+30FC 1
 62
   179
420
  2234388
370
    25
100
AcDbVertex
100
AcDb2dVertex
 10
85.86349836499521
 20
-115.0736063601205
 30
0.0
  0
VERTEX
  5
73
330
71
100
AcDbEntity
  8
_U+30EC_U+30A4_U+30E4_U+30FC 1
 62
   179
420
  2234388
370
    25
100
AcDbVertex
100
AcDb2dVertex
 10
85.86349836499521
 20
-126.4734085794928
 30
0.0
  0
SEQEND
  5
74
330
71
100
AcDbEntity
  8
_U+30EC_U+30A4_U+30E4_U+30FC 1
 62
   179
420
  2234388
370
    25
  0
POLYLINE
  5
75
330
1F
100
AcDbEntity
  8
_U+30EC_U+30A4_U+30E4_U+30FC 1
 62
   179
420
  2234388
370
    25
100
AcDb2dPolyline
 66
     1
 10
0.0
 20
0.0
 30
0.0
  0
VERTEX
  5
76
330
75
100
AcDbEntity
  8
_U+30EC_U+30A4_U+30E4_U+30FC 1
 62
   179
420
  2234388
370
    25
100
AcDbVertex
100
AcDb2dVertex
 10
85.76359170087738
 20
-126.5733152461345
 30
0.0
  0
VERTEX
  5
77
330
75
100
AcDbEntity
  8
_U+30EC_U+30A4_U+30E4_U+30FC 1
 62
   179
420
  2234388
370
    25
100
AcDbVertex
100
AcDb2dVertex
 10
85.76359170087738
 20
-134.9051149662737
 30
0.0
  0
SEQEND
  5
78
330
75
100
AcDbEntity
  8
_U+30EC_U+30A4_U+30E4_U+30FC 1
 62
   179
420
  2234388
370
    25
  0
POLYLINE
  5
79
330
1F
100
AcDbEntity
  8
_U+30EC_U+30A4_U+30E4_U+30FC 1
 62
   179
420
  2234388
370
    25
100
AcDb2dPolyline
 66
     1
 10
0.0
 20
0.0
 30
0.0
  0
VERTEX
  5
7A
330
79
100
AcDbEntity
  8
_U+30EC_U+30A4_U+30E4_U+30FC 1
 62
   179
420
  2234388
370
    25
100
AcDbVertex
100
AcDb2dVertex
 10
86.95075944836799
 20
-135.1738257995402
 30
0.0
  0
VERTEX
  5
7B
330
79
100
AcDbEntity
  8
_U+30EC_U+30A4_U+30E4_U+30FC 1
 62
   179
420
  2234388
370
    25
100
AcDbVertex
100
AcDb2dVertex
 10
94.36322009259369
 20
-135.1738257995402
 30
0.0
  0
SEQEND
  5
7C
330
79
100
AcDbEntity
  8
_U+30EC_U+30A4_U+30E4_U+30FC 1
 62
   179
420
  2234388
370
    25
  0
POLYLINE
  5
7D
330
1F
100
AcDbEntity
  8
_U+30EC_U+30A4_U+30E4_U+30FC 1
 62
   179
420
  2234388
370
    25
100
AcDb2dPolyline
 66
     1
 10
0.0
 20
0.0
 30
0.0
  0
VERTEX
  5
7E
330
7D
100
AcDbEntity
  8
_U+30EC_U+30A4_U+30E4_U+30FC 1
 62
   179
420
  2234388
370
    25
100
AcDbVertex
100
AcDb2dVertex
 10
94.4634795344803
 20
-135.0732488551205
 30
0.0
  0
VERTEX
  5
7F
330
7D
100
AcDbEntity
  8
_U+30EC_U+30A4_U+30E4_U+30FC 1
 62
   179
420
  2234388
370
    25
100
AcDbVertex
100
AcDb2dVertex
 10
105.8633194179783
 20
-135.0732488551205
 30
0.0
  0
SEQEND
  5
80
330
7D
100
AcDbEntity
  8
_U+30EC_U+30A4_U+30E4_U+30FC 1
 62
   179
420
  2234388
370
    25
  0
SPLINE
  5
81
330
1F
100
AcDbEntity
  8
_U+30EC_U+30A4_U+30E4_U+30FC 1
 62
   179
420
  2234388
370
    25
100
AcDbSpline
210
0.0
220
0.0
230
1.0
 70
     8
 71
     3
 72
     8
 73
     4
 74
     0
 42
0.0000000001
 43
0.0000000001
 12
1.0
 22
0.0
 32
0.0
 13
1.0
 23
0.0
 33
0.0
 40
0.0
 40
0.0
 40
0.0
 40
0.0
 40
1.0
 40
1.0
 40
1.0
 40
1.0
 10
78.36316077856699
 20
-140.0738032983151
 30
0.0
 10
78.36316077856699
 20
-141.4539052424143
 30
0.0
 10
79.48284213889043
 20
-142.5735513532457
 30
0.0
 10
80.86361432588622
 20
-142.5735513532457
 30
0.0
  0
SPLINE
  5
82
330
1F
100
AcDbEntity
  8
_U+30EC_U+30A4_U+30E4_U+30FC 1
 62
   179
420
  2234388
370
    25
100
AcDbSpline
210
0.0
220
0.0
230
1.0
 70
     8
 71
     3
 72
     8
 73
     4
 74
     0
 42
0.0000000001
 43
0.0000000001
 12
1.0
 22
0.0
 32
0.0
 13
1.0
 23
0.0
 33
0.0
 40
0.0
 40
0.0
 40
0.0
 40
0.0
 40
1.0
 40
1.0
 40
1.0
 40
1.0
 10
93.36344789587778
 20
-142.5735513532457
 30
0.0
 10
93.91572149289922
 20
-142.5735513532457
 30
0.0
 10
94.36322009259369
 20
-142.1256999644687
 30
0.0
 10
94.36322009259369
 20
-141.5737791312732
 30
0.0
  0
SPLINE
  5
83
330
1F
100
AcDbEntity
  8
_U+30EC_U+30A4_U+30E4_U+30FC 1
 62
   179
420
  2234388
370
    25
100
AcDbSpline
210
0.0
220
0.0
230
1.0
 70
     8
 71
     3
 72
     8
 73
     4
 74
     0
 42
0.0000000001
 43
0.0000000001
 12
1.0
 22
0.0
 32
0.0
 13
1.0
 23
0.0
 33
0.0
 40
0.0
 40
0.0
 40
0.0
 40
0.0
 40
1.0
 40
1.0
 40
1.0
 40
1.0
 10
79.36363853082045
 20
-126.5733152461345
 30
0.0
 10
78.81104743380712
 20
-126.5733152461345
 30
0.0
 10
78.36316077856699
 20
-127.021201912689
 30
0.0
 10
78.36316077856699
 20
-127.5737930236622
 30
0.0
  0
SPLINE
  5
84
330
1F
100
AcDbEntity
  8
_U+30EC_U+30A4_U+30E4_U+30FC 1
 62
   179
420
  2234388
370
    25
100
AcDbSpline
210
0.0
220
0.0
230
1.0
 70
     8
 71
     3
 72
    11
 73
     7
 74
     0
 42
0.0000000001
 43
0.0000000001
 12
1.0
 22
0.0
 32
0.0
 13
1.0
 23
0.0
 33
0.0
 40
0.0
 40
0.0
 40
0.0
 40
0.0
 40
1.0
 40
1.0
 40
1.0
 40
2.0
 40
2.0
 40
2.0
 40
2.0
 10
80.53531933426171
 20
-141.0521971869594
 30
0.0
 10
80.4130112818265
 20
-141.1645216313758
 30
0.0
 10
80.40472100426022
 20
-141.3539985757727
 30
0.0
 10
80.51669266807026
 20
-141.4759538535199
 30
0.0
 10
80.57356044439722
 20
-141.5379721868374
 30
0.0
 10
80.653819424281
 20
-141.5737791312732
 30
0.0
 10
80.73823710686264
 20
-141.5737791312732
 30
0.0
  0
SPLINE
  5
85
330
1F
100
AcDbEntity
  8
_U+30EC_U+30A4_U+30E4_U+30FC 1
 62
   179
420
  2234388
370
    25
100
AcDbSpline
210
0.0
220
0.0
230
1.0
 70
     8
 71
     3
 72
    11
 73
     7
 74
     0
 42
0.0000000001
 43
0.0000000001
 12
1.0
 22
0.0
 32
0.0
 13
1.0
 23
0.0
 33
0.0
 40
0.0
 40
0.0
 40
0.0
 40
0.0
 40
1.0
 40
1.0
 40
1.0
 40
2.0
 40
2.0
 40
2.0
 40
2.0
 10
79.36363853082045
 20
-140.0882671872001
 30
0.0
 10
79.36363853082045
 20
-140.253614131603
 30
0.0
 10
79.49765880517909
 20
-140.387987187125
 30
0.0
 10
79.66335852317395
 20
-140.387987187125
 30
0.0
 10
79.73846491014673
 20
-140.387987187125
 30
0.0
 10
79.81081963052303
 20
-140.3597296871323
 30
0.0
 10
79.8659235180061
 20
-140.3094235760341
 30
0.0
  0
SPLINE
  5
86
330
1F
100
AcDbEntity
  8
_U+30EC_U+30A4_U+30E4_U+30FC 1
 62
   179
420
  2234388
370
     9
100
AcDbSpline
210
0.0
220
0.0
230
1.0
 70
    11
 71
     3
 72
    17
 73
    13
 74
     0
 42
0.0000000001
 43
0.0000000001
 12
1.0
 22
0.0
 32
0.0
 13
1.0
 23
0.0
 33
0.0
 40
0.0
 40
0.0
 40
0.0
 40
0.0
 40
1.0
 40
1.0
 40
1.0
 40
2.0
 40
2.0
 40
2.0
 40
3.0
 40
3.0
 40
3.0
 40
4.0
 40
4.0
 40
4.0
 40
4.0
 10
78.46342220260642
 20
-123.5733283024401
 30
0.0
 10
78.46342220260642
 20
-123.5182244135649
 30
0.0
 10
78.41865272159572
 20
-123.4734216357982
 30
0.0
 10
78.36316077856699
 20
-123.4734216357982
 30
0.0
 10
78.30805689108392
 20
-123.4734216357982
 30
0.0
 10
78.26325411444915
 20
-123.5182244135649
 30
0.0
 10
78.26325411444915
 20
-123.5733283024401
 30
0.0
 10
78.26325411444915
 20
-123.6287849690928
 30
0.0
 10
78.30805689108392
 20
-123.6735877468595
 30
0.0
 10
78.36316077856699
 20
-123.6735877468595
 30
0.0
 10
78.41865272159572
 20
-123.6735877468595
 30
0.0
 10
78.46342220260642
 20
-123.6287849690928
 30
0.0
 10
78.46342220260642
 20
-123.5733283024401
 30
0.0
  0
SPLINE
  5
87
330
1F
100
AcDbEntity
  8
_U+30EC_U+30A4_U+30E4_U+30FC 1
 62
   179
420
  2234388
370
     9
100
AcDbSpline
210
0.0
220
0.0
230
1.0
 70
    11
 71
     3
 72
    17
 73
    13
 74
     0
 42
0.0000000001
 43
0.0000000001
 12
1.0
 22
0.0
 32
0.0
 13
1.0
 23
0.0
 33
0.0
 40
0.0
 40
0.0
 40
0.0
 40
0.0
 40
1.0
 40
1.0
 40
1.0
 40
2.0
 40
2.0
 40
2.0
 40
3.0
 40
3.0
 40
3.0
 40
4.0
 40
4.0
 40
4.0
 40
4.0
 10
79.46354720235641
 20
-123.5733283024401
 30
0.0
 10
79.46354720235641
 20
-123.5182244135649
 30
0.0
 10
79.41874442458969
 20
-123.4734216357982
 30
0.0
 10
79.36363853082045
 20
-123.4734216357982
 30
0.0
 10
79.30814658779173
 20
-123.4734216357982
 30
0.0
 10
79.26337908893385
 20
-123.5182244135649
 30
0.0
 10
79.26337908893385
 20
-123.5733283024401
 30
0.0
 10
79.26337908893385
 20
-123.6287849690928
 30
0.0
 10
79.30814658779173
 20
-123.6735877468595
 30
0.0
 10
79.36363853082045
 20
-123.6735877468595
 30
0.0
 10
79.41874442458969
 20
-123.6735877468595
 30
0.0
 10
79.46354720235641
 20
-123.6287849690928
 30
0.0
 10
79.46354720235641
 20
-123.5733283024401
 30
0.0
  0
SPLINE
  5
88
330
1F
100
AcDbEntity
  8
_U+30EC_U+30A4_U+30E4_U+30FC 1
 62
   179
420
  2234388
370
     9
100
AcDbSpline
210
0.0
220
0.0
230
1.0
 70
    11
 71
     3
 72
    17
 73
    13
 74
     0
 42
0.0000000001
 43
0.0000000001
 12
1.0
 22
0.0
 32
0.0
 13
1.0
 23
0.0
 33
0.0
 40
0.0
 40
0.0
 40
0.0
 40
0.0
 40
1.0
 40
1.0
 40
1.0
 40
2.0
 40
2.0
 40
2.0
 40
3.0
 40
3.0
 40
3.0
 40
4.0
 40
4.0
 40
4.0
 40
4.0
 10
86.96317722582896
 20
-110.0735458058151
 30
0.0
 10
86.96317722582896
 20
-110.0182655280509
 30
0.0
 10
86.91837444919419
 20
-109.9734627502846
 30
0.0
 10
86.86327056171112
 20
-109.9734627502846
 30
0.0
 10
86.80813139645117
 20
-109.9734627502846
 30
0.0
 10
86.7633638975933
 20
-110.0182655280509
 30
0.0
 10
86.7633638975933
 20
-110.0735458058151
 30
0.0
 10
86.7633638975933
 20
-110.1288613613567
 30
0.0
 10
86.80813139645117
 20
-110.1734524724567
 30
0.0
 10
86.86327056171112
 20
-110.1734524724567
 30
0.0
 10
86.91837444919419
 20
-110.1734524724567
 30
0.0
 10
86.96317722582896
 20
-110.1288613613567
 30
0.0
 10
86.96317722582896
 20
-110.0735458058151
 30
0.0
  0
SPLINE
  5
89
330
1F
100
AcDbEntity
  8
_U+30EC_U+30A4_U+30E4_U+30FC 1
 62
   179
420
  2234388
370
     9
100
AcDbSpline
210
0.0
220
0.0
230
1.0
 70
    11
 71
     3
 72
    17
 73
    13
 74
     0
 42
0.0000000001
 43
0.0000000001
 12
1.0
 22
0.0
 32
0.0
 13
1.0
 23
0.0
 33
0.0
 40
0.0
 40
0.0
 40
0.0
 40
0.0
 40
1.0
 40
1.0
 40
1.0
 40
2.0
 40
2.0
 40
2.0
 40
3.0
 40
3.0
 40
3.0
 40
4.0
 40
4.0
 40
4.0
 40
4.0
 10
106.9633131044719
 20
-110.0735458058151
 30
0.0
 10
106.9633131044719
 20
-110.0182655280509
 30
0.0
 10
106.918545605614
 20
-109.9734627502846
 30
0.0
 10
106.863406440354
 20
-109.9734627502846
 30
0.0
 10
106.808302552871
 20
-109.9734627502846
 30
0.0
 10
106.7634997762362
 20
-110.0182655280509
 30
0.0
 10
106.7634997762362
 20
-110.0735458058151
 30
0.0
 10
106.7634997762362
 20
-110.1288613613567
 30
0.0
 10
106.808302552871
 20
-110.1734524724567
 30
0.0
 10
106.863406440354
 20
-110.1734524724567
 30
0.0
 10
106.918545605614
 20
-110.1734524724567
 30
0.0
 10
106.9633131044719
 20
-110.1288613613567
 30
0.0
 10
106.9633131044719
 20
-110.0735458058151
 30
0.0
  0
SPLINE
  5
8A
330
1F
100
AcDbEntity
  8
_U+30EC_U+30A4_U+30E4_U+30FC 1
 62
   179
420
  2234388
370
     9
100
AcDbSpline
210
0.0
220
0.0
230
1.0
 70
    11
 71
     3
 72
    17
 73
    13
 74
     0
 42
0.0000000001
 43
0.0000000001
 12
1.0
 22
0.0
 32
0.0
 13
1.0
 23
0.0
 33
0.0
 40
0.0
 40
0.0
 40
0.0
 40
0.0
 40
1.0
 40
1.0
 40
1.0
 40
2.0
 40
2.0
 40
2.0
 40
3.0
 40
3.0
 40
3.0
 40
4.0
 40
4.0
 40
4.0
 40
4.0
 10
110.9634277500367
 20
-114.0734813603705
 30
0.0
 10
110.9634277500367
 20
-114.0183774714953
 30
0.0
 10
110.9186249722707
 20
-113.9735746937289
 30
0.0
 10
110.8635182827471
 20
-113.9735746937289
 30
0.0
 10
110.8080616174953
 20
-113.9735746937289
 30
0.0
 10
110.7632588408605
 20
-114.0183774714953
 30
0.0
 10
110.7632588408605
 20
-114.0734813603705
 30
0.0
 10
110.7632588408605
 20
-114.1287616381346
 30
0.0
 10
110.8080616174953
 20
-114.173564415901
 30
0.0
 10
110.8635182827471
 20
-114.173564415901
 30
0.0
 10
110.9186249722707
 20
-114.173564415901
 30
0.0
 10
110.9634277500367
 20
-114.1287616381346
 30
0.0
 10
110.9634277500367
 20
-114.0734813603705
 30
0.0
  0
SPLINE
  5
8B
330
1F
100
AcDbEntity
  8
_U+30EC_U+30A4_U+30E4_U+30FC 1
 62
   179
420
  2234388
370
     9
100
AcDbSpline
210
0.0
220
0.0
230
1.0
 70
    11
 71
     3
 72
    17
 73
    13
 74
     0
 42
0.0000000001
 43
0.0000000001
 12
1.0
 22
0.0
 32
0.0
 13
1.0
 23
0.0
 33
0.0
 40
0.0
 40
0.0
 40
0.0
 40
0.0
 40
1.0
 40
1.0
 40
1.0
 40
2.0
 40
2.0
 40
2.0
 40
3.0
 40
3.0
 40
3.0
 40
4.0
 40
4.0
 40
4.0
 40
4.0
 10
110.9634277500367
 20
-134.0734766331486
 30
0.0
 10
110.9634277500367
 20
-134.0183374664956
 30
0.0
 10
110.9186249722707
 20
-133.9735699665063
 30
0.0
 10
110.8635182827471
 20
-133.9735699665063
 30
0.0
 10
110.8080616174953
 20
-133.9735699665063
 30
0.0
 10
110.7632588408605
 20
-134.0183374664956
 30
0.0
 10
110.7632588408605
 20
-134.0734766331486
 30
0.0
 10
110.7632588408605
 20
-134.1285805220235
 30
0.0
 10
110.8080616174953
 20
-134.1733832997903
 30
0.0
 10
110.8635182827471
 20
-134.1733832997903
 30
0.0
 10
110.9186249722707
 20
-134.1733832997903
 30
0.0
 10
110.9634277500367
 20
-134.1285805220235
 30
0.0
 10
110.9634277500367
 20
-134.0734766331486
 30
0.0
  0
SPLINE
  5
8C
330
1F
100
AcDbEntity
  8
_U+30EC_U+30A4_U+30E4_U+30FC 1
 62
   179
420
  2234388
370
     9
100
AcDbSpline
210
0.0
220
0.0
230
1.0
 70
    11
 71
     3
 72
    17
 73
    13
 74
     0
 42
0.0000000001
 43
0.0000000001
 12
1.0
 22
0.0
 32
0.0
 13
1.0
 23
0.0
 33
0.0
 40
0.0
 40
0.0
 40
0.0
 40
0.0
 40
1.0
 40
1.0
 40
1.0
 40
2.0
 40
2.0
 40
2.0
 40
3.0
 40
3.0
 40
3.0
 40
4.0
 40
4.0
 40
4.0
 40
4.0
 10
78.46342220260642
 20
-148.5735252406344
 30
0.0
 10
78.46342220260642
 20
-148.5184213517595
 30
0.0
 10
78.41865272159572
 20
-148.4736185739928
 30
0.0
 10
78.36316077856699
 20
-148.4736185739928
 30
0.0
 10
78.30805689108392
 20
-148.4736185739928
 30
0.0
 10
78.26325411444915
 20
-148.5184213517595
 30
0.0
 10
78.26325411444915
 20
-148.5735252406344
 30
0.0
 10
78.26325411444915
 20
-148.6286644072875
 30
0.0
 10
78.30805689108392
 20
-148.673431907276
 30
0.0
 10
78.36316077856699
 20
-148.673431907276
 30
0.0
 10
78.41865272159572
 20
-148.673431907276
 30
0.0
 10
78.46342220260642
 20
-148.6286644072875
 30
0.0
 10
78.46342220260642
 20
-148.5735252406344
 30
0.0
  0
SPLINE
  5
8D
330
1F
100
AcDbEntity
  8
_U+30EC_U+30A4_U+30E4_U+30FC 1
 62
   179
420
  2234388
370
    25
100
AcDbSpline
210
0.0
220
0.0
230
1.0
 70
     8
 71
     3
 72
     8
 73
     4
 74
     0
 42
0.0000000001
 43
0.0000000001
 12
1.0
 22
0.0
 32
0.0
 13
1.0
 23
0.0
 33
0.0
 40
0.0
 40
0.0
 40
0.0
 40
0.0
 40
1.0
 40
1.0
 40
1.0
 40
1.0
 10
86.86327056171112
 20
-114.0734813603705
 30
0.0
 10
86.31134974245846
 20
-114.0734813603705
 30
0.0
 10
85.86349836499521
 20
-114.5211916380365
 30
0.0
 10
85.86349836499521
 20
-115.0736063601205
 30
0.0
  0
SPLINE
  5
8E
330
1F
100
AcDbEntity
  8
_U+30EC_U+30A4_U+30E4_U+30FC 1
 62
   179
420
  2234388
370
    25
100
AcDbSpline
210
0.0
220
0.0
230
1.0
 70
     8
 71
     3
 72
     8
 73
     4
 74
     0
 42
0.0000000001
 43
0.0000000001
 12
1.0
 22
0.0
 32
0.0
 13
1.0
 23
0.0
 33
0.0
 40
0.0
 40
0.0
 40
0.0
 40
0.0
 40
1.0
 40
1.0
 40
1.0
 40
1.0
 10
105.8633194179783
 20
-135.0732488551205
 30
0.0
 10
106.4155550628908
 20
-135.0732488551205
 30
0.0
 10
106.863406440354
 20
-134.6260677441215
 30
0.0
 10
106.863406440354
 20
-134.0734766331486
 30
0.0
  0
SPLINE
  5
8F
330
1F
100
AcDbEntity
  8
_U+30EC_U+30A4_U+30E4_U+30FC 1
 62
   179
420
  2234388
370
     9
100
AcDbSpline
210
0.0
220
0.0
230
1.0
 70
    11
 71
     3
 72
    17
 73
    13
 74
     0
 42
0.0000000001
 43
0.0000000001
 12
1.0
 22
0.0
 32
0.0
 13
1.0
 23
0.0
 33
0.0
 40
0.0
 40
0.0
 40
0.0
 40
0.0
 40
1.0
 40
1.0
 40
1.0
 40
2.0
 40
2.0
 40
2.0
 40
3.0
 40
3.0
 40
3.0
 40
4.0
 40
4.0
 40
4.0
 40
4.0
 10
94.4634795344803
 20
-148.5735252406344
 30
0.0
 10
94.4634795344803
 20
-148.5184213517595
 30
0.0
 10
94.41871203562242
 20
-148.4736185739928
 30
0.0
 10
94.36322009259369
 20
-148.4736185739928
 30
0.0
 10
94.30811620511062
 20
-148.4736185739928
 30
0.0
 10
94.26331342847585
 20
-148.5184213517595
 30
0.0
 10
94.26331342847585
 20
-148.5735252406344
 30
0.0
 10
94.26331342847585
 20
-148.6286644072875
 30
0.0
 10
94.30811620511062
 20
-148.673431907276
 30
0.0
 10
94.36322009259369
 20
-148.673431907276
 30
0.0
 10
94.41871203562242
 20
-148.673431907276
 30
0.0
 10
94.4634795344803
 20
-148.6286644072875
 30
0.0
 10
94.4634795344803
 20
-148.5735252406344
 30
0.0
  0
SPLINE
  5
90
330
1F
100
AcDbEntity
  8
_U+30EC_U+30A4_U+30E4_U+30FC 1
 62
   179
420
  2234388
370
     9
100
AcDbSpline
210
0.0
220
0.0
230
1.0
 70
    11
 71
     3
 72
    17
 73
    13
 74
     0
 42
0.0000000001
 43
0.0000000001
 12
1.0
 22
0.0
 32
0.0
 13
1.0
 23
0.0
 33
0.0
 40
0.0
 40
0.0
 40
0.0
 40
0.0
 40
1.0
 40
1.0
 40
1.0
 40
2.0
 40
2.0
 40
2.0
 40
3.0
 40
3.0
 40
3.0
 40
4.0
 40
4.0
 40
4.0
 40
4.0
 10
106.9633131044719
 20
-148.5735252406344
 30
0.0
 10
106.9633131044719
 20
-148.5184213517595
 30
0.0
 10
106.918545605614
 20
-148.4736185739928
 30
0.0
 10
106.863406440354
 20
-148.4736185739928
 30
0.0
 10
106.808302552871
 20
-148.4736185739928
 30
0.0
 10
106.7634997762362
 20
-148.5184213517595
 30
0.0
 10
106.7634997762362
 20
-148.5735252406344
 30
0.0
 10
106.7634997762362
 20
-148.6286644072875
 30
0.0
 10
106.808302552871
 20
-148.673431907276
 30
0.0
 10
106.863406440354
 20
-148.673431907276
 30
0.0
 10
106.918545605614
 20
-148.673431907276
 30
0.0
 10
106.9633131044719
 20
-148.6286644072875
 30
0.0
 10
106.9633131044719
 20
-148.5735252406344
 30
0.0
  0
SPLINE
  5
91
330
1F
100
AcDbEntity
  8
_U+30EC_U+30A4_U+30E4_U+30FC 1
 62
   179
420
  2234388
370
     9
100
AcDbSpline
210
0.0
220
0.0
230
1.0
 70
    11
 71
     3
 72
    17
 73
    13
 74
     0
 42
0.0000000001
 43
0.0000000001
 12
1.0
 22
0.0
 32
0.0
 13
1.0
 23
0.0
 33
0.0
 40
0.0
 40
0.0
 40
0.0
 40
0.0
 40
1.0
 40
1.0
 40
1.0
 40
2.0
 40
2.0
 40
2.0
 40
3.0
 40
3.0
 40
3.0
 40
4.0
 40
4.0
 40
4.0
 40
4.0
 10
98.46323859910461
 20
-135.0732488551205
 30
0.0
 10
98.46323859910461
 20
-135.0181096884674
 30
0.0
 10
98.41843582246986
 20
-134.9733421884789
 30
0.0
 10
98.36333193498679
 20
-134.9733421884789
 30
0.0
 10
98.30819276972683
 20
-134.9733421884789
 30
0.0
 10
98.26342775321173
 20
-135.0181096884674
 30
0.0
 10
98.26342775321173
 20
-135.0732488551205
 30
0.0
 10
98.26342775321173
 20
-135.129058299551
 30
0.0
 10
98.30819276972683
 20
-135.1738257995402
 30
0.0
 10
98.36333193498679
 20
-135.1738257995402
 30
0.0
 10
98.41843582246986
 20
-135.1738257995402
 30
0.0
 10
98.46323859910461
 20
-135.129058299551
 30
0.0
 10
98.46323859910461
 20
-135.0732488551205
 30
0.0
  0
SPLINE
  5
92
330
1F
100
AcDbEntity
  8
_U+30EC_U+30A4_U+30E4_U+30FC 1
 62
   179
420
  2234388
370
     9
100
AcDbSpline
210
0.0
220
0.0
230
1.0
 70
    11
 71
     3
 72
    17
 73
    13
 74
     0
 42
0.0000000001
 43
0.0000000001
 12
1.0
 22
0.0
 32
0.0
 13
1.0
 23
0.0
 33
0.0
 40
0.0
 40
0.0
 40
0.0
 40
0.0
 40
1.0
 40
1.0
 40
1.0
 40
2.0
 40
2.0
 40
2.0
 40
3.0
 40
3.0
 40
3.0
 40
4.0
 40
4.0
 40
4.0
 40
4.0
 10
98.46323859910461
 20
-141.5737791312732
 30
0.0
 10
98.46323859910461
 20
-141.5179696868427
 30
0.0
 10
98.41843582246986
 20
-141.4732021868542
 30
0.0
 10
98.36333193498679
 20
-141.4732021868542
 30
0.0
 10
98.30819276972683
 20
-141.4732021868542
 30
0.0
 10
98.26342775321173
 20
-141.5179696868427
 30
0.0
 10
98.26342775321173
 20
-141.5737791312732
 30
0.0
 10
98.26342775321173
 20
-141.6289182979262
 30
0.0
 10
98.30819276972683
 20
-141.6736857979148
 30
0.0
 10
98.36333193498679
 20
-141.6736857979148
 30
0.0
 10
98.41843582246986
 20
-141.6736857979148
 30
0.0
 10
98.46323859910461
 20
-141.6289182979262
 30
0.0
 10
98.46323859910461
 20
-141.5737791312732
 30
0.0
  0
SPLINE
  5
93
330
1F
100
AcDbEntity
  8
_U+30EC_U+30A4_U+30E4_U+30FC 1
 62
   179
420
  2234388
370
     9
100
AcDbSpline
210
0.0
220
0.0
230
1.0
 70
    11
 71
     3
 72
    17
 73
    13
 74
     0
 42
0.0000000001
 43
0.0000000001
 12
1.0
 22
0.0
 32
0.0
 13
1.0
 23
0.0
 33
0.0
 40
0.0
 40
0.0
 40
0.0
 40
0.0
 40
1.0
 40
1.0
 40
1.0
 40
2.0
 40
2.0
 40
2.0
 40
3.0
 40
3.0
 40
3.0
 40
4.0
 40
4.0
 40
4.0
 40
4.0
 10
85.96340502911305
 20
-123.5733283024401
 30
0.0
 10
85.96340502911305
 20
-123.5182244135649
 30
0.0
 10
85.91860225247828
 20
-123.4734216357982
 30
0.0
 10
85.86349836499521
 20
-123.4734216357982
 30
0.0
 10
85.80835919973526
 20
-123.4734216357982
 30
0.0
 10
85.76359170087738
 20
-123.5182244135649
 30
0.0
 10
85.76359170087738
 20
-123.5733283024401
 30
0.0
 10
85.76359170087738
 20
-123.6287849690928
 30
0.0
 10
85.80835919973526
 20
-123.6735877468595
 30
0.0
 10
85.86349836499521
 20
-123.6735877468595
 30
0.0
 10
85.91860225247828
 20
-123.6735877468595
 30
0.0
 10
85.96340502911305
 20
-123.6287849690928
 30
0.0
 10
85.96340502911305
 20
-123.5733283024401
 30
0.0
  0
POLYLINE
  5
94
330
1F
100
AcDbEntity
  8
_U+30EC_U+30A4_U+30E4_U+30FC 1
 62
   179
420
  2234388
370
     9
100
AcDb2dPolyline
 66
     1
 10
0.0
 20
0.0
 30
0.0
  0
VERTEX
  5
95
330
94
100
AcDbEntity
  8
_U+30EC_U+30A4_U+30E4_U+30FC 1
 62
   179
420
  2234388
370
     9
100
AcDbVertex
100
AcDb2dVertex
 10
78.36316077856699
 20
-123.5733283024401
 30
0.0
  0
VERTEX
  5
96
330
94
100
AcDbEntity
  8
_U+30EC_U+30A4_U+30E4_U+30FC 1
 62
   179
420
  2234388
370
     9
100
AcDbVertex
100
AcDb2dVertex
 10
74.59284837475568
 20
-123.5733283024401
 30
0.0
  0
SEQEND
  5
97
330
94
100
AcDbEntity
  8
_U+30EC_U+30A4_U+30E4_U+30FC 1
 62
   179
420
  2234388
370
     9
  0
POLYLINE
  5
98
330
1F
100
AcDbEntity
  8
_U+30EC_U+30A4_U+30E4_U+30FC 1
 62
   179
420
  2234388
370
     9
100
AcDb2dPolyline
 66
     1
 10
0.0
 20
0.0
 30
0.0
  0
VERTEX
  5
99
330
98
100
AcDbEntity
  8
_U+30EC_U+30A4_U+30E4_U+30FC 1
 62
   179
420
  2234388
370
     9
100
AcDbVertex
100
AcDb2dVertex
 10
79.36363853082045
 20
-123.5733283024401
 30
0.0
  0
VERTEX
  5
9A
330
98
100
AcDbEntity
  8
_U+30EC_U+30A4_U+30E4_U+30FC 1
 62
   179
420
  2234388
370
     9
100
AcDbVertex
100
AcDb2dVertex
 10
78.36316077856699
 20
-123.5733283024401
 30
0.0
  0
SEQEND
  5
9B
330
98
100
AcDbEntity
  8
_U+30EC_U+30A4_U+30E4_U+30FC 1
 62
   179
420
  2234388
370
     9
  0
POLYLINE
  5
9C
330
1F
100
AcDbEntity
  8
_U+30EC_U+30A4_U+30E4_U+30FC 1
 62
   179
420
  2234388
370
     9
100
AcDb2dPolyline
 66
     1
 10
0.0
 20
0.0
 30
0.0
  0
VERTEX
  5
9D
330
9C
100
AcDbEntity
  8
_U+30EC_U+30A4_U+30E4_U+30FC 1
 62
   179
420
  2234388
370
     9
100
AcDbVertex
100
AcDb2dVertex
 10
79.36363853082045
 20
-125.0333696909638
 30
0.0
  0
VERTEX
  5
9E
330
9C
100
AcDbEntity
  8
_U+30EC_U+30A4_U+30E4_U+30FC 1
 62
   179
420
  2234388
370
     9
100
AcDbVertex
100
AcDb2dVertex
 10
79.36363853082045
 20
-122.5735560804676
 30
0.0
  0
SEQEND
  5
9F
330
9C
100
AcDbEntity
  8
_U+30EC_U+30A4_U+30E4_U+30FC 1
 62
   179
420
  2234388
370
     9
  0
POLYLINE
  5
A0
330
1F
100
AcDbEntity
  8
_U+30EC_U+30A4_U+30E4_U+30FC 1
 62
   179
420
  2234388
370
     9
100
AcDb2dPolyline
 66
     1
 10
0.0
 20
0.0
 30
0.0
  0
VERTEX
  5
A1
330
A0
100
AcDbEntity
  8
_U+30EC_U+30A4_U+30E4_U+30FC 1
 62
   179
420
  2234388
370
     9
100
AcDbVertex
100
AcDb2dVertex
 10
78.36316077856699
 20
-126.0334946907138
 30
0.0
  0
VERTEX
  5
A2
330
A0
100
AcDbEntity
  8
_U+30EC_U+30A4_U+30E4_U+30FC 1
 62
   179
420
  2234388
370
     9
100
AcDbVertex
100
AcDb2dVertex
 10
78.36316077856699
 20
-122.5735560804676
 30
0.0
  0
SEQEND
  5
A3
330
A0
100
AcDbEntity
  8
_U+30EC_U+30A4_U+30E4_U+30FC 1
 62
   179
420
  2234388
370
     9
  0
INSERT
  5
A5
330
1F
100
AcDbEntity
  8
_U+30EC_U+30A4_U+30E4_U+30FC 1
100
AcDbBlockReference
  2
block 2
 10
0.0
 20
0.0
 30
0.0
  0
POLYLINE
  5
AA
330
1F
100
AcDbEntity
  8
_U+30EC_U+30A4_U+30E4_U+30FC 1
 62
   179
420
  2234388
370
     9
100
AcDb2dPolyline
 66
     1
 10
0.0
 20
0.0
 30
0.0
  0
VERTEX
  5
AB
330
AA
100
AcDbEntity
  8
_U+30EC_U+30A4_U+30E4_U+30FC 1
 62
   179
420
  2234388
370
     9
100
AcDbVertex
100
AcDb2dVertex
 10
86.86327056171112
 20
-110.0735458058151
 30
0.0
  0
VERTEX
  5
AC
330
AA
100
AcDbEntity
  8
_U+30EC_U+30A4_U+30E4_U+30FC 1
 62
   179
420
  2234388
370
     9
100
AcDbVertex
100
AcDb2dVertex
 10
106.863406440354
 20
-110.0735458058151
 30
0.0
  0
SEQEND
  5
AD
330
AA
100
AcDbEntity
  8
_U+30EC_U+30A4_U+30E4_U+30FC 1
 62
   179
420
  2234388
370
     9
  0
POLYLINE
  5
AE
330
1F
100
AcDbEntity
  8
_U+30EC_U+30A4_U+30E4_U+30FC 1
 62
   179
420
  2234388
370
     9
100
AcDb2dPolyline
 66
     1
 10
0.0
 20
0.0
 30
0.0
  0
VERTEX
  5
AF
330
AE
100
AcDbEntity
  8
_U+30EC_U+30A4_U+30E4_U+30FC 1
 62
   179
420
  2234388
370
     9
100
AcDbVertex
100
AcDb2dVertex
 10
86.86327056171112
 20
-111.5335871943388
 30
0.0
  0
VERTEX
  5
B0
330
AE
100
AcDbEntity
  8
_U+30EC_U+30A4_U+30E4_U+30FC 1
 62
   179
420
  2234388
370
     9
100
AcDbVertex
100
AcDb2dVertex
 10
86.86327056171112
 20
-109.0736324727315
 30
0.0
  0
SEQEND
  5
B1
330
AE
100
AcDbEntity
  8
_U+30EC_U+30A4_U+30E4_U+30FC 1
 62
   179
420
  2234388
370
     9
  0
POLYLINE
  5
B2
330
1F
100
AcDbEntity
  8
_U+30EC_U+30A4_U+30E4_U+30FC 1
 62
   179
420
  2234388
370
     9
100
AcDb2dPolyline
 66
     1
 10
0.0
 20
0.0
 30
0.0
  0
VERTEX
  5
B3
330
B2
100
AcDbEntity
  8
_U+30EC_U+30A4_U+30E4_U+30FC 1
 62
   179
420
  2234388
370
     9
100
AcDbVertex
100
AcDb2dVertex
 10
106.863406440354
 20
-131.5337588560054
 30
0.0
  0
VERTEX
  5
B4
330
B2
100
AcDbEntity
  8
_U+30EC_U+30A4_U+30E4_U+30FC 1
 62
   179
420
  2234388
370
     9
100
AcDbVertex
100
AcDb2dVertex
 10
106.863406440354
 20
-109.0736324727315
 30
0.0
  0
SEQEND
  5
B5
330
B2
100
AcDbEntity
  8
_U+30EC_U+30A4_U+30E4_U+30FC 1
 62
   179
420
  2234388
370
     9
  0
INSERT
  5
B7
330
1F
100
AcDbEntity
  8
_U+30EC_U+30A4_U+30E4_U+30FC 1
100
AcDbBlockReference
  2
block 3
 10
0.0
 20
0.0
 30
0.0
  0
POLYLINE
  5
BF
330
1F
100
AcDbEntity
  8
_U+30EC_U+30A4_U+30E4_U+30FC 1
 62
   179
420
  2234388
370
     9
100
AcDb2dPolyline
 66
     1
 10
0.0
 20
0.0
 30
0.0
  0
VERTEX
  5
C0
330
BF
100
AcDbEntity
  8
_U+30EC_U+30A4_U+30E4_U+30FC 1
 62
   179
420
  2234388
370
     9
100
AcDbVertex
100
AcDb2dVertex
 10
110.8635182827471
 20
-134.0734766331486
 30
0.0
  0
VERTEX
  5
C1
330
BF
100
AcDbEntity
  8
_U+30EC_U+30A4_U+30E4_U+30FC 1
 62
   179
420
  2234388
370
     9
100
AcDbVertex
100
AcDb2dVertex
 10
110.8635182827471
 20
-114.0734813603705
 30
0.0
  0
SEQEND
  5
C2
330
BF
100
AcDbEntity
  8
_U+30EC_U+30A4_U+30E4_U+30FC 1
 62
   179
420
  2234388
370
     9
  0
POLYLINE
  5
C3
330
1F
100
AcDbEntity
  8
_U+30EC_U+30A4_U+30E4_U+30FC 1
 62
   179
420
  2234388
370
     9
100
AcDb2dPolyline
 66
     1
 10
0.0
 20
0.0
 30
0.0
  0
VERTEX
  5
C4
330
C3
100
AcDbEntity
  8
_U+30EC_U+30A4_U+30E4_U+30FC 1
 62
   179
420
  2234388
370
     9
100
AcDbVertex
100
AcDb2dVertex
 10
109.403476931107
 20
-134.0734766331486
 30
0.0
  0
VERTEX
  5
C5
330
C3
100
AcDbEntity
  8
_U+30EC_U+30A4_U+30E4_U+30FC 1
 62
   179
420
  2234388
370
     9
100
AcDbVertex
100
AcDb2dVertex
 10
111.863290479463
 20
-134.0734766331486
 30
0.0
  0
SEQEND
  5
C6
330
C3
100
AcDbEntity
  8
_U+30EC_U+30A4_U+30E4_U+30FC 1
 62
   179
420
  2234388
370
     9
  0
POLYLINE
  5
C7
330
1F
100
AcDbEntity
  8
_U+30EC_U+30A4_U+30E4_U+30FC 1
 62
   179
420
  2234388
370
     9
100
AcDb2dPolyline
 66
     1
 10
0.0
 20
0.0
 30
0.0
  0
VERTEX
  5
C8
330
C7
100
AcDbEntity
  8
_U+30EC_U+30A4_U+30E4_U+30FC 1
 62
   179
420
  2234388
370
     9
100
AcDbVertex
100
AcDb2dVertex
 10
89.40334105246409
 20
-114.0734813603705
 30
0.0
  0
VERTEX
  5
C9
330
C7
100
AcDbEntity
  8
_U+30EC_U+30A4_U+30E4_U+30FC 1
 62
   179
420
  2234388
370
     9
100
AcDbVertex
100
AcDb2dVertex
 10
111.863290479463
 20
-114.0734813603705
 30
0.0
  0
SEQEND
  5
CA
330
C7
100
AcDbEntity
  8
_U+30EC_U+30A4_U+30E4_U+30FC 1
 62
   179
420
  2234388
370
     9
  0
INSERT
  5
CC
330
1F
100
AcDbEntity
  8
_U+30EC_U+30A4_U+30E4_U+30FC 1
100
AcDbBlockReference
  2
block 4
 10
0.0
 20
0.0
 30
0.0
  0
POLYLINE
  5
D4
330
1F
100
AcDbEntity
  8
_U+30EC_U+30A4_U+30E4_U+30FC 1
 62
   179
420
  2234388
370
     9
100
AcDb2dPolyline
 66
     1
 10
0.0
 20
0.0
 30
0.0
  0
VERTEX
  5
D5
330
D4
100
AcDbEntity
  8
_U+30EC_U+30A4_U+30E4_U+30FC 1
 62
   179
420
  2234388
370
     9
100
AcDbVertex
100
AcDb2dVertex
 10
78.72973215810386
 20
-141.3767174646557
 30
0.0
  0
VERTEX
  5
D6
330
D4
100
AcDbEntity
  8
_U+30EC_U+30A4_U+30E4_U+30FC 1
 62
   179
420
  2234388
370
     9
100
AcDbVertex
100
AcDb2dVertex
 10
75.41072835388982
 20
-143.4038138530379
 30
0.0
  0
SEQEND
  5
D7
330
D4
100
AcDbEntity
  8
_U+30EC_U+30A4_U+30E4_U+30FC 1
 62
   179
420
  2234388
370
     9
  0
POLYLINE
  5
D8
330
1F
100
AcDbEntity
  8
_U+30EC_U+30A4_U+30E4_U+30FC 1
 62
   179
420
  2234388
370
     9
100
AcDb2dPolyline
 66
     1
 10
0.0
 20
0.0
 30
0.0
  0
VERTEX
  5
D9
330
D8
100
AcDbEntity
  8
_U+30EC_U+30A4_U+30E4_U+30FC 1
 62
   179
420
  2234388
370
     9
100
AcDbVertex
100
AcDb2dVertex
 10
75.41072835388982
 20
-143.4038138530379
 30
0.0
  0
VERTEX
  5
DA
330
D8
100
AcDbEntity
  8
_U+30EC_U+30A4_U+30E4_U+30FC 1
 62
   179
420
  2234388
370
     9
100
AcDbVertex
100
AcDb2dVertex
 10
69.90958238312463
 20
-143.4038138530379
 30
0.0
  0
SEQEND
  5
DB
330
D8
100
AcDbEntity
  8
_U+30EC_U+30A4_U+30E4_U+30FC 1
 62
   179
420
  2234388
370
     9
  0
INSERT
  5
DD
330
1F
100
AcDbEntity
  8
_U+30EC_U+30A4_U+30E4_U+30FC 1
100
AcDbBlockReference
  2
block 5
 10
0.0
 20
0.0
 30
0.0
  0
POLYLINE
  5
EF
330
1F
100
AcDbEntity
  8
_U+30EC_U+30A4_U+30E4_U+30FC 1
 62
   179
420
  2234388
370
     9
100
AcDb2dPolyline
 66
     1
 10
0.0
 20
0.0
 30
0.0
  0
VERTEX
  5
F0
330
EF
100
AcDbEntity
  8
_U+30EC_U+30A4_U+30E4_U+30FC 1
 62
   179
420
  2234388
370
     9
100
AcDbVertex
100
AcDb2dVertex
 10
94.36322009259369
 20
-148.5735252406344
 30
0.0
  0
VERTEX
  5
F1
330
EF
100
AcDbEntity
  8
_U+30EC_U+30A4_U+30E4_U+30FC 1
 62
   179
420
  2234388
370
     9
100
AcDbVertex
100
AcDb2dVertex
 10
106.863406440354
 20
-148.5735252406344
 30
0.0
  0
SEQEND
  5
F2
330
EF
100
AcDbEntity
  8
_U+30EC_U+30A4_U+30E4_U+30FC 1
 62
   179
420
  2234388
370
     9
  0
POLYLINE
  5
F3
330
1F
100
AcDbEntity
  8
_U+30EC_U+30A4_U+30E4_U+30FC 1
 62
   179
420
  2234388
370
     9
100
AcDb2dPolyline
 66
     1
 10
0.0
 20
0.0
 30
0.0
  0
VERTEX
  5
F4
330
F3
100
AcDbEntity
  8
_U+30EC_U+30A4_U+30E4_U+30FC 1
 62
   179
420
  2234388
370
     9
100
AcDbVertex
100
AcDb2dVertex
 10
106.863406440354
 20
-136.6131944102912
 30
0.0
  0
VERTEX
  5
F5
330
F3
100
AcDbEntity
  8
_U+30EC_U+30A4_U+30E4_U+30FC 1
 62
   179
420
  2234388
370
     9
100
AcDbVertex
100
AcDb2dVertex
 10
106.863406440354
 20
-149.5732974626069
 30
0.0
  0
SEQEND
  5
F6
330
F3
100
AcDbEntity
  8
_U+30EC_U+30A4_U+30E4_U+30FC 1
 62
   179
420
  2234388
370
     9
  0
INSERT
  5
F8
330
1F
100
AcDbEntity
  8
_U+30EC_U+30A4_U+30E4_U+30FC 1
100
AcDbBlockReference
  2
block 6
 10
0.0
 20
0.0
 30
0.0
  0
POLYLINE
  5
109
330
1F
100
AcDbEntity
  8
_U+30EC_U+30A4_U+30E4_U+30FC 1
 62
   179
420
  2234388
370
     9
100
AcDb2dPolyline
 66
     1
 10
0.0
 20
0.0
 30
0.0
  0
VERTEX
  5
10A
330
109
100
AcDbEntity
  8
_U+30EC_U+30A4_U+30E4_U+30FC 1
 62
   179
420
  2234388
370
     9
100
AcDbVertex
100
AcDb2dVertex
 10
78.36316077856699
 20
-148.5735252406344
 30
0.0
  0
VERTEX
  5
10B
330
109
100
AcDbEntity
  8
_U+30EC_U+30A4_U+30E4_U+30FC 1
 62
   179
420
  2234388
370
     9
100
AcDbVertex
100
AcDb2dVertex
 10
94.36322009259369
 20
-148.5735252406344
 30
0.0
  0
SEQEND
  5
10C
330
109
100
AcDbEntity
  8
_U+30EC_U+30A4_U+30E4_U+30FC 1
 62
   179
420
  2234388
370
     9
  0
POLYLINE
  5
10D
330
1F
100
AcDbEntity
  8
_U+30EC_U+30A4_U+30E4_U+30FC 1
 62
   179
420
  2234388
370
     9
100
AcDb2dPolyline
 66
     1
 10
0.0
 20
0.0
 30
0.0
  0
VERTEX
  5
10E
330
10D
100
AcDbEntity
  8
_U+30EC_U+30A4_U+30E4_U+30FC 1
 62
   179
420
  2234388
370
     9
100
AcDbVertex
100
AcDb2dVertex
 10
78.36316077856699
 20
-142.6135210754576
 30
0.0
  0
VERTEX
  5
10F
330
10D
100
AcDbEntity
  8
_U+30EC_U+30A4_U+30E4_U+30FC 1
 62
   179
420
  2234388
370
     9
100
AcDbVertex
100
AcDb2dVertex
 10
78.36316077856699
 20
-149.5732974626069
 30
0.0
  0
SEQEND
  5
110
330
10D
100
AcDbEntity
  8
_U+30EC_U+30A4_U+30E4_U+30FC 1
 62
   179
420
  2234388
370
     9
  0
POLYLINE
  5
111
330
1F
100
AcDbEntity
  8
_U+30EC_U+30A4_U+30E4_U+30FC 1
 62
   179
420
  2234388
370
     9
100
AcDb2dPolyline
 66
     1
 10
0.0
 20
0.0
 30
0.0
  0
VERTEX
  5
112
330
111
100
AcDbEntity
  8
_U+30EC_U+30A4_U+30E4_U+30FC 1
 62
   179
420
  2234388
370
     9
100
AcDbVertex
100
AcDb2dVertex
 10
94.36322009259369
 20
-144.1134969084163
 30
0.0
  0
VERTEX
  5
113
330
111
100
AcDbEntity
  8
_U+30EC_U+30A4_U+30E4_U+30FC 1
 62
   179
420
  2234388
370
     9
100
AcDbVertex
100
AcDb2dVertex
 10
94.36322009259369
 20
-149.5732974626069
 30
0.0
  0
SEQEND
  5
114
330
111
100
AcDbEntity
  8
_U+30EC_U+30A4_U+30E4_U+30FC 1
 62
   179
420
  2234388
370
     9
  0
INSERT
  5
116
330
1F
100
AcDbEntity
  8
_U+30EC_U+30A4_U+30E4_U+30FC 1
100
AcDbBlockReference
  2
block 7
 10
0.0
 20
0.0
 30
0.0
  0
POLYLINE
  5
11E
330
1F
100
AcDbEntity
  8
_U+30EC_U+30A4_U+30E4_U+30FC 1
 62
   179
420
  2234388
370
     9
100
AcDb2dPolyline
 66
     1
 10
0.0
 20
0.0
 30
0.0
  0
VERTEX
  5
11F
330
11E
100
AcDbEntity
  8
_U+30EC_U+30A4_U+30E4_U+30FC 1
 62
   179
420
  2234388
370
     9
100
AcDbVertex
100
AcDb2dVertex
 10
98.36333193498679
 20
-135.0732488551205
 30
0.0
  0
VERTEX
  5
120
330
11E
100
AcDbEntity
  8
_U+30EC_U+30A4_U+30E4_U+30FC 1
 62
   179
420
  2234388
370
     9
100
AcDbVertex
100
AcDb2dVertex
 10
98.36333193498679
 20
-141.5737791312732
 30
0.0
  0
SEQEND
  5
121
330
11E
100
AcDbEntity
  8
_U+30EC_U+30A4_U+30E4_U+30FC 1
 62
   179
420
  2234388
370
     9
  0
POLYLINE
  5
122
330
1F
100
AcDbEntity
  8
_U+30EC_U+30A4_U+30E4_U+30FC 1
 62
   179
420
  2234388
370
    25
100
AcDb2dPolyline
 66
     1
 10
0.0
 20
0.0
 30
0.0
  0
VERTEX
  5
123
330
122
100
AcDbEntity
  8
_U+30EC_U+30A4_U+30E4_U+30FC 1
 62
   179
420
  2234388
370
    25
100
AcDbVertex
100
AcDb2dVertex
 10
100.9034024257397
 20
-135.0732488551205
 30
0.0
  0
VERTEX
  5
124
330
122
100
AcDbEntity
  8
_U+30EC_U+30A4_U+30E4_U+30FC 1
 62
   179
420
  2234388
370
    25
100
AcDbVertex
100
AcDb2dVertex
 10
100.3635466061793
 20
-135.0732488551205
 30
0.0
  0
SEQEND
  5
125
330
122
100
AcDbEntity
  8
_U+30EC_U+30A4_U+30E4_U+30FC 1
 62
   179
420
  2234388
370
    25
  0
POLYLINE
  5
126
330
1F
100
AcDbEntity
  8
_U+30EC_U+30A4_U+30E4_U+30FC 1
 62
   179
420
  2234388
370
     9
100
AcDb2dPolyline
 66
     1
 10
0.0
 20
0.0
 30
0.0
  0
VERTEX
  5
127
330
126
100
AcDbEntity
  8
_U+30EC_U+30A4_U+30E4_U+30FC 1
 62
   179
420
  2234388
370
     9
100
AcDbVertex
100
AcDb2dVertex
 10
96.90329058334665
 20
-141.5737791312732
 30
0.0
  0
VERTEX
  5
128
330
126
100
AcDbEntity
  8
_U+30EC_U+30A4_U+30E4_U+30FC 1
 62
   179
420
  2234388
370
     9
100
AcDbVertex
100
AcDb2dVertex
 10
99.36345690947147
 20
-141.5737791312732
 30
0.0
  0
SEQEND
  5
129
330
126
100
AcDbEntity
  8
_U+30EC_U+30A4_U+30E4_U+30FC 1
 62
   179
420
  2234388
370
     9
  0
INSERT
  5
12B
330
1F
100
AcDbEntity
  8
_U+30EC_U+30A4_U+30E4_U+30FC 1
100
AcDbBlockReference
  2
block 8
 10
0.0
 20
0.0
 30
0.0
  0
POLYLINE
  5
13B
330
1F
100
AcDbEntity
  8
_U+30EC_U+30A4_U+30E4_U+30FC 1
 62
   179
420
  2234388
370
     9
100
AcDb2dPolyline
 66
     1
 10
0.0
 20
0.0
 30
0.0
  0
VERTEX
  5
13C
330
13B
100
AcDbEntity
  8
_U+30EC_U+30A4_U+30E4_U+30FC 1
 62
   179
420
  2234388
370
     9
100
AcDbVertex
100
AcDb2dVertex
 10
79.36363853082045
 20
-123.5733283024401
 30
0.0
  0
VERTEX
  5
13D
330
13B
100
AcDbEntity
  8
_U+30EC_U+30A4_U+30E4_U+30FC 1
 62
   179
420
  2234388
370
     9
100
AcDbVertex
100
AcDb2dVertex
 10
85.86349836499521
 20
-123.5733283024401
 30
0.0
  0
SEQEND
  5
13E
330
13B
100
AcDbEntity
  8
_U+30EC_U+30A4_U+30E4_U+30FC 1
 62
   179
420
  2234388
370
     9
  0
POLYLINE
  5
13F
330
1F
100
AcDbEntity
  8
_U+30EC_U+30A4_U+30E4_U+30FC 1
 62
   179
420
  2234388
370
     9
100
AcDb2dPolyline
 66
     1
 10
0.0
 20
0.0
 30
0.0
  0
VERTEX
  5
140
330
13F
100
AcDbEntity
  8
_U+30EC_U+30A4_U+30E4_U+30FC 1
 62
   179
420
  2234388
370
     9
100
AcDbVertex
100
AcDb2dVertex
 10
79.36363853082045
 20
-124.0335974689916
 30
0.0
  0
VERTEX
  5
141
330
13F
100
AcDbEntity
  8
_U+30EC_U+30A4_U+30E4_U+30FC 1
 62
   179
420
  2234388
370
     9
100
AcDbVertex
100
AcDb2dVertex
 10
79.36363853082045
 20
-122.5735560804676
 30
0.0
  0
SEQEND
  5
142
330
13F
100
AcDbEntity
  8
_U+30EC_U+30A4_U+30E4_U+30FC 1
 62
   179
420
  2234388
370
     9
  0
POLYLINE
  5
143
330
1F
100
AcDbEntity
  8
_U+30EC_U+30A4_U+30E4_U+30FC 1
 62
   179
420
  2234388
370
    25
100
AcDb2dPolyline
 66
     1
 10
0.0
 20
0.0
 30
0.0
  0
VERTEX
  5
144
330
143
100
AcDbEntity
  8
_U+30EC_U+30A4_U+30E4_U+30FC 1
 62
   179
420
  2234388
370
    25
100
AcDbVertex
100
AcDb2dVertex
 10
85.86349836499521
 20
-126.1137516351382
 30
0.0
  0
VERTEX
  5
145
330
143
100
AcDbEntity
  8
_U+30EC_U+30A4_U+30E4_U+30FC 1
 62
   179
420
  2234388
370
    25
100
AcDbVertex
100
AcDb2dVertex
 10
85.86349836499521
 20
-125.5735430241623
 30
0.0
  0
SEQEND
  5
146
330
143
100
AcDbEntity
  8
_U+30EC_U+30A4_U+30E4_U+30FC 1
 62
   179
420
  2234388
370
    25
  0
INSERT
  5
148
330
1F
100
AcDbEntity
  8
_U+30EC_U+30A4_U+30E4_U+30FC 1
100
AcDbBlockReference
  2
block 9
 10
0.0
 20
0.0
 30
0.0
  0
ENDSEC
  0
SECTION
  2
OBJECTS
  0
DICTIONARY
  5
C
330
0
100
AcDbDictionary
281
     1
  3
ACAD_GROUP
350
D
  3
ACAD_LAYOUT
350
1A
  3
ACAD_MATERIAL
350
3B
  3
ACAD_MLEADERSTYLE
350
159
  3
ACAD_MLINESTYLE
350
17
  3
ACAD_PLOTSETTINGS
350
19
  3
ACAD_PLOTSTYLENAME
350
E
  3
ACAD_TABLESTYLE
350
158
  3
ACAD_VISUALSTYLE
350
2A
  0
SUN
  5
3F
330
29
100
AcDbSun
 90
        1
290
     0
 63
     7
421
 16777215
 40
1.0
291
     1
 91
  2455826
 92
 54000000
292
     0
 70
     2
 71
   256
280
     1
  0
DICTIONARY
  5
D
102
{ACAD_REACTORS
330
C
102
}
330
C
100
AcDbDictionary
281
     1
  0
DICTIONARY
  5
1A
102
{ACAD_REACTORS
330
C
102
}
330
C
100
AcDbDictionary
281
     1
  3
Layout1
350
1E
  3
Layout2
350
26
  3
Model
350
22
  0
DICTIONARY
  5
3B
102
{ACAD_REACTORS
330
C
102
}
330
C
100
AcDbDictionary
281
     1
  3
ByBlock
350
3D
  3
ByLayer
350
3C
  3
Global
350
3E
  0
DICTIONARY
  5
159
102
{ACAD_REACTORS
330
C
102
}
330
C
100
AcDbDictionary
281
     1
  0
DICTIONARY
  5
17
102
{ACAD_REACTORS
330
C
102
}
330
C
100
AcDbDictionary
281
     1
  3
Standard
350
18
  0
DICTIONARY
  5
19
102
{ACAD_REACTORS
330
C
102
}
330
C
100
AcDbDictionary
281
     1
  0
ACDBDICTIONARYWDFLT
  5
E
102
{ACAD_REACTORS
330
C
102
}
330
C
100
AcDbDictionary
281
     1
  3
Normal
350
F
100
AcDbDictionaryWithDefault
340
F
  0
DICTIONARY
  5
158
102
{ACAD_REACTORS
330
C
102
}
330
C
100
AcDbDictionary
281
     1
  0
DICTIONARY
  5
2A
102
{ACAD_REACTORS
330
C
102
}
330
C
100
AcDbDictionary
281
     1
  3
2dWireframe
350
2F
  3
3D Hidden
350
31
  3
3dWireframe
350
30
  3
Basic
350
32
  3
Brighten
350
36
  3
ColorChange
350
3A
  3
Conceptual
350
34
  3
Dim
350
35
  3
Facepattern
350
39
  3
Flat
350
2B
  3
FlatWithEdges
350
2C
  3
Gouraud
350
2D
  3
GouraudWithEdges
350
2E
  3
Linepattern
350
38
  3
Realistic
350
33
  3
Thicken
350
37
  0
LAYOUT
  5
1E
102
{ACAD_REACTORS
330
1A
102
}
330
1A
100
AcDbPlotSettings
  1

  2
none_device
  4

  6

 40
0.0
 41
0.0
 42
0.0
 43
0.0
 44
0.0
 45
0.0
 46
0.0
 47
0.0
 48
0.0
 49
0.0
140
0.0
141
0.0
142
1.0
143
1.0
 70
   688
 72
     0
 73
     0
 74
     5
  7

 75
    16
 76
     0
 77
     2
 78
   300
147
1.0
148
0.0
149
0.0
100
AcDbLayout
  1
Layout1
 70
     1
 71
     1
 10
0.0
 20
0.0
 11
12.0
 21
9.0
 12
0.0
 22
0.0
 32
0.0
 14
1.000000000000000E+20
 24
1.000000000000000E+20
 34
1.000000000000000E+20
 15
-1.000000000000000E+20
 25
-1.000000000000000E+20
 35
-1.000000000000000E+20
146
0.0
 13
0.0
 23
0.0
 33
0.0
 16
1.0
 26
0.0
 36
0.0
 17
0.0
 27
1.0
 37
0.0
 76
     0
330
1B
  0
LAYOUT
  5
26
102
{ACAD_REACTORS
330
1A
102
}
330
1A
100
AcDbPlotSettings
  1

  2
none_device
  4

  6

 40
0.0
 41
0.0
 42
0.0
 43
0.0
 44
0.0
 45
0.0
 46
0.0
 47
0.0
 48
0.0
 49
0.0
140
0.0
141
0.0
142
1.0
143
1.0
 70
   688
 72
     0
 73
     0
 74
     5
  7

 75
    16
 76
     0
 77
     2
 78
   300
147
1.0
148
0.0
149
0.0
100
AcDbLayout
  1
Layout2
 70
     1
 71
     2
 10
0.0
 20
0.0
 11
0.0
 21
0.0
 12
0.0
 22
0.0
 32
0.0
 14
0.0
 24
0.0
 34
0.0
 15
0.0
 25
0.0
 35
0.0
146
0.0
 13
0.0
 23
0.0
 33
0.0
 16
1.0
 26
0.0
 36
0.0
 17
0.0
 27
1.0
 37
0.0
 76
     0
330
23
  0
LAYOUT
  5
22
102
{ACAD_REACTORS
330
1A
102
}
330
1A
100
AcDbPlotSettings
  1

  2
none_device
  4

  6

 40
0.0
 41
0.0
 42
0.0
 43
0.0
 44
0.0
 45
0.0
 46
0.0
 47
0.0
 48
0.0
 49
0.0
140
0.0
141
0.0
142
1.0
143
1.0
 70
  1712
 72
     0
 73
     0
 74
     0
  7

 75
     0
 76
     0
 77
     2
 78
   300
147
1.0
148
0.0
149
0.0
100
AcDbLayout
  1
Model
 70
     1
 71
     0
 10
0.0
 20
0.0
 11
12.0
 21
9.0
 12
0.0
 22
0.0
 32
0.0
 14
1.000000000000000E+20
 24
1.000000000000000E+20
 34
1.000000000000000E+20
 15
-1.000000000000000E+20
 25
-1.000000000000000E+20
 35
-1.000000000000000E+20
146
0.0
 13
0.0
 23
0.0
 33
0.0
 16
1.0
 26
0.0
 36
0.0
 17
0.0
 27
1.0
 37
0.0
 76
     0
330
1F
331
29
  0
MATERIAL
  5
3D
102
{ACAD_REACTORS
330
3B
102
}
330
3B
100
AcDbMaterial
  1
ByBlock
 72
     1
 94
      127
  0
MATERIAL
  5
3C
102
{ACAD_REACTORS
330
3B
102
}
330
3B
100
AcDbMaterial
  1
ByLayer
 72
     1
 94
      127
  0
MATERIAL
  5
3E
102
{ACAD_REACTORS
330
3B
102
}
330
3B
100
AcDbMaterial
  1
Global
 72
     1
 94
      127
  0
MLINESTYLE
  5
18
102
{ACAD_REACTORS
330
17
102
}
330
17
100
AcDbMlineStyle
  2
Standard
 70
     0
  3

 62
   256
 51
90.0
 52
90.0
 71
     2
 49
0.5
 62
   256
  6
BYLAYER
 49
-0.5
 62
   256
  6
BYLAYER
  0
ACDBPLACEHOLDER
  5
F
102
{ACAD_REACTORS
330
E
102
}
330
E
  0
VISUALSTYLE
  5
2F
102
{ACAD_REACTORS
330
2A
102
}
330
2A
100
AcDbVisualStyle
  2
2dWireframe
 70
     4
177
     2
291
     0
 71
     0
176
     1
 72
     2
176
     1
 73
     0
176
     1
 90
        0
176
     1
 40
-0.6
176
     1
 41
-30.0
176
     1
 62
     5
 63
     7
421
 16777215
176
     1
 74
     1
176
     1
 91
        4
176
     1
 64
     7
176
     1
 65
   257
176
     1
 75
     1
176
     1
175
     1
176
     1
 42
1.0
176
     1
 92
        0
176
     1
 66
   257
176
     1
 43
1.0
176
     1
 76
     1
176
     1
 77
     6
176
     1
 78
     2
176
     1
 67
     7
176
     1
 79
     5
176
     1
170
     0
176
     1
171
     0
176
     1
290
     0
176
     1
 93
        1
176
     1
 44
0.0
176
     1
173
     0
176
     1
  0
VISUALSTYLE
  5
31
102
{ACAD_REACTORS
330
2A
102
}
330
2A
100
AcDbVisualStyle
  2
3D Hidden
 70
     6
177
     2
291
     0
 71
     1
176
     1
 72
     2
176
     1
 73
     2
176
     1
 90
        0
176
     1
 40
-0.6
176
     1
 41
-30.0
176
     1
 62
     5
 63
     7
421
 16777215
176
     1
 74
     2
176
     1
 91
        2
176
     1
 64
     7
176
     1
 65
   257
176
     1
 75
     2
176
     1
175
     1
176
     1
 42
40.0
176
     1
 92
        0
176
     1
 66
   257
176
     1
 43
1.0
176
     1
 76
     1
176
     1
 77
     6
176
     1
 78
     2
176
     1
 67
     7
176
     1
 79
     3
176
     1
170
     0
176
     1
171
     0
176
     1
290
     0
176
     1
 93
        1
176
     1
 44
0.0
176
     1
173
     0
176
     1
  0
VISUALSTYLE
  5
30
102
{ACAD_REACTORS
330
2A
102
}
330
2A
100
AcDbVisualStyle
  2
3dWireframe
 70
     5
177
     2
291
     0
 71
     0
176
     1
 72
     2
176
     1
 73
     0
176
     1
 90
        0
176
     1
 40
-0.6
176
     1
 41
-30.0
176
     1
 62
     5
 63
     7
421
 16777215
176
     1
 74
     1
176
     1
 91
        4
176
     1
 64
     7
176
     1
 65
   257
176
     1
 75
     1
176
     1
175
     1
176
     1
 42
1.0
176
     1
 92
        0
176
     1
 66
   257
176
     1
 43
1.0
176
     1
 76
     1
176
     1
 77
     6
176
     1
 78
     2
176
     1
 67
     7
176
     1
 79
     5
176
     1
170
     0
176
     1
171
     0
176
     1
290
     0
176
     1
 93
        1
176
     1
 44
0.0
176
     1
173
     0
176
     1
  0
VISUALSTYLE
  5
32
102
{ACAD_REACTORS
330
2A
102
}
330
2A
100
AcDbVisualStyle
  2
Basic
 70
     7
177
     2
291
     1
 71
     1
176
     1
 72
     0
176
     1
 73
     1
176
     1
 90
        0
176
     1
 40
-0.6
176
     1
 41
-30.0
176
     1
 62
     5
 63
     7
421
 16777215
176
     1
 74
     0
176
     1
 91
        4
176
     1
 64
     7
176
     1
 65
   257
176
     1
 75
     1
176
     1
175
     1
176
     1
 42
1.0
176
     1
 92
        8
176
     1
 66
     7
176
     1
 43
1.0
176
     1
 76
     1
176
     1
 77
     6
176
     1
 78
     2
176
     1
 67
     7
176
     1
 79
     5
176
     1
170
     0
176
     1
171
     0
176
     1
290
     0
176
     1
 93
        1
176
     1
 44
0.0
176
     1
173
     0
176
     1
  0
VISUALSTYLE
  5
36
102
{ACAD_REACTORS
330
2A
102
}
330
2A
100
AcDbVisualStyle
  2
Brighten
 70
    12
177
     2
291
     1
 71
     2
176
     1
 72
     2
176
     1
 73
     0
176
     1
 90
        0
176
     1
 40
-0.6
176
     1
 41
-30.0
176
     1
 62
     5
 63
     7
421
 16777215
176
     1
 74
     1
176
     1
 91
        4
176
     1
 64
     7
176
     1
 65
   257
176
     1
 75
     1
176
     1
175
     1
176
     1
 42
1.0
176
     1
 92
        8
176
     1
 66
     7
176
     1
 43
1.0
176
     1
 76
     1
176
     1
 77
     6
176
     1
 78
     2
176
     1
 67
     7
176
     1
 79
     5
176
     1
170
     0
176
     1
171
     0
176
     1
290
     0
176
     1
 93
        1
176
     1
 44
50.0
176
     1
173
     0
176
     1
  0
VISUALSTYLE
  5
3A
102
{ACAD_REACTORS
330
2A
102
}
330
2A
100
AcDbVisualStyle
  2
ColorChange
 70
    16
177
     2
291
     1
 71
     2
176
     1
 72
     2
176
     1
 73
     3
176
     1
 90
        0
176
     1
 40
-0.6
176
     1
 41
-30.0
176
     1
 62
     5
 63
     8
421
  8421504
176
     1
 74
     1
176
     1
 91
        4
176
     1
 64
     7
176
     1
 65
   257
176
     1
 75
     1
176
     1
175
     1
176
     1
 42
1.0
176
     1
 92
        8
176
     1
 66
     8
424
  8421504
176
     1
 43
1.0
176
     1
 76
     1
176
     1
 77
     6
176
     1
 78
     2
176
     1
 67
     7
176
     1
 79
     5
176
     1
170
     0
176
     1
171
     0
176
     1
290
     0
176
     1
 93
        1
176
     1
 44
0.0
176
     1
173
     0
176
     1
  0
VISUALSTYLE
  5
34
102
{ACAD_REACTORS
330
2A
102
}
330
2A
100
AcDbVisualStyle
  2
Conceptual
 70
     9
177
     2
291
     0
 71
     3
176
     1
 72
     2
176
     1
 73
     0
176
     1
 90
        0
176
     1
 40
-0.6
176
     1
 41
-30.0
176
     1
 62
     5
 63
     7
421
 16777215
176
     1
 74
     2
176
     1
 91
        2
176
     1
 64
     7
176
     1
 65
   257
176
     1
 75
     1
176
     1
175
     1
176
     1
 42
40.0
176
     1
 92
        8
176
     1
 66
     7
176
     1
 43
1.0
176
     1
 76
     1
176
     1
 77
     6
176
     1
 78
     2
176
     1
 67
     7
176
     1
 79
     3
176
     1
170
     0
176
     1
171
     0
176
     1
290
     0
176
     1
 93
        1
176
     1
 44
0.0
176
     1
173
     0
176
     1
  0
VISUALSTYLE
  5
35
102
{ACAD_REACTORS
330
2A
102
}
330
2A
100
AcDbVisualStyle
  2
Dim
 70
    11
177
     2
291
     1
 71
     2
176
     1
 72
     2
176
     1
 73
     0
176
     1
 90
        0
176
     1
 40
-0.6
176
     1
 41
-30.0
176
     1
 62
     5
 63
     7
421
 16777215
176
     1
 74
     1
176
     1
 91
        4
176
     1
 64
     7
176
     1
 65
   257
176
     1
 75
     1
176
     1
175
     1
176
     1
 42
1.0
176
     1
 92
        8
176
     1
 66
     7
176
     1
 43
1.0
176
     1
 76
     1
176
     1
 77
     6
176
     1
 78
     2
176
     1
 67
     7
176
     1
 79
     5
176
     1
170
     0
176
     1
171
     0
176
     1
290
     0
176
     1
 93
        1
176
     1
 44
-50.0
176
     1
173
     0
176
     1
  0
VISUALSTYLE
  5
39
102
{ACAD_REACTORS
330
2A
102
}
330
2A
100
AcDbVisualStyle
  2
Facepattern
 70
    15
177
     2
291
     1
 71
     2
176
     1
 72
     2
176
     1
 73
     0
176
     1
 90
        0
176
     1
 40
-0.6
176
     1
 41
-30.0
176
     1
 62
     5
 63
     7
421
 16777215
176
     1
 74
     1
176
     1
 91
        4
176
     1
 64
     7
176
     1
 65
   257
176
     1
 75
     1
176
     1
175
     1
176
     1
 42
1.0
176
     1
 92
        8
176
     1
 66
     7
176
     1
 43
1.0
176
     1
 76
     1
176
     1
 77
     6
176
     1
 78
     2
176
     1
 67
     7
176
     1
 79
     5
176
     1
170
     0
176
     1
171
     0
176
     1
290
     0
176
     1
 93
        1
176
     1
 44
0.0
176
     1
173
     0
176
     1
  0
VISUALSTYLE
  5
2B
102
{ACAD_REACTORS
330
2A
102
}
330
2A
100
AcDbVisualStyle
  2
Flat
 70
     0
177
     2
291
     1
 71
     2
176
     1
 72
     1
176
     1
 73
     1
176
     1
 90
        2
176
     1
 40
-0.6
176
     1
 41
30.0
176
     1
 62
     5
 63
     7
421
 16777215
176
     1
 74
     0
176
     1
 91
        4
176
     1
 64
     7
176
     1
 65
   257
176
     1
 75
     1
176
     1
175
     1
176
     1
 42
1.0
176
     1
 92
        8
176
     1
 66
     7
176
     1
 43
1.0
176
     1
 76
     1
176
     1
 77
     6
176
     1
 78
     2
176
     1
 67
     7
176
     1
 79
     5
176
     1
170
     0
176
     1
171
     0
176
     1
290
     0
176
     1
 93
       13
176
     1
 44
0.0
176
     1
173
     0
176
     1
  0
VISUALSTYLE
  5
2C
102
{ACAD_REACTORS
330
2A
102
}
330
2A
100
AcDbVisualStyle
  2
FlatWithEdges
 70
     1
177
     2
291
     1
 71
     2
176
     1
 72
     1
176
     1
 73
     1
176
     1
 90
        2
176
     1
 40
-0.6
176
     1
 41
30.0
176
     1
 62
     5
 63
     7
421
 16777215
176
     1
 74
     1
176
     1
 91
        4
176
     1
 64
     7
176
     1
 65
   257
176
     1
 75
     1
176
     1
175
     1
176
     1
 42
1.0
176
     1
 92
        0
176
     1
 66
   257
176
     1
 43
1.0
176
     1
 76
     1
176
     1
 77
     6
176
     1
 78
     2
176
     1
 67
     7
176
     1
 79
     5
176
     1
170
     0
176
     1
171
     0
176
     1
290
     0
176
     1
 93
       13
176
     1
 44
0.0
176
     1
173
     0
176
     1
  0
VISUALSTYLE
  5
2D
102
{ACAD_REACTORS
330
2A
102
}
330
2A
100
AcDbVisualStyle
  2
Gouraud
 70
     2
177
     2
291
     1
 71
     2
176
     1
 72
     2
176
     1
 73
     1
176
     1
 90
        2
176
     1
 40
-0.6
176
     1
 41
30.0
176
     1
 62
     5
 63
     7
421
 16777215
176
     1
 74
     0
176
     1
 91
        4
176
     1
 64
     7
176
     1
 65
   257
176
     1
 75
     1
176
     1
175
     1
176
     1
 42
1.0
176
     1
 92
        0
176
     1
 66
     7
176
     1
 43
1.0
176
     1
 76
     1
176
     1
 77
     6
176
     1
 78
     2
176
     1
 67
     7
176
     1
 79
     5
176
     1
170
     0
176
     1
171
     0
176
     1
290
     0
176
     1
 93
       13
176
     1
 44
0.0
176
     1
173
     0
176
     1
  0
VISUALSTYLE
  5
2E
102
{ACAD_REACTORS
330
2A
102
}
330
2A
100
AcDbVisualStyle
  2
GouraudWithEdges
 70
     3
177
     2
291
     1
 71
     2
176
     1
 72
     2
176
     1
 73
     1
176
     1
 90
        2
176
     1
 40
-0.6
176
     1
 41
30.0
176
     1
 62
     5
 63
     7
421
 16777215
176
     1
 74
     1
176
     1
 91
        4
176
     1
 64
     7
176
     1
 65
   257
176
     1
 75
     1
176
     1
175
     1
176
     1
 42
1.0
176
     1
 92
        0
176
     1
 66
   257
176
     1
 43
1.0
176
     1
 76
     1
176
     1
 77
     6
176
     1
 78
     2
176
     1
 67
     7
176
     1
 79
     5
176
     1
170
     0
176
     1
171
     0
176
     1
290
     0
176
     1
 93
       13
176
     1
 44
0.0
176
     1
173
     0
176
     1
  0
VISUALSTYLE
  5
38
102
{ACAD_REACTORS
330
2A
102
}
330
2A
100
AcDbVisualStyle
  2
Linepattern
 70
    14
177
     2
291
     1
 71
     2
176
     1
 72
     2
176
     1
 73
     0
176
     1
 90
        0
176
     1
 40
-0.6
176
     1
 41
-30.0
176
     1
 62
     5
 63
     7
421
 16777215
176
     1
 74
     1
176
     1
 91
        4
176
     1
 64
     7
176
     1
 65
   257
176
     1
 75
     7
176
     1
175
     7
176
     1
 42
1.0
176
     1
 92
        8
176
     1
 66
     7
176
     1
 43
1.0
176
     1
 76
     1
176
     1
 77
     6
176
     1
 78
     2
176
     1
 67
     7
176
     1
 79
     5
176
     1
170
     0
176
     1
171
     0
176
     1
290
     0
176
     1
 93
        1
176
     1
 44
0.0
176
     1
173
     0
176
     1
  0
VISUALSTYLE
  5
33
102
{ACAD_REACTORS
330
2A
102
}
330
2A
100
AcDbVisualStyle
  2
Realistic
 70
     8
177
     2
291
     0
 71
     2
176
     1
 72
     2
176
     1
 73
     0
176
     1
 90
        0
176
     1
 40
-0.6
176
     1
 41
-30.0
176
     1
 62
     5
 63
     7
421
 16777215
176
     1
 74
     1
176
     1
 91
        0
176
     1
 64
     7
176
     1
 65
   257
176
     1
 75
     1
176
     1
175
     1
176
     1
 42
1.0
176
     1
 92
        8
176
     1
 66
     8
424
  7895160
176
     1
 43
1.0
176
     1
 76
     1
176
     1
 77
     6
176
     1
 78
     2
176
     1
 67
     7
176
     1
 79
     5
176
     1
170
     0
176
     1
171
     0
176
     1
290
     0
176
     1
 93
       13
176
     1
 44
0.0
176
     1
173
     0
176
     1
  0
VISUALSTYLE
  5
37
102
{ACAD_REACTORS
330
2A
102
}
330
2A
100
AcDbVisualStyle
  2
Thicken
 70
    13
177
     2
291
     1
 71
     2
176
     1
 72
     2
176
     1
 73
     0
176
     1
 90
        0
176
     1
 40
-0.6
176
     1
 41
-30.0
176
     1
 62
     5
 63
     7
421
 16777215
176
     1
 74
     1
176
     1
 91
        4
176
     1
 64
     7
176
     1
 65
   257
176
     1
 75
     1
176
     1
175
     1
176
     1
 42
1.0
176
     1
 92
       12
176
     1
 66
     7
176
     1
 43
1.0
176
     1
 76
     1
176
     1
 77
     6
176
     1
 78
     2
176
     1
 67
     7
176
     1
 79
     5
176
     1
170
     0
176
     1
171
     0
176
     1
290
     0
176
     1
 93
        1
176
     1
 44
0.0
176
     1
173
     0
176
     1
  0
ENDSEC
  0
EOF
