  0
SECTION
  2
HEADER
  9
$ACADVER
  1
AC1024
  9
$ACADMAINTVER
 70
     6
  9
$DWGCODEPAGE
  3
UNDEFINED
  9
$INSBASE
 10
0.0
 20
0.0
 30
0.0
  9
$EXTMIN
 10
1.000000000000000E+20
 20
1.000000000000000E+20
 30
1.000000000000000E+20
  9
$EXTMAX
 10
-1.000000000000000E+20
 20
-1.000000000000000E+20
 30
-1.000000000000000E+20
  9
$LIMMIN
 10
0.0
 20
0.0
  9
$LIMMAX
 10
12.0
 20
9.0
  9
$ORTHOMODE
 70
     0
  9
$REGENMODE
 70
     1
  9
$FILLMODE
 70
     1
  9
$QTEXTMODE
 70
     0
  9
$MIRRTEXT
 70
     1
  9
$LTSCALE
 40
1.0
  9
$ATTMODE
 70
     1
  9
$TEXTSIZE
 40
0.2
  9
$TRACEWID
 40
0.05
  9
$TEXTSTYLE
  7
Standard
  9
$CLAYER
  8
0
  9
$CELTYPE
  6
ByLayer
  9
$CECOLOR
 62
   256
  9
$CELTSCALE
 40
1.0
  9
$DISPSILH
 70
     0
  9
$DIMSCALE
 40
1.0
  9
$DIMASZ
 40
0.18
  9
$DIMEXO
 40
0.0625
  9
$DIMDLI
 40
0.38
  9
$DIMRND
 40
0.0
  9
$DIMDLE
 40
0.0
  9
$DIMEXE
 40
0.18
  9
$DIMTP
 40
0.0
  9
$DIMTM
 40
0.0
  9
$DIMTXT
 40
0.18
  9
$DIMCEN
 40
0.09
  9
$DIMTSZ
 40
0.0
  9
$DIMTOL
 70
     0
  9
$DIMLIM
 70
     0
  9
$DIMTIH
 70
     1
  9
$DIMTOH
 70
     1
  9
$DIMSE1
 70
     0
  9
$DIMSE2
 70
     0
  9
$DIMTAD
 70
     0
  9
$DIMZIN
 70
     0
  9
$DIMBLK
  1

  9
$DIMASO
 70
     1
  9
$DIMSHO
 70
     1
  9
$DIMPOST
  1

  9
$DIMAPOST
  1

  9
$DIMALT
 70
     0
  9
$DIMALTD
 70
     2
  9
$DIMALTF
 40
25.4
  9
$DIMLFAC
 40
1.0
  9
$DIMTOFL
 70
     0
  9
$DIMTVP
 40
0.0
  9
$DIMTIX
 70
     0
  9
$DIMSOXD
 70
     0
  9
$DIMSAH
 70
     0
  9
$DIMBLK1
  1

  9
$DIMBLK2
  1

  9
$DIMSTYLE
  2
Standard
  9
$DIMCLRD
 70
     0
  9
$DIMCLRE
 70
     0
  9
$DIMCLRT
 70
     0
  9
$DIMTFAC
 40
1.0
  9
$DIMGAP
 40
0.09
  9
$DIMJUST
 70
     0
  9
$DIMSD1
 70
     0
  9
$DIMSD2
 70
     0
  9
$DIMTOLJ
 70
     1
  9
$DIMTZIN
 70
     0
  9
$DIMALTZ
 70
     0
  9
$DIMALTTZ
 70
     0
  9
$DIMUPT
 70
     0
  9
$DIMDEC
 70
     4
  9
$DIMTDEC
 70
     4
  9
$DIMALTU
 70
     2
  9
$DIMALTTD
 70
     2
  9
$DIMTXSTY
  7
Standard
  9
$DIMAUNIT
 70
     0
  9
$DIMADEC
 70
     0
  9
$DIMALTRND
 40
0.0
  9
$DIMAZIN
 70
     0
  9
$DIMDSEP
 70
    46
  9
$DIMATFIT
 70
     3
  9
$DIMFRAC
 70
     0
  9
$DIMLDRBLK
  1

  9
$DIMLUNIT
 70
     2
  9
$DIMLWD
 70
    -2
  9
$DIMLWE
 70
    -2
  9
$DIMTMOVE
 70
     0
  9
$DIMFXL
 40
1.0
  9
$DIMFXLON
 70
     0
  9
$DIMJOGANG
 40
0.7853981633974483
  9
$DIMTFILL
 70
     0
  9
$DIMTFILLCLR
 70
     0
  9
$DIMARCSYM
 70
     0
  9
$DIMLTYPE
  6

  9
$DIMLTEX1
  6

  9
$DIMLTEX2
  6

  9
$DIMTXTDIRECTION
 70
     0
  9
$LUNITS
 70
     2
  9
$LUPREC
 70
     4
  9
$SKETCHINC
 40
0.1
  9
$FILLETRAD
 40
0.5
  9
$AUNITS
 70
     0
  9
$AUPREC
 70
     0
  9
$MENU
  1
.
  9
$ELEVATION
 40
0.0
  9
$PELEVATION
 40
0.0
  9
$THICKNESS
 40
0.0
  9
$LIMCHECK
 70
     0
  9
$CHAMFERA
 40
0.5
  9
$CHAMFERB
 40
0.5
  9
$CHAMFERC
 40
1.0
  9
$CHAMFERD
 40
0.0
  9
$SKPOLY
 70
     0
  9
$TDCREATE
 40
2457917.594872674
  9
$TDUCREATE
 40
2457917.219872685
  9
$TDUPDATE
 40
2457917.594872674
  9
$TDUUPDATE
 40
2457917.219872685
  9
$TDINDWG
 40
0.0000000116
  9
$TDUSRTIMER
 40
0.0000000116
  9
$USRTIMER
 70
     1
  9
$ANGBASE
 50
0.0
  9
$ANGDIR
 70
     0
  9
$PDMODE
 70
     0
  9
$PDSIZE
 40
0.0
  9
$PLINEWID
 40
0.0
  9
$SPLFRAME
 70
     0
  9
$SPLINETYPE
 70
     6
  9
$SPLINESEGS
 70
     8
  9
$HANDSEED
  5
144
  9
$SURFTAB1
 70
     6
  9
$SURFTAB2
 70
     6
  9
$SURFTYPE
 70
     6
  9
$SURFU
 70
     6
  9
$SURFV
 70
     6
  9
$UCSBASE
  2

  9
$UCSNAME
  2

  9
$UCSORG
 10
0.0
 20
0.0
 30
0.0
  9
$UCSXDIR
 10
1.0
 20
0.0
 30
0.0
  9
$UCSYDIR
 10
0.0
 20
1.0
 30
0.0
  9
$UCSORTHOREF
  2

  9
$UCSORTHOVIEW
 70
     0
  9
$UCSORGTOP
 10
0.0
 20
0.0
 30
0.0
  9
$UCSORGBOTTOM
 10
0.0
 20
0.0
 30
0.0
  9
$UCSORGLEFT
 10
0.0
 20
0.0
 30
0.0
  9
$UCSORGRIGHT
 10
0.0
 20
0.0
 30
0.0
  9
$UCSORGFRONT
 10
0.0
 20
0.0
 30
0.0
  9
$UCSORGBACK
 10
0.0
 20
0.0
 30
0.0
  9
$PUCSBASE
  2

  9
$PUCSNAME
  2

  9
$PUCSORG
 10
0.0
 20
0.0
 30
0.0
  9
$PUCSXDIR
 10
1.0
 20
0.0
 30
0.0
  9
$PUCSYDIR
 10
0.0
 20
1.0
 30
0.0
  9
$PUCSORTHOREF
  2

  9
$PUCSORTHOVIEW
 70
     0
  9
$PUCSORGTOP
 10
0.0
 20
0.0
 30
0.0
  9
$PUCSORGBOTTOM
 10
0.0
 20
0.0
 30
0.0
  9
$PUCSORGLEFT
 10
0.0
 20
0.0
 30
0.0
  9
$PUCSORGRIGHT
 10
0.0
 20
0.0
 30
0.0
  9
$PUCSORGFRONT
 10
0.0
 20
0.0
 30
0.0
  9
$PUCSORGBACK
 10
0.0
 20
0.0
 30
0.0
  9
$USERI1
 70
     0
  9
$USERI2
 70
     0
  9
$USERI3
 70
     0
  9
$USERI4
 70
     0
  9
$USERI5
 70
     0
  9
$USERR1
 40
0.0
  9
$USERR2
 40
0.0
  9
$USERR3
 40
0.0
  9
$USERR4
 40
0.0
  9
$USERR5
 40
0.0
  9
$WORLDVIEW
 70
     1
  9
$SHADEDGE
 70
     3
  9
$SHADEDIF
 70
    70
  9
$TILEMODE
 70
     1
  9
$MAXACTVP
 70
    64
  9
$PINSBASE
 10
0.0
 20
0.0
 30
0.0
  9
$PLIMCHECK
 70
     0
  9
$PEXTMIN
 10
1.000000000000000E+20
 20
1.000000000000000E+20
 30
1.000000000000000E+20
  9
$PEXTMAX
 10
-1.000000000000000E+20
 20
-1.000000000000000E+20
 30
-1.000000000000000E+20
  9
$PLIMMIN
 10
0.0
 20
0.0
  9
$PLIMMAX
 10
12.0
 20
9.0
  9
$UNITMODE
 70
     0
  9
$VISRETAIN
 70
     1
  9
$PLINEGEN
 70
     0
  9
$PSLTSCALE
 70
     1
  9
$TREEDEPTH
 70
  3020
  9
$CMLSTYLE
  2
Standard
  9
$CMLJUST
 70
     0
  9
$CMLSCALE
 40
1.0
  9
$PROXYGRAPHICS
 70
     1
  9
$MEASUREMENT
 70
     0
  9
$CELWEIGHT
370
    -1
  9
$ENDCAPS
280
     0
  9
$JOINSTYLE
280
     0
  9
$LWDISPLAY
290
     1
  9
$INSUNITS
 70
     1
  9
$HYPERLINKBASE
  1

  9
$STYLESHEET
  1

  9
$XEDIT
290
     1
  9
$CEPSNTYPE
380
     0
  9
$PSTYLEMODE
290
     1
  9
$FINGERPRINTGUID
  2
{21919C3F-66B7-128E-8005-D6129D1C80F9}
  9
$VERSIONGUID
  2
{FAEB1C32-E019-11D5-929B-00C0DF256EC4}
  9
$EXTNAMES
290
     1
  9
$PSVPSCALE
 40
0.0
  9
$OLESTARTUP
290
     0
  9
$SORTENTS
280
   127
  9
$INDEXCTL
280
     0
  9
$HIDETEXT
280
     1
  9
$XCLIPFRAME
280
     2
  9
$HALOGAP
280
     0
  9
$OBSCOLOR
 70
   257
  9
$OBSLTYPE
280
     0
  9
$INTERSECTIONDISPLAY
280
     0
  9
$INTERSECTIONCOLOR
 70
   257
  9
$DIMASSOC
280
     2
  9
$PROJECTNAME
  1

  9
$CAMERADISPLAY
290
     0
  9
$LENSLENGTH
 40
50.0
  9
$CAMERAHEIGHT
 40
0.0
  9
$STEPSPERSEC
 40
2.0
  9
$STEPSIZE
 40
6.0
  9
$3DDWFPREC
 40
2.0
  9
$PSOLWIDTH
 40
0.25
  9
$PSOLHEIGHT
 40
4.0
  9
$LOFTANG1
 40
1.570796326794897
  9
$LOFTANG2
 40
1.570796326794897
  9
$LOFTMAG1
 40
0.0
  9
$LOFTMAG2
 40
0.0
  9
$LOFTPARAM
 70
     7
  9
$LOFTNORMALS
280
     1
  9
$LATITUDE
 40
37.795
  9
$LONGITUDE
 40
-122.394
  9
$NORTHDIRECTION
 40
0.0
  9
$TIMEZONE
 70
 -8000
  9
$LIGHTGLYPHDISPLAY
280
     1
  9
$TILEMODELIGHTSYNCH
280
     1
  9
$CMATERIAL
347
3C
  9
$SOLIDHIST
280
     1
  9
$SHOWHIST
280
     1
  9
$DWFFRAME
280
     2
  9
$DGNFRAME
280
     2
  9
$REALWORLDSCALE
290
     1
  9
$INTERFERECOLOR
 62
   256
  9
$CSHADOW
280
     0
  9
$SHADOWPLANELOCATION
 40
0.0
  0
ENDSEC
  0
SECTION
  2
CLASSES
  0
CLASS
  1
ACDBDICTIONARYWDFLT
  2
AcDbDictionaryWithDefault
  3
ObjectDBX Classes
 90
        0
 91
        4
280
     0
281
     0
  0
CLASS
  1
VISUALSTYLE
  2
AcDbVisualStyle
  3
ObjectDBX Classes
 90
     4095
 91
        4
280
     0
281
     0
  0
CLASS
  1
MATERIAL
  2
AcDbMaterial
  3
ObjectDBX Classes
 90
     1153
 91
        4
280
     0
281
     0
  0
CLASS
  1
SUN
  2
AcDbSun
  3
SCENEOE
 90
     1024
 91
        4
280
     0
281
     0
  0
ENDSEC
  0
SECTION
  2
TABLES
  0
TABLE
  2
VPORT
  5
8
330
0
100
AcDbSymbolTable
 70
     1
  0
VPORT
  5
29
330
8
100
AcDbSymbolTableRecord
100
AcDbViewportTableRecord
  2
*Active
 70
     0
 10
0.0
 20
0.0
 11
1.0
 21
1.0
 12
0.0
 22
0.0
 13
0.0
 23
0.0
 14
0.5
 24
0.5
 15
0.5
 25
0.5
 16
0.0
 26
0.0
 36
1.0
 17
91.00082462281999
 27
-128.4993055234307
 37
0.0
 40
256.9986110468615
 41
0.7081814508812795
 42
50.0
 43
0.0
 44
0.0
 50
0.0
 51
0.0
 71
     0
 72
   100
 73
     1
 74
     3
 75
     0
 76
     0
 77
     0
 78
     0
281
     0
 65
     1
110
0.0
120
0.0
130
0.0
111
1.0
121
0.0
131
0.0
112
0.0
122
1.0
132
0.0
 79
     0
146
0.0
 60
     3
 61
     5
292
     1
282
     1
141
0.0
142
0.0
 63
   250
361
3F
  0
ENDTAB
  0
TABLE
  2
LTYPE
  5
5
330
0
100
AcDbSymbolTable
 70
     1
  0
LTYPE
  5
14
330
5
100
AcDbSymbolTableRecord
100
AcDbLinetypeTableRecord
  2
ByBlock
 70
     0
  3

 72
    65
 73
     0
 40
0.0
  0
LTYPE
  5
15
330
5
100
AcDbSymbolTableRecord
100
AcDbLinetypeTableRecord
  2
ByLayer
 70
     0
  3

 72
    65
 73
     0
 40
0.0
  0
LTYPE
  5
16
330
5
100
AcDbSymbolTableRecord
100
AcDbLinetypeTableRecord
  2
Continuous
 70
     0
  3
Solid line
 72
    65
 73
     0
 40
0.0
  0
ENDTAB
  0
TABLE
  2
LAYER
  5
2
330
0
100
AcDbSymbolTable
 70
     2
  0
LAYER
  5
10
330
2
100
AcDbSymbolTableRecord
100
AcDbLayerTableRecord
  2
0
 70
     0
 62
     7
  6
Continuous
370
    -3
390
F
347
3E
  0
LAYER
  5
40
330
2
100
AcDbSymbolTableRecord
100
AcDbLayerTableRecord
  2
_U+30EC_U+30A4_U+30E4_U+30FC 1
 70
     0
 62
     7
  6
Continuous
370
    -3
390
F
347
3E
  0
ENDTAB
  0
TABLE
  2
STYLE
  5
3
330
0
100
AcDbSymbolTable
 70
     1
  0
STYLE
  5
11
330
3
100
AcDbSymbolTableRecord
100
AcDbTextStyleTableRecord
  2
Standard
 70
     0
 40
0.0
 41
1.0
 50
0.0
 71
     0
 42
0.2
  3
txt
  4

  0
ENDTAB
  0
TABLE
  2
VIEW
  5
6
330
0
100
AcDbSymbolTable
 70
     0
  0
ENDTAB
  0
TABLE
  2
UCS
  5
7
330
0
100
AcDbSymbolTable
 70
     0
  0
ENDTAB
  0
TABLE
  2
APPID
  5
9
330
0
100
AcDbSymbolTable
 70
     1
  0
APPID
  5
12
330
9
100
AcDbSymbolTableRecord
100
AcDbRegAppTableRecord
  2
ACAD
 70
     0
  0
ENDTAB
  0
TABLE
  2
DIMSTYLE
  5
A
330
0
100
AcDbSymbolTable
 70
     1
100
AcDbDimStyleTable
  0
DIMSTYLE
105
27
330
A
100
AcDbSymbolTableRecord
100
AcDbDimStyleTableRecord
  2
Standard
 70
     0
178
     0
340
11
  0
ENDTAB
  0
TABLE
  2
BLOCK_RECORD
  5
1
330
0
100
AcDbSymbolTable
 70
     8
  0
BLOCK_RECORD
  5
1F
330
1
100
AcDbSymbolTableRecord
100
AcDbBlockTableRecord
  2
*Model_Space
340
22
 70
     0
280
     1
281
     0
  0
BLOCK_RECORD
  5
1B
330
1
100
AcDbSymbolTableRecord
100
AcDbBlockTableRecord
  2
*Paper_Space
340
1E
 70
     0
280
     1
281
     0
  0
BLOCK_RECORD
  5
23
330
1
100
AcDbSymbolTableRecord
100
AcDbBlockTableRecord
  2
*Paper_Space0
340
26
 70
     0
280
     1
281
     0
  0
BLOCK_RECORD
  5
A2
330
1
100
AcDbSymbolTableRecord
100
AcDbBlockTableRecord
  2
block 2
340
0
102
{BLKREFS
331
A3
102
}
 70
     0
280
     1
281
     0
  0
BLOCK_RECORD
  5
BC
330
1
100
AcDbSymbolTableRecord
100
AcDbBlockTableRecord
  2
block 3
340
0
102
{BLKREFS
331
BD
102
}
 70
     0
280
     1
281
     0
  0
BLOCK_RECORD
  5
CD
330
1
100
AcDbSymbolTableRecord
100
AcDbBlockTableRecord
  2
block 4
340
0
102
{BLKREFS
331
CE
102
}
 70
     0
280
     1
281
     0
  0
BLOCK_RECORD
  5
EC
330
1
100
AcDbSymbolTableRecord
100
AcDbBlockTableRecord
  2
block 5
340
0
102
{BLKREFS
331
ED
102
}
 70
     0
280
     1
281
     0
  0
BLOCK_RECORD
  5
FC
330
1
100
AcDbSymbolTableRecord
100
AcDbBlockTableRecord
  2
block 6
340
0
102
{BLKREFS
331
FD
102
}
 70
     0
280
     1
281
     0
  0
BLOCK_RECORD
  5
116
330
1
100
AcDbSymbolTableRecord
100
AcDbBlockTableRecord
  2
block 7
340
0
102
{BLKREFS
331
117
102
}
 70
     0
280
     1
281
     0
  0
BLOCK_RECORD
  5
132
330
1
100
AcDbSymbolTableRecord
100
AcDbBlockTableRecord
  2
block 8
340
0
102
{BLKREFS
331
133
102
}
 70
     0
280
     1
281
     0
  0
ENDTAB
  0
ENDSEC
  0
SECTION
  2
BLOCKS
  0
BLOCK
  5
20
330
1F
100
AcDbEntity
  8
0
100
AcDbBlockBegin
  2
*Model_Space
 70
     0
 10
0.0
 20
0.0
 30
0.0
  3
*Model_Space
  1

  0
ENDBLK
  5
21
330
1F
100
AcDbEntity
  8
0
100
AcDbBlockEnd
  0
BLOCK
  5
1C
330
1B
100
AcDbEntity
 67
     1
  8
0
100
AcDbBlockBegin
  2
*Paper_Space
 70
     0
 10
0.0
 20
0.0
 30
0.0
  3
*Paper_Space
  1

  0
ENDBLK
  5
1D
330
1B
100
AcDbEntity
 67
     1
  8
0
100
AcDbBlockEnd
  0
BLOCK
  5
24
330
23
100
AcDbEntity
  8
0
100
AcDbBlockBegin
  2
*Paper_Space0
 70
     0
 10
0.0
 20
0.0
 30
0.0
  3
*Paper_Space0
  1

  0
ENDBLK
  5
25
330
23
100
AcDbEntity
  8
0
100
AcDbBlockEnd
  0
BLOCK
  5
A4
330
A2
100
AcDbEntity
  8
0
100
AcDbBlockBegin
  2
block 2
 70
     0
 10
0.0
 20
0.0
 30
0.0
  3
block 2
  1

  0
SPLINE
  5
A6
330
A2
100
AcDbEntity
  8
_U+30EC_U+30A4_U+30E4_U+30FC 1
370
     0
100
AcDbSpline
210
0.0
220
0.0
230
1.0
 70
    11
 71
     3
 72
    26
 73
    22
 74
     0
 42
0.0000000001
 43
0.0000000001
 12
1.0
 22
0.0
 32
0.0
 13
1.0
 23
0.0
 33
0.0
 40
0.0
 40
0.0
 40
0.0
 40
0.0
 40
1.0
 40
1.0
 40
1.0
 40
2.0
 40
2.0
 40
2.0
 40
3.0
 40
3.0
 40
3.0
 40
4.0
 40
4.0
 40
4.0
 40
5.0
 40
5.0
 40
5.0
 40
6.0
 40
6.0
 40
6.0
 40
7.0
 40
7.0
 40
7.0
 40
7.0
 10
75.78434921065461
 20
-122.5654730596364
 30
0.0
 10
75.78434921065461
 20
-122.5654730596364
 30
0.0
 10
75.78434921065461
 20
-121.4611477018396
 30
0.0
 10
75.78434921065461
 20
-121.4611477018396
 30
0.0
 10
75.78434921065461
 20
-121.4611477018396
 30
0.0
 10
75.45430906316767
 20
-121.4611477018396
 30
0.0
 10
75.45430906316767
 20
-121.4611477018396
 30
0.0
 10
75.45430906316767
 20
-121.4611477018396
 30
0.0
 10
75.45430906316767
 20
-121.3131808507481
 30
0.0
 10
75.45430906316767
 20
-121.3131808507481
 30
0.0
 10
75.78641626794575
 20
-121.2983669401615
 30
0.0
 10
75.83292505699663
 20
-121.1354139237092
 30
0.0
 10
75.86255287816978
 20
-121.0212090083732
 30
0.0
 10
75.86255287816978
 20
-121.0212090083732
 30
0.0
 10
76.00862492674437
 20
-121.0212090083732
 30
0.0
 10
76.00862492674437
 20
-121.0212090083732
 30
0.0
 10
76.00862492674437
 20
-121.0212090083732
 30
0.0
 10
76.00862492674437
 20
-122.5654730596364
 30
0.0
 10
76.00862492674437
 20
-122.5654730596364
 30
0.0
 10
76.00862492674437
 20
-122.5654730596364
 30
0.0
 10
75.78434921065461
 20
-122.5654730596364
 30
0.0
 10
75.78434921065461
 20
-122.5654730596364
 30
0.0
  0
HATCH
  5
A7
330
A2
100
AcDbEntity
  8
_U+30EC_U+30A4_U+30E4_U+30FC 1
 62
   179
420
  2234388
100
AcDbHatch
 10
0.0
 20
0.0
 30
0.0
210
0.0
220
0.0
230
1.0
  2
SOLID
 70
     1
 71
     0
 91
        1
 92
        1
 93
        1
 72
     4
 94
        3
 73
     0
 74
     1
 95
       26
 96
       22
 40
0.0
 40
0.0
 40
0.0
 40
0.0
 40
1.0
 40
1.0
 40
1.0
 40
2.0
 40
2.0
 40
2.0
 40
3.0
 40
3.0
 40
3.0
 40
4.0
 40
4.0
 40
4.0
 40
5.0
 40
5.0
 40
5.0
 40
6.0
 40
6.0
 40
6.0
 40
7.0
 40
7.0
 40
7.0
 40
7.0
 10
75.78434921065461
 20
-122.5654730596364
 10
75.78434921065461
 20
-122.5654730596364
 10
75.78434921065461
 20
-121.4611477018396
 10
75.78434921065461
 20
-121.4611477018396
 10
75.78434921065461
 20
-121.4611477018396
 10
75.45430906316767
 20
-121.4611477018396
 10
75.45430906316767
 20
-121.4611477018396
 10
75.45430906316767
 20
-121.4611477018396
 10
75.45430906316767
 20
-121.3131808507481
 10
75.45430906316767
 20
-121.3131808507481
 10
75.78641626794575
 20
-121.2983669401615
 10
75.83292505699663
 20
-121.1354139237092
 10
75.86255287816978
 20
-121.0212090083732
 10
75.86255287816978
 20
-121.0212090083732
 10
76.00862492674437
 20
-121.0212090083732
 10
76.00862492674437
 20
-121.0212090083732
 10
76.00862492674437
 20
-121.0212090083732
 10
76.00862492674437
 20
-122.5654730596364
 10
76.00862492674437
 20
-122.5654730596364
 10
76.00862492674437
 20
-122.5654730596364
 10
75.78434921065461
 20
-122.5654730596364
 10
75.78434921065461
 20
-122.5654730596364
 97
        0
 97
        0
 75
     2
 76
     1
 98
        0
  0
ENDBLK
  5
A5
330
A2
100
AcDbEntity
  8
0
100
AcDbBlockEnd
  0
BLOCK
  5
BE
330
BC
100
AcDbEntity
  8
0
100
AcDbBlockBegin
  2
block 3
 70
     0
 10
0.0
 20
0.0
 30
0.0
  3
block 3
  1

  0
SPLINE
  5
C0
330
BC
100
AcDbEntity
  8
_U+30EC_U+30A4_U+30E4_U+30FC 1
370
     0
100
AcDbSpline
210
0.0
220
0.0
230
1.0
 70
    11
 71
     3
 72
    44
 73
    40
 74
     0
 42
0.0000000001
 43
0.0000000001
 12
1.0
 22
0.0
 32
0.0
 13
1.0
 23
0.0
 33
0.0
 40
0.0
 40
0.0
 40
0.0
 40
0.0
 40
1.0
 40
1.0
 40
1.0
 40
2.0
 40
2.0
 40
2.0
 40
3.0
 40
3.0
 40
3.0
 40
4.0
 40
4.0
 40
4.0
 40
5.0
 40
5.0
 40
5.0
 40
6.0
 40
6.0
 40
6.0
 40
7.0
 40
7.0
 40
7.0
 40
8.0
 40
8.0
 40
8.0
 40
9.0
 40
9.0
 40
9.0
 40
10.0
 40
10.0
 40
10.0
 40
11.0
 40
11.0
 40
11.0
 40
12.0
 40
12.0
 40
12.0
 40
13.0
 40
13.0
 40
13.0
 40
13.0
 10
109.1526828069132
 20
-124.2334160388201
 30
0.0
 10
109.3115017087832
 20
-124.4511460734879
 30
0.0
 10
109.3855712617161
 20
-124.5441636515897
 30
0.0
 10
109.529231743451
 20
-124.5930840074802
 30
0.0
 10
109.529231743451
 20
-124.5930840074802
 30
0.0
 10
109.529231743451
 20
-123.8144924278137
 30
0.0
 10
109.529231743451
 20
-123.8144924278137
 30
0.0
 10
109.529231743451
 20
-123.8144924278137
 30
0.0
 10
109.7345594343719
 20
-123.8144924278137
 30
0.0
 10
109.7345594343719
 20
-123.8144924278137
 30
0.0
 10
109.7345594343719
 20
-123.8144924278137
 30
0.0
 10
109.7345594343719
 20
-124.8425089206123
 30
0.0
 10
109.7345594343719
 20
-124.8425089206123
 30
0.0
 10
109.376958523003
 20
-124.810814042148
 30
0.0
 10
109.2987548554878
 20
-124.7453572279283
 30
0.0
 10
109.0004095864652
 20
-124.3601955526773
 30
0.0
 10
108.8016275769663
 20
-124.1042249581233
 30
0.0
 10
108.7337591959068
 20
-124.0387681439035
 30
0.0
 10
108.5962998860454
 20
-124.0387681439035
 30
0.0
 10
108.4777886013528
 20
-124.0387681439035
 30
0.0
 10
108.3468749729133
 20
-124.1107706395452
 30
0.0
 10
108.3468749729133
 20
-124.307485591753
 30
0.0
 10
108.3468749729133
 20
-124.5675903008894
 30
0.0
 10
108.5773518608765
 20
-124.5762030396025
 30
0.0
 10
108.6937960882779
 20
-124.5803371541848
 30
0.0
 10
108.6937960882779
 20
-124.5803371541848
 30
0.0
 10
108.6937960882779
 20
-124.8046128702746
 30
0.0
 10
108.6937960882779
 20
-124.8046128702746
 30
0.0
 10
108.5666720648722
 20
-124.7960001315614
 30
0.0
 10
108.4547064616016
 20
-124.7853203355571
 30
0.0
 10
108.336195176909
 20
-124.7050496107508
 30
0.0
 10
108.1753092177478
 20
-124.5951510647714
 30
0.0
 10
108.1415472819924
 20
-124.4087713990193
 30
0.0
 10
108.1415472819924
 20
-124.2926716811664
 30
0.0
 10
108.1415472819924
 20
-124.0153414946038
 30
0.0
 10
108.3255153809047
 20
-123.8079467463918
 30
0.0
 10
108.5983669433365
 20
-123.8079467463918
 30
0.0
 10
108.8271212835571
 20
-123.8079467463918
 30
0.0
 10
108.9263400335323
 20
-123.9243909737932
 30
0.0
 10
109.1526828069132
 20
-124.2334160388201
 30
0.0
  0
HATCH
  5
C1
330
BC
100
AcDbEntity
  8
_U+30EC_U+30A4_U+30E4_U+30FC 1
 62
   179
420
  2234388
100
AcDbHatch
 10
0.0
 20
0.0
 30
0.0
210
0.0
220
0.0
230
1.0
  2
SOLID
 70
     1
 71
     0
 91
        1
 92
        1
 93
        1
 72
     4
 94
        3
 73
     0
 74
     1
 95
       44
 96
       40
 40
0.0
 40
0.0
 40
0.0
 40
0.0
 40
1.0
 40
1.0
 40
1.0
 40
2.0
 40
2.0
 40
2.0
 40
3.0
 40
3.0
 40
3.0
 40
4.0
 40
4.0
 40
4.0
 40
5.0
 40
5.0
 40
5.0
 40
6.0
 40
6.0
 40
6.0
 40
7.0
 40
7.0
 40
7.0
 40
8.0
 40
8.0
 40
8.0
 40
9.0
 40
9.0
 40
9.0
 40
10.0
 40
10.0
 40
10.0
 40
11.0
 40
11.0
 40
11.0
 40
12.0
 40
12.0
 40
12.0
 40
13.0
 40
13.0
 40
13.0
 40
13.0
 10
109.1526828069132
 20
-124.2334160388201
 10
109.3115017087832
 20
-124.4511460734879
 10
109.3855712617161
 20
-124.5441636515897
 10
109.529231743451
 20
-124.5930840074802
 10
109.529231743451
 20
-124.5930840074802
 10
109.529231743451
 20
-123.8144924278137
 10
109.529231743451
 20
-123.8144924278137
 10
109.529231743451
 20
-123.8144924278137
 10
109.7345594343719
 20
-123.8144924278137
 10
109.7345594343719
 20
-123.8144924278137
 10
109.7345594343719
 20
-123.8144924278137
 10
109.7345594343719
 20
-124.8425089206123
 10
109.7345594343719
 20
-124.8425089206123
 10
109.376958523003
 20
-124.810814042148
 10
109.2987548554878
 20
-124.7453572279283
 10
109.0004095864652
 20
-124.3601955526773
 10
108.8016275769663
 20
-124.1042249581233
 10
108.7337591959068
 20
-124.0387681439035
 10
108.5962998860454
 20
-124.0387681439035
 10
108.4777886013528
 20
-124.0387681439035
 10
108.3468749729133
 20
-124.1107706395452
 10
108.3468749729133
 20
-124.307485591753
 10
108.3468749729133
 20
-124.5675903008894
 10
108.5773518608765
 20
-124.5762030396025
 10
108.6937960882779
 20
-124.5803371541848
 10
108.6937960882779
 20
-124.5803371541848
 10
108.6937960882779
 20
-124.8046128702746
 10
108.6937960882779
 20
-124.8046128702746
 10
108.5666720648722
 20
-124.7960001315614
 10
108.4547064616016
 20
-124.7853203355571
 10
108.336195176909
 20
-124.7050496107508
 10
108.1753092177478
 20
-124.5951510647714
 10
108.1415472819924
 20
-124.4087713990193
 10
108.1415472819924
 20
-124.2926716811664
 10
108.1415472819924
 20
-124.0153414946038
 10
108.3255153809047
 20
-123.8079467463918
 10
108.5983669433365
 20
-123.8079467463918
 10
108.8271212835571
 20
-123.8079467463918
 10
108.9263400335323
 20
-123.9243909737932
 10
109.1526828069132
 20
-124.2334160388201
 97
        0
 97
        0
 75
     2
 76
     1
 98
        0
  0
SPLINE
  5
C2
330
BC
100
AcDbEntity
  8
_U+30EC_U+30A4_U+30E4_U+30FC 1
370
     0
100
AcDbSpline
210
0.0
220
0.0
230
1.0
 70
    11
 71
     3
 72
    29
 73
    25
 74
     0
 42
0.0000000001
 43
0.0000000001
 12
1.0
 22
0.0
 32
0.0
 13
1.0
 23
0.0
 33
0.0
 40
0.0
 40
0.0
 40
0.0
 40
0.0
 40
1.0
 40
1.0
 40
1.0
 40
2.0
 40
2.0
 40
2.0
 40
3.0
 40
3.0
 40
3.0
 40
4.0
 40
4.0
 40
4.0
 40
5.0
 40
5.0
 40
5.0
 40
6.0
 40
6.0
 40
6.0
 40
7.0
 40
7.0
 40
7.0
 40
8.0
 40
8.0
 40
8.0
 40
8.0
 10
109.556792507333
 20
-122.7516804706142
 30
0.0
 10
109.7662543128362
 20
-122.859856468851
 30
0.0
 10
109.7852023380051
 20
-123.0331447717591
 30
0.0
 10
109.7852023380051
 20
-123.1495889991605
 30
0.0
 10
109.7852023380051
 20
-123.3104749583217
 30
0.0
 10
109.7386935489542
 20
-123.4520683827655
 30
0.0
 10
109.556792507333
 20
-123.5471530181584
 30
0.0
 10
109.3621446124164
 20
-123.6508503922644
 30
0.0
 10
109.1251220430312
 20
-123.6701429269818
 30
0.0
 10
108.9625135361274
 20
-123.6701429269818
 30
0.0
 10
108.818508544844
 20
-123.6701429269818
 30
0.0
 10
108.5666720648722
 20
-123.6529174495555
 30
0.0
 10
108.3678900553733
 20
-123.5471530181584
 30
0.0
 10
108.1649739312921
 20
-123.43932152947
 30
0.0
 10
108.1415472819924
 20
-123.2784355703089
 30
0.0
 10
108.1415472819924
 20
-123.1495889991605
 30
0.0
 10
108.1415472819924
 20
-122.9907700972905
 30
0.0
 10
108.1859890137521
 20
-122.8471096155556
 30
0.0
 10
108.3678900553733
 20
-122.7516804706142
 30
0.0
 10
108.5604708929988
 20
-122.652461720639
 30
0.0
 10
108.7888807236708
 20
-122.6290350713393
 30
0.0
 10
108.9625135361274
 20
-122.6290350713393
 30
0.0
 10
109.1337347817444
 20
-122.6290350713393
 30
0.0
 10
109.3642116697076
 20
-122.6503946633478
 30
0.0
 10
109.556792507333
 20
-122.7516804706142
 30
0.0
  0
SPLINE
  5
C3
330
BC
100
AcDbEntity
  8
_U+30EC_U+30A4_U+30E4_U+30FC 1
370
     0
100
AcDbSpline
210
0.0
220
0.0
230
1.0
 70
    11
 71
     3
 72
    17
 73
    13
 74
     0
 42
0.0000000001
 43
0.0000000001
 12
1.0
 22
0.0
 32
0.0
 13
1.0
 23
0.0
 33
0.0
 40
0.0
 40
0.0
 40
0.0
 40
0.0
 40
1.0
 40
1.0
 40
1.0
 40
2.0
 40
2.0
 40
2.0
 40
3.0
 40
3.0
 40
3.0
 40
4.0
 40
4.0
 40
4.0
 40
4.0
 10
108.3341281196179
 20
-123.1495889991605
 30
0.0
 10
108.3341281196179
 20
-123.3993584218411
 30
0.0
 10
108.6176594780539
 20
-123.445867210892
 30
0.0
 10
108.9625135361274
 20
-123.445867210892
 30
0.0
 10
109.2818738876101
 20
-123.445867210892
 30
0.0
 10
109.5905544430885
 20
-123.4096937082969
 30
0.0
 10
109.5905544430885
 20
-123.1495889991605
 30
0.0
 10
109.5905544430885
 20
-122.9018866337711
 30
0.0
 10
109.3094346514921
 20
-122.853310787429
 30
0.0
 10
108.9625135361274
 20
-122.853310787429
 30
0.0
 10
108.6428086750962
 20
-122.853310787429
 30
0.0
 10
108.3341281196179
 20
-122.8915513473153
 30
0.0
 10
108.3341281196179
 20
-123.1495889991605
 30
0.0
  0
HATCH
  5
C4
330
BC
100
AcDbEntity
  8
_U+30EC_U+30A4_U+30E4_U+30FC 1
 62
   179
420
  2234388
100
AcDbHatch
 10
0.0
 20
0.0
 30
0.0
210
0.0
220
0.0
230
1.0
  2
SOLID
 70
     1
 71
     0
 91
        2
 92
        1
 93
        1
 72
     4
 94
        3
 73
     0
 74
     1
 95
       29
 96
       25
 40
0.0
 40
0.0
 40
0.0
 40
0.0
 40
1.0
 40
1.0
 40
1.0
 40
2.0
 40
2.0
 40
2.0
 40
3.0
 40
3.0
 40
3.0
 40
4.0
 40
4.0
 40
4.0
 40
5.0
 40
5.0
 40
5.0
 40
6.0
 40
6.0
 40
6.0
 40
7.0
 40
7.0
 40
7.0
 40
8.0
 40
8.0
 40
8.0
 40
8.0
 10
109.556792507333
 20
-122.7516804706142
 10
109.7662543128362
 20
-122.859856468851
 10
109.7852023380051
 20
-123.0331447717591
 10
109.7852023380051
 20
-123.1495889991605
 10
109.7852023380051
 20
-123.3104749583217
 10
109.7386935489542
 20
-123.4520683827655
 10
109.556792507333
 20
-123.5471530181584
 10
109.3621446124164
 20
-123.6508503922644
 10
109.1251220430312
 20
-123.6701429269818
 10
108.9625135361274
 20
-123.6701429269818
 10
108.818508544844
 20
-123.6701429269818
 10
108.5666720648722
 20
-123.6529174495555
 10
108.3678900553733
 20
-123.5471530181584
 10
108.1649739312921
 20
-123.43932152947
 10
108.1415472819924
 20
-123.2784355703089
 10
108.1415472819924
 20
-123.1495889991605
 10
108.1415472819924
 20
-122.9907700972905
 10
108.1859890137521
 20
-122.8471096155556
 10
108.3678900553733
 20
-122.7516804706142
 10
108.5604708929988
 20
-122.652461720639
 10
108.7888807236708
 20
-122.6290350713393
 10
108.9625135361274
 20
-122.6290350713393
 10
109.1337347817444
 20
-122.6290350713393
 10
109.3642116697076
 20
-122.6503946633478
 10
109.556792507333
 20
-122.7516804706142
 97
        0
 97
        0
 92
        1
 93
        1
 72
     4
 94
        3
 73
     0
 74
     1
 95
       17
 96
       13
 40
0.0
 40
0.0
 40
0.0
 40
0.0
 40
1.0
 40
1.0
 40
1.0
 40
2.0
 40
2.0
 40
2.0
 40
3.0
 40
3.0
 40
3.0
 40
4.0
 40
4.0
 40
4.0
 40
4.0
 10
108.3341281196179
 20
-123.1495889991605
 10
108.3341281196179
 20
-123.3993584218411
 10
108.6176594780539
 20
-123.445867210892
 10
108.9625135361274
 20
-123.445867210892
 10
109.2818738876101
 20
-123.445867210892
 10
109.5905544430885
 20
-123.4096937082969
 10
109.5905544430885
 20
-123.1495889991605
 10
109.5905544430885
 20
-122.9018866337711
 10
109.3094346514921
 20
-122.853310787429
 10
108.9625135361274
 20
-122.853310787429
 10
108.6428086750962
 20
-122.853310787429
 10
108.3341281196179
 20
-122.8915513473153
 10
108.3341281196179
 20
-123.1495889991605
 97
        0
 97
        0
 75
     2
 76
     1
 98
        0
  0
ENDBLK
  5
BF
330
BC
100
AcDbEntity
  8
0
100
AcDbBlockEnd
  0
BLOCK
  5
CF
330
CD
100
AcDbEntity
  8
0
100
AcDbBlockBegin
  2
block 4
 70
     0
 10
0.0
 20
0.0
 30
0.0
  3
block 4
  1

  0
SPLINE
  5
D1
330
CD
100
AcDbEntity
  8
_U+30EC_U+30A4_U+30E4_U+30FC 1
370
     0
100
AcDbSpline
210
0.0
220
0.0
230
1.0
 70
    11
 71
     3
 72
    44
 73
    40
 74
     0
 42
0.0000000001
 43
0.0000000001
 12
1.0
 22
0.0
 32
0.0
 13
1.0
 23
0.0
 33
0.0
 40
0.0
 40
0.0
 40
0.0
 40
0.0
 40
1.0
 40
1.0
 40
1.0
 40
2.0
 40
2.0
 40
2.0
 40
3.0
 40
3.0
 40
3.0
 40
4.0
 40
4.0
 40
4.0
 40
5.0
 40
5.0
 40
5.0
 40
6.0
 40
6.0
 40
6.0
 40
7.0
 40
7.0
 40
7.0
 40
8.0
 40
8.0
 40
8.0
 40
9.0
 40
9.0
 40
9.0
 40
10.0
 40
10.0
 40
10.0
 40
11.0
 40
11.0
 40
11.0
 40
12.0
 40
12.0
 40
12.0
 40
13.0
 40
13.0
 40
13.0
 40
13.0
 10
72.5320068178045
 20
-141.396364982012
 30
0.0
 10
72.5085801685048
 20
-141.3519232502523
 30
0.0
 10
72.48756508604478
 20
-141.299213289328
 30
0.0
 10
72.48532577397937
 20
-141.0683918918162
 30
0.0
 10
72.48119165939707
 20
-140.8251681505576
 30
0.0
 10
72.42193601705077
 20
-140.755232712207
 30
0.0
 10
72.24416909001188
 20
-140.755232712207
 30
0.0
 10
72.24416909001188
 20
-140.755232712207
 30
0.0
 10
71.83592527500977
 20
-140.755232712207
 30
0.0
 10
71.83592527500977
 20
-140.755232712207
 30
0.0
 10
71.83592527500977
 20
-140.755232712207
 30
0.0
 10
71.83592527500977
 20
-141.396364982012
 30
0.0
 10
71.83592527500977
 20
-141.396364982012
 30
0.0
 10
71.83592527500977
 20
-141.396364982012
 30
0.0
 10
71.60114201769
 20
-141.396364982012
 30
0.0
 10
71.60114201769
 20
-141.396364982012
 30
0.0
 10
71.60114201769
 20
-141.396364982012
 30
0.0
 10
71.60114201769
 20
-139.8519286759745
 30
0.0
 10
71.60114201769
 20
-139.8519286759745
 30
0.0
 10
71.60114201769
 20
-139.8519286759745
 30
0.0
 10
72.27603622325044
 20
-139.8519286759745
 30
0.0
 10
72.27603622325044
 20
-139.8519286759745
 30
0.0
 10
72.58264972143768
 20
-139.8519286759745
 30
0.0
 10
72.7497368524723
 20
-140.02349443114
 30
0.0
 10
72.7497368524723
 20
-140.279465025694
 30
0.0
 10
72.7497368524723
 20
-140.3301079293272
 30
0.0
 10
72.74129636853343
 20
-140.4127902209732
 30
0.0
 10
72.69685463677371
 20
-140.4930609457795
 30
0.0
 10
72.63777124920168
 20
-140.5967583198855
 30
0.0
 10
72.57214218020766
 20
-140.6157063450544
 30
0.0
 10
72.51081948057022
 20
-140.6325873129321
 30
0.0
 10
72.64827879043169
 20
-140.6749619874007
 30
0.0
 10
72.71597491671685
 20
-140.7235378337427
 30
0.0
 10
72.7202812860734
 20
-141.0387640706431
 30
0.0
 10
72.7244154006557
 20
-141.3095485757837
 30
0.0
 10
72.76041664847656
 20
-141.341243454248
 30
0.0
 10
72.82811277476172
 20
-141.396364982012
 30
0.0
 10
72.82811277476172
 20
-141.396364982012
 30
0.0
 10
72.5320068178045
 20
-141.396364982012
 30
0.0
 10
72.5320068178045
 20
-141.396364982012
 30
0.0
  0
SPLINE
  5
D2
330
CD
100
AcDbEntity
  8
_U+30EC_U+30A4_U+30E4_U+30FC 1
370
     0
100
AcDbSpline
210
0.0
220
0.0
230
1.0
 70
    11
 71
     3
 72
    20
 73
    16
 74
     0
 42
0.0000000001
 43
0.0000000001
 12
1.0
 22
0.0
 32
0.0
 13
1.0
 23
0.0
 33
0.0
 40
0.0
 40
0.0
 40
0.0
 40
0.0
 40
1.0
 40
1.0
 40
1.0
 40
2.0
 40
2.0
 40
2.0
 40
3.0
 40
3.0
 40
3.0
 40
4.0
 40
4.0
 40
4.0
 40
5.0
 40
5.0
 40
5.0
 40
5.0
 10
72.28017033783274
 20
-140.0634575387689
 30
0.0
 10
72.28017033783274
 20
-140.0634575387689
 30
0.0
 10
71.83592527500977
 20
-140.0634575387689
 30
0.0
 10
71.83592527500977
 20
-140.0634575387689
 30
0.0
 10
71.83592527500977
 20
-140.0634575387689
 30
0.0
 10
71.83592527500977
 20
-140.5437038494127
 30
0.0
 10
71.83592527500977
 20
-140.5437038494127
 30
0.0
 10
71.83592527500977
 20
-140.5437038494127
 30
0.0
 10
72.27810328054159
 20
-140.5437038494127
 30
0.0
 10
72.27810328054159
 20
-140.5437038494127
 30
0.0
 10
72.37749428529105
 20
-140.5437038494127
 30
0.0
 10
72.51288653786136
 20
-140.4675672391887
 30
0.0
 10
72.51288653786136
 20
-140.2963459935717
 30
0.0
 10
72.51288653786136
 20
-140.2181423260566
 30
0.0
 10
72.47895234733166
 20
-140.0634575387689
 30
0.0
 10
72.28017033783274
 20
-140.0634575387689
 30
0.0
  0
HATCH
  5
D3
330
CD
100
AcDbEntity
  8
_U+30EC_U+30A4_U+30E4_U+30FC 1
 62
   179
420
  2234388
100
AcDbHatch
 10
0.0
 20
0.0
 30
0.0
210
0.0
220
0.0
230
1.0
  2
SOLID
 70
     1
 71
     0
 91
        2
 92
        1
 93
        1
 72
     4
 94
        3
 73
     0
 74
     1
 95
       44
 96
       40
 40
0.0
 40
0.0
 40
0.0
 40
0.0
 40
1.0
 40
1.0
 40
1.0
 40
2.0
 40
2.0
 40
2.0
 40
3.0
 40
3.0
 40
3.0
 40
4.0
 40
4.0
 40
4.0
 40
5.0
 40
5.0
 40
5.0
 40
6.0
 40
6.0
 40
6.0
 40
7.0
 40
7.0
 40
7.0
 40
8.0
 40
8.0
 40
8.0
 40
9.0
 40
9.0
 40
9.0
 40
10.0
 40
10.0
 40
10.0
 40
11.0
 40
11.0
 40
11.0
 40
12.0
 40
12.0
 40
12.0
 40
13.0
 40
13.0
 40
13.0
 40
13.0
 10
72.5320068178045
 20
-141.396364982012
 10
72.5085801685048
 20
-141.3519232502523
 10
72.48756508604478
 20
-141.299213289328
 10
72.48532577397937
 20
-141.0683918918162
 10
72.48119165939707
 20
-140.8251681505576
 10
72.42193601705077
 20
-140.755232712207
 10
72.24416909001188
 20
-140.755232712207
 10
72.24416909001188
 20
-140.755232712207
 10
71.83592527500977
 20
-140.755232712207
 10
71.83592527500977
 20
-140.755232712207
 10
71.83592527500977
 20
-140.755232712207
 10
71.83592527500977
 20
-141.396364982012
 10
71.83592527500977
 20
-141.396364982012
 10
71.83592527500977
 20
-141.396364982012
 10
71.60114201769
 20
-141.396364982012
 10
71.60114201769
 20
-141.396364982012
 10
71.60114201769
 20
-141.396364982012
 10
71.60114201769
 20
-139.8519286759745
 10
71.60114201769
 20
-139.8519286759745
 10
71.60114201769
 20
-139.8519286759745
 10
72.27603622325044
 20
-139.8519286759745
 10
72.27603622325044
 20
-139.8519286759745
 10
72.58264972143768
 20
-139.8519286759745
 10
72.7497368524723
 20
-140.02349443114
 10
72.7497368524723
 20
-140.279465025694
 10
72.7497368524723
 20
-140.3301079293272
 10
72.74129636853343
 20
-140.4127902209732
 10
72.69685463677371
 20
-140.4930609457795
 10
72.63777124920168
 20
-140.5967583198855
 10
72.57214218020766
 20
-140.6157063450544
 10
72.51081948057022
 20
-140.6325873129321
 10
72.64827879043169
 20
-140.6749619874007
 10
72.71597491671685
 20
-140.7235378337427
 10
72.7202812860734
 20
-141.0387640706431
 10
72.7244154006557
 20
-141.3095485757837
 10
72.76041664847656
 20
-141.341243454248
 10
72.82811277476172
 20
-141.396364982012
 10
72.82811277476172
 20
-141.396364982012
 10
72.5320068178045
 20
-141.396364982012
 10
72.5320068178045
 20
-141.396364982012
 97
        0
 97
        0
 92
        1
 93
        1
 72
     4
 94
        3
 73
     0
 74
     1
 95
       20
 96
       16
 40
0.0
 40
0.0
 40
0.0
 40
0.0
 40
1.0
 40
1.0
 40
1.0
 40
2.0
 40
2.0
 40
2.0
 40
3.0
 40
3.0
 40
3.0
 40
4.0
 40
4.0
 40
4.0
 40
5.0
 40
5.0
 40
5.0
 40
5.0
 10
72.28017033783274
 20
-140.0634575387689
 10
72.28017033783274
 20
-140.0634575387689
 10
71.83592527500977
 20
-140.0634575387689
 10
71.83592527500977
 20
-140.0634575387689
 10
71.83592527500977
 20
-140.0634575387689
 10
71.83592527500977
 20
-140.5437038494127
 10
71.83592527500977
 20
-140.5437038494127
 10
71.83592527500977
 20
-140.5437038494127
 10
72.27810328054159
 20
-140.5437038494127
 10
72.27810328054159
 20
-140.5437038494127
 10
72.37749428529105
 20
-140.5437038494127
 10
72.51288653786136
 20
-140.4675672391887
 10
72.51288653786136
 20
-140.2963459935717
 10
72.51288653786136
 20
-140.2181423260566
 10
72.47895234733166
 20
-140.0634575387689
 10
72.28017033783274
 20
-140.0634575387689
 97
        0
 97
        0
 75
     2
 76
     1
 98
        0
  0
SPLINE
  5
D4
330
CD
100
AcDbEntity
  8
_U+30EC_U+30A4_U+30E4_U+30FC 1
370
     0
100
AcDbSpline
210
0.0
220
0.0
230
1.0
 70
    11
 71
     3
 72
    44
 73
    40
 74
     0
 42
0.0000000001
 43
0.0000000001
 12
1.0
 22
0.0
 32
0.0
 13
1.0
 23
0.0
 33
0.0
 40
0.0
 40
0.0
 40
0.0
 40
0.0
 40
1.0
 40
1.0
 40
1.0
 40
2.0
 40
2.0
 40
2.0
 40
3.0
 40
3.0
 40
3.0
 40
4.0
 40
4.0
 40
4.0
 40
5.0
 40
5.0
 40
5.0
 40
6.0
 40
6.0
 40
6.0
 40
7.0
 40
7.0
 40
7.0
 40
8.0
 40
8.0
 40
8.0
 40
9.0
 40
9.0
 40
9.0
 40
10.0
 40
10.0
 40
10.0
 40
11.0
 40
11.0
 40
11.0
 40
12.0
 40
12.0
 40
12.0
 40
13.0
 40
13.0
 40
13.0
 40
13.0
 10
73.56088458447437
 20
-140.8144883545533
 30
0.0
 10
73.34298229503231
 20
-140.9733072564233
 30
0.0
 10
73.24979246215631
 20
-141.0473768093562
 30
0.0
 10
73.20121661581429
 20
-141.1910372910911
 30
0.0
 10
73.20121661581429
 20
-141.1910372910911
 30
0.0
 10
73.97963594070649
 20
-141.1910372910911
 30
0.0
 10
73.97963594070649
 20
-141.1910372910911
 30
0.0
 10
73.97963594070649
 20
-141.1910372910911
 30
0.0
 10
73.97963594070649
 20
-141.396364982012
 30
0.0
 10
73.97963594070649
 20
-141.396364982012
 30
0.0
 10
73.97963594070649
 20
-141.396364982012
 30
0.0
 10
72.95161944790793
 20
-141.396364982012
 30
0.0
 10
72.95161944790793
 20
-141.396364982012
 30
0.0
 10
72.98331432637222
 20
-141.0387640706431
 30
0.0
 10
73.04877114059198
 20
-140.9605604031279
 30
0.0
 10
73.43393281584291
 20
-140.6622151341053
 30
0.0
 10
73.68990341039697
 20
-140.4634331246064
 30
0.0
 10
73.75536022461672
 20
-140.3955647435469
 30
0.0
 10
73.75536022461672
 20
-140.2581054336855
 30
0.0
 10
73.75536022461672
 20
-140.1395941489929
 30
0.0
 10
73.68352998374925
 20
-140.0086805205534
 30
0.0
 10
73.4868150315415
 20
-140.0086805205534
 30
0.0
 10
73.22653806763087
 20
-140.0086805205534
 30
0.0
 10
73.218097583692
 20
-140.2391574085166
 30
0.0
 10
73.21379121433544
 20
-140.355601635918
 30
0.0
 10
73.21379121433544
 20
-140.355601635918
 30
0.0
 10
72.98968775301994
 20
-140.355601635918
 30
0.0
 10
72.98968775301994
 20
-140.355601635918
 30
0.0
 10
72.9981282369588
 20
-140.2284776125123
 30
0.0
 10
73.00863577818882
 20
-140.1165120092417
 30
0.0
 10
73.0890787577694
 20
-139.9980007245491
 30
0.0
 10
73.19897730374888
 20
-139.837114765388
 30
0.0
 10
73.38518471472662
 20
-139.8033528296325
 30
0.0
 10
73.50162894212806
 20
-139.8033528296325
 30
0.0
 10
73.77878687391642
 20
-139.8033528296325
 30
0.0
 10
73.9860093673542
 20
-139.9873209285448
 30
0.0
 10
73.9860093673542
 20
-140.2601724909766
 30
0.0
 10
73.9860093673542
 20
-140.4889268311972
 30
0.0
 10
73.86973739472701
 20
-140.5881455811724
 30
0.0
 10
73.56088458447437
 20
-140.8144883545533
 30
0.0
  0
HATCH
  5
D5
330
CD
100
AcDbEntity
  8
_U+30EC_U+30A4_U+30E4_U+30FC 1
 62
   179
420
  2234388
100
AcDbHatch
 10
0.0
 20
0.0
 30
0.0
210
0.0
220
0.0
230
1.0
  2
SOLID
 70
     1
 71
     0
 91
        1
 92
        1
 93
        1
 72
     4
 94
        3
 73
     0
 74
     1
 95
       44
 96
       40
 40
0.0
 40
0.0
 40
0.0
 40
0.0
 40
1.0
 40
1.0
 40
1.0
 40
2.0
 40
2.0
 40
2.0
 40
3.0
 40
3.0
 40
3.0
 40
4.0
 40
4.0
 40
4.0
 40
5.0
 40
5.0
 40
5.0
 40
6.0
 40
6.0
 40
6.0
 40
7.0
 40
7.0
 40
7.0
 40
8.0
 40
8.0
 40
8.0
 40
9.0
 40
9.0
 40
9.0
 40
10.0
 40
10.0
 40
10.0
 40
11.0
 40
11.0
 40
11.0
 40
12.0
 40
12.0
 40
12.0
 40
13.0
 40
13.0
 40
13.0
 40
13.0
 10
73.56088458447437
 20
-140.8144883545533
 10
73.34298229503231
 20
-140.9733072564233
 10
73.24979246215631
 20
-141.0473768093562
 10
73.20121661581429
 20
-141.1910372910911
 10
73.20121661581429
 20
-141.1910372910911
 10
73.97963594070649
 20
-141.1910372910911
 10
73.97963594070649
 20
-141.1910372910911
 10
73.97963594070649
 20
-141.1910372910911
 10
73.97963594070649
 20
-141.396364982012
 10
73.97963594070649
 20
-141.396364982012
 10
73.97963594070649
 20
-141.396364982012
 10
72.95161944790793
 20
-141.396364982012
 10
72.95161944790793
 20
-141.396364982012
 10
72.98331432637222
 20
-141.0387640706431
 10
73.04877114059198
 20
-140.9605604031279
 10
73.43393281584291
 20
-140.6622151341053
 10
73.68990341039697
 20
-140.4634331246064
 10
73.75536022461672
 20
-140.3955647435469
 10
73.75536022461672
 20
-140.2581054336855
 10
73.75536022461672
 20
-140.1395941489929
 10
73.68352998374925
 20
-140.0086805205534
 10
73.4868150315415
 20
-140.0086805205534
 10
73.22653806763087
 20
-140.0086805205534
 10
73.218097583692
 20
-140.2391574085166
 10
73.21379121433544
 20
-140.355601635918
 10
73.21379121433544
 20
-140.355601635918
 10
72.98968775301994
 20
-140.355601635918
 10
72.98968775301994
 20
-140.355601635918
 10
72.9981282369588
 20
-140.2284776125123
 10
73.00863577818882
 20
-140.1165120092417
 10
73.0890787577694
 20
-139.9980007245491
 10
73.19897730374888
 20
-139.837114765388
 10
73.38518471472662
 20
-139.8033528296325
 10
73.50162894212806
 20
-139.8033528296325
 10
73.77878687391642
 20
-139.8033528296325
 10
73.9860093673542
 20
-139.9873209285448
 10
73.9860093673542
 20
-140.2601724909766
 10
73.9860093673542
 20
-140.4889268311972
 10
73.86973739472701
 20
-140.5881455811724
 10
73.56088458447437
 20
-140.8144883545533
 97
        0
 97
        0
 75
     2
 76
     1
 98
        0
  0
POLYLINE
  5
D6
330
CD
100
AcDbEntity
  8
_U+30EC_U+30A4_U+30E4_U+30FC 1
370
     0
100
AcDb2dPolyline
 66
     1
 10
0.0
 20
0.0
 30
0.0
  0
VERTEX
  5
D7
330
D6
100
AcDbEntity
  8
_U+30EC_U+30A4_U+30E4_U+30FC 1
370
     0
100
AcDbVertex
100
AcDb2dVertex
 10
74.2046006758933
 20
-141.396364982012
 30
0.0
  0
VERTEX
  5
D8
330
D6
100
AcDbEntity
  8
_U+30EC_U+30A4_U+30E4_U+30FC 1
370
     0
100
AcDbVertex
100
AcDb2dVertex
 10
74.2046006758933
 20
-141.1445285020403
 30
0.0
  0
VERTEX
  5
D9
330
D6
100
AcDbEntity
  8
_U+30EC_U+30A4_U+30E4_U+30FC 1
370
     0
100
AcDbVertex
100
AcDb2dVertex
 10
74.4562649010908
 20
-141.1445285020403
 30
0.0
  0
VERTEX
  5
DA
330
D6
100
AcDbEntity
  8
_U+30EC_U+30A4_U+30E4_U+30FC 1
370
     0
100
AcDbVertex
100
AcDb2dVertex
 10
74.4562649010908
 20
-141.396364982012
 30
0.0
  0
VERTEX
  5
DB
330
D6
100
AcDbEntity
  8
_U+30EC_U+30A4_U+30E4_U+30FC 1
370
     0
100
AcDbVertex
100
AcDb2dVertex
 10
74.2046006758933
 20
-141.396364982012
 30
0.0
  0
SEQEND
  5
DC
330
D6
100
AcDbEntity
  8
_U+30EC_U+30A4_U+30E4_U+30FC 1
370
     0
  0
HATCH
  5
DD
330
CD
100
AcDbEntity
  8
_U+30EC_U+30A4_U+30E4_U+30FC 1
 62
   179
420
  2234388
100
AcDbHatch
 10
0.0
 20
0.0
 30
0.0
210
0.0
220
0.0
230
1.0
  2
SOLID
 70
     1
 71
     0
 91
        1
 92
        1
 93
        4
 72
     1
 10
74.2046006758933
 20
-141.396364982012
 11
74.2046006758933
 21
-141.1445285020403
 72
     1
 10
74.2046006758933
 20
-141.1445285020403
 11
74.4562649010908
 21
-141.1445285020403
 72
     1
 10
74.4562649010908
 20
-141.1445285020403
 11
74.4562649010908
 21
-141.396364982012
 72
     1
 10
74.4562649010908
 20
-141.396364982012
 11
74.2046006758933
 21
-141.396364982012
 97
        0
 75
     2
 76
     1
 98
        0
  0
SPLINE
  5
DE
330
CD
100
AcDbEntity
  8
_U+30EC_U+30A4_U+30E4_U+30FC 1
370
     0
100
AcDbSpline
210
0.0
220
0.0
230
1.0
 70
    11
 71
     3
 72
    53
 73
    49
 74
     0
 42
0.0000000001
 43
0.0000000001
 12
1.0
 22
0.0
 32
0.0
 13
1.0
 23
0.0
 33
0.0
 40
0.0
 40
0.0
 40
0.0
 40
0.0
 40
1.0
 40
1.0
 40
1.0
 40
2.0
 40
2.0
 40
2.0
 40
3.0
 40
3.0
 40
3.0
 40
4.0
 40
4.0
 40
4.0
 40
5.0
 40
5.0
 40
5.0
 40
6.0
 40
6.0
 40
6.0
 40
7.0
 40
7.0
 40
7.0
 40
8.0
 40
8.0
 40
8.0
 40
9.0
 40
9.0
 40
9.0
 40
10.0
 40
10.0
 40
10.0
 40
11.0
 40
11.0
 40
11.0
 40
12.0
 40
12.0
 40
12.0
 40
13.0
 40
13.0
 40
13.0
 40
14.0
 40
14.0
 40
14.0
 40
15.0
 40
15.0
 40
15.0
 40
16.0
 40
16.0
 40
16.0
 40
16.0
 10
75.17387829066834
 20
-141.4470078856452
 30
0.0
 10
75.0955023683789
 20
-141.4470078856452
 30
0.0
 10
74.9940443063383
 20
-141.4301269177675
 30
0.0
 10
74.89241398952343
 20
-141.3667371608389
 30
0.0
 10
74.7189534318411
 20
-141.2568386148594
 30
0.0
 10
74.6977660946068
 20
-141.1255804768714
 30
0.0
 10
74.67881806943794
 20
-141.0177489881831
 30
0.0
 10
74.67881806943794
 20
-141.0177489881831
 30
0.0
 10
74.90085447346229
 20
-141.0177489881831
 30
0.0
 10
74.90085447346229
 20
-141.0177489881831
 30
0.0
 10
74.95597600122629
 20
-141.216530997682
 30
0.0
 10
75.08292776985775
 20
-141.2461588188551
 30
0.0
 10
75.17594534795948
 20
-141.2461588188551
 30
0.0
 10
75.31564396988637
 20
-141.2461588188551
 30
0.0
 10
75.46791719033442
 20
-141.1465955593314
 30
0.0
 10
75.46791719033442
 20
-140.914051614077
 30
0.0
 10
75.46791719033442
 20
-140.658081019523
 30
0.0
 10
75.28808320600437
 20
-140.5881455811724
 30
0.0
 10
75.16750486402063
 20
-140.5881455811724
 30
0.0
 10
75.13580998555634
 20
-140.5881455811724
 30
0.0
 10
74.9940443063383
 20
-140.5881455811724
 30
0.0
 10
74.90516084281886
 20
-140.7173366618693
 30
0.0
 10
74.90516084281886
 20
-140.7173366618693
 30
0.0
 10
74.72963322784537
 20
-140.6983886367004
 30
0.0
 10
74.72963322784537
 20
-140.6983886367004
 30
0.0
 10
74.72963322784537
 20
-140.6983886367004
 30
0.0
 10
74.85021156982911
 20
-139.8519286759745
 30
0.0
 10
74.85021156982911
 20
-139.8519286759745
 30
0.0
 10
74.85021156982911
 20
-139.8519286759745
 30
0.0
 10
75.62863089472131
 20
-139.8519286759745
 30
0.0
 10
75.62863089472131
 20
-139.8519286759745
 30
0.0
 10
75.62863089472131
 20
-139.8519286759745
 30
0.0
 10
75.62863089472131
 20
-140.0465765708911
 30
0.0
 10
75.62863089472131
 20
-140.0465765708911
 30
0.0
 10
75.62863089472131
 20
-140.0465765708911
 30
0.0
 10
75.01299233150718
 20
-140.0465765708911
 30
0.0
 10
75.01299233150718
 20
-140.0465765708911
 30
0.0
 10
75.01299233150718
 20
-140.0465765708911
 30
0.0
 10
74.94753551728742
 20
-140.4696342964798
 30
0.0
 10
74.94753551728742
 20
-140.4696342964798
 30
0.0
 10
75.00885821692488
 20
-140.4358723607244
 30
0.0
 10
75.0913682537966
 20
-140.3955647435469
 30
0.0
 10
75.20970728371493
 20
-140.3955647435469
 30
0.0
 10
75.46361082097785
 20
-140.3955647435469
 30
0.0
 10
75.70063339036304
 20
-140.581944409299
 30
0.0
 10
75.70063339036304
 20
-140.8951035889082
 30
0.0
 10
75.70063339036304
 20
-141.2123968830997
 30
0.0
 10
75.47635767427327
 20
-141.4470078856452
 30
0.0
 10
75.17387829066834
 20
-141.4470078856452
 30
0.0
  0
HATCH
  5
DF
330
CD
100
AcDbEntity
  8
_U+30EC_U+30A4_U+30E4_U+30FC 1
 62
   179
420
  2234388
100
AcDbHatch
 10
0.0
 20
0.0
 30
0.0
210
0.0
220
0.0
230
1.0
  2
SOLID
 70
     1
 71
     0
 91
        1
 92
        1
 93
        1
 72
     4
 94
        3
 73
     0
 74
     1
 95
       53
 96
       49
 40
0.0
 40
0.0
 40
0.0
 40
0.0
 40
1.0
 40
1.0
 40
1.0
 40
2.0
 40
2.0
 40
2.0
 40
3.0
 40
3.0
 40
3.0
 40
4.0
 40
4.0
 40
4.0
 40
5.0
 40
5.0
 40
5.0
 40
6.0
 40
6.0
 40
6.0
 40
7.0
 40
7.0
 40
7.0
 40
8.0
 40
8.0
 40
8.0
 40
9.0
 40
9.0
 40
9.0
 40
10.0
 40
10.0
 40
10.0
 40
11.0
 40
11.0
 40
11.0
 40
12.0
 40
12.0
 40
12.0
 40
13.0
 40
13.0
 40
13.0
 40
14.0
 40
14.0
 40
14.0
 40
15.0
 40
15.0
 40
15.0
 40
16.0
 40
16.0
 40
16.0
 40
16.0
 10
75.17387829066834
 20
-141.4470078856452
 10
75.0955023683789
 20
-141.4470078856452
 10
74.9940443063383
 20
-141.4301269177675
 10
74.89241398952343
 20
-141.3667371608389
 10
74.7189534318411
 20
-141.2568386148594
 10
74.6977660946068
 20
-141.1255804768714
 10
74.67881806943794
 20
-141.0177489881831
 10
74.67881806943794
 20
-141.0177489881831
 10
74.90085447346229
 20
-141.0177489881831
 10
74.90085447346229
 20
-141.0177489881831
 10
74.95597600122629
 20
-141.216530997682
 10
75.08292776985775
 20
-141.2461588188551
 10
75.17594534795948
 20
-141.2461588188551
 10
75.31564396988637
 20
-141.2461588188551
 10
75.46791719033442
 20
-141.1465955593314
 10
75.46791719033442
 20
-140.914051614077
 10
75.46791719033442
 20
-140.658081019523
 10
75.28808320600437
 20
-140.5881455811724
 10
75.16750486402063
 20
-140.5881455811724
 10
75.13580998555634
 20
-140.5881455811724
 10
74.9940443063383
 20
-140.5881455811724
 10
74.90516084281886
 20
-140.7173366618693
 10
74.90516084281886
 20
-140.7173366618693
 10
74.72963322784537
 20
-140.6983886367004
 10
74.72963322784537
 20
-140.6983886367004
 10
74.72963322784537
 20
-140.6983886367004
 10
74.85021156982911
 20
-139.8519286759745
 10
74.85021156982911
 20
-139.8519286759745
 10
74.85021156982911
 20
-139.8519286759745
 10
75.62863089472131
 20
-139.8519286759745
 10
75.62863089472131
 20
-139.8519286759745
 10
75.62863089472131
 20
-139.8519286759745
 10
75.62863089472131
 20
-140.0465765708911
 10
75.62863089472131
 20
-140.0465765708911
 10
75.62863089472131
 20
-140.0465765708911
 10
75.01299233150718
 20
-140.0465765708911
 10
75.01299233150718
 20
-140.0465765708911
 10
75.01299233150718
 20
-140.0465765708911
 10
74.94753551728742
 20
-140.4696342964798
 10
74.94753551728742
 20
-140.4696342964798
 10
75.00885821692488
 20
-140.4358723607244
 10
75.0913682537966
 20
-140.3955647435469
 10
75.20970728371493
 20
-140.3955647435469
 10
75.46361082097785
 20
-140.3955647435469
 10
75.70063339036304
 20
-140.581944409299
 10
75.70063339036304
 20
-140.8951035889082
 10
75.70063339036304
 20
-141.2123968830997
 10
75.47635767427327
 20
-141.4470078856452
 10
75.17387829066834
 20
-141.4470078856452
 97
        0
 97
        0
 75
     2
 76
     1
 98
        0
  0
ENDBLK
  5
D0
330
CD
100
AcDbEntity
  8
0
100
AcDbBlockEnd
  0
BLOCK
  5
EE
330
EC
100
AcDbEntity
  8
0
100
AcDbBlockBegin
  2
block 5
 70
     0
 10
0.0
 20
0.0
 30
0.0
  3
block 5
  1

  0
SPLINE
  5
F0
330
EC
100
AcDbEntity
  8
_U+30EC_U+30A4_U+30E4_U+30FC 1
370
     0
100
AcDbSpline
210
0.0
220
0.0
230
1.0
 70
    11
 71
     3
 72
    26
 73
    22
 74
     0
 42
0.0000000001
 43
0.0000000001
 12
1.0
 22
0.0
 32
0.0
 13
1.0
 23
0.0
 33
0.0
 40
0.0
 40
0.0
 40
0.0
 40
0.0
 40
1.0
 40
1.0
 40
1.0
 40
2.0
 40
2.0
 40
2.0
 40
3.0
 40
3.0
 40
3.0
 40
4.0
 40
4.0
 40
4.0
 40
5.0
 40
5.0
 40
5.0
 40
6.0
 40
6.0
 40
6.0
 40
7.0
 40
7.0
 40
7.0
 40
7.0
 10
85.61785750897748
 20
-146.5660752671779
 30
0.0
 10
85.61785750897748
 20
-146.5660752671779
 30
0.0
 10
85.61785750897748
 20
-145.4619221641554
 30
0.0
 10
85.61785750897748
 20
-145.4619221641554
 30
0.0
 10
85.61785750897748
 20
-145.4619221641554
 30
0.0
 10
85.28781736149055
 20
-145.4619221641554
 30
0.0
 10
85.28781736149055
 20
-145.4619221641554
 30
0.0
 10
85.28781736149055
 20
-145.4619221641554
 30
0.0
 10
85.28781736149055
 20
-145.3137830582896
 30
0.0
 10
85.28781736149055
 20
-145.3137830582896
 30
0.0
 10
85.61992456626864
 20
-145.298969147703
 30
0.0
 10
85.66643335531951
 20
-145.1360161312507
 30
0.0
 10
85.69606117649265
 20
-145.0216389611404
 30
0.0
 10
85.69606117649265
 20
-145.0216389611404
 30
0.0
 10
85.84213322506724
 20
-145.0216389611404
 30
0.0
 10
85.84213322506724
 20
-145.0216389611404
 30
0.0
 10
85.84213322506724
 20
-145.0216389611404
 30
0.0
 10
85.84213322506724
 20
-146.5660752671779
 30
0.0
 10
85.84213322506724
 20
-146.5660752671779
 30
0.0
 10
85.84213322506724
 20
-146.5660752671779
 30
0.0
 10
85.61785750897748
 20
-146.5660752671779
 30
0.0
 10
85.61785750897748
 20
-146.5660752671779
 30
0.0
  0
HATCH
  5
F1
330
EC
100
AcDbEntity
  8
_U+30EC_U+30A4_U+30E4_U+30FC 1
 62
   179
420
  2234388
100
AcDbHatch
 10
0.0
 20
0.0
 30
0.0
210
0.0
220
0.0
230
1.0
  2
SOLID
 70
     1
 71
     0
 91
        1
 92
        1
 93
        1
 72
     4
 94
        3
 73
     0
 74
     1
 95
       26
 96
       22
 40
0.0
 40
0.0
 40
0.0
 40
0.0
 40
1.0
 40
1.0
 40
1.0
 40
2.0
 40
2.0
 40
2.0
 40
3.0
 40
3.0
 40
3.0
 40
4.0
 40
4.0
 40
4.0
 40
5.0
 40
5.0
 40
5.0
 40
6.0
 40
6.0
 40
6.0
 40
7.0
 40
7.0
 40
7.0
 40
7.0
 10
85.61785750897748
 20
-146.5660752671779
 10
85.61785750897748
 20
-146.5660752671779
 10
85.61785750897748
 20
-145.4619221641554
 10
85.61785750897748
 20
-145.4619221641554
 10
85.61785750897748
 20
-145.4619221641554
 10
85.28781736149055
 20
-145.4619221641554
 10
85.28781736149055
 20
-145.4619221641554
 10
85.28781736149055
 20
-145.4619221641554
 10
85.28781736149055
 20
-145.3137830582896
 10
85.28781736149055
 20
-145.3137830582896
 10
85.61992456626864
 20
-145.298969147703
 10
85.66643335531951
 20
-145.1360161312507
 10
85.69606117649265
 20
-145.0216389611404
 10
85.69606117649265
 20
-145.0216389611404
 10
85.84213322506724
 20
-145.0216389611404
 10
85.84213322506724
 20
-145.0216389611404
 10
85.84213322506724
 20
-145.0216389611404
 10
85.84213322506724
 20
-146.5660752671779
 10
85.84213322506724
 20
-146.5660752671779
 10
85.84213322506724
 20
-146.5660752671779
 10
85.61785750897748
 20
-146.5660752671779
 10
85.61785750897748
 20
-146.5660752671779
 97
        0
 97
        0
 75
     2
 76
     1
 98
        0
  0
SPLINE
  5
F2
330
EC
100
AcDbEntity
  8
_U+30EC_U+30A4_U+30E4_U+30FC 1
370
     0
100
AcDbSpline
210
0.0
220
0.0
230
1.0
 70
    11
 71
     3
 72
    53
 73
    49
 74
     0
 42
0.0000000001
 43
0.0000000001
 12
1.0
 22
0.0
 32
0.0
 13
1.0
 23
0.0
 33
0.0
 40
0.0
 40
0.0
 40
0.0
 40
0.0
 40
1.0
 40
1.0
 40
1.0
 40
2.0
 40
2.0
 40
2.0
 40
3.0
 40
3.0
 40
3.0
 40
4.0
 40
4.0
 40
4.0
 40
5.0
 40
5.0
 40
5.0
 40
6.0
 40
6.0
 40
6.0
 40
7.0
 40
7.0
 40
7.0
 40
8.0
 40
8.0
 40
8.0
 40
9.0
 40
9.0
 40
9.0
 40
10.0
 40
10.0
 40
10.0
 40
11.0
 40
11.0
 40
11.0
 40
12.0
 40
12.0
 40
12.0
 40
13.0
 40
13.0
 40
13.0
 40
14.0
 40
14.0
 40
14.0
 40
15.0
 40
15.0
 40
15.0
 40
16.0
 40
16.0
 40
16.0
 40
16.0
 10
86.82432994791198
 20
-146.6167181708111
 30
0.0
 10
86.74612628039681
 20
-146.6167181708111
 30
0.0
 10
86.64449596358193
 20
-146.5998372029334
 30
0.0
 10
86.54286564676707
 20
-146.5364474460048
 30
0.0
 10
86.36957734385899
 20
-146.4265489000253
 30
0.0
 10
86.34821775185046
 20
-146.2952907620373
 30
0.0
 10
86.32926972668157
 20
-146.187459273349
 30
0.0
 10
86.32926972668157
 20
-146.187459273349
 30
0.0
 10
86.5514783854802
 20
-146.187459273349
 30
0.0
 10
86.5514783854802
 20
-146.187459273349
 30
0.0
 10
86.60625540369566
 20
-146.3862412828479
 30
0.0
 10
86.73337942710138
 20
-146.415869104021
 30
0.0
 10
86.82639700520313
 20
-146.415869104021
 30
0.0
 10
86.96592337235575
 20
-146.415869104021
 30
0.0
 10
87.11819659280378
 20
-146.3163058444973
 30
0.0
 10
87.11819659280378
 20
-146.0837618992429
 30
0.0
 10
87.11819659280378
 20
-145.8277913046889
 30
0.0
 10
86.93836260847375
 20
-145.7578558663383
 30
0.0
 10
86.81778426649001
 20
-145.7578558663383
 30
0.0
 10
86.7860893880257
 20
-145.7578558663383
 30
0.0
 10
86.64449596358193
 20
-145.7578558663383
 30
0.0
 10
86.5556125000625
 20
-145.8870469470352
 30
0.0
 10
86.5556125000625
 20
-145.8870469470352
 30
0.0
 10
86.37991263031475
 20
-145.8680989218663
 30
0.0
 10
86.37991263031475
 20
-145.8680989218663
 30
0.0
 10
86.37991263031475
 20
-145.8680989218663
 30
0.0
 10
86.5004909722985
 20
-145.0216389611404
 30
0.0
 10
86.5004909722985
 20
-145.0216389611404
 30
0.0
 10
86.5004909722985
 20
-145.0216389611404
 30
0.0
 10
87.27908255196496
 20
-145.0216389611404
 30
0.0
 10
87.27908255196496
 20
-145.0216389611404
 30
0.0
 10
87.27908255196496
 20
-145.0216389611404
 30
0.0
 10
87.27908255196496
 20
-145.2162868560571
 30
0.0
 10
87.27908255196496
 20
-145.2162868560571
 30
0.0
 10
87.27908255196496
 20
-145.2162868560571
 30
0.0
 10
86.66344398875081
 20
-145.2162868560571
 30
0.0
 10
86.66344398875081
 20
-145.2162868560571
 30
0.0
 10
86.66344398875081
 20
-145.2162868560571
 30
0.0
 10
86.59798717453106
 20
-145.6393445816457
 30
0.0
 10
86.59798717453106
 20
-145.6393445816457
 30
0.0
 10
86.65930987416851
 20
-145.6055826458903
 30
0.0
 10
86.74164765626598
 20
-145.5652750287128
 30
0.0
 10
86.86015894095857
 20
-145.5652750287128
 30
0.0
 10
87.11406247822148
 20
-145.5652750287128
 30
0.0
 10
87.35108504760667
 20
-145.7516546944649
 30
0.0
 10
87.35108504760667
 20
-146.0648138740741
 30
0.0
 10
87.35108504760667
 20
-146.3821071682656
 30
0.0
 10
87.12680933151691
 20
-146.6167181708111
 30
0.0
 10
86.82432994791198
 20
-146.6167181708111
 30
0.0
  0
HATCH
  5
F3
330
EC
100
AcDbEntity
  8
_U+30EC_U+30A4_U+30E4_U+30FC 1
 62
   179
420
  2234388
100
AcDbHatch
 10
0.0
 20
0.0
 30
0.0
210
0.0
220
0.0
230
1.0
  2
SOLID
 70
     1
 71
     0
 91
        1
 92
        1
 93
        1
 72
     4
 94
        3
 73
     0
 74
     1
 95
       53
 96
       49
 40
0.0
 40
0.0
 40
0.0
 40
0.0
 40
1.0
 40
1.0
 40
1.0
 40
2.0
 40
2.0
 40
2.0
 40
3.0
 40
3.0
 40
3.0
 40
4.0
 40
4.0
 40
4.0
 40
5.0
 40
5.0
 40
5.0
 40
6.0
 40
6.0
 40
6.0
 40
7.0
 40
7.0
 40
7.0
 40
8.0
 40
8.0
 40
8.0
 40
9.0
 40
9.0
 40
9.0
 40
10.0
 40
10.0
 40
10.0
 40
11.0
 40
11.0
 40
11.0
 40
12.0
 40
12.0
 40
12.0
 40
13.0
 40
13.0
 40
13.0
 40
14.0
 40
14.0
 40
14.0
 40
15.0
 40
15.0
 40
15.0
 40
16.0
 40
16.0
 40
16.0
 40
16.0
 10
86.82432994791198
 20
-146.6167181708111
 10
86.74612628039681
 20
-146.6167181708111
 10
86.64449596358193
 20
-146.5998372029334
 10
86.54286564676707
 20
-146.5364474460048
 10
86.36957734385899
 20
-146.4265489000253
 10
86.34821775185046
 20
-146.2952907620373
 10
86.32926972668157
 20
-146.187459273349
 10
86.32926972668157
 20
-146.187459273349
 10
86.5514783854802
 20
-146.187459273349
 10
86.5514783854802
 20
-146.187459273349
 10
86.60625540369566
 20
-146.3862412828479
 10
86.73337942710138
 20
-146.415869104021
 10
86.82639700520313
 20
-146.415869104021
 10
86.96592337235575
 20
-146.415869104021
 10
87.11819659280378
 20
-146.3163058444973
 10
87.11819659280378
 20
-146.0837618992429
 10
87.11819659280378
 20
-145.8277913046889
 10
86.93836260847375
 20
-145.7578558663383
 10
86.81778426649001
 20
-145.7578558663383
 10
86.7860893880257
 20
-145.7578558663383
 10
86.64449596358193
 20
-145.7578558663383
 10
86.5556125000625
 20
-145.8870469470352
 10
86.5556125000625
 20
-145.8870469470352
 10
86.37991263031475
 20
-145.8680989218663
 10
86.37991263031475
 20
-145.8680989218663
 10
86.37991263031475
 20
-145.8680989218663
 10
86.5004909722985
 20
-145.0216389611404
 10
86.5004909722985
 20
-145.0216389611404
 10
86.5004909722985
 20
-145.0216389611404
 10
87.27908255196496
 20
-145.0216389611404
 10
87.27908255196496
 20
-145.0216389611404
 10
87.27908255196496
 20
-145.0216389611404
 10
87.27908255196496
 20
-145.2162868560571
 10
87.27908255196496
 20
-145.2162868560571
 10
87.27908255196496
 20
-145.2162868560571
 10
86.66344398875081
 20
-145.2162868560571
 10
86.66344398875081
 20
-145.2162868560571
 10
86.66344398875081
 20
-145.2162868560571
 10
86.59798717453106
 20
-145.6393445816457
 10
86.59798717453106
 20
-145.6393445816457
 10
86.65930987416851
 20
-145.6055826458903
 10
86.74164765626598
 20
-145.5652750287128
 10
86.86015894095857
 20
-145.5652750287128
 10
87.11406247822148
 20
-145.5652750287128
 10
87.35108504760667
 20
-145.7516546944649
 10
87.35108504760667
 20
-146.0648138740741
 10
87.35108504760667
 20
-146.3821071682656
 10
87.12680933151691
 20
-146.6167181708111
 10
86.82432994791198
 20
-146.6167181708111
 97
        0
 97
        0
 75
     2
 76
     1
 98
        0
  0
ENDBLK
  5
EF
330
EC
100
AcDbEntity
  8
0
100
AcDbBlockEnd
  0
BLOCK
  5
FE
330
FC
100
AcDbEntity
  8
0
100
AcDbBlockBegin
  2
block 6
 70
     0
 10
0.0
 20
0.0
 30
0.0
  3
block 6
  1

  0
SPLINE
  5
100
330
FC
100
AcDbEntity
  8
_U+30EC_U+30A4_U+30E4_U+30FC 1
370
     0
100
AcDbSpline
210
0.0
220
0.0
230
1.0
 70
    11
 71
     3
 72
    26
 73
    22
 74
     0
 42
0.0000000001
 43
0.0000000001
 12
1.0
 22
0.0
 32
0.0
 13
1.0
 23
0.0
 33
0.0
 40
0.0
 40
0.0
 40
0.0
 40
0.0
 40
1.0
 40
1.0
 40
1.0
 40
2.0
 40
2.0
 40
2.0
 40
3.0
 40
3.0
 40
3.0
 40
4.0
 40
4.0
 40
4.0
 40
5.0
 40
5.0
 40
5.0
 40
6.0
 40
6.0
 40
6.0
 40
7.0
 40
7.0
 40
7.0
 40
7.0
 10
98.69957408556817
 20
-146.5660752671779
 30
0.0
 10
98.69957408556817
 20
-146.5660752671779
 30
0.0
 10
98.69957408556817
 20
-145.4619221641554
 30
0.0
 10
98.69957408556817
 20
-145.4619221641554
 30
0.0
 10
98.69957408556817
 20
-145.4619221641554
 30
0.0
 10
98.36953393808123
 20
-145.4619221641554
 30
0.0
 10
98.36953393808123
 20
-145.4619221641554
 30
0.0
 10
98.36953393808123
 20
-145.4619221641554
 30
0.0
 10
98.36953393808123
 20
-145.3137830582896
 30
0.0
 10
98.36953393808123
 20
-145.3137830582896
 30
0.0
 10
98.70164114285932
 20
-145.298969147703
 30
0.0
 10
98.74814993191019
 20
-145.1360161312507
 30
0.0
 10
98.77777775308334
 20
-145.0216389611404
 30
0.0
 10
98.77777775308334
 20
-145.0216389611404
 30
0.0
 10
98.92384980165794
 20
-145.0216389611404
 30
0.0
 10
98.92384980165794
 20
-145.0216389611404
 30
0.0
 10
98.92384980165794
 20
-145.0216389611404
 30
0.0
 10
98.92384980165794
 20
-146.5660752671779
 30
0.0
 10
98.92384980165794
 20
-146.5660752671779
 30
0.0
 10
98.92384980165794
 20
-146.5660752671779
 30
0.0
 10
98.69957408556817
 20
-146.5660752671779
 30
0.0
 10
98.69957408556817
 20
-146.5660752671779
 30
0.0
  0
HATCH
  5
101
330
FC
100
AcDbEntity
  8
_U+30EC_U+30A4_U+30E4_U+30FC 1
 62
   179
420
  2234388
100
AcDbHatch
 10
0.0
 20
0.0
 30
0.0
210
0.0
220
0.0
230
1.0
  2
SOLID
 70
     1
 71
     0
 91
        1
 92
        1
 93
        1
 72
     4
 94
        3
 73
     0
 74
     1
 95
       26
 96
       22
 40
0.0
 40
0.0
 40
0.0
 40
0.0
 40
1.0
 40
1.0
 40
1.0
 40
2.0
 40
2.0
 40
2.0
 40
3.0
 40
3.0
 40
3.0
 40
4.0
 40
4.0
 40
4.0
 40
5.0
 40
5.0
 40
5.0
 40
6.0
 40
6.0
 40
6.0
 40
7.0
 40
7.0
 40
7.0
 40
7.0
 10
98.69957408556817
 20
-146.5660752671779
 10
98.69957408556817
 20
-146.5660752671779
 10
98.69957408556817
 20
-145.4619221641554
 10
98.69957408556817
 20
-145.4619221641554
 10
98.69957408556817
 20
-145.4619221641554
 10
98.36953393808123
 20
-145.4619221641554
 10
98.36953393808123
 20
-145.4619221641554
 10
98.36953393808123
 20
-145.4619221641554
 10
98.36953393808123
 20
-145.3137830582896
 10
98.36953393808123
 20
-145.3137830582896
 10
98.70164114285932
 20
-145.298969147703
 10
98.74814993191019
 20
-145.1360161312507
 10
98.77777775308334
 20
-145.0216389611404
 10
98.77777775308334
 20
-145.0216389611404
 10
98.92384980165794
 20
-145.0216389611404
 10
98.92384980165794
 20
-145.0216389611404
 10
98.92384980165794
 20
-145.0216389611404
 10
98.92384980165794
 20
-146.5660752671779
 10
98.92384980165794
 20
-146.5660752671779
 10
98.92384980165794
 20
-146.5660752671779
 10
98.69957408556817
 20
-146.5660752671779
 10
98.69957408556817
 20
-146.5660752671779
 97
        0
 97
        0
 75
     2
 76
     1
 98
        0
  0
SPLINE
  5
102
330
FC
100
AcDbEntity
  8
_U+30EC_U+30A4_U+30E4_U+30FC 1
370
     0
100
AcDbSpline
210
0.0
220
0.0
230
1.0
 70
    11
 71
     3
 72
    44
 73
    40
 74
     0
 42
0.0000000001
 43
0.0000000001
 12
1.0
 22
0.0
 32
0.0
 13
1.0
 23
0.0
 33
0.0
 40
0.0
 40
0.0
 40
0.0
 40
0.0
 40
1.0
 40
1.0
 40
1.0
 40
2.0
 40
2.0
 40
2.0
 40
3.0
 40
3.0
 40
3.0
 40
4.0
 40
4.0
 40
4.0
 40
5.0
 40
5.0
 40
5.0
 40
6.0
 40
6.0
 40
6.0
 40
7.0
 40
7.0
 40
7.0
 40
8.0
 40
8.0
 40
8.0
 40
9.0
 40
9.0
 40
9.0
 40
10.0
 40
10.0
 40
10.0
 40
11.0
 40
11.0
 40
11.0
 40
12.0
 40
12.0
 40
12.0
 40
13.0
 40
13.0
 40
13.0
 40
13.0
 10
100.0180121277733
 20
-145.9841986397192
 30
0.0
 10
99.8002820931055
 20
-146.1430175415892
 30
0.0
 10
99.70726451500374
 20
-146.2170870945221
 30
0.0
 10
99.6583441591132
 20
-146.360747576257
 30
0.0
 10
99.6583441591132
 20
-146.360747576257
 30
0.0
 10
100.4369357387797
 20
-146.360747576257
 30
0.0
 10
100.4369357387797
 20
-146.360747576257
 30
0.0
 10
100.4369357387797
 20
-146.360747576257
 30
0.0
 10
100.4369357387797
 20
-146.5660752671779
 30
0.0
 10
100.4369357387797
 20
-146.5660752671779
 30
0.0
 10
100.4369357387797
 20
-146.5660752671779
 30
0.0
 10
99.40891924598111
 20
-146.5660752671779
 30
0.0
 10
99.40891924598111
 20
-146.5660752671779
 30
0.0
 10
99.4406141244454
 20
-146.208474355809
 30
0.0
 10
99.50607093866515
 20
-146.1302706882938
 30
0.0
 10
99.89123261391609
 20
-145.8319254192712
 30
0.0
 10
100.1472032084701
 20
-145.6331434097723
 30
0.0
 10
100.2126600226899
 20
-145.5652750287128
 30
0.0
 10
100.2126600226899
 20
-145.4278157188514
 30
0.0
 10
100.2126600226899
 20
-145.3093044341588
 30
0.0
 10
100.1406575270482
 20
-145.1783908057193
 30
0.0
 10
99.9439425748404
 20
-145.1783908057193
 30
0.0
 10
99.68383786570405
 20
-145.1783908057193
 30
0.0
 10
99.67522512699092
 20
-145.4088676936825
 30
0.0
 10
99.67109101240862
 20
-145.525311921084
 30
0.0
 10
99.67109101240862
 20
-145.525311921084
 30
0.0
 10
99.44681529631886
 20
-145.525311921084
 30
0.0
 10
99.44681529631886
 20
-145.525311921084
 30
0.0
 10
99.45542803503199
 20
-145.3981878976782
 30
0.0
 10
99.46610783103625
 20
-145.2862222944076
 30
0.0
 10
99.54637855584258
 20
-145.167711009715
 30
0.0
 10
99.65627710182204
 20
-145.0068250505539
 30
0.0
 10
99.84265676757406
 20
-144.9730631147984
 30
0.0
 10
99.95875648542699
 20
-144.9730631147984
 30
0.0
 10
100.2360866719896
 20
-144.9730631147984
 30
0.0
 10
100.4434814202016
 20
-145.1570312137108
 30
0.0
 10
100.4434814202016
 20
-145.4298827761425
 30
0.0
 10
100.4434814202016
 20
-145.6586371163631
 30
0.0
 10
100.3270371928002
 20
-145.7578558663383
 30
0.0
 10
100.0180121277733
 20
-145.9841986397192
 30
0.0
  0
HATCH
  5
103
330
FC
100
AcDbEntity
  8
_U+30EC_U+30A4_U+30E4_U+30FC 1
 62
   179
420
  2234388
100
AcDbHatch
 10
0.0
 20
0.0
 30
0.0
210
0.0
220
0.0
230
1.0
  2
SOLID
 70
     1
 71
     0
 91
        1
 92
        1
 93
        1
 72
     4
 94
        3
 73
     0
 74
     1
 95
       44
 96
       40
 40
0.0
 40
0.0
 40
0.0
 40
0.0
 40
1.0
 40
1.0
 40
1.0
 40
2.0
 40
2.0
 40
2.0
 40
3.0
 40
3.0
 40
3.0
 40
4.0
 40
4.0
 40
4.0
 40
5.0
 40
5.0
 40
5.0
 40
6.0
 40
6.0
 40
6.0
 40
7.0
 40
7.0
 40
7.0
 40
8.0
 40
8.0
 40
8.0
 40
9.0
 40
9.0
 40
9.0
 40
10.0
 40
10.0
 40
10.0
 40
11.0
 40
11.0
 40
11.0
 40
12.0
 40
12.0
 40
12.0
 40
13.0
 40
13.0
 40
13.0
 40
13.0
 10
100.0180121277733
 20
-145.9841986397192
 10
99.8002820931055
 20
-146.1430175415892
 10
99.70726451500374
 20
-146.2170870945221
 10
99.6583441591132
 20
-146.360747576257
 10
99.6583441591132
 20
-146.360747576257
 10
100.4369357387797
 20
-146.360747576257
 10
100.4369357387797
 20
-146.360747576257
 10
100.4369357387797
 20
-146.360747576257
 10
100.4369357387797
 20
-146.5660752671779
 10
100.4369357387797
 20
-146.5660752671779
 10
100.4369357387797
 20
-146.5660752671779
 10
99.40891924598111
 20
-146.5660752671779
 10
99.40891924598111
 20
-146.5660752671779
 10
99.4406141244454
 20
-146.208474355809
 10
99.50607093866515
 20
-146.1302706882938
 10
99.89123261391609
 20
-145.8319254192712
 10
100.1472032084701
 20
-145.6331434097723
 10
100.2126600226899
 20
-145.5652750287128
 10
100.2126600226899
 20
-145.4278157188514
 10
100.2126600226899
 20
-145.3093044341588
 10
100.1406575270482
 20
-145.1783908057193
 10
99.9439425748404
 20
-145.1783908057193
 10
99.68383786570405
 20
-145.1783908057193
 10
99.67522512699092
 20
-145.4088676936825
 10
99.67109101240862
 20
-145.525311921084
 10
99.67109101240862
 20
-145.525311921084
 10
99.44681529631886
 20
-145.525311921084
 10
99.44681529631886
 20
-145.525311921084
 10
99.45542803503199
 20
-145.3981878976782
 10
99.46610783103625
 20
-145.2862222944076
 10
99.54637855584258
 20
-145.167711009715
 10
99.65627710182204
 20
-145.0068250505539
 10
99.84265676757406
 20
-144.9730631147984
 10
99.95875648542699
 20
-144.9730631147984
 10
100.2360866719896
 20
-144.9730631147984
 10
100.4434814202016
 20
-145.1570312137108
 10
100.4434814202016
 20
-145.4298827761425
 10
100.4434814202016
 20
-145.6586371163631
 10
100.3270371928002
 20
-145.7578558663383
 10
100.0180121277733
 20
-145.9841986397192
 97
        0
 97
        0
 75
     2
 76
     1
 98
        0
  0
POLYLINE
  5
104
330
FC
100
AcDbEntity
  8
_U+30EC_U+30A4_U+30E4_U+30FC 1
370
     0
100
AcDb2dPolyline
 66
     1
 10
0.0
 20
0.0
 30
0.0
  0
VERTEX
  5
105
330
104
100
AcDbEntity
  8
_U+30EC_U+30A4_U+30E4_U+30FC 1
370
     0
100
AcDbVertex
100
AcDb2dVertex
 10
100.6619004739665
 20
-146.5660752671779
 30
0.0
  0
VERTEX
  5
106
330
104
100
AcDbEntity
  8
_U+30EC_U+30A4_U+30E4_U+30FC 1
370
     0
100
AcDbVertex
100
AcDb2dVertex
 10
100.6619004739665
 20
-146.3142387872062
 30
0.0
  0
VERTEX
  5
107
330
104
100
AcDbEntity
  8
_U+30EC_U+30A4_U+30E4_U+30FC 1
370
     0
100
AcDbVertex
100
AcDb2dVertex
 10
100.9137369539382
 20
-146.3142387872062
 30
0.0
  0
VERTEX
  5
108
330
104
100
AcDbEntity
  8
_U+30EC_U+30A4_U+30E4_U+30FC 1
370
     0
100
AcDbVertex
100
AcDb2dVertex
 10
100.9137369539382
 20
-146.5660752671779
 30
0.0
  0
VERTEX
  5
109
330
104
100
AcDbEntity
  8
_U+30EC_U+30A4_U+30E4_U+30FC 1
370
     0
100
AcDbVertex
100
AcDb2dVertex
 10
100.6619004739665
 20
-146.5660752671779
 30
0.0
  0
SEQEND
  5
10A
330
104
100
AcDbEntity
  8
_U+30EC_U+30A4_U+30E4_U+30FC 1
370
     0
  0
HATCH
  5
10B
330
FC
100
AcDbEntity
  8
_U+30EC_U+30A4_U+30E4_U+30FC 1
 62
   179
420
  2234388
100
AcDbHatch
 10
0.0
 20
0.0
 30
0.0
210
0.0
220
0.0
230
1.0
  2
SOLID
 70
     1
 71
     0
 91
        1
 92
        1
 93
        4
 72
     1
 10
100.6619004739665
 20
-146.5660752671779
 11
100.6619004739665
 21
-146.3142387872062
 72
     1
 10
100.6619004739665
 20
-146.3142387872062
 11
100.9137369539382
 21
-146.3142387872062
 72
     1
 10
100.9137369539382
 20
-146.3142387872062
 11
100.9137369539382
 21
-146.5660752671779
 72
     1
 10
100.9137369539382
 20
-146.5660752671779
 11
100.6619004739665
 21
-146.5660752671779
 97
        0
 75
     2
 76
     1
 98
        0
  0
SPLINE
  5
10C
330
FC
100
AcDbEntity
  8
_U+30EC_U+30A4_U+30E4_U+30FC 1
370
     0
100
AcDbSpline
210
0.0
220
0.0
230
1.0
 70
    11
 71
     3
 72
    53
 73
    49
 74
     0
 42
0.0000000001
 43
0.0000000001
 12
1.0
 22
0.0
 32
0.0
 13
1.0
 23
0.0
 33
0.0
 40
0.0
 40
0.0
 40
0.0
 40
0.0
 40
1.0
 40
1.0
 40
1.0
 40
2.0
 40
2.0
 40
2.0
 40
3.0
 40
3.0
 40
3.0
 40
4.0
 40
4.0
 40
4.0
 40
5.0
 40
5.0
 40
5.0
 40
6.0
 40
6.0
 40
6.0
 40
7.0
 40
7.0
 40
7.0
 40
8.0
 40
8.0
 40
8.0
 40
9.0
 40
9.0
 40
9.0
 40
10.0
 40
10.0
 40
10.0
 40
11.0
 40
11.0
 40
11.0
 40
12.0
 40
12.0
 40
12.0
 40
13.0
 40
13.0
 40
13.0
 40
14.0
 40
14.0
 40
14.0
 40
15.0
 40
15.0
 40
15.0
 40
16.0
 40
16.0
 40
16.0
 40
16.0
 10
101.6310058339673
 20
-146.6167181708111
 30
0.0
 10
101.5528021664521
 20
-146.6167181708111
 30
0.0
 10
101.4511718496372
 20
-146.5998372029334
 30
0.0
 10
101.3495415328223
 20
-146.5364474460048
 30
0.0
 10
101.1762532299143
 20
-146.4265489000253
 30
0.0
 10
101.1548936379057
 20
-146.2952907620373
 30
0.0
 10
101.1359456127368
 20
-146.187459273349
 30
0.0
 10
101.1359456127368
 20
-146.187459273349
 30
0.0
 10
101.3581542715355
 20
-146.187459273349
 30
0.0
 10
101.3581542715355
 20
-146.187459273349
 30
0.0
 10
101.4129312897509
 20
-146.3862412828479
 30
0.0
 10
101.5400553131567
 20
-146.415869104021
 30
0.0
 10
101.6330728912584
 20
-146.415869104021
 30
0.0
 10
101.772599258411
 20
-146.415869104021
 30
0.0
 10
101.9248724788591
 20
-146.3163058444973
 30
0.0
 10
101.9248724788591
 20
-146.0837618992429
 30
0.0
 10
101.9248724788591
 20
-145.8277913046889
 30
0.0
 10
101.745038494529
 20
-145.7578558663383
 30
0.0
 10
101.6244601525453
 20
-145.7578558663383
 30
0.0
 10
101.592765274081
 20
-145.7578558663383
 30
0.0
 10
101.4511718496372
 20
-145.7578558663383
 30
0.0
 10
101.3622883861178
 20
-145.8870469470352
 30
0.0
 10
101.3622883861178
 20
-145.8870469470352
 30
0.0
 10
101.18658851637
 20
-145.8680989218663
 30
0.0
 10
101.18658851637
 20
-145.8680989218663
 30
0.0
 10
101.18658851637
 20
-145.8680989218663
 30
0.0
 10
101.3071668583538
 20
-145.0216389611404
 30
0.0
 10
101.3071668583538
 20
-145.0216389611404
 30
0.0
 10
101.3071668583538
 20
-145.0216389611404
 30
0.0
 10
102.0857584380202
 20
-145.0216389611404
 30
0.0
 10
102.0857584380202
 20
-145.0216389611404
 30
0.0
 10
102.0857584380202
 20
-145.0216389611404
 30
0.0
 10
102.0857584380202
 20
-145.2162868560571
 30
0.0
 10
102.0857584380202
 20
-145.2162868560571
 30
0.0
 10
102.0857584380202
 20
-145.2162868560571
 30
0.0
 10
101.4701198748061
 20
-145.2162868560571
 30
0.0
 10
101.4701198748061
 20
-145.2162868560571
 30
0.0
 10
101.4701198748061
 20
-145.2162868560571
 30
0.0
 10
101.4046630605863
 20
-145.6393445816457
 30
0.0
 10
101.4046630605863
 20
-145.6393445816457
 30
0.0
 10
101.4659857602238
 20
-145.6055826458903
 30
0.0
 10
101.5483235423213
 20
-145.5652750287128
 30
0.0
 10
101.6668348270139
 20
-145.5652750287128
 30
0.0
 10
101.9207383642768
 20
-145.5652750287128
 30
0.0
 10
102.1577609336619
 20
-145.7516546944649
 30
0.0
 10
102.1577609336619
 20
-146.0648138740741
 30
0.0
 10
102.1577609336619
 20
-146.3821071682656
 30
0.0
 10
101.9334852175722
 20
-146.6167181708111
 30
0.0
 10
101.6310058339673
 20
-146.6167181708111
 30
0.0
  0
HATCH
  5
10D
330
FC
100
AcDbEntity
  8
_U+30EC_U+30A4_U+30E4_U+30FC 1
 62
   179
420
  2234388
100
AcDbHatch
 10
0.0
 20
0.0
 30
0.0
210
0.0
220
0.0
230
1.0
  2
SOLID
 70
     1
 71
     0
 91
        1
 92
        1
 93
        1
 72
     4
 94
        3
 73
     0
 74
     1
 95
       53
 96
       49
 40
0.0
 40
0.0
 40
0.0
 40
0.0
 40
1.0
 40
1.0
 40
1.0
 40
2.0
 40
2.0
 40
2.0
 40
3.0
 40
3.0
 40
3.0
 40
4.0
 40
4.0
 40
4.0
 40
5.0
 40
5.0
 40
5.0
 40
6.0
 40
6.0
 40
6.0
 40
7.0
 40
7.0
 40
7.0
 40
8.0
 40
8.0
 40
8.0
 40
9.0
 40
9.0
 40
9.0
 40
10.0
 40
10.0
 40
10.0
 40
11.0
 40
11.0
 40
11.0
 40
12.0
 40
12.0
 40
12.0
 40
13.0
 40
13.0
 40
13.0
 40
14.0
 40
14.0
 40
14.0
 40
15.0
 40
15.0
 40
15.0
 40
16.0
 40
16.0
 40
16.0
 40
16.0
 10
101.6310058339673
 20
-146.6167181708111
 10
101.5528021664521
 20
-146.6167181708111
 10
101.4511718496372
 20
-146.5998372029334
 10
101.3495415328223
 20
-146.5364474460048
 10
101.1762532299143
 20
-146.4265489000253
 10
101.1548936379057
 20
-146.2952907620373
 10
101.1359456127368
 20
-146.187459273349
 10
101.1359456127368
 20
-146.187459273349
 10
101.3581542715355
 20
-146.187459273349
 10
101.3581542715355
 20
-146.187459273349
 10
101.4129312897509
 20
-146.3862412828479
 10
101.5400553131567
 20
-146.415869104021
 10
101.6330728912584
 20
-146.415869104021
 10
101.772599258411
 20
-146.415869104021
 10
101.9248724788591
 20
-146.3163058444973
 10
101.9248724788591
 20
-146.0837618992429
 10
101.9248724788591
 20
-145.8277913046889
 10
101.745038494529
 20
-145.7578558663383
 10
101.6244601525453
 20
-145.7578558663383
 10
101.592765274081
 20
-145.7578558663383
 10
101.4511718496372
 20
-145.7578558663383
 10
101.3622883861178
 20
-145.8870469470352
 10
101.3622883861178
 20
-145.8870469470352
 10
101.18658851637
 20
-145.8680989218663
 10
101.18658851637
 20
-145.8680989218663
 10
101.18658851637
 20
-145.8680989218663
 10
101.3071668583538
 20
-145.0216389611404
 10
101.3071668583538
 20
-145.0216389611404
 10
101.3071668583538
 20
-145.0216389611404
 10
102.0857584380202
 20
-145.0216389611404
 10
102.0857584380202
 20
-145.0216389611404
 10
102.0857584380202
 20
-145.0216389611404
 10
102.0857584380202
 20
-145.2162868560571
 10
102.0857584380202
 20
-145.2162868560571
 10
102.0857584380202
 20
-145.2162868560571
 10
101.4701198748061
 20
-145.2162868560571
 10
101.4701198748061
 20
-145.2162868560571
 10
101.4701198748061
 20
-145.2162868560571
 10
101.4046630605863
 20
-145.6393445816457
 10
101.4046630605863
 20
-145.6393445816457
 10
101.4659857602238
 20
-145.6055826458903
 10
101.5483235423213
 20
-145.5652750287128
 10
101.6668348270139
 20
-145.5652750287128
 10
101.9207383642768
 20
-145.5652750287128
 10
102.1577609336619
 20
-145.7516546944649
 10
102.1577609336619
 20
-146.0648138740741
 10
102.1577609336619
 20
-146.3821071682656
 10
101.9334852175722
 20
-146.6167181708111
 10
101.6310058339673
 20
-146.6167181708111
 97
        0
 97
        0
 75
     2
 76
     1
 98
        0
  0
ENDBLK
  5
FF
330
FC
100
AcDbEntity
  8
0
100
AcDbBlockEnd
  0
BLOCK
  5
118
330
116
100
AcDbEntity
  8
0
100
AcDbBlockBegin
  2
block 7
 70
     0
 10
0.0
 20
0.0
 30
0.0
  3
block 7
  1

  0
SPLINE
  5
11A
330
116
100
AcDbEntity
  8
_U+30EC_U+30A4_U+30E4_U+30FC 1
370
     0
100
AcDbSpline
210
0.0
220
0.0
230
1.0
 70
    11
 71
     3
 72
    53
 73
    49
 74
     0
 42
0.0000000001
 43
0.0000000001
 12
1.0
 22
0.0
 32
0.0
 13
1.0
 23
0.0
 33
0.0
 40
0.0
 40
0.0
 40
0.0
 40
0.0
 40
1.0
 40
1.0
 40
1.0
 40
2.0
 40
2.0
 40
2.0
 40
3.0
 40
3.0
 40
3.0
 40
4.0
 40
4.0
 40
4.0
 40
5.0
 40
5.0
 40
5.0
 40
6.0
 40
6.0
 40
6.0
 40
7.0
 40
7.0
 40
7.0
 40
8.0
 40
8.0
 40
8.0
 40
9.0
 40
9.0
 40
9.0
 40
10.0
 40
10.0
 40
10.0
 40
11.0
 40
11.0
 40
11.0
 40
12.0
 40
12.0
 40
12.0
 40
13.0
 40
13.0
 40
13.0
 40
14.0
 40
14.0
 40
14.0
 40
15.0
 40
15.0
 40
15.0
 40
16.0
 40
16.0
 40
16.0
 40
16.0
 10
97.28501787932458
 20
-138.2461696702996
 30
0.0
 10
97.28501787932458
 20
-138.3243733378147
 30
0.0
 10
97.26813691144686
 20
-138.4260036546296
 30
0.0
 10
97.20474715451826
 20
-138.5276339714445
 30
0.0
 10
97.0948486085388
 20
-138.7009222743526
 30
0.0
 10
96.96359047055077
 20
-138.7222818663611
 30
0.0
 10
96.85575898186245
 20
-138.74122989153
 30
0.0
 10
96.85575898186245
 20
-138.74122989153
 30
0.0
 10
96.85575898186245
 20
-138.5190212327314
 30
0.0
 10
96.85575898186245
 20
-138.5190212327314
 30
0.0
 10
97.05454099136136
 20
-138.4642442145159
 30
0.0
 10
97.08416881253451
 20
-138.3371201911102
 30
0.0
 10
97.08416881253451
 20
-138.2441026130084
 30
0.0
 10
97.08416881253451
 20
-138.1045762458558
 30
0.0
 10
96.9846055530108
 20
-137.9523030254078
 30
0.0
 10
96.75206160775643
 20
-137.9523030254078
 30
0.0
 10
96.49609101320237
 20
-137.9523030254078
 30
0.0
 10
96.4261555748518
 20
-138.1321370097378
 30
0.0
 10
96.4261555748518
 20
-138.2527153517215
 30
0.0
 10
96.4261555748518
 20
-138.2844102301858
 30
0.0
 10
96.4261555748518
 20
-138.4260036546296
 30
0.0
 10
96.55534665554866
 20
-138.5148871181491
 30
0.0
 10
96.55534665554866
 20
-138.5148871181491
 30
0.0
 10
96.5363986303798
 20
-138.6905869878968
 30
0.0
 10
96.5363986303798
 20
-138.6905869878968
 30
0.0
 10
96.5363986303798
 20
-138.6905869878968
 30
0.0
 10
95.68993866965391
 20
-138.570008645913
 30
0.0
 10
95.68993866965391
 20
-138.570008645913
 30
0.0
 10
95.68993866965391
 20
-138.570008645913
 30
0.0
 10
95.68993866965391
 20
-137.7914170662466
 30
0.0
 10
95.68993866965391
 20
-137.7914170662466
 30
0.0
 10
95.68993866965391
 20
-137.7914170662466
 30
0.0
 10
95.88458656457053
 20
-137.7914170662466
 30
0.0
 10
95.88458656457053
 20
-137.7914170662466
 30
0.0
 10
95.88458656457053
 20
-137.7914170662466
 30
0.0
 10
95.88458656457053
 20
-138.4070556294607
 30
0.0
 10
95.88458656457053
 20
-138.4070556294607
 30
0.0
 10
95.88458656457053
 20
-138.4070556294607
 30
0.0
 10
96.3076442901592
 20
-138.4725124436805
 30
0.0
 10
96.3076442901592
 20
-138.4725124436805
 30
0.0
 10
96.27388235440375
 20
-138.411189744043
 30
0.0
 10
96.23357473722633
 20
-138.3288519619456
 30
0.0
 10
96.23357473722633
 20
-138.210340677253
 30
0.0
 10
96.23357473722633
 20
-137.9564371399901
 30
0.0
 10
96.41995440297835
 20
-137.7194145706049
 30
0.0
 10
96.73311358258756
 20
-137.7194145706049
 30
0.0
 10
97.05040687677906
 20
-137.7194145706049
 30
0.0
 10
97.28501787932458
 20
-137.9436902866946
 30
0.0
 10
97.28501787932458
 20
-138.2461696702996
 30
0.0
  0
HATCH
  5
11B
330
116
100
AcDbEntity
  8
_U+30EC_U+30A4_U+30E4_U+30FC 1
 62
   179
420
  2234388
100
AcDbHatch
 10
0.0
 20
0.0
 30
0.0
210
0.0
220
0.0
230
1.0
  2
SOLID
 70
     1
 71
     0
 91
        1
 92
        1
 93
        1
 72
     4
 94
        3
 73
     0
 74
     1
 95
       53
 96
       49
 40
0.0
 40
0.0
 40
0.0
 40
0.0
 40
1.0
 40
1.0
 40
1.0
 40
2.0
 40
2.0
 40
2.0
 40
3.0
 40
3.0
 40
3.0
 40
4.0
 40
4.0
 40
4.0
 40
5.0
 40
5.0
 40
5.0
 40
6.0
 40
6.0
 40
6.0
 40
7.0
 40
7.0
 40
7.0
 40
8.0
 40
8.0
 40
8.0
 40
9.0
 40
9.0
 40
9.0
 40
10.0
 40
10.0
 40
10.0
 40
11.0
 40
11.0
 40
11.0
 40
12.0
 40
12.0
 40
12.0
 40
13.0
 40
13.0
 40
13.0
 40
14.0
 40
14.0
 40
14.0
 40
15.0
 40
15.0
 40
15.0
 40
16.0
 40
16.0
 40
16.0
 40
16.0
 10
97.28501787932458
 20
-138.2461696702996
 10
97.28501787932458
 20
-138.3243733378147
 10
97.26813691144686
 20
-138.4260036546296
 10
97.20474715451826
 20
-138.5276339714445
 10
97.0948486085388
 20
-138.7009222743526
 10
96.96359047055077
 20
-138.7222818663611
 10
96.85575898186245
 20
-138.74122989153
 10
96.85575898186245
 20
-138.74122989153
 10
96.85575898186245
 20
-138.5190212327314
 10
96.85575898186245
 20
-138.5190212327314
 10
97.05454099136136
 20
-138.4642442145159
 10
97.08416881253451
 20
-138.3371201911102
 10
97.08416881253451
 20
-138.2441026130084
 10
97.08416881253451
 20
-138.1045762458558
 10
96.9846055530108
 20
-137.9523030254078
 10
96.75206160775643
 20
-137.9523030254078
 10
96.49609101320237
 20
-137.9523030254078
 10
96.4261555748518
 20
-138.1321370097378
 10
96.4261555748518
 20
-138.2527153517215
 10
96.4261555748518
 20
-138.2844102301858
 10
96.4261555748518
 20
-138.4260036546296
 10
96.55534665554866
 20
-138.5148871181491
 10
96.55534665554866
 20
-138.5148871181491
 10
96.5363986303798
 20
-138.6905869878968
 10
96.5363986303798
 20
-138.6905869878968
 10
96.5363986303798
 20
-138.6905869878968
 10
95.68993866965391
 20
-138.570008645913
 10
95.68993866965391
 20
-138.570008645913
 10
95.68993866965391
 20
-138.570008645913
 10
95.68993866965391
 20
-137.7914170662466
 10
95.68993866965391
 20
-137.7914170662466
 10
95.68993866965391
 20
-137.7914170662466
 10
95.88458656457053
 20
-137.7914170662466
 10
95.88458656457053
 20
-137.7914170662466
 10
95.88458656457053
 20
-137.7914170662466
 10
95.88458656457053
 20
-138.4070556294607
 10
95.88458656457053
 20
-138.4070556294607
 10
95.88458656457053
 20
-138.4070556294607
 10
96.3076442901592
 20
-138.4725124436805
 10
96.3076442901592
 20
-138.4725124436805
 10
96.27388235440375
 20
-138.411189744043
 10
96.23357473722633
 20
-138.3288519619456
 10
96.23357473722633
 20
-138.210340677253
 10
96.23357473722633
 20
-137.9564371399901
 10
96.41995440297835
 20
-137.7194145706049
 10
96.73311358258756
 20
-137.7194145706049
 10
97.05040687677906
 20
-137.7194145706049
 10
97.28501787932458
 20
-137.9436902866946
 10
97.28501787932458
 20
-138.2461696702996
 97
        0
 97
        0
 75
     2
 76
     1
 98
        0
  0
POLYLINE
  5
11C
330
116
100
AcDbEntity
  8
_U+30EC_U+30A4_U+30E4_U+30FC 1
370
     0
100
AcDb2dPolyline
 66
     1
 10
0.0
 20
0.0
 30
0.0
  0
VERTEX
  5
11D
330
11C
100
AcDbEntity
  8
_U+30EC_U+30A4_U+30E4_U+30FC 1
370
     0
100
AcDbVertex
100
AcDb2dVertex
 10
97.23437497569141
 20
-137.4903157208358
 30
0.0
  0
VERTEX
  5
11E
330
11C
100
AcDbEntity
  8
_U+30EC_U+30A4_U+30E4_U+30FC 1
370
     0
100
AcDbVertex
100
AcDb2dVertex
 10
96.98253849571965
 20
-137.4903157208358
 30
0.0
  0
VERTEX
  5
11F
330
11C
100
AcDbEntity
  8
_U+30EC_U+30A4_U+30E4_U+30FC 1
370
     0
100
AcDbVertex
100
AcDb2dVertex
 10
96.98253849571965
 20
-137.238479240864
 30
0.0
  0
VERTEX
  5
120
330
11C
100
AcDbEntity
  8
_U+30EC_U+30A4_U+30E4_U+30FC 1
370
     0
100
AcDbVertex
100
AcDb2dVertex
 10
97.23437497569141
 20
-137.238479240864
 30
0.0
  0
VERTEX
  5
121
330
11C
100
AcDbEntity
  8
_U+30EC_U+30A4_U+30E4_U+30FC 1
370
     0
100
AcDbVertex
100
AcDb2dVertex
 10
97.23437497569141
 20
-137.4903157208358
 30
0.0
  0
SEQEND
  5
122
330
11C
100
AcDbEntity
  8
_U+30EC_U+30A4_U+30E4_U+30FC 1
370
     0
  0
HATCH
  5
123
330
116
100
AcDbEntity
  8
_U+30EC_U+30A4_U+30E4_U+30FC 1
 62
   179
420
  2234388
100
AcDbHatch
 10
0.0
 20
0.0
 30
0.0
210
0.0
220
0.0
230
1.0
  2
SOLID
 70
     1
 71
     0
 91
        1
 92
        1
 93
        4
 72
     1
 10
97.23437497569141
 20
-137.4903157208358
 11
96.98253849571965
 21
-137.4903157208358
 72
     1
 10
96.98253849571965
 20
-137.4903157208358
 11
96.98253849571965
 21
-137.238479240864
 72
     1
 10
96.98253849571965
 20
-137.238479240864
 11
97.23437497569141
 21
-137.238479240864
 72
     1
 10
97.23437497569141
 20
-137.238479240864
 11
97.23437497569141
 21
-137.4903157208358
 97
        0
 75
     2
 76
     1
 98
        0
  0
SPLINE
  5
124
330
116
100
AcDbEntity
  8
_U+30EC_U+30A4_U+30E4_U+30FC 1
370
     0
100
AcDbSpline
210
0.0
220
0.0
230
1.0
 70
    11
 71
     3
 72
    53
 73
    49
 74
     0
 42
0.0000000001
 43
0.0000000001
 12
1.0
 22
0.0
 32
0.0
 13
1.0
 23
0.0
 33
0.0
 40
0.0
 40
0.0
 40
0.0
 40
0.0
 40
1.0
 40
1.0
 40
1.0
 40
2.0
 40
2.0
 40
2.0
 40
3.0
 40
3.0
 40
3.0
 40
4.0
 40
4.0
 40
4.0
 40
5.0
 40
5.0
 40
5.0
 40
6.0
 40
6.0
 40
6.0
 40
7.0
 40
7.0
 40
7.0
 40
8.0
 40
8.0
 40
8.0
 40
9.0
 40
9.0
 40
9.0
 40
10.0
 40
10.0
 40
10.0
 40
11.0
 40
11.0
 40
11.0
 40
12.0
 40
12.0
 40
12.0
 40
13.0
 40
13.0
 40
13.0
 40
14.0
 40
14.0
 40
14.0
 40
15.0
 40
15.0
 40
15.0
 40
16.0
 40
16.0
 40
16.0
 40
16.0
 10
97.28501787932458
 20
-136.521210360835
 30
0.0
 10
97.28501787932458
 20
-136.5994140283501
 30
0.0
 10
97.26813691144686
 20
-136.701044345165
 30
0.0
 10
97.20474715451826
 20
-136.8026746619799
 30
0.0
 10
97.0948486085388
 20
-136.975962964888
 30
0.0
 10
96.96359047055077
 20
-136.9973225568965
 30
0.0
 10
96.85575898186245
 20
-137.0162705820654
 30
0.0
 10
96.85575898186245
 20
-137.0162705820654
 30
0.0
 10
96.85575898186245
 20
-136.7940619232668
 30
0.0
 10
96.85575898186245
 20
-136.7940619232668
 30
0.0
 10
97.05454099136136
 20
-136.7392849050513
 30
0.0
 10
97.08416881253451
 20
-136.6121608816456
 30
0.0
 10
97.08416881253451
 20
-136.5191433035438
 30
0.0
 10
97.08416881253451
 20
-136.3796169363912
 30
0.0
 10
96.9846055530108
 20
-136.2273437159432
 30
0.0
 10
96.75206160775643
 20
-136.2273437159432
 30
0.0
 10
96.49609101320237
 20
-136.2273437159432
 30
0.0
 10
96.4261555748518
 20
-136.4071777002732
 30
0.0
 10
96.4261555748518
 20
-136.527756042257
 30
0.0
 10
96.4261555748518
 20
-136.5594509207212
 30
0.0
 10
96.4261555748518
 20
-136.701044345165
 30
0.0
 10
96.55534665554866
 20
-136.7899278086845
 30
0.0
 10
96.55534665554866
 20
-136.7899278086845
 30
0.0
 10
96.5363986303798
 20
-136.9656276784322
 30
0.0
 10
96.5363986303798
 20
-136.9656276784322
 30
0.0
 10
96.5363986303798
 20
-136.9656276784322
 30
0.0
 10
95.68993866965391
 20
-136.8450493364485
 30
0.0
 10
95.68993866965391
 20
-136.8450493364485
 30
0.0
 10
95.68993866965391
 20
-136.8450493364485
 30
0.0
 10
95.68993866965391
 20
-136.066457756782
 30
0.0
 10
95.68993866965391
 20
-136.066457756782
 30
0.0
 10
95.68993866965391
 20
-136.066457756782
 30
0.0
 10
95.88458656457053
 20
-136.066457756782
 30
0.0
 10
95.88458656457053
 20
-136.066457756782
 30
0.0
 10
95.88458656457053
 20
-136.066457756782
 30
0.0
 10
95.88458656457053
 20
-136.6820963199962
 30
0.0
 10
95.88458656457053
 20
-136.6820963199962
 30
0.0
 10
95.88458656457053
 20
-136.6820963199962
 30
0.0
 10
96.3076442901592
 20
-136.7475531342159
 30
0.0
 10
96.3076442901592
 20
-136.7475531342159
 30
0.0
 10
96.27388235440375
 20
-136.6862304345784
 30
0.0
 10
96.23357473722633
 20
-136.603892652481
 30
0.0
 10
96.23357473722633
 20
-136.4853813677884
 30
0.0
 10
96.23357473722633
 20
-136.2314778305255
 30
0.0
 10
96.41995440297835
 20
-135.9944552611403
 30
0.0
 10
96.73311358258756
 20
-135.9944552611403
 30
0.0
 10
97.05040687677906
 20
-135.9944552611403
 30
0.0
 10
97.28501787932458
 20
-136.2187309772301
 30
0.0
 10
97.28501787932458
 20
-136.521210360835
 30
0.0
  0
HATCH
  5
125
330
116
100
AcDbEntity
  8
_U+30EC_U+30A4_U+30E4_U+30FC 1
 62
   179
420
  2234388
100
AcDbHatch
 10
0.0
 20
0.0
 30
0.0
210
0.0
220
0.0
230
1.0
  2
SOLID
 70
     1
 71
     0
 91
        1
 92
        1
 93
        1
 72
     4
 94
        3
 73
     0
 74
     1
 95
       53
 96
       49
 40
0.0
 40
0.0
 40
0.0
 40
0.0
 40
1.0
 40
1.0
 40
1.0
 40
2.0
 40
2.0
 40
2.0
 40
3.0
 40
3.0
 40
3.0
 40
4.0
 40
4.0
 40
4.0
 40
5.0
 40
5.0
 40
5.0
 40
6.0
 40
6.0
 40
6.0
 40
7.0
 40
7.0
 40
7.0
 40
8.0
 40
8.0
 40
8.0
 40
9.0
 40
9.0
 40
9.0
 40
10.0
 40
10.0
 40
10.0
 40
11.0
 40
11.0
 40
11.0
 40
12.0
 40
12.0
 40
12.0
 40
13.0
 40
13.0
 40
13.0
 40
14.0
 40
14.0
 40
14.0
 40
15.0
 40
15.0
 40
15.0
 40
16.0
 40
16.0
 40
16.0
 40
16.0
 10
97.28501787932458
 20
-136.521210360835
 10
97.28501787932458
 20
-136.5994140283501
 10
97.26813691144686
 20
-136.701044345165
 10
97.20474715451826
 20
-136.8026746619799
 10
97.0948486085388
 20
-136.975962964888
 10
96.96359047055077
 20
-136.9973225568965
 10
96.85575898186245
 20
-137.0162705820654
 10
96.85575898186245
 20
-137.0162705820654
 10
96.85575898186245
 20
-136.7940619232668
 10
96.85575898186245
 20
-136.7940619232668
 10
97.05454099136136
 20
-136.7392849050513
 10
97.08416881253451
 20
-136.6121608816456
 10
97.08416881253451
 20
-136.5191433035438
 10
97.08416881253451
 20
-136.3796169363912
 10
96.9846055530108
 20
-136.2273437159432
 10
96.75206160775643
 20
-136.2273437159432
 10
96.49609101320237
 20
-136.2273437159432
 10
96.4261555748518
 20
-136.4071777002732
 10
96.4261555748518
 20
-136.527756042257
 10
96.4261555748518
 20
-136.5594509207212
 10
96.4261555748518
 20
-136.701044345165
 10
96.55534665554866
 20
-136.7899278086845
 10
96.55534665554866
 20
-136.7899278086845
 10
96.5363986303798
 20
-136.9656276784322
 10
96.5363986303798
 20
-136.9656276784322
 10
96.5363986303798
 20
-136.9656276784322
 10
95.68993866965391
 20
-136.8450493364485
 10
95.68993866965391
 20
-136.8450493364485
 10
95.68993866965391
 20
-136.8450493364485
 10
95.68993866965391
 20
-136.066457756782
 10
95.68993866965391
 20
-136.066457756782
 10
95.68993866965391
 20
-136.066457756782
 10
95.88458656457053
 20
-136.066457756782
 10
95.88458656457053
 20
-136.066457756782
 10
95.88458656457053
 20
-136.066457756782
 10
95.88458656457053
 20
-136.6820963199962
 10
95.88458656457053
 20
-136.6820963199962
 10
95.88458656457053
 20
-136.6820963199962
 10
96.3076442901592
 20
-136.7475531342159
 10
96.3076442901592
 20
-136.7475531342159
 10
96.27388235440375
 20
-136.6862304345784
 10
96.23357473722633
 20
-136.603892652481
 10
96.23357473722633
 20
-136.4853813677884
 10
96.23357473722633
 20
-136.2314778305255
 10
96.41995440297835
 20
-135.9944552611403
 10
96.73311358258756
 20
-135.9944552611403
 10
97.05040687677906
 20
-135.9944552611403
 10
97.28501787932458
 20
-136.2187309772301
 10
97.28501787932458
 20
-136.521210360835
 97
        0
 97
        0
 75
     2
 76
     1
 98
        0
  0
ENDBLK
  5
119
330
116
100
AcDbEntity
  8
0
100
AcDbBlockEnd
  0
BLOCK
  5
134
330
132
100
AcDbEntity
  8
0
100
AcDbBlockBegin
  2
block 8
 70
     0
 10
0.0
 20
0.0
 30
0.0
  3
block 8
  1

  0
SPLINE
  5
136
330
132
100
AcDbEntity
  8
_U+30EC_U+30A4_U+30E4_U+30FC 1
370
     0
100
AcDbSpline
210
0.0
220
0.0
230
1.0
 70
    11
 71
     3
 72
    53
 73
    49
 74
     0
 42
0.0000000001
 43
0.0000000001
 12
1.0
 22
0.0
 32
0.0
 13
1.0
 23
0.0
 33
0.0
 40
0.0
 40
0.0
 40
0.0
 40
0.0
 40
1.0
 40
1.0
 40
1.0
 40
2.0
 40
2.0
 40
2.0
 40
3.0
 40
3.0
 40
3.0
 40
4.0
 40
4.0
 40
4.0
 40
5.0
 40
5.0
 40
5.0
 40
6.0
 40
6.0
 40
6.0
 40
7.0
 40
7.0
 40
7.0
 40
8.0
 40
8.0
 40
8.0
 40
9.0
 40
9.0
 40
9.0
 40
10.0
 40
10.0
 40
10.0
 40
11.0
 40
11.0
 40
11.0
 40
12.0
 40
12.0
 40
12.0
 40
13.0
 40
13.0
 40
13.0
 40
14.0
 40
14.0
 40
14.0
 40
15.0
 40
15.0
 40
15.0
 40
16.0
 40
16.0
 40
16.0
 40
16.0
 10
81.74694822175077
 20
-122.6162882180438
 30
0.0
 10
81.6687445542356
 20
-122.6162882180438
 30
0.0
 10
81.56711423742072
 20
-122.5994072501661
 30
0.0
 10
81.46548392060585
 20
-122.5360174932375
 30
0.0
 10
81.29219561769779
 20
-122.4261189472581
 30
0.0
 10
81.27083602568923
 20
-122.29486080927
 30
0.0
 10
81.25188800052037
 20
-122.1870293205817
 30
0.0
 10
81.25188800052037
 20
-122.1870293205817
 30
0.0
 10
81.47409665931897
 20
-122.1870293205817
 30
0.0
 10
81.47409665931897
 20
-122.1870293205817
 30
0.0
 10
81.52887367753445
 20
-122.3858113300806
 30
0.0
 10
81.65599770094018
 20
-122.4154391512538
 30
0.0
 10
81.74901527904191
 20
-122.4154391512538
 30
0.0
 10
81.88854164619454
 20
-122.4154391512538
 30
0.0
 10
82.04081486664258
 20
-122.3158758917301
 30
0.0
 10
82.04081486664258
 20
-122.0833319464757
 30
0.0
 10
82.04081486664258
 20
-121.8273613519216
 30
0.0
 10
81.86098088231253
 20
-121.7574259135711
 30
0.0
 10
81.74040254032879
 20
-121.7574259135711
 30
0.0
 10
81.7087076618645
 20
-121.7574259135711
 30
0.0
 10
81.56711423742072
 20
-121.7574259135711
 30
0.0
 10
81.47823077390127
 20
-121.8866169942679
 30
0.0
 10
81.47823077390127
 20
-121.8866169942679
 30
0.0
 10
81.30253090415354
 20
-121.8676689690991
 30
0.0
 10
81.30253090415354
 20
-121.8676689690991
 30
0.0
 10
81.30253090415354
 20
-121.8676689690991
 30
0.0
 10
81.42310924613729
 20
-121.0212090083732
 30
0.0
 10
81.42310924613729
 20
-121.0212090083732
 30
0.0
 10
81.42310924613729
 20
-121.0212090083732
 30
0.0
 10
82.20170082580374
 20
-121.0212090083732
 30
0.0
 10
82.20170082580374
 20
-121.0212090083732
 30
0.0
 10
82.20170082580374
 20
-121.0212090083732
 30
0.0
 10
82.20170082580374
 20
-121.2158569032898
 30
0.0
 10
82.20170082580374
 20
-121.2158569032898
 30
0.0
 10
82.20170082580374
 20
-121.2158569032898
 30
0.0
 10
81.58606226258959
 20
-121.2158569032898
 30
0.0
 10
81.58606226258959
 20
-121.2158569032898
 30
0.0
 10
81.58606226258959
 20
-121.2158569032898
 30
0.0
 10
81.52060544836985
 20
-121.6389146288785
 30
0.0
 10
81.52060544836985
 20
-121.6389146288785
 30
0.0
 10
81.5819281480073
 20
-121.605152693123
 30
0.0
 10
81.66426593010478
 20
-121.5648450759456
 30
0.0
 10
81.78277721479736
 20
-121.5648450759456
 30
0.0
 10
82.03668075206028
 20
-121.5648450759456
 30
0.0
 10
82.27370332144547
 20
-121.7512247416976
 30
0.0
 10
82.27370332144547
 20
-122.0643839213068
 30
0.0
 10
82.27370332144547
 20
-122.3816772154983
 30
0.0
 10
82.0494276053557
 20
-122.6162882180438
 30
0.0
 10
81.74694822175077
 20
-122.6162882180438
 30
0.0
  0
HATCH
  5
137
330
132
100
AcDbEntity
  8
_U+30EC_U+30A4_U+30E4_U+30FC 1
 62
   179
420
  2234388
100
AcDbHatch
 10
0.0
 20
0.0
 30
0.0
210
0.0
220
0.0
230
1.0
  2
SOLID
 70
     1
 71
     0
 91
        1
 92
        1
 93
        1
 72
     4
 94
        3
 73
     0
 74
     1
 95
       53
 96
       49
 40
0.0
 40
0.0
 40
0.0
 40
0.0
 40
1.0
 40
1.0
 40
1.0
 40
2.0
 40
2.0
 40
2.0
 40
3.0
 40
3.0
 40
3.0
 40
4.0
 40
4.0
 40
4.0
 40
5.0
 40
5.0
 40
5.0
 40
6.0
 40
6.0
 40
6.0
 40
7.0
 40
7.0
 40
7.0
 40
8.0
 40
8.0
 40
8.0
 40
9.0
 40
9.0
 40
9.0
 40
10.0
 40
10.0
 40
10.0
 40
11.0
 40
11.0
 40
11.0
 40
12.0
 40
12.0
 40
12.0
 40
13.0
 40
13.0
 40
13.0
 40
14.0
 40
14.0
 40
14.0
 40
15.0
 40
15.0
 40
15.0
 40
16.0
 40
16.0
 40
16.0
 40
16.0
 10
81.74694822175077
 20
-122.6162882180438
 10
81.6687445542356
 20
-122.6162882180438
 10
81.56711423742072
 20
-122.5994072501661
 10
81.46548392060585
 20
-122.5360174932375
 10
81.29219561769779
 20
-122.4261189472581
 10
81.27083602568923
 20
-122.29486080927
 10
81.25188800052037
 20
-122.1870293205817
 10
81.25188800052037
 20
-122.1870293205817
 10
81.47409665931897
 20
-122.1870293205817
 10
81.47409665931897
 20
-122.1870293205817
 10
81.52887367753445
 20
-122.3858113300806
 10
81.65599770094018
 20
-122.4154391512538
 10
81.74901527904191
 20
-122.4154391512538
 10
81.88854164619454
 20
-122.4154391512538
 10
82.04081486664258
 20
-122.3158758917301
 10
82.04081486664258
 20
-122.0833319464757
 10
82.04081486664258
 20
-121.8273613519216
 10
81.86098088231253
 20
-121.7574259135711
 10
81.74040254032879
 20
-121.7574259135711
 10
81.7087076618645
 20
-121.7574259135711
 10
81.56711423742072
 20
-121.7574259135711
 10
81.47823077390127
 20
-121.8866169942679
 10
81.47823077390127
 20
-121.8866169942679
 10
81.30253090415354
 20
-121.8676689690991
 10
81.30253090415354
 20
-121.8676689690991
 10
81.30253090415354
 20
-121.8676689690991
 10
81.42310924613729
 20
-121.0212090083732
 10
81.42310924613729
 20
-121.0212090083732
 10
81.42310924613729
 20
-121.0212090083732
 10
82.20170082580374
 20
-121.0212090083732
 10
82.20170082580374
 20
-121.0212090083732
 10
82.20170082580374
 20
-121.0212090083732
 10
82.20170082580374
 20
-121.2158569032898
 10
82.20170082580374
 20
-121.2158569032898
 10
82.20170082580374
 20
-121.2158569032898
 10
81.58606226258959
 20
-121.2158569032898
 10
81.58606226258959
 20
-121.2158569032898
 10
81.58606226258959
 20
-121.2158569032898
 10
81.52060544836985
 20
-121.6389146288785
 10
81.52060544836985
 20
-121.6389146288785
 10
81.5819281480073
 20
-121.605152693123
 10
81.66426593010478
 20
-121.5648450759456
 10
81.78277721479736
 20
-121.5648450759456
 10
82.03668075206028
 20
-121.5648450759456
 10
82.27370332144547
 20
-121.7512247416976
 10
82.27370332144547
 20
-122.0643839213068
 10
82.27370332144547
 20
-122.3816772154983
 10
82.0494276053557
 20
-122.6162882180438
 10
81.74694822175077
 20
-122.6162882180438
 97
        0
 97
        0
 75
     2
 76
     1
 98
        0
  0
POLYLINE
  5
138
330
132
100
AcDbEntity
  8
_U+30EC_U+30A4_U+30E4_U+30FC 1
370
     0
100
AcDb2dPolyline
 66
     1
 10
0.0
 20
0.0
 30
0.0
  0
VERTEX
  5
139
330
138
100
AcDbEntity
  8
_U+30EC_U+30A4_U+30E4_U+30FC 1
370
     0
100
AcDbVertex
100
AcDb2dVertex
 10
82.50280217121458
 20
-122.5656453144107
 30
0.0
  0
VERTEX
  5
13A
330
138
100
AcDbEntity
  8
_U+30EC_U+30A4_U+30E4_U+30FC 1
370
     0
100
AcDbVertex
100
AcDb2dVertex
 10
82.50280217121458
 20
-122.3138088344389
 30
0.0
  0
VERTEX
  5
13B
330
138
100
AcDbEntity
  8
_U+30EC_U+30A4_U+30E4_U+30FC 1
370
     0
100
AcDbVertex
100
AcDb2dVertex
 10
82.75463865118634
 20
-122.3138088344389
 30
0.0
  0
VERTEX
  5
13C
330
138
100
AcDbEntity
  8
_U+30EC_U+30A4_U+30E4_U+30FC 1
370
     0
100
AcDbVertex
100
AcDb2dVertex
 10
82.75463865118634
 20
-122.5656453144107
 30
0.0
  0
VERTEX
  5
13D
330
138
100
AcDbEntity
  8
_U+30EC_U+30A4_U+30E4_U+30FC 1
370
     0
100
AcDbVertex
100
AcDb2dVertex
 10
82.50280217121458
 20
-122.5656453144107
 30
0.0
  0
SEQEND
  5
13E
330
138
100
AcDbEntity
  8
_U+30EC_U+30A4_U+30E4_U+30FC 1
370
     0
  0
HATCH
  5
13F
330
132
100
AcDbEntity
  8
_U+30EC_U+30A4_U+30E4_U+30FC 1
 62
   179
420
  2234388
100
AcDbHatch
 10
0.0
 20
0.0
 30
0.0
210
0.0
220
0.0
230
1.0
  2
SOLID
 70
     1
 71
     0
 91
        1
 92
        1
 93
        4
 72
     1
 10
82.50280217121458
 20
-122.5656453144107
 11
82.50280217121458
 21
-122.3138088344389
 72
     1
 10
82.50280217121458
 20
-122.3138088344389
 11
82.75463865118634
 21
-122.3138088344389
 72
     1
 10
82.75463865118634
 20
-122.3138088344389
 11
82.75463865118634
 21
-122.5656453144107
 72
     1
 10
82.75463865118634
 20
-122.5656453144107
 11
82.50280217121458
 21
-122.5656453144107
 97
        0
 75
     2
 76
     1
 98
        0
  0
SPLINE
  5
140
330
132
100
AcDbEntity
  8
_U+30EC_U+30A4_U+30E4_U+30FC 1
370
     0
100
AcDbSpline
210
0.0
220
0.0
230
1.0
 70
    11
 71
     3
 72
    53
 73
    49
 74
     0
 42
0.0000000001
 43
0.0000000001
 12
1.0
 22
0.0
 32
0.0
 13
1.0
 23
0.0
 33
0.0
 40
0.0
 40
0.0
 40
0.0
 40
0.0
 40
1.0
 40
1.0
 40
1.0
 40
2.0
 40
2.0
 40
2.0
 40
3.0
 40
3.0
 40
3.0
 40
4.0
 40
4.0
 40
4.0
 40
5.0
 40
5.0
 40
5.0
 40
6.0
 40
6.0
 40
6.0
 40
7.0
 40
7.0
 40
7.0
 40
8.0
 40
8.0
 40
8.0
 40
9.0
 40
9.0
 40
9.0
 40
10.0
 40
10.0
 40
10.0
 40
11.0
 40
11.0
 40
11.0
 40
12.0
 40
12.0
 40
12.0
 40
13.0
 40
13.0
 40
13.0
 40
14.0
 40
14.0
 40
14.0
 40
15.0
 40
15.0
 40
15.0
 40
16.0
 40
16.0
 40
16.0
 40
16.0
 10
83.47190753121536
 20
-122.6162882180438
 30
0.0
 10
83.39370386370018
 20
-122.6162882180438
 30
0.0
 10
83.29207354688532
 20
-122.5994072501661
 30
0.0
 10
83.19044323007044
 20
-122.5360174932375
 30
0.0
 10
83.01715492716238
 20
-122.4261189472581
 30
0.0
 10
82.99579533515383
 20
-122.29486080927
 30
0.0
 10
82.97684730998496
 20
-122.1870293205817
 30
0.0
 10
82.97684730998496
 20
-122.1870293205817
 30
0.0
 10
83.19905596878357
 20
-122.1870293205817
 30
0.0
 10
83.19905596878357
 20
-122.1870293205817
 30
0.0
 10
83.25383298699904
 20
-122.3858113300806
 30
0.0
 10
83.38095701040477
 20
-122.4154391512538
 30
0.0
 10
83.47397458850651
 20
-122.4154391512538
 30
0.0
 10
83.61350095565913
 20
-122.4154391512538
 30
0.0
 10
83.76577417610717
 20
-122.3158758917301
 30
0.0
 10
83.76577417610717
 20
-122.0833319464757
 30
0.0
 10
83.76577417610717
 20
-121.8273613519216
 30
0.0
 10
83.58594019177713
 20
-121.7574259135711
 30
0.0
 10
83.46536184979338
 20
-121.7574259135711
 30
0.0
 10
83.43366697132909
 20
-121.7574259135711
 30
0.0
 10
83.29207354688532
 20
-121.7574259135711
 30
0.0
 10
83.20319008336587
 20
-121.8866169942679
 30
0.0
 10
83.20319008336587
 20
-121.8866169942679
 30
0.0
 10
83.02749021361814
 20
-121.8676689690991
 30
0.0
 10
83.02749021361814
 20
-121.8676689690991
 30
0.0
 10
83.02749021361814
 20
-121.8676689690991
 30
0.0
 10
83.14806855560188
 20
-121.0212090083732
 30
0.0
 10
83.14806855560188
 20
-121.0212090083732
 30
0.0
 10
83.14806855560188
 20
-121.0212090083732
 30
0.0
 10
83.92666013526834
 20
-121.0212090083732
 30
0.0
 10
83.92666013526834
 20
-121.0212090083732
 30
0.0
 10
83.92666013526834
 20
-121.0212090083732
 30
0.0
 10
83.92666013526834
 20
-121.2158569032898
 30
0.0
 10
83.92666013526834
 20
-121.2158569032898
 30
0.0
 10
83.92666013526834
 20
-121.2158569032898
 30
0.0
 10
83.31102157205419
 20
-121.2158569032898
 30
0.0
 10
83.31102157205419
 20
-121.2158569032898
 30
0.0
 10
83.31102157205419
 20
-121.2158569032898
 30
0.0
 10
83.24556475783444
 20
-121.6389146288785
 30
0.0
 10
83.24556475783444
 20
-121.6389146288785
 30
0.0
 10
83.30688745747189
 20
-121.605152693123
 30
0.0
 10
83.38922523956937
 20
-121.5648450759456
 30
0.0
 10
83.50773652426196
 20
-121.5648450759456
 30
0.0
 10
83.76164006152487
 20
-121.5648450759456
 30
0.0
 10
83.99866263091006
 20
-121.7512247416976
 30
0.0
 10
83.99866263091006
 20
-122.0643839213068
 30
0.0
 10
83.99866263091006
 20
-122.3816772154983
 30
0.0
 10
83.7743869148203
 20
-122.6162882180438
 30
0.0
 10
83.47190753121536
 20
-122.6162882180438
 30
0.0
  0
HATCH
  5
141
330
132
100
AcDbEntity
  8
_U+30EC_U+30A4_U+30E4_U+30FC 1
 62
   179
420
  2234388
100
AcDbHatch
 10
0.0
 20
0.0
 30
0.0
210
0.0
220
0.0
230
1.0
  2
SOLID
 70
     1
 71
     0
 91
        1
 92
        1
 93
        1
 72
     4
 94
        3
 73
     0
 74
     1
 95
       53
 96
       49
 40
0.0
 40
0.0
 40
0.0
 40
0.0
 40
1.0
 40
1.0
 40
1.0
 40
2.0
 40
2.0
 40
2.0
 40
3.0
 40
3.0
 40
3.0
 40
4.0
 40
4.0
 40
4.0
 40
5.0
 40
5.0
 40
5.0
 40
6.0
 40
6.0
 40
6.0
 40
7.0
 40
7.0
 40
7.0
 40
8.0
 40
8.0
 40
8.0
 40
9.0
 40
9.0
 40
9.0
 40
10.0
 40
10.0
 40
10.0
 40
11.0
 40
11.0
 40
11.0
 40
12.0
 40
12.0
 40
12.0
 40
13.0
 40
13.0
 40
13.0
 40
14.0
 40
14.0
 40
14.0
 40
15.0
 40
15.0
 40
15.0
 40
16.0
 40
16.0
 40
16.0
 40
16.0
 10
83.47190753121536
 20
-122.6162882180438
 10
83.39370386370018
 20
-122.6162882180438
 10
83.29207354688532
 20
-122.5994072501661
 10
83.19044323007044
 20
-122.5360174932375
 10
83.01715492716238
 20
-122.4261189472581
 10
82.99579533515383
 20
-122.29486080927
 10
82.97684730998496
 20
-122.1870293205817
 10
82.97684730998496
 20
-122.1870293205817
 10
83.19905596878357
 20
-122.1870293205817
 10
83.19905596878357
 20
-122.1870293205817
 10
83.25383298699904
 20
-122.3858113300806
 10
83.38095701040477
 20
-122.4154391512538
 10
83.47397458850651
 20
-122.4154391512538
 10
83.61350095565913
 20
-122.4154391512538
 10
83.76577417610717
 20
-122.3158758917301
 10
83.76577417610717
 20
-122.0833319464757
 10
83.76577417610717
 20
-121.8273613519216
 10
83.58594019177713
 20
-121.7574259135711
 10
83.46536184979338
 20
-121.7574259135711
 10
83.43366697132909
 20
-121.7574259135711
 10
83.29207354688532
 20
-121.7574259135711
 10
83.20319008336587
 20
-121.8866169942679
 10
83.20319008336587
 20
-121.8866169942679
 10
83.02749021361814
 20
-121.8676689690991
 10
83.02749021361814
 20
-121.8676689690991
 10
83.02749021361814
 20
-121.8676689690991
 10
83.14806855560188
 20
-121.0212090083732
 10
83.14806855560188
 20
-121.0212090083732
 10
83.14806855560188
 20
-121.0212090083732
 10
83.92666013526834
 20
-121.0212090083732
 10
83.92666013526834
 20
-121.0212090083732
 10
83.92666013526834
 20
-121.0212090083732
 10
83.92666013526834
 20
-121.2158569032898
 10
83.92666013526834
 20
-121.2158569032898
 10
83.92666013526834
 20
-121.2158569032898
 10
83.31102157205419
 20
-121.2158569032898
 10
83.31102157205419
 20
-121.2158569032898
 10
83.31102157205419
 20
-121.2158569032898
 10
83.24556475783444
 20
-121.6389146288785
 10
83.24556475783444
 20
-121.6389146288785
 10
83.30688745747189
 20
-121.605152693123
 10
83.38922523956937
 20
-121.5648450759456
 10
83.50773652426196
 20
-121.5648450759456
 10
83.76164006152487
 20
-121.5648450759456
 10
83.99866263091006
 20
-121.7512247416976
 10
83.99866263091006
 20
-122.0643839213068
 10
83.99866263091006
 20
-122.3816772154983
 10
83.7743869148203
 20
-122.6162882180438
 10
83.47190753121536
 20
-122.6162882180438
 97
        0
 97
        0
 75
     2
 76
     1
 98
        0
  0
ENDBLK
  5
135
330
132
100
AcDbEntity
  8
0
100
AcDbBlockEnd
  0
ENDSEC
  0
SECTION
  2
ENTITIES
  0
POLYLINE
  5
41
330
1F
100
AcDbEntity
  8
_U+30EC_U+30A4_U+30E4_U+30FC 1
 62
   179
420
  2234388
370
    25
100
AcDb2dPolyline
 66
     1
 10
0.0
 20
0.0
 30
0.0
  0
VERTEX
  5
42
330
41
100
AcDbEntity
  8
_U+30EC_U+30A4_U+30E4_U+30FC 1
 62
   179
420
  2234388
370
    25
100
AcDbVertex
100
AcDb2dVertex
 10
78.83066386918135
 20
-127.1619249682095
 30
0.0
  0
VERTEX
  5
43
330
41
100
AcDbEntity
  8
_U+30EC_U+30A4_U+30E4_U+30FC 1
 62
   179
420
  2234388
370
    25
100
AcDbVertex
100
AcDb2dVertex
 10
78.83066386918135
 20
-138.6619866320012
 30
0.0
  0
SEQEND
  5
44
330
41
100
AcDbEntity
  8
_U+30EC_U+30A4_U+30E4_U+30FC 1
 62
   179
420
  2234388
370
    25
  0
POLYLINE
  5
45
330
1F
100
AcDbEntity
  8
_U+30EC_U+30A4_U+30E4_U+30FC 1
 62
   179
420
  2234388
370
    25
100
AcDb2dPolyline
 66
     1
 10
0.0
 20
0.0
 30
0.0
  0
VERTEX
  5
46
330
45
100
AcDbEntity
  8
_U+30EC_U+30A4_U+30E4_U+30FC 1
 62
   179
420
  2234388
370
    25
100
AcDbVertex
100
AcDb2dVertex
 10
81.3304472018895
 20
-141.1617699647094
 30
0.0
  0
VERTEX
  5
47
330
45
100
AcDbEntity
  8
_U+30EC_U+30A4_U+30E4_U+30FC 1
 62
   179
420
  2234388
370
    25
100
AcDbVertex
100
AcDb2dVertex
 10
92.83015374281659
 20
-141.1617699647094
 30
0.0
  0
SEQEND
  5
48
330
45
100
AcDbEntity
  8
_U+30EC_U+30A4_U+30E4_U+30FC 1
 62
   179
420
  2234388
370
    25
  0
POLYLINE
  5
49
330
1F
100
AcDbEntity
  8
_U+30EC_U+30A4_U+30E4_U+30FC 1
 62
   179
420
  2234388
370
    25
100
AcDb2dPolyline
 66
     1
 10
0.0
 20
0.0
 30
0.0
  0
VERTEX
  5
4A
330
49
100
AcDbEntity
  8
_U+30EC_U+30A4_U+30E4_U+30FC 1
 62
   179
420
  2234388
370
    25
100
AcDbVertex
100
AcDb2dVertex
 10
81.20503265050924
 20
-140.1619977427375
 30
0.0
  0
VERTEX
  5
4B
330
49
100
AcDbEntity
  8
_U+30EC_U+30A4_U+30E4_U+30FC 1
 62
   179
420
  2234388
370
    25
100
AcDbVertex
100
AcDb2dVertex
 10
93.83063149507005
 20
-140.1619977427375
 30
0.0
  0
SEQEND
  5
4C
330
49
100
AcDbEntity
  8
_U+30EC_U+30A4_U+30E4_U+30FC 1
 62
   179
420
  2234388
370
    25
  0
POLYLINE
  5
4D
330
1F
100
AcDbEntity
  8
_U+30EC_U+30A4_U+30E4_U+30FC 1
 62
   179
420
  2234388
370
    25
100
AcDb2dPolyline
 66
     1
 10
0.0
 20
0.0
 30
0.0
  0
VERTEX
  5
4E
330
4D
100
AcDbEntity
  8
_U+30EC_U+30A4_U+30E4_U+30FC 1
 62
   179
420
  2234388
370
    25
100
AcDbVertex
100
AcDb2dVertex
 10
79.83043609115356
 20
-126.1621527462372
 30
0.0
  0
VERTEX
  5
4F
330
4D
100
AcDbEntity
  8
_U+30EC_U+30A4_U+30E4_U+30FC 1
 62
   179
420
  2234388
370
    25
100
AcDbVertex
100
AcDb2dVertex
 10
79.83043609115356
 20
-138.6764505208862
 30
0.0
  0
SEQEND
  5
50
330
4D
100
AcDbEntity
  8
_U+30EC_U+30A4_U+30E4_U+30FC 1
 62
   179
420
  2234388
370
    25
  0
POLYLINE
  5
51
330
1F
100
AcDbEntity
  8
_U+30EC_U+30A4_U+30E4_U+30FC 1
 62
   179
420
  2234388
370
    25
100
AcDb2dPolyline
 66
     1
 10
0.0
 20
0.0
 30
0.0
  0
VERTEX
  5
52
330
51
100
AcDbEntity
  8
_U+30EC_U+30A4_U+30E4_U+30FC 1
 62
   179
420
  2234388
370
    25
100
AcDbVertex
100
AcDb2dVertex
 10
86.3306466864106
 20
-133.6617849665844
 30
0.0
  0
VERTEX
  5
53
330
51
100
AcDbEntity
  8
_U+30EC_U+30A4_U+30E4_U+30FC 1
 62
   179
420
  2234388
370
    25
100
AcDbVertex
100
AcDb2dVertex
 10
106.3301122872928
 20
-133.6617849665844
 30
0.0
  0
SEQEND
  5
54
330
51
100
AcDbEntity
  8
_U+30EC_U+30A4_U+30E4_U+30FC 1
 62
   179
420
  2234388
370
    25
  0
POLYLINE
  5
55
330
1F
100
AcDbEntity
  8
_U+30EC_U+30A4_U+30E4_U+30FC 1
 62
   179
420
  2234388
370
    25
100
AcDb2dPolyline
 66
     1
 10
0.0
 20
0.0
 30
0.0
  0
VERTEX
  5
56
330
55
100
AcDbEntity
  8
_U+30EC_U+30A4_U+30E4_U+30FC 1
 62
   179
420
  2234388
370
    25
100
AcDbVertex
100
AcDb2dVertex
 10
86.3306466864106
 20
-113.6619660826955
 30
0.0
  0
VERTEX
  5
57
330
55
100
AcDbEntity
  8
_U+30EC_U+30A4_U+30E4_U+30FC 1
 62
   179
420
  2234388
370
    25
100
AcDbVertex
100
AcDb2dVertex
 10
86.3306466864106
 20
-133.6617849665844
 30
0.0
  0
SEQEND
  5
58
330
55
100
AcDbEntity
  8
_U+30EC_U+30A4_U+30E4_U+30FC 1
 62
   179
420
  2234388
370
    25
  0
POLYLINE
  5
59
330
1F
100
AcDbEntity
  8
_U+30EC_U+30A4_U+30E4_U+30FC 1
 62
   179
420
  2234388
370
    25
100
AcDb2dPolyline
 66
     1
 10
0.0
 20
0.0
 30
0.0
  0
VERTEX
  5
5A
330
59
100
AcDbEntity
  8
_U+30EC_U+30A4_U+30E4_U+30FC 1
 62
   179
420
  2234388
370
    25
100
AcDbVertex
100
AcDb2dVertex
 10
85.23029754781618
 20
-126.1621527462372
 30
0.0
  0
VERTEX
  5
5B
330
59
100
AcDbEntity
  8
_U+30EC_U+30A4_U+30E4_U+30FC 1
 62
   179
420
  2234388
370
    25
100
AcDbVertex
100
AcDb2dVertex
 10
85.33020421193402
 20
-126.0618933018178
 30
0.0
  0
SEQEND
  5
5C
330
59
100
AcDbEntity
  8
_U+30EC_U+30A4_U+30E4_U+30FC 1
 62
   179
420
  2234388
370
    25
  0
POLYLINE
  5
5D
330
1F
100
AcDbEntity
  8
_U+30EC_U+30A4_U+30E4_U+30FC 1
 62
   179
420
  2234388
370
    25
100
AcDb2dPolyline
 66
     1
 10
0.0
 20
0.0
 30
0.0
  0
VERTEX
  5
5E
330
5D
100
AcDbEntity
  8
_U+30EC_U+30A4_U+30E4_U+30FC 1
 62
   179
420
  2234388
370
    25
100
AcDbVertex
100
AcDb2dVertex
 10
93.83063149507005
 20
-134.7618166329763
 30
0.0
  0
VERTEX
  5
5F
330
5D
100
AcDbEntity
  8
_U+30EC_U+30A4_U+30E4_U+30FC 1
 62
   179
420
  2234388
370
    25
100
AcDbVertex
100
AcDb2dVertex
 10
93.93053815918789
 20
-134.6619099663347
 30
0.0
  0
SEQEND
  5
60
330
5D
100
AcDbEntity
  8
_U+30EC_U+30A4_U+30E4_U+30FC 1
 62
   179
420
  2234388
370
    25
  0
POLYLINE
  5
61
330
1F
100
AcDbEntity
  8
_U+30EC_U+30A4_U+30E4_U+30FC 1
 62
   179
420
  2234388
370
    25
100
AcDb2dPolyline
 66
     1
 10
0.0
 20
0.0
 30
0.0
  0
VERTEX
  5
62
330
61
100
AcDbEntity
  8
_U+30EC_U+30A4_U+30E4_U+30FC 1
 62
   179
420
  2234388
370
    25
100
AcDbVertex
100
AcDb2dVertex
 10
81.00246765567711
 20
-139.6407332984233
 30
0.0
  0
VERTEX
  5
63
330
61
100
AcDbEntity
  8
_U+30EC_U+30A4_U+30E4_U+30FC 1
 62
   179
420
  2234388
370
    25
100
AcDbVertex
100
AcDb2dVertex
 10
86.32651918651591
 20
-134.7618166329763
 30
0.0
  0
SEQEND
  5
64
330
61
100
AcDbEntity
  8
_U+30EC_U+30A4_U+30E4_U+30FC 1
 62
   179
420
  2234388
370
    25
  0
POLYLINE
  5
65
330
1F
100
AcDbEntity
  8
_U+30EC_U+30A4_U+30E4_U+30FC 1
 62
   179
420
  2234388
370
    25
100
AcDb2dPolyline
 66
     1
 10
0.0
 20
0.0
 30
0.0
  0
VERTEX
  5
66
330
65
100
AcDbEntity
  8
_U+30EC_U+30A4_U+30E4_U+30FC 1
 62
   179
420
  2234388
370
    25
100
AcDbVertex
100
AcDb2dVertex
 10
80.33342461719026
 20
-138.8976421874977
 30
0.0
  0
VERTEX
  5
67
330
65
100
AcDbEntity
  8
_U+30EC_U+30A4_U+30E4_U+30FC 1
 62
   179
420
  2234388
370
    25
100
AcDbVertex
100
AcDb2dVertex
 10
85.23029754781618
 20
-134.4100619108419
 30
0.0
  0
SEQEND
  5
68
330
65
100
AcDbEntity
  8
_U+30EC_U+30A4_U+30E4_U+30FC 1
 62
   179
420
  2234388
370
    25
  0
POLYLINE
  5
69
330
1F
100
AcDbEntity
  8
_U+30EC_U+30A4_U+30E4_U+30FC 1
 62
   179
420
  2234388
370
     9
100
AcDb2dPolyline
 66
     1
 10
0.0
 20
0.0
 30
0.0
  0
VERTEX
  5
6A
330
69
100
AcDbEntity
  8
_U+30EC_U+30A4_U+30E4_U+30FC 1
 62
   179
420
  2234388
370
     9
100
AcDbVertex
100
AcDb2dVertex
 10
79.19723325728803
 20
-139.96493607612
 30
0.0
  0
VERTEX
  5
6B
330
69
100
AcDbEntity
  8
_U+30EC_U+30A4_U+30E4_U+30FC 1
 62
   179
420
  2234388
370
     9
100
AcDbVertex
100
AcDb2dVertex
 10
78.23743078177463
 20
-140.2477580204937
 30
0.0
  0
SEQEND
  5
6C
330
69
100
AcDbEntity
  8
_U+30EC_U+30A4_U+30E4_U+30FC 1
 62
   179
420
  2234388
370
     9
  0
POLYLINE
  5
6D
330
1F
100
AcDbEntity
  8
_U+30EC_U+30A4_U+30E4_U+30FC 1
 62
   179
420
  2234388
370
     9
100
AcDb2dPolyline
 66
     1
 10
0.0
 20
0.0
 30
0.0
  0
VERTEX
  5
6E
330
6D
100
AcDbEntity
  8
_U+30EC_U+30A4_U+30E4_U+30FC 1
 62
   179
420
  2234388
370
     9
100
AcDbVertex
100
AcDb2dVertex
 10
79.19723325728803
 20
-139.96493607612
 30
0.0
  0
VERTEX
  5
6F
330
6D
100
AcDbEntity
  8
_U+30EC_U+30A4_U+30E4_U+30FC 1
 62
   179
420
  2234388
370
     9
100
AcDbVertex
100
AcDb2dVertex
 10
78.50751942481763
 20
-140.6894357981612
 30
0.0
  0
SEQEND
  5
70
330
6D
100
AcDbEntity
  8
_U+30EC_U+30A4_U+30E4_U+30FC 1
 62
   179
420
  2234388
370
     9
  0
POLYLINE
  5
71
330
1F
100
AcDbEntity
  8
_U+30EC_U+30A4_U+30E4_U+30FC 1
 62
   179
420
  2234388
370
    25
100
AcDb2dPolyline
 66
     1
 10
0.0
 20
0.0
 30
0.0
  0
VERTEX
  5
72
330
71
100
AcDbEntity
  8
_U+30EC_U+30A4_U+30E4_U+30FC 1
 62
   179
420
  2234388
370
    25
100
AcDbVertex
100
AcDb2dVertex
 10
85.33020421193402
 20
-114.6619146935566
 30
0.0
  0
VERTEX
  5
73
330
71
100
AcDbEntity
  8
_U+30EC_U+30A4_U+30E4_U+30FC 1
 62
   179
420
  2234388
370
    25
100
AcDbVertex
100
AcDb2dVertex
 10
85.33020421193402
 20
-126.0618933018178
 30
0.0
  0
SEQEND
  5
74
330
71
100
AcDbEntity
  8
_U+30EC_U+30A4_U+30E4_U+30FC 1
 62
   179
420
  2234388
370
    25
  0
POLYLINE
  5
75
330
1F
100
AcDbEntity
  8
_U+30EC_U+30A4_U+30E4_U+30FC 1
 62
   179
420
  2234388
370
    25
100
AcDb2dPolyline
 66
     1
 10
0.0
 20
0.0
 30
0.0
  0
VERTEX
  5
76
330
75
100
AcDbEntity
  8
_U+30EC_U+30A4_U+30E4_U+30FC 1
 62
   179
420
  2234388
370
    25
100
AcDbVertex
100
AcDb2dVertex
 10
85.23029754781618
 20
-126.1621527462372
 30
0.0
  0
VERTEX
  5
77
330
75
100
AcDbEntity
  8
_U+30EC_U+30A4_U+30E4_U+30FC 1
 62
   179
420
  2234388
370
    25
100
AcDbVertex
100
AcDb2dVertex
 10
85.23029754781618
 20
-134.4100619108419
 30
0.0
  0
SEQEND
  5
78
330
75
100
AcDbEntity
  8
_U+30EC_U+30A4_U+30E4_U+30FC 1
 62
   179
420
  2234388
370
    25
  0
POLYLINE
  5
79
330
1F
100
AcDbEntity
  8
_U+30EC_U+30A4_U+30E4_U+30FC 1
 62
   179
420
  2234388
370
    25
100
AcDb2dPolyline
 66
     1
 10
0.0
 20
0.0
 30
0.0
  0
VERTEX
  5
7A
330
79
100
AcDbEntity
  8
_U+30EC_U+30A4_U+30E4_U+30FC 1
 62
   179
420
  2234388
370
    25
100
AcDbVertex
100
AcDb2dVertex
 10
86.32651918651591
 20
-134.7618166329763
 30
0.0
  0
VERTEX
  5
7B
330
79
100
AcDbEntity
  8
_U+30EC_U+30A4_U+30E4_U+30FC 1
 62
   179
420
  2234388
370
    25
100
AcDbVertex
100
AcDb2dVertex
 10
93.83063149507005
 20
-134.7618166329763
 30
0.0
  0
SEQEND
  5
7C
330
79
100
AcDbEntity
  8
_U+30EC_U+30A4_U+30E4_U+30FC 1
 62
   179
420
  2234388
370
    25
  0
POLYLINE
  5
7D
330
1F
100
AcDbEntity
  8
_U+30EC_U+30A4_U+30E4_U+30FC 1
 62
   179
420
  2234388
370
    25
100
AcDb2dPolyline
 66
     1
 10
0.0
 20
0.0
 30
0.0
  0
VERTEX
  5
7E
330
7D
100
AcDbEntity
  8
_U+30EC_U+30A4_U+30E4_U+30FC 1
 62
   179
420
  2234388
370
    25
100
AcDbVertex
100
AcDb2dVertex
 10
93.93053815918789
 20
-134.6619099663347
 30
0.0
  0
VERTEX
  5
7F
330
7D
100
AcDbEntity
  8
_U+30EC_U+30A4_U+30E4_U+30FC 1
 62
   179
420
  2234388
370
    25
100
AcDbVertex
100
AcDb2dVertex
 10
105.3303400905769
 20
-134.6619099663347
 30
0.0
  0
SEQEND
  5
80
330
7D
100
AcDbEntity
  8
_U+30EC_U+30A4_U+30E4_U+30FC 1
 62
   179
420
  2234388
370
    25
  0
SPLINE
  5
81
330
1F
100
AcDbEntity
  8
_U+30EC_U+30A4_U+30E4_U+30FC 1
 62
   179
420
  2234388
370
    25
100
AcDbSpline
210
0.0
220
0.0
230
1.0
 70
     8
 71
     3
 72
     8
 73
     4
 74
     0
 42
0.0000000001
 43
0.0000000001
 12
1.0
 22
0.0
 32
0.0
 13
1.0
 23
0.0
 33
0.0
 40
0.0
 40
0.0
 40
0.0
 40
0.0
 40
1.0
 40
1.0
 40
1.0
 40
1.0
 10
78.83066386918135
 20
-138.6619866320012
 30
0.0
 10
78.83066386918135
 20
-140.0424413538782
 30
0.0
 10
79.94963768253703
 20
-141.1617699647094
 30
0.0
 10
81.3304472018895
 20
-141.1617699647094
 30
0.0
  0
SPLINE
  5
82
330
1F
100
AcDbEntity
  8
_U+30EC_U+30A4_U+30E4_U+30FC 1
 62
   179
420
  2234388
370
    25
100
AcDbSpline
210
0.0
220
0.0
230
1.0
 70
     8
 71
     3
 72
     8
 73
     4
 74
     0
 42
0.0000000001
 43
0.0000000001
 12
1.0
 22
0.0
 32
0.0
 13
1.0
 23
0.0
 33
0.0
 40
0.0
 40
0.0
 40
0.0
 40
0.0
 40
1.0
 40
1.0
 40
1.0
 40
1.0
 10
92.83015374281659
 20
-141.1617699647094
 30
0.0
 10
93.38274719887666
 20
-141.1617699647094
 30
0.0
 10
93.83063149507005
 20
-140.7142360759325
 30
0.0
 10
93.83063149507005
 20
-140.1619977427375
 30
0.0
  0
SPLINE
  5
83
330
1F
100
AcDbEntity
  8
_U+30EC_U+30A4_U+30E4_U+30FC 1
 62
   179
420
  2234388
370
    25
100
AcDbSpline
210
0.0
220
0.0
230
1.0
 70
     8
 71
     3
 72
     8
 73
     4
 74
     0
 42
0.0000000001
 43
0.0000000001
 12
1.0
 22
0.0
 32
0.0
 13
1.0
 23
0.0
 33
0.0
 40
0.0
 40
0.0
 40
0.0
 40
0.0
 40
1.0
 40
1.0
 40
1.0
 40
1.0
 10
79.83043609115356
 20
-126.1621527462372
 30
0.0
 10
79.27784297745373
 20
-126.1621527462372
 30
0.0
 10
78.83066386918135
 20
-126.6096866350144
 30
0.0
 10
78.83066386918135
 20
-127.1619249682095
 30
0.0
  0
SPLINE
  5
84
330
1F
100
AcDbEntity
  8
_U+30EC_U+30A4_U+30E4_U+30FC 1
 62
   179
420
  2234388
370
    25
100
AcDbSpline
210
0.0
220
0.0
230
1.0
 70
     8
 71
     3
 72
    11
 73
     7
 74
     0
 42
0.0000000001
 43
0.0000000001
 12
1.0
 22
0.0
 32
0.0
 13
1.0
 23
0.0
 33
0.0
 40
0.0
 40
0.0
 40
0.0
 40
0.0
 40
1.0
 40
1.0
 40
1.0
 40
2.0
 40
2.0
 40
2.0
 40
2.0
 10
81.00246765567711
 20
-139.6407332984233
 30
0.0
 10
80.88051238101066
 20
-139.7527049650619
 30
0.0
 10
80.87222210344439
 20
-139.9425346872366
 30
0.0
 10
80.98384098948564
 20
-140.0644899649838
 30
0.0
 10
81.04035598804383
 20
-140.126508298302
 30
0.0
 10
81.12096570820952
 20
-140.1619977427375
 30
0.0
 10
81.20503265050924
 20
-140.1619977427375
 30
0.0
  0
SPLINE
  5
85
330
1F
100
AcDbEntity
  8
_U+30EC_U+30A4_U+30E4_U+30FC 1
 62
   179
420
  2234388
370
    25
100
AcDbSpline
210
0.0
220
0.0
230
1.0
 70
     8
 71
     3
 72
    11
 73
     7
 74
     0
 42
0.0000000001
 43
0.0000000001
 12
1.0
 22
0.0
 32
0.0
 13
1.0
 23
0.0
 33
0.0
 40
0.0
 40
0.0
 40
0.0
 40
0.0
 40
1.0
 40
1.0
 40
1.0
 40
2.0
 40
2.0
 40
2.0
 40
2.0
 10
79.83043609115356
 20
-138.6764505208862
 30
0.0
 10
79.83043609115356
 20
-138.842185520845
 30
0.0
 10
79.96480712659448
 20
-138.9765232985889
 30
0.0
 10
80.13015406682057
 20
-138.9765232985889
 30
0.0
 10
80.20526045379333
 20
-138.9765232985889
 30
0.0
 10
80.27761517416964
 20
-138.9482657985962
 30
0.0
 10
80.33342461719026
 20
-138.8976421874977
 30
0.0
  0
SPLINE
  5
86
330
1F
100
AcDbEntity
  8
_U+30EC_U+30A4_U+30E4_U+30FC 1
 62
   179
420
  2234388
370
     9
100
AcDbSpline
210
0.0
220
0.0
230
1.0
 70
    11
 71
     3
 72
    17
 73
    13
 74
     0
 42
0.0000000001
 43
0.0000000001
 12
1.0
 22
0.0
 32
0.0
 13
1.0
 23
0.0
 33
0.0
 40
0.0
 40
0.0
 40
0.0
 40
0.0
 40
1.0
 40
1.0
 40
1.0
 40
2.0
 40
2.0
 40
2.0
 40
3.0
 40
3.0
 40
3.0
 40
4.0
 40
4.0
 40
4.0
 40
4.0
 10
78.930568541869
 20
-123.1618130247651
 30
0.0
 10
78.930568541869
 20
-123.1067091358899
 30
0.0
 10
78.8858010430111
 20
-123.0619063581235
 30
0.0
 10
78.83066386918135
 20
-123.0619063581235
 30
0.0
 10
78.77555799026808
 20
-123.0619063581235
 30
0.0
 10
78.73075521363332
 20
-123.1067091358899
 30
0.0
 10
78.73075521363332
 20
-123.1618130247651
 30
0.0
 10
78.73075521363332
 20
-123.2172696914178
 30
0.0
 10
78.77555799026808
 20
-123.2620724691845
 30
0.0
 10
78.83066386918135
 20
-123.2620724691845
 30
0.0
 10
78.8858010430111
 20
-123.2620724691845
 30
0.0
 10
78.930568541869
 20
-123.2172696914178
 30
0.0
 10
78.930568541869
 20
-123.1618130247651
 30
0.0
  0
SPLINE
  5
87
330
1F
100
AcDbEntity
  8
_U+30EC_U+30A4_U+30E4_U+30FC 1
 62
   179
420
  2234388
370
     9
100
AcDbSpline
210
0.0
220
0.0
230
1.0
 70
    11
 71
     3
 72
    17
 73
    13
 74
     0
 42
0.0000000001
 43
0.0000000001
 12
1.0
 22
0.0
 32
0.0
 13
1.0
 23
0.0
 33
0.0
 40
0.0
 40
0.0
 40
0.0
 40
0.0
 40
1.0
 40
1.0
 40
1.0
 40
2.0
 40
2.0
 40
2.0
 40
3.0
 40
3.0
 40
3.0
 40
4.0
 40
4.0
 40
4.0
 40
4.0
 10
79.9303407385849
 20
-123.1618130247651
 30
0.0
 10
79.9303407385849
 20
-123.1067091358899
 30
0.0
 10
79.88557323972701
 20
-123.0619063581235
 30
0.0
 10
79.83043609115356
 20
-123.0619063581235
 30
0.0
 10
79.775330186984
 20
-123.0619063581235
 30
0.0
 10
79.73052741034923
 20
-123.1067091358899
 30
0.0
 10
79.73052741034923
 20
-123.1618130247651
 30
0.0
 10
79.73052741034923
 20
-123.2172696914178
 30
0.0
 10
79.775330186984
 20
-123.2620724691845
 30
0.0
 10
79.83043609115356
 20
-123.2620724691845
 30
0.0
 10
79.88557323972701
 20
-123.2620724691845
 30
0.0
 10
79.9303407385849
 20
-123.2172696914178
 30
0.0
 10
79.9303407385849
 20
-123.1618130247651
 30
0.0
  0
SPLINE
  5
88
330
1F
100
AcDbEntity
  8
_U+30EC_U+30A4_U+30E4_U+30FC 1
 62
   179
420
  2234388
370
     9
100
AcDbSpline
210
0.0
220
0.0
230
1.0
 70
    11
 71
     3
 72
    17
 73
    13
 74
     0
 42
0.0000000001
 43
0.0000000001
 12
1.0
 22
0.0
 32
0.0
 13
1.0
 23
0.0
 33
0.0
 40
0.0
 40
0.0
 40
0.0
 40
0.0
 40
1.0
 40
1.0
 40
1.0
 40
2.0
 40
2.0
 40
2.0
 40
3.0
 40
3.0
 40
3.0
 40
4.0
 40
4.0
 40
4.0
 40
4.0
 10
110.4304835715725
 20
-113.6619660826955
 30
0.0
 10
110.4304835715725
 20
-113.6066858049317
 30
0.0
 10
110.3856807949378
 20
-113.561883027165
 30
0.0
 10
110.3305444168617
 20
-113.561883027165
 30
0.0
 10
110.2754377421948
 20
-113.561883027165
 30
0.0
 10
110.23063496556
 20
-113.6066858049317
 30
0.0
 10
110.23063496556
 20
-113.6619660826955
 30
0.0
 10
110.23063496556
 20
-113.7171052493486
 30
0.0
 10
110.2754377421948
 20
-113.7618727493372
 30
0.0
 10
110.3305444168617
 20
-113.7618727493372
 30
0.0
 10
110.3856807949378
 20
-113.7618727493372
 30
0.0
 10
110.4304835715725
 20
-113.7171052493486
 30
0.0
 10
110.4304835715725
 20
-113.6619660826955
 30
0.0
  0
SPLINE
  5
89
330
1F
100
AcDbEntity
  8
_U+30EC_U+30A4_U+30E4_U+30FC 1
 62
   179
420
  2234388
370
     9
100
AcDbSpline
210
0.0
220
0.0
230
1.0
 70
    11
 71
     3
 72
    17
 73
    13
 74
     0
 42
0.0000000001
 43
0.0000000001
 12
1.0
 22
0.0
 32
0.0
 13
1.0
 23
0.0
 33
0.0
 40
0.0
 40
0.0
 40
0.0
 40
0.0
 40
1.0
 40
1.0
 40
1.0
 40
2.0
 40
2.0
 40
2.0
 40
3.0
 40
3.0
 40
3.0
 40
4.0
 40
4.0
 40
4.0
 40
4.0
 10
110.4304835715725
 20
-133.6617849665844
 30
0.0
 10
110.4304835715725
 20
-133.606645799932
 30
0.0
 10
110.3856807949378
 20
-133.5618782999428
 30
0.0
 10
110.3305444168617
 20
-133.5618782999428
 30
0.0
 10
110.2754377421948
 20
-133.5618782999428
 30
0.0
 10
110.23063496556
 20
-133.606645799932
 30
0.0
 10
110.23063496556
 20
-133.6617849665844
 30
0.0
 10
110.23063496556
 20
-133.7172416332371
 30
0.0
 10
110.2754377421948
 20
-133.7620444110038
 30
0.0
 10
110.3305444168617
 20
-133.7620444110038
 30
0.0
 10
110.3856807949378
 20
-133.7620444110038
 30
0.0
 10
110.4304835715725
 20
-133.7172416332371
 30
0.0
 10
110.4304835715725
 20
-133.6617849665844
 30
0.0
  0
SPLINE
  5
8A
330
1F
100
AcDbEntity
  8
_U+30EC_U+30A4_U+30E4_U+30FC 1
 62
   179
420
  2234388
370
     9
100
AcDbSpline
210
0.0
220
0.0
230
1.0
 70
    11
 71
     3
 72
    17
 73
    13
 74
     0
 42
0.0000000001
 43
0.0000000001
 12
1.0
 22
0.0
 32
0.0
 13
1.0
 23
0.0
 33
0.0
 40
0.0
 40
0.0
 40
0.0
 40
0.0
 40
1.0
 40
1.0
 40
1.0
 40
2.0
 40
2.0
 40
2.0
 40
3.0
 40
3.0
 40
3.0
 40
4.0
 40
4.0
 40
4.0
 40
4.0
 10
78.930568541869
 20
-147.1620613520983
 30
0.0
 10
78.930568541869
 20
-147.1066046854456
 30
0.0
 10
78.8858010430111
 20
-147.0618371854571
 30
0.0
 10
78.83066386918135
 20
-147.0618371854571
 30
0.0
 10
78.77555799026808
 20
-147.0618371854571
 30
0.0
 10
78.73075521363332
 20
-147.1066046854456
 30
0.0
 10
78.73075521363332
 20
-147.1620613520983
 30
0.0
 10
78.73075521363332
 20
-147.2172005187514
 30
0.0
 10
78.77555799026808
 20
-147.2619680187399
 30
0.0
 10
78.83066386918135
 20
-147.2619680187399
 30
0.0
 10
78.8858010430111
 20
-147.2619680187399
 30
0.0
 10
78.930568541869
 20
-147.2172005187514
 30
0.0
 10
78.930568541869
 20
-147.1620613520983
 30
0.0
  0
SPLINE
  5
8B
330
1F
100
AcDbEntity
  8
_U+30EC_U+30A4_U+30E4_U+30FC 1
 62
   179
420
  2234388
370
    25
100
AcDbSpline
210
0.0
220
0.0
230
1.0
 70
     8
 71
     3
 72
     8
 73
     4
 74
     0
 42
0.0000000001
 43
0.0000000001
 12
1.0
 22
0.0
 32
0.0
 13
1.0
 23
0.0
 33
0.0
 40
0.0
 40
0.0
 40
0.0
 40
0.0
 40
1.0
 40
1.0
 40
1.0
 40
1.0
 10
86.3306466864106
 20
-113.6619660826955
 30
0.0
 10
85.77805558939727
 20
-113.6619660826955
 30
0.0
 10
85.33020421193402
 20
-114.1096410825837
 30
0.0
 10
85.33020421193402
 20
-114.6619146935566
 30
0.0
  0
SPLINE
  5
8C
330
1F
100
AcDbEntity
  8
_U+30EC_U+30A4_U+30E4_U+30FC 1
 62
   179
420
  2234388
370
    25
100
AcDbSpline
210
0.0
220
0.0
230
1.0
 70
     8
 71
     3
 72
     8
 73
     4
 74
     0
 42
0.0000000001
 43
0.0000000001
 12
1.0
 22
0.0
 32
0.0
 13
1.0
 23
0.0
 33
0.0
 40
0.0
 40
0.0
 40
0.0
 40
0.0
 40
1.0
 40
1.0
 40
1.0
 40
1.0
 10
105.3303400905769
 20
-134.6619099663347
 30
0.0
 10
105.8829311875903
 20
-134.6619099663347
 30
0.0
 10
106.3301122872928
 20
-134.2140232997795
 30
0.0
 10
106.3301122872928
 20
-133.6617849665844
 30
0.0
  0
SPLINE
  5
8D
330
1F
100
AcDbEntity
  8
_U+30EC_U+30A4_U+30E4_U+30FC 1
 62
   179
420
  2234388
370
     9
100
AcDbSpline
210
0.0
220
0.0
230
1.0
 70
    11
 71
     3
 72
    17
 73
    13
 74
     0
 42
0.0000000001
 43
0.0000000001
 12
1.0
 22
0.0
 32
0.0
 13
1.0
 23
0.0
 33
0.0
 40
0.0
 40
0.0
 40
0.0
 40
0.0
 40
1.0
 40
1.0
 40
1.0
 40
2.0
 40
2.0
 40
2.0
 40
3.0
 40
3.0
 40
3.0
 40
4.0
 40
4.0
 40
4.0
 40
4.0
 10
85.4307833119757
 20
-123.1618130247651
 30
0.0
 10
85.4307833119757
 20
-123.1067091358899
 30
0.0
 10
85.38601365495464
 20
-123.0619063581235
 30
0.0
 10
85.33020421193402
 20
-123.0619063581235
 30
0.0
 10
85.27506504667407
 20
-123.0619063581235
 30
0.0
 10
85.23029754781618
 20
-123.1067091358899
 30
0.0
 10
85.23029754781618
 20
-123.1618130247651
 30
0.0
 10
85.23029754781618
 20
-123.2172696914178
 30
0.0
 10
85.27506504667407
 20
-123.2620724691845
 30
0.0
 10
85.33020421193402
 20
-123.2620724691845
 30
0.0
 10
85.38601365495464
 20
-123.2620724691845
 30
0.0
 10
85.4307833119757
 20
-123.2172696914178
 30
0.0
 10
85.4307833119757
 20
-123.1618130247651
 30
0.0
  0
SPLINE
  5
8E
330
1F
100
AcDbEntity
  8
_U+30EC_U+30A4_U+30E4_U+30FC 1
 62
   179
420
  2234388
370
     9
100
AcDbSpline
210
0.0
220
0.0
230
1.0
 70
    11
 71
     3
 72
    17
 73
    13
 74
     0
 42
0.0000000001
 43
0.0000000001
 12
1.0
 22
0.0
 32
0.0
 13
1.0
 23
0.0
 33
0.0
 40
0.0
 40
0.0
 40
0.0
 40
0.0
 40
1.0
 40
1.0
 40
1.0
 40
2.0
 40
2.0
 40
2.0
 40
3.0
 40
3.0
 40
3.0
 40
4.0
 40
4.0
 40
4.0
 40
4.0
 10
97.93029722381219
 20
-134.6619099663347
 30
0.0
 10
97.93029722381219
 20
-134.6067707996816
 30
0.0
 10
97.88549444717744
 20
-134.5619680219149
 30
0.0
 10
97.83039055969437
 20
-134.5619680219149
 30
0.0
 10
97.7752513944344
 20
-134.5619680219149
 30
0.0
 10
97.73048389557653
 20
-134.6067707996816
 30
0.0
 10
97.73048389557653
 20
-134.6619099663347
 30
0.0
 10
97.73048389557653
 20
-134.7170138552096
 30
0.0
 10
97.7752513944344
 20
-134.7618166329763
 30
0.0
 10
97.83039055969437
 20
-134.7618166329763
 30
0.0
 10
97.88549444717744
 20
-134.7618166329763
 30
0.0
 10
97.93029722381219
 20
-134.7170138552096
 30
0.0
 10
97.93029722381219
 20
-134.6619099663347
 30
0.0
  0
SPLINE
  5
8F
330
1F
100
AcDbEntity
  8
_U+30EC_U+30A4_U+30E4_U+30FC 1
 62
   179
420
  2234388
370
     9
100
AcDbSpline
210
0.0
220
0.0
230
1.0
 70
    11
 71
     3
 72
    17
 73
    13
 74
     0
 42
0.0000000001
 43
0.0000000001
 12
1.0
 22
0.0
 32
0.0
 13
1.0
 23
0.0
 33
0.0
 40
0.0
 40
0.0
 40
0.0
 40
0.0
 40
1.0
 40
1.0
 40
1.0
 40
2.0
 40
2.0
 40
2.0
 40
3.0
 40
3.0
 40
3.0
 40
4.0
 40
4.0
 40
4.0
 40
4.0
 10
97.93029722381219
 20
-140.1619977427375
 30
0.0
 10
97.93029722381219
 20
-140.1065057983066
 30
0.0
 10
97.88549444717744
 20
-140.0617382983181
 30
0.0
 10
97.83039055969437
 20
-140.0617382983181
 30
0.0
 10
97.7752513944344
 20
-140.0617382983181
 30
0.0
 10
97.73048389557653
 20
-140.1065057983066
 30
0.0
 10
97.73048389557653
 20
-140.1619977427375
 30
0.0
 10
97.73048389557653
 20
-140.2171016316124
 30
0.0
 10
97.7752513944344
 20
-140.2619044093791
 30
0.0
 10
97.83039055969437
 20
-140.2619044093791
 30
0.0
 10
97.88549444717744
 20
-140.2619044093791
 30
0.0
 10
97.93029722381219
 20
-140.2171016316124
 30
0.0
 10
97.93029722381219
 20
-140.1619977427375
 30
0.0
  0
SPLINE
  5
90
330
1F
100
AcDbEntity
  8
_U+30EC_U+30A4_U+30E4_U+30FC 1
 62
   179
420
  2234388
370
     9
100
AcDbSpline
210
0.0
220
0.0
230
1.0
 70
    11
 71
     3
 72
    17
 73
    13
 74
     0
 42
0.0000000001
 43
0.0000000001
 12
1.0
 22
0.0
 32
0.0
 13
1.0
 23
0.0
 33
0.0
 40
0.0
 40
0.0
 40
0.0
 40
0.0
 40
1.0
 40
1.0
 40
1.0
 40
2.0
 40
2.0
 40
2.0
 40
3.0
 40
3.0
 40
3.0
 40
4.0
 40
4.0
 40
4.0
 40
4.0
 10
93.93053815918789
 20
-147.1620613520983
 30
0.0
 10
93.93053815918789
 20
-147.1066046854456
 30
0.0
 10
93.88573538255312
 20
-147.0618371854571
 30
0.0
 10
93.83063149507005
 20
-147.0618371854571
 30
0.0
 10
93.77482205204942
 20
-147.0618371854571
 30
0.0
 10
93.73072483095221
 20
-147.1066046854456
 30
0.0
 10
93.73072483095221
 20
-147.1620613520983
 30
0.0
 10
93.73072483095221
 20
-147.2172005187514
 30
0.0
 10
93.77482205204942
 20
-147.2619680187399
 30
0.0
 10
93.83063149507005
 20
-147.2619680187399
 30
0.0
 10
93.88573538255312
 20
-147.2619680187399
 30
0.0
 10
93.93053815918789
 20
-147.2172005187514
 30
0.0
 10
93.93053815918789
 20
-147.1620613520983
 30
0.0
  0
SPLINE
  5
91
330
1F
100
AcDbEntity
  8
_U+30EC_U+30A4_U+30E4_U+30FC 1
 62
   179
420
  2234388
370
     9
100
AcDbSpline
210
0.0
220
0.0
230
1.0
 70
    11
 71
     3
 72
    17
 73
    13
 74
     0
 42
0.0000000001
 43
0.0000000001
 12
1.0
 22
0.0
 32
0.0
 13
1.0
 23
0.0
 33
0.0
 40
0.0
 40
0.0
 40
0.0
 40
0.0
 40
1.0
 40
1.0
 40
1.0
 40
2.0
 40
2.0
 40
2.0
 40
3.0
 40
3.0
 40
3.0
 40
4.0
 40
4.0
 40
4.0
 40
4.0
 10
106.4307245069482
 20
-147.1620613520983
 30
0.0
 10
106.4307245069482
 20
-147.1066046854456
 30
0.0
 10
106.3859217303135
 20
-147.0618371854571
 30
0.0
 10
106.3301122872928
 20
-147.0618371854571
 30
0.0
 10
106.2750110845425
 20
-147.0618371854571
 30
0.0
 10
106.2302083067758
 20
-147.1066046854456
 30
0.0
 10
106.2302083067758
 20
-147.1620613520983
 30
0.0
 10
106.2302083067758
 20
-147.2172005187514
 30
0.0
 10
106.2750110845425
 20
-147.2619680187399
 30
0.0
 10
106.3301122872928
 20
-147.2619680187399
 30
0.0
 10
106.3859217303135
 20
-147.2619680187399
 30
0.0
 10
106.4307245069482
 20
-147.2172005187514
 30
0.0
 10
106.4307245069482
 20
-147.1620613520983
 30
0.0
  0
POLYLINE
  5
92
330
1F
100
AcDbEntity
  8
_U+30EC_U+30A4_U+30E4_U+30FC 1
 62
   179
420
  2234388
370
     9
100
AcDb2dPolyline
 66
     1
 10
0.0
 20
0.0
 30
0.0
  0
VERTEX
  5
93
330
92
100
AcDbEntity
  8
_U+30EC_U+30A4_U+30E4_U+30FC 1
 62
   179
420
  2234388
370
     9
100
AcDbVertex
100
AcDb2dVertex
 10
78.83066386918135
 20
-123.1618130247651
 30
0.0
  0
VERTEX
  5
94
330
92
100
AcDbEntity
  8
_U+30EC_U+30A4_U+30E4_U+30FC 1
 62
   179
420
  2234388
370
     9
100
AcDbVertex
100
AcDb2dVertex
 10
75.06034947393984
 20
-123.1618130247651
 30
0.0
  0
SEQEND
  5
95
330
92
100
AcDbEntity
  8
_U+30EC_U+30A4_U+30E4_U+30FC 1
 62
   179
420
  2234388
370
     9
  0
POLYLINE
  5
96
330
1F
100
AcDbEntity
  8
_U+30EC_U+30A4_U+30E4_U+30FC 1
 62
   179
420
  2234388
370
     9
100
AcDb2dPolyline
 66
     1
 10
0.0
 20
0.0
 30
0.0
  0
VERTEX
  5
97
330
96
100
AcDbEntity
  8
_U+30EC_U+30A4_U+30E4_U+30FC 1
 62
   179
420
  2234388
370
     9
100
AcDbVertex
100
AcDb2dVertex
 10
79.83043609115356
 20
-123.1618130247651
 30
0.0
  0
VERTEX
  5
98
330
96
100
AcDbEntity
  8
_U+30EC_U+30A4_U+30E4_U+30FC 1
 62
   179
420
  2234388
370
     9
100
AcDbVertex
100
AcDb2dVertex
 10
78.83066386918135
 20
-123.1618130247651
 30
0.0
  0
SEQEND
  5
99
330
96
100
AcDbEntity
  8
_U+30EC_U+30A4_U+30E4_U+30FC 1
 62
   179
420
  2234388
370
     9
  0
POLYLINE
  5
9A
330
1F
100
AcDbEntity
  8
_U+30EC_U+30A4_U+30E4_U+30FC 1
 62
   179
420
  2234388
370
     9
100
AcDb2dPolyline
 66
     1
 10
0.0
 20
0.0
 30
0.0
  0
VERTEX
  5
9B
330
9A
100
AcDbEntity
  8
_U+30EC_U+30A4_U+30E4_U+30FC 1
 62
   179
420
  2234388
370
     9
100
AcDbVertex
100
AcDb2dVertex
 10
79.83043609115356
 20
-124.6218544132888
 30
0.0
  0
VERTEX
  5
9C
330
9A
100
AcDbEntity
  8
_U+30EC_U+30A4_U+30E4_U+30FC 1
 62
   179
420
  2234388
370
     9
100
AcDbVertex
100
AcDb2dVertex
 10
79.83043609115356
 20
-122.161723302793
 30
0.0
  0
SEQEND
  5
9D
330
9A
100
AcDbEntity
  8
_U+30EC_U+30A4_U+30E4_U+30FC 1
 62
   179
420
  2234388
370
     9
  0
POLYLINE
  5
9E
330
1F
100
AcDbEntity
  8
_U+30EC_U+30A4_U+30E4_U+30FC 1
 62
   179
420
  2234388
370
     9
100
AcDb2dPolyline
 66
     1
 10
0.0
 20
0.0
 30
0.0
  0
VERTEX
  5
9F
330
9E
100
AcDbEntity
  8
_U+30EC_U+30A4_U+30E4_U+30FC 1
 62
   179
420
  2234388
370
     9
100
AcDbVertex
100
AcDb2dVertex
 10
78.83066386918135
 20
-125.6219794130388
 30
0.0
  0
VERTEX
  5
A0
330
9E
100
AcDbEntity
  8
_U+30EC_U+30A4_U+30E4_U+30FC 1
 62
   179
420
  2234388
370
     9
100
AcDbVertex
100
AcDb2dVertex
 10
78.83066386918135
 20
-122.161723302793
 30
0.0
  0
SEQEND
  5
A1
330
9E
100
AcDbEntity
  8
_U+30EC_U+30A4_U+30E4_U+30FC 1
 62
   179
420
  2234388
370
     9
  0
INSERT
  5
A3
330
1F
100
AcDbEntity
  8
_U+30EC_U+30A4_U+30E4_U+30FC 1
100
AcDbBlockReference
  2
block 2
 10
0.0
 20
0.0
 30
0.0
  0
POLYLINE
  5
A8
330
1F
100
AcDbEntity
  8
_U+30EC_U+30A4_U+30E4_U+30FC 1
 62
   179
420
  2234388
370
     9
100
AcDb2dPolyline
 66
     1
 10
0.0
 20
0.0
 30
0.0
  0
VERTEX
  5
A9
330
A8
100
AcDbEntity
  8
_U+30EC_U+30A4_U+30E4_U+30FC 1
 62
   179
420
  2234388
370
     9
100
AcDbVertex
100
AcDb2dVertex
 10
86.3306466864106
 20
-111.1218955277752
 30
0.0
  0
VERTEX
  5
AA
330
A8
100
AcDbEntity
  8
_U+30EC_U+30A4_U+30E4_U+30FC 1
 62
   179
420
  2234388
370
     9
100
AcDbVertex
100
AcDb2dVertex
 10
86.3306466864106
 20
-108.6619408061679
 30
0.0
  0
SEQEND
  5
AB
330
A8
100
AcDbEntity
  8
_U+30EC_U+30A4_U+30E4_U+30FC 1
 62
   179
420
  2234388
370
     9
  0
POLYLINE
  5
AC
330
1F
100
AcDbEntity
  8
_U+30EC_U+30A4_U+30E4_U+30FC 1
 62
   179
420
  2234388
370
     9
100
AcDb2dPolyline
 66
     1
 10
0.0
 20
0.0
 30
0.0
  0
VERTEX
  5
AD
330
AC
100
AcDbEntity
  8
_U+30EC_U+30A4_U+30E4_U+30FC 1
 62
   179
420
  2234388
370
     9
100
AcDbVertex
100
AcDb2dVertex
 10
106.3301122872928
 20
-131.1220671894419
 30
0.0
  0
VERTEX
  5
AE
330
AC
100
AcDbEntity
  8
_U+30EC_U+30A4_U+30E4_U+30FC 1
 62
   179
420
  2234388
370
     9
100
AcDbVertex
100
AcDb2dVertex
 10
106.3301122872928
 20
-108.6619408061679
 30
0.0
  0
SEQEND
  5
AF
330
AC
100
AcDbEntity
  8
_U+30EC_U+30A4_U+30E4_U+30FC 1
 62
   179
420
  2234388
370
     9
  0
POLYLINE
  5
B0
330
1F
100
AcDbEntity
  8
_U+30EC_U+30A4_U+30E4_U+30FC 1
 62
   179
420
  2234388
370
     9
100
AcDb2dPolyline
 66
     1
 10
0.0
 20
0.0
 30
0.0
  0
VERTEX
  5
B1
330
B0
100
AcDbEntity
  8
_U+30EC_U+30A4_U+30E4_U+30FC 1
 62
   179
420
  2234388
370
     9
100
AcDbVertex
100
AcDb2dVertex
 10
110.3305444168617
 20
-133.6617849665844
 30
0.0
  0
VERTEX
  5
B2
330
B0
100
AcDbEntity
  8
_U+30EC_U+30A4_U+30E4_U+30FC 1
 62
   179
420
  2234388
370
     9
100
AcDbVertex
100
AcDb2dVertex
 10
110.3305444168617
 20
-113.6619660826955
 30
0.0
  0
SEQEND
  5
B3
330
B0
100
AcDbEntity
  8
_U+30EC_U+30A4_U+30E4_U+30FC 1
 62
   179
420
  2234388
370
     9
  0
POLYLINE
  5
B4
330
1F
100
AcDbEntity
  8
_U+30EC_U+30A4_U+30E4_U+30FC 1
 62
   179
420
  2234388
370
     9
100
AcDb2dPolyline
 66
     1
 10
0.0
 20
0.0
 30
0.0
  0
VERTEX
  5
B5
330
B4
100
AcDbEntity
  8
_U+30EC_U+30A4_U+30E4_U+30FC 1
 62
   179
420
  2234388
370
     9
100
AcDbVertex
100
AcDb2dVertex
 10
108.8705355558146
 20
-133.6617849665844
 30
0.0
  0
VERTEX
  5
B6
330
B4
100
AcDbEntity
  8
_U+30EC_U+30A4_U+30E4_U+30FC 1
 62
   179
420
  2234388
370
     9
100
AcDbVertex
100
AcDb2dVertex
 10
111.3303166388342
 20
-133.6617849665844
 30
0.0
  0
SEQEND
  5
B7
330
B4
100
AcDbEntity
  8
_U+30EC_U+30A4_U+30E4_U+30FC 1
 62
   179
420
  2234388
370
     9
  0
POLYLINE
  5
B8
330
1F
100
AcDbEntity
  8
_U+30EC_U+30A4_U+30E4_U+30FC 1
 62
   179
420
  2234388
370
     9
100
AcDb2dPolyline
 66
     1
 10
0.0
 20
0.0
 30
0.0
  0
VERTEX
  5
B9
330
B8
100
AcDbEntity
  8
_U+30EC_U+30A4_U+30E4_U+30FC 1
 62
   179
420
  2234388
370
     9
100
AcDbVertex
100
AcDb2dVertex
 10
88.87036664444913
 20
-113.6619660826955
 30
0.0
  0
VERTEX
  5
BA
330
B8
100
AcDbEntity
  8
_U+30EC_U+30A4_U+30E4_U+30FC 1
 62
   179
420
  2234388
370
     9
100
AcDbVertex
100
AcDb2dVertex
 10
111.3303166388342
 20
-113.6619660826955
 30
0.0
  0
SEQEND
  5
BB
330
B8
100
AcDbEntity
  8
_U+30EC_U+30A4_U+30E4_U+30FC 1
 62
   179
420
  2234388
370
     9
  0
INSERT
  5
BD
330
1F
100
AcDbEntity
  8
_U+30EC_U+30A4_U+30E4_U+30FC 1
100
AcDbBlockReference
  2
block 3
 10
0.0
 20
0.0
 30
0.0
  0
POLYLINE
  5
C5
330
1F
100
AcDbEntity
  8
_U+30EC_U+30A4_U+30E4_U+30FC 1
 62
   179
420
  2234388
370
     9
100
AcDb2dPolyline
 66
     1
 10
0.0
 20
0.0
 30
0.0
  0
VERTEX
  5
C6
330
C5
100
AcDbEntity
  8
_U+30EC_U+30A4_U+30E4_U+30FC 1
 62
   179
420
  2234388
370
     9
100
AcDbVertex
100
AcDb2dVertex
 10
79.19723325728803
 20
-139.96493607612
 30
0.0
  0
VERTEX
  5
C7
330
C5
100
AcDbEntity
  8
_U+30EC_U+30A4_U+30E4_U+30FC 1
 62
   179
420
  2234388
370
     9
100
AcDbVertex
100
AcDb2dVertex
 10
75.87822945307398
 20
-141.9923499645018
 30
0.0
  0
SEQEND
  5
C8
330
C5
100
AcDbEntity
  8
_U+30EC_U+30A4_U+30E4_U+30FC 1
 62
   179
420
  2234388
370
     9
  0
POLYLINE
  5
C9
330
1F
100
AcDbEntity
  8
_U+30EC_U+30A4_U+30E4_U+30FC 1
 62
   179
420
  2234388
370
     9
100
AcDb2dPolyline
 66
     1
 10
0.0
 20
0.0
 30
0.0
  0
VERTEX
  5
CA
330
C9
100
AcDbEntity
  8
_U+30EC_U+30A4_U+30E4_U+30FC 1
 62
   179
420
  2234388
370
     9
100
AcDbVertex
100
AcDb2dVertex
 10
75.87822945307398
 20
-141.9923499645018
 30
0.0
  0
VERTEX
  5
CB
330
C9
100
AcDbEntity
  8
_U+30EC_U+30A4_U+30E4_U+30FC 1
 62
   179
420
  2234388
370
     9
100
AcDbVertex
100
AcDb2dVertex
 10
70.37641320454811
 20
-141.9923499645018
 30
0.0
  0
SEQEND
  5
CC
330
C9
100
AcDbEntity
  8
_U+30EC_U+30A4_U+30E4_U+30FC 1
 62
   179
420
  2234388
370
     9
  0
INSERT
  5
CE
330
1F
100
AcDbEntity
  8
_U+30EC_U+30A4_U+30E4_U+30FC 1
100
AcDbBlockReference
  2
block 4
 10
0.0
 20
0.0
 30
0.0
  0
POLYLINE
  5
E0
330
1F
100
AcDbEntity
  8
_U+30EC_U+30A4_U+30E4_U+30FC 1
 62
   179
420
  2234388
370
     9
100
AcDb2dPolyline
 66
     1
 10
0.0
 20
0.0
 30
0.0
  0
VERTEX
  5
E1
330
E0
100
AcDbEntity
  8
_U+30EC_U+30A4_U+30E4_U+30FC 1
 62
   179
420
  2234388
370
     9
100
AcDbVertex
100
AcDb2dVertex
 10
93.83063149507005
 20
-147.1620613520983
 30
0.0
  0
VERTEX
  5
E2
330
E0
100
AcDbEntity
  8
_U+30EC_U+30A4_U+30E4_U+30FC 1
 62
   179
420
  2234388
370
     9
100
AcDbVertex
100
AcDb2dVertex
 10
78.83066386918135
 20
-147.1620613520983
 30
0.0
  0
SEQEND
  5
E3
330
E0
100
AcDbEntity
  8
_U+30EC_U+30A4_U+30E4_U+30FC 1
 62
   179
420
  2234388
370
     9
  0
POLYLINE
  5
E4
330
1F
100
AcDbEntity
  8
_U+30EC_U+30A4_U+30E4_U+30FC 1
 62
   179
420
  2234388
370
     9
100
AcDb2dPolyline
 66
     1
 10
0.0
 20
0.0
 30
0.0
  0
VERTEX
  5
E5
330
E4
100
AcDbEntity
  8
_U+30EC_U+30A4_U+30E4_U+30FC 1
 62
   179
420
  2234388
370
     9
100
AcDbVertex
100
AcDb2dVertex
 10
93.83063149507005
 20
-142.7020682976577
 30
0.0
  0
VERTEX
  5
E6
330
E4
100
AcDbEntity
  8
_U+30EC_U+30A4_U+30E4_U+30FC 1
 62
   179
420
  2234388
370
     9
100
AcDbVertex
100
AcDb2dVertex
 10
93.83063149507005
 20
-148.1618335740708
 30
0.0
  0
SEQEND
  5
E7
330
E4
100
AcDbEntity
  8
_U+30EC_U+30A4_U+30E4_U+30FC 1
 62
   179
420
  2234388
370
     9
  0
POLYLINE
  5
E8
330
1F
100
AcDbEntity
  8
_U+30EC_U+30A4_U+30E4_U+30FC 1
 62
   179
420
  2234388
370
     9
100
AcDb2dPolyline
 66
     1
 10
0.0
 20
0.0
 30
0.0
  0
VERTEX
  5
E9
330
E8
100
AcDbEntity
  8
_U+30EC_U+30A4_U+30E4_U+30FC 1
 62
   179
420
  2234388
370
     9
100
AcDbVertex
100
AcDb2dVertex
 10
78.83066386918135
 20
-141.2020571869215
 30
0.0
  0
VERTEX
  5
EA
330
E8
100
AcDbEntity
  8
_U+30EC_U+30A4_U+30E4_U+30FC 1
 62
   179
420
  2234388
370
     9
100
AcDbVertex
100
AcDb2dVertex
 10
78.83066386918135
 20
-148.1618335740708
 30
0.0
  0
SEQEND
  5
EB
330
E8
100
AcDbEntity
  8
_U+30EC_U+30A4_U+30E4_U+30FC 1
 62
   179
420
  2234388
370
     9
  0
INSERT
  5
ED
330
1F
100
AcDbEntity
  8
_U+30EC_U+30A4_U+30E4_U+30FC 1
100
AcDbBlockReference
  2
block 5
 10
0.0
 20
0.0
 30
0.0
  0
POLYLINE
  5
F4
330
1F
100
AcDbEntity
  8
_U+30EC_U+30A4_U+30E4_U+30FC 1
 62
   179
420
  2234388
370
     9
100
AcDb2dPolyline
 66
     1
 10
0.0
 20
0.0
 30
0.0
  0
VERTEX
  5
F5
330
F4
100
AcDbEntity
  8
_U+30EC_U+30A4_U+30E4_U+30FC 1
 62
   179
420
  2234388
370
     9
100
AcDbVertex
100
AcDb2dVertex
 10
93.83063149507005
 20
-147.1620613520983
 30
0.0
  0
VERTEX
  5
F6
330
F4
100
AcDbEntity
  8
_U+30EC_U+30A4_U+30E4_U+30FC 1
 62
   179
420
  2234388
370
     9
100
AcDbVertex
100
AcDb2dVertex
 10
106.3301122872928
 20
-147.1620613520983
 30
0.0
  0
SEQEND
  5
F7
330
F4
100
AcDbEntity
  8
_U+30EC_U+30A4_U+30E4_U+30FC 1
 62
   179
420
  2234388
370
     9
  0
POLYLINE
  5
F8
330
1F
100
AcDbEntity
  8
_U+30EC_U+30A4_U+30E4_U+30FC 1
 62
   179
420
  2234388
370
     9
100
AcDb2dPolyline
 66
     1
 10
0.0
 20
0.0
 30
0.0
  0
VERTEX
  5
F9
330
F8
100
AcDbEntity
  8
_U+30EC_U+30A4_U+30E4_U+30FC 1
 62
   179
420
  2234388
370
     9
100
AcDbVertex
100
AcDb2dVertex
 10
106.3301122872928
 20
-136.2018555215054
 30
0.0
  0
VERTEX
  5
FA
330
F8
100
AcDbEntity
  8
_U+30EC_U+30A4_U+30E4_U+30FC 1
 62
   179
420
  2234388
370
     9
100
AcDbVertex
100
AcDb2dVertex
 10
106.3301122872928
 20
-148.1618335740708
 30
0.0
  0
SEQEND
  5
FB
330
F8
100
AcDbEntity
  8
_U+30EC_U+30A4_U+30E4_U+30FC 1
 62
   179
420
  2234388
370
     9
  0
INSERT
  5
FD
330
1F
100
AcDbEntity
  8
_U+30EC_U+30A4_U+30E4_U+30FC 1
100
AcDbBlockReference
  2
block 6
 10
0.0
 20
0.0
 30
0.0
  0
POLYLINE
  5
10E
330
1F
100
AcDbEntity
  8
_U+30EC_U+30A4_U+30E4_U+30FC 1
 62
   179
420
  2234388
370
     9
100
AcDb2dPolyline
 66
     1
 10
0.0
 20
0.0
 30
0.0
  0
VERTEX
  5
10F
330
10E
100
AcDbEntity
  8
_U+30EC_U+30A4_U+30E4_U+30FC 1
 62
   179
420
  2234388
370
     9
100
AcDbVertex
100
AcDb2dVertex
 10
97.83039055969437
 20
-134.6619099663347
 30
0.0
  0
VERTEX
  5
110
330
10E
100
AcDbEntity
  8
_U+30EC_U+30A4_U+30E4_U+30FC 1
 62
   179
420
  2234388
370
     9
100
AcDbVertex
100
AcDb2dVertex
 10
97.83039055969437
 20
-140.1619977427375
 30
0.0
  0
SEQEND
  5
111
330
10E
100
AcDbEntity
  8
_U+30EC_U+30A4_U+30E4_U+30FC 1
 62
   179
420
  2234388
370
     9
  0
POLYLINE
  5
112
330
1F
100
AcDbEntity
  8
_U+30EC_U+30A4_U+30E4_U+30FC 1
 62
   179
420
  2234388
370
     9
100
AcDb2dPolyline
 66
     1
 10
0.0
 20
0.0
 30
0.0
  0
VERTEX
  5
113
330
112
100
AcDbEntity
  8
_U+30EC_U+30A4_U+30E4_U+30FC 1
 62
   179
420
  2234388
370
     9
100
AcDbVertex
100
AcDb2dVertex
 10
96.37034920805424
 20
-140.1619977427375
 30
0.0
  0
VERTEX
  5
114
330
112
100
AcDbEntity
  8
_U+30EC_U+30A4_U+30E4_U+30FC 1
 62
   179
420
  2234388
370
     9
100
AcDbVertex
100
AcDb2dVertex
 10
98.83012747863339
 20
-140.1619977427375
 30
0.0
  0
SEQEND
  5
115
330
112
100
AcDbEntity
  8
_U+30EC_U+30A4_U+30E4_U+30FC 1
 62
   179
420
  2234388
370
     9
  0
INSERT
  5
117
330
1F
100
AcDbEntity
  8
_U+30EC_U+30A4_U+30E4_U+30FC 1
100
AcDbBlockReference
  2
block 7
 10
0.0
 20
0.0
 30
0.0
  0
POLYLINE
  5
126
330
1F
100
AcDbEntity
  8
_U+30EC_U+30A4_U+30E4_U+30FC 1
 62
   179
420
  2234388
370
     9
100
AcDb2dPolyline
 66
     1
 10
0.0
 20
0.0
 30
0.0
  0
VERTEX
  5
127
330
126
100
AcDbEntity
  8
_U+30EC_U+30A4_U+30E4_U+30FC 1
 62
   179
420
  2234388
370
     9
100
AcDbVertex
100
AcDb2dVertex
 10
79.83043609115356
 20
-123.1618130247651
 30
0.0
  0
VERTEX
  5
128
330
126
100
AcDbEntity
  8
_U+30EC_U+30A4_U+30E4_U+30FC 1
 62
   179
420
  2234388
370
     9
100
AcDbVertex
100
AcDb2dVertex
 10
85.33020421193402
 20
-123.1618130247651
 30
0.0
  0
SEQEND
  5
129
330
126
100
AcDbEntity
  8
_U+30EC_U+30A4_U+30E4_U+30FC 1
 62
   179
420
  2234388
370
     9
  0
POLYLINE
  5
12A
330
1F
100
AcDbEntity
  8
_U+30EC_U+30A4_U+30E4_U+30FC 1
 62
   179
420
  2234388
370
     9
100
AcDb2dPolyline
 66
     1
 10
0.0
 20
0.0
 30
0.0
  0
VERTEX
  5
12B
330
12A
100
AcDbEntity
  8
_U+30EC_U+30A4_U+30E4_U+30FC 1
 62
   179
420
  2234388
370
     9
100
AcDbVertex
100
AcDb2dVertex
 10
79.83043609115356
 20
-123.6217294135392
 30
0.0
  0
VERTEX
  5
12C
330
12A
100
AcDbEntity
  8
_U+30EC_U+30A4_U+30E4_U+30FC 1
 62
   179
420
  2234388
370
     9
100
AcDbVertex
100
AcDb2dVertex
 10
79.83043609115356
 20
-122.161723302793
 30
0.0
  0
SEQEND
  5
12D
330
12A
100
AcDbEntity
  8
_U+30EC_U+30A4_U+30E4_U+30FC 1
 62
   179
420
  2234388
370
     9
  0
POLYLINE
  5
12E
330
1F
100
AcDbEntity
  8
_U+30EC_U+30A4_U+30E4_U+30FC 1
 62
   179
420
  2234388
370
    25
100
AcDb2dPolyline
 66
     1
 10
0.0
 20
0.0
 30
0.0
  0
VERTEX
  5
12F
330
12E
100
AcDbEntity
  8
_U+30EC_U+30A4_U+30E4_U+30FC 1
 62
   179
420
  2234388
370
    25
100
AcDbVertex
100
AcDb2dVertex
 10
85.33020421193402
 20
-125.7018835796858
 30
0.0
  0
VERTEX
  5
130
330
12E
100
AcDbEntity
  8
_U+30EC_U+30A4_U+30E4_U+30FC 1
 62
   179
420
  2234388
370
    25
100
AcDbVertex
100
AcDb2dVertex
 10
85.33020421193402
 20
-125.1617102464873
 30
0.0
  0
SEQEND
  5
131
330
12E
100
AcDbEntity
  8
_U+30EC_U+30A4_U+30E4_U+30FC 1
 62
   179
420
  2234388
370
    25
  0
INSERT
  5
133
330
1F
100
AcDbEntity
  8
_U+30EC_U+30A4_U+30E4_U+30FC 1
100
AcDbBlockReference
  2
block 8
 10
0.0
 20
0.0
 30
0.0
  0
ENDSEC
  0
SECTION
  2
OBJECTS
  0
DICTIONARY
  5
C
330
0
100
AcDbDictionary
281
     1
  3
ACAD_GROUP
350
D
  3
ACAD_LAYOUT
350
1A
  3
ACAD_MATERIAL
350
3B
  3
ACAD_MLEADERSTYLE
350
143
  3
ACAD_MLINESTYLE
350
17
  3
ACAD_PLOTSETTINGS
350
19
  3
ACAD_PLOTSTYLENAME
350
E
  3
ACAD_TABLESTYLE
350
142
  3
ACAD_VISUALSTYLE
350
2A
  0
SUN
  5
3F
330
29
100
AcDbSun
 90
        1
290
     0
 63
     7
421
 16777215
 40
1.0
291
     1
 91
  2455826
 92
 54000000
292
     0
 70
     2
 71
   256
280
     1
  0
DICTIONARY
  5
D
102
{ACAD_REACTORS
330
C
102
}
330
C
100
AcDbDictionary
281
     1
  0
DICTIONARY
  5
1A
102
{ACAD_REACTORS
330
C
102
}
330
C
100
AcDbDictionary
281
     1
  3
Layout1
350
1E
  3
Layout2
350
26
  3
Model
350
22
  0
DICTIONARY
  5
3B
102
{ACAD_REACTORS
330
C
102
}
330
C
100
AcDbDictionary
281
     1
  3
ByBlock
350
3D
  3
ByLayer
350
3C
  3
Global
350
3E
  0
DICTIONARY
  5
143
102
{ACAD_REACTORS
330
C
102
}
330
C
100
AcDbDictionary
281
     1
  0
DICTIONARY
  5
17
102
{ACAD_REACTORS
330
C
102
}
330
C
100
AcDbDictionary
281
     1
  3
Standard
350
18
  0
DICTIONARY
  5
19
102
{ACAD_REACTORS
330
C
102
}
330
C
100
AcDbDictionary
281
     1
  0
ACDBDICTIONARYWDFLT
  5
E
102
{ACAD_REACTORS
330
C
102
}
330
C
100
AcDbDictionary
281
     1
  3
Normal
350
F
100
AcDbDictionaryWithDefault
340
F
  0
DICTIONARY
  5
142
102
{ACAD_REACTORS
330
C
102
}
330
C
100
AcDbDictionary
281
     1
  0
DICTIONARY
  5
2A
102
{ACAD_REACTORS
330
C
102
}
330
C
100
AcDbDictionary
281
     1
  3
2dWireframe
350
2F
  3
3D Hidden
350
31
  3
3dWireframe
350
30
  3
Basic
350
32
  3
Brighten
350
36
  3
ColorChange
350
3A
  3
Conceptual
350
34
  3
Dim
350
35
  3
Facepattern
350
39
  3
Flat
350
2B
  3
FlatWithEdges
350
2C
  3
Gouraud
350
2D
  3
GouraudWithEdges
350
2E
  3
Linepattern
350
38
  3
Realistic
350
33
  3
Thicken
350
37
  0
LAYOUT
  5
1E
102
{ACAD_REACTORS
330
1A
102
}
330
1A
100
AcDbPlotSettings
  1

  2
none_device
  4

  6

 40
0.0
 41
0.0
 42
0.0
 43
0.0
 44
0.0
 45
0.0
 46
0.0
 47
0.0
 48
0.0
 49
0.0
140
0.0
141
0.0
142
1.0
143
1.0
 70
   688
 72
     0
 73
     0
 74
     5
  7

 75
    16
 76
     0
 77
     2
 78
   300
147
1.0
148
0.0
149
0.0
100
AcDbLayout
  1
Layout1
 70
     1
 71
     1
 10
0.0
 20
0.0
 11
12.0
 21
9.0
 12
0.0
 22
0.0
 32
0.0
 14
1.000000000000000E+20
 24
1.000000000000000E+20
 34
1.000000000000000E+20
 15
-1.000000000000000E+20
 25
-1.000000000000000E+20
 35
-1.000000000000000E+20
146
0.0
 13
0.0
 23
0.0
 33
0.0
 16
1.0
 26
0.0
 36
0.0
 17
0.0
 27
1.0
 37
0.0
 76
     0
330
1B
  0
LAYOUT
  5
26
102
{ACAD_REACTORS
330
1A
102
}
330
1A
100
AcDbPlotSettings
  1

  2
none_device
  4

  6

 40
0.0
 41
0.0
 42
0.0
 43
0.0
 44
0.0
 45
0.0
 46
0.0
 47
0.0
 48
0.0
 49
0.0
140
0.0
141
0.0
142
1.0
143
1.0
 70
   688
 72
     0
 73
     0
 74
     5
  7

 75
    16
 76
     0
 77
     2
 78
   300
147
1.0
148
0.0
149
0.0
100
AcDbLayout
  1
Layout2
 70
     1
 71
     2
 10
0.0
 20
0.0
 11
0.0
 21
0.0
 12
0.0
 22
0.0
 32
0.0
 14
0.0
 24
0.0
 34
0.0
 15
0.0
 25
0.0
 35
0.0
146
0.0
 13
0.0
 23
0.0
 33
0.0
 16
1.0
 26
0.0
 36
0.0
 17
0.0
 27
1.0
 37
0.0
 76
     0
330
23
  0
LAYOUT
  5
22
102
{ACAD_REACTORS
330
1A
102
}
330
1A
100
AcDbPlotSettings
  1

  2
none_device
  4

  6

 40
0.0
 41
0.0
 42
0.0
 43
0.0
 44
0.0
 45
0.0
 46
0.0
 47
0.0
 48
0.0
 49
0.0
140
0.0
141
0.0
142
1.0
143
1.0
 70
  1712
 72
     0
 73
     0
 74
     0
  7

 75
     0
 76
     0
 77
     2
 78
   300
147
1.0
148
0.0
149
0.0
100
AcDbLayout
  1
Model
 70
     1
 71
     0
 10
0.0
 20
0.0
 11
12.0
 21
9.0
 12
0.0
 22
0.0
 32
0.0
 14
1.000000000000000E+20
 24
1.000000000000000E+20
 34
1.000000000000000E+20
 15
-1.000000000000000E+20
 25
-1.000000000000000E+20
 35
-1.000000000000000E+20
146
0.0
 13
0.0
 23
0.0
 33
0.0
 16
1.0
 26
0.0
 36
0.0
 17
0.0
 27
1.0
 37
0.0
 76
     0
330
1F
331
29
  0
MATERIAL
  5
3D
102
{ACAD_REACTORS
330
3B
102
}
330
3B
100
AcDbMaterial
  1
ByBlock
 72
     1
 94
      127
  0
MATERIAL
  5
3C
102
{ACAD_REACTORS
330
3B
102
}
330
3B
100
AcDbMaterial
  1
ByLayer
 72
     1
 94
      127
  0
MATERIAL
  5
3E
102
{ACAD_REACTORS
330
3B
102
}
330
3B
100
AcDbMaterial
  1
Global
 72
     1
 94
      127
  0
MLINESTYLE
  5
18
102
{ACAD_REACTORS
330
17
102
}
330
17
100
AcDbMlineStyle
  2
Standard
 70
     0
  3

 62
   256
 51
90.0
 52
90.0
 71
     2
 49
0.5
 62
   256
  6
BYLAYER
 49
-0.5
 62
   256
  6
BYLAYER
  0
ACDBPLACEHOLDER
  5
F
102
{ACAD_REACTORS
330
E
102
}
330
E
  0
VISUALSTYLE
  5
2F
102
{ACAD_REACTORS
330
2A
102
}
330
2A
100
AcDbVisualStyle
  2
2dWireframe
 70
     4
177
     2
291
     0
 71
     0
176
     1
 72
     2
176
     1
 73
     0
176
     1
 90
        0
176
     1
 40
-0.6
176
     1
 41
-30.0
176
     1
 62
     5
 63
     7
421
 16777215
176
     1
 74
     1
176
     1
 91
        4
176
     1
 64
     7
176
     1
 65
   257
176
     1
 75
     1
176
     1
175
     1
176
     1
 42
1.0
176
     1
 92
        0
176
     1
 66
   257
176
     1
 43
1.0
176
     1
 76
     1
176
     1
 77
     6
176
     1
 78
     2
176
     1
 67
     7
176
     1
 79
     5
176
     1
170
     0
176
     1
171
     0
176
     1
290
     0
176
     1
 93
        1
176
     1
 44
0.0
176
     1
173
     0
176
     1
  0
VISUALSTYLE
  5
31
102
{ACAD_REACTORS
330
2A
102
}
330
2A
100
AcDbVisualStyle
  2
3D Hidden
 70
     6
177
     2
291
     0
 71
     1
176
     1
 72
     2
176
     1
 73
     2
176
     1
 90
        0
176
     1
 40
-0.6
176
     1
 41
-30.0
176
     1
 62
     5
 63
     7
421
 16777215
176
     1
 74
     2
176
     1
 91
        2
176
     1
 64
     7
176
     1
 65
   257
176
     1
 75
     2
176
     1
175
     1
176
     1
 42
40.0
176
     1
 92
        0
176
     1
 66
   257
176
     1
 43
1.0
176
     1
 76
     1
176
     1
 77
     6
176
     1
 78
     2
176
     1
 67
     7
176
     1
 79
     3
176
     1
170
     0
176
     1
171
     0
176
     1
290
     0
176
     1
 93
        1
176
     1
 44
0.0
176
     1
173
     0
176
     1
  0
VISUALSTYLE
  5
30
102
{ACAD_REACTORS
330
2A
102
}
330
2A
100
AcDbVisualStyle
  2
3dWireframe
 70
     5
177
     2
291
     0
 71
     0
176
     1
 72
     2
176
     1
 73
     0
176
     1
 90
        0
176
     1
 40
-0.6
176
     1
 41
-30.0
176
     1
 62
     5
 63
     7
421
 16777215
176
     1
 74
     1
176
     1
 91
        4
176
     1
 64
     7
176
     1
 65
   257
176
     1
 75
     1
176
     1
175
     1
176
     1
 42
1.0
176
     1
 92
        0
176
     1
 66
   257
176
     1
 43
1.0
176
     1
 76
     1
176
     1
 77
     6
176
     1
 78
     2
176
     1
 67
     7
176
     1
 79
     5
176
     1
170
     0
176
     1
171
     0
176
     1
290
     0
176
     1
 93
        1
176
     1
 44
0.0
176
     1
173
     0
176
     1
  0
VISUALSTYLE
  5
32
102
{ACAD_REACTORS
330
2A
102
}
330
2A
100
AcDbVisualStyle
  2
Basic
 70
     7
177
     2
291
     1
 71
     1
176
     1
 72
     0
176
     1
 73
     1
176
     1
 90
        0
176
     1
 40
-0.6
176
     1
 41
-30.0
176
     1
 62
     5
 63
     7
421
 16777215
176
     1
 74
     0
176
     1
 91
        4
176
     1
 64
     7
176
     1
 65
   257
176
     1
 75
     1
176
     1
175
     1
176
     1
 42
1.0
176
     1
 92
        8
176
     1
 66
     7
176
     1
 43
1.0
176
     1
 76
     1
176
     1
 77
     6
176
     1
 78
     2
176
     1
 67
     7
176
     1
 79
     5
176
     1
170
     0
176
     1
171
     0
176
     1
290
     0
176
     1
 93
        1
176
     1
 44
0.0
176
     1
173
     0
176
     1
  0
VISUALSTYLE
  5
36
102
{ACAD_REACTORS
330
2A
102
}
330
2A
100
AcDbVisualStyle
  2
Brighten
 70
    12
177
     2
291
     1
 71
     2
176
     1
 72
     2
176
     1
 73
     0
176
     1
 90
        0
176
     1
 40
-0.6
176
     1
 41
-30.0
176
     1
 62
     5
 63
     7
421
 16777215
176
     1
 74
     1
176
     1
 91
        4
176
     1
 64
     7
176
     1
 65
   257
176
     1
 75
     1
176
     1
175
     1
176
     1
 42
1.0
176
     1
 92
        8
176
     1
 66
     7
176
     1
 43
1.0
176
     1
 76
     1
176
     1
 77
     6
176
     1
 78
     2
176
     1
 67
     7
176
     1
 79
     5
176
     1
170
     0
176
     1
171
     0
176
     1
290
     0
176
     1
 93
        1
176
     1
 44
50.0
176
     1
173
     0
176
     1
  0
VISUALSTYLE
  5
3A
102
{ACAD_REACTORS
330
2A
102
}
330
2A
100
AcDbVisualStyle
  2
ColorChange
 70
    16
177
     2
291
     1
 71
     2
176
     1
 72
     2
176
     1
 73
     3
176
     1
 90
        0
176
     1
 40
-0.6
176
     1
 41
-30.0
176
     1
 62
     5
 63
     8
421
  8421504
176
     1
 74
     1
176
     1
 91
        4
176
     1
 64
     7
176
     1
 65
   257
176
     1
 75
     1
176
     1
175
     1
176
     1
 42
1.0
176
     1
 92
        8
176
     1
 66
     8
424
  8421504
176
     1
 43
1.0
176
     1
 76
     1
176
     1
 77
     6
176
     1
 78
     2
176
     1
 67
     7
176
     1
 79
     5
176
     1
170
     0
176
     1
171
     0
176
     1
290
     0
176
     1
 93
        1
176
     1
 44
0.0
176
     1
173
     0
176
     1
  0
VISUALSTYLE
  5
34
102
{ACAD_REACTORS
330
2A
102
}
330
2A
100
AcDbVisualStyle
  2
Conceptual
 70
     9
177
     2
291
     0
 71
     3
176
     1
 72
     2
176
     1
 73
     0
176
     1
 90
        0
176
     1
 40
-0.6
176
     1
 41
-30.0
176
     1
 62
     5
 63
     7
421
 16777215
176
     1
 74
     2
176
     1
 91
        2
176
     1
 64
     7
176
     1
 65
   257
176
     1
 75
     1
176
     1
175
     1
176
     1
 42
40.0
176
     1
 92
        8
176
     1
 66
     7
176
     1
 43
1.0
176
     1
 76
     1
176
     1
 77
     6
176
     1
 78
     2
176
     1
 67
     7
176
     1
 79
     3
176
     1
170
     0
176
     1
171
     0
176
     1
290
     0
176
     1
 93
        1
176
     1
 44
0.0
176
     1
173
     0
176
     1
  0
VISUALSTYLE
  5
35
102
{ACAD_REACTORS
330
2A
102
}
330
2A
100
AcDbVisualStyle
  2
Dim
 70
    11
177
     2
291
     1
 71
     2
176
     1
 72
     2
176
     1
 73
     0
176
     1
 90
        0
176
     1
 40
-0.6
176
     1
 41
-30.0
176
     1
 62
     5
 63
     7
421
 16777215
176
     1
 74
     1
176
     1
 91
        4
176
     1
 64
     7
176
     1
 65
   257
176
     1
 75
     1
176
     1
175
     1
176
     1
 42
1.0
176
     1
 92
        8
176
     1
 66
     7
176
     1
 43
1.0
176
     1
 76
     1
176
     1
 77
     6
176
     1
 78
     2
176
     1
 67
     7
176
     1
 79
     5
176
     1
170
     0
176
     1
171
     0
176
     1
290
     0
176
     1
 93
        1
176
     1
 44
-50.0
176
     1
173
     0
176
     1
  0
VISUALSTYLE
  5
39
102
{ACAD_REACTORS
330
2A
102
}
330
2A
100
AcDbVisualStyle
  2
Facepattern
 70
    15
177
     2
291
     1
 71
     2
176
     1
 72
     2
176
     1
 73
     0
176
     1
 90
        0
176
     1
 40
-0.6
176
     1
 41
-30.0
176
     1
 62
     5
 63
     7
421
 16777215
176
     1
 74
     1
176
     1
 91
        4
176
     1
 64
     7
176
     1
 65
   257
176
     1
 75
     1
176
     1
175
     1
176
     1
 42
1.0
176
     1
 92
        8
176
     1
 66
     7
176
     1
 43
1.0
176
     1
 76
     1
176
     1
 77
     6
176
     1
 78
     2
176
     1
 67
     7
176
     1
 79
     5
176
     1
170
     0
176
     1
171
     0
176
     1
290
     0
176
     1
 93
        1
176
     1
 44
0.0
176
     1
173
     0
176
     1
  0
VISUALSTYLE
  5
2B
102
{ACAD_REACTORS
330
2A
102
}
330
2A
100
AcDbVisualStyle
  2
Flat
 70
     0
177
     2
291
     1
 71
     2
176
     1
 72
     1
176
     1
 73
     1
176
     1
 90
        2
176
     1
 40
-0.6
176
     1
 41
30.0
176
     1
 62
     5
 63
     7
421
 16777215
176
     1
 74
     0
176
     1
 91
        4
176
     1
 64
     7
176
     1
 65
   257
176
     1
 75
     1
176
     1
175
     1
176
     1
 42
1.0
176
     1
 92
        8
176
     1
 66
     7
176
     1
 43
1.0
176
     1
 76
     1
176
     1
 77
     6
176
     1
 78
     2
176
     1
 67
     7
176
     1
 79
     5
176
     1
170
     0
176
     1
171
     0
176
     1
290
     0
176
     1
 93
       13
176
     1
 44
0.0
176
     1
173
     0
176
     1
  0
VISUALSTYLE
  5
2C
102
{ACAD_REACTORS
330
2A
102
}
330
2A
100
AcDbVisualStyle
  2
FlatWithEdges
 70
     1
177
     2
291
     1
 71
     2
176
     1
 72
     1
176
     1
 73
     1
176
     1
 90
        2
176
     1
 40
-0.6
176
     1
 41
30.0
176
     1
 62
     5
 63
     7
421
 16777215
176
     1
 74
     1
176
     1
 91
        4
176
     1
 64
     7
176
     1
 65
   257
176
     1
 75
     1
176
     1
175
     1
176
     1
 42
1.0
176
     1
 92
        0
176
     1
 66
   257
176
     1
 43
1.0
176
     1
 76
     1
176
     1
 77
     6
176
     1
 78
     2
176
     1
 67
     7
176
     1
 79
     5
176
     1
170
     0
176
     1
171
     0
176
     1
290
     0
176
     1
 93
       13
176
     1
 44
0.0
176
     1
173
     0
176
     1
  0
VISUALSTYLE
  5
2D
102
{ACAD_REACTORS
330
2A
102
}
330
2A
100
AcDbVisualStyle
  2
Gouraud
 70
     2
177
     2
291
     1
 71
     2
176
     1
 72
     2
176
     1
 73
     1
176
     1
 90
        2
176
     1
 40
-0.6
176
     1
 41
30.0
176
     1
 62
     5
 63
     7
421
 16777215
176
     1
 74
     0
176
     1
 91
        4
176
     1
 64
     7
176
     1
 65
   257
176
     1
 75
     1
176
     1
175
     1
176
     1
 42
1.0
176
     1
 92
        0
176
     1
 66
     7
176
     1
 43
1.0
176
     1
 76
     1
176
     1
 77
     6
176
     1
 78
     2
176
     1
 67
     7
176
     1
 79
     5
176
     1
170
     0
176
     1
171
     0
176
     1
290
     0
176
     1
 93
       13
176
     1
 44
0.0
176
     1
173
     0
176
     1
  0
VISUALSTYLE
  5
2E
102
{ACAD_REACTORS
330
2A
102
}
330
2A
100
AcDbVisualStyle
  2
GouraudWithEdges
 70
     3
177
     2
291
     1
 71
     2
176
     1
 72
     2
176
     1
 73
     1
176
     1
 90
        2
176
     1
 40
-0.6
176
     1
 41
30.0
176
     1
 62
     5
 63
     7
421
 16777215
176
     1
 74
     1
176
     1
 91
        4
176
     1
 64
     7
176
     1
 65
   257
176
     1
 75
     1
176
     1
175
     1
176
     1
 42
1.0
176
     1
 92
        0
176
     1
 66
   257
176
     1
 43
1.0
176
     1
 76
     1
176
     1
 77
     6
176
     1
 78
     2
176
     1
 67
     7
176
     1
 79
     5
176
     1
170
     0
176
     1
171
     0
176
     1
290
     0
176
     1
 93
       13
176
     1
 44
0.0
176
     1
173
     0
176
     1
  0
VISUALSTYLE
  5
38
102
{ACAD_REACTORS
330
2A
102
}
330
2A
100
AcDbVisualStyle
  2
Linepattern
 70
    14
177
     2
291
     1
 71
     2
176
     1
 72
     2
176
     1
 73
     0
176
     1
 90
        0
176
     1
 40
-0.6
176
     1
 41
-30.0
176
     1
 62
     5
 63
     7
421
 16777215
176
     1
 74
     1
176
     1
 91
        4
176
     1
 64
     7
176
     1
 65
   257
176
     1
 75
     7
176
     1
175
     7
176
     1
 42
1.0
176
     1
 92
        8
176
     1
 66
     7
176
     1
 43
1.0
176
     1
 76
     1
176
     1
 77
     6
176
     1
 78
     2
176
     1
 67
     7
176
     1
 79
     5
176
     1
170
     0
176
     1
171
     0
176
     1
290
     0
176
     1
 93
        1
176
     1
 44
0.0
176
     1
173
     0
176
     1
  0
VISUALSTYLE
  5
33
102
{ACAD_REACTORS
330
2A
102
}
330
2A
100
AcDbVisualStyle
  2
Realistic
 70
     8
177
     2
291
     0
 71
     2
176
     1
 72
     2
176
     1
 73
     0
176
     1
 90
        0
176
     1
 40
-0.6
176
     1
 41
-30.0
176
     1
 62
     5
 63
     7
421
 16777215
176
     1
 74
     1
176
     1
 91
        0
176
     1
 64
     7
176
     1
 65
   257
176
     1
 75
     1
176
     1
175
     1
176
     1
 42
1.0
176
     1
 92
        8
176
     1
 66
     8
424
  7895160
176
     1
 43
1.0
176
     1
 76
     1
176
     1
 77
     6
176
     1
 78
     2
176
     1
 67
     7
176
     1
 79
     5
176
     1
170
     0
176
     1
171
     0
176
     1
290
     0
176
     1
 93
       13
176
     1
 44
0.0
176
     1
173
     0
176
     1
  0
VISUALSTYLE
  5
37
102
{ACAD_REACTORS
330
2A
102
}
330
2A
100
AcDbVisualStyle
  2
Thicken
 70
    13
177
     2
291
     1
 71
     2
176
     1
 72
     2
176
     1
 73
     0
176
     1
 90
        0
176
     1
 40
-0.6
176
     1
 41
-30.0
176
     1
 62
     5
 63
     7
421
 16777215
176
     1
 74
     1
176
     1
 91
        4
176
     1
 64
     7
176
     1
 65
   257
176
     1
 75
     1
176
     1
175
     1
176
     1
 42
1.0
176
     1
 92
       12
176
     1
 66
     7
176
     1
 43
1.0
176
     1
 76
     1
176
     1
 77
     6
176
     1
 78
     2
176
     1
 67
     7
176
     1
 79
     5
176
     1
170
     0
176
     1
171
     0
176
     1
290
     0
176
     1
 93
        1
176
     1
 44
0.0
176
     1
173
     0
176
     1
  0
ENDSEC
  0
EOF
