  0
SECTION
  2
HEADER
  9
$ACADVER
  1
AC1024
  9
$ACADMAINTVER
 70
     6
  9
$DWGCODEPAGE
  3
UNDEFINED
  9
$INSBASE
 10
0.0
 20
0.0
 30
0.0
  9
$EXTMIN
 10
1.000000000000000E+20
 20
1.000000000000000E+20
 30
1.000000000000000E+20
  9
$EXTMAX
 10
-1.000000000000000E+20
 20
-1.000000000000000E+20
 30
-1.000000000000000E+20
  9
$LIMMIN
 10
0.0
 20
0.0
  9
$LIMMAX
 10
12.0
 20
9.0
  9
$ORTHOMODE
 70
     0
  9
$REGENMODE
 70
     1
  9
$FILLMODE
 70
     1
  9
$QTEXTMODE
 70
     0
  9
$MIRRTEXT
 70
     1
  9
$LTSCALE
 40
1.0
  9
$ATTMODE
 70
     1
  9
$TEXTSIZE
 40
0.2
  9
$TRACEWID
 40
0.05
  9
$TEXTSTYLE
  7
Standard
  9
$CLAYER
  8
0
  9
$CELTYPE
  6
ByLayer
  9
$CECOLOR
 62
   256
  9
$CELTSCALE
 40
1.0
  9
$DISPSILH
 70
     0
  9
$DIMSCALE
 40
1.0
  9
$DIMASZ
 40
0.18
  9
$DIMEXO
 40
0.0625
  9
$DIMDLI
 40
0.38
  9
$DIMRND
 40
0.0
  9
$DIMDLE
 40
0.0
  9
$DIMEXE
 40
0.18
  9
$DIMTP
 40
0.0
  9
$DIMTM
 40
0.0
  9
$DIMTXT
 40
0.18
  9
$DIMCEN
 40
0.09
  9
$DIMTSZ
 40
0.0
  9
$DIMTOL
 70
     0
  9
$DIMLIM
 70
     0
  9
$DIMTIH
 70
     1
  9
$DIMTOH
 70
     1
  9
$DIMSE1
 70
     0
  9
$DIMSE2
 70
     0
  9
$DIMTAD
 70
     0
  9
$DIMZIN
 70
     0
  9
$DIMBLK
  1

  9
$DIMASO
 70
     1
  9
$DIMSHO
 70
     1
  9
$DIMPOST
  1

  9
$DIMAPOST
  1

  9
$DIMALT
 70
     0
  9
$DIMALTD
 70
     2
  9
$DIMALTF
 40
25.4
  9
$DIMLFAC
 40
1.0
  9
$DIMTOFL
 70
     0
  9
$DIMTVP
 40
0.0
  9
$DIMTIX
 70
     0
  9
$DIMSOXD
 70
     0
  9
$DIMSAH
 70
     0
  9
$DIMBLK1
  1

  9
$DIMBLK2
  1

  9
$DIMSTYLE
  2
Standard
  9
$DIMCLRD
 70
     0
  9
$DIMCLRE
 70
     0
  9
$DIMCLRT
 70
     0
  9
$DIMTFAC
 40
1.0
  9
$DIMGAP
 40
0.09
  9
$DIMJUST
 70
     0
  9
$DIMSD1
 70
     0
  9
$DIMSD2
 70
     0
  9
$DIMTOLJ
 70
     1
  9
$DIMTZIN
 70
     0
  9
$DIMALTZ
 70
     0
  9
$DIMALTTZ
 70
     0
  9
$DIMUPT
 70
     0
  9
$DIMDEC
 70
     4
  9
$DIMTDEC
 70
     4
  9
$DIMALTU
 70
     2
  9
$DIMALTTD
 70
     2
  9
$DIMTXSTY
  7
Standard
  9
$DIMAUNIT
 70
     0
  9
$DIMADEC
 70
     0
  9
$DIMALTRND
 40
0.0
  9
$DIMAZIN
 70
     0
  9
$DIMDSEP
 70
    46
  9
$DIMATFIT
 70
     3
  9
$DIMFRAC
 70
     0
  9
$DIMLDRBLK
  1

  9
$DIMLUNIT
 70
     2
  9
$DIMLWD
 70
    -2
  9
$DIMLWE
 70
    -2
  9
$DIMTMOVE
 70
     0
  9
$DIMFXL
 40
1.0
  9
$DIMFXLON
 70
     0
  9
$DIMJOGANG
 40
0.7853981633974483
  9
$DIMTFILL
 70
     0
  9
$DIMTFILLCLR
 70
     0
  9
$DIMARCSYM
 70
     0
  9
$DIMLTYPE
  6

  9
$DIMLTEX1
  6

  9
$DIMLTEX2
  6

  9
$DIMTXTDIRECTION
 70
     0
  9
$LUNITS
 70
     2
  9
$LUPREC
 70
     4
  9
$SKETCHINC
 40
0.1
  9
$FILLETRAD
 40
0.5
  9
$AUNITS
 70
     0
  9
$AUPREC
 70
     0
  9
$MENU
  1
.
  9
$ELEVATION
 40
0.0
  9
$PELEVATION
 40
0.0
  9
$THICKNESS
 40
0.0
  9
$LIMCHECK
 70
     0
  9
$CHAMFERA
 40
0.5
  9
$CHAMFERB
 40
0.5
  9
$CHAMFERC
 40
1.0
  9
$CHAMFERD
 40
0.0
  9
$SKPOLY
 70
     0
  9
$TDCREATE
 40
2457917.594849537
  9
$TDUCREATE
 40
2457917.219849537
  9
$TDUPDATE
 40
2457917.594849537
  9
$TDUUPDATE
 40
2457917.219849537
  9
$TDINDWG
 40
0.0000000116
  9
$TDUSRTIMER
 40
0.0000000116
  9
$USRTIMER
 70
     1
  9
$ANGBASE
 50
0.0
  9
$ANGDIR
 70
     0
  9
$PDMODE
 70
     0
  9
$PDSIZE
 40
0.0
  9
$PLINEWID
 40
0.0
  9
$SPLFRAME
 70
     0
  9
$SPLINETYPE
 70
     6
  9
$SPLINESEGS
 70
     8
  9
$HANDSEED
  5
17F
  9
$SURFTAB1
 70
     6
  9
$SURFTAB2
 70
     6
  9
$SURFTYPE
 70
     6
  9
$SURFU
 70
     6
  9
$SURFV
 70
     6
  9
$UCSBASE
  2

  9
$UCSNAME
  2

  9
$UCSORG
 10
0.0
 20
0.0
 30
0.0
  9
$UCSXDIR
 10
1.0
 20
0.0
 30
0.0
  9
$UCSYDIR
 10
0.0
 20
1.0
 30
0.0
  9
$UCSORTHOREF
  2

  9
$UCSORTHOVIEW
 70
     0
  9
$UCSORGTOP
 10
0.0
 20
0.0
 30
0.0
  9
$UCSORGBOTTOM
 10
0.0
 20
0.0
 30
0.0
  9
$UCSORGLEFT
 10
0.0
 20
0.0
 30
0.0
  9
$UCSORGRIGHT
 10
0.0
 20
0.0
 30
0.0
  9
$UCSORGFRONT
 10
0.0
 20
0.0
 30
0.0
  9
$UCSORGBACK
 10
0.0
 20
0.0
 30
0.0
  9
$PUCSBASE
  2

  9
$PUCSNAME
  2

  9
$PUCSORG
 10
0.0
 20
0.0
 30
0.0
  9
$PUCSXDIR
 10
1.0
 20
0.0
 30
0.0
  9
$PUCSYDIR
 10
0.0
 20
1.0
 30
0.0
  9
$PUCSORTHOREF
  2

  9
$PUCSORTHOVIEW
 70
     0
  9
$PUCSORGTOP
 10
0.0
 20
0.0
 30
0.0
  9
$PUCSORGBOTTOM
 10
0.0
 20
0.0
 30
0.0
  9
$PUCSORGLEFT
 10
0.0
 20
0.0
 30
0.0
  9
$PUCSORGRIGHT
 10
0.0
 20
0.0
 30
0.0
  9
$PUCSORGFRONT
 10
0.0
 20
0.0
 30
0.0
  9
$PUCSORGBACK
 10
0.0
 20
0.0
 30
0.0
  9
$USERI1
 70
     0
  9
$USERI2
 70
     0
  9
$USERI3
 70
     0
  9
$USERI4
 70
     0
  9
$USERI5
 70
     0
  9
$USERR1
 40
0.0
  9
$USERR2
 40
0.0
  9
$USERR3
 40
0.0
  9
$USERR4
 40
0.0
  9
$USERR5
 40
0.0
  9
$WORLDVIEW
 70
     1
  9
$SHADEDGE
 70
     3
  9
$SHADEDIF
 70
    70
  9
$TILEMODE
 70
     1
  9
$MAXACTVP
 70
    64
  9
$PINSBASE
 10
0.0
 20
0.0
 30
0.0
  9
$PLIMCHECK
 70
     0
  9
$PEXTMIN
 10
1.000000000000000E+20
 20
1.000000000000000E+20
 30
1.000000000000000E+20
  9
$PEXTMAX
 10
-1.000000000000000E+20
 20
-1.000000000000000E+20
 30
-1.000000000000000E+20
  9
$PLIMMIN
 10
0.0
 20
0.0
  9
$PLIMMAX
 10
12.0
 20
9.0
  9
$UNITMODE
 70
     0
  9
$VISRETAIN
 70
     1
  9
$PLINEGEN
 70
     0
  9
$PSLTSCALE
 70
     1
  9
$TREEDEPTH
 70
  3020
  9
$CMLSTYLE
  2
Standard
  9
$CMLJUST
 70
     0
  9
$CMLSCALE
 40
1.0
  9
$PROXYGRAPHICS
 70
     1
  9
$MEASUREMENT
 70
     0
  9
$CELWEIGHT
370
    -1
  9
$ENDCAPS
280
     0
  9
$JOINSTYLE
280
     0
  9
$LWDISPLAY
290
     1
  9
$INSUNITS
 70
     1
  9
$HYPERLINKBASE
  1

  9
$STYLESHEET
  1

  9
$XEDIT
290
     1
  9
$CEPSNTYPE
380
     0
  9
$PSTYLEMODE
290
     1
  9
$FINGERPRINTGUID
  2
{2E3BD06A-46B7-EA7A-49EE-3B02A1DEDC0F}
  9
$VERSIONGUID
  2
{FAEB1C32-E019-11D5-929B-00C0DF256EC4}
  9
$EXTNAMES
290
     1
  9
$PSVPSCALE
 40
0.0
  9
$OLESTARTUP
290
     0
  9
$SORTENTS
280
   127
  9
$INDEXCTL
280
     0
  9
$HIDETEXT
280
     1
  9
$XCLIPFRAME
280
     2
  9
$HALOGAP
280
     0
  9
$OBSCOLOR
 70
   257
  9
$OBSLTYPE
280
     0
  9
$INTERSECTIONDISPLAY
280
     0
  9
$INTERSECTIONCOLOR
 70
   257
  9
$DIMASSOC
280
     2
  9
$PROJECTNAME
  1

  9
$CAMERADISPLAY
290
     0
  9
$LENSLENGTH
 40
50.0
  9
$CAMERAHEIGHT
 40
0.0
  9
$STEPSPERSEC
 40
2.0
  9
$STEPSIZE
 40
6.0
  9
$3DDWFPREC
 40
2.0
  9
$PSOLWIDTH
 40
0.25
  9
$PSOLHEIGHT
 40
4.0
  9
$LOFTANG1
 40
1.570796326794897
  9
$LOFTANG2
 40
1.570796326794897
  9
$LOFTMAG1
 40
0.0
  9
$LOFTMAG2
 40
0.0
  9
$LOFTPARAM
 70
     7
  9
$LOFTNORMALS
280
     1
  9
$LATITUDE
 40
37.795
  9
$LONGITUDE
 40
-122.394
  9
$NORTHDIRECTION
 40
0.0
  9
$TIMEZONE
 70
 -8000
  9
$LIGHTGLYPHDISPLAY
280
     1
  9
$TILEMODELIGHTSYNCH
280
     1
  9
$CMATERIAL
347
3C
  9
$SOLIDHIST
280
     1
  9
$SHOWHIST
280
     1
  9
$DWFFRAME
280
     2
  9
$DGNFRAME
280
     2
  9
$REALWORLDSCALE
290
     1
  9
$INTERFERECOLOR
 62
   256
  9
$CSHADOW
280
     0
  9
$SHADOWPLANELOCATION
 40
0.0
  0
ENDSEC
  0
SECTION
  2
CLASSES
  0
CLASS
  1
ACDBDICTIONARYWDFLT
  2
AcDbDictionaryWithDefault
  3
ObjectDBX Classes
 90
        0
 91
        4
280
     0
281
     0
  0
CLASS
  1
VISUALSTYLE
  2
AcDbVisualStyle
  3
ObjectDBX Classes
 90
     4095
 91
        4
280
     0
281
     0
  0
CLASS
  1
MATERIAL
  2
AcDbMaterial
  3
ObjectDBX Classes
 90
     1153
 91
        4
280
     0
281
     0
  0
CLASS
  1
SUN
  2
AcDbSun
  3
SCENEOE
 90
     1024
 91
        4
280
     0
281
     0
  0
ENDSEC
  0
SECTION
  2
TABLES
  0
TABLE
  2
VPORT
  5
8
330
0
100
AcDbSymbolTable
 70
     1
  0
VPORT
  5
29
330
8
100
AcDbSymbolTableRecord
100
AcDbViewportTableRecord
  2
*Active
 70
     0
 10
0.0
 20
0.0
 11
1.0
 21
1.0
 12
0.0
 22
0.0
 13
0.0
 23
0.0
 14
0.5
 24
0.5
 15
0.5
 25
0.5
 16
0.0
 26
0.0
 36
1.0
 17
91.00082462281999
 27
-128.4993055234307
 37
0.0
 40
256.9986110468615
 41
0.7081814508812795
 42
50.0
 43
0.0
 44
0.0
 50
0.0
 51
0.0
 71
     0
 72
   100
 73
     1
 74
     3
 75
     0
 76
     0
 77
     0
 78
     0
281
     0
 65
     1
110
0.0
120
0.0
130
0.0
111
1.0
121
0.0
131
0.0
112
0.0
122
1.0
132
0.0
 79
     0
146
0.0
 60
     3
 61
     5
292
     1
282
     1
141
0.0
142
0.0
 63
   250
361
3F
  0
ENDTAB
  0
TABLE
  2
LTYPE
  5
5
330
0
100
AcDbSymbolTable
 70
     1
  0
LTYPE
  5
14
330
5
100
AcDbSymbolTableRecord
100
AcDbLinetypeTableRecord
  2
ByBlock
 70
     0
  3

 72
    65
 73
     0
 40
0.0
  0
LTYPE
  5
15
330
5
100
AcDbSymbolTableRecord
100
AcDbLinetypeTableRecord
  2
ByLayer
 70
     0
  3

 72
    65
 73
     0
 40
0.0
  0
LTYPE
  5
16
330
5
100
AcDbSymbolTableRecord
100
AcDbLinetypeTableRecord
  2
Continuous
 70
     0
  3
Solid line
 72
    65
 73
     0
 40
0.0
  0
ENDTAB
  0
TABLE
  2
LAYER
  5
2
330
0
100
AcDbSymbolTable
 70
     2
  0
LAYER
  5
10
330
2
100
AcDbSymbolTableRecord
100
AcDbLayerTableRecord
  2
0
 70
     0
 62
     7
  6
Continuous
370
    -3
390
F
347
3E
  0
LAYER
  5
40
330
2
100
AcDbSymbolTableRecord
100
AcDbLayerTableRecord
  2
_U+30EC_U+30A4_U+30E4_U+30FC 1
 70
     0
 62
     7
  6
Continuous
370
    -3
390
F
347
3E
  0
ENDTAB
  0
TABLE
  2
STYLE
  5
3
330
0
100
AcDbSymbolTable
 70
     1
  0
STYLE
  5
11
330
3
100
AcDbSymbolTableRecord
100
AcDbTextStyleTableRecord
  2
Standard
 70
     0
 40
0.0
 41
1.0
 50
0.0
 71
     0
 42
0.2
  3
txt
  4

  0
ENDTAB
  0
TABLE
  2
VIEW
  5
6
330
0
100
AcDbSymbolTable
 70
     0
  0
ENDTAB
  0
TABLE
  2
UCS
  5
7
330
0
100
AcDbSymbolTable
 70
     0
  0
ENDTAB
  0
TABLE
  2
APPID
  5
9
330
0
100
AcDbSymbolTable
 70
     1
  0
APPID
  5
12
330
9
100
AcDbSymbolTableRecord
100
AcDbRegAppTableRecord
  2
ACAD
 70
     0
  0
ENDTAB
  0
TABLE
  2
DIMSTYLE
  5
A
330
0
100
AcDbSymbolTable
 70
     1
100
AcDbDimStyleTable
  0
DIMSTYLE
105
27
330
A
100
AcDbSymbolTableRecord
100
AcDbDimStyleTableRecord
  2
Standard
 70
     0
178
     0
340
11
  0
ENDTAB
  0
TABLE
  2
BLOCK_RECORD
  5
1
330
0
100
AcDbSymbolTable
 70
     8
  0
BLOCK_RECORD
  5
1F
330
1
100
AcDbSymbolTableRecord
100
AcDbBlockTableRecord
  2
*Model_Space
340
22
 70
     0
280
     1
281
     0
  0
BLOCK_RECORD
  5
1B
330
1
100
AcDbSymbolTableRecord
100
AcDbBlockTableRecord
  2
*Paper_Space
340
1E
 70
     0
280
     1
281
     0
  0
BLOCK_RECORD
  5
23
330
1
100
AcDbSymbolTableRecord
100
AcDbBlockTableRecord
  2
*Paper_Space0
340
26
 70
     0
280
     1
281
     0
  0
BLOCK_RECORD
  5
A0
330
1
100
AcDbSymbolTableRecord
100
AcDbBlockTableRecord
  2
block 2
340
0
102
{BLKREFS
331
A1
102
}
 70
     0
280
     1
281
     0
  0
BLOCK_RECORD
  5
BA
330
1
100
AcDbSymbolTableRecord
100
AcDbBlockTableRecord
  2
block 3
340
0
102
{BLKREFS
331
BB
102
}
 70
     0
280
     1
281
     0
  0
BLOCK_RECORD
  5
CB
330
1
100
AcDbSymbolTableRecord
100
AcDbBlockTableRecord
  2
block 4
340
0
102
{BLKREFS
331
CC
102
}
 70
     0
280
     1
281
     0
  0
BLOCK_RECORD
  5
E2
330
1
100
AcDbSymbolTableRecord
100
AcDbBlockTableRecord
  2
block 5
340
0
102
{BLKREFS
331
E3
102
}
 70
     0
280
     1
281
     0
  0
BLOCK_RECORD
  5
10D
330
1
100
AcDbSymbolTableRecord
100
AcDbBlockTableRecord
  2
block 6
340
0
102
{BLKREFS
331
10E
102
}
 70
     0
280
     1
281
     0
  0
BLOCK_RECORD
  5
138
330
1
100
AcDbSymbolTableRecord
100
AcDbBlockTableRecord
  2
block 7
340
0
102
{BLKREFS
331
139
102
}
 70
     0
280
     1
281
     0
  0
BLOCK_RECORD
  5
15A
330
1
100
AcDbSymbolTableRecord
100
AcDbBlockTableRecord
  2
block 8
340
0
102
{BLKREFS
331
15B
102
}
 70
     0
280
     1
281
     0
  0
ENDTAB
  0
ENDSEC
  0
SECTION
  2
BLOCKS
  0
BLOCK
  5
20
330
1F
100
AcDbEntity
  8
0
100
AcDbBlockBegin
  2
*Model_Space
 70
     0
 10
0.0
 20
0.0
 30
0.0
  3
*Model_Space
  1

  0
ENDBLK
  5
21
330
1F
100
AcDbEntity
  8
0
100
AcDbBlockEnd
  0
BLOCK
  5
1C
330
1B
100
AcDbEntity
 67
     1
  8
0
100
AcDbBlockBegin
  2
*Paper_Space
 70
     0
 10
0.0
 20
0.0
 30
0.0
  3
*Paper_Space
  1

  0
ENDBLK
  5
1D
330
1B
100
AcDbEntity
 67
     1
  8
0
100
AcDbBlockEnd
  0
BLOCK
  5
24
330
23
100
AcDbEntity
  8
0
100
AcDbBlockBegin
  2
*Paper_Space0
 70
     0
 10
0.0
 20
0.0
 30
0.0
  3
*Paper_Space0
  1

  0
ENDBLK
  5
25
330
23
100
AcDbEntity
  8
0
100
AcDbBlockEnd
  0
BLOCK
  5
A2
330
A0
100
AcDbEntity
  8
0
100
AcDbBlockBegin
  2
block 2
 70
     0
 10
0.0
 20
0.0
 30
0.0
  3
block 2
  1

  0
SPLINE
  5
A4
330
A0
100
AcDbEntity
  8
_U+30EC_U+30A4_U+30E4_U+30FC 1
370
     0
100
AcDbSpline
210
0.0
220
0.0
230
1.0
 70
    11
 71
     3
 72
    26
 73
    22
 74
     0
 42
0.0000000001
 43
0.0000000001
 12
1.0
 22
0.0
 32
0.0
 13
1.0
 23
0.0
 33
0.0
 40
0.0
 40
0.0
 40
0.0
 40
0.0
 40
1.0
 40
1.0
 40
1.0
 40
2.0
 40
2.0
 40
2.0
 40
3.0
 40
3.0
 40
3.0
 40
4.0
 40
4.0
 40
4.0
 40
5.0
 40
5.0
 40
5.0
 40
6.0
 40
6.0
 40
6.0
 40
7.0
 40
7.0
 40
7.0
 40
7.0
 10
76.16899412158276
 20
-121.9145222676985
 30
0.0
 10
76.16899412158276
 20
-121.9145222676985
 30
0.0
 10
76.16899412158276
 20
-120.8101969099016
 30
0.0
 10
76.16899412158276
 20
-120.8101969099016
 30
0.0
 10
76.16899412158276
 20
-120.8101969099016
 30
0.0
 10
75.83895397409582
 20
-120.8101969099016
 30
0.0
 10
75.83895397409582
 20
-120.8101969099016
 30
0.0
 10
75.83895397409582
 20
-120.8101969099016
 30
0.0
 10
75.83895397409582
 20
-120.6620578040359
 30
0.0
 10
75.83895397409582
 20
-120.6620578040359
 30
0.0
 10
76.1710611788739
 20
-120.6474161482236
 30
0.0
 10
76.21756996792477
 20
-120.4844631317712
 30
0.0
 10
76.24719778909792
 20
-120.3702582164352
 30
0.0
 10
76.24719778909792
 20
-120.3702582164352
 30
0.0
 10
76.39326983767252
 20
-120.3702582164352
 30
0.0
 10
76.39326983767252
 20
-120.3702582164352
 30
0.0
 10
76.39326983767252
 20
-120.3702582164352
 30
0.0
 10
76.39326983767252
 20
-121.9145222676985
 30
0.0
 10
76.39326983767252
 20
-121.9145222676985
 30
0.0
 10
76.39326983767252
 20
-121.9145222676985
 30
0.0
 10
76.16899412158276
 20
-121.9145222676985
 30
0.0
 10
76.16899412158276
 20
-121.9145222676985
 30
0.0
  0
HATCH
  5
A5
330
A0
100
AcDbEntity
  8
_U+30EC_U+30A4_U+30E4_U+30FC 1
 62
   179
420
  2234388
100
AcDbHatch
 10
0.0
 20
0.0
 30
0.0
210
0.0
220
0.0
230
1.0
  2
SOLID
 70
     1
 71
     0
 91
        1
 92
        1
 93
        1
 72
     4
 94
        3
 73
     0
 74
     1
 95
       26
 96
       22
 40
0.0
 40
0.0
 40
0.0
 40
0.0
 40
1.0
 40
1.0
 40
1.0
 40
2.0
 40
2.0
 40
2.0
 40
3.0
 40
3.0
 40
3.0
 40
4.0
 40
4.0
 40
4.0
 40
5.0
 40
5.0
 40
5.0
 40
6.0
 40
6.0
 40
6.0
 40
7.0
 40
7.0
 40
7.0
 40
7.0
 10
76.16899412158276
 20
-121.9145222676985
 10
76.16899412158276
 20
-121.9145222676985
 10
76.16899412158276
 20
-120.8101969099016
 10
76.16899412158276
 20
-120.8101969099016
 10
76.16899412158276
 20
-120.8101969099016
 10
75.83895397409582
 20
-120.8101969099016
 10
75.83895397409582
 20
-120.8101969099016
 10
75.83895397409582
 20
-120.8101969099016
 10
75.83895397409582
 20
-120.6620578040359
 10
75.83895397409582
 20
-120.6620578040359
 10
76.1710611788739
 20
-120.6474161482236
 10
76.21756996792477
 20
-120.4844631317712
 10
76.24719778909792
 20
-120.3702582164352
 10
76.24719778909792
 20
-120.3702582164352
 10
76.39326983767252
 20
-120.3702582164352
 10
76.39326983767252
 20
-120.3702582164352
 10
76.39326983767252
 20
-120.3702582164352
 10
76.39326983767252
 20
-121.9145222676985
 10
76.39326983767252
 20
-121.9145222676985
 10
76.39326983767252
 20
-121.9145222676985
 10
76.16899412158276
 20
-121.9145222676985
 10
76.16899412158276
 20
-121.9145222676985
 97
        0
 97
        0
 75
     2
 76
     1
 98
        0
  0
ENDBLK
  5
A3
330
A0
100
AcDbEntity
  8
0
100
AcDbBlockEnd
  0
BLOCK
  5
BC
330
BA
100
AcDbEntity
  8
0
100
AcDbBlockBegin
  2
block 3
 70
     0
 10
0.0
 20
0.0
 30
0.0
  3
block 3
  1

  0
SPLINE
  5
BE
330
BA
100
AcDbEntity
  8
_U+30EC_U+30A4_U+30E4_U+30FC 1
370
     0
100
AcDbSpline
210
0.0
220
0.0
230
1.0
 70
    11
 71
     3
 72
    44
 73
    40
 74
     0
 42
0.0000000001
 43
0.0000000001
 12
1.0
 22
0.0
 32
0.0
 13
1.0
 23
0.0
 33
0.0
 40
0.0
 40
0.0
 40
0.0
 40
0.0
 40
1.0
 40
1.0
 40
1.0
 40
2.0
 40
2.0
 40
2.0
 40
3.0
 40
3.0
 40
3.0
 40
4.0
 40
4.0
 40
4.0
 40
5.0
 40
5.0
 40
5.0
 40
6.0
 40
6.0
 40
6.0
 40
7.0
 40
7.0
 40
7.0
 40
8.0
 40
8.0
 40
8.0
 40
9.0
 40
9.0
 40
9.0
 40
10.0
 40
10.0
 40
10.0
 40
11.0
 40
11.0
 40
11.0
 40
12.0
 40
12.0
 40
12.0
 40
13.0
 40
13.0
 40
13.0
 40
13.0
 10
108.5380777723446
 20
-124.5822319567017
 30
0.0
 10
108.6968966742147
 20
-124.7999619913695
 30
0.0
 10
108.7709662271475
 20
-124.8929795694712
 30
0.0
 10
108.9146267088825
 20
-124.9418999253618
 30
0.0
 10
108.9146267088825
 20
-124.9418999253618
 30
0.0
 10
108.9146267088825
 20
-124.1633083456953
 30
0.0
 10
108.9146267088825
 20
-124.1633083456953
 30
0.0
 10
108.9146267088825
 20
-124.1633083456953
 30
0.0
 10
109.1199543998033
 20
-124.1633083456953
 30
0.0
 10
109.1199543998033
 20
-124.1633083456953
 30
0.0
 10
109.1199543998033
 20
-124.1633083456953
 30
0.0
 10
109.1199543998033
 20
-125.1913248384938
 30
0.0
 10
109.1199543998033
 20
-125.1913248384938
 30
0.0
 10
108.7623534884344
 20
-125.1596299600295
 30
0.0
 10
108.6841498209192
 20
-125.0941731458098
 30
0.0
 10
108.3858045518966
 20
-124.7090114705589
 30
0.0
 10
108.1870225423977
 20
-124.4530408760048
 30
0.0
 10
108.1191541613383
 20
-124.387584061785
 30
0.0
 10
107.9816948514768
 20
-124.387584061785
 30
0.0
 10
107.8631835667842
 20
-124.387584061785
 30
0.0
 10
107.7322699383447
 20
-124.4595865574268
 30
0.0
 10
107.7322699383447
 20
-124.6563015096345
 30
0.0
 10
107.7322699383447
 20
-124.9164062187709
 30
0.0
 10
107.9627468263079
 20
-124.925018957484
 30
0.0
 10
108.0791910537094
 20
-124.9291530720663
 30
0.0
 10
108.0791910537094
 20
-124.9291530720663
 30
0.0
 10
108.0791910537094
 20
-125.1534287881561
 30
0.0
 10
108.0791910537094
 20
-125.1534287881561
 30
0.0
 10
107.9520670303037
 20
-125.144816049443
 30
0.0
 10
107.840101427033
 20
-125.1341362534387
 30
0.0
 10
107.7215901423404
 20
-125.0538655286324
 30
0.0
 10
107.5607041831793
 20
-124.9439669826529
 30
0.0
 10
107.5269422474238
 20
-124.7575873169009
 30
0.0
 10
107.5269422474238
 20
-124.641487599048
 30
0.0
 10
107.5269422474238
 20
-124.3641574124854
 30
0.0
 10
107.7109103463362
 20
-124.1567626642733
 30
0.0
 10
107.983761908768
 20
-124.1567626642733
 30
0.0
 10
108.2125162489885
 20
-124.1567626642733
 30
0.0
 10
108.3117349989637
 20
-124.2732068916748
 30
0.0
 10
108.5380777723446
 20
-124.5822319567017
 30
0.0
  0
HATCH
  5
BF
330
BA
100
AcDbEntity
  8
_U+30EC_U+30A4_U+30E4_U+30FC 1
 62
   179
420
  2234388
100
AcDbHatch
 10
0.0
 20
0.0
 30
0.0
210
0.0
220
0.0
230
1.0
  2
SOLID
 70
     1
 71
     0
 91
        1
 92
        1
 93
        1
 72
     4
 94
        3
 73
     0
 74
     1
 95
       44
 96
       40
 40
0.0
 40
0.0
 40
0.0
 40
0.0
 40
1.0
 40
1.0
 40
1.0
 40
2.0
 40
2.0
 40
2.0
 40
3.0
 40
3.0
 40
3.0
 40
4.0
 40
4.0
 40
4.0
 40
5.0
 40
5.0
 40
5.0
 40
6.0
 40
6.0
 40
6.0
 40
7.0
 40
7.0
 40
7.0
 40
8.0
 40
8.0
 40
8.0
 40
9.0
 40
9.0
 40
9.0
 40
10.0
 40
10.0
 40
10.0
 40
11.0
 40
11.0
 40
11.0
 40
12.0
 40
12.0
 40
12.0
 40
13.0
 40
13.0
 40
13.0
 40
13.0
 10
108.5380777723446
 20
-124.5822319567017
 10
108.6968966742147
 20
-124.7999619913695
 10
108.7709662271475
 20
-124.8929795694712
 10
108.9146267088825
 20
-124.9418999253618
 10
108.9146267088825
 20
-124.9418999253618
 10
108.9146267088825
 20
-124.1633083456953
 10
108.9146267088825
 20
-124.1633083456953
 10
108.9146267088825
 20
-124.1633083456953
 10
109.1199543998033
 20
-124.1633083456953
 10
109.1199543998033
 20
-124.1633083456953
 10
109.1199543998033
 20
-124.1633083456953
 10
109.1199543998033
 20
-125.1913248384938
 10
109.1199543998033
 20
-125.1913248384938
 10
108.7623534884344
 20
-125.1596299600295
 10
108.6841498209192
 20
-125.0941731458098
 10
108.3858045518966
 20
-124.7090114705589
 10
108.1870225423977
 20
-124.4530408760048
 10
108.1191541613383
 20
-124.387584061785
 10
107.9816948514768
 20
-124.387584061785
 10
107.8631835667842
 20
-124.387584061785
 10
107.7322699383447
 20
-124.4595865574268
 10
107.7322699383447
 20
-124.6563015096345
 10
107.7322699383447
 20
-124.9164062187709
 10
107.9627468263079
 20
-124.925018957484
 10
108.0791910537094
 20
-124.9291530720663
 10
108.0791910537094
 20
-124.9291530720663
 10
108.0791910537094
 20
-125.1534287881561
 10
108.0791910537094
 20
-125.1534287881561
 10
107.9520670303037
 20
-125.144816049443
 10
107.840101427033
 20
-125.1341362534387
 10
107.7215901423404
 20
-125.0538655286324
 10
107.5607041831793
 20
-124.9439669826529
 10
107.5269422474238
 20
-124.7575873169009
 10
107.5269422474238
 20
-124.641487599048
 10
107.5269422474238
 20
-124.3641574124854
 10
107.7109103463362
 20
-124.1567626642733
 10
107.983761908768
 20
-124.1567626642733
 10
108.2125162489885
 20
-124.1567626642733
 10
108.3117349989637
 20
-124.2732068916748
 10
108.5380777723446
 20
-124.5822319567017
 97
        0
 97
        0
 75
     2
 76
     1
 98
        0
  0
SPLINE
  5
C0
330
BA
100
AcDbEntity
  8
_U+30EC_U+30A4_U+30E4_U+30FC 1
370
     0
100
AcDbSpline
210
0.0
220
0.0
230
1.0
 70
    11
 71
     3
 72
    29
 73
    25
 74
     0
 42
0.0000000001
 43
0.0000000001
 12
1.0
 22
0.0
 32
0.0
 13
1.0
 23
0.0
 33
0.0
 40
0.0
 40
0.0
 40
0.0
 40
0.0
 40
1.0
 40
1.0
 40
1.0
 40
2.0
 40
2.0
 40
2.0
 40
3.0
 40
3.0
 40
3.0
 40
4.0
 40
4.0
 40
4.0
 40
5.0
 40
5.0
 40
5.0
 40
6.0
 40
6.0
 40
6.0
 40
7.0
 40
7.0
 40
7.0
 40
8.0
 40
8.0
 40
8.0
 40
8.0
 10
108.9421874727645
 20
-123.1004963884957
 30
0.0
 10
109.1516492782677
 20
-123.2086723867326
 30
0.0
 10
109.1705973034365
 20
-123.3819606896406
 30
0.0
 10
109.1705973034365
 20
-123.4984049170421
 30
0.0
 10
109.1705973034365
 20
-123.6592908762032
 30
0.0
 10
109.1240885143856
 20
-123.800884300647
 30
0.0
 10
108.9421874727645
 20
-123.8959689360399
 30
0.0
 10
108.7475395778478
 20
-123.9996663101459
 30
0.0
 10
108.5105170084627
 20
-124.0189588448633
 30
0.0
 10
108.3479085015589
 20
-124.0189588448633
 30
0.0
 10
108.2039035102754
 20
-124.0189588448633
 30
0.0
 10
107.9520670303037
 20
-124.0017333674371
 30
0.0
 10
107.7532850208047
 20
-123.8959689360399
 30
0.0
 10
107.5503688967235
 20
-123.7881374473516
 30
0.0
 10
107.5269422474238
 20
-123.6272514881904
 30
0.0
 10
107.5269422474238
 20
-123.4984049170421
 30
0.0
 10
107.5269422474238
 20
-123.3395860151721
 30
0.0
 10
107.5713839791836
 20
-123.1959255334371
 30
0.0
 10
107.7532850208047
 20
-123.1004963884957
 30
0.0
 10
107.9458658584302
 20
-123.0012776385205
 30
0.0
 10
108.1742756891023
 20
-122.9778509892208
 30
0.0
 10
108.3479085015589
 20
-122.9778509892208
 30
0.0
 10
108.5191297471758
 20
-122.9778509892208
 30
0.0
 10
108.749606635139
 20
-122.9992105812294
 30
0.0
 10
108.9421874727645
 20
-123.1004963884957
 30
0.0
  0
SPLINE
  5
C1
330
BA
100
AcDbEntity
  8
_U+30EC_U+30A4_U+30E4_U+30FC 1
370
     0
100
AcDbSpline
210
0.0
220
0.0
230
1.0
 70
    11
 71
     3
 72
    17
 73
    13
 74
     0
 42
0.0000000001
 43
0.0000000001
 12
1.0
 22
0.0
 32
0.0
 13
1.0
 23
0.0
 33
0.0
 40
0.0
 40
0.0
 40
0.0
 40
0.0
 40
1.0
 40
1.0
 40
1.0
 40
2.0
 40
2.0
 40
2.0
 40
3.0
 40
3.0
 40
3.0
 40
4.0
 40
4.0
 40
4.0
 40
4.0
 10
107.7195230850493
 20
-123.4984049170421
 30
0.0
 10
107.7195230850493
 20
-123.7481743397227
 30
0.0
 10
108.0030544434854
 20
-123.7946831287736
 30
0.0
 10
108.3479085015589
 20
-123.7946831287736
 30
0.0
 10
108.6672688530415
 20
-123.7946831287736
 30
0.0
 10
108.9759494085199
 20
-123.7585096261784
 30
0.0
 10
108.9759494085199
 20
-123.4984049170421
 30
0.0
 10
108.9759494085199
 20
-123.2507025516526
 30
0.0
 10
108.6948296169235
 20
-123.2021267053106
 30
0.0
 10
108.3479085015589
 20
-123.2021267053106
 30
0.0
 10
108.0282036405277
 20
-123.2021267053106
 30
0.0
 10
107.7195230850493
 20
-123.2403672651969
 30
0.0
 10
107.7195230850493
 20
-123.4984049170421
 30
0.0
  0
HATCH
  5
C2
330
BA
100
AcDbEntity
  8
_U+30EC_U+30A4_U+30E4_U+30FC 1
 62
   179
420
  2234388
100
AcDbHatch
 10
0.0
 20
0.0
 30
0.0
210
0.0
220
0.0
230
1.0
  2
SOLID
 70
     1
 71
     0
 91
        2
 92
        1
 93
        1
 72
     4
 94
        3
 73
     0
 74
     1
 95
       29
 96
       25
 40
0.0
 40
0.0
 40
0.0
 40
0.0
 40
1.0
 40
1.0
 40
1.0
 40
2.0
 40
2.0
 40
2.0
 40
3.0
 40
3.0
 40
3.0
 40
4.0
 40
4.0
 40
4.0
 40
5.0
 40
5.0
 40
5.0
 40
6.0
 40
6.0
 40
6.0
 40
7.0
 40
7.0
 40
7.0
 40
8.0
 40
8.0
 40
8.0
 40
8.0
 10
108.9421874727645
 20
-123.1004963884957
 10
109.1516492782677
 20
-123.2086723867326
 10
109.1705973034365
 20
-123.3819606896406
 10
109.1705973034365
 20
-123.4984049170421
 10
109.1705973034365
 20
-123.6592908762032
 10
109.1240885143856
 20
-123.800884300647
 10
108.9421874727645
 20
-123.8959689360399
 10
108.7475395778478
 20
-123.9996663101459
 10
108.5105170084627
 20
-124.0189588448633
 10
108.3479085015589
 20
-124.0189588448633
 10
108.2039035102754
 20
-124.0189588448633
 10
107.9520670303037
 20
-124.0017333674371
 10
107.7532850208047
 20
-123.8959689360399
 10
107.5503688967235
 20
-123.7881374473516
 10
107.5269422474238
 20
-123.6272514881904
 10
107.5269422474238
 20
-123.4984049170421
 10
107.5269422474238
 20
-123.3395860151721
 10
107.5713839791836
 20
-123.1959255334371
 10
107.7532850208047
 20
-123.1004963884957
 10
107.9458658584302
 20
-123.0012776385205
 10
108.1742756891023
 20
-122.9778509892208
 10
108.3479085015589
 20
-122.9778509892208
 10
108.5191297471758
 20
-122.9778509892208
 10
108.749606635139
 20
-122.9992105812294
 10
108.9421874727645
 20
-123.1004963884957
 97
        0
 97
        0
 92
        1
 93
        1
 72
     4
 94
        3
 73
     0
 74
     1
 95
       17
 96
       13
 40
0.0
 40
0.0
 40
0.0
 40
0.0
 40
1.0
 40
1.0
 40
1.0
 40
2.0
 40
2.0
 40
2.0
 40
3.0
 40
3.0
 40
3.0
 40
4.0
 40
4.0
 40
4.0
 40
4.0
 10
107.7195230850493
 20
-123.4984049170421
 10
107.7195230850493
 20
-123.7481743397227
 10
108.0030544434854
 20
-123.7946831287736
 10
108.3479085015589
 20
-123.7946831287736
 10
108.6672688530415
 20
-123.7946831287736
 10
108.9759494085199
 20
-123.7585096261784
 10
108.9759494085199
 20
-123.4984049170421
 10
108.9759494085199
 20
-123.2507025516526
 10
108.6948296169235
 20
-123.2021267053106
 10
108.3479085015589
 20
-123.2021267053106
 10
108.0282036405277
 20
-123.2021267053106
 10
107.7195230850493
 20
-123.2403672651969
 10
107.7195230850493
 20
-123.4984049170421
 97
        0
 97
        0
 75
     2
 76
     1
 98
        0
  0
ENDBLK
  5
BD
330
BA
100
AcDbEntity
  8
0
100
AcDbBlockEnd
  0
BLOCK
  5
CD
330
CB
100
AcDbEntity
  8
0
100
AcDbBlockBegin
  2
block 4
 70
     0
 10
0.0
 20
0.0
 30
0.0
  3
block 4
  1

  0
SPLINE
  5
CF
330
CB
100
AcDbEntity
  8
_U+30EC_U+30A4_U+30E4_U+30FC 1
370
     0
100
AcDbSpline
210
0.0
220
0.0
230
1.0
 70
    11
 71
     3
 72
    44
 73
    40
 74
     0
 42
0.0000000001
 43
0.0000000001
 12
1.0
 22
0.0
 32
0.0
 13
1.0
 23
0.0
 33
0.0
 40
0.0
 40
0.0
 40
0.0
 40
0.0
 40
1.0
 40
1.0
 40
1.0
 40
2.0
 40
2.0
 40
2.0
 40
3.0
 40
3.0
 40
3.0
 40
4.0
 40
4.0
 40
4.0
 40
5.0
 40
5.0
 40
5.0
 40
6.0
 40
6.0
 40
6.0
 40
7.0
 40
7.0
 40
7.0
 40
8.0
 40
8.0
 40
8.0
 40
9.0
 40
9.0
 40
9.0
 40
10.0
 40
10.0
 40
10.0
 40
11.0
 40
11.0
 40
11.0
 40
12.0
 40
12.0
 40
12.0
 40
13.0
 40
13.0
 40
13.0
 40
13.0
 10
72.91716849305543
 20
-140.7452419352998
 30
0.0
 10
72.89374184375573
 20
-140.7008002035401
 30
0.0
 10
72.87272676129571
 20
-140.6480902426158
 30
0.0
 10
72.8704874492303
 20
-140.417268845104
 30
0.0
 10
72.866353334648
 20
-140.1740451038454
 30
0.0
 10
72.8070976923017
 20
-140.1041096654948
 30
0.0
 10
72.62933076526281
 20
-140.1041096654948
 30
0.0
 10
72.62933076526281
 20
-140.1041096654948
 30
0.0
 10
72.2210869502607
 20
-140.1041096654948
 30
0.0
 10
72.2210869502607
 20
-140.1041096654948
 30
0.0
 10
72.2210869502607
 20
-140.1041096654948
 30
0.0
 10
72.2210869502607
 20
-140.7452419352998
 30
0.0
 10
72.2210869502607
 20
-140.7452419352998
 30
0.0
 10
72.2210869502607
 20
-140.7452419352998
 30
0.0
 10
71.98630369294092
 20
-140.7452419352998
 30
0.0
 10
71.98630369294092
 20
-140.7452419352998
 30
0.0
 10
71.98630369294092
 20
-140.7452419352998
 30
0.0
 10
71.98630369294092
 20
-139.2008056292623
 30
0.0
 10
71.98630369294092
 20
-139.2008056292623
 30
0.0
 10
71.98630369294092
 20
-139.2008056292623
 30
0.0
 10
72.66102564372711
 20
-139.2008056292623
 30
0.0
 10
72.66102564372711
 20
-139.2008056292623
 30
0.0
 10
72.9678113966886
 20
-139.2008056292623
 30
0.0
 10
73.13507078249748
 20
-139.3723713844277
 30
0.0
 10
73.13507078249748
 20
-139.6283419789818
 30
0.0
 10
73.13507078249748
 20
-139.678984882615
 30
0.0
 10
73.12645804378437
 20
-139.761667174261
 30
0.0
 10
73.08201631202463
 20
-139.8419378990673
 30
0.0
 10
73.0229329244526
 20
-139.9456352731733
 30
0.0
 10
72.95730385545859
 20
-139.9645832983422
 30
0.0
 10
72.89598115582115
 20
-139.9814642662199
 30
0.0
 10
73.03344046568262
 20
-140.0238389406885
 30
0.0
 10
73.10113659196777
 20
-140.0724147870305
 30
0.0
 10
73.10544296132434
 20
-140.3876410239309
 30
0.0
 10
73.10957707590664
 20
-140.6584255290715
 30
0.0
 10
73.14557832372749
 20
-140.6901204075358
 30
0.0
 10
73.21327445001266
 20
-140.7452419352998
 30
0.0
 10
73.21327445001266
 20
-140.7452419352998
 30
0.0
 10
72.91716849305543
 20
-140.7452419352998
 30
0.0
 10
72.91716849305543
 20
-140.7452419352998
 30
0.0
  0
SPLINE
  5
D0
330
CB
100
AcDbEntity
  8
_U+30EC_U+30A4_U+30E4_U+30FC 1
370
     0
100
AcDbSpline
210
0.0
220
0.0
230
1.0
 70
    11
 71
     3
 72
    20
 73
    16
 74
     0
 42
0.0000000001
 43
0.0000000001
 12
1.0
 22
0.0
 32
0.0
 13
1.0
 23
0.0
 33
0.0
 40
0.0
 40
0.0
 40
0.0
 40
0.0
 40
1.0
 40
1.0
 40
1.0
 40
2.0
 40
2.0
 40
2.0
 40
3.0
 40
3.0
 40
3.0
 40
4.0
 40
4.0
 40
4.0
 40
5.0
 40
5.0
 40
5.0
 40
5.0
 10
72.66533201308367
 20
-139.4123344920567
 30
0.0
 10
72.66533201308367
 20
-139.4123344920567
 30
0.0
 10
72.2210869502607
 20
-139.4123344920567
 30
0.0
 10
72.2210869502607
 20
-139.4123344920567
 30
0.0
 10
72.2210869502607
 20
-139.4123344920567
 30
0.0
 10
72.2210869502607
 20
-139.8925808027005
 30
0.0
 10
72.2210869502607
 20
-139.8925808027005
 30
0.0
 10
72.2210869502607
 20
-139.8925808027005
 30
0.0
 10
72.66326495579251
 20
-139.8925808027005
 30
0.0
 10
72.66326495579251
 20
-139.8925808027005
 30
0.0
 10
72.76265596054198
 20
-139.8925808027005
 30
0.0
 10
72.89804821311229
 20
-139.8164441924764
 30
0.0
 10
72.89804821311229
 20
-139.6452229468595
 30
0.0
 10
72.89804821311229
 20
-139.5670192793444
 30
0.0
 10
72.86428627735685
 20
-139.4123344920567
 30
0.0
 10
72.66533201308367
 20
-139.4123344920567
 30
0.0
  0
HATCH
  5
D1
330
CB
100
AcDbEntity
  8
_U+30EC_U+30A4_U+30E4_U+30FC 1
 62
   179
420
  2234388
100
AcDbHatch
 10
0.0
 20
0.0
 30
0.0
210
0.0
220
0.0
230
1.0
  2
SOLID
 70
     1
 71
     0
 91
        2
 92
        1
 93
        1
 72
     4
 94
        3
 73
     0
 74
     1
 95
       44
 96
       40
 40
0.0
 40
0.0
 40
0.0
 40
0.0
 40
1.0
 40
1.0
 40
1.0
 40
2.0
 40
2.0
 40
2.0
 40
3.0
 40
3.0
 40
3.0
 40
4.0
 40
4.0
 40
4.0
 40
5.0
 40
5.0
 40
5.0
 40
6.0
 40
6.0
 40
6.0
 40
7.0
 40
7.0
 40
7.0
 40
8.0
 40
8.0
 40
8.0
 40
9.0
 40
9.0
 40
9.0
 40
10.0
 40
10.0
 40
10.0
 40
11.0
 40
11.0
 40
11.0
 40
12.0
 40
12.0
 40
12.0
 40
13.0
 40
13.0
 40
13.0
 40
13.0
 10
72.91716849305543
 20
-140.7452419352998
 10
72.89374184375573
 20
-140.7008002035401
 10
72.87272676129571
 20
-140.6480902426158
 10
72.8704874492303
 20
-140.417268845104
 10
72.866353334648
 20
-140.1740451038454
 10
72.8070976923017
 20
-140.1041096654948
 10
72.62933076526281
 20
-140.1041096654948
 10
72.62933076526281
 20
-140.1041096654948
 10
72.2210869502607
 20
-140.1041096654948
 10
72.2210869502607
 20
-140.1041096654948
 10
72.2210869502607
 20
-140.1041096654948
 10
72.2210869502607
 20
-140.7452419352998
 10
72.2210869502607
 20
-140.7452419352998
 10
72.2210869502607
 20
-140.7452419352998
 10
71.98630369294092
 20
-140.7452419352998
 10
71.98630369294092
 20
-140.7452419352998
 10
71.98630369294092
 20
-140.7452419352998
 10
71.98630369294092
 20
-139.2008056292623
 10
71.98630369294092
 20
-139.2008056292623
 10
71.98630369294092
 20
-139.2008056292623
 10
72.66102564372711
 20
-139.2008056292623
 10
72.66102564372711
 20
-139.2008056292623
 10
72.9678113966886
 20
-139.2008056292623
 10
73.13507078249748
 20
-139.3723713844277
 10
73.13507078249748
 20
-139.6283419789818
 10
73.13507078249748
 20
-139.678984882615
 10
73.12645804378437
 20
-139.761667174261
 10
73.08201631202463
 20
-139.8419378990673
 10
73.0229329244526
 20
-139.9456352731733
 10
72.95730385545859
 20
-139.9645832983422
 10
72.89598115582115
 20
-139.9814642662199
 10
73.03344046568262
 20
-140.0238389406885
 10
73.10113659196777
 20
-140.0724147870305
 10
73.10544296132434
 20
-140.3876410239309
 10
73.10957707590664
 20
-140.6584255290715
 10
73.14557832372749
 20
-140.6901204075358
 10
73.21327445001266
 20
-140.7452419352998
 10
73.21327445001266
 20
-140.7452419352998
 10
72.91716849305543
 20
-140.7452419352998
 10
72.91716849305543
 20
-140.7452419352998
 97
        0
 97
        0
 92
        1
 93
        1
 72
     4
 94
        3
 73
     0
 74
     1
 95
       20
 96
       16
 40
0.0
 40
0.0
 40
0.0
 40
0.0
 40
1.0
 40
1.0
 40
1.0
 40
2.0
 40
2.0
 40
2.0
 40
3.0
 40
3.0
 40
3.0
 40
4.0
 40
4.0
 40
4.0
 40
5.0
 40
5.0
 40
5.0
 40
5.0
 10
72.66533201308367
 20
-139.4123344920567
 10
72.66533201308367
 20
-139.4123344920567
 10
72.2210869502607
 20
-139.4123344920567
 10
72.2210869502607
 20
-139.4123344920567
 10
72.2210869502607
 20
-139.4123344920567
 10
72.2210869502607
 20
-139.8925808027005
 10
72.2210869502607
 20
-139.8925808027005
 10
72.2210869502607
 20
-139.8925808027005
 10
72.66326495579251
 20
-139.8925808027005
 10
72.66326495579251
 20
-139.8925808027005
 10
72.76265596054198
 20
-139.8925808027005
 10
72.89804821311229
 20
-139.8164441924764
 10
72.89804821311229
 20
-139.6452229468595
 10
72.89804821311229
 20
-139.5670192793444
 10
72.86428627735685
 20
-139.4123344920567
 10
72.66533201308367
 20
-139.4123344920567
 97
        0
 97
        0
 75
     2
 76
     1
 98
        0
  0
SPLINE
  5
D2
330
CB
100
AcDbEntity
  8
_U+30EC_U+30A4_U+30E4_U+30FC 1
370
     0
100
AcDbSpline
210
0.0
220
0.0
230
1.0
 70
    11
 71
     3
 72
    44
 73
    40
 74
     0
 42
0.0000000001
 43
0.0000000001
 12
1.0
 22
0.0
 32
0.0
 13
1.0
 23
0.0
 33
0.0
 40
0.0
 40
0.0
 40
0.0
 40
0.0
 40
1.0
 40
1.0
 40
1.0
 40
2.0
 40
2.0
 40
2.0
 40
3.0
 40
3.0
 40
3.0
 40
4.0
 40
4.0
 40
4.0
 40
5.0
 40
5.0
 40
5.0
 40
6.0
 40
6.0
 40
6.0
 40
7.0
 40
7.0
 40
7.0
 40
8.0
 40
8.0
 40
8.0
 40
9.0
 40
9.0
 40
9.0
 40
10.0
 40
10.0
 40
10.0
 40
11.0
 40
11.0
 40
11.0
 40
12.0
 40
12.0
 40
12.0
 40
13.0
 40
13.0
 40
13.0
 40
13.0
 10
73.94604625972529
 20
-140.1633653078411
 30
0.0
 10
73.72814397028324
 20
-140.3221842097111
 30
0.0
 10
73.63495413740723
 20
-140.396253762644
 30
0.0
 10
73.58637829106522
 20
-140.5399142443789
 30
0.0
 10
73.58637829106522
 20
-140.5399142443789
 30
0.0
 10
74.36479761595741
 20
-140.5399142443789
 30
0.0
 10
74.36479761595741
 20
-140.5399142443789
 30
0.0
 10
74.36479761595741
 20
-140.5399142443789
 30
0.0
 10
74.36479761595741
 20
-140.7452419352998
 30
0.0
 10
74.36479761595741
 20
-140.7452419352998
 30
0.0
 10
74.36479761595741
 20
-140.7452419352998
 30
0.0
 10
73.33678112315886
 20
-140.7452419352998
 30
0.0
 10
73.33678112315886
 20
-140.7452419352998
 30
0.0
 10
73.36847600162316
 20
-140.3876410239309
 30
0.0
 10
73.43410507061718
 20
-140.3094373564157
 30
0.0
 10
73.81909449109384
 20
-140.0110920873931
 30
0.0
 10
74.0750650856479
 20
-139.8123100778942
 30
0.0
 10
74.14052189986765
 20
-139.7444416968347
 30
0.0
 10
74.14052189986765
 20
-139.6069823869733
 30
0.0
 10
74.14052189986765
 20
-139.4884711022807
 30
0.0
 10
74.0686916590002
 20
-139.3575574738412
 30
0.0
 10
73.87197670679242
 20
-139.3575574738412
 30
0.0
 10
73.6116997428818
 20
-139.3575574738412
 30
0.0
 10
73.60325925894294
 20
-139.5880343618044
 30
0.0
 10
73.59895288958637
 20
-139.7044785892058
 30
0.0
 10
73.59895288958637
 20
-139.7044785892058
 30
0.0
 10
73.37484942827088
 20
-139.7044785892058
 30
0.0
 10
73.37484942827088
 20
-139.7044785892058
 30
0.0
 10
73.38328991220973
 20
-139.5773545658001
 30
0.0
 10
73.39379745343975
 20
-139.4653889625295
 30
0.0
 10
73.47424043302033
 20
-139.3468776778369
 30
0.0
 10
73.5841389789998
 20
-139.1859917186757
 30
0.0
 10
73.77034638997756
 20
-139.1522297829203
 30
0.0
 10
73.886790617379
 20
-139.1522297829203
 30
0.0
 10
74.16394854916734
 20
-139.1522297829203
 30
0.0
 10
74.37117104260513
 20
-139.3361978818326
 30
0.0
 10
74.37117104260513
 20
-139.6090494442644
 30
0.0
 10
74.37117104260513
 20
-139.837803784485
 30
0.0
 10
74.25489906997795
 20
-139.9370225344602
 30
0.0
 10
73.94604625972529
 20
-140.1633653078411
 30
0.0
  0
HATCH
  5
D3
330
CB
100
AcDbEntity
  8
_U+30EC_U+30A4_U+30E4_U+30FC 1
 62
   179
420
  2234388
100
AcDbHatch
 10
0.0
 20
0.0
 30
0.0
210
0.0
220
0.0
230
1.0
  2
SOLID
 70
     1
 71
     0
 91
        1
 92
        1
 93
        1
 72
     4
 94
        3
 73
     0
 74
     1
 95
       44
 96
       40
 40
0.0
 40
0.0
 40
0.0
 40
0.0
 40
1.0
 40
1.0
 40
1.0
 40
2.0
 40
2.0
 40
2.0
 40
3.0
 40
3.0
 40
3.0
 40
4.0
 40
4.0
 40
4.0
 40
5.0
 40
5.0
 40
5.0
 40
6.0
 40
6.0
 40
6.0
 40
7.0
 40
7.0
 40
7.0
 40
8.0
 40
8.0
 40
8.0
 40
9.0
 40
9.0
 40
9.0
 40
10.0
 40
10.0
 40
10.0
 40
11.0
 40
11.0
 40
11.0
 40
12.0
 40
12.0
 40
12.0
 40
13.0
 40
13.0
 40
13.0
 40
13.0
 10
73.94604625972529
 20
-140.1633653078411
 10
73.72814397028324
 20
-140.3221842097111
 10
73.63495413740723
 20
-140.396253762644
 10
73.58637829106522
 20
-140.5399142443789
 10
73.58637829106522
 20
-140.5399142443789
 10
74.36479761595741
 20
-140.5399142443789
 10
74.36479761595741
 20
-140.5399142443789
 10
74.36479761595741
 20
-140.5399142443789
 10
74.36479761595741
 20
-140.7452419352998
 10
74.36479761595741
 20
-140.7452419352998
 10
74.36479761595741
 20
-140.7452419352998
 10
73.33678112315886
 20
-140.7452419352998
 10
73.33678112315886
 20
-140.7452419352998
 10
73.36847600162316
 20
-140.3876410239309
 10
73.43410507061718
 20
-140.3094373564157
 10
73.81909449109384
 20
-140.0110920873931
 10
74.0750650856479
 20
-139.8123100778942
 10
74.14052189986765
 20
-139.7444416968347
 10
74.14052189986765
 20
-139.6069823869733
 10
74.14052189986765
 20
-139.4884711022807
 10
74.0686916590002
 20
-139.3575574738412
 10
73.87197670679242
 20
-139.3575574738412
 10
73.6116997428818
 20
-139.3575574738412
 10
73.60325925894294
 20
-139.5880343618044
 10
73.59895288958637
 20
-139.7044785892058
 10
73.59895288958637
 20
-139.7044785892058
 10
73.37484942827088
 20
-139.7044785892058
 10
73.37484942827088
 20
-139.7044785892058
 10
73.38328991220973
 20
-139.5773545658001
 10
73.39379745343975
 20
-139.4653889625295
 10
73.47424043302033
 20
-139.3468776778369
 10
73.5841389789998
 20
-139.1859917186757
 10
73.77034638997756
 20
-139.1522297829203
 10
73.886790617379
 20
-139.1522297829203
 10
74.16394854916734
 20
-139.1522297829203
 10
74.37117104260513
 20
-139.3361978818326
 10
74.37117104260513
 20
-139.6090494442644
 10
74.37117104260513
 20
-139.837803784485
 10
74.25489906997795
 20
-139.9370225344602
 10
73.94604625972529
 20
-140.1633653078411
 97
        0
 97
        0
 75
     2
 76
     1
 98
        0
  0
POLYLINE
  5
D4
330
CB
100
AcDbEntity
  8
_U+30EC_U+30A4_U+30E4_U+30FC 1
370
     0
100
AcDb2dPolyline
 66
     1
 10
0.0
 20
0.0
 30
0.0
  0
VERTEX
  5
D5
330
D4
100
AcDbEntity
  8
_U+30EC_U+30A4_U+30E4_U+30FC 1
370
     0
100
AcDbVertex
100
AcDb2dVertex
 10
74.58976235114423
 20
-140.7452419352998
 30
0.0
  0
VERTEX
  5
D6
330
D4
100
AcDbEntity
  8
_U+30EC_U+30A4_U+30E4_U+30FC 1
370
     0
100
AcDbVertex
100
AcDb2dVertex
 10
74.58976235114423
 20
-140.493405455328
 30
0.0
  0
VERTEX
  5
D7
330
D4
100
AcDbEntity
  8
_U+30EC_U+30A4_U+30E4_U+30FC 1
370
     0
100
AcDbVertex
100
AcDb2dVertex
 10
74.84142657634173
 20
-140.493405455328
 30
0.0
  0
VERTEX
  5
D8
330
D4
100
AcDbEntity
  8
_U+30EC_U+30A4_U+30E4_U+30FC 1
370
     0
100
AcDbVertex
100
AcDb2dVertex
 10
74.84142657634173
 20
-140.7452419352998
 30
0.0
  0
VERTEX
  5
D9
330
D4
100
AcDbEntity
  8
_U+30EC_U+30A4_U+30E4_U+30FC 1
370
     0
100
AcDbVertex
100
AcDb2dVertex
 10
74.58976235114423
 20
-140.7452419352998
 30
0.0
  0
SEQEND
  5
DA
330
D4
100
AcDbEntity
  8
_U+30EC_U+30A4_U+30E4_U+30FC 1
370
     0
  0
HATCH
  5
DB
330
CB
100
AcDbEntity
  8
_U+30EC_U+30A4_U+30E4_U+30FC 1
 62
   179
420
  2234388
100
AcDbHatch
 10
0.0
 20
0.0
 30
0.0
210
0.0
220
0.0
230
1.0
  2
SOLID
 70
     1
 71
     0
 91
        1
 92
        1
 93
        4
 72
     1
 10
74.58976235114423
 20
-140.7452419352998
 11
74.58976235114423
 21
-140.493405455328
 72
     1
 10
74.58976235114423
 20
-140.493405455328
 11
74.84142657634173
 21
-140.493405455328
 72
     1
 10
74.84142657634173
 20
-140.493405455328
 11
74.84142657634173
 21
-140.7452419352998
 72
     1
 10
74.84142657634173
 20
-140.7452419352998
 11
74.58976235114423
 21
-140.7452419352998
 97
        0
 75
     2
 76
     1
 98
        0
  0
SPLINE
  5
DC
330
CB
100
AcDbEntity
  8
_U+30EC_U+30A4_U+30E4_U+30FC 1
370
     0
100
AcDbSpline
210
0.0
220
0.0
230
1.0
 70
    11
 71
     3
 72
    53
 73
    49
 74
     0
 42
0.0000000001
 43
0.0000000001
 12
1.0
 22
0.0
 32
0.0
 13
1.0
 23
0.0
 33
0.0
 40
0.0
 40
0.0
 40
0.0
 40
0.0
 40
1.0
 40
1.0
 40
1.0
 40
2.0
 40
2.0
 40
2.0
 40
3.0
 40
3.0
 40
3.0
 40
4.0
 40
4.0
 40
4.0
 40
5.0
 40
5.0
 40
5.0
 40
6.0
 40
6.0
 40
6.0
 40
7.0
 40
7.0
 40
7.0
 40
8.0
 40
8.0
 40
8.0
 40
9.0
 40
9.0
 40
9.0
 40
10.0
 40
10.0
 40
10.0
 40
11.0
 40
11.0
 40
11.0
 40
12.0
 40
12.0
 40
12.0
 40
13.0
 40
13.0
 40
13.0
 40
14.0
 40
14.0
 40
14.0
 40
15.0
 40
15.0
 40
15.0
 40
16.0
 40
16.0
 40
16.0
 40
16.0
 10
75.55903996591927
 20
-140.795884838933
 30
0.0
 10
75.48066404362984
 20
-140.795884838933
 30
0.0
 10
75.37920598158922
 20
-140.7790038710553
 30
0.0
 10
75.27757566477436
 20
-140.7156141141267
 30
0.0
 10
75.10411510709203
 20
-140.6057155681472
 30
0.0
 10
75.08292776985775
 20
-140.4744574301592
 30
0.0
 10
75.06397974468887
 20
-140.3666259414709
 30
0.0
 10
75.06397974468887
 20
-140.3666259414709
 30
0.0
 10
75.28601614871322
 20
-140.3666259414709
 30
0.0
 10
75.28601614871322
 20
-140.3666259414709
 30
0.0
 10
75.34113767647722
 20
-140.5654079509698
 30
0.0
 10
75.46808944510867
 20
-140.5950357721429
 30
0.0
 10
75.56110702321043
 20
-140.5950357721429
 30
0.0
 10
75.70063339036304
 20
-140.5950357721429
 30
0.0
 10
75.85307886558535
 20
-140.4954725126192
 30
0.0
 10
75.85307886558535
 20
-140.2629285673648
 30
0.0
 10
75.85307886558535
 20
-140.0069579728108
 30
0.0
 10
75.6732448812553
 20
-139.9370225344602
 30
0.0
 10
75.55266653927156
 20
-139.9370225344602
 30
0.0
 10
75.52097166080726
 20
-139.9370225344602
 30
0.0
 10
75.37920598158922
 20
-139.9370225344602
 30
0.0
 10
75.29032251806979
 20
-140.0662136151571
 30
0.0
 10
75.29032251806979
 20
-140.0662136151571
 30
0.0
 10
75.11479490309631
 20
-140.0472655899882
 30
0.0
 10
75.11479490309631
 20
-140.0472655899882
 30
0.0
 10
75.11479490309631
 20
-140.0472655899882
 30
0.0
 10
75.23537324508005
 20
-139.2008056292623
 30
0.0
 10
75.23537324508005
 20
-139.2008056292623
 30
0.0
 10
75.23537324508005
 20
-139.2008056292623
 30
0.0
 10
76.01379256997225
 20
-139.2008056292623
 30
0.0
 10
76.01379256997225
 20
-139.2008056292623
 30
0.0
 10
76.01379256997225
 20
-139.2008056292623
 30
0.0
 10
76.01379256997225
 20
-139.3954535241789
 30
0.0
 10
76.01379256997225
 20
-139.3954535241789
 30
0.0
 10
76.01379256997225
 20
-139.3954535241789
 30
0.0
 10
75.3981540067581
 20
-139.3954535241789
 30
0.0
 10
75.3981540067581
 20
-139.3954535241789
 30
0.0
 10
75.3981540067581
 20
-139.3954535241789
 30
0.0
 10
75.33269719253836
 20
-139.8185112497676
 30
0.0
 10
75.33269719253836
 20
-139.8185112497676
 30
0.0
 10
75.3940198921758
 20
-139.7847493140121
 30
0.0
 10
75.47652992904754
 20
-139.7444416968347
 30
0.0
 10
75.59486895896588
 20
-139.7444416968347
 30
0.0
 10
75.84877249622878
 20
-139.7444416968347
 30
0.0
 10
76.08579506561396
 20
-139.9308213625868
 30
0.0
 10
76.08579506561396
 20
-140.2439805421959
 30
0.0
 10
76.08579506561396
 20
-140.5612738363875
 30
0.0
 10
75.8615193495242
 20
-140.795884838933
 30
0.0
 10
75.55903996591927
 20
-140.795884838933
 30
0.0
  0
HATCH
  5
DD
330
CB
100
AcDbEntity
  8
_U+30EC_U+30A4_U+30E4_U+30FC 1
 62
   179
420
  2234388
100
AcDbHatch
 10
0.0
 20
0.0
 30
0.0
210
0.0
220
0.0
230
1.0
  2
SOLID
 70
     1
 71
     0
 91
        1
 92
        1
 93
        1
 72
     4
 94
        3
 73
     0
 74
     1
 95
       53
 96
       49
 40
0.0
 40
0.0
 40
0.0
 40
0.0
 40
1.0
 40
1.0
 40
1.0
 40
2.0
 40
2.0
 40
2.0
 40
3.0
 40
3.0
 40
3.0
 40
4.0
 40
4.0
 40
4.0
 40
5.0
 40
5.0
 40
5.0
 40
6.0
 40
6.0
 40
6.0
 40
7.0
 40
7.0
 40
7.0
 40
8.0
 40
8.0
 40
8.0
 40
9.0
 40
9.0
 40
9.0
 40
10.0
 40
10.0
 40
10.0
 40
11.0
 40
11.0
 40
11.0
 40
12.0
 40
12.0
 40
12.0
 40
13.0
 40
13.0
 40
13.0
 40
14.0
 40
14.0
 40
14.0
 40
15.0
 40
15.0
 40
15.0
 40
16.0
 40
16.0
 40
16.0
 40
16.0
 10
75.55903996591927
 20
-140.795884838933
 10
75.48066404362984
 20
-140.795884838933
 10
75.37920598158922
 20
-140.7790038710553
 10
75.27757566477436
 20
-140.7156141141267
 10
75.10411510709203
 20
-140.6057155681472
 10
75.08292776985775
 20
-140.4744574301592
 10
75.06397974468887
 20
-140.3666259414709
 10
75.06397974468887
 20
-140.3666259414709
 10
75.28601614871322
 20
-140.3666259414709
 10
75.28601614871322
 20
-140.3666259414709
 10
75.34113767647722
 20
-140.5654079509698
 10
75.46808944510867
 20
-140.5950357721429
 10
75.56110702321043
 20
-140.5950357721429
 10
75.70063339036304
 20
-140.5950357721429
 10
75.85307886558535
 20
-140.4954725126192
 10
75.85307886558535
 20
-140.2629285673648
 10
75.85307886558535
 20
-140.0069579728108
 10
75.6732448812553
 20
-139.9370225344602
 10
75.55266653927156
 20
-139.9370225344602
 10
75.52097166080726
 20
-139.9370225344602
 10
75.37920598158922
 20
-139.9370225344602
 10
75.29032251806979
 20
-140.0662136151571
 10
75.29032251806979
 20
-140.0662136151571
 10
75.11479490309631
 20
-140.0472655899882
 10
75.11479490309631
 20
-140.0472655899882
 10
75.11479490309631
 20
-140.0472655899882
 10
75.23537324508005
 20
-139.2008056292623
 10
75.23537324508005
 20
-139.2008056292623
 10
75.23537324508005
 20
-139.2008056292623
 10
76.01379256997225
 20
-139.2008056292623
 10
76.01379256997225
 20
-139.2008056292623
 10
76.01379256997225
 20
-139.2008056292623
 10
76.01379256997225
 20
-139.3954535241789
 10
76.01379256997225
 20
-139.3954535241789
 10
76.01379256997225
 20
-139.3954535241789
 10
75.3981540067581
 20
-139.3954535241789
 10
75.3981540067581
 20
-139.3954535241789
 10
75.3981540067581
 20
-139.3954535241789
 10
75.33269719253836
 20
-139.8185112497676
 10
75.33269719253836
 20
-139.8185112497676
 10
75.3940198921758
 20
-139.7847493140121
 10
75.47652992904754
 20
-139.7444416968347
 10
75.59486895896588
 20
-139.7444416968347
 10
75.84877249622878
 20
-139.7444416968347
 10
76.08579506561396
 20
-139.9308213625868
 10
76.08579506561396
 20
-140.2439805421959
 10
76.08579506561396
 20
-140.5612738363875
 10
75.8615193495242
 20
-140.795884838933
 10
75.55903996591927
 20
-140.795884838933
 97
        0
 97
        0
 75
     2
 76
     1
 98
        0
  0
ENDBLK
  5
CE
330
CB
100
AcDbEntity
  8
0
100
AcDbBlockEnd
  0
BLOCK
  5
E4
330
E2
100
AcDbEntity
  8
0
100
AcDbBlockBegin
  2
block 5
 70
     0
 10
0.0
 20
0.0
 30
0.0
  3
block 5
  1

  0
SPLINE
  5
E6
330
E2
100
AcDbEntity
  8
_U+30EC_U+30A4_U+30E4_U+30FC 1
370
     0
100
AcDbSpline
210
0.0
220
0.0
230
1.0
 70
    11
 71
     3
 72
    26
 73
    22
 74
     0
 42
0.0000000001
 43
0.0000000001
 12
1.0
 22
0.0
 32
0.0
 13
1.0
 23
0.0
 33
0.0
 40
0.0
 40
0.0
 40
0.0
 40
0.0
 40
1.0
 40
1.0
 40
1.0
 40
2.0
 40
2.0
 40
2.0
 40
3.0
 40
3.0
 40
3.0
 40
4.0
 40
4.0
 40
4.0
 40
5.0
 40
5.0
 40
5.0
 40
6.0
 40
6.0
 40
6.0
 40
7.0
 40
7.0
 40
7.0
 40
7.0
 10
85.50279131977014
 20
-145.9149522204657
 30
0.0
 10
85.50279131977014
 20
-145.9149522204657
 30
0.0
 10
85.50279131977014
 20
-144.8107991174431
 30
0.0
 10
85.50279131977014
 20
-144.8107991174431
 30
0.0
 10
85.50279131977014
 20
-144.8107991174431
 30
0.0
 10
85.1727511722832
 20
-144.8107991174431
 30
0.0
 10
85.1727511722832
 20
-144.8107991174431
 30
0.0
 10
85.1727511722832
 20
-144.8107991174431
 30
0.0
 10
85.1727511722832
 20
-144.6626600115774
 30
0.0
 10
85.1727511722832
 20
-144.6626600115774
 30
0.0
 10
85.50485837706128
 20
-144.6478461009908
 30
0.0
 10
85.55136716611216
 20
-144.4848930845385
 30
0.0
 10
85.58099498728531
 20
-144.3705159144282
 30
0.0
 10
85.58099498728531
 20
-144.3705159144282
 30
0.0
 10
85.7270670358599
 20
-144.3705159144282
 30
0.0
 10
85.7270670358599
 20
-144.3705159144282
 30
0.0
 10
85.7270670358599
 20
-144.3705159144282
 30
0.0
 10
85.7270670358599
 20
-145.9149522204657
 30
0.0
 10
85.7270670358599
 20
-145.9149522204657
 30
0.0
 10
85.7270670358599
 20
-145.9149522204657
 30
0.0
 10
85.50279131977014
 20
-145.9149522204657
 30
0.0
 10
85.50279131977014
 20
-145.9149522204657
 30
0.0
  0
HATCH
  5
E7
330
E2
100
AcDbEntity
  8
_U+30EC_U+30A4_U+30E4_U+30FC 1
 62
   179
420
  2234388
100
AcDbHatch
 10
0.0
 20
0.0
 30
0.0
210
0.0
220
0.0
230
1.0
  2
SOLID
 70
     1
 71
     0
 91
        1
 92
        1
 93
        1
 72
     4
 94
        3
 73
     0
 74
     1
 95
       26
 96
       22
 40
0.0
 40
0.0
 40
0.0
 40
0.0
 40
1.0
 40
1.0
 40
1.0
 40
2.0
 40
2.0
 40
2.0
 40
3.0
 40
3.0
 40
3.0
 40
4.0
 40
4.0
 40
4.0
 40
5.0
 40
5.0
 40
5.0
 40
6.0
 40
6.0
 40
6.0
 40
7.0
 40
7.0
 40
7.0
 40
7.0
 10
85.50279131977014
 20
-145.9149522204657
 10
85.50279131977014
 20
-145.9149522204657
 10
85.50279131977014
 20
-144.8107991174431
 10
85.50279131977014
 20
-144.8107991174431
 10
85.50279131977014
 20
-144.8107991174431
 10
85.1727511722832
 20
-144.8107991174431
 10
85.1727511722832
 20
-144.8107991174431
 10
85.1727511722832
 20
-144.8107991174431
 10
85.1727511722832
 20
-144.6626600115774
 10
85.1727511722832
 20
-144.6626600115774
 10
85.50485837706128
 20
-144.6478461009908
 10
85.55136716611216
 20
-144.4848930845385
 10
85.58099498728531
 20
-144.3705159144282
 10
85.58099498728531
 20
-144.3705159144282
 10
85.7270670358599
 20
-144.3705159144282
 10
85.7270670358599
 20
-144.3705159144282
 10
85.7270670358599
 20
-144.3705159144282
 10
85.7270670358599
 20
-145.9149522204657
 10
85.7270670358599
 20
-145.9149522204657
 10
85.7270670358599
 20
-145.9149522204657
 10
85.50279131977014
 20
-145.9149522204657
 10
85.50279131977014
 20
-145.9149522204657
 97
        0
 97
        0
 75
     2
 76
     1
 98
        0
  0
POLYLINE
  5
E8
330
E2
100
AcDbEntity
  8
_U+30EC_U+30A4_U+30E4_U+30FC 1
370
     0
100
AcDb2dPolyline
 66
     1
 10
0.0
 20
0.0
 30
0.0
  0
VERTEX
  5
E9
330
E8
100
AcDbEntity
  8
_U+30EC_U+30A4_U+30E4_U+30FC 1
370
     0
100
AcDbVertex
100
AcDb2dVertex
 10
87.06031898865159
 20
-145.5680311051011
 30
0.0
  0
VERTEX
  5
EA
330
E8
100
AcDbEntity
  8
_U+30EC_U+30A4_U+30E4_U+30FC 1
370
     0
100
AcDbVertex
100
AcDb2dVertex
 10
87.06031898865159
 20
-145.9149522204657
 30
0.0
  0
VERTEX
  5
EB
330
E8
100
AcDbEntity
  8
_U+30EC_U+30A4_U+30E4_U+30FC 1
370
     0
100
AcDbVertex
100
AcDb2dVertex
 10
86.8425889539838
 20
-145.9149522204657
 30
0.0
  0
VERTEX
  5
EC
330
E8
100
AcDbEntity
  8
_U+30EC_U+30A4_U+30E4_U+30FC 1
370
     0
100
AcDbVertex
100
AcDb2dVertex
 10
86.8425889539838
 20
-145.5680311051011
 30
0.0
  0
VERTEX
  5
ED
330
E8
100
AcDbEntity
  8
_U+30EC_U+30A4_U+30E4_U+30FC 1
370
     0
100
AcDbVertex
100
AcDb2dVertex
 10
86.18664277359223
 20
-145.5680311051011
 30
0.0
  0
VERTEX
  5
EE
330
E8
100
AcDbEntity
  8
_U+30EC_U+30A4_U+30E4_U+30FC 1
370
     0
100
AcDbVertex
100
AcDb2dVertex
 10
86.18664277359223
 20
-145.3437553890113
 30
0.0
  0
VERTEX
  5
EF
330
E8
100
AcDbEntity
  8
_U+30EC_U+30A4_U+30E4_U+30FC 1
370
     0
100
AcDbVertex
100
AcDb2dVertex
 10
86.86567109373497
 20
-144.3705159144282
 30
0.0
  0
VERTEX
  5
F0
330
E8
100
AcDbEntity
  8
_U+30EC_U+30A4_U+30E4_U+30FC 1
370
     0
100
AcDbVertex
100
AcDb2dVertex
 10
87.06031898865159
 20
-144.3705159144282
 30
0.0
  0
VERTEX
  5
F1
330
E8
100
AcDbEntity
  8
_U+30EC_U+30A4_U+30E4_U+30FC 1
370
     0
100
AcDbVertex
100
AcDb2dVertex
 10
87.06031898865159
 20
-145.3692490956021
 30
0.0
  0
VERTEX
  5
F2
330
E8
100
AcDbEntity
  8
_U+30EC_U+30A4_U+30E4_U+30FC 1
370
     0
100
AcDbVertex
100
AcDb2dVertex
 10
87.26771373686363
 20
-145.3692490956021
 30
0.0
  0
VERTEX
  5
F3
330
E8
100
AcDbEntity
  8
_U+30EC_U+30A4_U+30E4_U+30FC 1
370
     0
100
AcDbVertex
100
AcDb2dVertex
 10
87.26771373686363
 20
-145.5680311051011
 30
0.0
  0
VERTEX
  5
F4
330
E8
100
AcDbEntity
  8
_U+30EC_U+30A4_U+30E4_U+30FC 1
370
     0
100
AcDbVertex
100
AcDb2dVertex
 10
87.06031898865159
 20
-145.5680311051011
 30
0.0
  0
SEQEND
  5
F5
330
E8
100
AcDbEntity
  8
_U+30EC_U+30A4_U+30E4_U+30FC 1
370
     0
  0
POLYLINE
  5
F6
330
E2
100
AcDbEntity
  8
_U+30EC_U+30A4_U+30E4_U+30FC 1
370
     0
100
AcDb2dPolyline
 66
     1
 10
0.0
 20
0.0
 30
0.0
  0
VERTEX
  5
F7
330
F6
100
AcDbEntity
  8
_U+30EC_U+30A4_U+30E4_U+30FC 1
370
     0
100
AcDbVertex
100
AcDb2dVertex
 10
86.8425889539838
 20
-144.7133029152106
 30
0.0
  0
VERTEX
  5
F8
330
F6
100
AcDbEntity
  8
_U+30EC_U+30A4_U+30E4_U+30FC 1
370
     0
100
AcDbVertex
100
AcDb2dVertex
 10
86.38542478309115
 20
-145.3692490956021
 30
0.0
  0
VERTEX
  5
F9
330
F6
100
AcDbEntity
  8
_U+30EC_U+30A4_U+30E4_U+30FC 1
370
     0
100
AcDbVertex
100
AcDb2dVertex
 10
86.8425889539838
 20
-145.3692490956021
 30
0.0
  0
VERTEX
  5
FA
330
F6
100
AcDbEntity
  8
_U+30EC_U+30A4_U+30E4_U+30FC 1
370
     0
100
AcDbVertex
100
AcDb2dVertex
 10
86.8425889539838
 20
-144.7133029152106
 30
0.0
  0
SEQEND
  5
FB
330
F6
100
AcDbEntity
  8
_U+30EC_U+30A4_U+30E4_U+30FC 1
370
     0
  0
HATCH
  5
FC
330
E2
100
AcDbEntity
  8
_U+30EC_U+30A4_U+30E4_U+30FC 1
 62
   179
420
  2234388
100
AcDbHatch
 10
0.0
 20
0.0
 30
0.0
210
0.0
220
0.0
230
1.0
  2
SOLID
 70
     1
 71
     0
 91
        2
 92
        1
 93
       11
 72
     1
 10
87.06031898865159
 20
-145.5680311051011
 11
87.06031898865159
 21
-145.9149522204657
 72
     1
 10
87.06031898865159
 20
-145.9149522204657
 11
86.8425889539838
 21
-145.9149522204657
 72
     1
 10
86.8425889539838
 20
-145.9149522204657
 11
86.8425889539838
 21
-145.5680311051011
 72
     1
 10
86.8425889539838
 20
-145.5680311051011
 11
86.18664277359223
 21
-145.5680311051011
 72
     1
 10
86.18664277359223
 20
-145.5680311051011
 11
86.18664277359223
 21
-145.3437553890113
 72
     1
 10
86.18664277359223
 20
-145.3437553890113
 11
86.86567109373497
 21
-144.3705159144282
 72
     1
 10
86.86567109373497
 20
-144.3705159144282
 11
87.06031898865159
 21
-144.3705159144282
 72
     1
 10
87.06031898865159
 20
-144.3705159144282
 11
87.06031898865159
 21
-145.3692490956021
 72
     1
 10
87.06031898865159
 20
-145.3692490956021
 11
87.26771373686363
 21
-145.3692490956021
 72
     1
 10
87.26771373686363
 20
-145.3692490956021
 11
87.26771373686363
 21
-145.5680311051011
 72
     1
 10
87.26771373686363
 20
-145.5680311051011
 11
87.06031898865159
 21
-145.5680311051011
 97
        0
 92
        1
 93
        3
 72
     1
 10
86.8425889539838
 20
-144.7133029152106
 11
86.38542478309115
 21
-145.3692490956021
 72
     1
 10
86.38542478309115
 20
-145.3692490956021
 11
86.8425889539838
 21
-145.3692490956021
 72
     1
 10
86.8425889539838
 20
-145.3692490956021
 11
86.8425889539838
 21
-144.7133029152106
 97
        0
 75
     2
 76
     1
 98
        0
  0
ENDBLK
  5
E5
330
E2
100
AcDbEntity
  8
0
100
AcDbBlockEnd
  0
BLOCK
  5
10F
330
10D
100
AcDbEntity
  8
0
100
AcDbBlockBegin
  2
block 6
 70
     0
 10
0.0
 20
0.0
 30
0.0
  3
block 6
  1

  0
POLYLINE
  5
111
330
10D
100
AcDbEntity
  8
_U+30EC_U+30A4_U+30E4_U+30FC 1
370
     0
100
AcDb2dPolyline
 66
     1
 10
0.0
 20
0.0
 30
0.0
  0
VERTEX
  5
112
330
111
100
AcDbEntity
  8
_U+30EC_U+30A4_U+30E4_U+30FC 1
370
     0
100
AcDbVertex
100
AcDb2dVertex
 10
108.7726887748902
 20
-137.7021890931786
 30
0.0
  0
VERTEX
  5
113
330
111
100
AcDbEntity
  8
_U+30EC_U+30A4_U+30E4_U+30FC 1
370
     0
100
AcDbVertex
100
AcDb2dVertex
 10
109.1196098902548
 20
-137.7021890931786
 30
0.0
  0
VERTEX
  5
114
330
111
100
AcDbEntity
  8
_U+30EC_U+30A4_U+30E4_U+30FC 1
370
     0
100
AcDbVertex
100
AcDb2dVertex
 10
109.1196098902548
 20
-137.9199191278464
 30
0.0
  0
VERTEX
  5
115
330
111
100
AcDbEntity
  8
_U+30EC_U+30A4_U+30E4_U+30FC 1
370
     0
100
AcDbVertex
100
AcDb2dVertex
 10
108.7726887748902
 20
-137.9199191278464
 30
0.0
  0
VERTEX
  5
116
330
111
100
AcDbEntity
  8
_U+30EC_U+30A4_U+30E4_U+30FC 1
370
     0
100
AcDbVertex
100
AcDb2dVertex
 10
108.7726887748902
 20
-138.575865308238
 30
0.0
  0
VERTEX
  5
117
330
111
100
AcDbEntity
  8
_U+30EC_U+30A4_U+30E4_U+30FC 1
370
     0
100
AcDbVertex
100
AcDb2dVertex
 10
108.5484130588004
 20
-138.575865308238
 30
0.0
  0
VERTEX
  5
118
330
111
100
AcDbEntity
  8
_U+30EC_U+30A4_U+30E4_U+30FC 1
370
     0
100
AcDbVertex
100
AcDb2dVertex
 10
107.5751735842173
 20
-137.8968369880952
 30
0.0
  0
VERTEX
  5
119
330
111
100
AcDbEntity
  8
_U+30EC_U+30A4_U+30E4_U+30FC 1
370
     0
100
AcDbVertex
100
AcDb2dVertex
 10
107.5751735842173
 20
-137.7021890931786
 30
0.0
  0
VERTEX
  5
11A
330
111
100
AcDbEntity
  8
_U+30EC_U+30A4_U+30E4_U+30FC 1
370
     0
100
AcDbVertex
100
AcDb2dVertex
 10
108.5739067653913
 20
-137.7021890931786
 30
0.0
  0
VERTEX
  5
11B
330
111
100
AcDbEntity
  8
_U+30EC_U+30A4_U+30E4_U+30FC 1
370
     0
100
AcDbVertex
100
AcDb2dVertex
 10
108.5739067653913
 20
-137.4947943449666
 30
0.0
  0
VERTEX
  5
11C
330
111
100
AcDbEntity
  8
_U+30EC_U+30A4_U+30E4_U+30FC 1
370
     0
100
AcDbVertex
100
AcDb2dVertex
 10
108.7726887748902
 20
-137.4947943449666
 30
0.0
  0
VERTEX
  5
11D
330
111
100
AcDbEntity
  8
_U+30EC_U+30A4_U+30E4_U+30FC 1
370
     0
100
AcDbVertex
100
AcDb2dVertex
 10
108.7726887748902
 20
-137.7021890931786
 30
0.0
  0
SEQEND
  5
11E
330
111
100
AcDbEntity
  8
_U+30EC_U+30A4_U+30E4_U+30FC 1
370
     0
  0
POLYLINE
  5
11F
330
10D
100
AcDbEntity
  8
_U+30EC_U+30A4_U+30E4_U+30FC 1
370
     0
100
AcDb2dPolyline
 66
     1
 10
0.0
 20
0.0
 30
0.0
  0
VERTEX
  5
120
330
11F
100
AcDbEntity
  8
_U+30EC_U+30A4_U+30E4_U+30FC 1
370
     0
100
AcDbVertex
100
AcDb2dVertex
 10
107.9179605849997
 20
-137.9199191278464
 30
0.0
  0
VERTEX
  5
121
330
11F
100
AcDbEntity
  8
_U+30EC_U+30A4_U+30E4_U+30FC 1
370
     0
100
AcDbVertex
100
AcDb2dVertex
 10
108.5739067653913
 20
-138.3770832987391
 30
0.0
  0
VERTEX
  5
122
330
11F
100
AcDbEntity
  8
_U+30EC_U+30A4_U+30E4_U+30FC 1
370
     0
100
AcDbVertex
100
AcDb2dVertex
 10
108.5739067653913
 20
-137.9199191278464
 30
0.0
  0
VERTEX
  5
123
330
11F
100
AcDbEntity
  8
_U+30EC_U+30A4_U+30E4_U+30FC 1
370
     0
100
AcDbVertex
100
AcDb2dVertex
 10
107.9179605849997
 20
-137.9199191278464
 30
0.0
  0
SEQEND
  5
124
330
11F
100
AcDbEntity
  8
_U+30EC_U+30A4_U+30E4_U+30FC 1
370
     0
  0
HATCH
  5
125
330
10D
100
AcDbEntity
  8
_U+30EC_U+30A4_U+30E4_U+30FC 1
 62
   179
420
  2234388
100
AcDbHatch
 10
0.0
 20
0.0
 30
0.0
210
0.0
220
0.0
230
1.0
  2
SOLID
 70
     1
 71
     0
 91
        2
 92
        1
 93
       11
 72
     1
 10
108.7726887748902
 20
-137.7021890931786
 11
109.1196098902548
 21
-137.7021890931786
 72
     1
 10
109.1196098902548
 20
-137.7021890931786
 11
109.1196098902548
 21
-137.9199191278464
 72
     1
 10
109.1196098902548
 20
-137.9199191278464
 11
108.7726887748902
 21
-137.9199191278464
 72
     1
 10
108.7726887748902
 20
-137.9199191278464
 11
108.7726887748902
 21
-138.575865308238
 72
     1
 10
108.7726887748902
 20
-138.575865308238
 11
108.5484130588004
 21
-138.575865308238
 72
     1
 10
108.5484130588004
 20
-138.575865308238
 11
107.5751735842173
 21
-137.8968369880952
 72
     1
 10
107.5751735842173
 20
-137.8968369880952
 11
107.5751735842173
 21
-137.7021890931786
 72
     1
 10
107.5751735842173
 20
-137.7021890931786
 11
108.5739067653913
 21
-137.7021890931786
 72
     1
 10
108.5739067653913
 20
-137.7021890931786
 11
108.5739067653913
 21
-137.4947943449666
 72
     1
 10
108.5739067653913
 20
-137.4947943449666
 11
108.7726887748902
 21
-137.4947943449666
 72
     1
 10
108.7726887748902
 20
-137.4947943449666
 11
108.7726887748902
 21
-137.7021890931786
 97
        0
 92
        1
 93
        3
 72
     1
 10
107.9179605849997
 20
-137.9199191278464
 11
108.5739067653913
 21
-138.3770832987391
 72
     1
 10
108.5739067653913
 20
-138.3770832987391
 11
108.5739067653913
 21
-137.9199191278464
 72
     1
 10
108.5739067653913
 20
-137.9199191278464
 11
107.9179605849997
 21
-137.9199191278464
 97
        0
 75
     2
 76
     1
 98
        0
  0
POLYLINE
  5
126
330
10D
100
AcDbEntity
  8
_U+30EC_U+30A4_U+30E4_U+30FC 1
370
     0
100
AcDb2dPolyline
 66
     1
 10
0.0
 20
0.0
 30
0.0
  0
VERTEX
  5
127
330
126
100
AcDbEntity
  8
_U+30EC_U+30A4_U+30E4_U+30FC 1
370
     0
100
AcDbVertex
100
AcDb2dVertex
 10
109.1196098902548
 20
-137.2973903736618
 30
0.0
  0
VERTEX
  5
128
330
126
100
AcDbEntity
  8
_U+30EC_U+30A4_U+30E4_U+30FC 1
370
     0
100
AcDbVertex
100
AcDb2dVertex
 10
108.8677734102831
 20
-137.2973903736618
 30
0.0
  0
VERTEX
  5
129
330
126
100
AcDbEntity
  8
_U+30EC_U+30A4_U+30E4_U+30FC 1
370
     0
100
AcDbVertex
100
AcDb2dVertex
 10
108.8677734102831
 20
-137.04555389369
 30
0.0
  0
VERTEX
  5
12A
330
126
100
AcDbEntity
  8
_U+30EC_U+30A4_U+30E4_U+30FC 1
370
     0
100
AcDbVertex
100
AcDb2dVertex
 10
109.1196098902548
 20
-137.04555389369
 30
0.0
  0
VERTEX
  5
12B
330
126
100
AcDbEntity
  8
_U+30EC_U+30A4_U+30E4_U+30FC 1
370
     0
100
AcDbVertex
100
AcDb2dVertex
 10
109.1196098902548
 20
-137.2973903736618
 30
0.0
  0
SEQEND
  5
12C
330
126
100
AcDbEntity
  8
_U+30EC_U+30A4_U+30E4_U+30FC 1
370
     0
  0
HATCH
  5
12D
330
10D
100
AcDbEntity
  8
_U+30EC_U+30A4_U+30E4_U+30FC 1
 62
   179
420
  2234388
100
AcDbHatch
 10
0.0
 20
0.0
 30
0.0
210
0.0
220
0.0
230
1.0
  2
SOLID
 70
     1
 71
     0
 91
        1
 92
        1
 93
        4
 72
     1
 10
109.1196098902548
 20
-137.2973903736618
 11
108.8677734102831
 21
-137.2973903736618
 72
     1
 10
108.8677734102831
 20
-137.2973903736618
 11
108.8677734102831
 21
-137.04555389369
 72
     1
 10
108.8677734102831
 20
-137.04555389369
 11
109.1196098902548
 21
-137.04555389369
 72
     1
 10
109.1196098902548
 20
-137.04555389369
 11
109.1196098902548
 21
-137.2973903736618
 97
        0
 75
     2
 76
     1
 98
        0
  0
SPLINE
  5
12E
330
10D
100
AcDbEntity
  8
_U+30EC_U+30A4_U+30E4_U+30FC 1
370
     0
100
AcDbSpline
210
0.0
220
0.0
230
1.0
 70
    11
 71
     3
 72
    53
 73
    49
 74
     0
 42
0.0000000001
 43
0.0000000001
 12
1.0
 22
0.0
 32
0.0
 13
1.0
 23
0.0
 33
0.0
 40
0.0
 40
0.0
 40
0.0
 40
0.0
 40
1.0
 40
1.0
 40
1.0
 40
2.0
 40
2.0
 40
2.0
 40
3.0
 40
3.0
 40
3.0
 40
4.0
 40
4.0
 40
4.0
 40
5.0
 40
5.0
 40
5.0
 40
6.0
 40
6.0
 40
6.0
 40
7.0
 40
7.0
 40
7.0
 40
8.0
 40
8.0
 40
8.0
 40
9.0
 40
9.0
 40
9.0
 40
10.0
 40
10.0
 40
10.0
 40
11.0
 40
11.0
 40
11.0
 40
12.0
 40
12.0
 40
12.0
 40
13.0
 40
13.0
 40
13.0
 40
14.0
 40
14.0
 40
14.0
 40
15.0
 40
15.0
 40
15.0
 40
16.0
 40
16.0
 40
16.0
 40
16.0
 10
109.170252793888
 20
-136.328285013661
 30
0.0
 10
109.170252793888
 20
-136.4064886811762
 30
0.0
 10
109.1533718260103
 20
-136.508118997991
 30
0.0
 10
109.0899820690817
 20
-136.6097493148059
 30
0.0
 10
108.9800835231022
 20
-136.783037617714
 30
0.0
 10
108.8488253851142
 20
-136.8043972097225
 30
0.0
 10
108.7409938964259
 20
-136.8233452348914
 30
0.0
 10
108.7409938964259
 20
-136.8233452348914
 30
0.0
 10
108.7409938964259
 20
-136.6011365760928
 30
0.0
 10
108.7409938964259
 20
-136.6011365760928
 30
0.0
 10
108.9397759059248
 20
-136.5463595578773
 30
0.0
 10
108.9694037270979
 20
-136.4192355344716
 30
0.0
 10
108.9694037270979
 20
-136.3262179563698
 30
0.0
 10
108.9694037270979
 20
-136.1866915892172
 30
0.0
 10
108.8698404675742
 20
-136.0344183687692
 30
0.0
 10
108.6372965223198
 20
-136.0344183687692
 30
0.0
 10
108.3813259277658
 20
-136.0344183687692
 30
0.0
 10
108.3113904894152
 20
-136.2142523530992
 30
0.0
 10
108.3113904894152
 20
-136.334830695083
 30
0.0
 10
108.3113904894152
 20
-136.3665255735472
 30
0.0
 10
108.3113904894152
 20
-136.508118997991
 30
0.0
 10
108.4405815701121
 20
-136.5970024615105
 30
0.0
 10
108.4405815701121
 20
-136.5970024615105
 30
0.0
 10
108.4216335449432
 20
-136.7727023312582
 30
0.0
 10
108.4216335449432
 20
-136.7727023312582
 30
0.0
 10
108.4216335449432
 20
-136.7727023312582
 30
0.0
 10
107.5751735842173
 20
-136.6521239892745
 30
0.0
 10
107.5751735842173
 20
-136.6521239892745
 30
0.0
 10
107.5751735842173
 20
-136.6521239892745
 30
0.0
 10
107.5751735842173
 20
-135.873532409608
 30
0.0
 10
107.5751735842173
 20
-135.873532409608
 30
0.0
 10
107.5751735842173
 20
-135.873532409608
 30
0.0
 10
107.7698214791339
 20
-135.873532409608
 30
0.0
 10
107.7698214791339
 20
-135.873532409608
 30
0.0
 10
107.7698214791339
 20
-135.873532409608
 30
0.0
 10
107.7698214791339
 20
-136.4891709728222
 30
0.0
 10
107.7698214791339
 20
-136.4891709728222
 30
0.0
 10
107.7698214791339
 20
-136.4891709728222
 30
0.0
 10
108.1928792047226
 20
-136.5546277870419
 30
0.0
 10
108.1928792047226
 20
-136.5546277870419
 30
0.0
 10
108.1591172689672
 20
-136.4933050874045
 30
0.0
 10
108.1188096517897
 20
-136.410967305307
 30
0.0
 10
108.1188096517897
 20
-136.2924560206144
 30
0.0
 10
108.1188096517897
 20
-136.0385524833515
 30
0.0
 10
108.3051893175418
 20
-135.8015299139663
 30
0.0
 10
108.618348497151
 20
-135.8015299139663
 30
0.0
 10
108.9356417913425
 20
-135.8015299139663
 30
0.0
 10
109.170252793888
 20
-136.0258056300561
 30
0.0
 10
109.170252793888
 20
-136.328285013661
 30
0.0
  0
HATCH
  5
12F
330
10D
100
AcDbEntity
  8
_U+30EC_U+30A4_U+30E4_U+30FC 1
 62
   179
420
  2234388
100
AcDbHatch
 10
0.0
 20
0.0
 30
0.0
210
0.0
220
0.0
230
1.0
  2
SOLID
 70
     1
 71
     0
 91
        1
 92
        1
 93
        1
 72
     4
 94
        3
 73
     0
 74
     1
 95
       53
 96
       49
 40
0.0
 40
0.0
 40
0.0
 40
0.0
 40
1.0
 40
1.0
 40
1.0
 40
2.0
 40
2.0
 40
2.0
 40
3.0
 40
3.0
 40
3.0
 40
4.0
 40
4.0
 40
4.0
 40
5.0
 40
5.0
 40
5.0
 40
6.0
 40
6.0
 40
6.0
 40
7.0
 40
7.0
 40
7.0
 40
8.0
 40
8.0
 40
8.0
 40
9.0
 40
9.0
 40
9.0
 40
10.0
 40
10.0
 40
10.0
 40
11.0
 40
11.0
 40
11.0
 40
12.0
 40
12.0
 40
12.0
 40
13.0
 40
13.0
 40
13.0
 40
14.0
 40
14.0
 40
14.0
 40
15.0
 40
15.0
 40
15.0
 40
16.0
 40
16.0
 40
16.0
 40
16.0
 10
109.170252793888
 20
-136.328285013661
 10
109.170252793888
 20
-136.4064886811762
 10
109.1533718260103
 20
-136.508118997991
 10
109.0899820690817
 20
-136.6097493148059
 10
108.9800835231022
 20
-136.783037617714
 10
108.8488253851142
 20
-136.8043972097225
 10
108.7409938964259
 20
-136.8233452348914
 10
108.7409938964259
 20
-136.8233452348914
 10
108.7409938964259
 20
-136.6011365760928
 10
108.7409938964259
 20
-136.6011365760928
 10
108.9397759059248
 20
-136.5463595578773
 10
108.9694037270979
 20
-136.4192355344716
 10
108.9694037270979
 20
-136.3262179563698
 10
108.9694037270979
 20
-136.1866915892172
 10
108.8698404675742
 20
-136.0344183687692
 10
108.6372965223198
 20
-136.0344183687692
 10
108.3813259277658
 20
-136.0344183687692
 10
108.3113904894152
 20
-136.2142523530992
 10
108.3113904894152
 20
-136.334830695083
 10
108.3113904894152
 20
-136.3665255735472
 10
108.3113904894152
 20
-136.508118997991
 10
108.4405815701121
 20
-136.5970024615105
 10
108.4405815701121
 20
-136.5970024615105
 10
108.4216335449432
 20
-136.7727023312582
 10
108.4216335449432
 20
-136.7727023312582
 10
108.4216335449432
 20
-136.7727023312582
 10
107.5751735842173
 20
-136.6521239892745
 10
107.5751735842173
 20
-136.6521239892745
 10
107.5751735842173
 20
-136.6521239892745
 10
107.5751735842173
 20
-135.873532409608
 10
107.5751735842173
 20
-135.873532409608
 10
107.5751735842173
 20
-135.873532409608
 10
107.7698214791339
 20
-135.873532409608
 10
107.7698214791339
 20
-135.873532409608
 10
107.7698214791339
 20
-135.873532409608
 10
107.7698214791339
 20
-136.4891709728222
 10
107.7698214791339
 20
-136.4891709728222
 10
107.7698214791339
 20
-136.4891709728222
 10
108.1928792047226
 20
-136.5546277870419
 10
108.1928792047226
 20
-136.5546277870419
 10
108.1591172689672
 20
-136.4933050874045
 10
108.1188096517897
 20
-136.410967305307
 10
108.1188096517897
 20
-136.2924560206144
 10
108.1188096517897
 20
-136.0385524833515
 10
108.3051893175418
 20
-135.8015299139663
 10
108.618348497151
 20
-135.8015299139663
 10
108.9356417913425
 20
-135.8015299139663
 10
109.170252793888
 20
-136.0258056300561
 10
109.170252793888
 20
-136.328285013661
 97
        0
 97
        0
 75
     2
 76
     1
 98
        0
  0
ENDBLK
  5
110
330
10D
100
AcDbEntity
  8
0
100
AcDbBlockEnd
  0
BLOCK
  5
13A
330
138
100
AcDbEntity
  8
0
100
AcDbBlockBegin
  2
block 7
 70
     0
 10
0.0
 20
0.0
 30
0.0
  3
block 7
  1

  0
SPLINE
  5
13C
330
138
100
AcDbEntity
  8
_U+30EC_U+30A4_U+30E4_U+30FC 1
370
     0
100
AcDbSpline
210
0.0
220
0.0
230
1.0
 70
    11
 71
     3
 72
    26
 73
    22
 74
     0
 42
0.0000000001
 43
0.0000000001
 12
1.0
 22
0.0
 32
0.0
 13
1.0
 23
0.0
 33
0.0
 40
0.0
 40
0.0
 40
0.0
 40
0.0
 40
1.0
 40
1.0
 40
1.0
 40
2.0
 40
2.0
 40
2.0
 40
3.0
 40
3.0
 40
3.0
 40
4.0
 40
4.0
 40
4.0
 40
5.0
 40
5.0
 40
5.0
 40
6.0
 40
6.0
 40
6.0
 40
7.0
 40
7.0
 40
7.0
 40
7.0
 10
98.08462454145108
 20
-145.9149522204657
 30
0.0
 10
98.08462454145108
 20
-145.9149522204657
 30
0.0
 10
98.08462454145108
 20
-144.8107991174431
 30
0.0
 10
98.08462454145108
 20
-144.8107991174431
 30
0.0
 10
98.08462454145108
 20
-144.8107991174431
 30
0.0
 10
97.75458439396414
 20
-144.8107991174431
 30
0.0
 10
97.75458439396414
 20
-144.8107991174431
 30
0.0
 10
97.75458439396414
 20
-144.8107991174431
 30
0.0
 10
97.75458439396414
 20
-144.6626600115774
 30
0.0
 10
97.75458439396414
 20
-144.6626600115774
 30
0.0
 10
98.08669159874222
 20
-144.6478461009908
 30
0.0
 10
98.1332003877931
 20
-144.4848930845385
 30
0.0
 10
98.16282820896625
 20
-144.3705159144282
 30
0.0
 10
98.16282820896625
 20
-144.3705159144282
 30
0.0
 10
98.30890025754084
 20
-144.3705159144282
 30
0.0
 10
98.30890025754084
 20
-144.3705159144282
 30
0.0
 10
98.30890025754084
 20
-144.3705159144282
 30
0.0
 10
98.30890025754084
 20
-145.9149522204657
 30
0.0
 10
98.30890025754084
 20
-145.9149522204657
 30
0.0
 10
98.30890025754084
 20
-145.9149522204657
 30
0.0
 10
98.08462454145108
 20
-145.9149522204657
 30
0.0
 10
98.08462454145108
 20
-145.9149522204657
 30
0.0
  0
HATCH
  5
13D
330
138
100
AcDbEntity
  8
_U+30EC_U+30A4_U+30E4_U+30FC 1
 62
   179
420
  2234388
100
AcDbHatch
 10
0.0
 20
0.0
 30
0.0
210
0.0
220
0.0
230
1.0
  2
SOLID
 70
     1
 71
     0
 91
        1
 92
        1
 93
        1
 72
     4
 94
        3
 73
     0
 74
     1
 95
       26
 96
       22
 40
0.0
 40
0.0
 40
0.0
 40
0.0
 40
1.0
 40
1.0
 40
1.0
 40
2.0
 40
2.0
 40
2.0
 40
3.0
 40
3.0
 40
3.0
 40
4.0
 40
4.0
 40
4.0
 40
5.0
 40
5.0
 40
5.0
 40
6.0
 40
6.0
 40
6.0
 40
7.0
 40
7.0
 40
7.0
 40
7.0
 10
98.08462454145108
 20
-145.9149522204657
 10
98.08462454145108
 20
-145.9149522204657
 10
98.08462454145108
 20
-144.8107991174431
 10
98.08462454145108
 20
-144.8107991174431
 10
98.08462454145108
 20
-144.8107991174431
 10
97.75458439396414
 20
-144.8107991174431
 10
97.75458439396414
 20
-144.8107991174431
 10
97.75458439396414
 20
-144.8107991174431
 10
97.75458439396414
 20
-144.6626600115774
 10
97.75458439396414
 20
-144.6626600115774
 10
98.08669159874222
 20
-144.6478461009908
 10
98.1332003877931
 20
-144.4848930845385
 10
98.16282820896625
 20
-144.3705159144282
 10
98.16282820896625
 20
-144.3705159144282
 10
98.30890025754084
 20
-144.3705159144282
 10
98.30890025754084
 20
-144.3705159144282
 10
98.30890025754084
 20
-144.3705159144282
 10
98.30890025754084
 20
-145.9149522204657
 10
98.30890025754084
 20
-145.9149522204657
 10
98.30890025754084
 20
-145.9149522204657
 10
98.08462454145108
 20
-145.9149522204657
 10
98.08462454145108
 20
-145.9149522204657
 97
        0
 97
        0
 75
     2
 76
     1
 98
        0
  0
SPLINE
  5
13E
330
138
100
AcDbEntity
  8
_U+30EC_U+30A4_U+30E4_U+30FC 1
370
     0
100
AcDbSpline
210
0.0
220
0.0
230
1.0
 70
    11
 71
     3
 72
    44
 73
    40
 74
     0
 42
0.0000000001
 43
0.0000000001
 12
1.0
 22
0.0
 32
0.0
 13
1.0
 23
0.0
 33
0.0
 40
0.0
 40
0.0
 40
0.0
 40
0.0
 40
1.0
 40
1.0
 40
1.0
 40
2.0
 40
2.0
 40
2.0
 40
3.0
 40
3.0
 40
3.0
 40
4.0
 40
4.0
 40
4.0
 40
5.0
 40
5.0
 40
5.0
 40
6.0
 40
6.0
 40
6.0
 40
7.0
 40
7.0
 40
7.0
 40
8.0
 40
8.0
 40
8.0
 40
9.0
 40
9.0
 40
9.0
 40
10.0
 40
10.0
 40
10.0
 40
11.0
 40
11.0
 40
11.0
 40
12.0
 40
12.0
 40
12.0
 40
13.0
 40
13.0
 40
13.0
 40
13.0
 10
99.40306258365618
 20
-145.333075593007
 30
0.0
 10
99.1853325489884
 20
-145.491894494877
 30
0.0
 10
99.09231497088665
 20
-145.5659640478099
 30
0.0
 10
99.0433946149961
 20
-145.7096245295448
 30
0.0
 10
99.0433946149961
 20
-145.7096245295448
 30
0.0
 10
99.82198619466256
 20
-145.7096245295448
 30
0.0
 10
99.82198619466256
 20
-145.7096245295448
 30
0.0
 10
99.82198619466256
 20
-145.7096245295448
 30
0.0
 10
99.82198619466256
 20
-145.9149522204657
 30
0.0
 10
99.82198619466256
 20
-145.9149522204657
 30
0.0
 10
99.82198619466256
 20
-145.9149522204657
 30
0.0
 10
98.79396970186401
 20
-145.9149522204657
 30
0.0
 10
98.79396970186401
 20
-145.9149522204657
 30
0.0
 10
98.82566458032831
 20
-145.5573513090968
 30
0.0
 10
98.89112139454805
 20
-145.4791476415816
 30
0.0
 10
99.27628306979899
 20
-145.180802372559
 30
0.0
 10
99.53225366435305
 20
-144.9820203630601
 30
0.0
 10
99.5977104785728
 20
-144.9141519820006
 30
0.0
 10
99.5977104785728
 20
-144.7766926721392
 30
0.0
 10
99.5977104785728
 20
-144.6581813874466
 30
0.0
 10
99.52570798293108
 20
-144.5272677590071
 30
0.0
 10
99.32899303072331
 20
-144.5272677590071
 30
0.0
 10
99.06888832158695
 20
-144.5272677590071
 30
0.0
 10
99.06062009242235
 20
-144.7577446469703
 30
0.0
 10
99.05614146829153
 20
-144.8741888743717
 30
0.0
 10
99.05614146829153
 20
-144.8741888743717
 30
0.0
 10
98.83186575220176
 20
-144.8741888743717
 30
0.0
 10
98.83186575220176
 20
-144.8741888743717
 30
0.0
 10
98.84047849091489
 20
-144.747064850966
 30
0.0
 10
98.85115828691916
 20
-144.6350992476954
 30
0.0
 10
98.93142901172548
 20
-144.5165879630028
 30
0.0
 10
99.04132755770495
 20
-144.3557020038416
 30
0.0
 10
99.22770722345696
 20
-144.3219400680862
 30
0.0
 10
99.3438069413099
 20
-144.3219400680862
 30
0.0
 10
99.6211371278725
 20
-144.3219400680862
 30
0.0
 10
99.82853187608454
 20
-144.5059081669985
 30
0.0
 10
99.82853187608454
 20
-144.7787597294303
 30
0.0
 10
99.82853187608454
 20
-145.0075140696509
 30
0.0
 10
99.7120876486831
 20
-145.1067328196261
 30
0.0
 10
99.40306258365618
 20
-145.333075593007
 30
0.0
  0
HATCH
  5
13F
330
138
100
AcDbEntity
  8
_U+30EC_U+30A4_U+30E4_U+30FC 1
 62
   179
420
  2234388
100
AcDbHatch
 10
0.0
 20
0.0
 30
0.0
210
0.0
220
0.0
230
1.0
  2
SOLID
 70
     1
 71
     0
 91
        1
 92
        1
 93
        1
 72
     4
 94
        3
 73
     0
 74
     1
 95
       44
 96
       40
 40
0.0
 40
0.0
 40
0.0
 40
0.0
 40
1.0
 40
1.0
 40
1.0
 40
2.0
 40
2.0
 40
2.0
 40
3.0
 40
3.0
 40
3.0
 40
4.0
 40
4.0
 40
4.0
 40
5.0
 40
5.0
 40
5.0
 40
6.0
 40
6.0
 40
6.0
 40
7.0
 40
7.0
 40
7.0
 40
8.0
 40
8.0
 40
8.0
 40
9.0
 40
9.0
 40
9.0
 40
10.0
 40
10.0
 40
10.0
 40
11.0
 40
11.0
 40
11.0
 40
12.0
 40
12.0
 40
12.0
 40
13.0
 40
13.0
 40
13.0
 40
13.0
 10
99.40306258365618
 20
-145.333075593007
 10
99.1853325489884
 20
-145.491894494877
 10
99.09231497088665
 20
-145.5659640478099
 10
99.0433946149961
 20
-145.7096245295448
 10
99.0433946149961
 20
-145.7096245295448
 10
99.82198619466256
 20
-145.7096245295448
 10
99.82198619466256
 20
-145.7096245295448
 10
99.82198619466256
 20
-145.7096245295448
 10
99.82198619466256
 20
-145.9149522204657
 10
99.82198619466256
 20
-145.9149522204657
 10
99.82198619466256
 20
-145.9149522204657
 10
98.79396970186401
 20
-145.9149522204657
 10
98.79396970186401
 20
-145.9149522204657
 10
98.82566458032831
 20
-145.5573513090968
 10
98.89112139454805
 20
-145.4791476415816
 10
99.27628306979899
 20
-145.180802372559
 10
99.53225366435305
 20
-144.9820203630601
 10
99.5977104785728
 20
-144.9141519820006
 10
99.5977104785728
 20
-144.7766926721392
 10
99.5977104785728
 20
-144.6581813874466
 10
99.52570798293108
 20
-144.5272677590071
 10
99.32899303072331
 20
-144.5272677590071
 10
99.06888832158695
 20
-144.5272677590071
 10
99.06062009242235
 20
-144.7577446469703
 10
99.05614146829153
 20
-144.8741888743717
 10
99.05614146829153
 20
-144.8741888743717
 10
98.83186575220176
 20
-144.8741888743717
 10
98.83186575220176
 20
-144.8741888743717
 10
98.84047849091489
 20
-144.747064850966
 10
98.85115828691916
 20
-144.6350992476954
 10
98.93142901172548
 20
-144.5165879630028
 10
99.04132755770495
 20
-144.3557020038416
 10
99.22770722345696
 20
-144.3219400680862
 10
99.3438069413099
 20
-144.3219400680862
 10
99.6211371278725
 20
-144.3219400680862
 10
99.82853187608454
 20
-144.5059081669985
 10
99.82853187608454
 20
-144.7787597294303
 10
99.82853187608454
 20
-145.0075140696509
 10
99.7120876486831
 20
-145.1067328196261
 10
99.40306258365618
 20
-145.333075593007
 97
        0
 97
        0
 75
     2
 76
     1
 98
        0
  0
POLYLINE
  5
140
330
138
100
AcDbEntity
  8
_U+30EC_U+30A4_U+30E4_U+30FC 1
370
     0
100
AcDb2dPolyline
 66
     1
 10
0.0
 20
0.0
 30
0.0
  0
VERTEX
  5
141
330
140
100
AcDbEntity
  8
_U+30EC_U+30A4_U+30E4_U+30FC 1
370
     0
100
AcDbVertex
100
AcDb2dVertex
 10
100.0469509298494
 20
-145.9149522204657
 30
0.0
  0
VERTEX
  5
142
330
140
100
AcDbEntity
  8
_U+30EC_U+30A4_U+30E4_U+30FC 1
370
     0
100
AcDbVertex
100
AcDb2dVertex
 10
100.0469509298494
 20
-145.6631157404939
 30
0.0
  0
VERTEX
  5
143
330
140
100
AcDbEntity
  8
_U+30EC_U+30A4_U+30E4_U+30FC 1
370
     0
100
AcDbVertex
100
AcDb2dVertex
 10
100.2987874098211
 20
-145.6631157404939
 30
0.0
  0
VERTEX
  5
144
330
140
100
AcDbEntity
  8
_U+30EC_U+30A4_U+30E4_U+30FC 1
370
     0
100
AcDbVertex
100
AcDb2dVertex
 10
100.2987874098211
 20
-145.9149522204657
 30
0.0
  0
VERTEX
  5
145
330
140
100
AcDbEntity
  8
_U+30EC_U+30A4_U+30E4_U+30FC 1
370
     0
100
AcDbVertex
100
AcDb2dVertex
 10
100.0469509298494
 20
-145.9149522204657
 30
0.0
  0
SEQEND
  5
146
330
140
100
AcDbEntity
  8
_U+30EC_U+30A4_U+30E4_U+30FC 1
370
     0
  0
HATCH
  5
147
330
138
100
AcDbEntity
  8
_U+30EC_U+30A4_U+30E4_U+30FC 1
 62
   179
420
  2234388
100
AcDbHatch
 10
0.0
 20
0.0
 30
0.0
210
0.0
220
0.0
230
1.0
  2
SOLID
 70
     1
 71
     0
 91
        1
 92
        1
 93
        4
 72
     1
 10
100.0469509298494
 20
-145.9149522204657
 11
100.0469509298494
 21
-145.6631157404939
 72
     1
 10
100.0469509298494
 20
-145.6631157404939
 11
100.2987874098211
 21
-145.6631157404939
 72
     1
 10
100.2987874098211
 20
-145.6631157404939
 11
100.2987874098211
 21
-145.9149522204657
 72
     1
 10
100.2987874098211
 20
-145.9149522204657
 11
100.0469509298494
 21
-145.9149522204657
 97
        0
 75
     2
 76
     1
 98
        0
  0
SPLINE
  5
148
330
138
100
AcDbEntity
  8
_U+30EC_U+30A4_U+30E4_U+30FC 1
370
     0
100
AcDbSpline
210
0.0
220
0.0
230
1.0
 70
    11
 71
     3
 72
    53
 73
    49
 74
     0
 42
0.0000000001
 43
0.0000000001
 12
1.0
 22
0.0
 32
0.0
 13
1.0
 23
0.0
 33
0.0
 40
0.0
 40
0.0
 40
0.0
 40
0.0
 40
1.0
 40
1.0
 40
1.0
 40
2.0
 40
2.0
 40
2.0
 40
3.0
 40
3.0
 40
3.0
 40
4.0
 40
4.0
 40
4.0
 40
5.0
 40
5.0
 40
5.0
 40
6.0
 40
6.0
 40
6.0
 40
7.0
 40
7.0
 40
7.0
 40
8.0
 40
8.0
 40
8.0
 40
9.0
 40
9.0
 40
9.0
 40
10.0
 40
10.0
 40
10.0
 40
11.0
 40
11.0
 40
11.0
 40
12.0
 40
12.0
 40
12.0
 40
13.0
 40
13.0
 40
13.0
 40
14.0
 40
14.0
 40
14.0
 40
15.0
 40
15.0
 40
15.0
 40
16.0
 40
16.0
 40
16.0
 40
16.0
 10
101.0160562898502
 20
-145.9655951240989
 30
0.0
 10
100.937852622335
 20
-145.9655951240989
 30
0.0
 10
100.8362223055201
 20
-145.9487141562212
 30
0.0
 10
100.7345919887052
 20
-145.8853243992926
 30
0.0
 10
100.5613036857972
 20
-145.7754258533131
 30
0.0
 10
100.5399440937886
 20
-145.6441677153251
 30
0.0
 10
100.5209960686198
 20
-145.5363362266368
 30
0.0
 10
100.5209960686198
 20
-145.5363362266368
 30
0.0
 10
100.7432047274184
 20
-145.5363362266368
 30
0.0
 10
100.7432047274184
 20
-145.5363362266368
 30
0.0
 10
100.7979817456338
 20
-145.7351182361357
 30
0.0
 10
100.9251057690396
 20
-145.7647460573088
 30
0.0
 10
101.0181233471413
 20
-145.7647460573088
 30
0.0
 10
101.1576497142939
 20
-145.7647460573088
 30
0.0
 10
101.309922934742
 20
-145.6651827977851
 30
0.0
 10
101.309922934742
 20
-145.4326388525307
 30
0.0
 10
101.309922934742
 20
-145.1766682579767
 30
0.0
 10
101.1300889504119
 20
-145.1067328196261
 30
0.0
 10
101.0095106084282
 20
-145.1067328196261
 30
0.0
 10
100.9778157299639
 20
-145.1067328196261
 30
0.0
 10
100.8362223055201
 20
-145.1067328196261
 30
0.0
 10
100.7473388420007
 20
-145.235923900323
 30
0.0
 10
100.7473388420007
 20
-145.235923900323
 30
0.0
 10
100.5716389722529
 20
-145.2169758751541
 30
0.0
 10
100.5716389722529
 20
-145.2169758751541
 30
0.0
 10
100.5716389722529
 20
-145.2169758751541
 30
0.0
 10
100.6922173142367
 20
-144.3705159144282
 30
0.0
 10
100.6922173142367
 20
-144.3705159144282
 30
0.0
 10
100.6922173142367
 20
-144.3705159144282
 30
0.0
 10
101.4708088939031
 20
-144.3705159144282
 30
0.0
 10
101.4708088939031
 20
-144.3705159144282
 30
0.0
 10
101.4708088939031
 20
-144.3705159144282
 30
0.0
 10
101.4708088939031
 20
-144.5651638093448
 30
0.0
 10
101.4708088939031
 20
-144.5651638093448
 30
0.0
 10
101.4708088939031
 20
-144.5651638093448
 30
0.0
 10
100.855170330689
 20
-144.5651638093448
 30
0.0
 10
100.855170330689
 20
-144.5651638093448
 30
0.0
 10
100.855170330689
 20
-144.5651638093448
 30
0.0
 10
100.7897135164692
 20
-144.9882215349335
 30
0.0
 10
100.7897135164692
 20
-144.9882215349335
 30
0.0
 10
100.8510362161067
 20
-144.9544595991781
 30
0.0
 10
100.9333739982042
 20
-144.9141519820006
 30
0.0
 10
101.0518852828968
 20
-144.9141519820006
 30
0.0
 10
101.3057888201597
 20
-144.9141519820006
 30
0.0
 10
101.5428113895449
 20
-145.1005316477527
 30
0.0
 10
101.5428113895449
 20
-145.4136908273619
 30
0.0
 10
101.5428113895449
 20
-145.7309841215534
 30
0.0
 10
101.3185356734551
 20
-145.9655951240989
 30
0.0
 10
101.0160562898502
 20
-145.9655951240989
 30
0.0
  0
HATCH
  5
149
330
138
100
AcDbEntity
  8
_U+30EC_U+30A4_U+30E4_U+30FC 1
 62
   179
420
  2234388
100
AcDbHatch
 10
0.0
 20
0.0
 30
0.0
210
0.0
220
0.0
230
1.0
  2
SOLID
 70
     1
 71
     0
 91
        1
 92
        1
 93
        1
 72
     4
 94
        3
 73
     0
 74
     1
 95
       53
 96
       49
 40
0.0
 40
0.0
 40
0.0
 40
0.0
 40
1.0
 40
1.0
 40
1.0
 40
2.0
 40
2.0
 40
2.0
 40
3.0
 40
3.0
 40
3.0
 40
4.0
 40
4.0
 40
4.0
 40
5.0
 40
5.0
 40
5.0
 40
6.0
 40
6.0
 40
6.0
 40
7.0
 40
7.0
 40
7.0
 40
8.0
 40
8.0
 40
8.0
 40
9.0
 40
9.0
 40
9.0
 40
10.0
 40
10.0
 40
10.0
 40
11.0
 40
11.0
 40
11.0
 40
12.0
 40
12.0
 40
12.0
 40
13.0
 40
13.0
 40
13.0
 40
14.0
 40
14.0
 40
14.0
 40
15.0
 40
15.0
 40
15.0
 40
16.0
 40
16.0
 40
16.0
 40
16.0
 10
101.0160562898502
 20
-145.9655951240989
 10
100.937852622335
 20
-145.9655951240989
 10
100.8362223055201
 20
-145.9487141562212
 10
100.7345919887052
 20
-145.8853243992926
 10
100.5613036857972
 20
-145.7754258533131
 10
100.5399440937886
 20
-145.6441677153251
 10
100.5209960686198
 20
-145.5363362266368
 10
100.5209960686198
 20
-145.5363362266368
 10
100.7432047274184
 20
-145.5363362266368
 10
100.7432047274184
 20
-145.5363362266368
 10
100.7979817456338
 20
-145.7351182361357
 10
100.9251057690396
 20
-145.7647460573088
 10
101.0181233471413
 20
-145.7647460573088
 10
101.1576497142939
 20
-145.7647460573088
 10
101.309922934742
 20
-145.6651827977851
 10
101.309922934742
 20
-145.4326388525307
 10
101.309922934742
 20
-145.1766682579767
 10
101.1300889504119
 20
-145.1067328196261
 10
101.0095106084282
 20
-145.1067328196261
 10
100.9778157299639
 20
-145.1067328196261
 10
100.8362223055201
 20
-145.1067328196261
 10
100.7473388420007
 20
-145.235923900323
 10
100.7473388420007
 20
-145.235923900323
 10
100.5716389722529
 20
-145.2169758751541
 10
100.5716389722529
 20
-145.2169758751541
 10
100.5716389722529
 20
-145.2169758751541
 10
100.6922173142367
 20
-144.3705159144282
 10
100.6922173142367
 20
-144.3705159144282
 10
100.6922173142367
 20
-144.3705159144282
 10
101.4708088939031
 20
-144.3705159144282
 10
101.4708088939031
 20
-144.3705159144282
 10
101.4708088939031
 20
-144.3705159144282
 10
101.4708088939031
 20
-144.5651638093448
 10
101.4708088939031
 20
-144.5651638093448
 10
101.4708088939031
 20
-144.5651638093448
 10
100.855170330689
 20
-144.5651638093448
 10
100.855170330689
 20
-144.5651638093448
 10
100.855170330689
 20
-144.5651638093448
 10
100.7897135164692
 20
-144.9882215349335
 10
100.7897135164692
 20
-144.9882215349335
 10
100.8510362161067
 20
-144.9544595991781
 10
100.9333739982042
 20
-144.9141519820006
 10
101.0518852828968
 20
-144.9141519820006
 10
101.3057888201597
 20
-144.9141519820006
 10
101.5428113895449
 20
-145.1005316477527
 10
101.5428113895449
 20
-145.4136908273619
 10
101.5428113895449
 20
-145.7309841215534
 10
101.3185356734551
 20
-145.9655951240989
 10
101.0160562898502
 20
-145.9655951240989
 97
        0
 97
        0
 75
     2
 76
     1
 98
        0
  0
ENDBLK
  5
13B
330
138
100
AcDbEntity
  8
0
100
AcDbBlockEnd
  0
BLOCK
  5
15C
330
15A
100
AcDbEntity
  8
0
100
AcDbBlockBegin
  2
block 8
 70
     0
 10
0.0
 20
0.0
 30
0.0
  3
block 8
  1

  0
POLYLINE
  5
15E
330
15A
100
AcDbEntity
  8
_U+30EC_U+30A4_U+30E4_U+30FC 1
370
     0
100
AcDb2dPolyline
 66
     1
 10
0.0
 20
0.0
 30
0.0
  0
VERTEX
  5
15F
330
15E
100
AcDbEntity
  8
_U+30EC_U+30A4_U+30E4_U+30FC 1
370
     0
100
AcDbVertex
100
AcDb2dVertex
 10
81.78966740576786
 20
-117.568017548733
 30
0.0
  0
VERTEX
  5
160
330
15E
100
AcDbEntity
  8
_U+30EC_U+30A4_U+30E4_U+30FC 1
370
     0
100
AcDbVertex
100
AcDb2dVertex
 10
81.78966740576786
 20
-117.9149386640977
 30
0.0
  0
VERTEX
  5
161
330
15E
100
AcDbEntity
  8
_U+30EC_U+30A4_U+30E4_U+30FC 1
370
     0
100
AcDbVertex
100
AcDb2dVertex
 10
81.5717651163258
 20
-117.9149386640977
 30
0.0
  0
VERTEX
  5
162
330
15E
100
AcDbEntity
  8
_U+30EC_U+30A4_U+30E4_U+30FC 1
370
     0
100
AcDbVertex
100
AcDb2dVertex
 10
81.5717651163258
 20
-117.568017548733
 30
0.0
  0
VERTEX
  5
163
330
15E
100
AcDbEntity
  8
_U+30EC_U+30A4_U+30E4_U+30FC 1
370
     0
100
AcDbVertex
100
AcDb2dVertex
 10
80.91599119070851
 20
-117.568017548733
 30
0.0
  0
VERTEX
  5
164
330
15E
100
AcDbEntity
  8
_U+30EC_U+30A4_U+30E4_U+30FC 1
370
     0
100
AcDbVertex
100
AcDb2dVertex
 10
80.91599119070851
 20
-117.3437418326432
 30
0.0
  0
VERTEX
  5
165
330
15E
100
AcDbEntity
  8
_U+30EC_U+30A4_U+30E4_U+30FC 1
370
     0
100
AcDbVertex
100
AcDb2dVertex
 10
81.59501951085124
 20
-116.3706746128344
 30
0.0
  0
VERTEX
  5
166
330
15E
100
AcDbEntity
  8
_U+30EC_U+30A4_U+30E4_U+30FC 1
370
     0
100
AcDbVertex
100
AcDb2dVertex
 10
81.78966740576786
 20
-116.3706746128344
 30
0.0
  0
VERTEX
  5
167
330
15E
100
AcDbEntity
  8
_U+30EC_U+30A4_U+30E4_U+30FC 1
370
     0
100
AcDbVertex
100
AcDb2dVertex
 10
81.78966740576786
 20
-117.3692355392341
 30
0.0
  0
VERTEX
  5
168
330
15E
100
AcDbEntity
  8
_U+30EC_U+30A4_U+30E4_U+30FC 1
370
     0
100
AcDbVertex
100
AcDb2dVertex
 10
81.99706215397991
 20
-117.3692355392341
 30
0.0
  0
VERTEX
  5
169
330
15E
100
AcDbEntity
  8
_U+30EC_U+30A4_U+30E4_U+30FC 1
370
     0
100
AcDbVertex
100
AcDb2dVertex
 10
81.99706215397991
 20
-117.568017548733
 30
0.0
  0
VERTEX
  5
16A
330
15E
100
AcDbEntity
  8
_U+30EC_U+30A4_U+30E4_U+30FC 1
370
     0
100
AcDbVertex
100
AcDb2dVertex
 10
81.78966740576786
 20
-117.568017548733
 30
0.0
  0
SEQEND
  5
16B
330
15E
100
AcDbEntity
  8
_U+30EC_U+30A4_U+30E4_U+30FC 1
370
     0
  0
POLYLINE
  5
16C
330
15A
100
AcDbEntity
  8
_U+30EC_U+30A4_U+30E4_U+30FC 1
370
     0
100
AcDb2dPolyline
 66
     1
 10
0.0
 20
0.0
 30
0.0
  0
VERTEX
  5
16D
330
16C
100
AcDbEntity
  8
_U+30EC_U+30A4_U+30E4_U+30FC 1
370
     0
100
AcDbVertex
100
AcDb2dVertex
 10
81.5717651163258
 20
-116.7132893588425
 30
0.0
  0
VERTEX
  5
16E
330
16C
100
AcDbEntity
  8
_U+30EC_U+30A4_U+30E4_U+30FC 1
370
     0
100
AcDbVertex
100
AcDb2dVertex
 10
81.11494545498168
 20
-117.3692355392341
 30
0.0
  0
VERTEX
  5
16F
330
16C
100
AcDbEntity
  8
_U+30EC_U+30A4_U+30E4_U+30FC 1
370
     0
100
AcDbVertex
100
AcDb2dVertex
 10
81.5717651163258
 20
-117.3692355392341
 30
0.0
  0
VERTEX
  5
170
330
16C
100
AcDbEntity
  8
_U+30EC_U+30A4_U+30E4_U+30FC 1
370
     0
100
AcDbVertex
100
AcDb2dVertex
 10
81.5717651163258
 20
-116.7132893588425
 30
0.0
  0
SEQEND
  5
171
330
16C
100
AcDbEntity
  8
_U+30EC_U+30A4_U+30E4_U+30FC 1
370
     0
  0
HATCH
  5
172
330
15A
100
AcDbEntity
  8
_U+30EC_U+30A4_U+30E4_U+30FC 1
 62
   179
420
  2234388
100
AcDbHatch
 10
0.0
 20
0.0
 30
0.0
210
0.0
220
0.0
230
1.0
  2
SOLID
 70
     1
 71
     0
 91
        2
 92
        1
 93
       11
 72
     1
 10
81.78966740576786
 20
-117.568017548733
 11
81.78966740576786
 21
-117.9149386640977
 72
     1
 10
81.78966740576786
 20
-117.9149386640977
 11
81.5717651163258
 21
-117.9149386640977
 72
     1
 10
81.5717651163258
 20
-117.9149386640977
 11
81.5717651163258
 21
-117.568017548733
 72
     1
 10
81.5717651163258
 20
-117.568017548733
 11
80.91599119070851
 21
-117.568017548733
 72
     1
 10
80.91599119070851
 20
-117.568017548733
 11
80.91599119070851
 21
-117.3437418326432
 72
     1
 10
80.91599119070851
 20
-117.3437418326432
 11
81.59501951085124
 21
-116.3706746128344
 72
     1
 10
81.59501951085124
 20
-116.3706746128344
 11
81.78966740576786
 21
-116.3706746128344
 72
     1
 10
81.78966740576786
 20
-116.3706746128344
 11
81.78966740576786
 21
-117.3692355392341
 72
     1
 10
81.78966740576786
 20
-117.3692355392341
 11
81.99706215397991
 21
-117.3692355392341
 72
     1
 10
81.99706215397991
 20
-117.3692355392341
 11
81.99706215397991
 21
-117.568017548733
 72
     1
 10
81.99706215397991
 20
-117.568017548733
 11
81.78966740576786
 21
-117.568017548733
 97
        0
 92
        1
 93
        3
 72
     1
 10
81.5717651163258
 20
-116.7132893588425
 11
81.11494545498168
 21
-117.3692355392341
 72
     1
 10
81.11494545498168
 20
-117.3692355392341
 11
81.5717651163258
 21
-117.3692355392341
 72
     1
 10
81.5717651163258
 20
-117.3692355392341
 11
81.5717651163258
 21
-116.7132893588425
 97
        0
 75
     2
 76
     1
 98
        0
  0
POLYLINE
  5
173
330
15A
100
AcDbEntity
  8
_U+30EC_U+30A4_U+30E4_U+30FC 1
370
     0
100
AcDb2dPolyline
 66
     1
 10
0.0
 20
0.0
 30
0.0
  0
VERTEX
  5
174
330
173
100
AcDbEntity
  8
_U+30EC_U+30A4_U+30E4_U+30FC 1
370
     0
100
AcDbVertex
100
AcDb2dVertex
 10
82.19446612528472
 20
-117.9149386640977
 30
0.0
  0
VERTEX
  5
175
330
173
100
AcDbEntity
  8
_U+30EC_U+30A4_U+30E4_U+30FC 1
370
     0
100
AcDbVertex
100
AcDb2dVertex
 10
82.19446612528472
 20
-117.6631021841259
 30
0.0
  0
VERTEX
  5
176
330
173
100
AcDbEntity
  8
_U+30EC_U+30A4_U+30E4_U+30FC 1
370
     0
100
AcDbVertex
100
AcDb2dVertex
 10
82.44613035048222
 20
-117.6631021841259
 30
0.0
  0
VERTEX
  5
177
330
173
100
AcDbEntity
  8
_U+30EC_U+30A4_U+30E4_U+30FC 1
370
     0
100
AcDbVertex
100
AcDb2dVertex
 10
82.44613035048222
 20
-117.9149386640977
 30
0.0
  0
VERTEX
  5
178
330
173
100
AcDbEntity
  8
_U+30EC_U+30A4_U+30E4_U+30FC 1
370
     0
100
AcDbVertex
100
AcDb2dVertex
 10
82.19446612528472
 20
-117.9149386640977
 30
0.0
  0
SEQEND
  5
179
330
173
100
AcDbEntity
  8
_U+30EC_U+30A4_U+30E4_U+30FC 1
370
     0
  0
HATCH
  5
17A
330
15A
100
AcDbEntity
  8
_U+30EC_U+30A4_U+30E4_U+30FC 1
 62
   179
420
  2234388
100
AcDbHatch
 10
0.0
 20
0.0
 30
0.0
210
0.0
220
0.0
230
1.0
  2
SOLID
 70
     1
 71
     0
 91
        1
 92
        1
 93
        4
 72
     1
 10
82.19446612528472
 20
-117.9149386640977
 11
82.19446612528472
 21
-117.6631021841259
 72
     1
 10
82.19446612528472
 20
-117.6631021841259
 11
82.44613035048222
 21
-117.6631021841259
 72
     1
 10
82.44613035048222
 20
-117.6631021841259
 11
82.44613035048222
 21
-117.9149386640977
 72
     1
 10
82.44613035048222
 20
-117.9149386640977
 11
82.19446612528472
 21
-117.9149386640977
 97
        0
 75
     2
 76
     1
 98
        0
  0
SPLINE
  5
17B
330
15A
100
AcDbEntity
  8
_U+30EC_U+30A4_U+30E4_U+30FC 1
370
     0
100
AcDbSpline
210
0.0
220
0.0
230
1.0
 70
    11
 71
     3
 72
    53
 73
    49
 74
     0
 42
0.0000000001
 43
0.0000000001
 12
1.0
 22
0.0
 32
0.0
 13
1.0
 23
0.0
 33
0.0
 40
0.0
 40
0.0
 40
0.0
 40
0.0
 40
1.0
 40
1.0
 40
1.0
 40
2.0
 40
2.0
 40
2.0
 40
3.0
 40
3.0
 40
3.0
 40
4.0
 40
4.0
 40
4.0
 40
5.0
 40
5.0
 40
5.0
 40
6.0
 40
6.0
 40
6.0
 40
7.0
 40
7.0
 40
7.0
 40
8.0
 40
8.0
 40
8.0
 40
9.0
 40
9.0
 40
9.0
 40
10.0
 40
10.0
 40
10.0
 40
11.0
 40
11.0
 40
11.0
 40
12.0
 40
12.0
 40
12.0
 40
13.0
 40
13.0
 40
13.0
 40
14.0
 40
14.0
 40
14.0
 40
15.0
 40
15.0
 40
15.0
 40
16.0
 40
16.0
 40
16.0
 40
16.0
 10
83.16374374005976
 20
-117.9655815677308
 30
0.0
 10
83.08536781777033
 20
-117.9655815677308
 30
0.0
 10
82.98390975572973
 20
-117.9487005998531
 30
0.0
 10
82.88227943891485
 20
-117.8853108429245
 30
0.0
 10
82.70881888123252
 20
-117.775412296945
 30
0.0
 10
82.68763154399824
 20
-117.644154158957
 30
0.0
 10
82.66868351882935
 20
-117.5363226702687
 30
0.0
 10
82.66868351882935
 20
-117.5363226702687
 30
0.0
 10
82.89071992285372
 20
-117.5363226702687
 30
0.0
 10
82.89071992285372
 20
-117.5363226702687
 30
0.0
 10
82.9458414506177
 20
-117.7351046797676
 30
0.0
 10
83.07279321924916
 20
-117.7647325009408
 30
0.0
 10
83.16581079735091
 20
-117.7647325009408
 30
0.0
 10
83.3055094192778
 20
-117.7647325009408
 30
0.0
 10
83.45778263972583
 20
-117.665169241417
 30
0.0
 10
83.45778263972583
 20
-117.4326252961627
 30
0.0
 10
83.45778263972583
 20
-117.1766547016086
 30
0.0
 10
83.27794865539579
 20
-117.106719263258
 30
0.0
 10
83.15737031341204
 20
-117.106719263258
 30
0.0
 10
83.12567543494775
 20
-117.106719263258
 30
0.0
 10
82.98390975572973
 20
-117.106719263258
 30
0.0
 10
82.89502629221028
 20
-117.2359103439549
 30
0.0
 10
82.89502629221028
 20
-117.2359103439549
 30
0.0
 10
82.7194986772368
 20
-117.216962318786
 30
0.0
 10
82.7194986772368
 20
-117.216962318786
 30
0.0
 10
82.7194986772368
 20
-117.216962318786
 30
0.0
 10
82.84007701922054
 20
-116.3706746128344
 30
0.0
 10
82.84007701922054
 20
-116.3706746128344
 30
0.0
 10
82.84007701922054
 20
-116.3706746128344
 30
0.0
 10
83.61849634411274
 20
-116.3706746128344
 30
0.0
 10
83.61849634411274
 20
-116.3706746128344
 30
0.0
 10
83.61849634411274
 20
-116.3706746128344
 30
0.0
 10
83.61849634411274
 20
-116.565322507751
 30
0.0
 10
83.61849634411274
 20
-116.565322507751
 30
0.0
 10
83.61849634411274
 20
-116.565322507751
 30
0.0
 10
83.0028577808986
 20
-116.565322507751
 30
0.0
 10
83.0028577808986
 20
-116.565322507751
 30
0.0
 10
83.0028577808986
 20
-116.565322507751
 30
0.0
 10
82.93740096667885
 20
-116.9883802333397
 30
0.0
 10
82.93740096667885
 20
-116.9883802333397
 30
0.0
 10
82.9987236663163
 20
-116.95444604281
 30
0.0
 10
83.08123370318803
 20
-116.9143106804068
 30
0.0
 10
83.19957273310636
 20
-116.9143106804068
 30
0.0
 10
83.45347627036928
 20
-116.9143106804068
 30
0.0
 10
83.69049883975447
 20
-117.1005180913846
 30
0.0
 10
83.69049883975447
 20
-117.4136772709938
 30
0.0
 10
83.69049883975447
 20
-117.7309705651853
 30
0.0
 10
83.4662231236647
 20
-117.9655815677308
 30
0.0
 10
83.16374374005976
 20
-117.9655815677308
 30
0.0
  0
HATCH
  5
17C
330
15A
100
AcDbEntity
  8
_U+30EC_U+30A4_U+30E4_U+30FC 1
 62
   179
420
  2234388
100
AcDbHatch
 10
0.0
 20
0.0
 30
0.0
210
0.0
220
0.0
230
1.0
  2
SOLID
 70
     1
 71
     0
 91
        1
 92
        1
 93
        1
 72
     4
 94
        3
 73
     0
 74
     1
 95
       53
 96
       49
 40
0.0
 40
0.0
 40
0.0
 40
0.0
 40
1.0
 40
1.0
 40
1.0
 40
2.0
 40
2.0
 40
2.0
 40
3.0
 40
3.0
 40
3.0
 40
4.0
 40
4.0
 40
4.0
 40
5.0
 40
5.0
 40
5.0
 40
6.0
 40
6.0
 40
6.0
 40
7.0
 40
7.0
 40
7.0
 40
8.0
 40
8.0
 40
8.0
 40
9.0
 40
9.0
 40
9.0
 40
10.0
 40
10.0
 40
10.0
 40
11.0
 40
11.0
 40
11.0
 40
12.0
 40
12.0
 40
12.0
 40
13.0
 40
13.0
 40
13.0
 40
14.0
 40
14.0
 40
14.0
 40
15.0
 40
15.0
 40
15.0
 40
16.0
 40
16.0
 40
16.0
 40
16.0
 10
83.16374374005976
 20
-117.9655815677308
 10
83.08536781777033
 20
-117.9655815677308
 10
82.98390975572973
 20
-117.9487005998531
 10
82.88227943891485
 20
-117.8853108429245
 10
82.70881888123252
 20
-117.775412296945
 10
82.68763154399824
 20
-117.644154158957
 10
82.66868351882935
 20
-117.5363226702687
 10
82.66868351882935
 20
-117.5363226702687
 10
82.89071992285372
 20
-117.5363226702687
 10
82.89071992285372
 20
-117.5363226702687
 10
82.9458414506177
 20
-117.7351046797676
 10
83.07279321924916
 20
-117.7647325009408
 10
83.16581079735091
 20
-117.7647325009408
 10
83.3055094192778
 20
-117.7647325009408
 10
83.45778263972583
 20
-117.665169241417
 10
83.45778263972583
 20
-117.4326252961627
 10
83.45778263972583
 20
-117.1766547016086
 10
83.27794865539579
 20
-117.106719263258
 10
83.15737031341204
 20
-117.106719263258
 10
83.12567543494775
 20
-117.106719263258
 10
82.98390975572973
 20
-117.106719263258
 10
82.89502629221028
 20
-117.2359103439549
 10
82.89502629221028
 20
-117.2359103439549
 10
82.7194986772368
 20
-117.216962318786
 10
82.7194986772368
 20
-117.216962318786
 10
82.7194986772368
 20
-117.216962318786
 10
82.84007701922054
 20
-116.3706746128344
 10
82.84007701922054
 20
-116.3706746128344
 10
82.84007701922054
 20
-116.3706746128344
 10
83.61849634411274
 20
-116.3706746128344
 10
83.61849634411274
 20
-116.3706746128344
 10
83.61849634411274
 20
-116.3706746128344
 10
83.61849634411274
 20
-116.565322507751
 10
83.61849634411274
 20
-116.565322507751
 10
83.61849634411274
 20
-116.565322507751
 10
83.0028577808986
 20
-116.565322507751
 10
83.0028577808986
 20
-116.565322507751
 10
83.0028577808986
 20
-116.565322507751
 10
82.93740096667885
 20
-116.9883802333397
 10
82.93740096667885
 20
-116.9883802333397
 10
82.9987236663163
 20
-116.95444604281
 10
83.08123370318803
 20
-116.9143106804068
 10
83.19957273310636
 20
-116.9143106804068
 10
83.45347627036928
 20
-116.9143106804068
 10
83.69049883975447
 20
-117.1005180913846
 10
83.69049883975447
 20
-117.4136772709938
 10
83.69049883975447
 20
-117.7309705651853
 10
83.4662231236647
 20
-117.9655815677308
 10
83.16374374005976
 20
-117.9655815677308
 97
        0
 97
        0
 75
     2
 76
     1
 98
        0
  0
ENDBLK
  5
15D
330
15A
100
AcDbEntity
  8
0
100
AcDbBlockEnd
  0
ENDSEC
  0
SECTION
  2
ENTITIES
  0
POLYLINE
  5
41
330
1F
100
AcDbEntity
  8
_U+30EC_U+30A4_U+30E4_U+30FC 1
 62
   179
420
  2234388
370
    25
100
AcDb2dPolyline
 66
     1
 10
0.0
 20
0.0
 30
0.0
  0
VERTEX
  5
42
330
41
100
AcDbEntity
  8
_U+30EC_U+30A4_U+30E4_U+30FC 1
 62
   179
420
  2234388
370
    25
100
AcDbVertex
100
AcDb2dVertex
 10
79.21550714571072
 20
-127.510751634789
 30
0.0
  0
VERTEX
  5
43
330
41
100
AcDbEntity
  8
_U+30EC_U+30A4_U+30E4_U+30FC 1
 62
   179
420
  2234388
370
    25
100
AcDbVertex
100
AcDb2dVertex
 10
79.21550714571072
 20
-138.0112174654974
 30
0.0
  0
SEQEND
  5
44
330
41
100
AcDbEntity
  8
_U+30EC_U+30A4_U+30E4_U+30FC 1
 62
   179
420
  2234388
370
    25
  0
POLYLINE
  5
45
330
1F
100
AcDbEntity
  8
_U+30EC_U+30A4_U+30E4_U+30FC 1
 62
   179
420
  2234388
370
    25
100
AcDb2dPolyline
 66
     1
 10
0.0
 20
0.0
 30
0.0
  0
VERTEX
  5
46
330
45
100
AcDbEntity
  8
_U+30EC_U+30A4_U+30E4_U+30FC 1
 62
   179
420
  2234388
370
    25
100
AcDbVertex
100
AcDb2dVertex
 10
81.71525513749238
 20
-140.510965520428
 30
0.0
  0
VERTEX
  5
47
330
45
100
AcDbEntity
  8
_U+30EC_U+30A4_U+30E4_U+30FC 1
 62
   179
420
  2234388
370
    25
100
AcDbVertex
100
AcDb2dVertex
 10
92.21554431405214
 20
-140.510965520428
 30
0.0
  0
SEQEND
  5
48
330
45
100
AcDbEntity
  8
_U+30EC_U+30A4_U+30E4_U+30FC 1
 62
   179
420
  2234388
370
    25
  0
POLYLINE
  5
49
330
1F
100
AcDbEntity
  8
_U+30EC_U+30A4_U+30E4_U+30FC 1
 62
   179
420
  2234388
370
    25
100
AcDb2dPolyline
 66
     1
 10
0.0
 20
0.0
 30
0.0
  0
VERTEX
  5
4A
330
49
100
AcDbEntity
  8
_U+30EC_U+30A4_U+30E4_U+30FC 1
 62
   179
420
  2234388
370
    25
100
AcDbVertex
100
AcDb2dVertex
 10
81.58984264069193
 20
-139.5111932984555
 30
0.0
  0
VERTEX
  5
4B
330
49
100
AcDbEntity
  8
_U+30EC_U+30A4_U+30E4_U+30FC 1
 62
   179
420
  2234388
370
    25
100
AcDbVertex
100
AcDb2dVertex
 10
93.21531651076805
 20
-139.5111932984555
 30
0.0
  0
SEQEND
  5
4C
330
49
100
AcDbEntity
  8
_U+30EC_U+30A4_U+30E4_U+30FC 1
 62
   179
420
  2234388
370
    25
  0
POLYLINE
  5
4D
330
1F
100
AcDbEntity
  8
_U+30EC_U+30A4_U+30E4_U+30FC 1
 62
   179
420
  2234388
370
    25
100
AcDb2dPolyline
 66
     1
 10
0.0
 20
0.0
 30
0.0
  0
VERTEX
  5
4E
330
4D
100
AcDbEntity
  8
_U+30EC_U+30A4_U+30E4_U+30FC 1
 62
   179
420
  2234388
370
    25
100
AcDbVertex
100
AcDb2dVertex
 10
80.21559684241852
 20
-126.5109794128167
 30
0.0
  0
VERTEX
  5
4F
330
4D
100
AcDbEntity
  8
_U+30EC_U+30A4_U+30E4_U+30FC 1
 62
   179
420
  2234388
370
    25
100
AcDbVertex
100
AcDb2dVertex
 10
80.21559684241852
 20
-138.0256813543824
 30
0.0
  0
SEQEND
  5
50
330
4D
100
AcDbEntity
  8
_U+30EC_U+30A4_U+30E4_U+30FC 1
 62
   179
420
  2234388
370
    25
  0
POLYLINE
  5
51
330
1F
100
AcDbEntity
  8
_U+30EC_U+30A4_U+30E4_U+30FC 1
 62
   179
420
  2234388
370
    25
100
AcDb2dPolyline
 66
     1
 10
0.0
 20
0.0
 30
0.0
  0
VERTEX
  5
52
330
51
100
AcDbEntity
  8
_U+30EC_U+30A4_U+30E4_U+30FC 1
 62
   179
420
  2234388
370
    25
100
AcDbVertex
100
AcDb2dVertex
 10
85.71536697988547
 20
-134.010752744275
 30
0.0
  0
VERTEX
  5
53
330
51
100
AcDbEntity
  8
_U+30EC_U+30A4_U+30E4_U+30FC 1
 62
   179
420
  2234388
370
    25
100
AcDbVertex
100
AcDb2dVertex
 10
105.7155055291264
 20
-134.010752744275
 30
0.0
  0
SEQEND
  5
54
330
51
100
AcDbEntity
  8
_U+30EC_U+30A4_U+30E4_U+30FC 1
 62
   179
420
  2234388
370
    25
  0
POLYLINE
  5
55
330
1F
100
AcDbEntity
  8
_U+30EC_U+30A4_U+30E4_U+30FC 1
 62
   179
420
  2234388
370
    25
100
AcDb2dPolyline
 66
     1
 10
0.0
 20
0.0
 30
0.0
  0
VERTEX
  5
56
330
55
100
AcDbEntity
  8
_U+30EC_U+30A4_U+30E4_U+30FC 1
 62
   179
420
  2234388
370
    25
100
AcDbVertex
100
AcDb2dVertex
 10
85.71536697988547
 20
-114.0109691381639
 30
0.0
  0
VERTEX
  5
57
330
55
100
AcDbEntity
  8
_U+30EC_U+30A4_U+30E4_U+30FC 1
 62
   179
420
  2234388
370
    25
100
AcDbVertex
100
AcDb2dVertex
 10
85.71536697988547
 20
-134.010752744275
 30
0.0
  0
SEQEND
  5
58
330
55
100
AcDbEntity
  8
_U+30EC_U+30A4_U+30E4_U+30FC 1
 62
   179
420
  2234388
370
    25
  0
POLYLINE
  5
59
330
1F
100
AcDbEntity
  8
_U+30EC_U+30A4_U+30E4_U+30FC 1
 62
   179
420
  2234388
370
    25
100
AcDb2dPolyline
 66
     1
 10
0.0
 20
0.0
 30
0.0
  0
VERTEX
  5
5A
330
59
100
AcDbEntity
  8
_U+30EC_U+30A4_U+30E4_U+30FC 1
 62
   179
420
  2234388
370
    25
100
AcDbVertex
100
AcDb2dVertex
 10
84.61568811905173
 20
-128.0109552457751
 30
0.0
  0
VERTEX
  5
5B
330
59
100
AcDbEntity
  8
_U+30EC_U+30A4_U+30E4_U+30FC 1
 62
   179
420
  2234388
370
    25
100
AcDbVertex
100
AcDb2dVertex
 10
84.71559478316956
 20
-127.9110485791335
 30
0.0
  0
SEQEND
  5
5C
330
59
100
AcDbEntity
  8
_U+30EC_U+30A4_U+30E4_U+30FC 1
 62
   179
420
  2234388
370
    25
  0
POLYLINE
  5
5D
330
1F
100
AcDbEntity
  8
_U+30EC_U+30A4_U+30E4_U+30FC 1
 62
   179
420
  2234388
370
    25
100
AcDb2dPolyline
 66
     1
 10
0.0
 20
0.0
 30
0.0
  0
VERTEX
  5
5E
330
5D
100
AcDbEntity
  8
_U+30EC_U+30A4_U+30E4_U+30FC 1
 62
   179
420
  2234388
370
    25
100
AcDbVertex
100
AcDb2dVertex
 10
91.71534071570228
 20
-135.1111371884446
 30
0.0
  0
VERTEX
  5
5F
330
5D
100
AcDbEntity
  8
_U+30EC_U+30A4_U+30E4_U+30FC 1
 62
   179
420
  2234388
370
    25
100
AcDbVertex
100
AcDb2dVertex
 10
91.8159176575808
 20
-135.011230521803
 30
0.0
  0
SEQEND
  5
60
330
5D
100
AcDbEntity
  8
_U+30EC_U+30A4_U+30E4_U+30FC 1
 62
   179
420
  2234388
370
    25
  0
POLYLINE
  5
61
330
1F
100
AcDbEntity
  8
_U+30EC_U+30A4_U+30E4_U+30FC 1
 62
   179
420
  2234388
370
    25
100
AcDb2dPolyline
 66
     1
 10
0.0
 20
0.0
 30
0.0
  0
VERTEX
  5
62
330
61
100
AcDbEntity
  8
_U+30EC_U+30A4_U+30E4_U+30FC 1
 62
   179
420
  2234388
370
    25
100
AcDbVertex
100
AcDb2dVertex
 10
81.38727764585978
 20
-138.9896113541417
 30
0.0
  0
VERTEX
  5
63
330
61
100
AcDbEntity
  8
_U+30EC_U+30A4_U+30E4_U+30FC 1
 62
   179
420
  2234388
370
    25
100
AcDbVertex
100
AcDb2dVertex
 10
85.62025809342302
 20
-135.1111371884446
 30
0.0
  0
SEQEND
  5
64
330
61
100
AcDbEntity
  8
_U+30EC_U+30A4_U+30E4_U+30FC 1
 62
   179
420
  2234388
370
    25
  0
POLYLINE
  5
65
330
1F
100
AcDbEntity
  8
_U+30EC_U+30A4_U+30E4_U+30FC 1
 62
   179
420
  2234388
370
    25
100
AcDb2dPolyline
 66
     1
 10
0.0
 20
0.0
 30
0.0
  0
VERTEX
  5
66
330
65
100
AcDbEntity
  8
_U+30EC_U+30A4_U+30E4_U+30FC 1
 62
   179
420
  2234388
370
    25
100
AcDbVertex
100
AcDb2dVertex
 10
80.71823460737293
 20
-138.2468730209939
 30
0.0
  0
VERTEX
  5
67
330
65
100
AcDbEntity
  8
_U+30EC_U+30A4_U+30E4_U+30FC 1
 62
   179
420
  2234388
370
    25
100
AcDbVertex
100
AcDb2dVertex
 10
84.61568811905173
 20
-134.6756682996642
 30
0.0
  0
SEQEND
  5
68
330
65
100
AcDbEntity
  8
_U+30EC_U+30A4_U+30E4_U+30FC 1
 62
   179
420
  2234388
370
    25
  0
POLYLINE
  5
69
330
1F
100
AcDbEntity
  8
_U+30EC_U+30A4_U+30E4_U+30FC 1
 62
   179
420
  2234388
370
     9
100
AcDb2dPolyline
 66
     1
 10
0.0
 20
0.0
 30
0.0
  0
VERTEX
  5
6A
330
69
100
AcDbEntity
  8
_U+30EC_U+30A4_U+30E4_U+30FC 1
 62
   179
420
  2234388
370
     9
100
AcDbVertex
100
AcDb2dVertex
 10
79.58204324747071
 20
-139.3141669096161
 30
0.0
  0
VERTEX
  5
6B
330
69
100
AcDbEntity
  8
_U+30EC_U+30A4_U+30E4_U+30FC 1
 62
   179
420
  2234388
370
     9
100
AcDbVertex
100
AcDb2dVertex
 10
78.62294632749486
 20
-139.5966360762121
 30
0.0
  0
SEQEND
  5
6C
330
69
100
AcDbEntity
  8
_U+30EC_U+30A4_U+30E4_U+30FC 1
 62
   179
420
  2234388
370
     9
  0
POLYLINE
  5
6D
330
1F
100
AcDbEntity
  8
_U+30EC_U+30A4_U+30E4_U+30FC 1
 62
   179
420
  2234388
370
     9
100
AcDb2dPolyline
 66
     1
 10
0.0
 20
0.0
 30
0.0
  0
VERTEX
  5
6E
330
6D
100
AcDbEntity
  8
_U+30EC_U+30A4_U+30E4_U+30FC 1
 62
   179
420
  2234388
370
     9
100
AcDbVertex
100
AcDb2dVertex
 10
79.58204324747071
 20
-139.3141669096161
 30
0.0
  0
VERTEX
  5
6F
330
6D
100
AcDbEntity
  8
_U+30EC_U+30A4_U+30E4_U+30FC 1
 62
   179
420
  2234388
370
     9
100
AcDbVertex
100
AcDb2dVertex
 10
78.89268020950227
 20
-140.0383138538796
 30
0.0
  0
SEQEND
  5
70
330
6D
100
AcDbEntity
  8
_U+30EC_U+30A4_U+30E4_U+30FC 1
 62
   179
420
  2234388
370
     9
  0
POLYLINE
  5
71
330
1F
100
AcDbEntity
  8
_U+30EC_U+30A4_U+30E4_U+30FC 1
 62
   179
420
  2234388
370
    25
100
AcDb2dPolyline
 66
     1
 10
0.0
 20
0.0
 30
0.0
  0
VERTEX
  5
72
330
71
100
AcDbEntity
  8
_U+30EC_U+30A4_U+30E4_U+30FC 1
 62
   179
420
  2234388
370
    25
100
AcDbVertex
100
AcDb2dVertex
 10
84.71559478316956
 20
-115.0108824712472
 30
0.0
  0
VERTEX
  5
73
330
71
100
AcDbEntity
  8
_U+30EC_U+30A4_U+30E4_U+30FC 1
 62
   179
420
  2234388
370
    25
100
AcDbVertex
100
AcDb2dVertex
 10
84.71559478316956
 20
-127.9110485791335
 30
0.0
  0
SEQEND
  5
74
330
71
100
AcDbEntity
  8
_U+30EC_U+30A4_U+30E4_U+30FC 1
 62
   179
420
  2234388
370
    25
  0
POLYLINE
  5
75
330
1F
100
AcDbEntity
  8
_U+30EC_U+30A4_U+30E4_U+30FC 1
 62
   179
420
  2234388
370
    25
100
AcDb2dPolyline
 66
     1
 10
0.0
 20
0.0
 30
0.0
  0
VERTEX
  5
76
330
75
100
AcDbEntity
  8
_U+30EC_U+30A4_U+30E4_U+30FC 1
 62
   179
420
  2234388
370
    25
100
AcDbVertex
100
AcDb2dVertex
 10
84.61568811905173
 20
-128.0109552457751
 30
0.0
  0
VERTEX
  5
77
330
75
100
AcDbEntity
  8
_U+30EC_U+30A4_U+30E4_U+30FC 1
 62
   179
420
  2234388
370
    25
100
AcDbVertex
100
AcDb2dVertex
 10
84.61568811905173
 20
-134.6756682996642
 30
0.0
  0
SEQEND
  5
78
330
75
100
AcDbEntity
  8
_U+30EC_U+30A4_U+30E4_U+30FC 1
 62
   179
420
  2234388
370
    25
  0
POLYLINE
  5
79
330
1F
100
AcDbEntity
  8
_U+30EC_U+30A4_U+30E4_U+30FC 1
 62
   179
420
  2234388
370
    25
100
AcDb2dPolyline
 66
     1
 10
0.0
 20
0.0
 30
0.0
  0
VERTEX
  5
7A
330
79
100
AcDbEntity
  8
_U+30EC_U+30A4_U+30E4_U+30FC 1
 62
   179
420
  2234388
370
    25
100
AcDbVertex
100
AcDb2dVertex
 10
85.62025809342302
 20
-135.1111371884446
 30
0.0
  0
VERTEX
  5
7B
330
79
100
AcDbEntity
  8
_U+30EC_U+30A4_U+30E4_U+30FC 1
 62
   179
420
  2234388
370
    25
100
AcDbVertex
100
AcDb2dVertex
 10
91.71534071570228
 20
-135.1111371884446
 30
0.0
  0
SEQEND
  5
7C
330
79
100
AcDbEntity
  8
_U+30EC_U+30A4_U+30E4_U+30FC 1
 62
   179
420
  2234388
370
    25
  0
POLYLINE
  5
7D
330
1F
100
AcDbEntity
  8
_U+30EC_U+30A4_U+30E4_U+30FC 1
 62
   179
420
  2234388
370
    25
100
AcDb2dPolyline
 66
     1
 10
0.0
 20
0.0
 30
0.0
  0
VERTEX
  5
7E
330
7D
100
AcDbEntity
  8
_U+30EC_U+30A4_U+30E4_U+30FC 1
 62
   179
420
  2234388
370
    25
100
AcDbVertex
100
AcDb2dVertex
 10
91.8159176575808
 20
-135.011230521803
 30
0.0
  0
VERTEX
  5
7F
330
7D
100
AcDbEntity
  8
_U+30EC_U+30A4_U+30E4_U+30FC 1
 62
   179
420
  2234388
370
    25
100
AcDbVertex
100
AcDb2dVertex
 10
104.7157333071545
 20
-135.011230521803
 30
0.0
  0
SEQEND
  5
80
330
7D
100
AcDbEntity
  8
_U+30EC_U+30A4_U+30E4_U+30FC 1
 62
   179
420
  2234388
370
    25
  0
SPLINE
  5
81
330
1F
100
AcDbEntity
  8
_U+30EC_U+30A4_U+30E4_U+30FC 1
 62
   179
420
  2234388
370
    25
100
AcDbSpline
210
0.0
220
0.0
230
1.0
 70
     8
 71
     3
 72
     8
 73
     4
 74
     0
 42
0.0000000001
 43
0.0000000001
 12
1.0
 22
0.0
 32
0.0
 13
1.0
 23
0.0
 33
0.0
 40
0.0
 40
0.0
 40
0.0
 40
0.0
 40
1.0
 40
1.0
 40
1.0
 40
1.0
 10
79.21550714571072
 20
-138.0112174654974
 30
0.0
 10
79.21550714571072
 20
-139.3913194095966
 30
0.0
 10
80.3348004504885
 20
-140.510965520428
 30
0.0
 10
81.71525513749238
 20
-140.510965520428
 30
0.0
  0
SPLINE
  5
82
330
1F
100
AcDbEntity
  8
_U+30EC_U+30A4_U+30E4_U+30FC 1
 62
   179
420
  2234388
370
    25
100
AcDbSpline
210
0.0
220
0.0
230
1.0
 70
     8
 71
     3
 72
     8
 73
     4
 74
     0
 42
0.0000000001
 43
0.0000000001
 12
1.0
 22
0.0
 32
0.0
 13
1.0
 23
0.0
 33
0.0
 40
0.0
 40
0.0
 40
0.0
 40
0.0
 40
1.0
 40
1.0
 40
1.0
 40
1.0
 10
92.21554431405214
 20
-140.510965520428
 30
0.0
 10
92.76813541106547
 20
-140.510965520428
 30
0.0
 10
93.21531651076805
 20
-140.0631141316509
 30
0.0
 10
93.21531651076805
 20
-139.5111932984555
 30
0.0
  0
SPLINE
  5
83
330
1F
100
AcDbEntity
  8
_U+30EC_U+30A4_U+30E4_U+30FC 1
 62
   179
420
  2234388
370
    25
100
AcDbSpline
210
0.0
220
0.0
230
1.0
 70
     8
 71
     3
 72
     8
 73
     4
 74
     0
 42
0.0000000001
 43
0.0000000001
 12
1.0
 22
0.0
 32
0.0
 13
1.0
 23
0.0
 33
0.0
 40
0.0
 40
0.0
 40
0.0
 40
0.0
 40
1.0
 40
1.0
 40
1.0
 40
1.0
 10
80.21559684241852
 20
-126.5109794128167
 30
0.0
 10
79.66335852317395
 20
-126.5109794128167
 30
0.0
 10
79.21550714571072
 20
-126.9588308015938
 30
0.0
 10
79.21550714571072
 20
-127.510751634789
 30
0.0
  0
SPLINE
  5
84
330
1F
100
AcDbEntity
  8
_U+30EC_U+30A4_U+30E4_U+30FC 1
 62
   179
420
  2234388
370
    25
100
AcDbSpline
210
0.0
220
0.0
230
1.0
 70
     8
 71
     3
 72
    11
 73
     7
 74
     0
 42
0.0000000001
 43
0.0000000001
 12
1.0
 22
0.0
 32
0.0
 13
1.0
 23
0.0
 33
0.0
 40
0.0
 40
0.0
 40
0.0
 40
0.0
 40
1.0
 40
1.0
 40
1.0
 40
2.0
 40
2.0
 40
2.0
 40
2.0
 10
81.38727764585978
 20
-138.9896113541417
 30
0.0
 10
81.26532237119335
 20
-139.1019357985581
 30
0.0
 10
81.2570694241302
 20
-139.291412742955
 30
0.0
 10
81.3686862574452
 20
-139.4133680207022
 30
0.0
 10
81.42587153376407
 20
-139.4753863540204
 30
0.0
 10
81.50577775740132
 20
-139.5111932984555
 30
0.0
 10
81.58984264069193
 20
-139.5111932984555
 30
0.0
  0
SPLINE
  5
85
330
1F
100
AcDbEntity
  8
_U+30EC_U+30A4_U+30E4_U+30FC 1
 62
   179
420
  2234388
370
    25
100
AcDbSpline
210
0.0
220
0.0
230
1.0
 70
     8
 71
     3
 72
    11
 73
     7
 74
     0
 42
0.0000000001
 43
0.0000000001
 12
1.0
 22
0.0
 32
0.0
 13
1.0
 23
0.0
 33
0.0
 40
0.0
 40
0.0
 40
0.0
 40
0.0
 40
1.0
 40
1.0
 40
1.0
 40
2.0
 40
2.0
 40
2.0
 40
2.0
 10
80.21559684241852
 20
-138.0256813543824
 30
0.0
 10
80.21559684241852
 20
-138.1910635765634
 30
0.0
 10
80.34961711677715
 20
-138.3254013543073
 30
0.0
 10
80.5156696125408
 20
-138.3254013543073
 30
0.0
 10
80.59077599951357
 20
-138.3254013543073
 30
0.0
 10
80.66313071988986
 20
-138.2971438543146
 30
0.0
 10
80.71823460737293
 20
-138.2468730209939
 30
0.0
  0
SPLINE
  5
86
330
1F
100
AcDbEntity
  8
_U+30EC_U+30A4_U+30E4_U+30FC 1
 62
   179
420
  2234388
370
     9
100
AcDbSpline
210
0.0
220
0.0
230
1.0
 70
    11
 71
     3
 72
    17
 73
    13
 74
     0
 42
0.0000000001
 43
0.0000000001
 12
1.0
 22
0.0
 32
0.0
 13
1.0
 23
0.0
 33
0.0
 40
0.0
 40
0.0
 40
0.0
 40
0.0
 40
1.0
 40
1.0
 40
1.0
 40
2.0
 40
2.0
 40
2.0
 40
3.0
 40
3.0
 40
3.0
 40
4.0
 40
4.0
 40
4.0
 40
4.0
 10
79.31541380982854
 20
-122.5108674693724
 30
0.0
 10
79.31541380982854
 20
-122.4557635804972
 30
0.0
 10
79.27061103319379
 20
-122.4109608027308
 30
0.0
 10
79.21550714571072
 20
-122.4109608027308
 30
0.0
 10
79.16036798045076
 20
-122.4109608027308
 30
0.0
 10
79.115565203816
 20
-122.4557635804972
 30
0.0
 10
79.115565203816
 20
-122.5108674693724
 30
0.0
 10
79.115565203816
 20
-122.5663241360251
 30
0.0
 10
79.16036798045076
 20
-122.6111269137918
 30
0.0
 10
79.21550714571072
 20
-122.6111269137918
 30
0.0
 10
79.27061103319379
 20
-122.6111269137918
 30
0.0
 10
79.31541380982854
 20
-122.5663241360251
 30
0.0
 10
79.31541380982854
 20
-122.5108674693724
 30
0.0
  0
SPLINE
  5
87
330
1F
100
AcDbEntity
  8
_U+30EC_U+30A4_U+30E4_U+30FC 1
 62
   179
420
  2234388
370
     9
100
AcDbSpline
210
0.0
220
0.0
230
1.0
 70
    11
 71
     3
 72
    17
 73
    13
 74
     0
 42
0.0000000001
 43
0.0000000001
 12
1.0
 22
0.0
 32
0.0
 13
1.0
 23
0.0
 33
0.0
 40
0.0
 40
0.0
 40
0.0
 40
0.0
 40
1.0
 40
1.0
 40
1.0
 40
2.0
 40
2.0
 40
2.0
 40
3.0
 40
3.0
 40
3.0
 40
4.0
 40
4.0
 40
4.0
 40
4.0
 10
80.31550553547675
 20
-122.5108674693724
 30
0.0
 10
80.31550553547675
 20
-122.4557635804972
 30
0.0
 10
80.27073600767847
 20
-122.4109608027308
 30
0.0
 10
80.21559684241852
 20
-122.4109608027308
 30
0.0
 10
80.16014017716667
 20
-122.4109608027308
 30
0.0
 10
80.11533740053191
 20
-122.4557635804972
 30
0.0
 10
80.11533740053191
 20
-122.5108674693724
 30
0.0
 10
80.11533740053191
 20
-122.5663241360251
 30
0.0
 10
80.16014017716667
 20
-122.6111269137918
 30
0.0
 10
80.21559684241852
 20
-122.6111269137918
 30
0.0
 10
80.27073600767847
 20
-122.6111269137918
 30
0.0
 10
80.31550553547675
 20
-122.5663241360251
 30
0.0
 10
80.31550553547675
 20
-122.5108674693724
 30
0.0
  0
SPLINE
  5
88
330
1F
100
AcDbEntity
  8
_U+30EC_U+30A4_U+30E4_U+30FC 1
 62
   179
420
  2234388
370
     9
100
AcDbSpline
210
0.0
220
0.0
230
1.0
 70
    11
 71
     3
 72
    17
 73
    13
 74
     0
 42
0.0000000001
 43
0.0000000001
 12
1.0
 22
0.0
 32
0.0
 13
1.0
 23
0.0
 33
0.0
 40
0.0
 40
0.0
 40
0.0
 40
0.0
 40
1.0
 40
1.0
 40
1.0
 40
2.0
 40
2.0
 40
2.0
 40
3.0
 40
3.0
 40
3.0
 40
4.0
 40
4.0
 40
4.0
 40
4.0
 10
109.8158741428081
 20
-114.0109691381639
 30
0.0
 10
109.8158741428081
 20
-113.9556535826222
 30
0.0
 10
109.7710713661733
 20
-113.9108860826334
 30
0.0
 10
109.7152619231527
 20
-113.9108860826334
 30
0.0
 10
109.6601580356696
 20
-113.9108860826334
 30
0.0
 10
109.6153552590349
 20
-113.9556535826222
 30
0.0
 10
109.6153552590349
 20
-114.0109691381639
 30
0.0
 10
109.6153552590349
 20
-114.066249415928
 30
0.0
 10
109.6601580356696
 20
-114.1110521936944
 30
0.0
 10
109.7152619231527
 20
-114.1110521936944
 30
0.0
 10
109.7710713661733
 20
-114.1110521936944
 30
0.0
 10
109.8158741428081
 20
-114.066249415928
 30
0.0
 10
109.8158741428081
 20
-114.0109691381639
 30
0.0
  0
SPLINE
  5
89
330
1F
100
AcDbEntity
  8
_U+30EC_U+30A4_U+30E4_U+30FC 1
 62
   179
420
  2234388
370
     9
100
AcDbSpline
210
0.0
220
0.0
230
1.0
 70
    11
 71
     3
 72
    17
 73
    13
 74
     0
 42
0.0000000001
 43
0.0000000001
 12
1.0
 22
0.0
 32
0.0
 13
1.0
 23
0.0
 33
0.0
 40
0.0
 40
0.0
 40
0.0
 40
0.0
 40
1.0
 40
1.0
 40
1.0
 40
2.0
 40
2.0
 40
2.0
 40
3.0
 40
3.0
 40
3.0
 40
4.0
 40
4.0
 40
4.0
 40
4.0
 10
109.8158741428081
 20
-134.010752744275
 30
0.0
 10
109.8158741428081
 20
-133.9556488554
 30
0.0
 10
109.7710713661733
 20
-133.9108460776333
 30
0.0
 10
109.7152619231527
 20
-133.9108460776333
 30
0.0
 10
109.6601580356696
 20
-133.9108460776333
 30
0.0
 10
109.6153552590349
 20
-133.9556488554
 30
0.0
 10
109.6153552590349
 20
-134.010752744275
 30
0.0
 10
109.6153552590349
 20
-134.065891910928
 30
0.0
 10
109.6601580356696
 20
-134.1106946886948
 30
0.0
 10
109.7152619231527
 20
-134.1106946886948
 30
0.0
 10
109.7710713661733
 20
-134.1106946886948
 30
0.0
 10
109.8158741428081
 20
-134.065891910928
 30
0.0
 10
109.8158741428081
 20
-134.010752744275
 30
0.0
  0
SPLINE
  5
8A
330
1F
100
AcDbEntity
  8
_U+30EC_U+30A4_U+30E4_U+30FC 1
 62
   179
420
  2234388
370
    25
100
AcDbSpline
210
0.0
220
0.0
230
1.0
 70
     8
 71
     3
 72
     8
 73
     4
 74
     0
 42
0.0000000001
 43
0.0000000001
 12
1.0
 22
0.0
 32
0.0
 13
1.0
 23
0.0
 33
0.0
 40
0.0
 40
0.0
 40
0.0
 40
0.0
 40
1.0
 40
1.0
 40
1.0
 40
1.0
 10
85.71536697988547
 20
-114.0109691381639
 30
0.0
 10
85.16344616063282
 20
-114.0109691381639
 30
0.0
 10
84.71559478316956
 20
-114.4586441380521
 30
0.0
 10
84.71559478316956
 20
-115.0108824712472
 30
0.0
  0
SPLINE
  5
8B
330
1F
100
AcDbEntity
  8
_U+30EC_U+30A4_U+30E4_U+30FC 1
 62
   179
420
  2234388
370
    25
100
AcDbSpline
210
0.0
220
0.0
230
1.0
 70
     8
 71
     3
 72
     8
 73
     4
 74
     0
 42
0.0000000001
 43
0.0000000001
 12
1.0
 22
0.0
 32
0.0
 13
1.0
 23
0.0
 33
0.0
 40
0.0
 40
0.0
 40
0.0
 40
0.0
 40
1.0
 40
1.0
 40
1.0
 40
1.0
 10
104.7157333071545
 20
-135.011230521803
 30
0.0
 10
105.2676514810651
 20
-135.011230521803
 30
0.0
 10
105.7155055291264
 20
-134.563379133026
 30
0.0
 10
105.7155055291264
 20
-134.010752744275
 30
0.0
  0
SPLINE
  5
8C
330
1F
100
AcDbEntity
  8
_U+30EC_U+30A4_U+30E4_U+30FC 1
 62
   179
420
  2234388
370
     9
100
AcDbSpline
210
0.0
220
0.0
230
1.0
 70
    11
 71
     3
 72
    17
 73
    13
 74
     0
 42
0.0000000001
 43
0.0000000001
 12
1.0
 22
0.0
 32
0.0
 13
1.0
 23
0.0
 33
0.0
 40
0.0
 40
0.0
 40
0.0
 40
0.0
 40
1.0
 40
1.0
 40
1.0
 40
2.0
 40
2.0
 40
2.0
 40
3.0
 40
3.0
 40
3.0
 40
4.0
 40
4.0
 40
4.0
 40
4.0
 10
109.8158741428081
 20
-135.011230521803
 30
0.0
 10
109.8158741428081
 20
-134.9554210773726
 30
0.0
 10
109.7710713661733
 20
-134.9106182996059
 30
0.0
 10
109.7152619231527
 20
-134.9106182996059
 30
0.0
 10
109.6601580356696
 20
-134.9106182996059
 30
0.0
 10
109.6153552590349
 20
-134.9554210773726
 30
0.0
 10
109.6153552590349
 20
-135.011230521803
 30
0.0
 10
109.6153552590349
 20
-135.0663344106779
 30
0.0
 10
109.6601580356696
 20
-135.1111371884446
 30
0.0
 10
109.7152619231527
 20
-135.1111371884446
 30
0.0
 10
109.7710713661733
 20
-135.1111371884446
 30
0.0
 10
109.8158741428081
 20
-135.0663344106779
 30
0.0
 10
109.8158741428081
 20
-135.011230521803
 30
0.0
  0
SPLINE
  5
8D
330
1F
100
AcDbEntity
  8
_U+30EC_U+30A4_U+30E4_U+30FC 1
 62
   179
420
  2234388
370
     9
100
AcDbSpline
210
0.0
220
0.0
230
1.0
 70
    11
 71
     3
 72
    17
 73
    13
 74
     0
 42
0.0000000001
 43
0.0000000001
 12
1.0
 22
0.0
 32
0.0
 13
1.0
 23
0.0
 33
0.0
 40
0.0
 40
0.0
 40
0.0
 40
0.0
 40
1.0
 40
1.0
 40
1.0
 40
2.0
 40
2.0
 40
2.0
 40
3.0
 40
3.0
 40
3.0
 40
4.0
 40
4.0
 40
4.0
 40
4.0
 10
80.31550553547675
 20
-118.5107555259278
 30
0.0
 10
80.31550553547675
 20
-118.4556516370529
 30
0.0
 10
80.27073600767847
 20
-118.4108488592861
 30
0.0
 10
80.21559684241852
 20
-118.4108488592861
 30
0.0
 10
80.16014017716667
 20
-118.4108488592861
 30
0.0
 10
80.11533740053191
 20
-118.4556516370529
 30
0.0
 10
80.11533740053191
 20
-118.5107555259278
 30
0.0
 10
80.11533740053191
 20
-118.5662474703586
 30
0.0
 10
80.16014017716667
 20
-118.6110149703472
 30
0.0
 10
80.21559684241852
 20
-118.6110149703472
 30
0.0
 10
80.27073600767847
 20
-118.6110149703472
 30
0.0
 10
80.31550553547675
 20
-118.5662474703586
 30
0.0
 10
80.31550553547675
 20
-118.5107555259278
 30
0.0
  0
SPLINE
  5
8E
330
1F
100
AcDbEntity
  8
_U+30EC_U+30A4_U+30E4_U+30FC 1
 62
   179
420
  2234388
370
     9
100
AcDbSpline
210
0.0
220
0.0
230
1.0
 70
    11
 71
     3
 72
    17
 73
    13
 74
     0
 42
0.0000000001
 43
0.0000000001
 12
1.0
 22
0.0
 32
0.0
 13
1.0
 23
0.0
 33
0.0
 40
0.0
 40
0.0
 40
0.0
 40
0.0
 40
1.0
 40
1.0
 40
1.0
 40
2.0
 40
2.0
 40
2.0
 40
3.0
 40
3.0
 40
3.0
 40
4.0
 40
4.0
 40
4.0
 40
4.0
 10
109.8158741428081
 20
-139.5111932984555
 30
0.0
 10
109.8158741428081
 20
-139.455383854025
 30
0.0
 10
109.7710713661733
 20
-139.4106163540364
 30
0.0
 10
109.7152619231527
 20
-139.4106163540364
 30
0.0
 10
109.6601580356696
 20
-139.4106163540364
 30
0.0
 10
109.6153552590349
 20
-139.455383854025
 30
0.0
 10
109.6153552590349
 20
-139.5111932984555
 30
0.0
 10
109.6153552590349
 20
-139.5663324651085
 30
0.0
 10
109.6601580356696
 20
-139.6110999650971
 30
0.0
 10
109.7152619231527
 20
-139.6110999650971
 30
0.0
 10
109.7710713661733
 20
-139.6110999650971
 30
0.0
 10
109.8158741428081
 20
-139.5663324651085
 30
0.0
 10
109.8158741428081
 20
-139.5111932984555
 30
0.0
  0
SPLINE
  5
8F
330
1F
100
AcDbEntity
  8
_U+30EC_U+30A4_U+30E4_U+30FC 1
 62
   179
420
  2234388
370
     9
100
AcDbSpline
210
0.0
220
0.0
230
1.0
 70
    11
 71
     3
 72
    17
 73
    13
 74
     0
 42
0.0000000001
 43
0.0000000001
 12
1.0
 22
0.0
 32
0.0
 13
1.0
 23
0.0
 33
0.0
 40
0.0
 40
0.0
 40
0.0
 40
0.0
 40
1.0
 40
1.0
 40
1.0
 40
2.0
 40
2.0
 40
2.0
 40
3.0
 40
3.0
 40
3.0
 40
4.0
 40
4.0
 40
4.0
 40
4.0
 10
84.8155014472874
 20
-118.5107555259278
 30
0.0
 10
84.8155014472874
 20
-118.4556516370529
 30
0.0
 10
84.77069867065264
 20
-118.4108488592861
 30
0.0
 10
84.71559478316956
 20
-118.4108488592861
 30
0.0
 10
84.66045561790962
 20
-118.4108488592861
 30
0.0
 10
84.61568811905173
 20
-118.4556516370529
 30
0.0
 10
84.61568811905173
 20
-118.5107555259278
 30
0.0
 10
84.61568811905173
 20
-118.5662474703586
 30
0.0
 10
84.66045561790962
 20
-118.6110149703472
 30
0.0
 10
84.71559478316956
 20
-118.6110149703472
 30
0.0
 10
84.77069867065264
 20
-118.6110149703472
 30
0.0
 10
84.8155014472874
 20
-118.5662474703586
 30
0.0
 10
84.8155014472874
 20
-118.5107555259278
 30
0.0
  0
POLYLINE
  5
90
330
1F
100
AcDbEntity
  8
_U+30EC_U+30A4_U+30E4_U+30FC 1
 62
   179
420
  2234388
370
     9
100
AcDb2dPolyline
 66
     1
 10
0.0
 20
0.0
 30
0.0
  0
VERTEX
  5
91
330
90
100
AcDbEntity
  8
_U+30EC_U+30A4_U+30E4_U+30FC 1
 62
   179
420
  2234388
370
     9
100
AcDbVertex
100
AcDb2dVertex
 10
79.21550714571072
 20
-122.5108674693724
 30
0.0
  0
VERTEX
  5
92
330
90
100
AcDbEntity
  8
_U+30EC_U+30A4_U+30E4_U+30FC 1
 62
   179
420
  2234388
370
     9
100
AcDbVertex
100
AcDb2dVertex
 10
75.4451947418994
 20
-122.5108674693724
 30
0.0
  0
SEQEND
  5
93
330
90
100
AcDbEntity
  8
_U+30EC_U+30A4_U+30E4_U+30FC 1
 62
   179
420
  2234388
370
     9
  0
POLYLINE
  5
94
330
1F
100
AcDbEntity
  8
_U+30EC_U+30A4_U+30E4_U+30FC 1
 62
   179
420
  2234388
370
     9
100
AcDb2dPolyline
 66
     1
 10
0.0
 20
0.0
 30
0.0
  0
VERTEX
  5
95
330
94
100
AcDbEntity
  8
_U+30EC_U+30A4_U+30E4_U+30FC 1
 62
   179
420
  2234388
370
     9
100
AcDbVertex
100
AcDb2dVertex
 10
81.21572181690321
 20
-122.5108674693724
 30
0.0
  0
VERTEX
  5
96
330
94
100
AcDbEntity
  8
_U+30EC_U+30A4_U+30E4_U+30FC 1
 62
   179
420
  2234388
370
     9
100
AcDbVertex
100
AcDb2dVertex
 10
79.21550714571072
 20
-122.5108674693724
 30
0.0
  0
SEQEND
  5
97
330
94
100
AcDbEntity
  8
_U+30EC_U+30A4_U+30E4_U+30FC 1
 62
   179
420
  2234388
370
     9
  0
POLYLINE
  5
98
330
1F
100
AcDbEntity
  8
_U+30EC_U+30A4_U+30E4_U+30FC 1
 62
   179
420
  2234388
370
     9
100
AcDb2dPolyline
 66
     1
 10
0.0
 20
0.0
 30
0.0
  0
VERTEX
  5
99
330
98
100
AcDbEntity
  8
_U+30EC_U+30A4_U+30E4_U+30FC 1
 62
   179
420
  2234388
370
     9
100
AcDbVertex
100
AcDb2dVertex
 10
80.21559684241852
 20
-123.9709088578961
 30
0.0
  0
VERTEX
  5
9A
330
98
100
AcDbEntity
  8
_U+30EC_U+30A4_U+30E4_U+30FC 1
 62
   179
420
  2234388
370
     9
100
AcDbVertex
100
AcDb2dVertex
 10
80.21559684241852
 20
-121.5107424696224
 30
0.0
  0
SEQEND
  5
9B
330
98
100
AcDbEntity
  8
_U+30EC_U+30A4_U+30E4_U+30FC 1
 62
   179
420
  2234388
370
     9
  0
POLYLINE
  5
9C
330
1F
100
AcDbEntity
  8
_U+30EC_U+30A4_U+30E4_U+30FC 1
 62
   179
420
  2234388
370
     9
100
AcDb2dPolyline
 66
     1
 10
0.0
 20
0.0
 30
0.0
  0
VERTEX
  5
9D
330
9C
100
AcDbEntity
  8
_U+30EC_U+30A4_U+30E4_U+30FC 1
 62
   179
420
  2234388
370
     9
100
AcDbVertex
100
AcDb2dVertex
 10
79.21550714571072
 20
-124.9709985798683
 30
0.0
  0
VERTEX
  5
9E
330
9C
100
AcDbEntity
  8
_U+30EC_U+30A4_U+30E4_U+30FC 1
 62
   179
420
  2234388
370
     9
100
AcDbVertex
100
AcDb2dVertex
 10
79.21550714571072
 20
-121.5107424696224
 30
0.0
  0
SEQEND
  5
9F
330
9C
100
AcDbEntity
  8
_U+30EC_U+30A4_U+30E4_U+30FC 1
 62
   179
420
  2234388
370
     9
  0
INSERT
  5
A1
330
1F
100
AcDbEntity
  8
_U+30EC_U+30A4_U+30E4_U+30FC 1
100
AcDbBlockReference
  2
block 2
 10
0.0
 20
0.0
 30
0.0
  0
POLYLINE
  5
A6
330
1F
100
AcDbEntity
  8
_U+30EC_U+30A4_U+30E4_U+30FC 1
 62
   179
420
  2234388
370
     9
100
AcDb2dPolyline
 66
     1
 10
0.0
 20
0.0
 30
0.0
  0
VERTEX
  5
A7
330
A6
100
AcDbEntity
  8
_U+30EC_U+30A4_U+30E4_U+30FC 1
 62
   179
420
  2234388
370
     9
100
AcDbVertex
100
AcDb2dVertex
 10
85.71536697988547
 20
-111.4708985832433
 30
0.0
  0
VERTEX
  5
A8
330
A6
100
AcDbEntity
  8
_U+30EC_U+30A4_U+30E4_U+30FC 1
 62
   179
420
  2234388
370
     9
100
AcDbVertex
100
AcDb2dVertex
 10
85.71536697988547
 20
-109.0109085838585
 30
0.0
  0
SEQEND
  5
A9
330
A6
100
AcDbEntity
  8
_U+30EC_U+30A4_U+30E4_U+30FC 1
 62
   179
420
  2234388
370
     9
  0
POLYLINE
  5
AA
330
1F
100
AcDbEntity
  8
_U+30EC_U+30A4_U+30E4_U+30FC 1
 62
   179
420
  2234388
370
     9
100
AcDb2dPolyline
 66
     1
 10
0.0
 20
0.0
 30
0.0
  0
VERTEX
  5
AB
330
AA
100
AcDbEntity
  8
_U+30EC_U+30A4_U+30E4_U+30FC 1
 62
   179
420
  2234388
370
     9
100
AcDbVertex
100
AcDb2dVertex
 10
105.7155055291264
 20
-131.4710349671324
 30
0.0
  0
VERTEX
  5
AC
330
AA
100
AcDbEntity
  8
_U+30EC_U+30A4_U+30E4_U+30FC 1
 62
   179
420
  2234388
370
     9
100
AcDbVertex
100
AcDb2dVertex
 10
105.7155055291264
 20
-109.0109085838585
 30
0.0
  0
SEQEND
  5
AD
330
AA
100
AcDbEntity
  8
_U+30EC_U+30A4_U+30E4_U+30FC 1
 62
   179
420
  2234388
370
     9
  0
POLYLINE
  5
AE
330
1F
100
AcDbEntity
  8
_U+30EC_U+30A4_U+30E4_U+30FC 1
 62
   179
420
  2234388
370
     9
100
AcDb2dPolyline
 66
     1
 10
0.0
 20
0.0
 30
0.0
  0
VERTEX
  5
AF
330
AE
100
AcDbEntity
  8
_U+30EC_U+30A4_U+30E4_U+30FC 1
 62
   179
420
  2234388
370
     9
100
AcDbVertex
100
AcDb2dVertex
 10
109.7152619231527
 20
-134.010752744275
 30
0.0
  0
VERTEX
  5
B0
330
AE
100
AcDbEntity
  8
_U+30EC_U+30A4_U+30E4_U+30FC 1
 62
   179
420
  2234388
370
     9
100
AcDbVertex
100
AcDb2dVertex
 10
109.7152619231527
 20
-114.0109691381639
 30
0.0
  0
SEQEND
  5
B1
330
AE
100
AcDbEntity
  8
_U+30EC_U+30A4_U+30E4_U+30FC 1
 62
   179
420
  2234388
370
     9
  0
POLYLINE
  5
B2
330
1F
100
AcDbEntity
  8
_U+30EC_U+30A4_U+30E4_U+30FC 1
 62
   179
420
  2234388
370
     9
100
AcDb2dPolyline
 66
     1
 10
0.0
 20
0.0
 30
0.0
  0
VERTEX
  5
B3
330
B2
100
AcDbEntity
  8
_U+30EC_U+30A4_U+30E4_U+30FC 1
 62
   179
420
  2234388
370
     9
100
AcDbVertex
100
AcDb2dVertex
 10
108.2552205715126
 20
-134.010752744275
 30
0.0
  0
VERTEX
  5
B4
330
B2
100
AcDbEntity
  8
_U+30EC_U+30A4_U+30E4_U+30FC 1
 62
   179
420
  2234388
370
     9
100
AcDbVertex
100
AcDb2dVertex
 10
110.7157043976293
 20
-134.010752744275
 30
0.0
  0
SEQEND
  5
B5
330
B2
100
AcDbEntity
  8
_U+30EC_U+30A4_U+30E4_U+30FC 1
 62
   179
420
  2234388
370
     9
  0
POLYLINE
  5
B6
330
1F
100
AcDbEntity
  8
_U+30EC_U+30A4_U+30E4_U+30FC 1
 62
   179
420
  2234388
370
     9
100
AcDb2dPolyline
 66
     1
 10
0.0
 20
0.0
 30
0.0
  0
VERTEX
  5
B7
330
B6
100
AcDbEntity
  8
_U+30EC_U+30A4_U+30E4_U+30FC 1
 62
   179
420
  2234388
370
     9
100
AcDbVertex
100
AcDb2dVertex
 10
88.25575497063033
 20
-114.0109691381639
 30
0.0
  0
VERTEX
  5
B8
330
B6
100
AcDbEntity
  8
_U+30EC_U+30A4_U+30E4_U+30FC 1
 62
   179
420
  2234388
370
     9
100
AcDbVertex
100
AcDb2dVertex
 10
110.7157043976293
 20
-114.0109691381639
 30
0.0
  0
SEQEND
  5
B9
330
B6
100
AcDbEntity
  8
_U+30EC_U+30A4_U+30E4_U+30FC 1
 62
   179
420
  2234388
370
     9
  0
INSERT
  5
BB
330
1F
100
AcDbEntity
  8
_U+30EC_U+30A4_U+30E4_U+30FC 1
100
AcDbBlockReference
  2
block 3
 10
0.0
 20
0.0
 30
0.0
  0
POLYLINE
  5
C3
330
1F
100
AcDbEntity
  8
_U+30EC_U+30A4_U+30E4_U+30FC 1
 62
   179
420
  2234388
370
     9
100
AcDb2dPolyline
 66
     1
 10
0.0
 20
0.0
 30
0.0
  0
VERTEX
  5
C4
330
C3
100
AcDbEntity
  8
_U+30EC_U+30A4_U+30E4_U+30FC 1
 62
   179
420
  2234388
370
     9
100
AcDbVertex
100
AcDb2dVertex
 10
79.58204324747071
 20
-139.3141669096161
 30
0.0
  0
VERTEX
  5
C5
330
C3
100
AcDbEntity
  8
_U+30EC_U+30A4_U+30E4_U+30FC 1
 62
   179
420
  2234388
370
     9
100
AcDbVertex
100
AcDb2dVertex
 10
76.26303944325666
 20
-141.3412280202202
 30
0.0
  0
SEQEND
  5
C6
330
C3
100
AcDbEntity
  8
_U+30EC_U+30A4_U+30E4_U+30FC 1
 62
   179
420
  2234388
370
     9
  0
POLYLINE
  5
C7
330
1F
100
AcDbEntity
  8
_U+30EC_U+30A4_U+30E4_U+30FC 1
 62
   179
420
  2234388
370
     9
100
AcDb2dPolyline
 66
     1
 10
0.0
 20
0.0
 30
0.0
  0
VERTEX
  5
C8
330
C7
100
AcDbEntity
  8
_U+30EC_U+30A4_U+30E4_U+30FC 1
 62
   179
420
  2234388
370
     9
100
AcDbVertex
100
AcDb2dVertex
 10
76.26303944325666
 20
-141.3412280202202
 30
0.0
  0
VERTEX
  5
C9
330
C7
100
AcDbEntity
  8
_U+30EC_U+30A4_U+30E4_U+30FC 1
 62
   179
420
  2234388
370
     9
100
AcDbVertex
100
AcDb2dVertex
 10
70.76157776008733
 20
-141.3412280202202
 30
0.0
  0
SEQEND
  5
CA
330
C7
100
AcDbEntity
  8
_U+30EC_U+30A4_U+30E4_U+30FC 1
 62
   179
420
  2234388
370
     9
  0
INSERT
  5
CC
330
1F
100
AcDbEntity
  8
_U+30EC_U+30A4_U+30E4_U+30FC 1
100
AcDbBlockReference
  2
block 4
 10
0.0
 20
0.0
 30
0.0
  0
POLYLINE
  5
DE
330
1F
100
AcDbEntity
  8
_U+30EC_U+30A4_U+30E4_U+30FC 1
 62
   179
420
  2234388
370
     9
100
AcDb2dPolyline
 66
     1
 10
0.0
 20
0.0
 30
0.0
  0
VERTEX
  5
DF
330
DE
100
AcDbEntity
  8
_U+30EC_U+30A4_U+30E4_U+30FC 1
 62
   179
420
  2234388
370
     9
100
AcDbVertex
100
AcDb2dVertex
 10
79.21550714571072
 20
-140.5509352426399
 30
0.0
  0
VERTEX
  5
E0
330
DE
100
AcDbEntity
  8
_U+30EC_U+30A4_U+30E4_U+30FC 1
 62
   179
420
  2234388
370
     9
100
AcDbVertex
100
AcDb2dVertex
 10
79.21550714571072
 20
-147.5107116297892
 30
0.0
  0
SEQEND
  5
E1
330
DE
100
AcDbEntity
  8
_U+30EC_U+30A4_U+30E4_U+30FC 1
 62
   179
420
  2234388
370
     9
  0
INSERT
  5
E3
330
1F
100
AcDbEntity
  8
_U+30EC_U+30A4_U+30E4_U+30FC 1
100
AcDbBlockReference
  2
block 5
 10
0.0
 20
0.0
 30
0.0
  0
POLYLINE
  5
FD
330
1F
100
AcDbEntity
  8
_U+30EC_U+30A4_U+30E4_U+30FC 1
 62
   179
420
  2234388
370
     9
100
AcDb2dPolyline
 66
     1
 10
0.0
 20
0.0
 30
0.0
  0
VERTEX
  5
FE
330
FD
100
AcDbEntity
  8
_U+30EC_U+30A4_U+30E4_U+30FC 1
 62
   179
420
  2234388
370
     9
100
AcDbVertex
100
AcDb2dVertex
 10
109.7152619231527
 20
-139.5111932984555
 30
0.0
  0
VERTEX
  5
FF
330
FD
100
AcDbEntity
  8
_U+30EC_U+30A4_U+30E4_U+30FC 1
 62
   179
420
  2234388
370
     9
100
AcDbVertex
100
AcDb2dVertex
 10
109.7152619231527
 20
-144.768428852697
 30
0.0
  0
SEQEND
  5
100
330
FD
100
AcDbEntity
  8
_U+30EC_U+30A4_U+30E4_U+30FC 1
 62
   179
420
  2234388
370
     9
  0
POLYLINE
  5
101
330
1F
100
AcDbEntity
  8
_U+30EC_U+30A4_U+30E4_U+30FC 1
 62
   179
420
  2234388
370
     9
100
AcDb2dPolyline
 66
     1
 10
0.0
 20
0.0
 30
0.0
  0
VERTEX
  5
102
330
101
100
AcDbEntity
  8
_U+30EC_U+30A4_U+30E4_U+30FC 1
 62
   179
420
  2234388
370
     9
100
AcDbVertex
100
AcDb2dVertex
 10
109.7152619231527
 20
-135.011230521803
 30
0.0
  0
VERTEX
  5
103
330
101
100
AcDbEntity
  8
_U+30EC_U+30A4_U+30E4_U+30FC 1
 62
   179
420
  2234388
370
     9
100
AcDbVertex
100
AcDb2dVertex
 10
109.7152619231527
 20
-139.5111932984555
 30
0.0
  0
SEQEND
  5
104
330
101
100
AcDbEntity
  8
_U+30EC_U+30A4_U+30E4_U+30FC 1
 62
   179
420
  2234388
370
     9
  0
POLYLINE
  5
105
330
1F
100
AcDbEntity
  8
_U+30EC_U+30A4_U+30E4_U+30FC 1
 62
   179
420
  2234388
370
     9
100
AcDb2dPolyline
 66
     1
 10
0.0
 20
0.0
 30
0.0
  0
VERTEX
  5
106
330
105
100
AcDbEntity
  8
_U+30EC_U+30A4_U+30E4_U+30FC 1
 62
   179
420
  2234388
370
     9
100
AcDbVertex
100
AcDb2dVertex
 10
107.2554836525735
 20
-135.011230521803
 30
0.0
  0
VERTEX
  5
107
330
105
100
AcDbEntity
  8
_U+30EC_U+30A4_U+30E4_U+30FC 1
 62
   179
420
  2234388
370
     9
100
AcDbVertex
100
AcDb2dVertex
 10
110.7157043976293
 20
-135.011230521803
 30
0.0
  0
SEQEND
  5
108
330
105
100
AcDbEntity
  8
_U+30EC_U+30A4_U+30E4_U+30FC 1
 62
   179
420
  2234388
370
     9
  0
POLYLINE
  5
109
330
1F
100
AcDbEntity
  8
_U+30EC_U+30A4_U+30E4_U+30FC 1
 62
   179
420
  2234388
370
     9
100
AcDb2dPolyline
 66
     1
 10
0.0
 20
0.0
 30
0.0
  0
VERTEX
  5
10A
330
109
100
AcDbEntity
  8
_U+30EC_U+30A4_U+30E4_U+30FC 1
 62
   179
420
  2234388
370
     9
100
AcDbVertex
100
AcDb2dVertex
 10
95.75573977928978
 20
-139.5111932984555
 30
0.0
  0
VERTEX
  5
10B
330
109
100
AcDbEntity
  8
_U+30EC_U+30A4_U+30E4_U+30FC 1
 62
   179
420
  2234388
370
     9
100
AcDbVertex
100
AcDb2dVertex
 10
110.7157043976293
 20
-139.5111932984555
 30
0.0
  0
SEQEND
  5
10C
330
109
100
AcDbEntity
  8
_U+30EC_U+30A4_U+30E4_U+30FC 1
 62
   179
420
  2234388
370
     9
  0
INSERT
  5
10E
330
1F
100
AcDbEntity
  8
_U+30EC_U+30A4_U+30E4_U+30FC 1
100
AcDbBlockReference
  2
block 6
 10
0.0
 20
0.0
 30
0.0
  0
POLYLINE
  5
130
330
1F
100
AcDbEntity
  8
_U+30EC_U+30A4_U+30E4_U+30FC 1
 62
   179
420
  2234388
370
     9
100
AcDb2dPolyline
 66
     1
 10
0.0
 20
0.0
 30
0.0
  0
VERTEX
  5
131
330
130
100
AcDbEntity
  8
_U+30EC_U+30A4_U+30E4_U+30FC 1
 62
   179
420
  2234388
370
     9
100
AcDbVertex
100
AcDb2dVertex
 10
93.21531651076805
 20
-142.0509463533761
 30
0.0
  0
VERTEX
  5
132
330
130
100
AcDbEntity
  8
_U+30EC_U+30A4_U+30E4_U+30FC 1
 62
   179
420
  2234388
370
     9
100
AcDbVertex
100
AcDb2dVertex
 10
93.21531651076805
 20
-147.5107116297892
 30
0.0
  0
SEQEND
  5
133
330
130
100
AcDbEntity
  8
_U+30EC_U+30A4_U+30E4_U+30FC 1
 62
   179
420
  2234388
370
     9
  0
POLYLINE
  5
134
330
1F
100
AcDbEntity
  8
_U+30EC_U+30A4_U+30E4_U+30FC 1
 62
   179
420
  2234388
370
     9
100
AcDb2dPolyline
 66
     1
 10
0.0
 20
0.0
 30
0.0
  0
VERTEX
  5
135
330
134
100
AcDbEntity
  8
_U+30EC_U+30A4_U+30E4_U+30FC 1
 62
   179
420
  2234388
370
     9
100
AcDbVertex
100
AcDb2dVertex
 10
105.7155055291264
 20
-136.551176076973
 30
0.0
  0
VERTEX
  5
136
330
134
100
AcDbEntity
  8
_U+30EC_U+30A4_U+30E4_U+30FC 1
 62
   179
420
  2234388
370
     9
100
AcDbVertex
100
AcDb2dVertex
 10
105.7155055291264
 20
-147.5107116297892
 30
0.0
  0
SEQEND
  5
137
330
134
100
AcDbEntity
  8
_U+30EC_U+30A4_U+30E4_U+30FC 1
 62
   179
420
  2234388
370
     9
  0
INSERT
  5
139
330
1F
100
AcDbEntity
  8
_U+30EC_U+30A4_U+30E4_U+30FC 1
100
AcDbBlockReference
  2
block 7
 10
0.0
 20
0.0
 30
0.0
  0
POLYLINE
  5
14A
330
1F
100
AcDbEntity
  8
_U+30EC_U+30A4_U+30E4_U+30FC 1
 62
   179
420
  2234388
370
     9
100
AcDb2dPolyline
 66
     1
 10
0.0
 20
0.0
 30
0.0
  0
VERTEX
  5
14B
330
14A
100
AcDbEntity
  8
_U+30EC_U+30A4_U+30E4_U+30FC 1
 62
   179
420
  2234388
370
     9
100
AcDbVertex
100
AcDb2dVertex
 10
80.21559684241852
 20
-118.5107555259278
 30
0.0
  0
VERTEX
  5
14C
330
14A
100
AcDbEntity
  8
_U+30EC_U+30A4_U+30E4_U+30FC 1
 62
   179
420
  2234388
370
     9
100
AcDbVertex
100
AcDb2dVertex
 10
74.95769114322553
 20
-118.5107555259278
 30
0.0
  0
SEQEND
  5
14D
330
14A
100
AcDbEntity
  8
_U+30EC_U+30A4_U+30E4_U+30FC 1
 62
   179
420
  2234388
370
     9
  0
POLYLINE
  5
14E
330
1F
100
AcDbEntity
  8
_U+30EC_U+30A4_U+30E4_U+30FC 1
 62
   179
420
  2234388
370
     9
100
AcDb2dPolyline
 66
     1
 10
0.0
 20
0.0
 30
0.0
  0
VERTEX
  5
14F
330
14E
100
AcDbEntity
  8
_U+30EC_U+30A4_U+30E4_U+30FC 1
 62
   179
420
  2234388
370
     9
100
AcDbVertex
100
AcDb2dVertex
 10
80.21559684241852
 20
-118.5107555259278
 30
0.0
  0
VERTEX
  5
150
330
14E
100
AcDbEntity
  8
_U+30EC_U+30A4_U+30E4_U+30FC 1
 62
   179
420
  2234388
370
     9
100
AcDbVertex
100
AcDb2dVertex
 10
84.71559478316956
 20
-118.5107555259278
 30
0.0
  0
SEQEND
  5
151
330
14E
100
AcDbEntity
  8
_U+30EC_U+30A4_U+30E4_U+30FC 1
 62
   179
420
  2234388
370
     9
  0
POLYLINE
  5
152
330
1F
100
AcDbEntity
  8
_U+30EC_U+30A4_U+30E4_U+30FC 1
 62
   179
420
  2234388
370
     9
100
AcDb2dPolyline
 66
     1
 10
0.0
 20
0.0
 30
0.0
  0
VERTEX
  5
153
330
152
100
AcDbEntity
  8
_U+30EC_U+30A4_U+30E4_U+30FC 1
 62
   179
420
  2234388
370
     9
100
AcDbVertex
100
AcDb2dVertex
 10
80.21559684241852
 20
-123.9709088578961
 30
0.0
  0
VERTEX
  5
154
330
152
100
AcDbEntity
  8
_U+30EC_U+30A4_U+30E4_U+30FC 1
 62
   179
420
  2234388
370
     9
100
AcDbVertex
100
AcDb2dVertex
 10
80.21559684241852
 20
-117.5110185817334
 30
0.0
  0
SEQEND
  5
155
330
152
100
AcDbEntity
  8
_U+30EC_U+30A4_U+30E4_U+30FC 1
 62
   179
420
  2234388
370
     9
  0
POLYLINE
  5
156
330
1F
100
AcDbEntity
  8
_U+30EC_U+30A4_U+30E4_U+30FC 1
 62
   179
420
  2234388
370
     9
100
AcDb2dPolyline
 66
     1
 10
0.0
 20
0.0
 30
0.0
  0
VERTEX
  5
157
330
156
100
AcDbEntity
  8
_U+30EC_U+30A4_U+30E4_U+30FC 1
 62
   179
420
  2234388
370
     9
100
AcDbVertex
100
AcDb2dVertex
 10
84.71559478316956
 20
-121.0511788586261
 30
0.0
  0
VERTEX
  5
158
330
156
100
AcDbEntity
  8
_U+30EC_U+30A4_U+30E4_U+30FC 1
 62
   179
420
  2234388
370
     9
100
AcDbVertex
100
AcDb2dVertex
 10
84.71559478316956
 20
-118.512131359261
 30
0.0
  0
SEQEND
  5
159
330
156
100
AcDbEntity
  8
_U+30EC_U+30A4_U+30E4_U+30FC 1
 62
   179
420
  2234388
370
     9
  0
INSERT
  5
15B
330
1F
100
AcDbEntity
  8
_U+30EC_U+30A4_U+30E4_U+30FC 1
100
AcDbBlockReference
  2
block 8
 10
0.0
 20
0.0
 30
0.0
  0
ENDSEC
  0
SECTION
  2
OBJECTS
  0
DICTIONARY
  5
C
330
0
100
AcDbDictionary
281
     1
  3
ACAD_GROUP
350
D
  3
ACAD_LAYOUT
350
1A
  3
ACAD_MATERIAL
350
3B
  3
ACAD_MLEADERSTYLE
350
17E
  3
ACAD_MLINESTYLE
350
17
  3
ACAD_PLOTSETTINGS
350
19
  3
ACAD_PLOTSTYLENAME
350
E
  3
ACAD_TABLESTYLE
350
17D
  3
ACAD_VISUALSTYLE
350
2A
  0
SUN
  5
3F
330
29
100
AcDbSun
 90
        1
290
     0
 63
     7
421
 16777215
 40
1.0
291
     1
 91
  2455826
 92
 54000000
292
     0
 70
     2
 71
   256
280
     1
  0
DICTIONARY
  5
D
102
{ACAD_REACTORS
330
C
102
}
330
C
100
AcDbDictionary
281
     1
  0
DICTIONARY
  5
1A
102
{ACAD_REACTORS
330
C
102
}
330
C
100
AcDbDictionary
281
     1
  3
Layout1
350
1E
  3
Layout2
350
26
  3
Model
350
22
  0
DICTIONARY
  5
3B
102
{ACAD_REACTORS
330
C
102
}
330
C
100
AcDbDictionary
281
     1
  3
ByBlock
350
3D
  3
ByLayer
350
3C
  3
Global
350
3E
  0
DICTIONARY
  5
17E
102
{ACAD_REACTORS
330
C
102
}
330
C
100
AcDbDictionary
281
     1
  0
DICTIONARY
  5
17
102
{ACAD_REACTORS
330
C
102
}
330
C
100
AcDbDictionary
281
     1
  3
Standard
350
18
  0
DICTIONARY
  5
19
102
{ACAD_REACTORS
330
C
102
}
330
C
100
AcDbDictionary
281
     1
  0
ACDBDICTIONARYWDFLT
  5
E
102
{ACAD_REACTORS
330
C
102
}
330
C
100
AcDbDictionary
281
     1
  3
Normal
350
F
100
AcDbDictionaryWithDefault
340
F
  0
DICTIONARY
  5
17D
102
{ACAD_REACTORS
330
C
102
}
330
C
100
AcDbDictionary
281
     1
  0
DICTIONARY
  5
2A
102
{ACAD_REACTORS
330
C
102
}
330
C
100
AcDbDictionary
281
     1
  3
2dWireframe
350
2F
  3
3D Hidden
350
31
  3
3dWireframe
350
30
  3
Basic
350
32
  3
Brighten
350
36
  3
ColorChange
350
3A
  3
Conceptual
350
34
  3
Dim
350
35
  3
Facepattern
350
39
  3
Flat
350
2B
  3
FlatWithEdges
350
2C
  3
Gouraud
350
2D
  3
GouraudWithEdges
350
2E
  3
Linepattern
350
38
  3
Realistic
350
33
  3
Thicken
350
37
  0
LAYOUT
  5
1E
102
{ACAD_REACTORS
330
1A
102
}
330
1A
100
AcDbPlotSettings
  1

  2
none_device
  4

  6

 40
0.0
 41
0.0
 42
0.0
 43
0.0
 44
0.0
 45
0.0
 46
0.0
 47
0.0
 48
0.0
 49
0.0
140
0.0
141
0.0
142
1.0
143
1.0
 70
   688
 72
     0
 73
     0
 74
     5
  7

 75
    16
 76
     0
 77
     2
 78
   300
147
1.0
148
0.0
149
0.0
100
AcDbLayout
  1
Layout1
 70
     1
 71
     1
 10
0.0
 20
0.0
 11
12.0
 21
9.0
 12
0.0
 22
0.0
 32
0.0
 14
1.000000000000000E+20
 24
1.000000000000000E+20
 34
1.000000000000000E+20
 15
-1.000000000000000E+20
 25
-1.000000000000000E+20
 35
-1.000000000000000E+20
146
0.0
 13
0.0
 23
0.0
 33
0.0
 16
1.0
 26
0.0
 36
0.0
 17
0.0
 27
1.0
 37
0.0
 76
     0
330
1B
  0
LAYOUT
  5
26
102
{ACAD_REACTORS
330
1A
102
}
330
1A
100
AcDbPlotSettings
  1

  2
none_device
  4

  6

 40
0.0
 41
0.0
 42
0.0
 43
0.0
 44
0.0
 45
0.0
 46
0.0
 47
0.0
 48
0.0
 49
0.0
140
0.0
141
0.0
142
1.0
143
1.0
 70
   688
 72
     0
 73
     0
 74
     5
  7

 75
    16
 76
     0
 77
     2
 78
   300
147
1.0
148
0.0
149
0.0
100
AcDbLayout
  1
Layout2
 70
     1
 71
     2
 10
0.0
 20
0.0
 11
0.0
 21
0.0
 12
0.0
 22
0.0
 32
0.0
 14
0.0
 24
0.0
 34
0.0
 15
0.0
 25
0.0
 35
0.0
146
0.0
 13
0.0
 23
0.0
 33
0.0
 16
1.0
 26
0.0
 36
0.0
 17
0.0
 27
1.0
 37
0.0
 76
     0
330
23
  0
LAYOUT
  5
22
102
{ACAD_REACTORS
330
1A
102
}
330
1A
100
AcDbPlotSettings
  1

  2
none_device
  4

  6

 40
0.0
 41
0.0
 42
0.0
 43
0.0
 44
0.0
 45
0.0
 46
0.0
 47
0.0
 48
0.0
 49
0.0
140
0.0
141
0.0
142
1.0
143
1.0
 70
  1712
 72
     0
 73
     0
 74
     0
  7

 75
     0
 76
     0
 77
     2
 78
   300
147
1.0
148
0.0
149
0.0
100
AcDbLayout
  1
Model
 70
     1
 71
     0
 10
0.0
 20
0.0
 11
12.0
 21
9.0
 12
0.0
 22
0.0
 32
0.0
 14
1.000000000000000E+20
 24
1.000000000000000E+20
 34
1.000000000000000E+20
 15
-1.000000000000000E+20
 25
-1.000000000000000E+20
 35
-1.000000000000000E+20
146
0.0
 13
0.0
 23
0.0
 33
0.0
 16
1.0
 26
0.0
 36
0.0
 17
0.0
 27
1.0
 37
0.0
 76
     0
330
1F
331
29
  0
MATERIAL
  5
3D
102
{ACAD_REACTORS
330
3B
102
}
330
3B
100
AcDbMaterial
  1
ByBlock
 72
     1
 94
      127
  0
MATERIAL
  5
3C
102
{ACAD_REACTORS
330
3B
102
}
330
3B
100
AcDbMaterial
  1
ByLayer
 72
     1
 94
      127
  0
MATERIAL
  5
3E
102
{ACAD_REACTORS
330
3B
102
}
330
3B
100
AcDbMaterial
  1
Global
 72
     1
 94
      127
  0
MLINESTYLE
  5
18
102
{ACAD_REACTORS
330
17
102
}
330
17
100
AcDbMlineStyle
  2
Standard
 70
     0
  3

 62
   256
 51
90.0
 52
90.0
 71
     2
 49
0.5
 62
   256
  6
BYLAYER
 49
-0.5
 62
   256
  6
BYLAYER
  0
ACDBPLACEHOLDER
  5
F
102
{ACAD_REACTORS
330
E
102
}
330
E
  0
VISUALSTYLE
  5
2F
102
{ACAD_REACTORS
330
2A
102
}
330
2A
100
AcDbVisualStyle
  2
2dWireframe
 70
     4
177
     2
291
     0
 71
     0
176
     1
 72
     2
176
     1
 73
     0
176
     1
 90
        0
176
     1
 40
-0.6
176
     1
 41
-30.0
176
     1
 62
     5
 63
     7
421
 16777215
176
     1
 74
     1
176
     1
 91
        4
176
     1
 64
     7
176
     1
 65
   257
176
     1
 75
     1
176
     1
175
     1
176
     1
 42
1.0
176
     1
 92
        0
176
     1
 66
   257
176
     1
 43
1.0
176
     1
 76
     1
176
     1
 77
     6
176
     1
 78
     2
176
     1
 67
     7
176
     1
 79
     5
176
     1
170
     0
176
     1
171
     0
176
     1
290
     0
176
     1
 93
        1
176
     1
 44
0.0
176
     1
173
     0
176
     1
  0
VISUALSTYLE
  5
31
102
{ACAD_REACTORS
330
2A
102
}
330
2A
100
AcDbVisualStyle
  2
3D Hidden
 70
     6
177
     2
291
     0
 71
     1
176
     1
 72
     2
176
     1
 73
     2
176
     1
 90
        0
176
     1
 40
-0.6
176
     1
 41
-30.0
176
     1
 62
     5
 63
     7
421
 16777215
176
     1
 74
     2
176
     1
 91
        2
176
     1
 64
     7
176
     1
 65
   257
176
     1
 75
     2
176
     1
175
     1
176
     1
 42
40.0
176
     1
 92
        0
176
     1
 66
   257
176
     1
 43
1.0
176
     1
 76
     1
176
     1
 77
     6
176
     1
 78
     2
176
     1
 67
     7
176
     1
 79
     3
176
     1
170
     0
176
     1
171
     0
176
     1
290
     0
176
     1
 93
        1
176
     1
 44
0.0
176
     1
173
     0
176
     1
  0
VISUALSTYLE
  5
30
102
{ACAD_REACTORS
330
2A
102
}
330
2A
100
AcDbVisualStyle
  2
3dWireframe
 70
     5
177
     2
291
     0
 71
     0
176
     1
 72
     2
176
     1
 73
     0
176
     1
 90
        0
176
     1
 40
-0.6
176
     1
 41
-30.0
176
     1
 62
     5
 63
     7
421
 16777215
176
     1
 74
     1
176
     1
 91
        4
176
     1
 64
     7
176
     1
 65
   257
176
     1
 75
     1
176
     1
175
     1
176
     1
 42
1.0
176
     1
 92
        0
176
     1
 66
   257
176
     1
 43
1.0
176
     1
 76
     1
176
     1
 77
     6
176
     1
 78
     2
176
     1
 67
     7
176
     1
 79
     5
176
     1
170
     0
176
     1
171
     0
176
     1
290
     0
176
     1
 93
        1
176
     1
 44
0.0
176
     1
173
     0
176
     1
  0
VISUALSTYLE
  5
32
102
{ACAD_REACTORS
330
2A
102
}
330
2A
100
AcDbVisualStyle
  2
Basic
 70
     7
177
     2
291
     1
 71
     1
176
     1
 72
     0
176
     1
 73
     1
176
     1
 90
        0
176
     1
 40
-0.6
176
     1
 41
-30.0
176
     1
 62
     5
 63
     7
421
 16777215
176
     1
 74
     0
176
     1
 91
        4
176
     1
 64
     7
176
     1
 65
   257
176
     1
 75
     1
176
     1
175
     1
176
     1
 42
1.0
176
     1
 92
        8
176
     1
 66
     7
176
     1
 43
1.0
176
     1
 76
     1
176
     1
 77
     6
176
     1
 78
     2
176
     1
 67
     7
176
     1
 79
     5
176
     1
170
     0
176
     1
171
     0
176
     1
290
     0
176
     1
 93
        1
176
     1
 44
0.0
176
     1
173
     0
176
     1
  0
VISUALSTYLE
  5
36
102
{ACAD_REACTORS
330
2A
102
}
330
2A
100
AcDbVisualStyle
  2
Brighten
 70
    12
177
     2
291
     1
 71
     2
176
     1
 72
     2
176
     1
 73
     0
176
     1
 90
        0
176
     1
 40
-0.6
176
     1
 41
-30.0
176
     1
 62
     5
 63
     7
421
 16777215
176
     1
 74
     1
176
     1
 91
        4
176
     1
 64
     7
176
     1
 65
   257
176
     1
 75
     1
176
     1
175
     1
176
     1
 42
1.0
176
     1
 92
        8
176
     1
 66
     7
176
     1
 43
1.0
176
     1
 76
     1
176
     1
 77
     6
176
     1
 78
     2
176
     1
 67
     7
176
     1
 79
     5
176
     1
170
     0
176
     1
171
     0
176
     1
290
     0
176
     1
 93
        1
176
     1
 44
50.0
176
     1
173
     0
176
     1
  0
VISUALSTYLE
  5
3A
102
{ACAD_REACTORS
330
2A
102
}
330
2A
100
AcDbVisualStyle
  2
ColorChange
 70
    16
177
     2
291
     1
 71
     2
176
     1
 72
     2
176
     1
 73
     3
176
     1
 90
        0
176
     1
 40
-0.6
176
     1
 41
-30.0
176
     1
 62
     5
 63
     8
421
  8421504
176
     1
 74
     1
176
     1
 91
        4
176
     1
 64
     7
176
     1
 65
   257
176
     1
 75
     1
176
     1
175
     1
176
     1
 42
1.0
176
     1
 92
        8
176
     1
 66
     8
424
  8421504
176
     1
 43
1.0
176
     1
 76
     1
176
     1
 77
     6
176
     1
 78
     2
176
     1
 67
     7
176
     1
 79
     5
176
     1
170
     0
176
     1
171
     0
176
     1
290
     0
176
     1
 93
        1
176
     1
 44
0.0
176
     1
173
     0
176
     1
  0
VISUALSTYLE
  5
34
102
{ACAD_REACTORS
330
2A
102
}
330
2A
100
AcDbVisualStyle
  2
Conceptual
 70
     9
177
     2
291
     0
 71
     3
176
     1
 72
     2
176
     1
 73
     0
176
     1
 90
        0
176
     1
 40
-0.6
176
     1
 41
-30.0
176
     1
 62
     5
 63
     7
421
 16777215
176
     1
 74
     2
176
     1
 91
        2
176
     1
 64
     7
176
     1
 65
   257
176
     1
 75
     1
176
     1
175
     1
176
     1
 42
40.0
176
     1
 92
        8
176
     1
 66
     7
176
     1
 43
1.0
176
     1
 76
     1
176
     1
 77
     6
176
     1
 78
     2
176
     1
 67
     7
176
     1
 79
     3
176
     1
170
     0
176
     1
171
     0
176
     1
290
     0
176
     1
 93
        1
176
     1
 44
0.0
176
     1
173
     0
176
     1
  0
VISUALSTYLE
  5
35
102
{ACAD_REACTORS
330
2A
102
}
330
2A
100
AcDbVisualStyle
  2
Dim
 70
    11
177
     2
291
     1
 71
     2
176
     1
 72
     2
176
     1
 73
     0
176
     1
 90
        0
176
     1
 40
-0.6
176
     1
 41
-30.0
176
     1
 62
     5
 63
     7
421
 16777215
176
     1
 74
     1
176
     1
 91
        4
176
     1
 64
     7
176
     1
 65
   257
176
     1
 75
     1
176
     1
175
     1
176
     1
 42
1.0
176
     1
 92
        8
176
     1
 66
     7
176
     1
 43
1.0
176
     1
 76
     1
176
     1
 77
     6
176
     1
 78
     2
176
     1
 67
     7
176
     1
 79
     5
176
     1
170
     0
176
     1
171
     0
176
     1
290
     0
176
     1
 93
        1
176
     1
 44
-50.0
176
     1
173
     0
176
     1
  0
VISUALSTYLE
  5
39
102
{ACAD_REACTORS
330
2A
102
}
330
2A
100
AcDbVisualStyle
  2
Facepattern
 70
    15
177
     2
291
     1
 71
     2
176
     1
 72
     2
176
     1
 73
     0
176
     1
 90
        0
176
     1
 40
-0.6
176
     1
 41
-30.0
176
     1
 62
     5
 63
     7
421
 16777215
176
     1
 74
     1
176
     1
 91
        4
176
     1
 64
     7
176
     1
 65
   257
176
     1
 75
     1
176
     1
175
     1
176
     1
 42
1.0
176
     1
 92
        8
176
     1
 66
     7
176
     1
 43
1.0
176
     1
 76
     1
176
     1
 77
     6
176
     1
 78
     2
176
     1
 67
     7
176
     1
 79
     5
176
     1
170
     0
176
     1
171
     0
176
     1
290
     0
176
     1
 93
        1
176
     1
 44
0.0
176
     1
173
     0
176
     1
  0
VISUALSTYLE
  5
2B
102
{ACAD_REACTORS
330
2A
102
}
330
2A
100
AcDbVisualStyle
  2
Flat
 70
     0
177
     2
291
     1
 71
     2
176
     1
 72
     1
176
     1
 73
     1
176
     1
 90
        2
176
     1
 40
-0.6
176
     1
 41
30.0
176
     1
 62
     5
 63
     7
421
 16777215
176
     1
 74
     0
176
     1
 91
        4
176
     1
 64
     7
176
     1
 65
   257
176
     1
 75
     1
176
     1
175
     1
176
     1
 42
1.0
176
     1
 92
        8
176
     1
 66
     7
176
     1
 43
1.0
176
     1
 76
     1
176
     1
 77
     6
176
     1
 78
     2
176
     1
 67
     7
176
     1
 79
     5
176
     1
170
     0
176
     1
171
     0
176
     1
290
     0
176
     1
 93
       13
176
     1
 44
0.0
176
     1
173
     0
176
     1
  0
VISUALSTYLE
  5
2C
102
{ACAD_REACTORS
330
2A
102
}
330
2A
100
AcDbVisualStyle
  2
FlatWithEdges
 70
     1
177
     2
291
     1
 71
     2
176
     1
 72
     1
176
     1
 73
     1
176
     1
 90
        2
176
     1
 40
-0.6
176
     1
 41
30.0
176
     1
 62
     5
 63
     7
421
 16777215
176
     1
 74
     1
176
     1
 91
        4
176
     1
 64
     7
176
     1
 65
   257
176
     1
 75
     1
176
     1
175
     1
176
     1
 42
1.0
176
     1
 92
        0
176
     1
 66
   257
176
     1
 43
1.0
176
     1
 76
     1
176
     1
 77
     6
176
     1
 78
     2
176
     1
 67
     7
176
     1
 79
     5
176
     1
170
     0
176
     1
171
     0
176
     1
290
     0
176
     1
 93
       13
176
     1
 44
0.0
176
     1
173
     0
176
     1
  0
VISUALSTYLE
  5
2D
102
{ACAD_REACTORS
330
2A
102
}
330
2A
100
AcDbVisualStyle
  2
Gouraud
 70
     2
177
     2
291
     1
 71
     2
176
     1
 72
     2
176
     1
 73
     1
176
     1
 90
        2
176
     1
 40
-0.6
176
     1
 41
30.0
176
     1
 62
     5
 63
     7
421
 16777215
176
     1
 74
     0
176
     1
 91
        4
176
     1
 64
     7
176
     1
 65
   257
176
     1
 75
     1
176
     1
175
     1
176
     1
 42
1.0
176
     1
 92
        0
176
     1
 66
     7
176
     1
 43
1.0
176
     1
 76
     1
176
     1
 77
     6
176
     1
 78
     2
176
     1
 67
     7
176
     1
 79
     5
176
     1
170
     0
176
     1
171
     0
176
     1
290
     0
176
     1
 93
       13
176
     1
 44
0.0
176
     1
173
     0
176
     1
  0
VISUALSTYLE
  5
2E
102
{ACAD_REACTORS
330
2A
102
}
330
2A
100
AcDbVisualStyle
  2
GouraudWithEdges
 70
     3
177
     2
291
     1
 71
     2
176
     1
 72
     2
176
     1
 73
     1
176
     1
 90
        2
176
     1
 40
-0.6
176
     1
 41
30.0
176
     1
 62
     5
 63
     7
421
 16777215
176
     1
 74
     1
176
     1
 91
        4
176
     1
 64
     7
176
     1
 65
   257
176
     1
 75
     1
176
     1
175
     1
176
     1
 42
1.0
176
     1
 92
        0
176
     1
 66
   257
176
     1
 43
1.0
176
     1
 76
     1
176
     1
 77
     6
176
     1
 78
     2
176
     1
 67
     7
176
     1
 79
     5
176
     1
170
     0
176
     1
171
     0
176
     1
290
     0
176
     1
 93
       13
176
     1
 44
0.0
176
     1
173
     0
176
     1
  0
VISUALSTYLE
  5
38
102
{ACAD_REACTORS
330
2A
102
}
330
2A
100
AcDbVisualStyle
  2
Linepattern
 70
    14
177
     2
291
     1
 71
     2
176
     1
 72
     2
176
     1
 73
     0
176
     1
 90
        0
176
     1
 40
-0.6
176
     1
 41
-30.0
176
     1
 62
     5
 63
     7
421
 16777215
176
     1
 74
     1
176
     1
 91
        4
176
     1
 64
     7
176
     1
 65
   257
176
     1
 75
     7
176
     1
175
     7
176
     1
 42
1.0
176
     1
 92
        8
176
     1
 66
     7
176
     1
 43
1.0
176
     1
 76
     1
176
     1
 77
     6
176
     1
 78
     2
176
     1
 67
     7
176
     1
 79
     5
176
     1
170
     0
176
     1
171
     0
176
     1
290
     0
176
     1
 93
        1
176
     1
 44
0.0
176
     1
173
     0
176
     1
  0
VISUALSTYLE
  5
33
102
{ACAD_REACTORS
330
2A
102
}
330
2A
100
AcDbVisualStyle
  2
Realistic
 70
     8
177
     2
291
     0
 71
     2
176
     1
 72
     2
176
     1
 73
     0
176
     1
 90
        0
176
     1
 40
-0.6
176
     1
 41
-30.0
176
     1
 62
     5
 63
     7
421
 16777215
176
     1
 74
     1
176
     1
 91
        0
176
     1
 64
     7
176
     1
 65
   257
176
     1
 75
     1
176
     1
175
     1
176
     1
 42
1.0
176
     1
 92
        8
176
     1
 66
     8
424
  7895160
176
     1
 43
1.0
176
     1
 76
     1
176
     1
 77
     6
176
     1
 78
     2
176
     1
 67
     7
176
     1
 79
     5
176
     1
170
     0
176
     1
171
     0
176
     1
290
     0
176
     1
 93
       13
176
     1
 44
0.0
176
     1
173
     0
176
     1
  0
VISUALSTYLE
  5
37
102
{ACAD_REACTORS
330
2A
102
}
330
2A
100
AcDbVisualStyle
  2
Thicken
 70
    13
177
     2
291
     1
 71
     2
176
     1
 72
     2
176
     1
 73
     0
176
     1
 90
        0
176
     1
 40
-0.6
176
     1
 41
-30.0
176
     1
 62
     5
 63
     7
421
 16777215
176
     1
 74
     1
176
     1
 91
        4
176
     1
 64
     7
176
     1
 65
   257
176
     1
 75
     1
176
     1
175
     1
176
     1
 42
1.0
176
     1
 92
       12
176
     1
 66
     7
176
     1
 43
1.0
176
     1
 76
     1
176
     1
 77
     6
176
     1
 78
     2
176
     1
 67
     7
176
     1
 79
     5
176
     1
170
     0
176
     1
171
     0
176
     1
290
     0
176
     1
 93
        1
176
     1
 44
0.0
176
     1
173
     0
176
     1
  0
ENDSEC
  0
EOF
