  0
SECTION
  2
HEADER
  9
$ACADVER
  1
AC1024
  9
$ACADMAINTVER
 70
     6
  9
$DWGCODEPAGE
  3
UNDEFINED
  9
$INSBASE
 10
0.0
 20
0.0
 30
0.0
  9
$EXTMIN
 10
1.000000000000000E+20
 20
1.000000000000000E+20
 30
1.000000000000000E+20
  9
$EXTMAX
 10
-1.000000000000000E+20
 20
-1.000000000000000E+20
 30
-1.000000000000000E+20
  9
$LIMMIN
 10
0.0
 20
0.0
  9
$LIMMAX
 10
12.0
 20
9.0
  9
$ORTHOMODE
 70
     0
  9
$REGENMODE
 70
     1
  9
$FILLMODE
 70
     1
  9
$QTEXTMODE
 70
     0
  9
$MIRRTEXT
 70
     1
  9
$LTSCALE
 40
1.0
  9
$ATTMODE
 70
     1
  9
$TEXTSIZE
 40
0.2
  9
$TRACEWID
 40
0.05
  9
$TEXTSTYLE
  7
Standard
  9
$CLAYER
  8
0
  9
$CELTYPE
  6
ByLayer
  9
$CECOLOR
 62
   256
  9
$CELTSCALE
 40
1.0
  9
$DISPSILH
 70
     0
  9
$DIMSCALE
 40
1.0
  9
$DIMASZ
 40
0.18
  9
$DIMEXO
 40
0.0625
  9
$DIMDLI
 40
0.38
  9
$DIMRND
 40
0.0
  9
$DIMDLE
 40
0.0
  9
$DIMEXE
 40
0.18
  9
$DIMTP
 40
0.0
  9
$DIMTM
 40
0.0
  9
$DIMTXT
 40
0.18
  9
$DIMCEN
 40
0.09
  9
$DIMTSZ
 40
0.0
  9
$DIMTOL
 70
     0
  9
$DIMLIM
 70
     0
  9
$DIMTIH
 70
     1
  9
$DIMTOH
 70
     1
  9
$DIMSE1
 70
     0
  9
$DIMSE2
 70
     0
  9
$DIMTAD
 70
     0
  9
$DIMZIN
 70
     0
  9
$DIMBLK
  1

  9
$DIMASO
 70
     1
  9
$DIMSHO
 70
     1
  9
$DIMPOST
  1

  9
$DIMAPOST
  1

  9
$DIMALT
 70
     0
  9
$DIMALTD
 70
     2
  9
$DIMALTF
 40
25.4
  9
$DIMLFAC
 40
1.0
  9
$DIMTOFL
 70
     0
  9
$DIMTVP
 40
0.0
  9
$DIMTIX
 70
     0
  9
$DIMSOXD
 70
     0
  9
$DIMSAH
 70
     0
  9
$DIMBLK1
  1

  9
$DIMBLK2
  1

  9
$DIMSTYLE
  2
Standard
  9
$DIMCLRD
 70
     0
  9
$DIMCLRE
 70
     0
  9
$DIMCLRT
 70
     0
  9
$DIMTFAC
 40
1.0
  9
$DIMGAP
 40
0.09
  9
$DIMJUST
 70
     0
  9
$DIMSD1
 70
     0
  9
$DIMSD2
 70
     0
  9
$DIMTOLJ
 70
     1
  9
$DIMTZIN
 70
     0
  9
$DIMALTZ
 70
     0
  9
$DIMALTTZ
 70
     0
  9
$DIMUPT
 70
     0
  9
$DIMDEC
 70
     4
  9
$DIMTDEC
 70
     4
  9
$DIMALTU
 70
     2
  9
$DIMALTTD
 70
     2
  9
$DIMTXSTY
  7
Standard
  9
$DIMAUNIT
 70
     0
  9
$DIMADEC
 70
     0
  9
$DIMALTRND
 40
0.0
  9
$DIMAZIN
 70
     0
  9
$DIMDSEP
 70
    46
  9
$DIMATFIT
 70
     3
  9
$DIMFRAC
 70
     0
  9
$DIMLDRBLK
  1

  9
$DIMLUNIT
 70
     2
  9
$DIMLWD
 70
    -2
  9
$DIMLWE
 70
    -2
  9
$DIMTMOVE
 70
     0
  9
$DIMFXL
 40
1.0
  9
$DIMFXLON
 70
     0
  9
$DIMJOGANG
 40
0.7853981633974483
  9
$DIMTFILL
 70
     0
  9
$DIMTFILLCLR
 70
     0
  9
$DIMARCSYM
 70
     0
  9
$DIMLTYPE
  6

  9
$DIMLTEX1
  6

  9
$DIMLTEX2
  6

  9
$DIMTXTDIRECTION
 70
     0
  9
$LUNITS
 70
     2
  9
$LUPREC
 70
     4
  9
$SKETCHINC
 40
0.1
  9
$FILLETRAD
 40
0.5
  9
$AUNITS
 70
     0
  9
$AUPREC
 70
     0
  9
$MENU
  1
.
  9
$ELEVATION
 40
0.0
  9
$PELEVATION
 40
0.0
  9
$THICKNESS
 40
0.0
  9
$LIMCHECK
 70
     0
  9
$CHAMFERA
 40
0.5
  9
$CHAMFERB
 40
0.5
  9
$CHAMFERC
 40
1.0
  9
$CHAMFERD
 40
0.0
  9
$SKPOLY
 70
     0
  9
$TDCREATE
 40
2457917.594826389
  9
$TDUCREATE
 40
2457917.219826389
  9
$TDUPDATE
 40
2457917.594826389
  9
$TDUUPDATE
 40
2457917.219826389
  9
$TDINDWG
 40
0.0000000116
  9
$TDUSRTIMER
 40
0.0000000116
  9
$USRTIMER
 70
     1
  9
$ANGBASE
 50
0.0
  9
$ANGDIR
 70
     0
  9
$PDMODE
 70
     0
  9
$PDSIZE
 40
0.0
  9
$PLINEWID
 40
0.0
  9
$SPLFRAME
 70
     0
  9
$SPLINETYPE
 70
     6
  9
$SPLINESEGS
 70
     8
  9
$HANDSEED
  5
10C
  9
$SURFTAB1
 70
     6
  9
$SURFTAB2
 70
     6
  9
$SURFTYPE
 70
     6
  9
$SURFU
 70
     6
  9
$SURFV
 70
     6
  9
$UCSBASE
  2

  9
$UCSNAME
  2

  9
$UCSORG
 10
0.0
 20
0.0
 30
0.0
  9
$UCSXDIR
 10
1.0
 20
0.0
 30
0.0
  9
$UCSYDIR
 10
0.0
 20
1.0
 30
0.0
  9
$UCSORTHOREF
  2

  9
$UCSORTHOVIEW
 70
     0
  9
$UCSORGTOP
 10
0.0
 20
0.0
 30
0.0
  9
$UCSORGBOTTOM
 10
0.0
 20
0.0
 30
0.0
  9
$UCSORGLEFT
 10
0.0
 20
0.0
 30
0.0
  9
$UCSORGRIGHT
 10
0.0
 20
0.0
 30
0.0
  9
$UCSORGFRONT
 10
0.0
 20
0.0
 30
0.0
  9
$UCSORGBACK
 10
0.0
 20
0.0
 30
0.0
  9
$PUCSBASE
  2

  9
$PUCSNAME
  2

  9
$PUCSORG
 10
0.0
 20
0.0
 30
0.0
  9
$PUCSXDIR
 10
1.0
 20
0.0
 30
0.0
  9
$PUCSYDIR
 10
0.0
 20
1.0
 30
0.0
  9
$PUCSORTHOREF
  2

  9
$PUCSORTHOVIEW
 70
     0
  9
$PUCSORGTOP
 10
0.0
 20
0.0
 30
0.0
  9
$PUCSORGBOTTOM
 10
0.0
 20
0.0
 30
0.0
  9
$PUCSORGLEFT
 10
0.0
 20
0.0
 30
0.0
  9
$PUCSORGRIGHT
 10
0.0
 20
0.0
 30
0.0
  9
$PUCSORGFRONT
 10
0.0
 20
0.0
 30
0.0
  9
$PUCSORGBACK
 10
0.0
 20
0.0
 30
0.0
  9
$USERI1
 70
     0
  9
$USERI2
 70
     0
  9
$USERI3
 70
     0
  9
$USERI4
 70
     0
  9
$USERI5
 70
     0
  9
$USERR1
 40
0.0
  9
$USERR2
 40
0.0
  9
$USERR3
 40
0.0
  9
$USERR4
 40
0.0
  9
$USERR5
 40
0.0
  9
$WORLDVIEW
 70
     1
  9
$SHADEDGE
 70
     3
  9
$SHADEDIF
 70
    70
  9
$TILEMODE
 70
     1
  9
$MAXACTVP
 70
    64
  9
$PINSBASE
 10
0.0
 20
0.0
 30
0.0
  9
$PLIMCHECK
 70
     0
  9
$PEXTMIN
 10
1.000000000000000E+20
 20
1.000000000000000E+20
 30
1.000000000000000E+20
  9
$PEXTMAX
 10
-1.000000000000000E+20
 20
-1.000000000000000E+20
 30
-1.000000000000000E+20
  9
$PLIMMIN
 10
0.0
 20
0.0
  9
$PLIMMAX
 10
12.0
 20
9.0
  9
$UNITMODE
 70
     0
  9
$VISRETAIN
 70
     1
  9
$PLINEGEN
 70
     0
  9
$PSLTSCALE
 70
     1
  9
$TREEDEPTH
 70
  3020
  9
$CMLSTYLE
  2
Standard
  9
$CMLJUST
 70
     0
  9
$CMLSCALE
 40
1.0
  9
$PROXYGRAPHICS
 70
     1
  9
$MEASUREMENT
 70
     0
  9
$CELWEIGHT
370
    -1
  9
$ENDCAPS
280
     0
  9
$JOINSTYLE
280
     0
  9
$LWDISPLAY
290
     1
  9
$INSUNITS
 70
     1
  9
$HYPERLINKBASE
  1

  9
$STYLESHEET
  1

  9
$XEDIT
290
     1
  9
$CEPSNTYPE
380
     0
  9
$PSTYLEMODE
290
     1
  9
$FINGERPRINTGUID
  2
{6674CEA6-4F94-7855-7343-69D108BF01E7}
  9
$VERSIONGUID
  2
{FAEB1C32-E019-11D5-929B-00C0DF256EC4}
  9
$EXTNAMES
290
     1
  9
$PSVPSCALE
 40
0.0
  9
$OLESTARTUP
290
     0
  9
$SORTENTS
280
   127
  9
$INDEXCTL
280
     0
  9
$HIDETEXT
280
     1
  9
$XCLIPFRAME
280
     2
  9
$HALOGAP
280
     0
  9
$OBSCOLOR
 70
   257
  9
$OBSLTYPE
280
     0
  9
$INTERSECTIONDISPLAY
280
     0
  9
$INTERSECTIONCOLOR
 70
   257
  9
$DIMASSOC
280
     2
  9
$PROJECTNAME
  1

  9
$CAMERADISPLAY
290
     0
  9
$LENSLENGTH
 40
50.0
  9
$CAMERAHEIGHT
 40
0.0
  9
$STEPSPERSEC
 40
2.0
  9
$STEPSIZE
 40
6.0
  9
$3DDWFPREC
 40
2.0
  9
$PSOLWIDTH
 40
0.25
  9
$PSOLHEIGHT
 40
4.0
  9
$LOFTANG1
 40
1.570796326794897
  9
$LOFTANG2
 40
1.570796326794897
  9
$LOFTMAG1
 40
0.0
  9
$LOFTMAG2
 40
0.0
  9
$LOFTPARAM
 70
     7
  9
$LOFTNORMALS
280
     1
  9
$LATITUDE
 40
37.795
  9
$LONGITUDE
 40
-122.394
  9
$NORTHDIRECTION
 40
0.0
  9
$TIMEZONE
 70
 -8000
  9
$LIGHTGLYPHDISPLAY
280
     1
  9
$TILEMODELIGHTSYNCH
280
     1
  9
$CMATERIAL
347
3C
  9
$SOLIDHIST
280
     1
  9
$SHOWHIST
280
     1
  9
$DWFFRAME
280
     2
  9
$DGNFRAME
280
     2
  9
$REALWORLDSCALE
290
     1
  9
$INTERFERECOLOR
 62
   256
  9
$CSHADOW
280
     0
  9
$SHADOWPLANELOCATION
 40
0.0
  0
ENDSEC
  0
SECTION
  2
CLASSES
  0
CLASS
  1
ACDBDICTIONARYWDFLT
  2
AcDbDictionaryWithDefault
  3
ObjectDBX Classes
 90
        0
 91
        4
280
     0
281
     0
  0
CLASS
  1
VISUALSTYLE
  2
AcDbVisualStyle
  3
ObjectDBX Classes
 90
     4095
 91
        4
280
     0
281
     0
  0
CLASS
  1
MATERIAL
  2
AcDbMaterial
  3
ObjectDBX Classes
 90
     1153
 91
        4
280
     0
281
     0
  0
CLASS
  1
SUN
  2
AcDbSun
  3
SCENEOE
 90
     1024
 91
        4
280
     0
281
     0
  0
ENDSEC
  0
SECTION
  2
TABLES
  0
TABLE
  2
VPORT
  5
8
330
0
100
AcDbSymbolTable
 70
     1
  0
VPORT
  5
29
330
8
100
AcDbSymbolTableRecord
100
AcDbViewportTableRecord
  2
*Active
 70
     0
 10
0.0
 20
0.0
 11
1.0
 21
1.0
 12
0.0
 22
0.0
 13
0.0
 23
0.0
 14
0.5
 24
0.5
 15
0.5
 25
0.5
 16
0.0
 26
0.0
 36
1.0
 17
91.00082462281999
 27
-128.4993055234307
 37
0.0
 40
256.9986110468615
 41
0.7081814508812795
 42
50.0
 43
0.0
 44
0.0
 50
0.0
 51
0.0
 71
     0
 72
   100
 73
     1
 74
     3
 75
     0
 76
     0
 77
     0
 78
     0
281
     0
 65
     1
110
0.0
120
0.0
130
0.0
111
1.0
121
0.0
131
0.0
112
0.0
122
1.0
132
0.0
 79
     0
146
0.0
 60
     3
 61
     5
292
     1
282
     1
141
0.0
142
0.0
 63
   250
361
3F
  0
ENDTAB
  0
TABLE
  2
LTYPE
  5
5
330
0
100
AcDbSymbolTable
 70
     1
  0
LTYPE
  5
14
330
5
100
AcDbSymbolTableRecord
100
AcDbLinetypeTableRecord
  2
ByBlock
 70
     0
  3

 72
    65
 73
     0
 40
0.0
  0
LTYPE
  5
15
330
5
100
AcDbSymbolTableRecord
100
AcDbLinetypeTableRecord
  2
ByLayer
 70
     0
  3

 72
    65
 73
     0
 40
0.0
  0
LTYPE
  5
16
330
5
100
AcDbSymbolTableRecord
100
AcDbLinetypeTableRecord
  2
Continuous
 70
     0
  3
Solid line
 72
    65
 73
     0
 40
0.0
  0
ENDTAB
  0
TABLE
  2
LAYER
  5
2
330
0
100
AcDbSymbolTable
 70
     2
  0
LAYER
  5
10
330
2
100
AcDbSymbolTableRecord
100
AcDbLayerTableRecord
  2
0
 70
     0
 62
     7
  6
Continuous
370
    -3
390
F
347
3E
  0
LAYER
  5
40
330
2
100
AcDbSymbolTableRecord
100
AcDbLayerTableRecord
  2
_U+30EC_U+30A4_U+30E4_U+30FC 1
 70
     0
 62
     7
  6
Continuous
370
    -3
390
F
347
3E
  0
ENDTAB
  0
TABLE
  2
STYLE
  5
3
330
0
100
AcDbSymbolTable
 70
     1
  0
STYLE
  5
11
330
3
100
AcDbSymbolTableRecord
100
AcDbTextStyleTableRecord
  2
Standard
 70
     0
 40
0.0
 41
1.0
 50
0.0
 71
     0
 42
0.2
  3
txt
  4

  0
ENDTAB
  0
TABLE
  2
VIEW
  5
6
330
0
100
AcDbSymbolTable
 70
     0
  0
ENDTAB
  0
TABLE
  2
UCS
  5
7
330
0
100
AcDbSymbolTable
 70
     0
  0
ENDTAB
  0
TABLE
  2
APPID
  5
9
330
0
100
AcDbSymbolTable
 70
     1
  0
APPID
  5
12
330
9
100
AcDbSymbolTableRecord
100
AcDbRegAppTableRecord
  2
ACAD
 70
     0
  0
ENDTAB
  0
TABLE
  2
DIMSTYLE
  5
A
330
0
100
AcDbSymbolTable
 70
     1
100
AcDbDimStyleTable
  0
DIMSTYLE
105
27
330
A
100
AcDbSymbolTableRecord
100
AcDbDimStyleTableRecord
  2
Standard
 70
     0
178
     0
340
11
  0
ENDTAB
  0
TABLE
  2
BLOCK_RECORD
  5
1
330
0
100
AcDbSymbolTable
 70
     7
  0
BLOCK_RECORD
  5
1F
330
1
100
AcDbSymbolTableRecord
100
AcDbBlockTableRecord
  2
*Model_Space
340
22
 70
     0
280
     1
281
     0
  0
BLOCK_RECORD
  5
1B
330
1
100
AcDbSymbolTableRecord
100
AcDbBlockTableRecord
  2
*Paper_Space
340
1E
 70
     0
280
     1
281
     0
  0
BLOCK_RECORD
  5
23
330
1
100
AcDbSymbolTableRecord
100
AcDbBlockTableRecord
  2
*Paper_Space0
340
26
 70
     0
280
     1
281
     0
  0
BLOCK_RECORD
  5
83
330
1
100
AcDbSymbolTableRecord
100
AcDbBlockTableRecord
  2
block 2
340
0
102
{BLKREFS
331
84
102
}
 70
     0
280
     1
281
     0
  0
BLOCK_RECORD
  5
98
330
1
100
AcDbSymbolTableRecord
100
AcDbBlockTableRecord
  2
block 3
340
0
102
{BLKREFS
331
99
102
}
 70
     0
280
     1
281
     0
  0
BLOCK_RECORD
  5
AA
330
1
100
AcDbSymbolTableRecord
100
AcDbBlockTableRecord
  2
block 4
340
0
102
{BLKREFS
331
AB
102
}
 70
     0
280
     1
281
     0
  0
BLOCK_RECORD
  5
BC
330
1
100
AcDbSymbolTableRecord
100
AcDbBlockTableRecord
  2
block 5
340
0
102
{BLKREFS
331
BD
102
}
 70
     0
280
     1
281
     0
  0
BLOCK_RECORD
  5
DA
330
1
100
AcDbSymbolTableRecord
100
AcDbBlockTableRecord
  2
block 6
340
0
102
{BLKREFS
331
DB
102
}
 70
     0
280
     1
281
     0
  0
BLOCK_RECORD
  5
F8
330
1
100
AcDbSymbolTableRecord
100
AcDbBlockTableRecord
  2
block 7
340
0
102
{BLKREFS
331
F9
102
}
 70
     0
280
     1
281
     0
  0
ENDTAB
  0
ENDSEC
  0
SECTION
  2
BLOCKS
  0
BLOCK
  5
20
330
1F
100
AcDbEntity
  8
0
100
AcDbBlockBegin
  2
*Model_Space
 70
     0
 10
0.0
 20
0.0
 30
0.0
  3
*Model_Space
  1

  0
ENDBLK
  5
21
330
1F
100
AcDbEntity
  8
0
100
AcDbBlockEnd
  0
BLOCK
  5
1C
330
1B
100
AcDbEntity
 67
     1
  8
0
100
AcDbBlockBegin
  2
*Paper_Space
 70
     0
 10
0.0
 20
0.0
 30
0.0
  3
*Paper_Space
  1

  0
ENDBLK
  5
1D
330
1B
100
AcDbEntity
 67
     1
  8
0
100
AcDbBlockEnd
  0
BLOCK
  5
24
330
23
100
AcDbEntity
  8
0
100
AcDbBlockBegin
  2
*Paper_Space0
 70
     0
 10
0.0
 20
0.0
 30
0.0
  3
*Paper_Space0
  1

  0
ENDBLK
  5
25
330
23
100
AcDbEntity
  8
0
100
AcDbBlockEnd
  0
BLOCK
  5
85
330
83
100
AcDbEntity
  8
0
100
AcDbBlockBegin
  2
block 2
 70
     0
 10
0.0
 20
0.0
 30
0.0
  3
block 2
  1

  0
SPLINE
  5
87
330
83
100
AcDbEntity
  8
_U+30EC_U+30A4_U+30E4_U+30FC 1
370
     0
100
AcDbSpline
210
0.0
220
0.0
230
1.0
 70
    11
 71
     3
 72
    26
 73
    22
 74
     0
 42
0.0000000001
 43
0.0000000001
 12
1.0
 22
0.0
 32
0.0
 13
1.0
 23
0.0
 33
0.0
 40
0.0
 40
0.0
 40
0.0
 40
0.0
 40
1.0
 40
1.0
 40
1.0
 40
2.0
 40
2.0
 40
2.0
 40
3.0
 40
3.0
 40
3.0
 40
4.0
 40
4.0
 40
4.0
 40
5.0
 40
5.0
 40
5.0
 40
6.0
 40
6.0
 40
6.0
 40
7.0
 40
7.0
 40
7.0
 40
7.0
 10
67.87148164535853
 20
-147.9268879838516
 30
0.0
 10
67.87148164535853
 20
-147.9268879838516
 30
0.0
 10
67.87148164535853
 20
-146.822734880829
 30
0.0
 10
67.87148164535853
 20
-146.822734880829
 30
0.0
 10
67.87148164535853
 20
-146.822734880829
 30
0.0
 10
67.51870386766893
 20
-146.822734880829
 30
0.0
 10
67.51870386766893
 20
-146.822734880829
 30
0.0
 10
67.51870386766893
 20
-146.822734880829
 30
0.0
 10
67.51870386766893
 20
-146.6745957749633
 30
0.0
 10
67.51870386766893
 20
-146.6745957749633
 30
0.0
 10
67.87372095742393
 20
-146.6597818643767
 30
0.0
 10
67.9235025871858
 20
-146.4968288479244
 30
0.0
 10
67.95502521087583
 20
-146.3824516778141
 30
0.0
 10
67.95502521087583
 20
-146.3824516778141
 30
0.0
 10
68.11108803635764
 20
-146.3824516778141
 30
0.0
 10
68.11108803635764
 20
-146.3824516778141
 30
0.0
 10
68.11108803635764
 20
-146.3824516778141
 30
0.0
 10
68.11108803635764
 20
-147.9268879838516
 30
0.0
 10
68.11108803635764
 20
-147.9268879838516
 30
0.0
 10
68.11108803635764
 20
-147.9268879838516
 30
0.0
 10
67.87148164535853
 20
-147.9268879838516
 30
0.0
 10
67.87148164535853
 20
-147.9268879838516
 30
0.0
  0
HATCH
  5
88
330
83
100
AcDbEntity
  8
_U+30EC_U+30A4_U+30E4_U+30FC 1
 62
     7
420
 16777215
100
AcDbHatch
 10
0.0
 20
0.0
 30
0.0
210
0.0
220
0.0
230
1.0
  2
SOLID
 70
     1
 71
     0
 91
        1
 92
        1
 93
        1
 72
     4
 94
        3
 73
     0
 74
     1
 95
       26
 96
       22
 40
0.0
 40
0.0
 40
0.0
 40
0.0
 40
1.0
 40
1.0
 40
1.0
 40
2.0
 40
2.0
 40
2.0
 40
3.0
 40
3.0
 40
3.0
 40
4.0
 40
4.0
 40
4.0
 40
5.0
 40
5.0
 40
5.0
 40
6.0
 40
6.0
 40
6.0
 40
7.0
 40
7.0
 40
7.0
 40
7.0
 10
67.87148164535853
 20
-147.9268879838516
 10
67.87148164535853
 20
-147.9268879838516
 10
67.87148164535853
 20
-146.822734880829
 10
67.87148164535853
 20
-146.822734880829
 10
67.87148164535853
 20
-146.822734880829
 10
67.51870386766893
 20
-146.822734880829
 10
67.51870386766893
 20
-146.822734880829
 10
67.51870386766893
 20
-146.822734880829
 10
67.51870386766893
 20
-146.6745957749633
 10
67.51870386766893
 20
-146.6745957749633
 10
67.87372095742393
 20
-146.6597818643767
 10
67.9235025871858
 20
-146.4968288479244
 10
67.95502521087583
 20
-146.3824516778141
 10
67.95502521087583
 20
-146.3824516778141
 10
68.11108803635764
 20
-146.3824516778141
 10
68.11108803635764
 20
-146.3824516778141
 10
68.11108803635764
 20
-146.3824516778141
 10
68.11108803635764
 20
-147.9268879838516
 10
68.11108803635764
 20
-147.9268879838516
 10
68.11108803635764
 20
-147.9268879838516
 10
67.87148164535853
 20
-147.9268879838516
 10
67.87148164535853
 20
-147.9268879838516
 97
        0
 97
        0
 75
     2
 76
     1
 98
        0
  0
SPLINE
  5
89
330
83
100
AcDbEntity
  8
_U+30EC_U+30A4_U+30E4_U+30FC 1
370
     0
100
AcDbSpline
210
0.0
220
0.0
230
1.0
 70
    11
 71
     3
 72
    44
 73
    40
 74
     0
 42
0.0000000001
 43
0.0000000001
 12
1.0
 22
0.0
 32
0.0
 13
1.0
 23
0.0
 33
0.0
 40
0.0
 40
0.0
 40
0.0
 40
0.0
 40
1.0
 40
1.0
 40
1.0
 40
2.0
 40
2.0
 40
2.0
 40
3.0
 40
3.0
 40
3.0
 40
4.0
 40
4.0
 40
4.0
 40
5.0
 40
5.0
 40
5.0
 40
6.0
 40
6.0
 40
6.0
 40
7.0
 40
7.0
 40
7.0
 40
8.0
 40
8.0
 40
8.0
 40
9.0
 40
9.0
 40
9.0
 40
10.0
 40
10.0
 40
10.0
 40
11.0
 40
11.0
 40
11.0
 40
12.0
 40
12.0
 40
12.0
 40
13.0
 40
13.0
 40
13.0
 40
13.0
 10
69.7306274239736
 20
-147.9268879838516
 30
0.0
 10
69.7058227364798
 20
-147.8824462520919
 30
0.0
 10
69.68308510627715
 20
-147.8297362911676
 30
0.0
 10
69.68084579421173
 20
-147.5989148936558
 30
0.0
 10
69.67636717008091
 20
-147.3556911523972
 30
0.0
 10
69.61314966792658
 20
-147.2857557140466
 30
0.0
 10
69.42315265191505
 20
-147.2857557140466
 30
0.0
 10
69.42315265191505
 20
-147.2857557140466
 30
0.0
 10
68.98683130870816
 20
-147.2857557140466
 30
0.0
 10
68.98683130870816
 20
-147.2857557140466
 30
0.0
 10
68.98683130870816
 20
-147.2857557140466
 30
0.0
 10
68.98683130870816
 20
-147.9268879838516
 30
0.0
 10
68.98683130870816
 20
-147.9268879838516
 30
0.0
 10
68.98683130870816
 20
-147.9268879838516
 30
0.0
 10
68.73585610260771
 20
-147.9268879838516
 30
0.0
 10
68.73585610260771
 20
-147.9268879838516
 30
0.0
 10
68.73585610260771
 20
-147.9268879838516
 30
0.0
 10
68.73585610260771
 20
-146.3824516778141
 30
0.0
 10
68.73585610260771
 20
-146.3824516778141
 30
0.0
 10
68.73585610260771
 20
-146.3824516778141
 30
0.0
 10
69.45708684244475
 20
-146.3824516778141
 30
0.0
 10
69.45708684244475
 20
-146.3824516778141
 30
0.0
 10
69.78488767786628
 20
-146.3824516778141
 30
0.0
 10
69.96351587877649
 20
-146.5540174329795
 30
0.0
 10
69.96351587877649
 20
-146.8099880275336
 30
0.0
 10
69.96351587877649
 20
-146.8606309311668
 30
0.0
 10
69.95455863051484
 20
-146.9433132228128
 30
0.0
 10
69.90701631281839
 20
-147.0235839476191
 30
0.0
 10
69.84362655588978
 20
-147.1272813217251
 30
0.0
 10
69.77369111753922
 20
-147.146229346894
 30
0.0
 10
69.70806204854522
 20
-147.1631103147717
 30
0.0
 10
69.85499537099112
 20
-147.2054849892403
 30
0.0
 10
69.92734237618136
 20
-147.2540608355823
 30
0.0
 10
69.93182100031218
 20
-147.5692870724827
 30
0.0
 10
69.93629962444301
 20
-147.8400715776233
 30
0.0
 10
69.97488469387781
 20
-147.8717664560876
 30
0.0
 10
70.04723169906805
 20
-147.9268879838516
 30
0.0
 10
70.04723169906805
 20
-147.9268879838516
 30
0.0
 10
69.7306274239736
 20
-147.9268879838516
 30
0.0
 10
69.7306274239736
 20
-147.9268879838516
 30
0.0
  0
SPLINE
  5
8A
330
83
100
AcDbEntity
  8
_U+30EC_U+30A4_U+30E4_U+30FC 1
370
     0
100
AcDbSpline
210
0.0
220
0.0
230
1.0
 70
    11
 71
     3
 72
    20
 73
    16
 74
     0
 42
0.0000000001
 43
0.0000000001
 12
1.0
 22
0.0
 32
0.0
 13
1.0
 23
0.0
 33
0.0
 40
0.0
 40
0.0
 40
0.0
 40
0.0
 40
1.0
 40
1.0
 40
1.0
 40
2.0
 40
2.0
 40
2.0
 40
3.0
 40
3.0
 40
3.0
 40
4.0
 40
4.0
 40
4.0
 40
5.0
 40
5.0
 40
5.0
 40
5.0
 10
69.46156546657558
 20
-146.5939805406085
 30
0.0
 10
69.46156546657558
 20
-146.5939805406085
 30
0.0
 10
68.98683130870816
 20
-146.5939805406085
 30
0.0
 10
68.98683130870816
 20
-146.5939805406085
 30
0.0
 10
68.98683130870816
 20
-146.5939805406085
 30
0.0
 10
68.98683130870816
 20
-147.0742268512523
 30
0.0
 10
68.98683130870816
 20
-147.0742268512523
 30
0.0
 10
68.98683130870816
 20
-147.0742268512523
 30
0.0
 10
69.45932615451017
 20
-147.0742268512523
 30
0.0
 10
69.45932615451017
 20
-147.0742268512523
 30
0.0
 10
69.56560735023012
 20
-147.0742268512523
 30
0.0
 10
69.71030136061063
 20
-146.9980902410283
 30
0.0
 10
69.71030136061063
 20
-146.8268689954113
 30
0.0
 10
69.71030136061063
 20
-146.7486653278962
 30
0.0
 10
69.6741278580155
 20
-146.5939805406085
 30
0.0
 10
69.46156546657558
 20
-146.5939805406085
 30
0.0
  0
HATCH
  5
8B
330
83
100
AcDbEntity
  8
_U+30EC_U+30A4_U+30E4_U+30FC 1
 62
     7
420
 16777215
100
AcDbHatch
 10
0.0
 20
0.0
 30
0.0
210
0.0
220
0.0
230
1.0
  2
SOLID
 70
     1
 71
     0
 91
        2
 92
        1
 93
        1
 72
     4
 94
        3
 73
     0
 74
     1
 95
       44
 96
       40
 40
0.0
 40
0.0
 40
0.0
 40
0.0
 40
1.0
 40
1.0
 40
1.0
 40
2.0
 40
2.0
 40
2.0
 40
3.0
 40
3.0
 40
3.0
 40
4.0
 40
4.0
 40
4.0
 40
5.0
 40
5.0
 40
5.0
 40
6.0
 40
6.0
 40
6.0
 40
7.0
 40
7.0
 40
7.0
 40
8.0
 40
8.0
 40
8.0
 40
9.0
 40
9.0
 40
9.0
 40
10.0
 40
10.0
 40
10.0
 40
11.0
 40
11.0
 40
11.0
 40
12.0
 40
12.0
 40
12.0
 40
13.0
 40
13.0
 40
13.0
 40
13.0
 10
69.7306274239736
 20
-147.9268879838516
 10
69.7058227364798
 20
-147.8824462520919
 10
69.68308510627715
 20
-147.8297362911676
 10
69.68084579421173
 20
-147.5989148936558
 10
69.67636717008091
 20
-147.3556911523972
 10
69.61314966792658
 20
-147.2857557140466
 10
69.42315265191505
 20
-147.2857557140466
 10
69.42315265191505
 20
-147.2857557140466
 10
68.98683130870816
 20
-147.2857557140466
 10
68.98683130870816
 20
-147.2857557140466
 10
68.98683130870816
 20
-147.2857557140466
 10
68.98683130870816
 20
-147.9268879838516
 10
68.98683130870816
 20
-147.9268879838516
 10
68.98683130870816
 20
-147.9268879838516
 10
68.73585610260771
 20
-147.9268879838516
 10
68.73585610260771
 20
-147.9268879838516
 10
68.73585610260771
 20
-147.9268879838516
 10
68.73585610260771
 20
-146.3824516778141
 10
68.73585610260771
 20
-146.3824516778141
 10
68.73585610260771
 20
-146.3824516778141
 10
69.45708684244475
 20
-146.3824516778141
 10
69.45708684244475
 20
-146.3824516778141
 10
69.78488767786628
 20
-146.3824516778141
 10
69.96351587877649
 20
-146.5540174329795
 10
69.96351587877649
 20
-146.8099880275336
 10
69.96351587877649
 20
-146.8606309311668
 10
69.95455863051484
 20
-146.9433132228128
 10
69.90701631281839
 20
-147.0235839476191
 10
69.84362655588978
 20
-147.1272813217251
 10
69.77369111753922
 20
-147.146229346894
 10
69.70806204854522
 20
-147.1631103147717
 10
69.85499537099112
 20
-147.2054849892403
 10
69.92734237618136
 20
-147.2540608355823
 10
69.93182100031218
 20
-147.5692870724827
 10
69.93629962444301
 20
-147.8400715776233
 10
69.97488469387781
 20
-147.8717664560876
 10
70.04723169906805
 20
-147.9268879838516
 10
70.04723169906805
 20
-147.9268879838516
 10
69.7306274239736
 20
-147.9268879838516
 10
69.7306274239736
 20
-147.9268879838516
 97
        0
 97
        0
 92
        1
 93
        1
 72
     4
 94
        3
 73
     0
 74
     1
 95
       20
 96
       16
 40
0.0
 40
0.0
 40
0.0
 40
0.0
 40
1.0
 40
1.0
 40
1.0
 40
2.0
 40
2.0
 40
2.0
 40
3.0
 40
3.0
 40
3.0
 40
4.0
 40
4.0
 40
4.0
 40
5.0
 40
5.0
 40
5.0
 40
5.0
 10
69.46156546657558
 20
-146.5939805406085
 10
69.46156546657558
 20
-146.5939805406085
 10
68.98683130870816
 20
-146.5939805406085
 10
68.98683130870816
 20
-146.5939805406085
 10
68.98683130870816
 20
-146.5939805406085
 10
68.98683130870816
 20
-147.0742268512523
 10
68.98683130870816
 20
-147.0742268512523
 10
68.98683130870816
 20
-147.0742268512523
 10
69.45932615451017
 20
-147.0742268512523
 10
69.45932615451017
 20
-147.0742268512523
 10
69.56560735023012
 20
-147.0742268512523
 10
69.71030136061063
 20
-146.9980902410283
 10
69.71030136061063
 20
-146.8268689954113
 10
69.71030136061063
 20
-146.7486653278962
 10
69.6741278580155
 20
-146.5939805406085
 10
69.46156546657558
 20
-146.5939805406085
 97
        0
 97
        0
 75
     2
 76
     1
 98
        0
  0
ENDBLK
  5
86
330
83
100
AcDbEntity
  8
0
100
AcDbBlockEnd
  0
BLOCK
  5
9A
330
98
100
AcDbEntity
  8
0
100
AcDbBlockBegin
  2
block 3
 70
     0
 10
0.0
 20
0.0
 30
0.0
  3
block 3
  1

  0
SPLINE
  5
9C
330
98
100
AcDbEntity
  8
_U+30EC_U+30A4_U+30E4_U+30FC 1
370
     0
100
AcDbSpline
210
0.0
220
0.0
230
1.0
 70
    11
 71
     3
 72
    62
 73
    58
 74
     0
 42
0.0000000001
 43
0.0000000001
 12
1.0
 22
0.0
 32
0.0
 13
1.0
 23
0.0
 33
0.0
 40
0.0
 40
0.0
 40
0.0
 40
0.0
 40
1.0
 40
1.0
 40
1.0
 40
2.0
 40
2.0
 40
2.0
 40
3.0
 40
3.0
 40
3.0
 40
4.0
 40
4.0
 40
4.0
 40
5.0
 40
5.0
 40
5.0
 40
6.0
 40
6.0
 40
6.0
 40
7.0
 40
7.0
 40
7.0
 40
8.0
 40
8.0
 40
8.0
 40
9.0
 40
9.0
 40
9.0
 40
10.0
 40
10.0
 40
10.0
 40
11.0
 40
11.0
 40
11.0
 40
12.0
 40
12.0
 40
12.0
 40
13.0
 40
13.0
 40
13.0
 40
14.0
 40
14.0
 40
14.0
 40
15.0
 40
15.0
 40
15.0
 40
16.0
 40
16.0
 40
16.0
 40
17.0
 40
17.0
 40
17.0
 40
18.0
 40
18.0
 40
18.0
 40
19.0
 40
19.0
 40
19.0
 40
19.0
 10
94.72668997197806
 20
-109.8468695471911
 30
0.0
 10
94.62505965516318
 20
-109.8468695471911
 30
0.0
 10
94.3921712003603
 20
-109.825854464731
 30
0.0
 10
94.25884600508112
 20
-109.6398193085275
 30
0.0
 10
94.17960880892038
 20
-109.5275091957084
 30
0.0
 10
94.17513018478955
 20
-109.4281181909589
 30
0.0
 10
94.17065156065873
 20
-109.3435410967961
 30
0.0
 10
94.17065156065873
 20
-109.3435410967961
 30
0.0
 10
94.40560707275277
 20
-109.3435410967961
 30
0.0
 10
94.40560707275277
 20
-109.3435410967961
 30
0.0
 10
94.40801863959244
 20
-109.4176106497289
 30
0.0
 10
94.41938745469376
 20
-109.6522216522744
 30
0.0
 10
94.72221134784724
 20
-109.6522216522744
 30
0.0
 10
94.8693169250674
 20
-109.6522216522744
 30
0.0
 10
95.03192543197119
 20
-109.5826307234724
 30
0.0
 10
95.03192543197119
 20
-109.3540486380261
 30
0.0
 10
95.03192543197119
 20
-109.2377766653989
 30
0.0
 10
94.99127330524524
 20
-109.1890285642826
 30
0.0
 10
94.9575113694898
 20
-109.1573336858183
 30
0.0
 10
94.87827417332905
 20
-109.0832641328854
 30
0.0
 10
94.75390622631153
 20
-109.0706895343643
 30
0.0
 10
94.69499509351375
 20
-109.0706895343643
 30
0.0
 10
94.67466903015078
 20
-109.0706895343643
 30
0.0
 10
94.6364284702645
 20
-109.0727565916554
 30
0.0
 10
94.60680064909135
 20
-109.0768907062377
 30
0.0
 10
94.60680064909135
 20
-109.0768907062377
 30
0.0
 10
94.60680064909135
 20
-108.8822428113211
 30
0.0
 10
94.60680064909135
 20
-108.8822428113211
 30
0.0
 10
94.64745277581731
 20
-108.8886162379688
 30
0.0
 10
94.69292803622261
 20
-108.8908555500342
 30
0.0
 10
94.69947371764458
 20
-108.8908555500342
 30
0.0
 10
94.76975366554367
 20
-108.8908555500342
 30
0.0
 10
94.98231605698359
 20
-108.8696682128
 30
0.0
 10
94.98231605698359
 20
-108.6326456434148
 30
0.0
 10
94.98231605698359
 20
-108.4550509711501
 30
0.0
 10
94.84210067073393
 20
-108.3999294433861
 30
0.0
 10
94.7246229146869
 20
-108.3999294433861
 30
0.0
 10
94.44178057534789
 20
-108.3999294433861
 30
0.0
 10
94.43282332708624
 20
-108.6326456434148
 30
0.0
 10
94.42834470295541
 20
-108.7046481390565
 30
0.0
 10
94.42834470295541
 20
-108.7046481390565
 30
0.0
 10
94.21130368738469
 20
-108.7046481390565
 30
0.0
 10
94.21130368738469
 20
-108.7046481390565
 30
0.0
 10
94.22026093564632
 20
-108.5797634277162
 30
0.0
 10
94.24954424727095
 20
-108.2032144911784
 30
0.0
 10
94.73805878707938
 20
-108.2032144911784
 30
0.0
 10
94.97783743285277
 20
-108.2032144911784
 30
0.0
 10
95.23553057514945
 20
-108.3301662598098
 30
0.0
 10
95.23553057514945
 20
-108.626272216767
 30
0.0
 10
95.23553057514945
 20
-108.8124796277448
 30
0.0
 10
95.13355574878607
 20
-108.8949896646165
 30
0.0
 10
95.02744680784036
 20
-108.956312364254
 30
0.0
 10
95.0929036220601
 20
-108.983873128136
 30
0.0
 10
95.28755151697673
 20
-109.0643161077166
 30
0.0
 10
95.28755151697673
 20
-109.3414740395049
 30
0.0
 10
95.28755151697673
 20
-109.6797824161564
 30
0.0
 10
95.02296818370954
 20
-109.8468695471911
 30
0.0
 10
94.72668997197806
 20
-109.8468695471911
 30
0.0
  0
HATCH
  5
9D
330
98
100
AcDbEntity
  8
_U+30EC_U+30A4_U+30E4_U+30FC 1
 62
     7
420
 16777215
100
AcDbHatch
 10
0.0
 20
0.0
 30
0.0
210
0.0
220
0.0
230
1.0
  2
SOLID
 70
     1
 71
     0
 91
        1
 92
        1
 93
        1
 72
     4
 94
        3
 73
     0
 74
     1
 95
       62
 96
       58
 40
0.0
 40
0.0
 40
0.0
 40
0.0
 40
1.0
 40
1.0
 40
1.0
 40
2.0
 40
2.0
 40
2.0
 40
3.0
 40
3.0
 40
3.0
 40
4.0
 40
4.0
 40
4.0
 40
5.0
 40
5.0
 40
5.0
 40
6.0
 40
6.0
 40
6.0
 40
7.0
 40
7.0
 40
7.0
 40
8.0
 40
8.0
 40
8.0
 40
9.0
 40
9.0
 40
9.0
 40
10.0
 40
10.0
 40
10.0
 40
11.0
 40
11.0
 40
11.0
 40
12.0
 40
12.0
 40
12.0
 40
13.0
 40
13.0
 40
13.0
 40
14.0
 40
14.0
 40
14.0
 40
15.0
 40
15.0
 40
15.0
 40
16.0
 40
16.0
 40
16.0
 40
17.0
 40
17.0
 40
17.0
 40
18.0
 40
18.0
 40
18.0
 40
19.0
 40
19.0
 40
19.0
 40
19.0
 10
94.72668997197806
 20
-109.8468695471911
 10
94.62505965516318
 20
-109.8468695471911
 10
94.3921712003603
 20
-109.825854464731
 10
94.25884600508112
 20
-109.6398193085275
 10
94.17960880892038
 20
-109.5275091957084
 10
94.17513018478955
 20
-109.4281181909589
 10
94.17065156065873
 20
-109.3435410967961
 10
94.17065156065873
 20
-109.3435410967961
 10
94.40560707275277
 20
-109.3435410967961
 10
94.40560707275277
 20
-109.3435410967961
 10
94.40801863959244
 20
-109.4176106497289
 10
94.41938745469376
 20
-109.6522216522744
 10
94.72221134784724
 20
-109.6522216522744
 10
94.8693169250674
 20
-109.6522216522744
 10
95.03192543197119
 20
-109.5826307234724
 10
95.03192543197119
 20
-109.3540486380261
 10
95.03192543197119
 20
-109.2377766653989
 10
94.99127330524524
 20
-109.1890285642826
 10
94.9575113694898
 20
-109.1573336858183
 10
94.87827417332905
 20
-109.0832641328854
 10
94.75390622631153
 20
-109.0706895343643
 10
94.69499509351375
 20
-109.0706895343643
 10
94.67466903015078
 20
-109.0706895343643
 10
94.6364284702645
 20
-109.0727565916554
 10
94.60680064909135
 20
-109.0768907062377
 10
94.60680064909135
 20
-109.0768907062377
 10
94.60680064909135
 20
-108.8822428113211
 10
94.60680064909135
 20
-108.8822428113211
 10
94.64745277581731
 20
-108.8886162379688
 10
94.69292803622261
 20
-108.8908555500342
 10
94.69947371764458
 20
-108.8908555500342
 10
94.76975366554367
 20
-108.8908555500342
 10
94.98231605698359
 20
-108.8696682128
 10
94.98231605698359
 20
-108.6326456434148
 10
94.98231605698359
 20
-108.4550509711501
 10
94.84210067073393
 20
-108.3999294433861
 10
94.7246229146869
 20
-108.3999294433861
 10
94.44178057534789
 20
-108.3999294433861
 10
94.43282332708624
 20
-108.6326456434148
 10
94.42834470295541
 20
-108.7046481390565
 10
94.42834470295541
 20
-108.7046481390565
 10
94.21130368738469
 20
-108.7046481390565
 10
94.21130368738469
 20
-108.7046481390565
 10
94.22026093564632
 20
-108.5797634277162
 10
94.24954424727095
 20
-108.2032144911784
 10
94.73805878707938
 20
-108.2032144911784
 10
94.97783743285277
 20
-108.2032144911784
 10
95.23553057514945
 20
-108.3301662598098
 10
95.23553057514945
 20
-108.626272216767
 10
95.23553057514945
 20
-108.8124796277448
 10
95.13355574878607
 20
-108.8949896646165
 10
95.02744680784036
 20
-108.956312364254
 10
95.0929036220601
 20
-108.983873128136
 10
95.28755151697673
 20
-109.0643161077166
 10
95.28755151697673
 20
-109.3414740395049
 10
95.28755151697673
 20
-109.6797824161564
 10
95.02296818370954
 20
-109.8468695471911
 10
94.72668997197806
 20
-109.8468695471911
 97
        0
 97
        0
 75
     2
 76
     1
 98
        0
  0
SPLINE
  5
9E
330
98
100
AcDbEntity
  8
_U+30EC_U+30A4_U+30E4_U+30FC 1
370
     0
100
AcDbSpline
210
0.0
220
0.0
230
1.0
 70
    11
 71
     3
 72
    29
 73
    25
 74
     0
 42
0.0000000001
 43
0.0000000001
 12
1.0
 22
0.0
 32
0.0
 13
1.0
 23
0.0
 33
0.0
 40
0.0
 40
0.0
 40
0.0
 40
0.0
 40
1.0
 40
1.0
 40
1.0
 40
2.0
 40
2.0
 40
2.0
 40
3.0
 40
3.0
 40
3.0
 40
4.0
 40
4.0
 40
4.0
 40
5.0
 40
5.0
 40
5.0
 40
6.0
 40
6.0
 40
6.0
 40
7.0
 40
7.0
 40
7.0
 40
8.0
 40
8.0
 40
8.0
 40
8.0
 10
95.99345158190442
 20
-109.8468695471911
 30
0.0
 10
95.70854218527425
 20
-109.8468695471911
 30
0.0
 10
95.43741317058509
 20
-109.7094102373296
 30
0.0
 10
95.43741317058509
 20
-109.3604220646738
 30
0.0
 10
95.43741317058509
 20
-109.1044514701197
 30
0.0
 10
95.58899737193609
 20
-109.0091945799526
 30
0.0
 10
95.70199650385229
 20
-108.9478718803151
 30
0.0
 10
95.56867130857312
 20
-108.8886162379688
 30
0.0
 10
95.4870225455727
 20
-108.7744113226328
 30
0.0
 10
95.4870225455727
 20
-108.6136976182459
 30
0.0
 10
95.4870225455727
 20
-108.3386067437487
 30
0.0
 10
95.6995849370126
 20
-108.2032144911784
 30
0.0
 10
95.99345158190442
 20
-108.2032144911784
 30
0.0
 10
96.29661998460641
 20
-108.2032144911784
 30
0.0
 10
96.49988061823615
 20
-108.3470472276876
 30
0.0
 10
96.49988061823615
 20
-108.6136976182459
 30
0.0
 10
96.49988061823615
 20
-108.7744113226328
 30
0.0
 10
96.4165093074931
 20
-108.8886162379688
 30
0.0
 10
96.2828396026654
 20
-108.9478718803151
 30
0.0
 10
96.3779242380583
 20
-108.9986870387226
 30
0.0
 10
96.54742293593259
 20
-109.0939439288897
 30
0.0
 10
96.54742293593259
 20
-109.3562879500915
 30
0.0
 10
96.54742293593259
 20
-109.7307698293381
 30
0.0
 10
96.24907766690995
 20
-109.8468695471911
 30
0.0
 10
95.99345158190442
 20
-109.8468695471911
 30
0.0
  0
SPLINE
  5
9F
330
98
100
AcDbEntity
  8
_U+30EC_U+30A4_U+30E4_U+30FC 1
370
     0
100
AcDbSpline
210
0.0
220
0.0
230
1.0
 70
    11
 71
     3
 72
    17
 73
    13
 74
     0
 42
0.0000000001
 43
0.0000000001
 12
1.0
 22
0.0
 32
0.0
 13
1.0
 23
0.0
 33
0.0
 40
0.0
 40
0.0
 40
0.0
 40
0.0
 40
1.0
 40
1.0
 40
1.0
 40
2.0
 40
2.0
 40
2.0
 40
3.0
 40
3.0
 40
3.0
 40
4.0
 40
4.0
 40
4.0
 40
4.0
 10
95.99345158190442
 20
-109.0558756237777
 30
0.0
 10
95.83980032326228
 20
-109.0558756237777
 30
0.0
 10
95.67719181635849
 20
-109.1425197752317
 30
0.0
 10
95.67719181635849
 20
-109.3456081540872
 30
0.0
 10
95.67719181635849
 20
-109.5509358450081
 30
0.0
 10
95.8125840689288
 20
-109.6522216522744
 30
0.0
 10
95.99345158190442
 20
-109.6522216522744
 30
0.0
 10
96.19257810095186
 20
-109.6522216522744
 30
0.0
 10
96.31005585699889
 20
-109.5295762529996
 30
0.0
 10
96.31005585699889
 20
-109.3519815807349
 30
0.0
 10
96.31005585699889
 20
-109.1297729219363
 30
0.0
 10
96.13607853499376
 20
-109.0558756237777
 30
0.0
 10
95.99345158190442
 20
-109.0558756237777
 30
0.0
  0
SPLINE
  5
A0
330
98
100
AcDbEntity
  8
_U+30EC_U+30A4_U+30E4_U+30FC 1
370
     0
100
AcDbSpline
210
0.0
220
0.0
230
1.0
 70
    11
 71
     3
 72
    17
 73
    13
 74
     0
 42
0.0000000001
 43
0.0000000001
 12
1.0
 22
0.0
 32
0.0
 13
1.0
 23
0.0
 33
0.0
 40
0.0
 40
0.0
 40
0.0
 40
0.0
 40
1.0
 40
1.0
 40
1.0
 40
2.0
 40
2.0
 40
2.0
 40
3.0
 40
3.0
 40
3.0
 40
4.0
 40
4.0
 40
4.0
 40
4.0
 10
95.99345158190442
 20
-108.3957953288038
 30
0.0
 10
95.81740720260815
 20
-108.3957953288038
 30
0.0
 10
95.72680119134608
 20
-108.4908799641967
 30
0.0
 10
95.72680119134608
 20
-108.626272216767
 30
0.0
 10
95.72680119134608
 20
-108.7490898708162
 30
0.0
 10
95.80362682066715
 20
-108.8676011555088
 30
0.0
 10
95.99345158190442
 20
-108.8676011555088
 30
0.0
 10
96.18362085269021
 20
-108.8676011555088
 30
0.0
 10
96.26044648201128
 20
-108.7490898708162
 30
0.0
 10
96.26044648201128
 20
-108.626272216767
 30
0.0
 10
96.26044648201128
 20
-108.4908799641967
 30
0.0
 10
96.16777341345806
 20
-108.3957953288038
 30
0.0
 10
95.99345158190442
 20
-108.3957953288038
 30
0.0
  0
HATCH
  5
A1
330
98
100
AcDbEntity
  8
_U+30EC_U+30A4_U+30E4_U+30FC 1
 62
     7
420
 16777215
100
AcDbHatch
 10
0.0
 20
0.0
 30
0.0
210
0.0
220
0.0
230
1.0
  2
SOLID
 70
     1
 71
     0
 91
        3
 92
        1
 93
        1
 72
     4
 94
        3
 73
     0
 74
     1
 95
       29
 96
       25
 40
0.0
 40
0.0
 40
0.0
 40
0.0
 40
1.0
 40
1.0
 40
1.0
 40
2.0
 40
2.0
 40
2.0
 40
3.0
 40
3.0
 40
3.0
 40
4.0
 40
4.0
 40
4.0
 40
5.0
 40
5.0
 40
5.0
 40
6.0
 40
6.0
 40
6.0
 40
7.0
 40
7.0
 40
7.0
 40
8.0
 40
8.0
 40
8.0
 40
8.0
 10
95.99345158190442
 20
-109.8468695471911
 10
95.70854218527425
 20
-109.8468695471911
 10
95.43741317058509
 20
-109.7094102373296
 10
95.43741317058509
 20
-109.3604220646738
 10
95.43741317058509
 20
-109.1044514701197
 10
95.58899737193609
 20
-109.0091945799526
 10
95.70199650385229
 20
-108.9478718803151
 10
95.56867130857312
 20
-108.8886162379688
 10
95.4870225455727
 20
-108.7744113226328
 10
95.4870225455727
 20
-108.6136976182459
 10
95.4870225455727
 20
-108.3386067437487
 10
95.6995849370126
 20
-108.2032144911784
 10
95.99345158190442
 20
-108.2032144911784
 10
96.29661998460641
 20
-108.2032144911784
 10
96.49988061823615
 20
-108.3470472276876
 10
96.49988061823615
 20
-108.6136976182459
 10
96.49988061823615
 20
-108.7744113226328
 10
96.4165093074931
 20
-108.8886162379688
 10
96.2828396026654
 20
-108.9478718803151
 10
96.3779242380583
 20
-108.9986870387226
 10
96.54742293593259
 20
-109.0939439288897
 10
96.54742293593259
 20
-109.3562879500915
 10
96.54742293593259
 20
-109.7307698293381
 10
96.24907766690995
 20
-109.8468695471911
 10
95.99345158190442
 20
-109.8468695471911
 97
        0
 97
        0
 92
        1
 93
        1
 72
     4
 94
        3
 73
     0
 74
     1
 95
       17
 96
       13
 40
0.0
 40
0.0
 40
0.0
 40
0.0
 40
1.0
 40
1.0
 40
1.0
 40
2.0
 40
2.0
 40
2.0
 40
3.0
 40
3.0
 40
3.0
 40
4.0
 40
4.0
 40
4.0
 40
4.0
 10
95.99345158190442
 20
-109.0558756237777
 10
95.83980032326228
 20
-109.0558756237777
 10
95.67719181635849
 20
-109.1425197752317
 10
95.67719181635849
 20
-109.3456081540872
 10
95.67719181635849
 20
-109.5509358450081
 10
95.8125840689288
 20
-109.6522216522744
 10
95.99345158190442
 20
-109.6522216522744
 10
96.19257810095186
 20
-109.6522216522744
 10
96.31005585699889
 20
-109.5295762529996
 10
96.31005585699889
 20
-109.3519815807349
 10
96.31005585699889
 20
-109.1297729219363
 10
96.13607853499376
 20
-109.0558756237777
 10
95.99345158190442
 20
-109.0558756237777
 97
        0
 97
        0
 92
        1
 93
        1
 72
     4
 94
        3
 73
     0
 74
     1
 95
       17
 96
       13
 40
0.0
 40
0.0
 40
0.0
 40
0.0
 40
1.0
 40
1.0
 40
1.0
 40
2.0
 40
2.0
 40
2.0
 40
3.0
 40
3.0
 40
3.0
 40
4.0
 40
4.0
 40
4.0
 40
4.0
 10
95.99345158190442
 20
-108.3957953288038
 10
95.81740720260815
 20
-108.3957953288038
 10
95.72680119134608
 20
-108.4908799641967
 10
95.72680119134608
 20
-108.626272216767
 10
95.72680119134608
 20
-108.7490898708162
 10
95.80362682066715
 20
-108.8676011555088
 10
95.99345158190442
 20
-108.8676011555088
 10
96.18362085269021
 20
-108.8676011555088
 10
96.26044648201128
 20
-108.7490898708162
 10
96.26044648201128
 20
-108.626272216767
 10
96.26044648201128
 20
-108.4908799641967
 10
96.16777341345806
 20
-108.3957953288038
 10
95.99345158190442
 20
-108.3957953288038
 97
        0
 97
        0
 75
     2
 76
     1
 98
        0
  0
ENDBLK
  5
9B
330
98
100
AcDbEntity
  8
0
100
AcDbBlockEnd
  0
BLOCK
  5
AC
330
AA
100
AcDbEntity
  8
0
100
AcDbBlockBegin
  2
block 4
 70
     0
 10
0.0
 20
0.0
 30
0.0
  3
block 4
  1

  0
SPLINE
  5
AE
330
AA
100
AcDbEntity
  8
_U+30EC_U+30A4_U+30E4_U+30FC 1
370
     0
100
AcDbSpline
210
0.0
220
0.0
230
1.0
 70
    11
 71
     3
 72
    26
 73
    22
 74
     0
 42
0.0000000001
 43
0.0000000001
 12
1.0
 22
0.0
 32
0.0
 13
1.0
 23
0.0
 33
0.0
 40
0.0
 40
0.0
 40
0.0
 40
0.0
 40
1.0
 40
1.0
 40
1.0
 40
2.0
 40
2.0
 40
2.0
 40
3.0
 40
3.0
 40
3.0
 40
4.0
 40
4.0
 40
4.0
 40
5.0
 40
5.0
 40
5.0
 40
6.0
 40
6.0
 40
6.0
 40
7.0
 40
7.0
 40
7.0
 40
7.0
 10
77.5919908117652
 20
-114.9774779985994
 30
0.0
 10
77.5919908117652
 20
-114.9774779985994
 30
0.0
 10
77.5919908117652
 20
-113.8731526408025
 30
0.0
 10
77.5919908117652
 20
-113.8731526408025
 30
0.0
 10
77.5919908117652
 20
-113.8731526408025
 30
0.0
 10
77.23921303407562
 20
-113.8731526408025
 30
0.0
 10
77.23921303407562
 20
-113.8731526408025
 30
0.0
 10
77.23921303407562
 20
-113.8731526408025
 30
0.0
 10
77.23921303407562
 20
-113.7250135349368
 30
0.0
 10
77.23921303407562
 20
-113.7250135349368
 30
0.0
 10
77.59423012383061
 20
-113.7103718791245
 30
0.0
 10
77.64401175359248
 20
-113.5474188626722
 30
0.0
 10
77.6755343772825
 20
-113.4332139473361
 30
0.0
 10
77.6755343772825
 20
-113.4332139473361
 30
0.0
 10
77.83159720276433
 20
-113.4332139473361
 30
0.0
 10
77.83159720276433
 20
-113.4332139473361
 30
0.0
 10
77.83159720276433
 20
-113.4332139473361
 30
0.0
 10
77.83159720276433
 20
-114.9774779985994
 30
0.0
 10
77.83159720276433
 20
-114.9774779985994
 30
0.0
 10
77.83159720276433
 20
-114.9774779985994
 30
0.0
 10
77.5919908117652
 20
-114.9774779985994
 30
0.0
 10
77.5919908117652
 20
-114.9774779985994
 30
0.0
  0
HATCH
  5
AF
330
AA
100
AcDbEntity
  8
_U+30EC_U+30A4_U+30E4_U+30FC 1
 62
     7
420
 16777215
100
AcDbHatch
 10
0.0
 20
0.0
 30
0.0
210
0.0
220
0.0
230
1.0
  2
SOLID
 70
     1
 71
     0
 91
        1
 92
        1
 93
        1
 72
     4
 94
        3
 73
     0
 74
     1
 95
       26
 96
       22
 40
0.0
 40
0.0
 40
0.0
 40
0.0
 40
1.0
 40
1.0
 40
1.0
 40
2.0
 40
2.0
 40
2.0
 40
3.0
 40
3.0
 40
3.0
 40
4.0
 40
4.0
 40
4.0
 40
5.0
 40
5.0
 40
5.0
 40
6.0
 40
6.0
 40
6.0
 40
7.0
 40
7.0
 40
7.0
 40
7.0
 10
77.5919908117652
 20
-114.9774779985994
 10
77.5919908117652
 20
-114.9774779985994
 10
77.5919908117652
 20
-113.8731526408025
 10
77.5919908117652
 20
-113.8731526408025
 10
77.5919908117652
 20
-113.8731526408025
 10
77.23921303407562
 20
-113.8731526408025
 10
77.23921303407562
 20
-113.8731526408025
 10
77.23921303407562
 20
-113.8731526408025
 10
77.23921303407562
 20
-113.7250135349368
 10
77.23921303407562
 20
-113.7250135349368
 10
77.59423012383061
 20
-113.7103718791245
 10
77.64401175359248
 20
-113.5474188626722
 10
77.6755343772825
 20
-113.4332139473361
 10
77.6755343772825
 20
-113.4332139473361
 10
77.83159720276433
 20
-113.4332139473361
 10
77.83159720276433
 20
-113.4332139473361
 10
77.83159720276433
 20
-113.4332139473361
 10
77.83159720276433
 20
-114.9774779985994
 10
77.83159720276433
 20
-114.9774779985994
 10
77.83159720276433
 20
-114.9774779985994
 10
77.5919908117652
 20
-114.9774779985994
 10
77.5919908117652
 20
-114.9774779985994
 97
        0
 97
        0
 75
     2
 76
     1
 98
        0
  0
ENDBLK
  5
AD
330
AA
100
AcDbEntity
  8
0
100
AcDbBlockEnd
  0
BLOCK
  5
BE
330
BC
100
AcDbEntity
  8
0
100
AcDbBlockBegin
  2
block 5
 70
     0
 10
0.0
 20
0.0
 30
0.0
  3
block 5
  1

  0
SPLINE
  5
C0
330
BC
100
AcDbEntity
  8
_U+30EC_U+30A4_U+30E4_U+30FC 1
370
     0
100
AcDbSpline
210
0.0
220
0.0
230
1.0
 70
    11
 71
     3
 72
    62
 73
    58
 74
     0
 42
0.0000000001
 43
0.0000000001
 12
1.0
 22
0.0
 32
0.0
 13
1.0
 23
0.0
 33
0.0
 40
0.0
 40
0.0
 40
0.0
 40
0.0
 40
1.0
 40
1.0
 40
1.0
 40
2.0
 40
2.0
 40
2.0
 40
3.0
 40
3.0
 40
3.0
 40
4.0
 40
4.0
 40
4.0
 40
5.0
 40
5.0
 40
5.0
 40
6.0
 40
6.0
 40
6.0
 40
7.0
 40
7.0
 40
7.0
 40
8.0
 40
8.0
 40
8.0
 40
9.0
 40
9.0
 40
9.0
 40
10.0
 40
10.0
 40
10.0
 40
11.0
 40
11.0
 40
11.0
 40
12.0
 40
12.0
 40
12.0
 40
13.0
 40
13.0
 40
13.0
 40
14.0
 40
14.0
 40
14.0
 40
15.0
 40
15.0
 40
15.0
 40
16.0
 40
16.0
 40
16.0
 40
17.0
 40
17.0
 40
17.0
 40
18.0
 40
18.0
 40
18.0
 40
19.0
 40
19.0
 40
19.0
 40
19.0
 10
70.81876083298975
 20
-130.8846896374177
 30
0.0
 10
70.81876083298975
 20
-130.9863199542326
 30
0.0
 10
70.79757349575547
 20
-131.2192084090355
 30
0.0
 10
70.61136608477771
 20
-131.3525336043147
 30
0.0
 10
70.49922822673284
 20
-131.4317708004754
 30
0.0
 10
70.39983722198338
 20
-131.4362494246062
 30
0.0
 10
70.3152601278205
 20
-131.440728048737
 30
0.0
 10
70.3152601278205
 20
-131.440728048737
 30
0.0
 10
70.3152601278205
 20
-131.205772536643
 30
0.0
 10
70.3152601278205
 20
-131.205772536643
 30
0.0
 10
70.38932968075336
 20
-131.2033609698033
 30
0.0
 10
70.62411293807314
 20
-131.191992154702
 30
0.0
 10
70.62411293807314
 20
-130.8891682615485
 30
0.0
 10
70.62411293807314
 20
-130.7420626843284
 30
0.0
 10
70.55434975449683
 20
-130.5794541774246
 30
0.0
 10
70.3257676690505
 20
-130.5794541774246
 30
0.0
 10
70.20949569642332
 20
-130.5794541774246
 30
0.0
 10
70.16074759530704
 20
-130.6201063041505
 30
0.0
 10
70.12905271684274
 20
-130.653868239906
 30
0.0
 10
70.05498316390987
 20
-130.7331054360667
 30
0.0
 10
70.04240856538871
 20
-130.8574733830843
 30
0.0
 10
70.04240856538871
 20
-130.916384515882
 30
0.0
 10
70.04240856538871
 20
-130.936710579245
 30
0.0
 10
70.04447562267985
 20
-130.9749511391313
 30
0.0
 10
70.04860973726215
 20
-131.0045789603044
 30
0.0
 10
70.04860973726215
 20
-131.0045789603044
 30
0.0
 10
69.8541340971198
 20
-131.0045789603044
 30
0.0
 10
69.8541340971198
 20
-131.0045789603044
 30
0.0
 10
69.86033526899325
 20
-130.9639268335785
 30
0.0
 10
69.86257458105867
 20
-130.9184515731732
 30
0.0
 10
69.86257458105867
 20
-130.9119058917512
 30
0.0
 10
69.86257458105867
 20
-130.8416259438521
 30
0.0
 10
69.84138724382439
 20
-130.6290635524122
 30
0.0
 10
69.6043646744392
 20
-130.6290635524122
 30
0.0
 10
69.42677000217456
 20
-130.6290635524122
 30
0.0
 10
69.37164847441056
 20
-130.7692789386618
 30
0.0
 10
69.37164847441056
 20
-130.8867566947089
 30
0.0
 10
69.37164847441056
 20
-131.1695990340479
 30
0.0
 10
69.6043646744392
 20
-131.1785562823095
 30
0.0
 10
69.67636717008091
 20
-131.1830349064404
 30
0.0
 10
69.67636717008091
 20
-131.1830349064404
 30
0.0
 10
69.67636717008091
 20
-131.4000759220111
 30
0.0
 10
69.67636717008091
 20
-131.4000759220111
 30
0.0
 10
69.55148245874061
 20
-131.3911186737494
 30
0.0
 10
69.17493352220279
 20
-131.3618353621248
 30
0.0
 10
69.17493352220279
 20
-130.8733208223164
 30
0.0
 10
69.17493352220279
 20
-130.633542176543
 30
0.0
 10
69.30188529083425
 20
-130.3758490342463
 30
0.0
 10
69.59799124779148
 20
-130.3758490342463
 30
0.0
 10
69.78419865876923
 20
-130.3758490342463
 30
0.0
 10
69.86670869564097
 20
-130.4778238606097
 30
0.0
 10
69.92803139527841
 20
-130.5839328015554
 30
0.0
 10
69.95559215916042
 20
-130.5184759873357
 30
0.0
 10
70.036035138741
 20
-130.323828092419
 30
0.0
 10
70.31319307052934
 20
-130.323828092419
 30
0.0
 10
70.65167370195515
 20
-130.323828092419
 30
0.0
 10
70.81876083298975
 20
-130.5884114256862
 30
0.0
 10
70.81876083298975
 20
-130.8846896374177
 30
0.0
  0
HATCH
  5
C1
330
BC
100
AcDbEntity
  8
_U+30EC_U+30A4_U+30E4_U+30FC 1
 62
     7
420
 16777215
100
AcDbHatch
 10
0.0
 20
0.0
 30
0.0
210
0.0
220
0.0
230
1.0
  2
SOLID
 70
     1
 71
     0
 91
        1
 92
        1
 93
        1
 72
     4
 94
        3
 73
     0
 74
     1
 95
       62
 96
       58
 40
0.0
 40
0.0
 40
0.0
 40
0.0
 40
1.0
 40
1.0
 40
1.0
 40
2.0
 40
2.0
 40
2.0
 40
3.0
 40
3.0
 40
3.0
 40
4.0
 40
4.0
 40
4.0
 40
5.0
 40
5.0
 40
5.0
 40
6.0
 40
6.0
 40
6.0
 40
7.0
 40
7.0
 40
7.0
 40
8.0
 40
8.0
 40
8.0
 40
9.0
 40
9.0
 40
9.0
 40
10.0
 40
10.0
 40
10.0
 40
11.0
 40
11.0
 40
11.0
 40
12.0
 40
12.0
 40
12.0
 40
13.0
 40
13.0
 40
13.0
 40
14.0
 40
14.0
 40
14.0
 40
15.0
 40
15.0
 40
15.0
 40
16.0
 40
16.0
 40
16.0
 40
17.0
 40
17.0
 40
17.0
 40
18.0
 40
18.0
 40
18.0
 40
19.0
 40
19.0
 40
19.0
 40
19.0
 10
70.81876083298975
 20
-130.8846896374177
 10
70.81876083298975
 20
-130.9863199542326
 10
70.79757349575547
 20
-131.2192084090355
 10
70.61136608477771
 20
-131.3525336043147
 10
70.49922822673284
 20
-131.4317708004754
 10
70.39983722198338
 20
-131.4362494246062
 10
70.3152601278205
 20
-131.440728048737
 10
70.3152601278205
 20
-131.440728048737
 10
70.3152601278205
 20
-131.205772536643
 10
70.3152601278205
 20
-131.205772536643
 10
70.38932968075336
 20
-131.2033609698033
 10
70.62411293807314
 20
-131.191992154702
 10
70.62411293807314
 20
-130.8891682615485
 10
70.62411293807314
 20
-130.7420626843284
 10
70.55434975449683
 20
-130.5794541774246
 10
70.3257676690505
 20
-130.5794541774246
 10
70.20949569642332
 20
-130.5794541774246
 10
70.16074759530704
 20
-130.6201063041505
 10
70.12905271684274
 20
-130.653868239906
 10
70.05498316390987
 20
-130.7331054360667
 10
70.04240856538871
 20
-130.8574733830843
 10
70.04240856538871
 20
-130.916384515882
 10
70.04240856538871
 20
-130.936710579245
 10
70.04447562267985
 20
-130.9749511391313
 10
70.04860973726215
 20
-131.0045789603044
 10
70.04860973726215
 20
-131.0045789603044
 10
69.8541340971198
 20
-131.0045789603044
 10
69.8541340971198
 20
-131.0045789603044
 10
69.86033526899325
 20
-130.9639268335785
 10
69.86257458105867
 20
-130.9184515731732
 10
69.86257458105867
 20
-130.9119058917512
 10
69.86257458105867
 20
-130.8416259438521
 10
69.84138724382439
 20
-130.6290635524122
 10
69.6043646744392
 20
-130.6290635524122
 10
69.42677000217456
 20
-130.6290635524122
 10
69.37164847441056
 20
-130.7692789386618
 10
69.37164847441056
 20
-130.8867566947089
 10
69.37164847441056
 20
-131.1695990340479
 10
69.6043646744392
 20
-131.1785562823095
 10
69.67636717008091
 20
-131.1830349064404
 10
69.67636717008091
 20
-131.1830349064404
 10
69.67636717008091
 20
-131.4000759220111
 10
69.67636717008091
 20
-131.4000759220111
 10
69.55148245874061
 20
-131.3911186737494
 10
69.17493352220279
 20
-131.3618353621248
 10
69.17493352220279
 20
-130.8733208223164
 10
69.17493352220279
 20
-130.633542176543
 10
69.30188529083425
 20
-130.3758490342463
 10
69.59799124779148
 20
-130.3758490342463
 10
69.78419865876923
 20
-130.3758490342463
 10
69.86670869564097
 20
-130.4778238606097
 10
69.92803139527841
 20
-130.5839328015554
 10
69.95559215916042
 20
-130.5184759873357
 10
70.036035138741
 20
-130.323828092419
 10
70.31319307052934
 20
-130.323828092419
 10
70.65167370195515
 20
-130.323828092419
 10
70.81876083298975
 20
-130.5884114256862
 10
70.81876083298975
 20
-130.8846896374177
 97
        0
 97
        0
 75
     2
 76
     1
 98
        0
  0
SPLINE
  5
C2
330
BC
100
AcDbEntity
  8
_U+30EC_U+30A4_U+30E4_U+30FC 1
370
     0
100
AcDbSpline
210
0.0
220
0.0
230
1.0
 70
    11
 71
     3
 72
    26
 73
    22
 74
     0
 42
0.0000000001
 43
0.0000000001
 12
1.0
 22
0.0
 32
0.0
 13
1.0
 23
0.0
 33
0.0
 40
0.0
 40
0.0
 40
0.0
 40
0.0
 40
1.0
 40
1.0
 40
1.0
 40
2.0
 40
2.0
 40
2.0
 40
3.0
 40
3.0
 40
3.0
 40
4.0
 40
4.0
 40
4.0
 40
5.0
 40
5.0
 40
5.0
 40
6.0
 40
6.0
 40
6.0
 40
7.0
 40
7.0
 40
7.0
 40
7.0
 10
70.76794567458232
 20
-129.6699489693186
 30
0.0
 10
70.76794567458232
 20
-129.6699489693186
 30
0.0
 10
69.66362031678548
 20
-129.6699489693186
 30
0.0
 10
69.66362031678548
 20
-129.6699489693186
 30
0.0
 10
69.66362031678548
 20
-129.6699489693186
 30
0.0
 10
69.66362031678548
 20
-130.0223822374597
 30
0.0
 10
69.66362031678548
 20
-130.0223822374597
 30
0.0
 10
69.66362031678548
 20
-130.0223822374597
 30
0.0
 10
69.51548121091975
 20
-130.0223822374597
 30
0.0
 10
69.51548121091975
 20
-130.0223822374597
 30
0.0
 10
69.50083955510743
 20
-129.667537402479
 30
0.0
 10
69.33788653865511
 20
-129.6179280274914
 30
0.0
 10
69.22368162331908
 20
-129.5862331490271
 30
0.0
 10
69.22368162331908
 20
-129.5862331490271
 30
0.0
 10
69.22368162331908
 20
-129.4301703235452
 30
0.0
 10
69.22368162331908
 20
-129.4301703235452
 30
0.0
 10
69.22368162331908
 20
-129.4301703235452
 30
0.0
 10
70.76794567458232
 20
-129.4301703235452
 30
0.0
 10
70.76794567458232
 20
-129.4301703235452
 30
0.0
 10
70.76794567458232
 20
-129.4301703235452
 30
0.0
 10
70.76794567458232
 20
-129.6699489693186
 30
0.0
 10
70.76794567458232
 20
-129.6699489693186
 30
0.0
  0
HATCH
  5
C3
330
BC
100
AcDbEntity
  8
_U+30EC_U+30A4_U+30E4_U+30FC 1
 62
     7
420
 16777215
100
AcDbHatch
 10
0.0
 20
0.0
 30
0.0
210
0.0
220
0.0
230
1.0
  2
SOLID
 70
     1
 71
     0
 91
        1
 92
        1
 93
        1
 72
     4
 94
        3
 73
     0
 74
     1
 95
       26
 96
       22
 40
0.0
 40
0.0
 40
0.0
 40
0.0
 40
1.0
 40
1.0
 40
1.0
 40
2.0
 40
2.0
 40
2.0
 40
3.0
 40
3.0
 40
3.0
 40
4.0
 40
4.0
 40
4.0
 40
5.0
 40
5.0
 40
5.0
 40
6.0
 40
6.0
 40
6.0
 40
7.0
 40
7.0
 40
7.0
 40
7.0
 10
70.76794567458232
 20
-129.6699489693186
 10
70.76794567458232
 20
-129.6699489693186
 10
69.66362031678548
 20
-129.6699489693186
 10
69.66362031678548
 20
-129.6699489693186
 10
69.66362031678548
 20
-129.6699489693186
 10
69.66362031678548
 20
-130.0223822374597
 10
69.66362031678548
 20
-130.0223822374597
 10
69.66362031678548
 20
-130.0223822374597
 10
69.51548121091975
 20
-130.0223822374597
 10
69.51548121091975
 20
-130.0223822374597
 10
69.50083955510743
 20
-129.667537402479
 10
69.33788653865511
 20
-129.6179280274914
 10
69.22368162331908
 20
-129.5862331490271
 10
69.22368162331908
 20
-129.5862331490271
 10
69.22368162331908
 20
-129.4301703235452
 10
69.22368162331908
 20
-129.4301703235452
 10
69.22368162331908
 20
-129.4301703235452
 10
70.76794567458232
 20
-129.4301703235452
 10
70.76794567458232
 20
-129.4301703235452
 10
70.76794567458232
 20
-129.4301703235452
 10
70.76794567458232
 20
-129.6699489693186
 10
70.76794567458232
 20
-129.6699489693186
 97
        0
 97
        0
 75
     2
 76
     1
 98
        0
  0
POLYLINE
  5
C4
330
BC
100
AcDbEntity
  8
_U+30EC_U+30A4_U+30E4_U+30FC 1
370
     0
100
AcDb2dPolyline
 66
     1
 10
0.0
 20
0.0
 30
0.0
  0
VERTEX
  5
C5
330
C4
100
AcDbEntity
  8
_U+30EC_U+30A4_U+30E4_U+30FC 1
370
     0
100
AcDbVertex
100
AcDb2dVertex
 10
70.76794567458232
 20
-128.8303791995633
 30
0.0
  0
VERTEX
  5
C6
330
C4
100
AcDbEntity
  8
_U+30EC_U+30A4_U+30E4_U+30FC 1
370
     0
100
AcDbVertex
100
AcDb2dVertex
 10
70.51628144938482
 20
-128.8303791995633
 30
0.0
  0
VERTEX
  5
C7
330
C4
100
AcDbEntity
  8
_U+30EC_U+30A4_U+30E4_U+30FC 1
370
     0
100
AcDbVertex
100
AcDb2dVertex
 10
70.51628144938482
 20
-128.5613172421652
 30
0.0
  0
VERTEX
  5
C8
330
C4
100
AcDbEntity
  8
_U+30EC_U+30A4_U+30E4_U+30FC 1
370
     0
100
AcDbVertex
100
AcDb2dVertex
 10
70.76794567458232
 20
-128.5613172421652
 30
0.0
  0
VERTEX
  5
C9
330
C4
100
AcDbEntity
  8
_U+30EC_U+30A4_U+30E4_U+30FC 1
370
     0
100
AcDbVertex
100
AcDb2dVertex
 10
70.76794567458232
 20
-128.8303791995633
 30
0.0
  0
SEQEND
  5
CA
330
C4
100
AcDbEntity
  8
_U+30EC_U+30A4_U+30E4_U+30FC 1
370
     0
  0
HATCH
  5
CB
330
BC
100
AcDbEntity
  8
_U+30EC_U+30A4_U+30E4_U+30FC 1
 62
     7
420
 16777215
100
AcDbHatch
 10
0.0
 20
0.0
 30
0.0
210
0.0
220
0.0
230
1.0
  2
SOLID
 70
     1
 71
     0
 91
        1
 92
        1
 93
        4
 72
     1
 10
70.76794567458232
 20
-128.8303791995633
 11
70.51628144938482
 21
-128.8303791995633
 72
     1
 10
70.51628144938482
 20
-128.8303791995633
 11
70.51628144938482
 21
-128.5613172421652
 72
     1
 10
70.51628144938482
 20
-128.5613172421652
 11
70.76794567458232
 21
-128.5613172421652
 72
     1
 10
70.76794567458232
 20
-128.5613172421652
 11
70.76794567458232
 21
-128.8303791995633
 97
        0
 75
     2
 76
     1
 98
        0
  0
SPLINE
  5
CC
330
BC
100
AcDbEntity
  8
_U+30EC_U+30A4_U+30E4_U+30FC 1
370
     0
100
AcDbSpline
210
0.0
220
0.0
230
1.0
 70
    11
 71
     3
 72
    53
 73
    49
 74
     0
 42
0.0000000001
 43
0.0000000001
 12
1.0
 22
0.0
 32
0.0
 13
1.0
 23
0.0
 33
0.0
 40
0.0
 40
0.0
 40
0.0
 40
0.0
 40
1.0
 40
1.0
 40
1.0
 40
2.0
 40
2.0
 40
2.0
 40
3.0
 40
3.0
 40
3.0
 40
4.0
 40
4.0
 40
4.0
 40
5.0
 40
5.0
 40
5.0
 40
6.0
 40
6.0
 40
6.0
 40
7.0
 40
7.0
 40
7.0
 40
8.0
 40
8.0
 40
8.0
 40
9.0
 40
9.0
 40
9.0
 40
10.0
 40
10.0
 40
10.0
 40
11.0
 40
11.0
 40
11.0
 40
12.0
 40
12.0
 40
12.0
 40
13.0
 40
13.0
 40
13.0
 40
14.0
 40
14.0
 40
14.0
 40
15.0
 40
15.0
 40
15.0
 40
16.0
 40
16.0
 40
16.0
 40
16.0
 10
70.81876083298975
 20
-127.7944389871486
 30
0.0
 10
70.81876083298975
 20
-127.8778102978917
 30
0.0
 10
70.80187986511203
 20
-127.9866753152256
 30
0.0
 10
70.73831785340917
 20
-128.0948513134624
 30
0.0
 10
70.62824705265544
 20
-128.2805419601174
 30
0.0
 10
70.49716116944168
 20
-128.3029350807715
 30
0.0
 10
70.38932968075336
 20
-128.3232611441345
 30
0.0
 10
70.38932968075336
 20
-128.3232611441345
 30
0.0
 10
70.38932968075336
 20
-128.0858940652008
 30
0.0
 10
70.38932968075336
 20
-128.0858940652008
 30
0.0
 10
70.58811169025228
 20
-128.0273274419515
 30
0.0
 10
70.61773951142543
 20
-127.8915906798327
 30
0.0
 10
70.61773951142543
 20
-127.7920274203089
 30
0.0
 10
70.61773951142543
 20
-127.6428547857976
 30
0.0
 10
70.51834850667598
 20
-127.4802462788938
 30
0.0
 10
70.28563230664734
 20
-127.4802462788938
 30
0.0
 10
70.02966171209329
 20
-127.4802462788938
 30
0.0
 10
69.95989852851697
 20
-127.6721380974222
 30
0.0
 10
69.95989852851697
 20
-127.8009846685706
 30
0.0
 10
69.95989852851697
 20
-127.8350911138746
 30
0.0
 10
69.95989852851697
 20
-127.9866753152256
 30
0.0
 10
70.08891735443957
 20
-128.0814154410699
 30
0.0
 10
70.08891735443957
 20
-128.0814154410699
 30
0.0
 10
70.06979707449645
 20
-128.2691731450161
 30
0.0
 10
70.06979707449645
 20
-128.2691731450161
 30
0.0
 10
70.06979707449645
 20
-128.2691731450161
 30
0.0
 10
69.22368162331908
 20
-128.1403265738677
 30
0.0
 10
69.22368162331908
 20
-128.1403265738677
 30
0.0
 10
69.22368162331908
 20
-128.1403265738677
 30
0.0
 10
69.22368162331908
 20
-127.3083360141799
 30
0.0
 10
69.22368162331908
 20
-127.3083360141799
 30
0.0
 10
69.22368162331908
 20
-127.3083360141799
 30
0.0
 10
69.4183295182357
 20
-127.3083360141799
 30
0.0
 10
69.4183295182357
 20
-127.3083360141799
 30
0.0
 10
69.4183295182357
 20
-127.3083360141799
 30
0.0
 10
69.4183295182357
 20
-127.9660047423141
 30
0.0
 10
69.4183295182357
 20
-127.9660047423141
 30
0.0
 10
69.4183295182357
 20
-127.9660047423141
 30
0.0
 10
69.84138724382439
 20
-128.0362846902132
 30
0.0
 10
69.84138724382439
 20
-128.0362846902132
 30
0.0
 10
69.80745305329467
 20
-127.9708278759934
 30
0.0
 10
69.7673176908915
 20
-127.882633431571
 30
0.0
 10
69.7673176908915
 20
-127.7558539177138
 30
0.0
 10
69.7673176908915
 20
-127.4847249030247
 30
0.0
 10
69.95352510186926
 20
-127.2315103848588
 30
0.0
 10
70.2665120267042
 20
-127.2315103848588
 30
0.0
 10
70.58397757566998
 20
-127.2315103848588
 30
0.0
 10
70.81876083298975
 20
-127.4709445210837
 30
0.0
 10
70.81876083298975
 20
-127.7944389871486
 30
0.0
  0
HATCH
  5
CD
330
BC
100
AcDbEntity
  8
_U+30EC_U+30A4_U+30E4_U+30FC 1
 62
     7
420
 16777215
100
AcDbHatch
 10
0.0
 20
0.0
 30
0.0
210
0.0
220
0.0
230
1.0
  2
SOLID
 70
     1
 71
     0
 91
        1
 92
        1
 93
        1
 72
     4
 94
        3
 73
     0
 74
     1
 95
       53
 96
       49
 40
0.0
 40
0.0
 40
0.0
 40
0.0
 40
1.0
 40
1.0
 40
1.0
 40
2.0
 40
2.0
 40
2.0
 40
3.0
 40
3.0
 40
3.0
 40
4.0
 40
4.0
 40
4.0
 40
5.0
 40
5.0
 40
5.0
 40
6.0
 40
6.0
 40
6.0
 40
7.0
 40
7.0
 40
7.0
 40
8.0
 40
8.0
 40
8.0
 40
9.0
 40
9.0
 40
9.0
 40
10.0
 40
10.0
 40
10.0
 40
11.0
 40
11.0
 40
11.0
 40
12.0
 40
12.0
 40
12.0
 40
13.0
 40
13.0
 40
13.0
 40
14.0
 40
14.0
 40
14.0
 40
15.0
 40
15.0
 40
15.0
 40
16.0
 40
16.0
 40
16.0
 40
16.0
 10
70.81876083298975
 20
-127.7944389871486
 10
70.81876083298975
 20
-127.8778102978917
 10
70.80187986511203
 20
-127.9866753152256
 10
70.73831785340917
 20
-128.0948513134624
 10
70.62824705265544
 20
-128.2805419601174
 10
70.49716116944168
 20
-128.3029350807715
 10
70.38932968075336
 20
-128.3232611441345
 10
70.38932968075336
 20
-128.3232611441345
 10
70.38932968075336
 20
-128.0858940652008
 10
70.38932968075336
 20
-128.0858940652008
 10
70.58811169025228
 20
-128.0273274419515
 10
70.61773951142543
 20
-127.8915906798327
 10
70.61773951142543
 20
-127.7920274203089
 10
70.61773951142543
 20
-127.6428547857976
 10
70.51834850667598
 20
-127.4802462788938
 10
70.28563230664734
 20
-127.4802462788938
 10
70.02966171209329
 20
-127.4802462788938
 10
69.95989852851697
 20
-127.6721380974222
 10
69.95989852851697
 20
-127.8009846685706
 10
69.95989852851697
 20
-127.8350911138746
 10
69.95989852851697
 20
-127.9866753152256
 10
70.08891735443957
 20
-128.0814154410699
 10
70.08891735443957
 20
-128.0814154410699
 10
70.06979707449645
 20
-128.2691731450161
 10
70.06979707449645
 20
-128.2691731450161
 10
70.06979707449645
 20
-128.2691731450161
 10
69.22368162331908
 20
-128.1403265738677
 10
69.22368162331908
 20
-128.1403265738677
 10
69.22368162331908
 20
-128.1403265738677
 10
69.22368162331908
 20
-127.3083360141799
 10
69.22368162331908
 20
-127.3083360141799
 10
69.22368162331908
 20
-127.3083360141799
 10
69.4183295182357
 20
-127.3083360141799
 10
69.4183295182357
 20
-127.3083360141799
 10
69.4183295182357
 20
-127.3083360141799
 10
69.4183295182357
 20
-127.9660047423141
 10
69.4183295182357
 20
-127.9660047423141
 10
69.4183295182357
 20
-127.9660047423141
 10
69.84138724382439
 20
-128.0362846902132
 10
69.84138724382439
 20
-128.0362846902132
 10
69.80745305329467
 20
-127.9708278759934
 10
69.7673176908915
 20
-127.882633431571
 10
69.7673176908915
 20
-127.7558539177138
 10
69.7673176908915
 20
-127.4847249030247
 10
69.95352510186926
 20
-127.2315103848588
 10
70.2665120267042
 20
-127.2315103848588
 10
70.58397757566998
 20
-127.2315103848588
 10
70.81876083298975
 20
-127.4709445210837
 10
70.81876083298975
 20
-127.7944389871486
 97
        0
 97
        0
 75
     2
 76
     1
 98
        0
  0
ENDBLK
  5
BF
330
BC
100
AcDbEntity
  8
0
100
AcDbBlockEnd
  0
BLOCK
  5
DC
330
DA
100
AcDbEntity
  8
0
100
AcDbBlockBegin
  2
block 6
 70
     0
 10
0.0
 20
0.0
 30
0.0
  3
block 6
  1

  0
SPLINE
  5
DE
330
DA
100
AcDbEntity
  8
_U+30EC_U+30A4_U+30E4_U+30FC 1
370
     0
100
AcDbSpline
210
0.0
220
0.0
230
1.0
 70
    11
 71
     3
 72
    62
 73
    58
 74
     0
 42
0.0000000001
 43
0.0000000001
 12
1.0
 22
0.0
 32
0.0
 13
1.0
 23
0.0
 33
0.0
 40
0.0
 40
0.0
 40
0.0
 40
0.0
 40
1.0
 40
1.0
 40
1.0
 40
2.0
 40
2.0
 40
2.0
 40
3.0
 40
3.0
 40
3.0
 40
4.0
 40
4.0
 40
4.0
 40
5.0
 40
5.0
 40
5.0
 40
6.0
 40
6.0
 40
6.0
 40
7.0
 40
7.0
 40
7.0
 40
8.0
 40
8.0
 40
8.0
 40
9.0
 40
9.0
 40
9.0
 40
10.0
 40
10.0
 40
10.0
 40
11.0
 40
11.0
 40
11.0
 40
12.0
 40
12.0
 40
12.0
 40
13.0
 40
13.0
 40
13.0
 40
14.0
 40
14.0
 40
14.0
 40
15.0
 40
15.0
 40
15.0
 40
16.0
 40
16.0
 40
16.0
 40
17.0
 40
17.0
 40
17.0
 40
18.0
 40
18.0
 40
18.0
 40
19.0
 40
19.0
 40
19.0
 40
19.0
 10
89.55456811997247
 20
-148.5277126364792
 30
0.0
 10
89.4529378031576
 20
-148.5277126364792
 30
0.0
 10
89.22004934835472
 20
-148.5066975540192
 30
0.0
 10
89.08672415307555
 20
-148.3206623978157
 30
0.0
 10
89.0074869569148
 20
-148.2083522849965
 30
0.0
 10
89.00300833278398
 20
-148.1091335350213
 30
0.0
 10
88.99852970865315
 20
-148.0243841860842
 30
0.0
 10
88.99852970865315
 20
-148.0243841860842
 30
0.0
 10
89.23348522074718
 20
-148.0243841860842
 30
0.0
 10
89.23348522074718
 20
-148.0243841860842
 30
0.0
 10
89.23589678758687
 20
-148.0984537390171
 30
0.0
 10
89.24726560268819
 20
-148.3330647415626
 30
0.0
 10
89.55008949584165
 20
-148.3330647415626
 30
0.0
 10
89.69719507306182
 20
-148.3330647415626
 30
0.0
 10
89.85980357996561
 20
-148.2634738127605
 30
0.0
 10
89.85980357996561
 20
-148.0350639820885
 30
0.0
 10
89.85980357996561
 20
-147.918619754687
 30
0.0
 10
89.81915145323966
 20
-147.870043908345
 30
0.0
 10
89.7850450079357
 20
-147.8383490298807
 30
0.0
 10
89.70615232132347
 20
-147.7642794769478
 30
0.0
 10
89.58178437430594
 20
-147.7515326236524
 30
0.0
 10
89.52287324150818
 20
-147.7515326236524
 30
0.0
 10
89.5025471781452
 20
-147.7515326236524
 30
0.0
 10
89.46430661825893
 20
-147.7535996809436
 30
0.0
 10
89.43467879708578
 20
-147.7577337955258
 30
0.0
 10
89.43467879708578
 20
-147.7577337955258
 30
0.0
 10
89.43467879708578
 20
-147.5630859006092
 30
0.0
 10
89.43467879708578
 20
-147.5630859006092
 30
0.0
 10
89.47533092381173
 20
-147.5696315820312
 30
0.0
 10
89.52080618421702
 20
-147.5716986393224
 30
0.0
 10
89.527351865639
 20
-147.5716986393224
 30
0.0
 10
89.5976318135381
 20
-147.5716986393224
 30
0.0
 10
89.81019420497802
 20
-147.5503390473138
 30
0.0
 10
89.81019420497802
 20
-147.3136609874771
 30
0.0
 10
89.81019420497802
 20
-147.1358940604383
 30
0.0
 10
89.66997881872834
 20
-147.0807725326742
 30
0.0
 10
89.55250106268133
 20
-147.0807725326742
 30
0.0
 10
89.26965872334232
 20
-147.0807725326742
 30
0.0
 10
89.26070147508067
 20
-147.3136609874771
 30
0.0
 10
89.25622285094984
 20
-147.3853189735703
 30
0.0
 10
89.25622285094984
 20
-147.3853189735703
 30
0.0
 10
89.0391818353791
 20
-147.3853189735703
 30
0.0
 10
89.0391818353791
 20
-147.3853189735703
 30
0.0
 10
89.04813908364075
 20
-147.2606065170043
 30
0.0
 10
89.07742239526537
 20
-146.8840575804665
 30
0.0
 10
89.5659369350738
 20
-146.8840575804665
 30
0.0
 10
89.80571558084719
 20
-146.8840575804665
 30
0.0
 10
90.06340872314388
 20
-147.0111816038722
 30
0.0
 10
90.06340872314388
 20
-147.3071153060552
 30
0.0
 10
90.06340872314388
 20
-147.4934949718072
 30
0.0
 10
89.96143389678048
 20
-147.5758327539046
 30
0.0
 10
89.85532495583479
 20
-147.6371554535421
 30
0.0
 10
89.92078177005453
 20
-147.6647162174241
 30
0.0
 10
90.11542966497115
 20
-147.7449869422304
 30
0.0
 10
90.11542966497115
 20
-148.022317128793
 30
0.0
 10
90.11542966497115
 20
-148.3606255054446
 30
0.0
 10
89.85084633170396
 20
-148.5277126364792
 30
0.0
 10
89.55456811997247
 20
-148.5277126364792
 30
0.0
  0
HATCH
  5
DF
330
DA
100
AcDbEntity
  8
_U+30EC_U+30A4_U+30E4_U+30FC 1
 62
     7
420
 16777215
100
AcDbHatch
 10
0.0
 20
0.0
 30
0.0
210
0.0
220
0.0
230
1.0
  2
SOLID
 70
     1
 71
     0
 91
        1
 92
        1
 93
        1
 72
     4
 94
        3
 73
     0
 74
     1
 95
       62
 96
       58
 40
0.0
 40
0.0
 40
0.0
 40
0.0
 40
1.0
 40
1.0
 40
1.0
 40
2.0
 40
2.0
 40
2.0
 40
3.0
 40
3.0
 40
3.0
 40
4.0
 40
4.0
 40
4.0
 40
5.0
 40
5.0
 40
5.0
 40
6.0
 40
6.0
 40
6.0
 40
7.0
 40
7.0
 40
7.0
 40
8.0
 40
8.0
 40
8.0
 40
9.0
 40
9.0
 40
9.0
 40
10.0
 40
10.0
 40
10.0
 40
11.0
 40
11.0
 40
11.0
 40
12.0
 40
12.0
 40
12.0
 40
13.0
 40
13.0
 40
13.0
 40
14.0
 40
14.0
 40
14.0
 40
15.0
 40
15.0
 40
15.0
 40
16.0
 40
16.0
 40
16.0
 40
17.0
 40
17.0
 40
17.0
 40
18.0
 40
18.0
 40
18.0
 40
19.0
 40
19.0
 40
19.0
 40
19.0
 10
89.55456811997247
 20
-148.5277126364792
 10
89.4529378031576
 20
-148.5277126364792
 10
89.22004934835472
 20
-148.5066975540192
 10
89.08672415307555
 20
-148.3206623978157
 10
89.0074869569148
 20
-148.2083522849965
 10
89.00300833278398
 20
-148.1091335350213
 10
88.99852970865315
 20
-148.0243841860842
 10
88.99852970865315
 20
-148.0243841860842
 10
89.23348522074718
 20
-148.0243841860842
 10
89.23348522074718
 20
-148.0243841860842
 10
89.23589678758687
 20
-148.0984537390171
 10
89.24726560268819
 20
-148.3330647415626
 10
89.55008949584165
 20
-148.3330647415626
 10
89.69719507306182
 20
-148.3330647415626
 10
89.85980357996561
 20
-148.2634738127605
 10
89.85980357996561
 20
-148.0350639820885
 10
89.85980357996561
 20
-147.918619754687
 10
89.81915145323966
 20
-147.870043908345
 10
89.7850450079357
 20
-147.8383490298807
 10
89.70615232132347
 20
-147.7642794769478
 10
89.58178437430594
 20
-147.7515326236524
 10
89.52287324150818
 20
-147.7515326236524
 10
89.5025471781452
 20
-147.7515326236524
 10
89.46430661825893
 20
-147.7535996809436
 10
89.43467879708578
 20
-147.7577337955258
 10
89.43467879708578
 20
-147.7577337955258
 10
89.43467879708578
 20
-147.5630859006092
 10
89.43467879708578
 20
-147.5630859006092
 10
89.47533092381173
 20
-147.5696315820312
 10
89.52080618421702
 20
-147.5716986393224
 10
89.527351865639
 20
-147.5716986393224
 10
89.5976318135381
 20
-147.5716986393224
 10
89.81019420497802
 20
-147.5503390473138
 10
89.81019420497802
 20
-147.3136609874771
 10
89.81019420497802
 20
-147.1358940604383
 10
89.66997881872834
 20
-147.0807725326742
 10
89.55250106268133
 20
-147.0807725326742
 10
89.26965872334232
 20
-147.0807725326742
 10
89.26070147508067
 20
-147.3136609874771
 10
89.25622285094984
 20
-147.3853189735703
 10
89.25622285094984
 20
-147.3853189735703
 10
89.0391818353791
 20
-147.3853189735703
 10
89.0391818353791
 20
-147.3853189735703
 10
89.04813908364075
 20
-147.2606065170043
 10
89.07742239526537
 20
-146.8840575804665
 10
89.5659369350738
 20
-146.8840575804665
 10
89.80571558084719
 20
-146.8840575804665
 10
90.06340872314388
 20
-147.0111816038722
 10
90.06340872314388
 20
-147.3071153060552
 10
90.06340872314388
 20
-147.4934949718072
 10
89.96143389678048
 20
-147.5758327539046
 10
89.85532495583479
 20
-147.6371554535421
 10
89.92078177005453
 20
-147.6647162174241
 10
90.11542966497115
 20
-147.7449869422304
 10
90.11542966497115
 20
-148.022317128793
 10
90.11542966497115
 20
-148.3606255054446
 10
89.85084633170396
 20
-148.5277126364792
 10
89.55456811997247
 20
-148.5277126364792
 97
        0
 97
        0
 75
     2
 76
     1
 98
        0
  0
SPLINE
  5
E0
330
DA
100
AcDbEntity
  8
_U+30EC_U+30A4_U+30E4_U+30FC 1
370
     0
100
AcDbSpline
210
0.0
220
0.0
230
1.0
 70
    11
 71
     3
 72
    26
 73
    22
 74
     0
 42
0.0000000001
 43
0.0000000001
 12
1.0
 22
0.0
 32
0.0
 13
1.0
 23
0.0
 33
0.0
 40
0.0
 40
0.0
 40
0.0
 40
0.0
 40
1.0
 40
1.0
 40
1.0
 40
2.0
 40
2.0
 40
2.0
 40
3.0
 40
3.0
 40
3.0
 40
4.0
 40
4.0
 40
4.0
 40
5.0
 40
5.0
 40
5.0
 40
6.0
 40
6.0
 40
6.0
 40
7.0
 40
7.0
 40
7.0
 40
7.0
 10
90.76930878807157
 20
-148.477069732846
 30
0.0
 10
90.76930878807157
 20
-148.477069732846
 30
0.0
 10
90.76930878807157
 20
-147.3729166298234
 30
0.0
 10
90.76930878807157
 20
-147.3729166298234
 30
0.0
 10
90.76930878807157
 20
-147.3729166298234
 30
0.0
 10
90.41687551993051
 20
-147.3729166298234
 30
0.0
 10
90.41687551993051
 20
-147.3729166298234
 30
0.0
 10
90.41687551993051
 20
-147.3729166298234
 30
0.0
 10
90.41687551993051
 20
-147.2247775239577
 30
0.0
 10
90.41687551993051
 20
-147.2247775239577
 30
0.0
 10
90.77172035491124
 20
-147.2099636133711
 30
0.0
 10
90.82132972989884
 20
-147.0470105969188
 30
0.0
 10
90.85302460836314
 20
-146.9326334268085
 30
0.0
 10
90.85302460836314
 20
-146.9326334268085
 30
0.0
 10
91.00908743384495
 20
-146.9326334268085
 30
0.0
 10
91.00908743384495
 20
-146.9326334268085
 30
0.0
 10
91.00908743384495
 20
-146.9326334268085
 30
0.0
 10
91.00908743384495
 20
-148.477069732846
 30
0.0
 10
91.00908743384495
 20
-148.477069732846
 30
0.0
 10
91.00908743384495
 20
-148.477069732846
 30
0.0
 10
90.76930878807157
 20
-148.477069732846
 30
0.0
 10
90.76930878807157
 20
-148.477069732846
 30
0.0
  0
HATCH
  5
E1
330
DA
100
AcDbEntity
  8
_U+30EC_U+30A4_U+30E4_U+30FC 1
 62
     7
420
 16777215
100
AcDbHatch
 10
0.0
 20
0.0
 30
0.0
210
0.0
220
0.0
230
1.0
  2
SOLID
 70
     1
 71
     0
 91
        1
 92
        1
 93
        1
 72
     4
 94
        3
 73
     0
 74
     1
 95
       26
 96
       22
 40
0.0
 40
0.0
 40
0.0
 40
0.0
 40
1.0
 40
1.0
 40
1.0
 40
2.0
 40
2.0
 40
2.0
 40
3.0
 40
3.0
 40
3.0
 40
4.0
 40
4.0
 40
4.0
 40
5.0
 40
5.0
 40
5.0
 40
6.0
 40
6.0
 40
6.0
 40
7.0
 40
7.0
 40
7.0
 40
7.0
 10
90.76930878807157
 20
-148.477069732846
 10
90.76930878807157
 20
-148.477069732846
 10
90.76930878807157
 20
-147.3729166298234
 10
90.76930878807157
 20
-147.3729166298234
 10
90.76930878807157
 20
-147.3729166298234
 10
90.41687551993051
 20
-147.3729166298234
 10
90.41687551993051
 20
-147.3729166298234
 10
90.41687551993051
 20
-147.3729166298234
 10
90.41687551993051
 20
-147.2247775239577
 10
90.41687551993051
 20
-147.2247775239577
 10
90.77172035491124
 20
-147.2099636133711
 10
90.82132972989884
 20
-147.0470105969188
 10
90.85302460836314
 20
-146.9326334268085
 10
90.85302460836314
 20
-146.9326334268085
 10
91.00908743384495
 20
-146.9326334268085
 10
91.00908743384495
 20
-146.9326334268085
 10
91.00908743384495
 20
-146.9326334268085
 10
91.00908743384495
 20
-148.477069732846
 10
91.00908743384495
 20
-148.477069732846
 10
91.00908743384495
 20
-148.477069732846
 10
90.76930878807157
 20
-148.477069732846
 10
90.76930878807157
 20
-148.477069732846
 97
        0
 97
        0
 75
     2
 76
     1
 98
        0
  0
POLYLINE
  5
E2
330
DA
100
AcDbEntity
  8
_U+30EC_U+30A4_U+30E4_U+30FC 1
370
     0
100
AcDb2dPolyline
 66
     1
 10
0.0
 20
0.0
 30
0.0
  0
VERTEX
  5
E3
330
E2
100
AcDbEntity
  8
_U+30EC_U+30A4_U+30E4_U+30FC 1
370
     0
100
AcDbVertex
100
AcDb2dVertex
 10
91.60887855782696
 20
-148.477069732846
 30
0.0
  0
VERTEX
  5
E4
330
E2
100
AcDbEntity
  8
_U+30EC_U+30A4_U+30E4_U+30FC 1
370
     0
100
AcDbVertex
100
AcDb2dVertex
 10
91.60887855782696
 20
-148.2252332528743
 30
0.0
  0
VERTEX
  5
E5
330
E2
100
AcDbEntity
  8
_U+30EC_U+30A4_U+30E4_U+30FC 1
370
     0
100
AcDbVertex
100
AcDb2dVertex
 10
91.87794051522496
 20
-148.2252332528743
 30
0.0
  0
VERTEX
  5
E6
330
E2
100
AcDbEntity
  8
_U+30EC_U+30A4_U+30E4_U+30FC 1
370
     0
100
AcDbVertex
100
AcDb2dVertex
 10
91.87794051522496
 20
-148.477069732846
 30
0.0
  0
VERTEX
  5
E7
330
E2
100
AcDbEntity
  8
_U+30EC_U+30A4_U+30E4_U+30FC 1
370
     0
100
AcDbVertex
100
AcDb2dVertex
 10
91.60887855782696
 20
-148.477069732846
 30
0.0
  0
SEQEND
  5
E8
330
E2
100
AcDbEntity
  8
_U+30EC_U+30A4_U+30E4_U+30FC 1
370
     0
  0
HATCH
  5
E9
330
DA
100
AcDbEntity
  8
_U+30EC_U+30A4_U+30E4_U+30FC 1
 62
     7
420
 16777215
100
AcDbHatch
 10
0.0
 20
0.0
 30
0.0
210
0.0
220
0.0
230
1.0
  2
SOLID
 70
     1
 71
     0
 91
        1
 92
        1
 93
        4
 72
     1
 10
91.60887855782696
 20
-148.477069732846
 11
91.60887855782696
 21
-148.2252332528743
 72
     1
 10
91.60887855782696
 20
-148.2252332528743
 11
91.87794051522496
 21
-148.2252332528743
 72
     1
 10
91.87794051522496
 20
-148.2252332528743
 11
91.87794051522496
 21
-148.477069732846
 72
     1
 10
91.87794051522496
 20
-148.477069732846
 11
91.60887855782696
 21
-148.477069732846
 97
        0
 75
     2
 76
     1
 98
        0
  0
SPLINE
  5
EA
330
DA
100
AcDbEntity
  8
_U+30EC_U+30A4_U+30E4_U+30FC 1
370
     0
100
AcDbSpline
210
0.0
220
0.0
230
1.0
 70
    11
 71
     3
 72
    53
 73
    49
 74
     0
 42
0.0000000001
 43
0.0000000001
 12
1.0
 22
0.0
 32
0.0
 13
1.0
 23
0.0
 33
0.0
 40
0.0
 40
0.0
 40
0.0
 40
0.0
 40
1.0
 40
1.0
 40
1.0
 40
2.0
 40
2.0
 40
2.0
 40
3.0
 40
3.0
 40
3.0
 40
4.0
 40
4.0
 40
4.0
 40
5.0
 40
5.0
 40
5.0
 40
6.0
 40
6.0
 40
6.0
 40
7.0
 40
7.0
 40
7.0
 40
8.0
 40
8.0
 40
8.0
 40
9.0
 40
9.0
 40
9.0
 40
10.0
 40
10.0
 40
10.0
 40
11.0
 40
11.0
 40
11.0
 40
12.0
 40
12.0
 40
12.0
 40
13.0
 40
13.0
 40
13.0
 40
14.0
 40
14.0
 40
14.0
 40
15.0
 40
15.0
 40
15.0
 40
16.0
 40
16.0
 40
16.0
 40
16.0
 10
92.64481877024157
 20
-148.5277126364792
 30
0.0
 10
92.56110294995001
 20
-148.5277126364792
 30
0.0
 10
92.45292695171317
 20
-148.5108316686015
 30
0.0
 10
92.34406193437927
 20
-148.4474419116729
 30
0.0
 10
92.15871579727282
 20
-148.3375433656934
 30
0.0
 10
92.1363226766187
 20
-148.2062852277054
 30
0.0
 10
92.11599661325573
 20
-148.0984537390171
 30
0.0
 10
92.11599661325573
 20
-148.0984537390171
 30
0.0
 10
92.35336369218945
 20
-148.0984537390171
 30
0.0
 10
92.35336369218945
 20
-148.0984537390171
 30
0.0
 10
92.41193031543868
 20
-148.297235748516
 30
0.0
 10
92.54766707755753
 20
-148.3268635696891
 30
0.0
 10
92.64723033708125
 20
-148.3268635696891
 30
0.0
 10
92.79640297159257
 20
-148.3268635696891
 30
0.0
 10
92.95935598804489
 20
-148.2273003101654
 30
0.0
 10
92.95935598804489
 20
-147.994756364911
 30
0.0
 10
92.95935598804489
 20
-147.738785770357
 30
0.0
 10
92.76711965996795
 20
-147.6688503320064
 30
0.0
 10
92.6382730888196
 20
-147.6688503320064
 30
0.0
 10
92.60416664351563
 20
-147.6688503320064
 30
0.0
 10
92.45292695171317
 20
-147.6688503320064
 30
0.0
 10
92.35784231632027
 20
-147.7980414127033
 30
0.0
 10
92.35784231632027
 20
-147.7980414127033
 30
0.0
 10
92.17008461237415
 20
-147.7790933875344
 30
0.0
 10
92.17008461237415
 20
-147.7790933875344
 30
0.0
 10
92.17008461237415
 20
-147.7790933875344
 30
0.0
 10
92.2989311835225
 20
-146.9326334268085
 30
0.0
 10
92.2989311835225
 20
-146.9326334268085
 30
0.0
 10
92.2989311835225
 20
-146.9326334268085
 30
0.0
 10
93.13092174321032
 20
-146.9326334268085
 30
0.0
 10
93.13092174321032
 20
-146.9326334268085
 30
0.0
 10
93.13092174321032
 20
-146.9326334268085
 30
0.0
 10
93.13092174321032
 20
-147.1272813217251
 30
0.0
 10
93.13092174321032
 20
-147.1272813217251
 30
0.0
 10
93.13092174321032
 20
-147.1272813217251
 30
0.0
 10
92.47325301507614
 20
-147.1272813217251
 30
0.0
 10
92.47325301507614
 20
-147.1272813217251
 30
0.0
 10
92.47325301507614
 20
-147.1272813217251
 30
0.0
 10
92.40297306717704
 20
-147.5503390473138
 30
0.0
 10
92.40297306717704
 20
-147.5503390473138
 30
0.0
 10
92.46842988139679
 20
-147.5165771115584
 30
0.0
 10
92.55662432581919
 20
-147.4762694943809
 30
0.0
 10
92.68340383967637
 20
-147.4762694943809
 30
0.0
 10
92.95453285436554
 20
-147.4762694943809
 30
0.0
 10
93.2077473725314
 20
-147.662649160133
 30
0.0
 10
93.2077473725314
 20
-147.9758083397422
 30
0.0
 10
93.2077473725314
 20
-148.2931016339337
 30
0.0
 10
92.96831323630654
 20
-148.5277126364792
 30
0.0
 10
92.64481877024157
 20
-148.5277126364792
 30
0.0
  0
HATCH
  5
EB
330
DA
100
AcDbEntity
  8
_U+30EC_U+30A4_U+30E4_U+30FC 1
 62
     7
420
 16777215
100
AcDbHatch
 10
0.0
 20
0.0
 30
0.0
210
0.0
220
0.0
230
1.0
  2
SOLID
 70
     1
 71
     0
 91
        1
 92
        1
 93
        1
 72
     4
 94
        3
 73
     0
 74
     1
 95
       53
 96
       49
 40
0.0
 40
0.0
 40
0.0
 40
0.0
 40
1.0
 40
1.0
 40
1.0
 40
2.0
 40
2.0
 40
2.0
 40
3.0
 40
3.0
 40
3.0
 40
4.0
 40
4.0
 40
4.0
 40
5.0
 40
5.0
 40
5.0
 40
6.0
 40
6.0
 40
6.0
 40
7.0
 40
7.0
 40
7.0
 40
8.0
 40
8.0
 40
8.0
 40
9.0
 40
9.0
 40
9.0
 40
10.0
 40
10.0
 40
10.0
 40
11.0
 40
11.0
 40
11.0
 40
12.0
 40
12.0
 40
12.0
 40
13.0
 40
13.0
 40
13.0
 40
14.0
 40
14.0
 40
14.0
 40
15.0
 40
15.0
 40
15.0
 40
16.0
 40
16.0
 40
16.0
 40
16.0
 10
92.64481877024157
 20
-148.5277126364792
 10
92.56110294995001
 20
-148.5277126364792
 10
92.45292695171317
 20
-148.5108316686015
 10
92.34406193437927
 20
-148.4474419116729
 10
92.15871579727282
 20
-148.3375433656934
 10
92.1363226766187
 20
-148.2062852277054
 10
92.11599661325573
 20
-148.0984537390171
 10
92.11599661325573
 20
-148.0984537390171
 10
92.35336369218945
 20
-148.0984537390171
 10
92.35336369218945
 20
-148.0984537390171
 10
92.41193031543868
 20
-148.297235748516
 10
92.54766707755753
 20
-148.3268635696891
 10
92.64723033708125
 20
-148.3268635696891
 10
92.79640297159257
 20
-148.3268635696891
 10
92.95935598804489
 20
-148.2273003101654
 10
92.95935598804489
 20
-147.994756364911
 10
92.95935598804489
 20
-147.738785770357
 10
92.76711965996795
 20
-147.6688503320064
 10
92.6382730888196
 20
-147.6688503320064
 10
92.60416664351563
 20
-147.6688503320064
 10
92.45292695171317
 20
-147.6688503320064
 10
92.35784231632027
 20
-147.7980414127033
 10
92.35784231632027
 20
-147.7980414127033
 10
92.17008461237415
 20
-147.7790933875344
 10
92.17008461237415
 20
-147.7790933875344
 10
92.17008461237415
 20
-147.7790933875344
 10
92.2989311835225
 20
-146.9326334268085
 10
92.2989311835225
 20
-146.9326334268085
 10
92.2989311835225
 20
-146.9326334268085
 10
93.13092174321032
 20
-146.9326334268085
 10
93.13092174321032
 20
-146.9326334268085
 10
93.13092174321032
 20
-146.9326334268085
 10
93.13092174321032
 20
-147.1272813217251
 10
93.13092174321032
 20
-147.1272813217251
 10
93.13092174321032
 20
-147.1272813217251
 10
92.47325301507614
 20
-147.1272813217251
 10
92.47325301507614
 20
-147.1272813217251
 10
92.47325301507614
 20
-147.1272813217251
 10
92.40297306717704
 20
-147.5503390473138
 10
92.40297306717704
 20
-147.5503390473138
 10
92.46842988139679
 20
-147.5165771115584
 10
92.55662432581919
 20
-147.4762694943809
 10
92.68340383967637
 20
-147.4762694943809
 10
92.95453285436554
 20
-147.4762694943809
 10
93.2077473725314
 20
-147.662649160133
 10
93.2077473725314
 20
-147.9758083397422
 10
93.2077473725314
 20
-148.2931016339337
 10
92.96831323630654
 20
-148.5277126364792
 10
92.64481877024157
 20
-148.5277126364792
 97
        0
 97
        0
 75
     2
 76
     1
 98
        0
  0
ENDBLK
  5
DD
330
DA
100
AcDbEntity
  8
0
100
AcDbBlockEnd
  0
BLOCK
  5
FA
330
F8
100
AcDbEntity
  8
0
100
AcDbBlockBegin
  2
block 7
 70
     0
 10
0.0
 20
0.0
 30
0.0
  3
block 7
  1

  0
SPLINE
  5
FC
330
F8
100
AcDbEntity
  8
_U+30EC_U+30A4_U+30E4_U+30FC 1
370
     0
100
AcDbSpline
210
0.0
220
0.0
230
1.0
 70
    11
 71
     3
 72
    44
 73
    40
 74
     0
 42
0.0000000001
 43
0.0000000001
 12
1.0
 22
0.0
 32
0.0
 13
1.0
 23
0.0
 33
0.0
 40
0.0
 40
0.0
 40
0.0
 40
0.0
 40
1.0
 40
1.0
 40
1.0
 40
2.0
 40
2.0
 40
2.0
 40
3.0
 40
3.0
 40
3.0
 40
4.0
 40
4.0
 40
4.0
 40
5.0
 40
5.0
 40
5.0
 40
6.0
 40
6.0
 40
6.0
 40
7.0
 40
7.0
 40
7.0
 40
8.0
 40
8.0
 40
8.0
 40
9.0
 40
9.0
 40
9.0
 40
10.0
 40
10.0
 40
10.0
 40
11.0
 40
11.0
 40
11.0
 40
12.0
 40
12.0
 40
12.0
 40
13.0
 40
13.0
 40
13.0
 40
13.0
 10
112.1864338912242
 20
-134.7755804784589
 30
0.0
 10
112.3452527930942
 20
-135.0084689332618
 30
0.0
 10
112.4193223460271
 20
-135.1080321927855
 30
0.0
 10
112.562982827762
 20
-135.1597086250642
 30
0.0
 10
112.562982827762
 20
-135.1597086250642
 30
0.0
 10
112.562982827762
 20
-134.3280625749249
 30
0.0
 10
112.562982827762
 20
-134.3280625749249
 30
0.0
 10
112.562982827762
 20
-134.3280625749249
 30
0.0
 10
112.7683105186829
 20
-134.3280625749249
 30
0.0
 10
112.7683105186829
 20
-134.3280625749249
 30
0.0
 10
112.7683105186829
 20
-134.3280625749249
 30
0.0
 10
112.7683105186829
 20
-135.4267035251711
 30
0.0
 10
112.7683105186829
 20
-135.4267035251711
 30
0.0
 10
112.410709607314
 20
-135.3925970798671
 30
0.0
 10
112.3325059397988
 20
-135.3226616415166
 30
0.0
 10
112.0341606707762
 20
-134.9113172405777
 30
0.0
 10
111.8353786612773
 20
-134.6377766590489
 30
0.0
 10
111.7675102802178
 20
-134.5674967111498
 30
0.0
 10
111.6300509703564
 20
-134.5674967111498
 30
0.0
 10
111.5115396856638
 20
-134.5674967111498
 30
0.0
 10
111.3806260572243
 20
-134.6443223404709
 30
0.0
 10
111.3806260572243
 20
-134.8548176746196
 30
0.0
 10
111.3806260572243
 20
-135.1328368802793
 30
0.0
 10
111.6111029451875
 20
-135.1417941285409
 30
0.0
 10
111.727547172589
 20
-135.1462727526718
 30
0.0
 10
111.727547172589
 20
-135.1462727526718
 30
0.0
 10
111.727547172589
 20
-135.3860513984451
 30
0.0
 10
111.727547172589
 20
-135.3860513984451
 30
0.0
 10
111.6004231491832
 20
-135.376749640635
 30
0.0
 10
111.4884575459126
 20
-135.3657253350822
 30
0.0
 10
111.36994626122
 20
-135.2795979479509
 30
0.0
 10
111.2090603020588
 20
-135.1621201919039
 30
0.0
 10
111.1752983663034
 20
-134.963338182405
 30
0.0
 10
111.1752983663034
 20
-134.8389702353875
 30
0.0
 10
111.1752983663034
 20
-134.542692023656
 30
0.0
 10
111.3592664652157
 20
-134.3211723839544
 30
0.0
 10
111.6321180276475
 20
-134.3211723839544
 30
0.0
 10
111.8608723678681
 20
-134.3211723839544
 30
0.0
 10
111.9600911178433
 20
-134.445540330972
 30
0.0
 10
112.1864338912242
 20
-134.7755804784589
 30
0.0
  0
HATCH
  5
FD
330
F8
100
AcDbEntity
  8
_U+30EC_U+30A4_U+30E4_U+30FC 1
 62
     7
420
 16777215
100
AcDbHatch
 10
0.0
 20
0.0
 30
0.0
210
0.0
220
0.0
230
1.0
  2
SOLID
 70
     1
 71
     0
 91
        1
 92
        1
 93
        1
 72
     4
 94
        3
 73
     0
 74
     1
 95
       44
 96
       40
 40
0.0
 40
0.0
 40
0.0
 40
0.0
 40
1.0
 40
1.0
 40
1.0
 40
2.0
 40
2.0
 40
2.0
 40
3.0
 40
3.0
 40
3.0
 40
4.0
 40
4.0
 40
4.0
 40
5.0
 40
5.0
 40
5.0
 40
6.0
 40
6.0
 40
6.0
 40
7.0
 40
7.0
 40
7.0
 40
8.0
 40
8.0
 40
8.0
 40
9.0
 40
9.0
 40
9.0
 40
10.0
 40
10.0
 40
10.0
 40
11.0
 40
11.0
 40
11.0
 40
12.0
 40
12.0
 40
12.0
 40
13.0
 40
13.0
 40
13.0
 40
13.0
 10
112.1864338912242
 20
-134.7755804784589
 10
112.3452527930942
 20
-135.0084689332618
 10
112.4193223460271
 20
-135.1080321927855
 10
112.562982827762
 20
-135.1597086250642
 10
112.562982827762
 20
-135.1597086250642
 10
112.562982827762
 20
-134.3280625749249
 10
112.562982827762
 20
-134.3280625749249
 10
112.562982827762
 20
-134.3280625749249
 10
112.7683105186829
 20
-134.3280625749249
 10
112.7683105186829
 20
-134.3280625749249
 10
112.7683105186829
 20
-134.3280625749249
 10
112.7683105186829
 20
-135.4267035251711
 10
112.7683105186829
 20
-135.4267035251711
 10
112.410709607314
 20
-135.3925970798671
 10
112.3325059397988
 20
-135.3226616415166
 10
112.0341606707762
 20
-134.9113172405777
 10
111.8353786612773
 20
-134.6377766590489
 10
111.7675102802178
 20
-134.5674967111498
 10
111.6300509703564
 20
-134.5674967111498
 10
111.5115396856638
 20
-134.5674967111498
 10
111.3806260572243
 20
-134.6443223404709
 10
111.3806260572243
 20
-134.8548176746196
 10
111.3806260572243
 20
-135.1328368802793
 10
111.6111029451875
 20
-135.1417941285409
 10
111.727547172589
 20
-135.1462727526718
 10
111.727547172589
 20
-135.1462727526718
 10
111.727547172589
 20
-135.3860513984451
 10
111.727547172589
 20
-135.3860513984451
 10
111.6004231491832
 20
-135.376749640635
 10
111.4884575459126
 20
-135.3657253350822
 10
111.36994626122
 20
-135.2795979479509
 10
111.2090603020588
 20
-135.1621201919039
 10
111.1752983663034
 20
-134.963338182405
 10
111.1752983663034
 20
-134.8389702353875
 10
111.1752983663034
 20
-134.542692023656
 10
111.3592664652157
 20
-134.3211723839544
 10
111.6321180276475
 20
-134.3211723839544
 10
111.8608723678681
 20
-134.3211723839544
 10
111.9600911178433
 20
-134.445540330972
 10
112.1864338912242
 20
-134.7755804784589
 97
        0
 97
        0
 75
     2
 76
     1
 98
        0
  0
SPLINE
  5
FE
330
F8
100
AcDbEntity
  8
_U+30EC_U+30A4_U+30E4_U+30FC 1
370
     0
100
AcDbSpline
210
0.0
220
0.0
230
1.0
 70
    11
 71
     3
 72
    26
 73
    22
 74
     0
 42
0.0000000001
 43
0.0000000001
 12
1.0
 22
0.0
 32
0.0
 13
1.0
 23
0.0
 33
0.0
 40
0.0
 40
0.0
 40
0.0
 40
0.0
 40
1.0
 40
1.0
 40
1.0
 40
2.0
 40
2.0
 40
2.0
 40
3.0
 40
3.0
 40
3.0
 40
4.0
 40
4.0
 40
4.0
 40
5.0
 40
5.0
 40
5.0
 40
6.0
 40
6.0
 40
6.0
 40
7.0
 40
7.0
 40
7.0
 40
7.0
 10
112.7683105186829
 20
-133.6693603181452
 30
0.0
 10
112.7683105186829
 20
-133.6693603181452
 30
0.0
 10
111.6641574156604
 20
-133.6693603181452
 30
0.0
 10
111.6641574156604
 20
-133.6693603181452
 30
0.0
 10
111.6641574156604
 20
-133.6693603181452
 30
0.0
 10
111.6641574156604
 20
-134.0217935862862
 30
0.0
 10
111.6641574156604
 20
-134.0217935862862
 30
0.0
 10
111.6641574156604
 20
-134.0217935862862
 30
0.0
 10
111.5160183097946
 20
-134.0217935862862
 30
0.0
 10
111.5160183097946
 20
-134.0217935862862
 30
0.0
 10
111.501204399208
 20
-133.6669487513055
 30
0.0
 10
111.3382513827557
 20
-133.6173393763179
 30
0.0
 10
111.2238742126454
 20
-133.5856444978536
 30
0.0
 10
111.2238742126454
 20
-133.5856444978536
 30
0.0
 10
111.2238742126454
 20
-133.4295816723718
 30
0.0
 10
111.2238742126454
 20
-133.4295816723718
 30
0.0
 10
111.2238742126454
 20
-133.4295816723718
 30
0.0
 10
112.7683105186829
 20
-133.4295816723718
 30
0.0
 10
112.7683105186829
 20
-133.4295816723718
 30
0.0
 10
112.7683105186829
 20
-133.4295816723718
 30
0.0
 10
112.7683105186829
 20
-133.6693603181452
 30
0.0
 10
112.7683105186829
 20
-133.6693603181452
 30
0.0
  0
HATCH
  5
FF
330
F8
100
AcDbEntity
  8
_U+30EC_U+30A4_U+30E4_U+30FC 1
 62
     7
420
 16777215
100
AcDbHatch
 10
0.0
 20
0.0
 30
0.0
210
0.0
220
0.0
230
1.0
  2
SOLID
 70
     1
 71
     0
 91
        1
 92
        1
 93
        1
 72
     4
 94
        3
 73
     0
 74
     1
 95
       26
 96
       22
 40
0.0
 40
0.0
 40
0.0
 40
0.0
 40
1.0
 40
1.0
 40
1.0
 40
2.0
 40
2.0
 40
2.0
 40
3.0
 40
3.0
 40
3.0
 40
4.0
 40
4.0
 40
4.0
 40
5.0
 40
5.0
 40
5.0
 40
6.0
 40
6.0
 40
6.0
 40
7.0
 40
7.0
 40
7.0
 40
7.0
 10
112.7683105186829
 20
-133.6693603181452
 10
112.7683105186829
 20
-133.6693603181452
 10
111.6641574156604
 20
-133.6693603181452
 10
111.6641574156604
 20
-133.6693603181452
 10
111.6641574156604
 20
-133.6693603181452
 10
111.6641574156604
 20
-134.0217935862862
 10
111.6641574156604
 20
-134.0217935862862
 10
111.6641574156604
 20
-134.0217935862862
 10
111.5160183097946
 20
-134.0217935862862
 10
111.5160183097946
 20
-134.0217935862862
 10
111.501204399208
 20
-133.6669487513055
 10
111.3382513827557
 20
-133.6173393763179
 10
111.2238742126454
 20
-133.5856444978536
 10
111.2238742126454
 20
-133.5856444978536
 10
111.2238742126454
 20
-133.4295816723718
 10
111.2238742126454
 20
-133.4295816723718
 10
111.2238742126454
 20
-133.4295816723718
 10
112.7683105186829
 20
-133.4295816723718
 10
112.7683105186829
 20
-133.4295816723718
 10
112.7683105186829
 20
-133.4295816723718
 10
112.7683105186829
 20
-133.6693603181452
 10
112.7683105186829
 20
-133.6693603181452
 97
        0
 97
        0
 75
     2
 76
     1
 98
        0
  0
POLYLINE
  5
100
330
F8
100
AcDbEntity
  8
_U+30EC_U+30A4_U+30E4_U+30FC 1
370
     0
100
AcDb2dPolyline
 66
     1
 10
0.0
 20
0.0
 30
0.0
  0
VERTEX
  5
101
330
100
100
AcDbEntity
  8
_U+30EC_U+30A4_U+30E4_U+30FC 1
370
     0
100
AcDbVertex
100
AcDb2dVertex
 10
112.7683105186829
 20
-132.8297905483898
 30
0.0
  0
VERTEX
  5
102
330
100
100
AcDbEntity
  8
_U+30EC_U+30A4_U+30E4_U+30FC 1
370
     0
100
AcDbVertex
100
AcDb2dVertex
 10
112.5164740387112
 20
-132.8297905483898
 30
0.0
  0
VERTEX
  5
103
330
100
100
AcDbEntity
  8
_U+30EC_U+30A4_U+30E4_U+30FC 1
370
     0
100
AcDbVertex
100
AcDb2dVertex
 10
112.5164740387112
 20
-132.5607285909918
 30
0.0
  0
VERTEX
  5
104
330
100
100
AcDbEntity
  8
_U+30EC_U+30A4_U+30E4_U+30FC 1
370
     0
100
AcDbVertex
100
AcDb2dVertex
 10
112.7683105186829
 20
-132.5607285909918
 30
0.0
  0
VERTEX
  5
105
330
100
100
AcDbEntity
  8
_U+30EC_U+30A4_U+30E4_U+30FC 1
370
     0
100
AcDbVertex
100
AcDb2dVertex
 10
112.7683105186829
 20
-132.8297905483898
 30
0.0
  0
SEQEND
  5
106
330
100
100
AcDbEntity
  8
_U+30EC_U+30A4_U+30E4_U+30FC 1
370
     0
  0
HATCH
  5
107
330
F8
100
AcDbEntity
  8
_U+30EC_U+30A4_U+30E4_U+30FC 1
 62
     7
420
 16777215
100
AcDbHatch
 10
0.0
 20
0.0
 30
0.0
210
0.0
220
0.0
230
1.0
  2
SOLID
 70
     1
 71
     0
 91
        1
 92
        1
 93
        4
 72
     1
 10
112.7683105186829
 20
-132.8297905483898
 11
112.5164740387112
 21
-132.8297905483898
 72
     1
 10
112.5164740387112
 20
-132.8297905483898
 11
112.5164740387112
 21
-132.5607285909918
 72
     1
 10
112.5164740387112
 20
-132.5607285909918
 11
112.7683105186829
 21
-132.5607285909918
 72
     1
 10
112.7683105186829
 20
-132.5607285909918
 11
112.7683105186829
 21
-132.8297905483898
 97
        0
 75
     2
 76
     1
 98
        0
  0
SPLINE
  5
108
330
F8
100
AcDbEntity
  8
_U+30EC_U+30A4_U+30E4_U+30FC 1
370
     0
100
AcDbSpline
210
0.0
220
0.0
230
1.0
 70
    11
 71
     3
 72
    53
 73
    49
 74
     0
 42
0.0000000001
 43
0.0000000001
 12
1.0
 22
0.0
 32
0.0
 13
1.0
 23
0.0
 33
0.0
 40
0.0
 40
0.0
 40
0.0
 40
0.0
 40
1.0
 40
1.0
 40
1.0
 40
2.0
 40
2.0
 40
2.0
 40
3.0
 40
3.0
 40
3.0
 40
4.0
 40
4.0
 40
4.0
 40
5.0
 40
5.0
 40
5.0
 40
6.0
 40
6.0
 40
6.0
 40
7.0
 40
7.0
 40
7.0
 40
8.0
 40
8.0
 40
8.0
 40
9.0
 40
9.0
 40
9.0
 40
10.0
 40
10.0
 40
10.0
 40
11.0
 40
11.0
 40
11.0
 40
12.0
 40
12.0
 40
12.0
 40
13.0
 40
13.0
 40
13.0
 40
14.0
 40
14.0
 40
14.0
 40
15.0
 40
15.0
 40
15.0
 40
16.0
 40
16.0
 40
16.0
 40
16.0
 10
112.8189534223161
 20
-131.7938503359752
 30
0.0
 10
112.8189534223161
 20
-131.8772216467182
 30
0.0
 10
112.8020724544384
 20
-131.9860866640521
 30
0.0
 10
112.7386826975098
 20
-132.0942626622889
 30
0.0
 10
112.6287841515303
 20
-132.2799533089439
 30
0.0
 10
112.4975260135423
 20
-132.302346429598
 30
0.0
 10
112.389694524854
 20
-132.322672492961
 30
0.0
 10
112.389694524854
 20
-132.322672492961
 30
0.0
 10
112.389694524854
 20
-132.0853054140273
 30
0.0
 10
112.389694524854
 20
-132.0853054140273
 30
0.0
 10
112.5884765343529
 20
-132.026738790778
 30
0.0
 10
112.618104355526
 20
-131.8910020286592
 30
0.0
 10
112.618104355526
 20
-131.7914387691355
 30
0.0
 10
112.618104355526
 20
-131.6422661346242
 30
0.0
 10
112.5185410960023
 20
-131.4796576277204
 30
0.0
 10
112.2859971507479
 20
-131.4796576277204
 30
0.0
 10
112.0300265561939
 20
-131.4796576277204
 30
0.0
 10
111.9600911178433
 20
-131.6715494462488
 30
0.0
 10
111.9600911178433
 20
-131.8003960173971
 30
0.0
 10
111.9600911178433
 20
-131.8345024627011
 30
0.0
 10
111.9600911178433
 20
-131.9860866640521
 30
0.0
 10
112.0892821985402
 20
-132.0808267898965
 30
0.0
 10
112.0892821985402
 20
-132.0808267898965
 30
0.0
 10
112.0703341733713
 20
-132.2685844938426
 30
0.0
 10
112.0703341733713
 20
-132.2685844938426
 30
0.0
 10
112.0703341733713
 20
-132.2685844938426
 30
0.0
 10
111.2238742126454
 20
-132.1397379226943
 30
0.0
 10
111.2238742126454
 20
-132.1397379226943
 30
0.0
 10
111.2238742126454
 20
-132.1397379226943
 30
0.0
 10
111.2238742126454
 20
-131.3077473630064
 30
0.0
 10
111.2238742126454
 20
-131.3077473630064
 30
0.0
 10
111.2238742126454
 20
-131.3077473630064
 30
0.0
 10
111.418522107562
 20
-131.3077473630064
 30
0.0
 10
111.418522107562
 20
-131.3077473630064
 30
0.0
 10
111.418522107562
 20
-131.3077473630064
 30
0.0
 10
111.418522107562
 20
-131.9654160911406
 30
0.0
 10
111.418522107562
 20
-131.9654160911406
 30
0.0
 10
111.418522107562
 20
-131.9654160911406
 30
0.0
 10
111.8415798331507
 20
-132.0356960390397
 30
0.0
 10
111.8415798331507
 20
-132.0356960390397
 30
0.0
 10
111.8078178973953
 20
-131.9702392248199
 30
0.0
 10
111.7675102802178
 20
-131.8820447803976
 30
0.0
 10
111.7675102802178
 20
-131.7552652665404
 30
0.0
 10
111.7675102802178
 20
-131.4841362518512
 30
0.0
 10
111.9538899459699
 20
-131.2309217336853
 30
0.0
 10
112.2670491255791
 20
-131.2309217336853
 30
0.0
 10
112.5843424197706
 20
-131.2309217336853
 30
0.0
 10
112.8189534223161
 20
-131.4703558699102
 30
0.0
 10
112.8189534223161
 20
-131.7938503359752
 30
0.0
  0
HATCH
  5
109
330
F8
100
AcDbEntity
  8
_U+30EC_U+30A4_U+30E4_U+30FC 1
 62
     7
420
 16777215
100
AcDbHatch
 10
0.0
 20
0.0
 30
0.0
210
0.0
220
0.0
230
1.0
  2
SOLID
 70
     1
 71
     0
 91
        1
 92
        1
 93
        1
 72
     4
 94
        3
 73
     0
 74
     1
 95
       53
 96
       49
 40
0.0
 40
0.0
 40
0.0
 40
0.0
 40
1.0
 40
1.0
 40
1.0
 40
2.0
 40
2.0
 40
2.0
 40
3.0
 40
3.0
 40
3.0
 40
4.0
 40
4.0
 40
4.0
 40
5.0
 40
5.0
 40
5.0
 40
6.0
 40
6.0
 40
6.0
 40
7.0
 40
7.0
 40
7.0
 40
8.0
 40
8.0
 40
8.0
 40
9.0
 40
9.0
 40
9.0
 40
10.0
 40
10.0
 40
10.0
 40
11.0
 40
11.0
 40
11.0
 40
12.0
 40
12.0
 40
12.0
 40
13.0
 40
13.0
 40
13.0
 40
14.0
 40
14.0
 40
14.0
 40
15.0
 40
15.0
 40
15.0
 40
16.0
 40
16.0
 40
16.0
 40
16.0
 10
112.8189534223161
 20
-131.7938503359752
 10
112.8189534223161
 20
-131.8772216467182
 10
112.8020724544384
 20
-131.9860866640521
 10
112.7386826975098
 20
-132.0942626622889
 10
112.6287841515303
 20
-132.2799533089439
 10
112.4975260135423
 20
-132.302346429598
 10
112.389694524854
 20
-132.322672492961
 10
112.389694524854
 20
-132.322672492961
 10
112.389694524854
 20
-132.0853054140273
 10
112.389694524854
 20
-132.0853054140273
 10
112.5884765343529
 20
-132.026738790778
 10
112.618104355526
 20
-131.8910020286592
 10
112.618104355526
 20
-131.7914387691355
 10
112.618104355526
 20
-131.6422661346242
 10
112.5185410960023
 20
-131.4796576277204
 10
112.2859971507479
 20
-131.4796576277204
 10
112.0300265561939
 20
-131.4796576277204
 10
111.9600911178433
 20
-131.6715494462488
 10
111.9600911178433
 20
-131.8003960173971
 10
111.9600911178433
 20
-131.8345024627011
 10
111.9600911178433
 20
-131.9860866640521
 10
112.0892821985402
 20
-132.0808267898965
 10
112.0892821985402
 20
-132.0808267898965
 10
112.0703341733713
 20
-132.2685844938426
 10
112.0703341733713
 20
-132.2685844938426
 10
112.0703341733713
 20
-132.2685844938426
 10
111.2238742126454
 20
-132.1397379226943
 10
111.2238742126454
 20
-132.1397379226943
 10
111.2238742126454
 20
-132.1397379226943
 10
111.2238742126454
 20
-131.3077473630064
 10
111.2238742126454
 20
-131.3077473630064
 10
111.2238742126454
 20
-131.3077473630064
 10
111.418522107562
 20
-131.3077473630064
 10
111.418522107562
 20
-131.3077473630064
 10
111.418522107562
 20
-131.3077473630064
 10
111.418522107562
 20
-131.9654160911406
 10
111.418522107562
 20
-131.9654160911406
 10
111.418522107562
 20
-131.9654160911406
 10
111.8415798331507
 20
-132.0356960390397
 10
111.8415798331507
 20
-132.0356960390397
 10
111.8078178973953
 20
-131.9702392248199
 10
111.7675102802178
 20
-131.8820447803976
 10
111.7675102802178
 20
-131.7552652665404
 10
111.7675102802178
 20
-131.4841362518512
 10
111.9538899459699
 20
-131.2309217336853
 10
112.2670491255791
 20
-131.2309217336853
 10
112.5843424197706
 20
-131.2309217336853
 10
112.8189534223161
 20
-131.4703558699102
 10
112.8189534223161
 20
-131.7938503359752
 97
        0
 97
        0
 75
     2
 76
     1
 98
        0
  0
ENDBLK
  5
FB
330
F8
100
AcDbEntity
  8
0
100
AcDbBlockEnd
  0
ENDSEC
  0
SECTION
  2
ENTITIES
  0
POLYLINE
  5
41
330
1F
100
AcDbEntity
  8
_U+30EC_U+30A4_U+30E4_U+30FC 1
 62
     7
420
 16777215
370
    25
100
AcDb2dPolyline
 66
     1
 10
0.0
 20
0.0
 30
0.0
  0
VERTEX
  5
42
330
41
100
AcDbEntity
  8
_U+30EC_U+30A4_U+30E4_U+30FC 1
 62
     7
420
 16777215
370
    25
100
AcDbVertex
100
AcDb2dVertex
 10
76.36502749621029
 20
-144.0732096862042
 30
0.0
  0
VERTEX
  5
43
330
41
100
AcDbEntity
  8
_U+30EC_U+30A4_U+30E4_U+30FC 1
 62
     7
420
 16777215
370
    25
100
AcDbVertex
100
AcDb2dVertex
 10
107.8655775258976
 20
-144.0732096862042
 30
0.0
  0
SEQEND
  5
44
330
41
100
AcDbEntity
  8
_U+30EC_U+30A4_U+30E4_U+30FC 1
 62
     7
420
 16777215
370
    25
  0
POLYLINE
  5
45
330
1F
100
AcDbEntity
  8
_U+30EC_U+30A4_U+30E4_U+30FC 1
 62
     7
420
 16777215
370
    25
100
AcDb2dPolyline
 66
     1
 10
0.0
 20
0.0
 30
0.0
  0
VERTEX
  5
46
330
45
100
AcDbEntity
  8
_U+30EC_U+30A4_U+30E4_U+30FC 1
 62
     7
420
 16777215
370
    25
100
AcDbVertex
100
AcDb2dVertex
 10
76.36502749621029
 20
-122.5735560804676
 30
0.0
  0
VERTEX
  5
47
330
45
100
AcDbEntity
  8
_U+30EC_U+30A4_U+30E4_U+30FC 1
 62
     7
420
 16777215
370
    25
100
AcDbVertex
100
AcDb2dVertex
 10
107.3460769835956
 20
-122.5735560804676
 30
0.0
  0
SEQEND
  5
48
330
45
100
AcDbEntity
  8
_U+30EC_U+30A4_U+30E4_U+30FC 1
 62
     7
420
 16777215
370
    25
  0
POLYLINE
  5
49
330
1F
100
AcDbEntity
  8
_U+30EC_U+30A4_U+30E4_U+30FC 1
 62
     7
420
 16777215
370
    25
100
AcDb2dPolyline
 66
     1
 10
0.0
 20
0.0
 30
0.0
  0
VERTEX
  5
4A
330
49
100
AcDbEntity
  8
_U+30EC_U+30A4_U+30E4_U+30FC 1
 62
     7
420
 16777215
370
    25
100
AcDbVertex
100
AcDb2dVertex
 10
76.36502749621029
 20
-145.0736521859541
 30
0.0
  0
VERTEX
  5
4B
330
49
100
AcDbEntity
  8
_U+30EC_U+30A4_U+30E4_U+30FC 1
 62
     7
420
 16777215
370
    25
100
AcDbVertex
100
AcDb2dVertex
 10
106.865135051421
 20
-145.0736521859541
 30
0.0
  0
SEQEND
  5
4C
330
49
100
AcDbEntity
  8
_U+30EC_U+30A4_U+30E4_U+30FC 1
 62
     7
420
 16777215
370
    25
  0
POLYLINE
  5
4D
330
1F
100
AcDbEntity
  8
_U+30EC_U+30A4_U+30E4_U+30FC 1
 62
     7
420
 16777215
370
    25
100
AcDb2dPolyline
 66
     1
 10
0.0
 20
0.0
 30
0.0
  0
VERTEX
  5
4E
330
4D
100
AcDbEntity
  8
_U+30EC_U+30A4_U+30E4_U+30FC 1
 62
     7
420
 16777215
370
    25
100
AcDbVertex
100
AcDb2dVertex
 10
75.36525529949438
 20
-114.5737202491342
 30
0.0
  0
VERTEX
  5
4F
330
4D
100
AcDbEntity
  8
_U+30EC_U+30A4_U+30E4_U+30FC 1
 62
     7
420
 16777215
370
    25
100
AcDbVertex
100
AcDb2dVertex
 10
75.36525529949438
 20
-144.0732096862042
 30
0.0
  0
SEQEND
  5
50
330
4D
100
AcDbEntity
  8
_U+30EC_U+30A4_U+30E4_U+30FC 1
 62
     7
420
 16777215
370
    25
  0
POLYLINE
  5
51
330
1F
100
AcDbEntity
  8
_U+30EC_U+30A4_U+30E4_U+30FC 1
 62
     7
420
 16777215
370
    25
100
AcDb2dPolyline
 66
     1
 10
0.0
 20
0.0
 30
0.0
  0
VERTEX
  5
52
330
51
100
AcDbEntity
  8
_U+30EC_U+30A4_U+30E4_U+30FC 1
 62
     7
420
 16777215
370
    25
100
AcDbVertex
100
AcDb2dVertex
 10
76.36502749621029
 20
-113.573948027162
 30
0.0
  0
VERTEX
  5
53
330
51
100
AcDbEntity
  8
_U+30EC_U+30A4_U+30E4_U+30FC 1
 62
     7
420
 16777215
370
    25
100
AcDbVertex
100
AcDb2dVertex
 10
76.36502749621029
 20
-121.5734663584955
 30
0.0
  0
SEQEND
  5
54
330
51
100
AcDbEntity
  8
_U+30EC_U+30A4_U+30E4_U+30FC 1
 62
     7
420
 16777215
370
    25
  0
POLYLINE
  5
55
330
1F
100
AcDbEntity
  8
_U+30EC_U+30A4_U+30E4_U+30FC 1
 62
     7
420
 16777215
370
    25
100
AcDb2dPolyline
 66
     1
 10
0.0
 20
0.0
 30
0.0
  0
VERTEX
  5
56
330
55
100
AcDbEntity
  8
_U+30EC_U+30A4_U+30E4_U+30FC 1
 62
     7
420
 16777215
370
    25
100
AcDbVertex
100
AcDb2dVertex
 10
76.36502749621029
 20
-121.5734663584955
 30
0.0
  0
VERTEX
  5
57
330
55
100
AcDbEntity
  8
_U+30EC_U+30A4_U+30E4_U+30FC 1
 62
     7
420
 16777215
370
    25
100
AcDbVertex
100
AcDb2dVertex
 10
114.3647670823117
 20
-121.5734663584955
 30
0.0
  0
SEQEND
  5
58
330
55
100
AcDbEntity
  8
_U+30EC_U+30A4_U+30E4_U+30FC 1
 62
     7
420
 16777215
370
    25
  0
POLYLINE
  5
59
330
1F
100
AcDbEntity
  8
_U+30EC_U+30A4_U+30E4_U+30FC 1
 62
     7
420
 16777215
370
    25
100
AcDb2dPolyline
 66
     1
 10
0.0
 20
0.0
 30
0.0
  0
VERTEX
  5
5A
330
59
100
AcDbEntity
  8
_U+30EC_U+30A4_U+30E4_U+30FC 1
 62
     7
420
 16777215
370
    25
100
AcDbVertex
100
AcDb2dVertex
 10
76.36502749621029
 20
-122.5735560804676
 30
0.0
  0
VERTEX
  5
5B
330
59
100
AcDbEntity
  8
_U+30EC_U+30A4_U+30E4_U+30FC 1
 62
     7
420
 16777215
370
    25
100
AcDbVertex
100
AcDb2dVertex
 10
76.36502749621029
 20
-144.0732096862042
 30
0.0
  0
SEQEND
  5
5C
330
59
100
AcDbEntity
  8
_U+30EC_U+30A4_U+30E4_U+30FC 1
 62
     7
420
 16777215
370
    25
  0
POLYLINE
  5
5D
330
1F
100
AcDbEntity
  8
_U+30EC_U+30A4_U+30E4_U+30FC 1
 62
     7
420
 16777215
370
    25
100
AcDb2dPolyline
 66
     1
 10
0.0
 20
0.0
 30
0.0
  0
VERTEX
  5
5E
330
5D
100
AcDbEntity
  8
_U+30EC_U+30A4_U+30E4_U+30FC 1
 62
     7
420
 16777215
370
    25
100
AcDbVertex
100
AcDb2dVertex
 10
107.8655775258976
 20
-122.2735185805428
 30
0.0
  0
VERTEX
  5
5F
330
5D
100
AcDbEntity
  8
_U+30EC_U+30A4_U+30E4_U+30FC 1
 62
     7
420
 16777215
370
    25
100
AcDbVertex
100
AcDb2dVertex
 10
113.6647148779493
 20
-122.2735185805428
 30
0.0
  0
SEQEND
  5
60
330
5D
100
AcDbEntity
  8
_U+30EC_U+30A4_U+30E4_U+30FC 1
 62
     7
420
 16777215
370
    25
  0
POLYLINE
  5
61
330
1F
100
AcDbEntity
  8
_U+30EC_U+30A4_U+30E4_U+30FC 1
 62
     7
420
 16777215
370
    25
100
AcDb2dPolyline
 66
     1
 10
0.0
 20
0.0
 30
0.0
  0
VERTEX
  5
62
330
61
100
AcDbEntity
  8
_U+30EC_U+30A4_U+30E4_U+30FC 1
 62
     7
420
 16777215
370
    25
100
AcDbVertex
100
AcDb2dVertex
 10
107.3460769835956
 20
-122.5735560804676
 30
0.0
  0
VERTEX
  5
63
330
61
100
AcDbEntity
  8
_U+30EC_U+30A4_U+30E4_U+30FC 1
 62
     7
420
 16777215
370
    25
100
AcDbVertex
100
AcDb2dVertex
 10
107.8655775258976
 20
-122.2735185805428
 30
0.0
  0
SEQEND
  5
64
330
61
100
AcDbEntity
  8
_U+30EC_U+30A4_U+30E4_U+30FC 1
 62
     7
420
 16777215
370
    25
  0
POLYLINE
  5
65
330
1F
100
AcDbEntity
  8
_U+30EC_U+30A4_U+30E4_U+30FC 1
 62
     7
420
 16777215
370
     9
100
AcDb2dPolyline
 66
     1
 10
0.0
 20
0.0
 30
0.0
  0
VERTEX
  5
66
330
65
100
AcDbEntity
  8
_U+30EC_U+30A4_U+30E4_U+30FC 1
 62
     7
420
 16777215
370
     9
100
AcDbVertex
100
AcDb2dVertex
 10
75.65809612535672
 20
-144.7808113526936
 30
0.0
  0
VERTEX
  5
67
330
65
100
AcDbEntity
  8
_U+30EC_U+30A4_U+30E4_U+30FC 1
 62
     7
420
 16777215
370
     9
100
AcDbVertex
100
AcDb2dVertex
 10
71.36549623487006
 20
-149.0734113516203
 30
0.0
  0
SEQEND
  5
68
330
65
100
AcDbEntity
  8
_U+30EC_U+30A4_U+30E4_U+30FC 1
 62
     7
420
 16777215
370
     9
  0
POLYLINE
  5
69
330
1F
100
AcDbEntity
  8
_U+30EC_U+30A4_U+30E4_U+30FC 1
 62
     7
420
 16777215
370
     9
100
AcDb2dPolyline
 66
     1
 10
0.0
 20
0.0
 30
0.0
  0
VERTEX
  5
6A
330
69
100
AcDbEntity
  8
_U+30EC_U+30A4_U+30E4_U+30FC 1
 62
     7
420
 16777215
370
     9
100
AcDbVertex
100
AcDb2dVertex
 10
67.15283578678843
 20
-149.0734113516203
 30
0.0
  0
VERTEX
  5
6B
330
69
100
AcDbEntity
  8
_U+30EC_U+30A4_U+30E4_U+30FC 1
 62
     7
420
 16777215
370
     9
100
AcDbVertex
100
AcDb2dVertex
 10
71.36549623487006
 20
-149.0734113516203
 30
0.0
  0
SEQEND
  5
6C
330
69
100
AcDbEntity
  8
_U+30EC_U+30A4_U+30E4_U+30FC 1
 62
     7
420
 16777215
370
     9
  0
POLYLINE
  5
6D
330
1F
100
AcDbEntity
  8
_U+30EC_U+30A4_U+30E4_U+30FC 1
 62
     7
420
 16777215
370
     9
100
AcDb2dPolyline
 66
     1
 10
0.0
 20
0.0
 30
0.0
  0
VERTEX
  5
6E
330
6D
100
AcDbEntity
  8
_U+30EC_U+30A4_U+30E4_U+30FC 1
 62
     7
420
 16777215
370
     9
100
AcDbVertex
100
AcDb2dVertex
 10
75.65809612535672
 20
-144.7808113526936
 30
0.0
  0
VERTEX
  5
6F
330
6D
100
AcDbEntity
  8
_U+30EC_U+30A4_U+30E4_U+30FC 1
 62
     7
420
 16777215
370
     9
100
AcDbVertex
100
AcDb2dVertex
 10
74.35927421404799
 20
-145.530464130284
 30
0.0
  0
SEQEND
  5
70
330
6D
100
AcDbEntity
  8
_U+30EC_U+30A4_U+30E4_U+30FC 1
 62
     7
420
 16777215
370
     9
  0
POLYLINE
  5
71
330
1F
100
AcDbEntity
  8
_U+30EC_U+30A4_U+30E4_U+30FC 1
 62
     7
420
 16777215
370
     9
100
AcDb2dPolyline
 66
     1
 10
0.0
 20
0.0
 30
0.0
  0
VERTEX
  5
72
330
71
100
AcDbEntity
  8
_U+30EC_U+30A4_U+30E4_U+30FC 1
 62
     7
420
 16777215
370
     9
100
AcDbVertex
100
AcDb2dVertex
 10
75.65809612535672
 20
-144.7808113526936
 30
0.0
  0
VERTEX
  5
73
330
71
100
AcDbEntity
  8
_U+30EC_U+30A4_U+30E4_U+30FC 1
 62
     7
420
 16777215
370
     9
100
AcDbVertex
100
AcDb2dVertex
 10
74.90844336670418
 20
-146.0796332968137
 30
0.0
  0
SEQEND
  5
74
330
71
100
AcDbEntity
  8
_U+30EC_U+30A4_U+30E4_U+30FC 1
 62
     7
420
 16777215
370
     9
  0
SPLINE
  5
75
330
1F
100
AcDbEntity
  8
_U+30EC_U+30A4_U+30E4_U+30FC 1
 62
     7
420
 16777215
370
    25
100
AcDbSpline
210
0.0
220
0.0
230
1.0
 70
     8
 71
     3
 72
     8
 73
     4
 74
     0
 42
0.0000000001
 43
0.0000000001
 12
1.0
 22
0.0
 32
0.0
 13
1.0
 23
0.0
 33
0.0
 40
0.0
 40
0.0
 40
0.0
 40
0.0
 40
1.0
 40
1.0
 40
1.0
 40
1.0
 10
75.36525529949438
 20
-144.0732096862042
 30
0.0
 10
75.36525529949438
 20
-144.625800797177
 30
0.0
 10
75.81310667695763
 20
-145.0736521859541
 30
0.0
 10
76.36502749621029
 20
-145.0736521859541
 30
0.0
  0
SPLINE
  5
76
330
1F
100
AcDbEntity
  8
_U+30EC_U+30A4_U+30E4_U+30FC 1
 62
     7
420
 16777215
370
    25
100
AcDbSpline
210
0.0
220
0.0
230
1.0
 70
     8
 71
     3
 72
     8
 73
     4
 74
     0
 42
0.0000000001
 43
0.0000000001
 12
1.0
 22
0.0
 32
0.0
 13
1.0
 23
0.0
 33
0.0
 40
0.0
 40
0.0
 40
0.0
 40
0.0
 40
1.0
 40
1.0
 40
1.0
 40
1.0
 10
76.36502749621029
 20
-113.573948027162
 30
0.0
 10
75.81310667695763
 20
-113.573948027162
 30
0.0
 10
75.36525529949438
 20
-114.021799415939
 30
0.0
 10
75.36525529949438
 20
-114.5737202491342
 30
0.0
  0
SPLINE
  5
77
330
1F
100
AcDbEntity
  8
_U+30EC_U+30A4_U+30E4_U+30FC 1
 62
     7
420
 16777215
370
    25
100
AcDbSpline
210
0.0
220
0.0
230
1.0
 70
     8
 71
     3
 72
     8
 73
     4
 74
     0
 42
0.0000000001
 43
0.0000000001
 12
1.0
 22
0.0
 32
0.0
 13
1.0
 23
0.0
 33
0.0
 40
0.0
 40
0.0
 40
0.0
 40
0.0
 40
1.0
 40
1.0
 40
1.0
 40
1.0
 10
106.865135051421
 20
-145.0736521859541
 30
0.0
 10
107.4177261484344
 20
-145.0736521859541
 30
0.0
 10
107.8655775258976
 20
-144.625800797177
 30
0.0
 10
107.8655775258976
 20
-144.0732096862042
 30
0.0
  0
SPLINE
  5
78
330
1F
100
AcDbEntity
  8
_U+30EC_U+30A4_U+30E4_U+30FC 1
 62
     7
420
 16777215
370
    25
100
AcDbSpline
210
0.0
220
0.0
230
1.0
 70
     8
 71
     3
 72
     8
 73
     4
 74
     0
 42
0.0000000001
 43
0.0000000001
 12
1.0
 22
0.0
 32
0.0
 13
1.0
 23
0.0
 33
0.0
 40
0.0
 40
0.0
 40
0.0
 40
0.0
 40
1.0
 40
1.0
 40
1.0
 40
1.0
 10
113.6647148779493
 20
-122.2735185805428
 30
0.0
 10
114.051253479199
 20
-122.2735185805428
 30
0.0
 10
114.3647670823117
 20
-121.9600049695099
 30
0.0
 10
114.3647670823117
 20
-121.5734663584955
 30
0.0
  0
SPLINE
  5
79
330
1F
100
AcDbEntity
  8
_U+30EC_U+30A4_U+30E4_U+30FC 1
 62
     7
420
 16777215
370
     9
100
AcDbSpline
210
0.0
220
0.0
230
1.0
 70
    11
 71
     3
 72
    17
 73
    13
 74
     0
 42
0.0000000001
 43
0.0000000001
 12
1.0
 22
0.0
 32
0.0
 13
1.0
 23
0.0
 33
0.0
 40
0.0
 40
0.0
 40
0.0
 40
0.0
 40
1.0
 40
1.0
 40
1.0
 40
2.0
 40
2.0
 40
2.0
 40
3.0
 40
3.0
 40
3.0
 40
4.0
 40
4.0
 40
4.0
 40
4.0
 10
114.4646737464296
 20
-110.3930919168461
 30
0.0
 10
114.4646737464296
 20
-110.3379527501934
 30
0.0
 10
114.4198709697948
 20
-110.2931852502045
 30
0.0
 10
114.3647670823117
 20
-110.2931852502045
 30
0.0
 10
114.3096279170518
 20
-110.2931852502045
 30
0.0
 10
114.2648604181939
 20
-110.3379527501934
 30
0.0
 10
114.2648604181939
 20
-110.3930919168461
 30
0.0
 10
114.2648604181939
 20
-110.4481958057214
 30
0.0
 10
114.3096279170518
 20
-110.4929985834878
 30
0.0
 10
114.3647670823117
 20
-110.4929985834878
 30
0.0
 10
114.4198709697948
 20
-110.4929985834878
 30
0.0
 10
114.4646737464296
 20
-110.4481958057214
 30
0.0
 10
114.4646737464296
 20
-110.3930919168461
 30
0.0
  0
SPLINE
  5
7A
330
1F
100
AcDbEntity
  8
_U+30EC_U+30A4_U+30E4_U+30FC 1
 62
     7
420
 16777215
370
     9
100
AcDbSpline
210
0.0
220
0.0
230
1.0
 70
    11
 71
     3
 72
    17
 73
    13
 74
     0
 42
0.0000000001
 43
0.0000000001
 12
1.0
 22
0.0
 32
0.0
 13
1.0
 23
0.0
 33
0.0
 40
0.0
 40
0.0
 40
0.0
 40
0.0
 40
1.0
 40
1.0
 40
1.0
 40
2.0
 40
2.0
 40
2.0
 40
3.0
 40
3.0
 40
3.0
 40
4.0
 40
4.0
 40
4.0
 40
4.0
 10
76.56484082444595
 20
-110.3930919168461
 30
0.0
 10
76.56484082444595
 20
-110.3379527501934
 30
0.0
 10
76.5200380478112
 20
-110.2931852502045
 30
0.0
 10
76.46493609199496
 20
-110.2931852502045
 30
0.0
 10
76.40979499506817
 20
-110.2931852502045
 30
0.0
 10
76.36502749621029
 20
-110.3379527501934
 30
0.0
 10
76.36502749621029
 20
-110.3930919168461
 30
0.0
 10
76.36502749621029
 20
-110.4481958057214
 30
0.0
 10
76.40979499506817
 20
-110.4929985834878
 30
0.0
 10
76.46493609199496
 20
-110.4929985834878
 30
0.0
 10
76.5200380478112
 20
-110.4929985834878
 30
0.0
 10
76.56484082444595
 20
-110.4481958057214
 30
0.0
 10
76.56484082444595
 20
-110.3930919168461
 30
0.0
  0
SPLINE
  5
7B
330
1F
100
AcDbEntity
  8
_U+30EC_U+30A4_U+30E4_U+30FC 1
 62
     7
420
 16777215
370
     9
100
AcDbSpline
210
0.0
220
0.0
230
1.0
 70
    11
 71
     3
 72
    17
 73
    13
 74
     0
 42
0.0000000001
 43
0.0000000001
 12
1.0
 22
0.0
 32
0.0
 13
1.0
 23
0.0
 33
0.0
 40
0.0
 40
0.0
 40
0.0
 40
0.0
 40
1.0
 40
1.0
 40
1.0
 40
2.0
 40
2.0
 40
2.0
 40
3.0
 40
3.0
 40
3.0
 40
4.0
 40
4.0
 40
4.0
 40
4.0
 10
75.46516387002274
 20
-115.5738099711067
 30
0.0
 10
75.46516387002274
 20
-115.5187060822314
 30
0.0
 10
75.42036109225602
 20
-115.4739033044647
 30
0.0
 10
75.36525529949438
 20
-115.4739033044647
 30
0.0
 10
75.31011613423442
 20
-115.4739033044647
 30
0.0
 10
75.26534863537654
 20
-115.5187060822314
 30
0.0
 10
75.26534863537654
 20
-115.5738099711067
 30
0.0
 10
75.26534863537654
 20
-115.6293019155372
 30
0.0
 10
75.31011613423442
 20
-115.6740694155261
 30
0.0
 10
75.36525529949438
 20
-115.6740694155261
 30
0.0
 10
75.42036109225602
 20
-115.6740694155261
 30
0.0
 10
75.46516387002274
 20
-115.6293019155372
 30
0.0
 10
75.46516387002274
 20
-115.5738099711067
 30
0.0
  0
SPLINE
  5
7C
330
1F
100
AcDbEntity
  8
_U+30EC_U+30A4_U+30E4_U+30FC 1
 62
     7
420
 16777215
370
     9
100
AcDbSpline
210
0.0
220
0.0
230
1.0
 70
    11
 71
     3
 72
    17
 73
    13
 74
     0
 42
0.0000000001
 43
0.0000000001
 12
1.0
 22
0.0
 32
0.0
 13
1.0
 23
0.0
 33
0.0
 40
0.0
 40
0.0
 40
0.0
 40
0.0
 40
1.0
 40
1.0
 40
1.0
 40
2.0
 40
2.0
 40
2.0
 40
3.0
 40
3.0
 40
3.0
 40
4.0
 40
4.0
 40
4.0
 40
4.0
 10
76.46493609199496
 20
-115.5738099711067
 30
0.0
 10
76.46493609199496
 20
-115.5187060822314
 30
0.0
 10
76.42013331422824
 20
-115.4739033044647
 30
0.0
 10
76.36502749621029
 20
-115.4739033044647
 30
0.0
 10
76.30988833095033
 20
-115.4739033044647
 30
0.0
 10
76.26512083209245
 20
-115.5187060822314
 30
0.0
 10
76.26512083209245
 20
-115.5738099711067
 30
0.0
 10
76.26512083209245
 20
-115.6293019155372
 30
0.0
 10
76.30988833095033
 20
-115.6740694155261
 30
0.0
 10
76.36502749621029
 20
-115.6740694155261
 30
0.0
 10
76.42013331422824
 20
-115.6740694155261
 30
0.0
 10
76.46493609199496
 20
-115.6293019155372
 30
0.0
 10
76.46493609199496
 20
-115.5738099711067
 30
0.0
  0
SPLINE
  5
7D
330
1F
100
AcDbEntity
  8
_U+30EC_U+30A4_U+30E4_U+30FC 1
 62
     7
420
 16777215
370
     9
100
AcDbSpline
210
0.0
220
0.0
230
1.0
 70
    11
 71
     3
 72
    17
 73
    13
 74
     0
 42
0.0000000001
 43
0.0000000001
 12
1.0
 22
0.0
 32
0.0
 13
1.0
 23
0.0
 33
0.0
 40
0.0
 40
0.0
 40
0.0
 40
0.0
 40
1.0
 40
1.0
 40
1.0
 40
2.0
 40
2.0
 40
2.0
 40
3.0
 40
3.0
 40
3.0
 40
4.0
 40
4.0
 40
4.0
 40
4.0
 10
71.4654028989879
 20
-145.0736521859541
 30
0.0
 10
71.4654028989879
 20
-145.0185482970785
 30
0.0
 10
71.42060012235314
 20
-144.9737455193118
 30
0.0
 10
71.36549623487006
 20
-144.9737455193118
 30
0.0
 10
71.30968679184944
 20
-144.9737455193118
 30
0.0
 10
71.26488401521468
 20
-145.0185482970785
 30
0.0
 10
71.26488401521468
 20
-145.0736521859541
 30
0.0
 10
71.26488401521468
 20
-145.1287913526065
 30
0.0
 10
71.30968679184944
 20
-145.1735588525957
 30
0.0
 10
71.36549623487006
 20
-145.1735588525957
 30
0.0
 10
71.42060012235314
 20
-145.1735588525957
 30
0.0
 10
71.4654028989879
 20
-145.1287913526065
 30
0.0
 10
71.4654028989879
 20
-145.0736521859541
 30
0.0
  0
SPLINE
  5
7E
330
1F
100
AcDbEntity
  8
_U+30EC_U+30A4_U+30E4_U+30FC 1
 62
     7
420
 16777215
370
     9
100
AcDbSpline
210
0.0
220
0.0
230
1.0
 70
    11
 71
     3
 72
    17
 73
    13
 74
     0
 42
0.0000000001
 43
0.0000000001
 12
1.0
 22
0.0
 32
0.0
 13
1.0
 23
0.0
 33
0.0
 40
0.0
 40
0.0
 40
0.0
 40
0.0
 40
1.0
 40
1.0
 40
1.0
 40
2.0
 40
2.0
 40
2.0
 40
3.0
 40
3.0
 40
3.0
 40
4.0
 40
4.0
 40
4.0
 40
4.0
 10
71.4654028989879
 20
-113.573948027162
 30
0.0
 10
71.4654028989879
 20
-113.5188088605093
 30
0.0
 10
71.42060012235314
 20
-113.4740413605204
 30
0.0
 10
71.36549623487006
 20
-113.4740413605204
 30
0.0
 10
71.30968679184944
 20
-113.4740413605204
 30
0.0
 10
71.26488401521468
 20
-113.5188088605093
 30
0.0
 10
71.26488401521468
 20
-113.573948027162
 30
0.0
 10
71.26488401521468
 20
-113.6290519160372
 30
0.0
 10
71.30968679184944
 20
-113.6738546938036
 30
0.0
 10
71.36549623487006
 20
-113.6738546938036
 30
0.0
 10
71.42060012235314
 20
-113.6738546938036
 30
0.0
 10
71.4654028989879
 20
-113.6290519160372
 30
0.0
 10
71.4654028989879
 20
-113.573948027162
 30
0.0
  0
SPLINE
  5
7F
330
1F
100
AcDbEntity
  8
_U+30EC_U+30A4_U+30E4_U+30FC 1
 62
     7
420
 16777215
370
     9
100
AcDbSpline
210
0.0
220
0.0
230
1.0
 70
    11
 71
     3
 72
    17
 73
    13
 74
     0
 42
0.0000000001
 43
0.0000000001
 12
1.0
 22
0.0
 32
0.0
 13
1.0
 23
0.0
 33
0.0
 40
0.0
 40
0.0
 40
0.0
 40
0.0
 40
1.0
 40
1.0
 40
1.0
 40
2.0
 40
2.0
 40
2.0
 40
3.0
 40
3.0
 40
3.0
 40
4.0
 40
4.0
 40
4.0
 40
4.0
 10
106.9650444177034
 20
-149.0734113516203
 30
0.0
 10
106.9650444177034
 20
-149.0183074627454
 30
0.0
 10
106.920274216681
 20
-148.9735046849787
 30
0.0
 10
106.865135051421
 20
-148.9735046849787
 30
0.0
 10
106.810031163938
 20
-148.9735046849787
 30
0.0
 10
106.7652283873032
 20
-149.0183074627454
 30
0.0
 10
106.7652283873032
 20
-149.0734113516203
 30
0.0
 10
106.7652283873032
 20
-149.1285505182734
 30
0.0
 10
106.810031163938
 20
-149.173318018262
 30
0.0
 10
106.865135051421
 20
-149.173318018262
 30
0.0
 10
106.920274216681
 20
-149.173318018262
 30
0.0
 10
106.9650444177034
 20
-149.1285505182734
 30
0.0
 10
106.9650444177034
 20
-149.0734113516203
 30
0.0
  0
SPLINE
  5
80
330
1F
100
AcDbEntity
  8
_U+30EC_U+30A4_U+30E4_U+30FC 1
 62
     7
420
 16777215
370
     9
100
AcDbSpline
210
0.0
220
0.0
230
1.0
 70
    11
 71
     3
 72
    17
 73
    13
 74
     0
 42
0.0000000001
 43
0.0000000001
 12
1.0
 22
0.0
 32
0.0
 13
1.0
 23
0.0
 33
0.0
 40
0.0
 40
0.0
 40
0.0
 40
0.0
 40
1.0
 40
1.0
 40
1.0
 40
2.0
 40
2.0
 40
2.0
 40
3.0
 40
3.0
 40
3.0
 40
4.0
 40
4.0
 40
4.0
 40
4.0
 10
75.46516387002274
 20
-149.0734113516203
 30
0.0
 10
75.46516387002274
 20
-149.0183074627454
 30
0.0
 10
75.42036109225602
 20
-148.9735046849787
 30
0.0
 10
75.36525529949438
 20
-148.9735046849787
 30
0.0
 10
75.31011613423442
 20
-148.9735046849787
 30
0.0
 10
75.26534863537654
 20
-149.0183074627454
 30
0.0
 10
75.26534863537654
 20
-149.0734113516203
 30
0.0
 10
75.26534863537654
 20
-149.1285505182734
 30
0.0
 10
75.31011613423442
 20
-149.173318018262
 30
0.0
 10
75.36525529949438
 20
-149.173318018262
 30
0.0
 10
75.42036109225602
 20
-149.173318018262
 30
0.0
 10
75.46516387002274
 20
-149.1285505182734
 30
0.0
 10
75.46516387002274
 20
-149.0734113516203
 30
0.0
  0
SPLINE
  5
81
330
1F
100
AcDbEntity
  8
_U+30EC_U+30A4_U+30E4_U+30FC 1
 62
     7
420
 16777215
370
     9
100
AcDbSpline
210
0.0
220
0.0
230
1.0
 70
    11
 71
     3
 72
    17
 73
    13
 74
     0
 42
0.0000000001
 43
0.0000000001
 12
1.0
 22
0.0
 32
0.0
 13
1.0
 23
0.0
 33
0.0
 40
0.0
 40
0.0
 40
0.0
 40
0.0
 40
1.0
 40
1.0
 40
1.0
 40
2.0
 40
2.0
 40
2.0
 40
3.0
 40
3.0
 40
3.0
 40
4.0
 40
4.0
 40
4.0
 40
4.0
 10
113.4656071052512
 20
-122.5735560804676
 30
0.0
 10
113.4656071052512
 20
-122.5184521915927
 30
0.0
 10
113.4208043286164
 20
-122.473649413826
 30
0.0
 10
113.3657004411334
 20
-122.473649413826
 30
0.0
 10
113.3098909981127
 20
-122.473649413826
 30
0.0
 10
113.265088221478
 20
-122.5184521915927
 30
0.0
 10
113.265088221478
 20
-122.5735560804676
 30
0.0
 10
113.265088221478
 20
-122.6290480248984
 30
0.0
 10
113.3098909981127
 20
-122.673815524887
 30
0.0
 10
113.3657004411334
 20
-122.673815524887
 30
0.0
 10
113.4208043286164
 20
-122.673815524887
 30
0.0
 10
113.4656071052512
 20
-122.6290480248984
 30
0.0
 10
113.4656071052512
 20
-122.5735560804676
 30
0.0
  0
SPLINE
  5
82
330
1F
100
AcDbEntity
  8
_U+30EC_U+30A4_U+30E4_U+30FC 1
 62
     7
420
 16777215
370
     9
100
AcDbSpline
210
0.0
220
0.0
230
1.0
 70
    11
 71
     3
 72
    17
 73
    13
 74
     0
 42
0.0000000001
 43
0.0000000001
 12
1.0
 22
0.0
 32
0.0
 13
1.0
 23
0.0
 33
0.0
 40
0.0
 40
0.0
 40
0.0
 40
0.0
 40
1.0
 40
1.0
 40
1.0
 40
2.0
 40
2.0
 40
2.0
 40
3.0
 40
3.0
 40
3.0
 40
4.0
 40
4.0
 40
4.0
 40
4.0
 10
113.4656071052512
 20
-144.0732096862042
 30
0.0
 10
113.4656071052512
 20
-144.0180705195511
 30
0.0
 10
113.4208043286164
 20
-143.9733030195626
 30
0.0
 10
113.3657004411334
 20
-143.9733030195626
 30
0.0
 10
113.3098909981127
 20
-143.9733030195626
 30
0.0
 10
113.265088221478
 20
-144.0180705195511
 30
0.0
 10
113.265088221478
 20
-144.0732096862042
 30
0.0
 10
113.265088221478
 20
-144.1290191306346
 30
0.0
 10
113.3098909981127
 20
-144.1737866306232
 30
0.0
 10
113.3657004411334
 20
-144.1737866306232
 30
0.0
 10
113.4208043286164
 20
-144.1737866306232
 30
0.0
 10
113.4656071052512
 20
-144.1290191306346
 30
0.0
 10
113.4656071052512
 20
-144.0732096862042
 30
0.0
  0
INSERT
  5
84
330
1F
100
AcDbEntity
  8
_U+30EC_U+30A4_U+30E4_U+30FC 1
100
AcDbBlockReference
  2
block 2
 10
0.0
 20
0.0
 30
0.0
  0
POLYLINE
  5
8C
330
1F
100
AcDbEntity
  8
_U+30EC_U+30A4_U+30E4_U+30FC 1
 62
     7
420
 16777215
370
     9
100
AcDb2dPolyline
 66
     1
 10
0.0
 20
0.0
 30
0.0
  0
VERTEX
  5
8D
330
8C
100
AcDbEntity
  8
_U+30EC_U+30A4_U+30E4_U+30FC 1
 62
     7
420
 16777215
370
     9
100
AcDbVertex
100
AcDb2dVertex
 10
76.36502749621029
 20
-110.3930919168461
 30
0.0
  0
VERTEX
  5
8E
330
8C
100
AcDbEntity
  8
_U+30EC_U+30A4_U+30E4_U+30FC 1
 62
     7
420
 16777215
370
     9
100
AcDbVertex
100
AcDb2dVertex
 10
114.3647670823117
 20
-110.3930919168461
 30
0.0
  0
SEQEND
  5
8F
330
8C
100
AcDbEntity
  8
_U+30EC_U+30A4_U+30E4_U+30FC 1
 62
     7
420
 16777215
370
     9
  0
POLYLINE
  5
90
330
1F
100
AcDbEntity
  8
_U+30EC_U+30A4_U+30E4_U+30FC 1
 62
     7
420
 16777215
370
     9
100
AcDb2dPolyline
 66
     1
 10
0.0
 20
0.0
 30
0.0
  0
VERTEX
  5
91
330
90
100
AcDbEntity
  8
_U+30EC_U+30A4_U+30E4_U+30FC 1
 62
     7
420
 16777215
370
     9
100
AcDbVertex
100
AcDb2dVertex
 10
76.46493609199496
 20
-112.8528702495645
 30
0.0
  0
VERTEX
  5
92
330
90
100
AcDbEntity
  8
_U+30EC_U+30A4_U+30E4_U+30FC 1
 62
     7
420
 16777215
370
     9
100
AcDbVertex
100
AcDb2dVertex
 10
76.46493609199496
 20
-109.3929669170961
 30
0.0
  0
SEQEND
  5
93
330
90
100
AcDbEntity
  8
_U+30EC_U+30A4_U+30E4_U+30FC 1
 62
     7
420
 16777215
370
     9
  0
POLYLINE
  5
94
330
1F
100
AcDbEntity
  8
_U+30EC_U+30A4_U+30E4_U+30FC 1
 62
     7
420
 16777215
370
     9
100
AcDb2dPolyline
 66
     1
 10
0.0
 20
0.0
 30
0.0
  0
VERTEX
  5
95
330
94
100
AcDbEntity
  8
_U+30EC_U+30A4_U+30E4_U+30FC 1
 62
     7
420
 16777215
370
     9
100
AcDbVertex
100
AcDb2dVertex
 10
114.3647670823117
 20
-120.3528552476895
 30
0.0
  0
VERTEX
  5
96
330
94
100
AcDbEntity
  8
_U+30EC_U+30A4_U+30E4_U+30FC 1
 62
     7
420
 16777215
370
     9
100
AcDbVertex
100
AcDb2dVertex
 10
114.3647670823117
 20
-109.3929669170961
 30
0.0
  0
SEQEND
  5
97
330
94
100
AcDbEntity
  8
_U+30EC_U+30A4_U+30E4_U+30FC 1
 62
     7
420
 16777215
370
     9
  0
INSERT
  5
99
330
1F
100
AcDbEntity
  8
_U+30EC_U+30A4_U+30E4_U+30FC 1
100
AcDbBlockReference
  2
block 3
 10
0.0
 20
0.0
 30
0.0
  0
POLYLINE
  5
A2
330
1F
100
AcDbEntity
  8
_U+30EC_U+30A4_U+30E4_U+30FC 1
 62
     7
420
 16777215
370
     9
100
AcDb2dPolyline
 66
     1
 10
0.0
 20
0.0
 30
0.0
  0
VERTEX
  5
A3
330
A2
100
AcDbEntity
  8
_U+30EC_U+30A4_U+30E4_U+30FC 1
 62
     7
420
 16777215
370
     9
100
AcDbVertex
100
AcDb2dVertex
 10
76.36502749621029
 20
-115.5738099711067
 30
0.0
  0
VERTEX
  5
A4
330
A2
100
AcDbEntity
  8
_U+30EC_U+30A4_U+30E4_U+30FC 1
 62
     7
420
 16777215
370
     9
100
AcDbVertex
100
AcDb2dVertex
 10
80.1353399000216
 20
-115.5738099711067
 30
0.0
  0
SEQEND
  5
A5
330
A2
100
AcDbEntity
  8
_U+30EC_U+30A4_U+30E4_U+30FC 1
 62
     7
420
 16777215
370
     9
  0
POLYLINE
  5
A6
330
1F
100
AcDbEntity
  8
_U+30EC_U+30A4_U+30E4_U+30FC 1
 62
     7
420
 16777215
370
     9
100
AcDb2dPolyline
 66
     1
 10
0.0
 20
0.0
 30
0.0
  0
VERTEX
  5
A7
330
A6
100
AcDbEntity
  8
_U+30EC_U+30A4_U+30E4_U+30FC 1
 62
     7
420
 16777215
370
     9
100
AcDbVertex
100
AcDb2dVertex
 10
74.36548310277847
 20
-115.5738099711067
 30
0.0
  0
VERTEX
  5
A8
330
A6
100
AcDbEntity
  8
_U+30EC_U+30A4_U+30E4_U+30FC 1
 62
     7
420
 16777215
370
     9
100
AcDbVertex
100
AcDb2dVertex
 10
76.36502749621029
 20
-115.5738099711067
 30
0.0
  0
SEQEND
  5
A9
330
A6
100
AcDbEntity
  8
_U+30EC_U+30A4_U+30E4_U+30FC 1
 62
     7
420
 16777215
370
     9
  0
INSERT
  5
AB
330
1F
100
AcDbEntity
  8
_U+30EC_U+30A4_U+30E4_U+30FC 1
100
AcDbBlockReference
  2
block 4
 10
0.0
 20
0.0
 30
0.0
  0
POLYLINE
  5
B0
330
1F
100
AcDbEntity
  8
_U+30EC_U+30A4_U+30E4_U+30FC 1
 62
     7
420
 16777215
370
     9
100
AcDb2dPolyline
 66
     1
 10
0.0
 20
0.0
 30
0.0
  0
VERTEX
  5
B1
330
B0
100
AcDbEntity
  8
_U+30EC_U+30A4_U+30E4_U+30FC 1
 62
     7
420
 16777215
370
     9
100
AcDbVertex
100
AcDb2dVertex
 10
71.36549623487006
 20
-145.0736521859541
 30
0.0
  0
VERTEX
  5
B2
330
B0
100
AcDbEntity
  8
_U+30EC_U+30A4_U+30E4_U+30FC 1
 62
     7
420
 16777215
370
     9
100
AcDbVertex
100
AcDb2dVertex
 10
71.36549623487006
 20
-113.573948027162
 30
0.0
  0
SEQEND
  5
B3
330
B0
100
AcDbEntity
  8
_U+30EC_U+30A4_U+30E4_U+30FC 1
 62
     7
420
 16777215
370
     9
  0
POLYLINE
  5
B4
330
1F
100
AcDbEntity
  8
_U+30EC_U+30A4_U+30E4_U+30FC 1
 62
     7
420
 16777215
370
     9
100
AcDb2dPolyline
 66
     1
 10
0.0
 20
0.0
 30
0.0
  0
VERTEX
  5
B5
330
B4
100
AcDbEntity
  8
_U+30EC_U+30A4_U+30E4_U+30FC 1
 62
     7
420
 16777215
370
     9
100
AcDbVertex
100
AcDb2dVertex
 10
73.8253097832261
 20
-145.0736521859541
 30
0.0
  0
VERTEX
  5
B6
330
B4
100
AcDbEntity
  8
_U+30EC_U+30A4_U+30E4_U+30FC 1
 62
     7
420
 16777215
370
     9
100
AcDbVertex
100
AcDb2dVertex
 10
70.36505553796431
 20
-145.0736521859541
 30
0.0
  0
SEQEND
  5
B7
330
B4
100
AcDbEntity
  8
_U+30EC_U+30A4_U+30E4_U+30FC 1
 62
     7
420
 16777215
370
     9
  0
POLYLINE
  5
B8
330
1F
100
AcDbEntity
  8
_U+30EC_U+30A4_U+30E4_U+30FC 1
 62
     7
420
 16777215
370
     9
100
AcDb2dPolyline
 66
     1
 10
0.0
 20
0.0
 30
0.0
  0
VERTEX
  5
B9
330
B8
100
AcDbEntity
  8
_U+30EC_U+30A4_U+30E4_U+30FC 1
 62
     7
420
 16777215
370
     9
100
AcDbVertex
100
AcDb2dVertex
 10
73.8253097832261
 20
-113.573948027162
 30
0.0
  0
VERTEX
  5
BA
330
B8
100
AcDbEntity
  8
_U+30EC_U+30A4_U+30E4_U+30FC 1
 62
     7
420
 16777215
370
     9
100
AcDbVertex
100
AcDb2dVertex
 10
70.36505553796431
 20
-113.573948027162
 30
0.0
  0
SEQEND
  5
BB
330
B8
100
AcDbEntity
  8
_U+30EC_U+30A4_U+30E4_U+30FC 1
 62
     7
420
 16777215
370
     9
  0
INSERT
  5
BD
330
1F
100
AcDbEntity
  8
_U+30EC_U+30A4_U+30E4_U+30FC 1
100
AcDbBlockReference
  2
block 5
 10
0.0
 20
0.0
 30
0.0
  0
POLYLINE
  5
CE
330
1F
100
AcDbEntity
  8
_U+30EC_U+30A4_U+30E4_U+30FC 1
 62
     7
420
 16777215
370
     9
100
AcDb2dPolyline
 66
     1
 10
0.0
 20
0.0
 30
0.0
  0
VERTEX
  5
CF
330
CE
100
AcDbEntity
  8
_U+30EC_U+30A4_U+30E4_U+30FC 1
 62
     7
420
 16777215
370
     9
100
AcDbVertex
100
AcDb2dVertex
 10
75.36525529949438
 20
-149.0734113516203
 30
0.0
  0
VERTEX
  5
D0
330
CE
100
AcDbEntity
  8
_U+30EC_U+30A4_U+30E4_U+30FC 1
 62
     7
420
 16777215
370
     9
100
AcDbVertex
100
AcDb2dVertex
 10
106.865135051421
 20
-149.0734113516203
 30
0.0
  0
SEQEND
  5
D1
330
CE
100
AcDbEntity
  8
_U+30EC_U+30A4_U+30E4_U+30FC 1
 62
     7
420
 16777215
370
     9
  0
POLYLINE
  5
D2
330
1F
100
AcDbEntity
  8
_U+30EC_U+30A4_U+30E4_U+30FC 1
 62
     7
420
 16777215
370
     9
100
AcDb2dPolyline
 66
     1
 10
0.0
 20
0.0
 30
0.0
  0
VERTEX
  5
D3
330
D2
100
AcDbEntity
  8
_U+30EC_U+30A4_U+30E4_U+30FC 1
 62
     7
420
 16777215
370
     9
100
AcDbVertex
100
AcDb2dVertex
 10
75.36525529949438
 20
-146.6136330189022
 30
0.0
  0
VERTEX
  5
D4
330
D2
100
AcDbEntity
  8
_U+30EC_U+30A4_U+30E4_U+30FC 1
 62
     7
420
 16777215
370
     9
100
AcDbVertex
100
AcDb2dVertex
 10
75.36525529949438
 20
-150.0738891291484
 30
0.0
  0
SEQEND
  5
D5
330
D2
100
AcDbEntity
  8
_U+30EC_U+30A4_U+30E4_U+30FC 1
 62
     7
420
 16777215
370
     9
  0
POLYLINE
  5
D6
330
1F
100
AcDbEntity
  8
_U+30EC_U+30A4_U+30E4_U+30FC 1
 62
     7
420
 16777215
370
     9
100
AcDb2dPolyline
 66
     1
 10
0.0
 20
0.0
 30
0.0
  0
VERTEX
  5
D7
330
D6
100
AcDbEntity
  8
_U+30EC_U+30A4_U+30E4_U+30FC 1
 62
     7
420
 16777215
370
     9
100
AcDbVertex
100
AcDb2dVertex
 10
106.865135051421
 20
-146.6136330189022
 30
0.0
  0
VERTEX
  5
D8
330
D6
100
AcDbEntity
  8
_U+30EC_U+30A4_U+30E4_U+30FC 1
 62
     7
420
 16777215
370
     9
100
AcDbVertex
100
AcDb2dVertex
 10
106.865135051421
 20
-150.0738891291484
 30
0.0
  0
SEQEND
  5
D9
330
D6
100
AcDbEntity
  8
_U+30EC_U+30A4_U+30E4_U+30FC 1
 62
     7
420
 16777215
370
     9
  0
INSERT
  5
DB
330
1F
100
AcDbEntity
  8
_U+30EC_U+30A4_U+30E4_U+30FC 1
100
AcDbBlockReference
  2
block 6
 10
0.0
 20
0.0
 30
0.0
  0
POLYLINE
  5
EC
330
1F
100
AcDbEntity
  8
_U+30EC_U+30A4_U+30E4_U+30FC 1
 62
     7
420
 16777215
370
     9
100
AcDb2dPolyline
 66
     1
 10
0.0
 20
0.0
 30
0.0
  0
VERTEX
  5
ED
330
EC
100
AcDbEntity
  8
_U+30EC_U+30A4_U+30E4_U+30FC 1
 62
     7
420
 16777215
370
     9
100
AcDbVertex
100
AcDb2dVertex
 10
113.3657004411334
 20
-144.0732096862042
 30
0.0
  0
VERTEX
  5
EE
330
EC
100
AcDbEntity
  8
_U+30EC_U+30A4_U+30E4_U+30FC 1
 62
     7
420
 16777215
370
     9
100
AcDbVertex
100
AcDb2dVertex
 10
113.3657004411334
 20
-122.5735560804676
 30
0.0
  0
SEQEND
  5
EF
330
EC
100
AcDbEntity
  8
_U+30EC_U+30A4_U+30E4_U+30FC 1
 62
     7
420
 16777215
370
     9
  0
POLYLINE
  5
F0
330
1F
100
AcDbEntity
  8
_U+30EC_U+30A4_U+30E4_U+30FC 1
 62
     7
420
 16777215
370
     9
100
AcDb2dPolyline
 66
     1
 10
0.0
 20
0.0
 30
0.0
  0
VERTEX
  5
F1
330
F0
100
AcDbEntity
  8
_U+30EC_U+30A4_U+30E4_U+30FC 1
 62
     7
420
 16777215
370
     9
100
AcDbVertex
100
AcDb2dVertex
 10
109.4055610837598
 20
-144.0732096862042
 30
0.0
  0
VERTEX
  5
F2
330
F0
100
AcDbEntity
  8
_U+30EC_U+30A4_U+30E4_U+30FC 1
 62
     7
420
 16777215
370
     9
100
AcDbVertex
100
AcDb2dVertex
 10
114.3654373600724
 20
-144.0732096862042
 30
0.0
  0
SEQEND
  5
F3
330
F0
100
AcDbEntity
  8
_U+30EC_U+30A4_U+30E4_U+30FC 1
 62
     7
420
 16777215
370
     9
  0
POLYLINE
  5
F4
330
1F
100
AcDbEntity
  8
_U+30EC_U+30A4_U+30E4_U+30FC 1
 62
     7
420
 16777215
370
     9
100
AcDb2dPolyline
 66
     1
 10
0.0
 20
0.0
 30
0.0
  0
VERTEX
  5
F5
330
F4
100
AcDbEntity
  8
_U+30EC_U+30A4_U+30E4_U+30FC 1
 62
     7
420
 16777215
370
     9
100
AcDbVertex
100
AcDb2dVertex
 10
111.9056590894932
 20
-122.5735560804676
 30
0.0
  0
VERTEX
  5
F6
330
F4
100
AcDbEntity
  8
_U+30EC_U+30A4_U+30E4_U+30FC 1
 62
     7
420
 16777215
370
     9
100
AcDbVertex
100
AcDb2dVertex
 10
114.3654373600724
 20
-122.5735560804676
 30
0.0
  0
SEQEND
  5
F7
330
F4
100
AcDbEntity
  8
_U+30EC_U+30A4_U+30E4_U+30FC 1
 62
     7
420
 16777215
370
     9
  0
INSERT
  5
F9
330
1F
100
AcDbEntity
  8
_U+30EC_U+30A4_U+30E4_U+30FC 1
100
AcDbBlockReference
  2
block 7
 10
0.0
 20
0.0
 30
0.0
  0
ENDSEC
  0
SECTION
  2
OBJECTS
  0
DICTIONARY
  5
C
330
0
100
AcDbDictionary
281
     1
  3
ACAD_GROUP
350
D
  3
ACAD_LAYOUT
350
1A
  3
ACAD_MATERIAL
350
3B
  3
ACAD_MLEADERSTYLE
350
10B
  3
ACAD_MLINESTYLE
350
17
  3
ACAD_PLOTSETTINGS
350
19
  3
ACAD_PLOTSTYLENAME
350
E
  3
ACAD_TABLESTYLE
350
10A
  3
ACAD_VISUALSTYLE
350
2A
  0
SUN
  5
3F
330
29
100
AcDbSun
 90
        1
290
     0
 63
     7
421
 16777215
 40
1.0
291
     1
 91
  2455826
 92
 54000000
292
     0
 70
     2
 71
   256
280
     1
  0
DICTIONARY
  5
D
102
{ACAD_REACTORS
330
C
102
}
330
C
100
AcDbDictionary
281
     1
  0
DICTIONARY
  5
1A
102
{ACAD_REACTORS
330
C
102
}
330
C
100
AcDbDictionary
281
     1
  3
Layout1
350
1E
  3
Layout2
350
26
  3
Model
350
22
  0
DICTIONARY
  5
3B
102
{ACAD_REACTORS
330
C
102
}
330
C
100
AcDbDictionary
281
     1
  3
ByBlock
350
3D
  3
ByLayer
350
3C
  3
Global
350
3E
  0
DICTIONARY
  5
10B
102
{ACAD_REACTORS
330
C
102
}
330
C
100
AcDbDictionary
281
     1
  0
DICTIONARY
  5
17
102
{ACAD_REACTORS
330
C
102
}
330
C
100
AcDbDictionary
281
     1
  3
Standard
350
18
  0
DICTIONARY
  5
19
102
{ACAD_REACTORS
330
C
102
}
330
C
100
AcDbDictionary
281
     1
  0
ACDBDICTIONARYWDFLT
  5
E
102
{ACAD_REACTORS
330
C
102
}
330
C
100
AcDbDictionary
281
     1
  3
Normal
350
F
100
AcDbDictionaryWithDefault
340
F
  0
DICTIONARY
  5
10A
102
{ACAD_REACTORS
330
C
102
}
330
C
100
AcDbDictionary
281
     1
  0
DICTIONARY
  5
2A
102
{ACAD_REACTORS
330
C
102
}
330
C
100
AcDbDictionary
281
     1
  3
2dWireframe
350
2F
  3
3D Hidden
350
31
  3
3dWireframe
350
30
  3
Basic
350
32
  3
Brighten
350
36
  3
ColorChange
350
3A
  3
Conceptual
350
34
  3
Dim
350
35
  3
Facepattern
350
39
  3
Flat
350
2B
  3
FlatWithEdges
350
2C
  3
Gouraud
350
2D
  3
GouraudWithEdges
350
2E
  3
Linepattern
350
38
  3
Realistic
350
33
  3
Thicken
350
37
  0
LAYOUT
  5
1E
102
{ACAD_REACTORS
330
1A
102
}
330
1A
100
AcDbPlotSettings
  1

  2
none_device
  4

  6

 40
0.0
 41
0.0
 42
0.0
 43
0.0
 44
0.0
 45
0.0
 46
0.0
 47
0.0
 48
0.0
 49
0.0
140
0.0
141
0.0
142
1.0
143
1.0
 70
   688
 72
     0
 73
     0
 74
     5
  7

 75
    16
 76
     0
 77
     2
 78
   300
147
1.0
148
0.0
149
0.0
100
AcDbLayout
  1
Layout1
 70
     1
 71
     1
 10
0.0
 20
0.0
 11
12.0
 21
9.0
 12
0.0
 22
0.0
 32
0.0
 14
1.000000000000000E+20
 24
1.000000000000000E+20
 34
1.000000000000000E+20
 15
-1.000000000000000E+20
 25
-1.000000000000000E+20
 35
-1.000000000000000E+20
146
0.0
 13
0.0
 23
0.0
 33
0.0
 16
1.0
 26
0.0
 36
0.0
 17
0.0
 27
1.0
 37
0.0
 76
     0
330
1B
  0
LAYOUT
  5
26
102
{ACAD_REACTORS
330
1A
102
}
330
1A
100
AcDbPlotSettings
  1

  2
none_device
  4

  6

 40
0.0
 41
0.0
 42
0.0
 43
0.0
 44
0.0
 45
0.0
 46
0.0
 47
0.0
 48
0.0
 49
0.0
140
0.0
141
0.0
142
1.0
143
1.0
 70
   688
 72
     0
 73
     0
 74
     5
  7

 75
    16
 76
     0
 77
     2
 78
   300
147
1.0
148
0.0
149
0.0
100
AcDbLayout
  1
Layout2
 70
     1
 71
     2
 10
0.0
 20
0.0
 11
0.0
 21
0.0
 12
0.0
 22
0.0
 32
0.0
 14
0.0
 24
0.0
 34
0.0
 15
0.0
 25
0.0
 35
0.0
146
0.0
 13
0.0
 23
0.0
 33
0.0
 16
1.0
 26
0.0
 36
0.0
 17
0.0
 27
1.0
 37
0.0
 76
     0
330
23
  0
LAYOUT
  5
22
102
{ACAD_REACTORS
330
1A
102
}
330
1A
100
AcDbPlotSettings
  1

  2
none_device
  4

  6

 40
0.0
 41
0.0
 42
0.0
 43
0.0
 44
0.0
 45
0.0
 46
0.0
 47
0.0
 48
0.0
 49
0.0
140
0.0
141
0.0
142
1.0
143
1.0
 70
  1712
 72
     0
 73
     0
 74
     0
  7

 75
     0
 76
     0
 77
     2
 78
   300
147
1.0
148
0.0
149
0.0
100
AcDbLayout
  1
Model
 70
     1
 71
     0
 10
0.0
 20
0.0
 11
12.0
 21
9.0
 12
0.0
 22
0.0
 32
0.0
 14
1.000000000000000E+20
 24
1.000000000000000E+20
 34
1.000000000000000E+20
 15
-1.000000000000000E+20
 25
-1.000000000000000E+20
 35
-1.000000000000000E+20
146
0.0
 13
0.0
 23
0.0
 33
0.0
 16
1.0
 26
0.0
 36
0.0
 17
0.0
 27
1.0
 37
0.0
 76
     0
330
1F
331
29
  0
MATERIAL
  5
3D
102
{ACAD_REACTORS
330
3B
102
}
330
3B
100
AcDbMaterial
  1
ByBlock
 72
     1
 94
      127
  0
MATERIAL
  5
3C
102
{ACAD_REACTORS
330
3B
102
}
330
3B
100
AcDbMaterial
  1
ByLayer
 72
     1
 94
      127
  0
MATERIAL
  5
3E
102
{ACAD_REACTORS
330
3B
102
}
330
3B
100
AcDbMaterial
  1
Global
 72
     1
 94
      127
  0
MLINESTYLE
  5
18
102
{ACAD_REACTORS
330
17
102
}
330
17
100
AcDbMlineStyle
  2
Standard
 70
     0
  3

 62
   256
 51
90.0
 52
90.0
 71
     2
 49
0.5
 62
   256
  6
BYLAYER
 49
-0.5
 62
   256
  6
BYLAYER
  0
ACDBPLACEHOLDER
  5
F
102
{ACAD_REACTORS
330
E
102
}
330
E
  0
VISUALSTYLE
  5
2F
102
{ACAD_REACTORS
330
2A
102
}
330
2A
100
AcDbVisualStyle
  2
2dWireframe
 70
     4
177
     2
291
     0
 71
     0
176
     1
 72
     2
176
     1
 73
     0
176
     1
 90
        0
176
     1
 40
-0.6
176
     1
 41
-30.0
176
     1
 62
     5
 63
     7
421
 16777215
176
     1
 74
     1
176
     1
 91
        4
176
     1
 64
     7
176
     1
 65
   257
176
     1
 75
     1
176
     1
175
     1
176
     1
 42
1.0
176
     1
 92
        0
176
     1
 66
   257
176
     1
 43
1.0
176
     1
 76
     1
176
     1
 77
     6
176
     1
 78
     2
176
     1
 67
     7
176
     1
 79
     5
176
     1
170
     0
176
     1
171
     0
176
     1
290
     0
176
     1
 93
        1
176
     1
 44
0.0
176
     1
173
     0
176
     1
  0
VISUALSTYLE
  5
31
102
{ACAD_REACTORS
330
2A
102
}
330
2A
100
AcDbVisualStyle
  2
3D Hidden
 70
     6
177
     2
291
     0
 71
     1
176
     1
 72
     2
176
     1
 73
     2
176
     1
 90
        0
176
     1
 40
-0.6
176
     1
 41
-30.0
176
     1
 62
     5
 63
     7
421
 16777215
176
     1
 74
     2
176
     1
 91
        2
176
     1
 64
     7
176
     1
 65
   257
176
     1
 75
     2
176
     1
175
     1
176
     1
 42
40.0
176
     1
 92
        0
176
     1
 66
   257
176
     1
 43
1.0
176
     1
 76
     1
176
     1
 77
     6
176
     1
 78
     2
176
     1
 67
     7
176
     1
 79
     3
176
     1
170
     0
176
     1
171
     0
176
     1
290
     0
176
     1
 93
        1
176
     1
 44
0.0
176
     1
173
     0
176
     1
  0
VISUALSTYLE
  5
30
102
{ACAD_REACTORS
330
2A
102
}
330
2A
100
AcDbVisualStyle
  2
3dWireframe
 70
     5
177
     2
291
     0
 71
     0
176
     1
 72
     2
176
     1
 73
     0
176
     1
 90
        0
176
     1
 40
-0.6
176
     1
 41
-30.0
176
     1
 62
     5
 63
     7
421
 16777215
176
     1
 74
     1
176
     1
 91
        4
176
     1
 64
     7
176
     1
 65
   257
176
     1
 75
     1
176
     1
175
     1
176
     1
 42
1.0
176
     1
 92
        0
176
     1
 66
   257
176
     1
 43
1.0
176
     1
 76
     1
176
     1
 77
     6
176
     1
 78
     2
176
     1
 67
     7
176
     1
 79
     5
176
     1
170
     0
176
     1
171
     0
176
     1
290
     0
176
     1
 93
        1
176
     1
 44
0.0
176
     1
173
     0
176
     1
  0
VISUALSTYLE
  5
32
102
{ACAD_REACTORS
330
2A
102
}
330
2A
100
AcDbVisualStyle
  2
Basic
 70
     7
177
     2
291
     1
 71
     1
176
     1
 72
     0
176
     1
 73
     1
176
     1
 90
        0
176
     1
 40
-0.6
176
     1
 41
-30.0
176
     1
 62
     5
 63
     7
421
 16777215
176
     1
 74
     0
176
     1
 91
        4
176
     1
 64
     7
176
     1
 65
   257
176
     1
 75
     1
176
     1
175
     1
176
     1
 42
1.0
176
     1
 92
        8
176
     1
 66
     7
176
     1
 43
1.0
176
     1
 76
     1
176
     1
 77
     6
176
     1
 78
     2
176
     1
 67
     7
176
     1
 79
     5
176
     1
170
     0
176
     1
171
     0
176
     1
290
     0
176
     1
 93
        1
176
     1
 44
0.0
176
     1
173
     0
176
     1
  0
VISUALSTYLE
  5
36
102
{ACAD_REACTORS
330
2A
102
}
330
2A
100
AcDbVisualStyle
  2
Brighten
 70
    12
177
     2
291
     1
 71
     2
176
     1
 72
     2
176
     1
 73
     0
176
     1
 90
        0
176
     1
 40
-0.6
176
     1
 41
-30.0
176
     1
 62
     5
 63
     7
421
 16777215
176
     1
 74
     1
176
     1
 91
        4
176
     1
 64
     7
176
     1
 65
   257
176
     1
 75
     1
176
     1
175
     1
176
     1
 42
1.0
176
     1
 92
        8
176
     1
 66
     7
176
     1
 43
1.0
176
     1
 76
     1
176
     1
 77
     6
176
     1
 78
     2
176
     1
 67
     7
176
     1
 79
     5
176
     1
170
     0
176
     1
171
     0
176
     1
290
     0
176
     1
 93
        1
176
     1
 44
50.0
176
     1
173
     0
176
     1
  0
VISUALSTYLE
  5
3A
102
{ACAD_REACTORS
330
2A
102
}
330
2A
100
AcDbVisualStyle
  2
ColorChange
 70
    16
177
     2
291
     1
 71
     2
176
     1
 72
     2
176
     1
 73
     3
176
     1
 90
        0
176
     1
 40
-0.6
176
     1
 41
-30.0
176
     1
 62
     5
 63
     8
421
  8421504
176
     1
 74
     1
176
     1
 91
        4
176
     1
 64
     7
176
     1
 65
   257
176
     1
 75
     1
176
     1
175
     1
176
     1
 42
1.0
176
     1
 92
        8
176
     1
 66
     8
424
  8421504
176
     1
 43
1.0
176
     1
 76
     1
176
     1
 77
     6
176
     1
 78
     2
176
     1
 67
     7
176
     1
 79
     5
176
     1
170
     0
176
     1
171
     0
176
     1
290
     0
176
     1
 93
        1
176
     1
 44
0.0
176
     1
173
     0
176
     1
  0
VISUALSTYLE
  5
34
102
{ACAD_REACTORS
330
2A
102
}
330
2A
100
AcDbVisualStyle
  2
Conceptual
 70
     9
177
     2
291
     0
 71
     3
176
     1
 72
     2
176
     1
 73
     0
176
     1
 90
        0
176
     1
 40
-0.6
176
     1
 41
-30.0
176
     1
 62
     5
 63
     7
421
 16777215
176
     1
 74
     2
176
     1
 91
        2
176
     1
 64
     7
176
     1
 65
   257
176
     1
 75
     1
176
     1
175
     1
176
     1
 42
40.0
176
     1
 92
        8
176
     1
 66
     7
176
     1
 43
1.0
176
     1
 76
     1
176
     1
 77
     6
176
     1
 78
     2
176
     1
 67
     7
176
     1
 79
     3
176
     1
170
     0
176
     1
171
     0
176
     1
290
     0
176
     1
 93
        1
176
     1
 44
0.0
176
     1
173
     0
176
     1
  0
VISUALSTYLE
  5
35
102
{ACAD_REACTORS
330
2A
102
}
330
2A
100
AcDbVisualStyle
  2
Dim
 70
    11
177
     2
291
     1
 71
     2
176
     1
 72
     2
176
     1
 73
     0
176
     1
 90
        0
176
     1
 40
-0.6
176
     1
 41
-30.0
176
     1
 62
     5
 63
     7
421
 16777215
176
     1
 74
     1
176
     1
 91
        4
176
     1
 64
     7
176
     1
 65
   257
176
     1
 75
     1
176
     1
175
     1
176
     1
 42
1.0
176
     1
 92
        8
176
     1
 66
     7
176
     1
 43
1.0
176
     1
 76
     1
176
     1
 77
     6
176
     1
 78
     2
176
     1
 67
     7
176
     1
 79
     5
176
     1
170
     0
176
     1
171
     0
176
     1
290
     0
176
     1
 93
        1
176
     1
 44
-50.0
176
     1
173
     0
176
     1
  0
VISUALSTYLE
  5
39
102
{ACAD_REACTORS
330
2A
102
}
330
2A
100
AcDbVisualStyle
  2
Facepattern
 70
    15
177
     2
291
     1
 71
     2
176
     1
 72
     2
176
     1
 73
     0
176
     1
 90
        0
176
     1
 40
-0.6
176
     1
 41
-30.0
176
     1
 62
     5
 63
     7
421
 16777215
176
     1
 74
     1
176
     1
 91
        4
176
     1
 64
     7
176
     1
 65
   257
176
     1
 75
     1
176
     1
175
     1
176
     1
 42
1.0
176
     1
 92
        8
176
     1
 66
     7
176
     1
 43
1.0
176
     1
 76
     1
176
     1
 77
     6
176
     1
 78
     2
176
     1
 67
     7
176
     1
 79
     5
176
     1
170
     0
176
     1
171
     0
176
     1
290
     0
176
     1
 93
        1
176
     1
 44
0.0
176
     1
173
     0
176
     1
  0
VISUALSTYLE
  5
2B
102
{ACAD_REACTORS
330
2A
102
}
330
2A
100
AcDbVisualStyle
  2
Flat
 70
     0
177
     2
291
     1
 71
     2
176
     1
 72
     1
176
     1
 73
     1
176
     1
 90
        2
176
     1
 40
-0.6
176
     1
 41
30.0
176
     1
 62
     5
 63
     7
421
 16777215
176
     1
 74
     0
176
     1
 91
        4
176
     1
 64
     7
176
     1
 65
   257
176
     1
 75
     1
176
     1
175
     1
176
     1
 42
1.0
176
     1
 92
        8
176
     1
 66
     7
176
     1
 43
1.0
176
     1
 76
     1
176
     1
 77
     6
176
     1
 78
     2
176
     1
 67
     7
176
     1
 79
     5
176
     1
170
     0
176
     1
171
     0
176
     1
290
     0
176
     1
 93
       13
176
     1
 44
0.0
176
     1
173
     0
176
     1
  0
VISUALSTYLE
  5
2C
102
{ACAD_REACTORS
330
2A
102
}
330
2A
100
AcDbVisualStyle
  2
FlatWithEdges
 70
     1
177
     2
291
     1
 71
     2
176
     1
 72
     1
176
     1
 73
     1
176
     1
 90
        2
176
     1
 40
-0.6
176
     1
 41
30.0
176
     1
 62
     5
 63
     7
421
 16777215
176
     1
 74
     1
176
     1
 91
        4
176
     1
 64
     7
176
     1
 65
   257
176
     1
 75
     1
176
     1
175
     1
176
     1
 42
1.0
176
     1
 92
        0
176
     1
 66
   257
176
     1
 43
1.0
176
     1
 76
     1
176
     1
 77
     6
176
     1
 78
     2
176
     1
 67
     7
176
     1
 79
     5
176
     1
170
     0
176
     1
171
     0
176
     1
290
     0
176
     1
 93
       13
176
     1
 44
0.0
176
     1
173
     0
176
     1
  0
VISUALSTYLE
  5
2D
102
{ACAD_REACTORS
330
2A
102
}
330
2A
100
AcDbVisualStyle
  2
Gouraud
 70
     2
177
     2
291
     1
 71
     2
176
     1
 72
     2
176
     1
 73
     1
176
     1
 90
        2
176
     1
 40
-0.6
176
     1
 41
30.0
176
     1
 62
     5
 63
     7
421
 16777215
176
     1
 74
     0
176
     1
 91
        4
176
     1
 64
     7
176
     1
 65
   257
176
     1
 75
     1
176
     1
175
     1
176
     1
 42
1.0
176
     1
 92
        0
176
     1
 66
     7
176
     1
 43
1.0
176
     1
 76
     1
176
     1
 77
     6
176
     1
 78
     2
176
     1
 67
     7
176
     1
 79
     5
176
     1
170
     0
176
     1
171
     0
176
     1
290
     0
176
     1
 93
       13
176
     1
 44
0.0
176
     1
173
     0
176
     1
  0
VISUALSTYLE
  5
2E
102
{ACAD_REACTORS
330
2A
102
}
330
2A
100
AcDbVisualStyle
  2
GouraudWithEdges
 70
     3
177
     2
291
     1
 71
     2
176
     1
 72
     2
176
     1
 73
     1
176
     1
 90
        2
176
     1
 40
-0.6
176
     1
 41
30.0
176
     1
 62
     5
 63
     7
421
 16777215
176
     1
 74
     1
176
     1
 91
        4
176
     1
 64
     7
176
     1
 65
   257
176
     1
 75
     1
176
     1
175
     1
176
     1
 42
1.0
176
     1
 92
        0
176
     1
 66
   257
176
     1
 43
1.0
176
     1
 76
     1
176
     1
 77
     6
176
     1
 78
     2
176
     1
 67
     7
176
     1
 79
     5
176
     1
170
     0
176
     1
171
     0
176
     1
290
     0
176
     1
 93
       13
176
     1
 44
0.0
176
     1
173
     0
176
     1
  0
VISUALSTYLE
  5
38
102
{ACAD_REACTORS
330
2A
102
}
330
2A
100
AcDbVisualStyle
  2
Linepattern
 70
    14
177
     2
291
     1
 71
     2
176
     1
 72
     2
176
     1
 73
     0
176
     1
 90
        0
176
     1
 40
-0.6
176
     1
 41
-30.0
176
     1
 62
     5
 63
     7
421
 16777215
176
     1
 74
     1
176
     1
 91
        4
176
     1
 64
     7
176
     1
 65
   257
176
     1
 75
     7
176
     1
175
     7
176
     1
 42
1.0
176
     1
 92
        8
176
     1
 66
     7
176
     1
 43
1.0
176
     1
 76
     1
176
     1
 77
     6
176
     1
 78
     2
176
     1
 67
     7
176
     1
 79
     5
176
     1
170
     0
176
     1
171
     0
176
     1
290
     0
176
     1
 93
        1
176
     1
 44
0.0
176
     1
173
     0
176
     1
  0
VISUALSTYLE
  5
33
102
{ACAD_REACTORS
330
2A
102
}
330
2A
100
AcDbVisualStyle
  2
Realistic
 70
     8
177
     2
291
     0
 71
     2
176
     1
 72
     2
176
     1
 73
     0
176
     1
 90
        0
176
     1
 40
-0.6
176
     1
 41
-30.0
176
     1
 62
     5
 63
     7
421
 16777215
176
     1
 74
     1
176
     1
 91
        0
176
     1
 64
     7
176
     1
 65
   257
176
     1
 75
     1
176
     1
175
     1
176
     1
 42
1.0
176
     1
 92
        8
176
     1
 66
     8
424
  7895160
176
     1
 43
1.0
176
     1
 76
     1
176
     1
 77
     6
176
     1
 78
     2
176
     1
 67
     7
176
     1
 79
     5
176
     1
170
     0
176
     1
171
     0
176
     1
290
     0
176
     1
 93
       13
176
     1
 44
0.0
176
     1
173
     0
176
     1
  0
VISUALSTYLE
  5
37
102
{ACAD_REACTORS
330
2A
102
}
330
2A
100
AcDbVisualStyle
  2
Thicken
 70
    13
177
     2
291
     1
 71
     2
176
     1
 72
     2
176
     1
 73
     0
176
     1
 90
        0
176
     1
 40
-0.6
176
     1
 41
-30.0
176
     1
 62
     5
 63
     7
421
 16777215
176
     1
 74
     1
176
     1
 91
        4
176
     1
 64
     7
176
     1
 65
   257
176
     1
 75
     1
176
     1
175
     1
176
     1
 42
1.0
176
     1
 92
       12
176
     1
 66
     7
176
     1
 43
1.0
176
     1
 76
     1
176
     1
 77
     6
176
     1
 78
     2
176
     1
 67
     7
176
     1
 79
     5
176
     1
170
     0
176
     1
171
     0
176
     1
290
     0
176
     1
 93
        1
176
     1
 44
0.0
176
     1
173
     0
176
     1
  0
ENDSEC
  0
EOF
