  0
SECTION
  2
HEADER
  9
$ACADVER
  1
AC1024
  9
$ACADMAINTVER
 70
     6
  9
$DWGCODEPAGE
  3
UNDEFINED
  9
$INSBASE
 10
0.0
 20
0.0
 30
0.0
  9
$EXTMIN
 10
1.000000000000000E+20
 20
1.000000000000000E+20
 30
1.000000000000000E+20
  9
$EXTMAX
 10
-1.000000000000000E+20
 20
-1.000000000000000E+20
 30
-1.000000000000000E+20
  9
$LIMMIN
 10
0.0
 20
0.0
  9
$LIMMAX
 10
12.0
 20
9.0
  9
$ORTHOMODE
 70
     0
  9
$REGENMODE
 70
     1
  9
$FILLMODE
 70
     1
  9
$QTEXTMODE
 70
     0
  9
$MIRRTEXT
 70
     1
  9
$LTSCALE
 40
1.0
  9
$ATTMODE
 70
     1
  9
$TEXTSIZE
 40
0.2
  9
$TRACEWID
 40
0.05
  9
$TEXTSTYLE
  7
Standard
  9
$CLAYER
  8
0
  9
$CELTYPE
  6
ByLayer
  9
$CECOLOR
 62
   256
  9
$CELTSCALE
 40
1.0
  9
$DISPSILH
 70
     0
  9
$DIMSCALE
 40
1.0
  9
$DIMASZ
 40
0.18
  9
$DIMEXO
 40
0.0625
  9
$DIMDLI
 40
0.38
  9
$DIMRND
 40
0.0
  9
$DIMDLE
 40
0.0
  9
$DIMEXE
 40
0.18
  9
$DIMTP
 40
0.0
  9
$DIMTM
 40
0.0
  9
$DIMTXT
 40
0.18
  9
$DIMCEN
 40
0.09
  9
$DIMTSZ
 40
0.0
  9
$DIMTOL
 70
     0
  9
$DIMLIM
 70
     0
  9
$DIMTIH
 70
     1
  9
$DIMTOH
 70
     1
  9
$DIMSE1
 70
     0
  9
$DIMSE2
 70
     0
  9
$DIMTAD
 70
     0
  9
$DIMZIN
 70
     0
  9
$DIMBLK
  1

  9
$DIMASO
 70
     1
  9
$DIMSHO
 70
     1
  9
$DIMPOST
  1

  9
$DIMAPOST
  1

  9
$DIMALT
 70
     0
  9
$DIMALTD
 70
     2
  9
$DIMALTF
 40
25.4
  9
$DIMLFAC
 40
1.0
  9
$DIMTOFL
 70
     0
  9
$DIMTVP
 40
0.0
  9
$DIMTIX
 70
     0
  9
$DIMSOXD
 70
     0
  9
$DIMSAH
 70
     0
  9
$DIMBLK1
  1

  9
$DIMBLK2
  1

  9
$DIMSTYLE
  2
Standard
  9
$DIMCLRD
 70
     0
  9
$DIMCLRE
 70
     0
  9
$DIMCLRT
 70
     0
  9
$DIMTFAC
 40
1.0
  9
$DIMGAP
 40
0.09
  9
$DIMJUST
 70
     0
  9
$DIMSD1
 70
     0
  9
$DIMSD2
 70
     0
  9
$DIMTOLJ
 70
     1
  9
$DIMTZIN
 70
     0
  9
$DIMALTZ
 70
     0
  9
$DIMALTTZ
 70
     0
  9
$DIMUPT
 70
     0
  9
$DIMDEC
 70
     4
  9
$DIMTDEC
 70
     4
  9
$DIMALTU
 70
     2
  9
$DIMALTTD
 70
     2
  9
$DIMTXSTY
  7
Standard
  9
$DIMAUNIT
 70
     0
  9
$DIMADEC
 70
     0
  9
$DIMALTRND
 40
0.0
  9
$DIMAZIN
 70
     0
  9
$DIMDSEP
 70
    46
  9
$DIMATFIT
 70
     3
  9
$DIMFRAC
 70
     0
  9
$DIMLDRBLK
  1

  9
$DIMLUNIT
 70
     2
  9
$DIMLWD
 70
    -2
  9
$DIMLWE
 70
    -2
  9
$DIMTMOVE
 70
     0
  9
$DIMFXL
 40
1.0
  9
$DIMFXLON
 70
     0
  9
$DIMJOGANG
 40
0.7853981633974483
  9
$DIMTFILL
 70
     0
  9
$DIMTFILLCLR
 70
     0
  9
$DIMARCSYM
 70
     0
  9
$DIMLTYPE
  6

  9
$DIMLTEX1
  6

  9
$DIMLTEX2
  6

  9
$DIMTXTDIRECTION
 70
     0
  9
$LUNITS
 70
     2
  9
$LUPREC
 70
     4
  9
$SKETCHINC
 40
0.1
  9
$FILLETRAD
 40
0.5
  9
$AUNITS
 70
     0
  9
$AUPREC
 70
     0
  9
$MENU
  1
.
  9
$ELEVATION
 40
0.0
  9
$PELEVATION
 40
0.0
  9
$THICKNESS
 40
0.0
  9
$LIMCHECK
 70
     0
  9
$CHAMFERA
 40
0.5
  9
$CHAMFERB
 40
0.5
  9
$CHAMFERC
 40
1.0
  9
$CHAMFERD
 40
0.0
  9
$SKPOLY
 70
     0
  9
$TDCREATE
 40
2457917.594803229
  9
$TDUCREATE
 40
2457917.219803241
  9
$TDUPDATE
 40
2457917.594803229
  9
$TDUUPDATE
 40
2457917.219803241
  9
$TDINDWG
 40
0.0000000116
  9
$TDUSRTIMER
 40
0.0000000116
  9
$USRTIMER
 70
     1
  9
$ANGBASE
 50
0.0
  9
$ANGDIR
 70
     0
  9
$PDMODE
 70
     0
  9
$PDSIZE
 40
0.0
  9
$PLINEWID
 40
0.0
  9
$SPLFRAME
 70
     0
  9
$SPLINETYPE
 70
     6
  9
$SPLINESEGS
 70
     8
  9
$HANDSEED
  5
173
  9
$SURFTAB1
 70
     6
  9
$SURFTAB2
 70
     6
  9
$SURFTYPE
 70
     6
  9
$SURFU
 70
     6
  9
$SURFV
 70
     6
  9
$UCSBASE
  2

  9
$UCSNAME
  2

  9
$UCSORG
 10
0.0
 20
0.0
 30
0.0
  9
$UCSXDIR
 10
1.0
 20
0.0
 30
0.0
  9
$UCSYDIR
 10
0.0
 20
1.0
 30
0.0
  9
$UCSORTHOREF
  2

  9
$UCSORTHOVIEW
 70
     0
  9
$UCSORGTOP
 10
0.0
 20
0.0
 30
0.0
  9
$UCSORGBOTTOM
 10
0.0
 20
0.0
 30
0.0
  9
$UCSORGLEFT
 10
0.0
 20
0.0
 30
0.0
  9
$UCSORGRIGHT
 10
0.0
 20
0.0
 30
0.0
  9
$UCSORGFRONT
 10
0.0
 20
0.0
 30
0.0
  9
$UCSORGBACK
 10
0.0
 20
0.0
 30
0.0
  9
$PUCSBASE
  2

  9
$PUCSNAME
  2

  9
$PUCSORG
 10
0.0
 20
0.0
 30
0.0
  9
$PUCSXDIR
 10
1.0
 20
0.0
 30
0.0
  9
$PUCSYDIR
 10
0.0
 20
1.0
 30
0.0
  9
$PUCSORTHOREF
  2

  9
$PUCSORTHOVIEW
 70
     0
  9
$PUCSORGTOP
 10
0.0
 20
0.0
 30
0.0
  9
$PUCSORGBOTTOM
 10
0.0
 20
0.0
 30
0.0
  9
$PUCSORGLEFT
 10
0.0
 20
0.0
 30
0.0
  9
$PUCSORGRIGHT
 10
0.0
 20
0.0
 30
0.0
  9
$PUCSORGFRONT
 10
0.0
 20
0.0
 30
0.0
  9
$PUCSORGBACK
 10
0.0
 20
0.0
 30
0.0
  9
$USERI1
 70
     0
  9
$USERI2
 70
     0
  9
$USERI3
 70
     0
  9
$USERI4
 70
     0
  9
$USERI5
 70
     0
  9
$USERR1
 40
0.0
  9
$USERR2
 40
0.0
  9
$USERR3
 40
0.0
  9
$USERR4
 40
0.0
  9
$USERR5
 40
0.0
  9
$WORLDVIEW
 70
     1
  9
$SHADEDGE
 70
     3
  9
$SHADEDIF
 70
    70
  9
$TILEMODE
 70
     1
  9
$MAXACTVP
 70
    64
  9
$PINSBASE
 10
0.0
 20
0.0
 30
0.0
  9
$PLIMCHECK
 70
     0
  9
$PEXTMIN
 10
1.000000000000000E+20
 20
1.000000000000000E+20
 30
1.000000000000000E+20
  9
$PEXTMAX
 10
-1.000000000000000E+20
 20
-1.000000000000000E+20
 30
-1.000000000000000E+20
  9
$PLIMMIN
 10
0.0
 20
0.0
  9
$PLIMMAX
 10
12.0
 20
9.0
  9
$UNITMODE
 70
     0
  9
$VISRETAIN
 70
     1
  9
$PLINEGEN
 70
     0
  9
$PSLTSCALE
 70
     1
  9
$TREEDEPTH
 70
  3020
  9
$CMLSTYLE
  2
Standard
  9
$CMLJUST
 70
     0
  9
$CMLSCALE
 40
1.0
  9
$PROXYGRAPHICS
 70
     1
  9
$MEASUREMENT
 70
     0
  9
$CELWEIGHT
370
    -1
  9
$ENDCAPS
280
     0
  9
$JOINSTYLE
280
     0
  9
$LWDISPLAY
290
     1
  9
$INSUNITS
 70
     1
  9
$HYPERLINKBASE
  1

  9
$STYLESHEET
  1

  9
$XEDIT
290
     1
  9
$CEPSNTYPE
380
     0
  9
$PSTYLEMODE
290
     1
  9
$FINGERPRINTGUID
  2
{DFA9EA55-5AF2-A7E3-EE08-F4E03CC5F15C}
  9
$VERSIONGUID
  2
{FAEB1C32-E019-11D5-929B-00C0DF256EC4}
  9
$EXTNAMES
290
     1
  9
$PSVPSCALE
 40
0.0
  9
$OLESTARTUP
290
     0
  9
$SORTENTS
280
   127
  9
$INDEXCTL
280
     0
  9
$HIDETEXT
280
     1
  9
$XCLIPFRAME
280
     2
  9
$HALOGAP
280
     0
  9
$OBSCOLOR
 70
   257
  9
$OBSLTYPE
280
     0
  9
$INTERSECTIONDISPLAY
280
     0
  9
$INTERSECTIONCOLOR
 70
   257
  9
$DIMASSOC
280
     2
  9
$PROJECTNAME
  1

  9
$CAMERADISPLAY
290
     0
  9
$LENSLENGTH
 40
50.0
  9
$CAMERAHEIGHT
 40
0.0
  9
$STEPSPERSEC
 40
2.0
  9
$STEPSIZE
 40
6.0
  9
$3DDWFPREC
 40
2.0
  9
$PSOLWIDTH
 40
0.25
  9
$PSOLHEIGHT
 40
4.0
  9
$LOFTANG1
 40
1.570796326794897
  9
$LOFTANG2
 40
1.570796326794897
  9
$LOFTMAG1
 40
0.0
  9
$LOFTMAG2
 40
0.0
  9
$LOFTPARAM
 70
     7
  9
$LOFTNORMALS
280
     1
  9
$LATITUDE
 40
37.795
  9
$LONGITUDE
 40
-122.394
  9
$NORTHDIRECTION
 40
0.0
  9
$TIMEZONE
 70
 -8000
  9
$LIGHTGLYPHDISPLAY
280
     1
  9
$TILEMODELIGHTSYNCH
280
     1
  9
$CMATERIAL
347
3C
  9
$SOLIDHIST
280
     1
  9
$SHOWHIST
280
     1
  9
$DWFFRAME
280
     2
  9
$DGNFRAME
280
     2
  9
$REALWORLDSCALE
290
     1
  9
$INTERFERECOLOR
 62
   256
  9
$CSHADOW
280
     0
  9
$SHADOWPLANELOCATION
 40
0.0
  0
ENDSEC
  0
SECTION
  2
CLASSES
  0
CLASS
  1
ACDBDICTIONARYWDFLT
  2
AcDbDictionaryWithDefault
  3
ObjectDBX Classes
 90
        0
 91
        4
280
     0
281
     0
  0
CLASS
  1
VISUALSTYLE
  2
AcDbVisualStyle
  3
ObjectDBX Classes
 90
     4095
 91
        4
280
     0
281
     0
  0
CLASS
  1
MATERIAL
  2
AcDbMaterial
  3
ObjectDBX Classes
 90
     1153
 91
        4
280
     0
281
     0
  0
CLASS
  1
SUN
  2
AcDbSun
  3
SCENEOE
 90
     1024
 91
        4
280
     0
281
     0
  0
ENDSEC
  0
SECTION
  2
TABLES
  0
TABLE
  2
VPORT
  5
8
330
0
100
AcDbSymbolTable
 70
     1
  0
VPORT
  5
29
330
8
100
AcDbSymbolTableRecord
100
AcDbViewportTableRecord
  2
*Active
 70
     0
 10
0.0
 20
0.0
 11
1.0
 21
1.0
 12
0.0
 22
0.0
 13
0.0
 23
0.0
 14
0.5
 24
0.5
 15
0.5
 25
0.5
 16
0.0
 26
0.0
 36
1.0
 17
91.00082462281999
 27
-128.4993055234307
 37
0.0
 40
256.9986110468615
 41
0.7081814508812795
 42
50.0
 43
0.0
 44
0.0
 50
0.0
 51
0.0
 71
     0
 72
   100
 73
     1
 74
     3
 75
     0
 76
     0
 77
     0
 78
     0
281
     0
 65
     1
110
0.0
120
0.0
130
0.0
111
1.0
121
0.0
131
0.0
112
0.0
122
1.0
132
0.0
 79
     0
146
0.0
 60
     3
 61
     5
292
     1
282
     1
141
0.0
142
0.0
 63
   250
361
3F
  0
ENDTAB
  0
TABLE
  2
LTYPE
  5
5
330
0
100
AcDbSymbolTable
 70
     1
  0
LTYPE
  5
14
330
5
100
AcDbSymbolTableRecord
100
AcDbLinetypeTableRecord
  2
ByBlock
 70
     0
  3

 72
    65
 73
     0
 40
0.0
  0
LTYPE
  5
15
330
5
100
AcDbSymbolTableRecord
100
AcDbLinetypeTableRecord
  2
ByLayer
 70
     0
  3

 72
    65
 73
     0
 40
0.0
  0
LTYPE
  5
16
330
5
100
AcDbSymbolTableRecord
100
AcDbLinetypeTableRecord
  2
Continuous
 70
     0
  3
Solid line
 72
    65
 73
     0
 40
0.0
  0
ENDTAB
  0
TABLE
  2
LAYER
  5
2
330
0
100
AcDbSymbolTable
 70
     2
  0
LAYER
  5
10
330
2
100
AcDbSymbolTableRecord
100
AcDbLayerTableRecord
  2
0
 70
     0
 62
     7
  6
Continuous
370
    -3
390
F
347
3E
  0
LAYER
  5
40
330
2
100
AcDbSymbolTableRecord
100
AcDbLayerTableRecord
  2
_U+30EC_U+30A4_U+30E4_U+30FC 1
 70
     0
 62
     7
  6
Continuous
370
    -3
390
F
347
3E
  0
ENDTAB
  0
TABLE
  2
STYLE
  5
3
330
0
100
AcDbSymbolTable
 70
     1
  0
STYLE
  5
11
330
3
100
AcDbSymbolTableRecord
100
AcDbTextStyleTableRecord
  2
Standard
 70
     0
 40
0.0
 41
1.0
 50
0.0
 71
     0
 42
0.2
  3
txt
  4

  0
ENDTAB
  0
TABLE
  2
VIEW
  5
6
330
0
100
AcDbSymbolTable
 70
     0
  0
ENDTAB
  0
TABLE
  2
UCS
  5
7
330
0
100
AcDbSymbolTable
 70
     0
  0
ENDTAB
  0
TABLE
  2
APPID
  5
9
330
0
100
AcDbSymbolTable
 70
     1
  0
APPID
  5
12
330
9
100
AcDbSymbolTableRecord
100
AcDbRegAppTableRecord
  2
ACAD
 70
     0
  0
ENDTAB
  0
TABLE
  2
DIMSTYLE
  5
A
330
0
100
AcDbSymbolTable
 70
     1
100
AcDbDimStyleTable
  0
DIMSTYLE
105
27
330
A
100
AcDbSymbolTableRecord
100
AcDbDimStyleTableRecord
  2
Standard
 70
     0
178
     0
340
11
  0
ENDTAB
  0
TABLE
  2
BLOCK_RECORD
  5
1
330
0
100
AcDbSymbolTable
 70
     9
  0
BLOCK_RECORD
  5
1F
330
1
100
AcDbSymbolTableRecord
100
AcDbBlockTableRecord
  2
*Model_Space
340
22
 70
     0
280
     1
281
     0
  0
BLOCK_RECORD
  5
1B
330
1
100
AcDbSymbolTableRecord
100
AcDbBlockTableRecord
  2
*Paper_Space
340
1E
 70
     0
280
     1
281
     0
  0
BLOCK_RECORD
  5
23
330
1
100
AcDbSymbolTableRecord
100
AcDbBlockTableRecord
  2
*Paper_Space0
340
26
 70
     0
280
     1
281
     0
  0
BLOCK_RECORD
  5
A5
330
1
100
AcDbSymbolTableRecord
100
AcDbBlockTableRecord
  2
block 2
340
0
102
{BLKREFS
331
A6
102
}
 70
     0
280
     1
281
     0
  0
BLOCK_RECORD
  5
B7
330
1
100
AcDbSymbolTableRecord
100
AcDbBlockTableRecord
  2
block 3
340
0
102
{BLKREFS
331
B8
102
}
 70
     0
280
     1
281
     0
  0
BLOCK_RECORD
  5
CC
330
1
100
AcDbSymbolTableRecord
100
AcDbBlockTableRecord
  2
block 4
340
0
102
{BLKREFS
331
CD
102
}
 70
     0
280
     1
281
     0
  0
BLOCK_RECORD
  5
DD
330
1
100
AcDbSymbolTableRecord
100
AcDbBlockTableRecord
  2
block 5
340
0
102
{BLKREFS
331
DE
102
}
 70
     0
280
     1
281
     0
  0
BLOCK_RECORD
  5
100
330
1
100
AcDbSymbolTableRecord
100
AcDbBlockTableRecord
  2
block 6
340
0
102
{BLKREFS
331
101
102
}
 70
     0
280
     1
281
     0
  0
BLOCK_RECORD
  5
120
330
1
100
AcDbSymbolTableRecord
100
AcDbBlockTableRecord
  2
block 7
340
0
102
{BLKREFS
331
121
102
}
 70
     0
280
     1
281
     0
  0
BLOCK_RECORD
  5
13C
330
1
100
AcDbSymbolTableRecord
100
AcDbBlockTableRecord
  2
block 8
340
0
102
{BLKREFS
331
13D
102
}
 70
     0
280
     1
281
     0
  0
BLOCK_RECORD
  5
156
330
1
100
AcDbSymbolTableRecord
100
AcDbBlockTableRecord
  2
block 9
340
0
102
{BLKREFS
331
157
102
}
 70
     0
280
     1
281
     0
  0
ENDTAB
  0
ENDSEC
  0
SECTION
  2
BLOCKS
  0
BLOCK
  5
20
330
1F
100
AcDbEntity
  8
0
100
AcDbBlockBegin
  2
*Model_Space
 70
     0
 10
0.0
 20
0.0
 30
0.0
  3
*Model_Space
  1

  0
ENDBLK
  5
21
330
1F
100
AcDbEntity
  8
0
100
AcDbBlockEnd
  0
BLOCK
  5
1C
330
1B
100
AcDbEntity
 67
     1
  8
0
100
AcDbBlockBegin
  2
*Paper_Space
 70
     0
 10
0.0
 20
0.0
 30
0.0
  3
*Paper_Space
  1

  0
ENDBLK
  5
1D
330
1B
100
AcDbEntity
 67
     1
  8
0
100
AcDbBlockEnd
  0
BLOCK
  5
24
330
23
100
AcDbEntity
  8
0
100
AcDbBlockBegin
  2
*Paper_Space0
 70
     0
 10
0.0
 20
0.0
 30
0.0
  3
*Paper_Space0
  1

  0
ENDBLK
  5
25
330
23
100
AcDbEntity
  8
0
100
AcDbBlockEnd
  0
BLOCK
  5
A7
330
A5
100
AcDbEntity
  8
0
100
AcDbBlockBegin
  2
block 2
 70
     0
 10
0.0
 20
0.0
 30
0.0
  3
block 2
  1

  0
SPLINE
  5
A9
330
A5
100
AcDbEntity
  8
_U+30EC_U+30A4_U+30E4_U+30FC 1
370
     0
100
AcDbSpline
210
0.0
220
0.0
230
1.0
 70
    11
 71
     3
 72
    26
 73
    22
 74
     0
 42
0.0000000001
 43
0.0000000001
 12
1.0
 22
0.0
 32
0.0
 13
1.0
 23
0.0
 33
0.0
 40
0.0
 40
0.0
 40
0.0
 40
0.0
 40
1.0
 40
1.0
 40
1.0
 40
2.0
 40
2.0
 40
2.0
 40
3.0
 40
3.0
 40
3.0
 40
4.0
 40
4.0
 40
4.0
 40
5.0
 40
5.0
 40
5.0
 40
6.0
 40
6.0
 40
6.0
 40
7.0
 40
7.0
 40
7.0
 40
7.0
 10
76.54003090534417
 20
-122.6200778230776
 30
0.0
 10
76.54003090534417
 20
-122.6200778230776
 30
0.0
 10
76.54003090534417
 20
-121.5157524652808
 30
0.0
 10
76.54003090534417
 20
-121.5157524652808
 30
0.0
 10
76.54003090534417
 20
-121.5157524652808
 30
0.0
 10
76.20999075785723
 20
-121.5157524652808
 30
0.0
 10
76.20999075785723
 20
-121.5157524652808
 30
0.0
 10
76.20999075785723
 20
-121.5157524652808
 30
0.0
 10
76.20999075785723
 20
-121.367613359415
 30
0.0
 10
76.20999075785723
 20
-121.367613359415
 30
0.0
 10
76.54209796263531
 20
-121.3529717036027
 30
0.0
 10
76.58860675168619
 20
-121.1900186871504
 30
0.0
 10
76.61823457285934
 20
-121.0758137718144
 30
0.0
 10
76.61823457285934
 20
-121.0758137718144
 30
0.0
 10
76.76430662143393
 20
-121.0758137718144
 30
0.0
 10
76.76430662143393
 20
-121.0758137718144
 30
0.0
 10
76.76430662143393
 20
-121.0758137718144
 30
0.0
 10
76.76430662143393
 20
-122.6200778230776
 30
0.0
 10
76.76430662143393
 20
-122.6200778230776
 30
0.0
 10
76.76430662143393
 20
-122.6200778230776
 30
0.0
 10
76.54003090534417
 20
-122.6200778230776
 30
0.0
 10
76.54003090534417
 20
-122.6200778230776
 30
0.0
  0
HATCH
  5
AA
330
A5
100
AcDbEntity
  8
_U+30EC_U+30A4_U+30E4_U+30FC 1
 62
   179
420
  2234388
100
AcDbHatch
 10
0.0
 20
0.0
 30
0.0
210
0.0
220
0.0
230
1.0
  2
SOLID
 70
     1
 71
     0
 91
        1
 92
        1
 93
        1
 72
     4
 94
        3
 73
     0
 74
     1
 95
       26
 96
       22
 40
0.0
 40
0.0
 40
0.0
 40
0.0
 40
1.0
 40
1.0
 40
1.0
 40
2.0
 40
2.0
 40
2.0
 40
3.0
 40
3.0
 40
3.0
 40
4.0
 40
4.0
 40
4.0
 40
5.0
 40
5.0
 40
5.0
 40
6.0
 40
6.0
 40
6.0
 40
7.0
 40
7.0
 40
7.0
 40
7.0
 10
76.54003090534417
 20
-122.6200778230776
 10
76.54003090534417
 20
-122.6200778230776
 10
76.54003090534417
 20
-121.5157524652808
 10
76.54003090534417
 20
-121.5157524652808
 10
76.54003090534417
 20
-121.5157524652808
 10
76.20999075785723
 20
-121.5157524652808
 10
76.20999075785723
 20
-121.5157524652808
 10
76.20999075785723
 20
-121.5157524652808
 10
76.20999075785723
 20
-121.367613359415
 10
76.20999075785723
 20
-121.367613359415
 10
76.54209796263531
 20
-121.3529717036027
 10
76.58860675168619
 20
-121.1900186871504
 10
76.61823457285934
 20
-121.0758137718144
 10
76.61823457285934
 20
-121.0758137718144
 10
76.76430662143393
 20
-121.0758137718144
 10
76.76430662143393
 20
-121.0758137718144
 10
76.76430662143393
 20
-121.0758137718144
 10
76.76430662143393
 20
-122.6200778230776
 10
76.76430662143393
 20
-122.6200778230776
 10
76.76430662143393
 20
-122.6200778230776
 10
76.54003090534417
 20
-122.6200778230776
 10
76.54003090534417
 20
-122.6200778230776
 97
        0
 97
        0
 75
     2
 76
     1
 98
        0
  0
ENDBLK
  5
A8
330
A5
100
AcDbEntity
  8
0
100
AcDbBlockEnd
  0
BLOCK
  5
B9
330
B7
100
AcDbEntity
  8
0
100
AcDbBlockBegin
  2
block 3
 70
     0
 10
0.0
 20
0.0
 30
0.0
  3
block 3
  1

  0
SPLINE
  5
BB
330
B7
100
AcDbEntity
  8
_U+30EC_U+30A4_U+30E4_U+30FC 1
370
     0
100
AcDbSpline
210
0.0
220
0.0
230
1.0
 70
    11
 71
     3
 72
    44
 73
    40
 74
     0
 42
0.0000000001
 43
0.0000000001
 12
1.0
 22
0.0
 32
0.0
 13
1.0
 23
0.0
 33
0.0
 40
0.0
 40
0.0
 40
0.0
 40
0.0
 40
1.0
 40
1.0
 40
1.0
 40
2.0
 40
2.0
 40
2.0
 40
3.0
 40
3.0
 40
3.0
 40
4.0
 40
4.0
 40
4.0
 40
5.0
 40
5.0
 40
5.0
 40
6.0
 40
6.0
 40
6.0
 40
7.0
 40
7.0
 40
7.0
 40
8.0
 40
8.0
 40
8.0
 40
9.0
 40
9.0
 40
9.0
 40
10.0
 40
10.0
 40
10.0
 40
11.0
 40
11.0
 40
11.0
 40
12.0
 40
12.0
 40
12.0
 40
13.0
 40
13.0
 40
13.0
 40
13.0
 10
94.51481659963518
 20
-110.538472465855
 30
0.0
 10
94.2970865649674
 20
-110.6971191129507
 30
0.0
 10
94.20406898686565
 20
-110.7711886658836
 30
0.0
 10
94.1551486309751
 20
-110.9150214023928
 30
0.0
 10
94.1551486309751
 20
-110.9150214023928
 30
0.0
 10
94.93374021064157
 20
-110.9150214023928
 30
0.0
 10
94.93374021064157
 20
-110.9150214023928
 30
0.0
 10
94.93374021064157
 20
-110.9150214023928
 30
0.0
 10
94.93374021064157
 20
-111.1201768385394
 30
0.0
 10
94.93374021064157
 20
-111.1201768385394
 30
0.0
 10
94.93374021064157
 20
-111.1201768385394
 30
0.0
 10
93.90572371784302
 20
-111.1201768385394
 30
0.0
 10
93.90572371784302
 20
-111.1201768385394
 30
0.0
 10
93.93741859630731
 20
-110.7625759271705
 30
0.0
 10
94.00287541052707
 20
-110.6843722596553
 30
0.0
 10
94.388037085778
 20
-110.3860269906327
 30
0.0
 10
94.64435218988058
 20
-110.1872449811337
 30
0.0
 10
94.70980900410034
 20
-110.1195488548486
 30
0.0
 10
94.70980900410034
 20
-109.9820895449871
 30
0.0
 10
94.70980900410034
 20
-109.8635782602945
 30
0.0
 10
94.63746199891008
 20
-109.7324923770808
 30
0.0
 10
94.44109155625084
 20
-109.7324923770808
 30
0.0
 10
94.18064233756596
 20
-109.7324923770808
 30
0.0
 10
94.17237410840136
 20
-109.962969265044
 30
0.0
 10
94.16823999381906
 20
-110.0794134924454
 30
0.0
 10
94.16823999381906
 20
-110.0794134924454
 30
0.0
 10
93.94361976818077
 20
-110.0794134924454
 30
0.0
 10
93.94361976818077
 20
-110.0794134924454
 30
0.0
 10
93.95257701644242
 20
-109.952461723814
 30
0.0
 10
93.96291230289816
 20
-109.8403238657691
 30
0.0
 10
94.04352753725301
 20
-109.7218125810765
 30
0.0
 10
94.15308157368396
 20
-109.5610988766896
 30
0.0
 10
94.3398057489845
 20
-109.5271646861599
 30
0.0
 10
94.4555609572889
 20
-109.5271646861599
 30
0.0
 10
94.73323565340003
 20
-109.5271646861599
 30
0.0
 10
94.94063040161207
 20
-109.7113050398465
 30
0.0
 10
94.94063040161207
 20
-109.9841566022783
 30
0.0
 10
94.94063040161207
 20
-110.2125664329503
 30
0.0
 10
94.82418617421062
 20
-110.3121296924741
 30
0.0
 10
94.51481659963518
 20
-110.538472465855
 30
0.0
  0
HATCH
  5
BC
330
B7
100
AcDbEntity
  8
_U+30EC_U+30A4_U+30E4_U+30FC 1
 62
   179
420
  2234388
100
AcDbHatch
 10
0.0
 20
0.0
 30
0.0
210
0.0
220
0.0
230
1.0
  2
SOLID
 70
     1
 71
     0
 91
        1
 92
        1
 93
        1
 72
     4
 94
        3
 73
     0
 74
     1
 95
       44
 96
       40
 40
0.0
 40
0.0
 40
0.0
 40
0.0
 40
1.0
 40
1.0
 40
1.0
 40
2.0
 40
2.0
 40
2.0
 40
3.0
 40
3.0
 40
3.0
 40
4.0
 40
4.0
 40
4.0
 40
5.0
 40
5.0
 40
5.0
 40
6.0
 40
6.0
 40
6.0
 40
7.0
 40
7.0
 40
7.0
 40
8.0
 40
8.0
 40
8.0
 40
9.0
 40
9.0
 40
9.0
 40
10.0
 40
10.0
 40
10.0
 40
11.0
 40
11.0
 40
11.0
 40
12.0
 40
12.0
 40
12.0
 40
13.0
 40
13.0
 40
13.0
 40
13.0
 10
94.51481659963518
 20
-110.538472465855
 10
94.2970865649674
 20
-110.6971191129507
 10
94.20406898686565
 20
-110.7711886658836
 10
94.1551486309751
 20
-110.9150214023928
 10
94.1551486309751
 20
-110.9150214023928
 10
94.93374021064157
 20
-110.9150214023928
 10
94.93374021064157
 20
-110.9150214023928
 10
94.93374021064157
 20
-110.9150214023928
 10
94.93374021064157
 20
-111.1201768385394
 10
94.93374021064157
 20
-111.1201768385394
 10
94.93374021064157
 20
-111.1201768385394
 10
93.90572371784302
 20
-111.1201768385394
 10
93.90572371784302
 20
-111.1201768385394
 10
93.93741859630731
 20
-110.7625759271705
 10
94.00287541052707
 20
-110.6843722596553
 10
94.388037085778
 20
-110.3860269906327
 10
94.64435218988058
 20
-110.1872449811337
 10
94.70980900410034
 20
-110.1195488548486
 10
94.70980900410034
 20
-109.9820895449871
 10
94.70980900410034
 20
-109.8635782602945
 10
94.63746199891008
 20
-109.7324923770808
 10
94.44109155625084
 20
-109.7324923770808
 10
94.18064233756596
 20
-109.7324923770808
 10
94.17237410840136
 20
-109.962969265044
 10
94.16823999381906
 20
-110.0794134924454
 10
94.16823999381906
 20
-110.0794134924454
 10
93.94361976818077
 20
-110.0794134924454
 10
93.94361976818077
 20
-110.0794134924454
 10
93.95257701644242
 20
-109.952461723814
 10
93.96291230289816
 20
-109.8403238657691
 10
94.04352753725301
 20
-109.7218125810765
 10
94.15308157368396
 20
-109.5610988766896
 10
94.3398057489845
 20
-109.5271646861599
 10
94.4555609572889
 20
-109.5271646861599
 10
94.73323565340003
 20
-109.5271646861599
 10
94.94063040161207
 20
-109.7113050398465
 10
94.94063040161207
 20
-109.9841566022783
 10
94.94063040161207
 20
-110.2125664329503
 10
94.82418617421062
 20
-110.3121296924741
 10
94.51481659963518
 20
-110.538472465855
 97
        0
 97
        0
 75
     2
 76
     1
 98
        0
  0
SPLINE
  5
BD
330
B7
100
AcDbEntity
  8
_U+30EC_U+30A4_U+30E4_U+30FC 1
370
     0
100
AcDbSpline
210
0.0
220
0.0
230
1.0
 70
    11
 71
     3
 72
    29
 73
    25
 74
     0
 42
0.0000000001
 43
0.0000000001
 12
1.0
 22
0.0
 32
0.0
 13
1.0
 23
0.0
 33
0.0
 40
0.0
 40
0.0
 40
0.0
 40
0.0
 40
1.0
 40
1.0
 40
1.0
 40
2.0
 40
2.0
 40
2.0
 40
3.0
 40
3.0
 40
3.0
 40
4.0
 40
4.0
 40
4.0
 40
5.0
 40
5.0
 40
5.0
 40
6.0
 40
6.0
 40
6.0
 40
7.0
 40
7.0
 40
7.0
 40
8.0
 40
8.0
 40
8.0
 40
8.0
 10
95.99689667738967
 20
-110.9424099115005
 30
0.0
 10
95.88872067915283
 20
-111.1518717170037
 30
0.0
 10
95.71508786669624
 20
-111.1709919969468
 30
0.0
 10
95.59864363929479
 20
-111.1709919969468
 30
0.0
 10
95.43810218968214
 20
-111.1709919969468
 30
0.0
 10
95.29616425568985
 20
-111.124483207896
 30
0.0
 10
95.20107962029695
 20
-110.9424099115005
 30
0.0
 10
95.09772675573946
 20
-110.7477620165839
 30
0.0
 10
95.07843422102206
 20
-110.510911701973
 30
0.0
 10
95.07843422102206
 20
-110.3479586855207
 30
0.0
 10
95.07843422102206
 20
-110.2041259490115
 30
0.0
 10
95.09565969844832
 20
-109.952461723814
 30
0.0
 10
95.20107962029695
 20
-109.7535074595408
 30
0.0
 10
95.3092556185338
 20
-109.5504190806853
 30
0.0
 10
95.46979706814645
 20
-109.5271646861599
 30
0.0
 10
95.59864363929479
 20
-109.5271646861599
 30
0.0
 10
95.75780705071332
 20
-109.5271646861599
 30
0.0
 10
95.90112302289972
 20
-109.5716064179196
 30
0.0
 10
95.99689667738967
 20
-109.7535074595408
 30
0.0
 10
96.09611542736486
 20
-109.9460882971663
 30
0.0
 10
96.11954207666456
 20
-110.1744981278383
 30
0.0
 10
96.11954207666456
 20
-110.3479586855207
 30
0.0
 10
96.11954207666456
 20
-110.5193521859118
 30
0.0
 10
96.09818248465601
 20
-110.7500013286493
 30
0.0
 10
95.99689667738967
 20
-110.9424099115005
 30
0.0
  0
SPLINE
  5
BE
330
B7
100
AcDbEntity
  8
_U+30EC_U+30A4_U+30E4_U+30FC 1
370
     0
100
AcDbSpline
210
0.0
220
0.0
230
1.0
 70
    11
 71
     3
 72
    17
 73
    13
 74
     0
 42
0.0000000001
 43
0.0000000001
 12
1.0
 22
0.0
 32
0.0
 13
1.0
 23
0.0
 33
0.0
 40
0.0
 40
0.0
 40
0.0
 40
0.0
 40
1.0
 40
1.0
 40
1.0
 40
2.0
 40
2.0
 40
2.0
 40
3.0
 40
3.0
 40
3.0
 40
4.0
 40
4.0
 40
4.0
 40
4.0
 10
95.59864363929479
 20
-109.7197455237853
 30
0.0
 10
95.3492187261627
 20
-109.7197455237853
 30
0.0
 10
95.3023654275633
 20
-110.0032768822214
 30
0.0
 10
95.3023654275633
 20
-110.3479586855207
 30
0.0
 10
95.3023654275633
 20
-110.6674912917776
 30
0.0
 10
95.33888343970695
 20
-110.9763441020302
 30
0.0
 10
95.59864363929479
 20
-110.9763441020302
 30
0.0
 10
95.84669051423278
 20
-110.9763441020302
 30
0.0
 10
95.89492185102627
 20
-110.6948798008853
 30
0.0
 10
95.89492185102627
 20
-110.3479586855207
 30
0.0
 10
95.89492185102627
 20
-110.028598334038
 30
0.0
 10
95.85702580068853
 20
-109.7197455237853
 30
0.0
 10
95.59864363929479
 20
-109.7197455237853
 30
0.0
  0
HATCH
  5
BF
330
B7
100
AcDbEntity
  8
_U+30EC_U+30A4_U+30E4_U+30FC 1
 62
   179
420
  2234388
100
AcDbHatch
 10
0.0
 20
0.0
 30
0.0
210
0.0
220
0.0
230
1.0
  2
SOLID
 70
     1
 71
     0
 91
        2
 92
        1
 93
        1
 72
     4
 94
        3
 73
     0
 74
     1
 95
       29
 96
       25
 40
0.0
 40
0.0
 40
0.0
 40
0.0
 40
1.0
 40
1.0
 40
1.0
 40
2.0
 40
2.0
 40
2.0
 40
3.0
 40
3.0
 40
3.0
 40
4.0
 40
4.0
 40
4.0
 40
5.0
 40
5.0
 40
5.0
 40
6.0
 40
6.0
 40
6.0
 40
7.0
 40
7.0
 40
7.0
 40
8.0
 40
8.0
 40
8.0
 40
8.0
 10
95.99689667738967
 20
-110.9424099115005
 10
95.88872067915283
 20
-111.1518717170037
 10
95.71508786669624
 20
-111.1709919969468
 10
95.59864363929479
 20
-111.1709919969468
 10
95.43810218968214
 20
-111.1709919969468
 10
95.29616425568985
 20
-111.124483207896
 10
95.20107962029695
 20
-110.9424099115005
 10
95.09772675573946
 20
-110.7477620165839
 10
95.07843422102206
 20
-110.510911701973
 10
95.07843422102206
 20
-110.3479586855207
 10
95.07843422102206
 20
-110.2041259490115
 10
95.09565969844832
 20
-109.952461723814
 10
95.20107962029695
 20
-109.7535074595408
 10
95.3092556185338
 20
-109.5504190806853
 10
95.46979706814645
 20
-109.5271646861599
 10
95.59864363929479
 20
-109.5271646861599
 10
95.75780705071332
 20
-109.5271646861599
 10
95.90112302289972
 20
-109.5716064179196
 10
95.99689667738967
 20
-109.7535074595408
 10
96.09611542736486
 20
-109.9460882971663
 10
96.11954207666456
 20
-110.1744981278383
 10
96.11954207666456
 20
-110.3479586855207
 10
96.11954207666456
 20
-110.5193521859118
 10
96.09818248465601
 20
-110.7500013286493
 10
95.99689667738967
 20
-110.9424099115005
 97
        0
 97
        0
 92
        1
 93
        1
 72
     4
 94
        3
 73
     0
 74
     1
 95
       17
 96
       13
 40
0.0
 40
0.0
 40
0.0
 40
0.0
 40
1.0
 40
1.0
 40
1.0
 40
2.0
 40
2.0
 40
2.0
 40
3.0
 40
3.0
 40
3.0
 40
4.0
 40
4.0
 40
4.0
 40
4.0
 10
95.59864363929479
 20
-109.7197455237853
 10
95.3492187261627
 20
-109.7197455237853
 10
95.3023654275633
 20
-110.0032768822214
 10
95.3023654275633
 20
-110.3479586855207
 10
95.3023654275633
 20
-110.6674912917776
 10
95.33888343970695
 20
-110.9763441020302
 10
95.59864363929479
 20
-110.9763441020302
 10
95.84669051423278
 20
-110.9763441020302
 10
95.89492185102627
 20
-110.6948798008853
 10
95.89492185102627
 20
-110.3479586855207
 10
95.89492185102627
 20
-110.028598334038
 10
95.85702580068853
 20
-109.7197455237853
 10
95.59864363929479
 20
-109.7197455237853
 97
        0
 97
        0
 75
     2
 76
     1
 98
        0
  0
ENDBLK
  5
BA
330
B7
100
AcDbEntity
  8
0
100
AcDbBlockEnd
  0
BLOCK
  5
CE
330
CC
100
AcDbEntity
  8
0
100
AcDbBlockBegin
  2
block 4
 70
     0
 10
0.0
 20
0.0
 30
0.0
  3
block 4
  1

  0
SPLINE
  5
D0
330
CC
100
AcDbEntity
  8
_U+30EC_U+30A4_U+30E4_U+30FC 1
370
     0
100
AcDbSpline
210
0.0
220
0.0
230
1.0
 70
    11
 71
     3
 72
    44
 73
    40
 74
     0
 42
0.0000000001
 43
0.0000000001
 12
1.0
 22
0.0
 32
0.0
 13
1.0
 23
0.0
 33
0.0
 40
0.0
 40
0.0
 40
0.0
 40
0.0
 40
1.0
 40
1.0
 40
1.0
 40
2.0
 40
2.0
 40
2.0
 40
3.0
 40
3.0
 40
3.0
 40
4.0
 40
4.0
 40
4.0
 40
5.0
 40
5.0
 40
5.0
 40
6.0
 40
6.0
 40
6.0
 40
7.0
 40
7.0
 40
7.0
 40
8.0
 40
8.0
 40
8.0
 40
9.0
 40
9.0
 40
9.0
 40
10.0
 40
10.0
 40
10.0
 40
11.0
 40
11.0
 40
11.0
 40
12.0
 40
12.0
 40
12.0
 40
13.0
 40
13.0
 40
13.0
 40
13.0
 10
107.9086588271895
 20
-126.2878987314489
 30
0.0
 10
108.067133219511
 20
-126.5056287661167
 30
0.0
 10
108.1415472819924
 20
-126.5986463442184
 30
0.0
 10
108.2848632541788
 20
-126.647566700109
 30
0.0
 10
108.2848632541788
 20
-126.647566700109
 30
0.0
 10
108.2848632541788
 20
-125.8689751204425
 30
0.0
 10
108.2848632541788
 20
-125.8689751204425
 30
0.0
 10
108.2848632541788
 20
-125.8689751204425
 30
0.0
 10
108.4901909450997
 20
-125.8689751204425
 30
0.0
 10
108.4901909450997
 20
-125.8689751204425
 30
0.0
 10
108.4901909450997
 20
-125.8689751204425
 30
0.0
 10
108.4901909450997
 20
-126.896991613241
 30
0.0
 10
108.4901909450997
 20
-126.896991613241
 30
0.0
 10
108.1325900337308
 20
-126.8652967347767
 30
0.0
 10
108.0547308757641
 20
-126.799839920557
 30
0.0
 10
107.7563856067415
 20
-126.4146782453061
 30
0.0
 10
107.557259087694
 20
-126.158707650752
 30
0.0
 10
107.4897352161831
 20
-126.0932508365322
 30
0.0
 10
107.3519313967731
 20
-126.0932508365322
 30
0.0
 10
107.2334201120805
 20
-126.0932508365322
 30
0.0
 10
107.1025064836411
 20
-126.165253332174
 30
0.0
 10
107.1025064836411
 20
-126.3619682843817
 30
0.0
 10
107.1025064836411
 20
-126.6220729935181
 30
0.0
 10
107.3333278811528
 20
-126.6306857322312
 30
0.0
 10
107.4497721085542
 20
-126.6348198468135
 30
0.0
 10
107.4497721085542
 20
-126.6348198468135
 30
0.0
 10
107.4497721085542
 20
-126.8590955629033
 30
0.0
 10
107.4497721085542
 20
-126.8590955629033
 30
0.0
 10
107.3223035756
 20
-126.8504828241902
 30
0.0
 10
107.2106824818779
 20
-126.8398030281859
 30
0.0
 10
107.0921711971853
 20
-126.7595323033796
 30
0.0
 10
106.9309407284756
 20
-126.6496337574001
 30
0.0
 10
106.8971787927202
 20
-126.4632540916481
 30
0.0
 10
106.8971787927202
 20
-126.3471543737952
 30
0.0
 10
106.8971787927202
 20
-126.0698241872326
 30
0.0
 10
107.0811468916325
 20
-125.8624294390205
 30
0.0
 10
107.3539984540643
 20
-125.8624294390205
 30
0.0
 10
107.5827527942849
 20
-125.8624294390205
 30
0.0
 10
107.6819715442601
 20
-125.9788736664219
 30
0.0
 10
107.9086588271895
 20
-126.2878987314489
 30
0.0
  0
HATCH
  5
D1
330
CC
100
AcDbEntity
  8
_U+30EC_U+30A4_U+30E4_U+30FC 1
 62
   179
420
  2234388
100
AcDbHatch
 10
0.0
 20
0.0
 30
0.0
210
0.0
220
0.0
230
1.0
  2
SOLID
 70
     1
 71
     0
 91
        1
 92
        1
 93
        1
 72
     4
 94
        3
 73
     0
 74
     1
 95
       44
 96
       40
 40
0.0
 40
0.0
 40
0.0
 40
0.0
 40
1.0
 40
1.0
 40
1.0
 40
2.0
 40
2.0
 40
2.0
 40
3.0
 40
3.0
 40
3.0
 40
4.0
 40
4.0
 40
4.0
 40
5.0
 40
5.0
 40
5.0
 40
6.0
 40
6.0
 40
6.0
 40
7.0
 40
7.0
 40
7.0
 40
8.0
 40
8.0
 40
8.0
 40
9.0
 40
9.0
 40
9.0
 40
10.0
 40
10.0
 40
10.0
 40
11.0
 40
11.0
 40
11.0
 40
12.0
 40
12.0
 40
12.0
 40
13.0
 40
13.0
 40
13.0
 40
13.0
 10
107.9086588271895
 20
-126.2878987314489
 10
108.067133219511
 20
-126.5056287661167
 10
108.1415472819924
 20
-126.5986463442184
 10
108.2848632541788
 20
-126.647566700109
 10
108.2848632541788
 20
-126.647566700109
 10
108.2848632541788
 20
-125.8689751204425
 10
108.2848632541788
 20
-125.8689751204425
 10
108.2848632541788
 20
-125.8689751204425
 10
108.4901909450997
 20
-125.8689751204425
 10
108.4901909450997
 20
-125.8689751204425
 10
108.4901909450997
 20
-125.8689751204425
 10
108.4901909450997
 20
-126.896991613241
 10
108.4901909450997
 20
-126.896991613241
 10
108.1325900337308
 20
-126.8652967347767
 10
108.0547308757641
 20
-126.799839920557
 10
107.7563856067415
 20
-126.4146782453061
 10
107.557259087694
 20
-126.158707650752
 10
107.4897352161831
 20
-126.0932508365322
 10
107.3519313967731
 20
-126.0932508365322
 10
107.2334201120805
 20
-126.0932508365322
 10
107.1025064836411
 20
-126.165253332174
 10
107.1025064836411
 20
-126.3619682843817
 10
107.1025064836411
 20
-126.6220729935181
 10
107.3333278811528
 20
-126.6306857322312
 10
107.4497721085542
 20
-126.6348198468135
 10
107.4497721085542
 20
-126.6348198468135
 10
107.4497721085542
 20
-126.8590955629033
 10
107.4497721085542
 20
-126.8590955629033
 10
107.3223035756
 20
-126.8504828241902
 10
107.2106824818779
 20
-126.8398030281859
 10
107.0921711971853
 20
-126.7595323033796
 10
106.9309407284756
 20
-126.6496337574001
 10
106.8971787927202
 20
-126.4632540916481
 10
106.8971787927202
 20
-126.3471543737952
 10
106.8971787927202
 20
-126.0698241872326
 10
107.0811468916325
 20
-125.8624294390205
 10
107.3539984540643
 20
-125.8624294390205
 10
107.5827527942849
 20
-125.8624294390205
 10
107.6819715442601
 20
-125.9788736664219
 10
107.9086588271895
 20
-126.2878987314489
 97
        0
 97
        0
 75
     2
 76
     1
 98
        0
  0
SPLINE
  5
D2
330
CC
100
AcDbEntity
  8
_U+30EC_U+30A4_U+30E4_U+30FC 1
370
     0
100
AcDbSpline
210
0.0
220
0.0
230
1.0
 70
    11
 71
     3
 72
    29
 73
    25
 74
     0
 42
0.0000000001
 43
0.0000000001
 12
1.0
 22
0.0
 32
0.0
 13
1.0
 23
0.0
 33
0.0
 40
0.0
 40
0.0
 40
0.0
 40
0.0
 40
1.0
 40
1.0
 40
1.0
 40
2.0
 40
2.0
 40
2.0
 40
3.0
 40
3.0
 40
3.0
 40
4.0
 40
4.0
 40
4.0
 40
5.0
 40
5.0
 40
5.0
 40
6.0
 40
6.0
 40
6.0
 40
7.0
 40
7.0
 40
7.0
 40
8.0
 40
8.0
 40
8.0
 40
8.0
 10
108.3124240180608
 20
-124.8061631632429
 30
0.0
 10
108.521885823564
 20
-124.9143391614798
 30
0.0
 10
108.5411783582814
 20
-125.0876274643878
 30
0.0
 10
108.5411783582814
 20
-125.2040716917893
 30
0.0
 10
108.5411783582814
 20
-125.3649576509504
 30
0.0
 10
108.494325059682
 20
-125.5065510753942
 30
0.0
 10
108.3124240180608
 20
-125.6016357107871
 30
0.0
 10
108.1181206326927
 20
-125.7053330848931
 30
0.0
 10
107.8810980633075
 20
-125.7246256196105
 30
0.0
 10
107.7184895564037
 20
-125.7246256196105
 30
0.0
 10
107.5744845651203
 20
-125.7246256196105
 30
0.0
 10
107.3223035756
 20
-125.7074001421843
 30
0.0
 10
107.1238660756496
 20
-125.6016357107871
 30
0.0
 10
106.9206054420198
 20
-125.4938042220988
 30
0.0
 10
106.8971787927202
 20
-125.3329182629376
 30
0.0
 10
106.8971787927202
 20
-125.2040716917893
 30
0.0
 10
106.8971787927202
 20
-125.0452527899192
 30
0.0
 10
106.9419650340284
 20
-124.9015923081843
 30
0.0
 10
107.1238660756496
 20
-124.8061631632429
 30
0.0
 10
107.3161024037265
 20
-124.7069444132677
 30
0.0
 10
107.5448567439471
 20
-124.683517763968
 30
0.0
 10
107.7184895564037
 20
-124.683517763968
 30
0.0
 10
107.8893662924721
 20
-124.683517763968
 30
0.0
 10
108.1201876899839
 20
-124.7048773559766
 30
0.0
 10
108.3124240180608
 20
-124.8061631632429
 30
0.0
  0
SPLINE
  5
D3
330
CC
100
AcDbEntity
  8
_U+30EC_U+30A4_U+30E4_U+30FC 1
370
     0
100
AcDbSpline
210
0.0
220
0.0
230
1.0
 70
    11
 71
     3
 72
    17
 73
    13
 74
     0
 42
0.0000000001
 43
0.0000000001
 12
1.0
 22
0.0
 32
0.0
 13
1.0
 23
0.0
 33
0.0
 40
0.0
 40
0.0
 40
0.0
 40
0.0
 40
1.0
 40
1.0
 40
1.0
 40
2.0
 40
2.0
 40
2.0
 40
3.0
 40
3.0
 40
3.0
 40
4.0
 40
4.0
 40
4.0
 40
4.0
 10
107.0901041398942
 20
-125.2040716917893
 30
0.0
 10
107.0901041398942
 20
-125.4538411144699
 30
0.0
 10
107.3732909887817
 20
-125.5003499035208
 30
0.0
 10
107.7184895564037
 20
-125.5003499035208
 30
0.0
 10
108.0375053983379
 20
-125.5003499035208
 30
0.0
 10
108.3461859538162
 20
-125.4641764009256
 30
0.0
 10
108.3461859538162
 20
-125.2040716917893
 30
0.0
 10
108.3461859538162
 20
-124.9563693263998
 30
0.0
 10
108.0650661622198
 20
-124.9077934800578
 30
0.0
 10
107.7184895564037
 20
-124.9077934800578
 30
0.0
 10
107.3987846953725
 20
-124.9077934800578
 30
0.0
 10
107.0901041398942
 20
-124.9460340399441
 30
0.0
 10
107.0901041398942
 20
-125.2040716917893
 30
0.0
  0
HATCH
  5
D4
330
CC
100
AcDbEntity
  8
_U+30EC_U+30A4_U+30E4_U+30FC 1
 62
   179
420
  2234388
100
AcDbHatch
 10
0.0
 20
0.0
 30
0.0
210
0.0
220
0.0
230
1.0
  2
SOLID
 70
     1
 71
     0
 91
        2
 92
        1
 93
        1
 72
     4
 94
        3
 73
     0
 74
     1
 95
       29
 96
       25
 40
0.0
 40
0.0
 40
0.0
 40
0.0
 40
1.0
 40
1.0
 40
1.0
 40
2.0
 40
2.0
 40
2.0
 40
3.0
 40
3.0
 40
3.0
 40
4.0
 40
4.0
 40
4.0
 40
5.0
 40
5.0
 40
5.0
 40
6.0
 40
6.0
 40
6.0
 40
7.0
 40
7.0
 40
7.0
 40
8.0
 40
8.0
 40
8.0
 40
8.0
 10
108.3124240180608
 20
-124.8061631632429
 10
108.521885823564
 20
-124.9143391614798
 10
108.5411783582814
 20
-125.0876274643878
 10
108.5411783582814
 20
-125.2040716917893
 10
108.5411783582814
 20
-125.3649576509504
 10
108.494325059682
 20
-125.5065510753942
 10
108.3124240180608
 20
-125.6016357107871
 10
108.1181206326927
 20
-125.7053330848931
 10
107.8810980633075
 20
-125.7246256196105
 10
107.7184895564037
 20
-125.7246256196105
 10
107.5744845651203
 20
-125.7246256196105
 10
107.3223035756
 20
-125.7074001421843
 10
107.1238660756496
 20
-125.6016357107871
 10
106.9206054420198
 20
-125.4938042220988
 10
106.8971787927202
 20
-125.3329182629376
 10
106.8971787927202
 20
-125.2040716917893
 10
106.8971787927202
 20
-125.0452527899192
 10
106.9419650340284
 20
-124.9015923081843
 10
107.1238660756496
 20
-124.8061631632429
 10
107.3161024037265
 20
-124.7069444132677
 10
107.5448567439471
 20
-124.683517763968
 10
107.7184895564037
 20
-124.683517763968
 10
107.8893662924721
 20
-124.683517763968
 10
108.1201876899839
 20
-124.7048773559766
 10
108.3124240180608
 20
-124.8061631632429
 97
        0
 97
        0
 92
        1
 93
        1
 72
     4
 94
        3
 73
     0
 74
     1
 95
       17
 96
       13
 40
0.0
 40
0.0
 40
0.0
 40
0.0
 40
1.0
 40
1.0
 40
1.0
 40
2.0
 40
2.0
 40
2.0
 40
3.0
 40
3.0
 40
3.0
 40
4.0
 40
4.0
 40
4.0
 40
4.0
 10
107.0901041398942
 20
-125.2040716917893
 10
107.0901041398942
 20
-125.4538411144699
 10
107.3732909887817
 20
-125.5003499035208
 10
107.7184895564037
 20
-125.5003499035208
 10
108.0375053983379
 20
-125.5003499035208
 10
108.3461859538162
 20
-125.4641764009256
 10
108.3461859538162
 20
-125.2040716917893
 10
108.3461859538162
 20
-124.9563693263998
 10
108.0650661622198
 20
-124.9077934800578
 10
107.7184895564037
 20
-124.9077934800578
 10
107.3987846953725
 20
-124.9077934800578
 10
107.0901041398942
 20
-124.9460340399441
 10
107.0901041398942
 20
-125.2040716917893
 97
        0
 97
        0
 75
     2
 76
     1
 98
        0
  0
ENDBLK
  5
CF
330
CC
100
AcDbEntity
  8
0
100
AcDbBlockEnd
  0
BLOCK
  5
DF
330
DD
100
AcDbEntity
  8
0
100
AcDbBlockBegin
  2
block 5
 70
     0
 10
0.0
 20
0.0
 30
0.0
  3
block 5
  1

  0
SPLINE
  5
E1
330
DD
100
AcDbEntity
  8
_U+30EC_U+30A4_U+30E4_U+30FC 1
370
     0
100
AcDbSpline
210
0.0
220
0.0
230
1.0
 70
    11
 71
     3
 72
    44
 73
    40
 74
     0
 42
0.0000000001
 43
0.0000000001
 12
1.0
 22
0.0
 32
0.0
 13
1.0
 23
0.0
 33
0.0
 40
0.0
 40
0.0
 40
0.0
 40
0.0
 40
1.0
 40
1.0
 40
1.0
 40
2.0
 40
2.0
 40
2.0
 40
3.0
 40
3.0
 40
3.0
 40
4.0
 40
4.0
 40
4.0
 40
5.0
 40
5.0
 40
5.0
 40
6.0
 40
6.0
 40
6.0
 40
7.0
 40
7.0
 40
7.0
 40
8.0
 40
8.0
 40
8.0
 40
9.0
 40
9.0
 40
9.0
 40
10.0
 40
10.0
 40
10.0
 40
11.0
 40
11.0
 40
11.0
 40
12.0
 40
12.0
 40
12.0
 40
13.0
 40
13.0
 40
13.0
 40
13.0
 10
73.28768851249406
 20
-141.4504529811304
 30
0.0
 10
73.26426186319435
 20
-141.4060112493707
 30
0.0
 10
73.24324678073432
 20
-141.3533012884464
 30
0.0
 10
73.24100746866891
 20
-141.1224798909347
 30
0.0
 10
73.23687335408661
 20
-140.879256149676
 30
0.0
 10
73.17761771174033
 20
-140.8093207113255
 30
0.0
 10
72.99985078470144
 20
-140.8093207113255
 30
0.0
 10
72.99985078470144
 20
-140.8093207113255
 30
0.0
 10
72.59160696969933
 20
-140.8093207113255
 30
0.0
 10
72.59160696969933
 20
-140.8093207113255
 30
0.0
 10
72.59160696969933
 20
-140.8093207113255
 30
0.0
 10
72.59160696969933
 20
-141.4504529811304
 30
0.0
 10
72.59160696969933
 20
-141.4504529811304
 30
0.0
 10
72.59160696969933
 20
-141.4504529811304
 30
0.0
 10
72.35682371237955
 20
-141.4504529811304
 30
0.0
 10
72.35682371237955
 20
-141.4504529811304
 30
0.0
 10
72.35682371237955
 20
-141.4504529811304
 30
0.0
 10
72.35682371237955
 20
-139.906016675093
 30
0.0
 10
72.35682371237955
 20
-139.906016675093
 30
0.0
 10
72.35682371237955
 20
-139.906016675093
 30
0.0
 10
73.03171791793999
 20
-139.906016675093
 30
0.0
 10
73.03171791793999
 20
-139.906016675093
 30
0.0
 10
73.33833141612723
 20
-139.906016675093
 30
0.0
 10
73.50541854716184
 20
-140.0775824302584
 30
0.0
 10
73.50541854716184
 20
-140.3335530248125
 30
0.0
 10
73.50541854716184
 20
-140.3841959284456
 30
0.0
 10
73.49697806322298
 20
-140.4668782200916
 30
0.0
 10
73.45253633146326
 20
-140.5471489448979
 30
0.0
 10
73.39345294389122
 20
-140.650846319004
 30
0.0
 10
73.32782387489722
 20
-140.6697943441728
 30
0.0
 10
73.26650117525976
 20
-140.6866753120506
 30
0.0
 10
73.40396048512123
 20
-140.7290499865191
 30
0.0
 10
73.47165661140639
 20
-140.7776258328612
 30
0.0
 10
73.47596298076296
 20
-141.0928520697615
 30
0.0
 10
73.48009709534526
 20
-141.3636365749022
 30
0.0
 10
73.51609834316612
 20
-141.3953314533665
 30
0.0
 10
73.58379446945128
 20
-141.4504529811304
 30
0.0
 10
73.58379446945128
 20
-141.4504529811304
 30
0.0
 10
73.28768851249406
 20
-141.4504529811304
 30
0.0
 10
73.28768851249406
 20
-141.4504529811304
 30
0.0
  0
SPLINE
  5
E2
330
DD
100
AcDbEntity
  8
_U+30EC_U+30A4_U+30E4_U+30FC 1
370
     0
100
AcDbSpline
210
0.0
220
0.0
230
1.0
 70
    11
 71
     3
 72
    20
 73
    16
 74
     0
 42
0.0000000001
 43
0.0000000001
 12
1.0
 22
0.0
 32
0.0
 13
1.0
 23
0.0
 33
0.0
 40
0.0
 40
0.0
 40
0.0
 40
0.0
 40
1.0
 40
1.0
 40
1.0
 40
2.0
 40
2.0
 40
2.0
 40
3.0
 40
3.0
 40
3.0
 40
4.0
 40
4.0
 40
4.0
 40
5.0
 40
5.0
 40
5.0
 40
5.0
 10
73.03585203252229
 20
-140.1175455378873
 30
0.0
 10
73.03585203252229
 20
-140.1175455378873
 30
0.0
 10
72.59160696969933
 20
-140.1175455378873
 30
0.0
 10
72.59160696969933
 20
-140.1175455378873
 30
0.0
 10
72.59160696969933
 20
-140.1175455378873
 30
0.0
 10
72.59160696969933
 20
-140.5977918485311
 30
0.0
 10
72.59160696969933
 20
-140.5977918485311
 30
0.0
 10
72.59160696969933
 20
-140.5977918485311
 30
0.0
 10
73.03378497523114
 20
-140.5977918485311
 30
0.0
 10
73.03378497523114
 20
-140.5977918485311
 30
0.0
 10
73.13317597998059
 20
-140.5977918485311
 30
0.0
 10
73.26856823255092
 20
-140.5216552383071
 30
0.0
 10
73.26856823255092
 20
-140.3504339926902
 30
0.0
 10
73.26856823255092
 20
-140.272230325175
 30
0.0
 10
73.23463404202121
 20
-140.1175455378873
 30
0.0
 10
73.03585203252229
 20
-140.1175455378873
 30
0.0
  0
HATCH
  5
E3
330
DD
100
AcDbEntity
  8
_U+30EC_U+30A4_U+30E4_U+30FC 1
 62
   179
420
  2234388
100
AcDbHatch
 10
0.0
 20
0.0
 30
0.0
210
0.0
220
0.0
230
1.0
  2
SOLID
 70
     1
 71
     0
 91
        2
 92
        1
 93
        1
 72
     4
 94
        3
 73
     0
 74
     1
 95
       44
 96
       40
 40
0.0
 40
0.0
 40
0.0
 40
0.0
 40
1.0
 40
1.0
 40
1.0
 40
2.0
 40
2.0
 40
2.0
 40
3.0
 40
3.0
 40
3.0
 40
4.0
 40
4.0
 40
4.0
 40
5.0
 40
5.0
 40
5.0
 40
6.0
 40
6.0
 40
6.0
 40
7.0
 40
7.0
 40
7.0
 40
8.0
 40
8.0
 40
8.0
 40
9.0
 40
9.0
 40
9.0
 40
10.0
 40
10.0
 40
10.0
 40
11.0
 40
11.0
 40
11.0
 40
12.0
 40
12.0
 40
12.0
 40
13.0
 40
13.0
 40
13.0
 40
13.0
 10
73.28768851249406
 20
-141.4504529811304
 10
73.26426186319435
 20
-141.4060112493707
 10
73.24324678073432
 20
-141.3533012884464
 10
73.24100746866891
 20
-141.1224798909347
 10
73.23687335408661
 20
-140.879256149676
 10
73.17761771174033
 20
-140.8093207113255
 10
72.99985078470144
 20
-140.8093207113255
 10
72.99985078470144
 20
-140.8093207113255
 10
72.59160696969933
 20
-140.8093207113255
 10
72.59160696969933
 20
-140.8093207113255
 10
72.59160696969933
 20
-140.8093207113255
 10
72.59160696969933
 20
-141.4504529811304
 10
72.59160696969933
 20
-141.4504529811304
 10
72.59160696969933
 20
-141.4504529811304
 10
72.35682371237955
 20
-141.4504529811304
 10
72.35682371237955
 20
-141.4504529811304
 10
72.35682371237955
 20
-141.4504529811304
 10
72.35682371237955
 20
-139.906016675093
 10
72.35682371237955
 20
-139.906016675093
 10
72.35682371237955
 20
-139.906016675093
 10
73.03171791793999
 20
-139.906016675093
 10
73.03171791793999
 20
-139.906016675093
 10
73.33833141612723
 20
-139.906016675093
 10
73.50541854716184
 20
-140.0775824302584
 10
73.50541854716184
 20
-140.3335530248125
 10
73.50541854716184
 20
-140.3841959284456
 10
73.49697806322298
 20
-140.4668782200916
 10
73.45253633146326
 20
-140.5471489448979
 10
73.39345294389122
 20
-140.650846319004
 10
73.32782387489722
 20
-140.6697943441728
 10
73.26650117525976
 20
-140.6866753120506
 10
73.40396048512123
 20
-140.7290499865191
 10
73.47165661140639
 20
-140.7776258328612
 10
73.47596298076296
 20
-141.0928520697615
 10
73.48009709534526
 20
-141.3636365749022
 10
73.51609834316612
 20
-141.3953314533665
 10
73.58379446945128
 20
-141.4504529811304
 10
73.58379446945128
 20
-141.4504529811304
 10
73.28768851249406
 20
-141.4504529811304
 10
73.28768851249406
 20
-141.4504529811304
 97
        0
 97
        0
 92
        1
 93
        1
 72
     4
 94
        3
 73
     0
 74
     1
 95
       20
 96
       16
 40
0.0
 40
0.0
 40
0.0
 40
0.0
 40
1.0
 40
1.0
 40
1.0
 40
2.0
 40
2.0
 40
2.0
 40
3.0
 40
3.0
 40
3.0
 40
4.0
 40
4.0
 40
4.0
 40
5.0
 40
5.0
 40
5.0
 40
5.0
 10
73.03585203252229
 20
-140.1175455378873
 10
73.03585203252229
 20
-140.1175455378873
 10
72.59160696969933
 20
-140.1175455378873
 10
72.59160696969933
 20
-140.1175455378873
 10
72.59160696969933
 20
-140.1175455378873
 10
72.59160696969933
 20
-140.5977918485311
 10
72.59160696969933
 20
-140.5977918485311
 10
72.59160696969933
 20
-140.5977918485311
 10
73.03378497523114
 20
-140.5977918485311
 10
73.03378497523114
 20
-140.5977918485311
 10
73.13317597998059
 20
-140.5977918485311
 10
73.26856823255092
 20
-140.5216552383071
 10
73.26856823255092
 20
-140.3504339926902
 10
73.26856823255092
 20
-140.272230325175
 10
73.23463404202121
 20
-140.1175455378873
 10
73.03585203252229
 20
-140.1175455378873
 97
        0
 97
        0
 75
     2
 76
     1
 98
        0
  0
SPLINE
  5
E4
330
DD
100
AcDbEntity
  8
_U+30EC_U+30A4_U+30E4_U+30FC 1
370
     0
100
AcDbSpline
210
0.0
220
0.0
230
1.0
 70
    11
 71
     3
 72
    44
 73
    40
 74
     0
 42
0.0000000001
 43
0.0000000001
 12
1.0
 22
0.0
 32
0.0
 13
1.0
 23
0.0
 33
0.0
 40
0.0
 40
0.0
 40
0.0
 40
0.0
 40
1.0
 40
1.0
 40
1.0
 40
2.0
 40
2.0
 40
2.0
 40
3.0
 40
3.0
 40
3.0
 40
4.0
 40
4.0
 40
4.0
 40
5.0
 40
5.0
 40
5.0
 40
6.0
 40
6.0
 40
6.0
 40
7.0
 40
7.0
 40
7.0
 40
8.0
 40
8.0
 40
8.0
 40
9.0
 40
9.0
 40
9.0
 40
10.0
 40
10.0
 40
10.0
 40
11.0
 40
11.0
 40
11.0
 40
12.0
 40
12.0
 40
12.0
 40
13.0
 40
13.0
 40
13.0
 40
13.0
 10
74.31656627916392
 20
-140.8685763536718
 30
0.0
 10
74.09866398972187
 20
-141.0273952555418
 30
0.0
 10
74.00547415684586
 20
-141.1014648084746
 30
0.0
 10
73.95689831050383
 20
-141.2451252902096
 30
0.0
 10
73.95689831050383
 20
-141.2451252902096
 30
0.0
 10
74.73531763539603
 20
-141.2451252902096
 30
0.0
 10
74.73531763539603
 20
-141.2451252902096
 30
0.0
 10
74.73531763539603
 20
-141.2451252902096
 30
0.0
 10
74.73531763539603
 20
-141.4504529811304
 30
0.0
 10
74.73531763539603
 20
-141.4504529811304
 30
0.0
 10
74.73531763539603
 20
-141.4504529811304
 30
0.0
 10
73.70730114259749
 20
-141.4504529811304
 30
0.0
 10
73.70730114259749
 20
-141.4504529811304
 30
0.0
 10
73.73899602106178
 20
-141.0928520697615
 30
0.0
 10
73.80445283528152
 20
-141.0146484022463
 30
0.0
 10
74.18961451053246
 20
-140.7163031332237
 30
0.0
 10
74.44558510508652
 20
-140.5175211237248
 30
0.0
 10
74.51104191930627
 20
-140.4496527426654
 30
0.0
 10
74.51104191930627
 20
-140.3121934328039
 30
0.0
 10
74.51104191930627
 20
-140.1936821481113
 30
0.0
 10
74.43921167843881
 20
-140.0627685196718
 30
0.0
 10
74.24249672623104
 20
-140.0627685196718
 30
0.0
 10
73.98221976232043
 20
-140.0627685196718
 30
0.0
 10
73.97377927838156
 20
-140.293245407635
 30
0.0
 10
73.969472909025
 20
-140.4096896350365
 30
0.0
 10
73.969472909025
 20
-140.4096896350365
 30
0.0
 10
73.74536944770949
 20
-140.4096896350365
 30
0.0
 10
73.74536944770949
 20
-140.4096896350365
 30
0.0
 10
73.75380993164836
 20
-140.2825656116308
 30
0.0
 10
73.76431747287837
 20
-140.1706000083601
 30
0.0
 10
73.84476045245896
 20
-140.0520887236675
 30
0.0
 10
73.95465899843842
 20
-139.8912027645064
 30
0.0
 10
74.14086640941618
 20
-139.8574408287509
 30
0.0
 10
74.25731063681762
 20
-139.8574408287509
 30
0.0
 10
74.53446856860597
 20
-139.8574408287509
 30
0.0
 10
74.74169106204374
 20
-140.0414089276633
 30
0.0
 10
74.74169106204374
 20
-140.3142604900951
 30
0.0
 10
74.74169106204374
 20
-140.5430148303157
 30
0.0
 10
74.62541908941657
 20
-140.6422335802908
 30
0.0
 10
74.31656627916392
 20
-140.8685763536718
 30
0.0
  0
HATCH
  5
E5
330
DD
100
AcDbEntity
  8
_U+30EC_U+30A4_U+30E4_U+30FC 1
 62
   179
420
  2234388
100
AcDbHatch
 10
0.0
 20
0.0
 30
0.0
210
0.0
220
0.0
230
1.0
  2
SOLID
 70
     1
 71
     0
 91
        1
 92
        1
 93
        1
 72
     4
 94
        3
 73
     0
 74
     1
 95
       44
 96
       40
 40
0.0
 40
0.0
 40
0.0
 40
0.0
 40
1.0
 40
1.0
 40
1.0
 40
2.0
 40
2.0
 40
2.0
 40
3.0
 40
3.0
 40
3.0
 40
4.0
 40
4.0
 40
4.0
 40
5.0
 40
5.0
 40
5.0
 40
6.0
 40
6.0
 40
6.0
 40
7.0
 40
7.0
 40
7.0
 40
8.0
 40
8.0
 40
8.0
 40
9.0
 40
9.0
 40
9.0
 40
10.0
 40
10.0
 40
10.0
 40
11.0
 40
11.0
 40
11.0
 40
12.0
 40
12.0
 40
12.0
 40
13.0
 40
13.0
 40
13.0
 40
13.0
 10
74.31656627916392
 20
-140.8685763536718
 10
74.09866398972187
 20
-141.0273952555418
 10
74.00547415684586
 20
-141.1014648084746
 10
73.95689831050383
 20
-141.2451252902096
 10
73.95689831050383
 20
-141.2451252902096
 10
74.73531763539603
 20
-141.2451252902096
 10
74.73531763539603
 20
-141.2451252902096
 10
74.73531763539603
 20
-141.2451252902096
 10
74.73531763539603
 20
-141.4504529811304
 10
74.73531763539603
 20
-141.4504529811304
 10
74.73531763539603
 20
-141.4504529811304
 10
73.70730114259749
 20
-141.4504529811304
 10
73.70730114259749
 20
-141.4504529811304
 10
73.73899602106178
 20
-141.0928520697615
 10
73.80445283528152
 20
-141.0146484022463
 10
74.18961451053246
 20
-140.7163031332237
 10
74.44558510508652
 20
-140.5175211237248
 10
74.51104191930627
 20
-140.4496527426654
 10
74.51104191930627
 20
-140.3121934328039
 10
74.51104191930627
 20
-140.1936821481113
 10
74.43921167843881
 20
-140.0627685196718
 10
74.24249672623104
 20
-140.0627685196718
 10
73.98221976232043
 20
-140.0627685196718
 10
73.97377927838156
 20
-140.293245407635
 10
73.969472909025
 20
-140.4096896350365
 10
73.969472909025
 20
-140.4096896350365
 10
73.74536944770949
 20
-140.4096896350365
 10
73.74536944770949
 20
-140.4096896350365
 10
73.75380993164836
 20
-140.2825656116308
 10
73.76431747287837
 20
-140.1706000083601
 10
73.84476045245896
 20
-140.0520887236675
 10
73.95465899843842
 20
-139.8912027645064
 10
74.14086640941618
 20
-139.8574408287509
 10
74.25731063681762
 20
-139.8574408287509
 10
74.53446856860597
 20
-139.8574408287509
 10
74.74169106204374
 20
-140.0414089276633
 10
74.74169106204374
 20
-140.3142604900951
 10
74.74169106204374
 20
-140.5430148303157
 10
74.62541908941657
 20
-140.6422335802908
 10
74.31656627916392
 20
-140.8685763536718
 97
        0
 97
        0
 75
     2
 76
     1
 98
        0
  0
POLYLINE
  5
E6
330
DD
100
AcDbEntity
  8
_U+30EC_U+30A4_U+30E4_U+30FC 1
370
     0
100
AcDb2dPolyline
 66
     1
 10
0.0
 20
0.0
 30
0.0
  0
VERTEX
  5
E7
330
E6
100
AcDbEntity
  8
_U+30EC_U+30A4_U+30E4_U+30FC 1
370
     0
100
AcDbVertex
100
AcDb2dVertex
 10
74.96028237058285
 20
-141.4504529811304
 30
0.0
  0
VERTEX
  5
E8
330
E6
100
AcDbEntity
  8
_U+30EC_U+30A4_U+30E4_U+30FC 1
370
     0
100
AcDbVertex
100
AcDb2dVertex
 10
74.96028237058285
 20
-141.1986165011587
 30
0.0
  0
VERTEX
  5
E9
330
E6
100
AcDbEntity
  8
_U+30EC_U+30A4_U+30E4_U+30FC 1
370
     0
100
AcDbVertex
100
AcDb2dVertex
 10
75.21194659578035
 20
-141.1986165011587
 30
0.0
  0
VERTEX
  5
EA
330
E6
100
AcDbEntity
  8
_U+30EC_U+30A4_U+30E4_U+30FC 1
370
     0
100
AcDbVertex
100
AcDb2dVertex
 10
75.21194659578035
 20
-141.4504529811304
 30
0.0
  0
VERTEX
  5
EB
330
E6
100
AcDbEntity
  8
_U+30EC_U+30A4_U+30E4_U+30FC 1
370
     0
100
AcDbVertex
100
AcDb2dVertex
 10
74.96028237058285
 20
-141.4504529811304
 30
0.0
  0
SEQEND
  5
EC
330
E6
100
AcDbEntity
  8
_U+30EC_U+30A4_U+30E4_U+30FC 1
370
     0
  0
HATCH
  5
ED
330
DD
100
AcDbEntity
  8
_U+30EC_U+30A4_U+30E4_U+30FC 1
 62
   179
420
  2234388
100
AcDbHatch
 10
0.0
 20
0.0
 30
0.0
210
0.0
220
0.0
230
1.0
  2
SOLID
 70
     1
 71
     0
 91
        1
 92
        1
 93
        4
 72
     1
 10
74.96028237058285
 20
-141.4504529811304
 11
74.96028237058285
 21
-141.1986165011587
 72
     1
 10
74.96028237058285
 20
-141.1986165011587
 11
75.21194659578035
 21
-141.1986165011587
 72
     1
 10
75.21194659578035
 20
-141.1986165011587
 11
75.21194659578035
 21
-141.4504529811304
 72
     1
 10
75.21194659578035
 20
-141.4504529811304
 11
74.96028237058285
 21
-141.4504529811304
 97
        0
 75
     2
 76
     1
 98
        0
  0
SPLINE
  5
EE
330
DD
100
AcDbEntity
  8
_U+30EC_U+30A4_U+30E4_U+30FC 1
370
     0
100
AcDbSpline
210
0.0
220
0.0
230
1.0
 70
    11
 71
     3
 72
    53
 73
    49
 74
     0
 42
0.0000000001
 43
0.0000000001
 12
1.0
 22
0.0
 32
0.0
 13
1.0
 23
0.0
 33
0.0
 40
0.0
 40
0.0
 40
0.0
 40
0.0
 40
1.0
 40
1.0
 40
1.0
 40
2.0
 40
2.0
 40
2.0
 40
3.0
 40
3.0
 40
3.0
 40
4.0
 40
4.0
 40
4.0
 40
5.0
 40
5.0
 40
5.0
 40
6.0
 40
6.0
 40
6.0
 40
7.0
 40
7.0
 40
7.0
 40
8.0
 40
8.0
 40
8.0
 40
9.0
 40
9.0
 40
9.0
 40
10.0
 40
10.0
 40
10.0
 40
11.0
 40
11.0
 40
11.0
 40
12.0
 40
12.0
 40
12.0
 40
13.0
 40
13.0
 40
13.0
 40
14.0
 40
14.0
 40
14.0
 40
15.0
 40
15.0
 40
15.0
 40
16.0
 40
16.0
 40
16.0
 40
16.0
 10
75.9295599853579
 20
-141.5010958847636
 30
0.0
 10
75.85118406306846
 20
-141.5010958847636
 30
0.0
 10
75.74972600102785
 20
-141.4842149168859
 30
0.0
 10
75.64809568421298
 20
-141.4208251599573
 30
0.0
 10
75.47463512653066
 20
-141.3109266139778
 30
0.0
 10
75.45344778929636
 20
-141.1796684759898
 30
0.0
 10
75.4344997641275
 20
-141.0718369873015
 30
0.0
 10
75.4344997641275
 20
-141.0718369873015
 30
0.0
 10
75.65653616815185
 20
-141.0718369873015
 30
0.0
 10
75.65653616815185
 20
-141.0718369873015
 30
0.0
 10
75.71165769591583
 20
-141.2706189968004
 30
0.0
 10
75.83860946454729
 20
-141.3002468179735
 30
0.0
 10
75.93162704264904
 20
-141.3002468179735
 30
0.0
 10
76.07132566457592
 20
-141.3002468179735
 30
0.0
 10
76.22359888502396
 20
-141.2006835584498
 30
0.0
 10
76.22359888502396
 20
-140.9681396131955
 30
0.0
 10
76.22359888502396
 20
-140.7121690186414
 30
0.0
 10
76.04376490069393
 20
-140.6422335802908
 30
0.0
 10
75.92318655871019
 20
-140.6422335802908
 30
0.0
 10
75.89149168024588
 20
-140.6422335802908
 30
0.0
 10
75.74972600102785
 20
-140.6422335802908
 30
0.0
 10
75.6608425375084
 20
-140.7714246609877
 30
0.0
 10
75.6608425375084
 20
-140.7714246609877
 30
0.0
 10
75.48531492253493
 20
-140.7524766358188
 30
0.0
 10
75.48531492253493
 20
-140.7524766358188
 30
0.0
 10
75.48531492253493
 20
-140.7524766358188
 30
0.0
 10
75.60589326451867
 20
-139.906016675093
 30
0.0
 10
75.60589326451867
 20
-139.906016675093
 30
0.0
 10
75.60589326451867
 20
-139.906016675093
 30
0.0
 10
76.38431258941087
 20
-139.906016675093
 30
0.0
 10
76.38431258941087
 20
-139.906016675093
 30
0.0
 10
76.38431258941087
 20
-139.906016675093
 30
0.0
 10
76.38431258941087
 20
-140.1006645700096
 30
0.0
 10
76.38431258941087
 20
-140.1006645700096
 30
0.0
 10
76.38431258941087
 20
-140.1006645700096
 30
0.0
 10
75.76867402619672
 20
-140.1006645700096
 30
0.0
 10
75.76867402619672
 20
-140.1006645700096
 30
0.0
 10
75.76867402619672
 20
-140.1006645700096
 30
0.0
 10
75.70321721197698
 20
-140.5237222955982
 30
0.0
 10
75.70321721197698
 20
-140.5237222955982
 30
0.0
 10
75.76453991161442
 20
-140.4899603598428
 30
0.0
 10
75.84704994848616
 20
-140.4496527426654
 30
0.0
 10
75.96538897840449
 20
-140.4496527426654
 30
0.0
 10
76.2192925156674
 20
-140.4496527426654
 30
0.0
 10
76.4563150850526
 20
-140.6360324084174
 30
0.0
 10
76.4563150850526
 20
-140.9491915880266
 30
0.0
 10
76.4563150850526
 20
-141.2664848822181
 30
0.0
 10
76.23203936896283
 20
-141.5010958847636
 30
0.0
 10
75.9295599853579
 20
-141.5010958847636
 30
0.0
  0
HATCH
  5
EF
330
DD
100
AcDbEntity
  8
_U+30EC_U+30A4_U+30E4_U+30FC 1
 62
   179
420
  2234388
100
AcDbHatch
 10
0.0
 20
0.0
 30
0.0
210
0.0
220
0.0
230
1.0
  2
SOLID
 70
     1
 71
     0
 91
        1
 92
        1
 93
        1
 72
     4
 94
        3
 73
     0
 74
     1
 95
       53
 96
       49
 40
0.0
 40
0.0
 40
0.0
 40
0.0
 40
1.0
 40
1.0
 40
1.0
 40
2.0
 40
2.0
 40
2.0
 40
3.0
 40
3.0
 40
3.0
 40
4.0
 40
4.0
 40
4.0
 40
5.0
 40
5.0
 40
5.0
 40
6.0
 40
6.0
 40
6.0
 40
7.0
 40
7.0
 40
7.0
 40
8.0
 40
8.0
 40
8.0
 40
9.0
 40
9.0
 40
9.0
 40
10.0
 40
10.0
 40
10.0
 40
11.0
 40
11.0
 40
11.0
 40
12.0
 40
12.0
 40
12.0
 40
13.0
 40
13.0
 40
13.0
 40
14.0
 40
14.0
 40
14.0
 40
15.0
 40
15.0
 40
15.0
 40
16.0
 40
16.0
 40
16.0
 40
16.0
 10
75.9295599853579
 20
-141.5010958847636
 10
75.85118406306846
 20
-141.5010958847636
 10
75.74972600102785
 20
-141.4842149168859
 10
75.64809568421298
 20
-141.4208251599573
 10
75.47463512653066
 20
-141.3109266139778
 10
75.45344778929636
 20
-141.1796684759898
 10
75.4344997641275
 20
-141.0718369873015
 10
75.4344997641275
 20
-141.0718369873015
 10
75.65653616815185
 20
-141.0718369873015
 10
75.65653616815185
 20
-141.0718369873015
 10
75.71165769591583
 20
-141.2706189968004
 10
75.83860946454729
 20
-141.3002468179735
 10
75.93162704264904
 20
-141.3002468179735
 10
76.07132566457592
 20
-141.3002468179735
 10
76.22359888502396
 20
-141.2006835584498
 10
76.22359888502396
 20
-140.9681396131955
 10
76.22359888502396
 20
-140.7121690186414
 10
76.04376490069393
 20
-140.6422335802908
 10
75.92318655871019
 20
-140.6422335802908
 10
75.89149168024588
 20
-140.6422335802908
 10
75.74972600102785
 20
-140.6422335802908
 10
75.6608425375084
 20
-140.7714246609877
 10
75.6608425375084
 20
-140.7714246609877
 10
75.48531492253493
 20
-140.7524766358188
 10
75.48531492253493
 20
-140.7524766358188
 10
75.48531492253493
 20
-140.7524766358188
 10
75.60589326451867
 20
-139.906016675093
 10
75.60589326451867
 20
-139.906016675093
 10
75.60589326451867
 20
-139.906016675093
 10
76.38431258941087
 20
-139.906016675093
 10
76.38431258941087
 20
-139.906016675093
 10
76.38431258941087
 20
-139.906016675093
 10
76.38431258941087
 20
-140.1006645700096
 10
76.38431258941087
 20
-140.1006645700096
 10
76.38431258941087
 20
-140.1006645700096
 10
75.76867402619672
 20
-140.1006645700096
 10
75.76867402619672
 20
-140.1006645700096
 10
75.76867402619672
 20
-140.1006645700096
 10
75.70321721197698
 20
-140.5237222955982
 10
75.70321721197698
 20
-140.5237222955982
 10
75.76453991161442
 20
-140.4899603598428
 10
75.84704994848616
 20
-140.4496527426654
 10
75.96538897840449
 20
-140.4496527426654
 10
76.2192925156674
 20
-140.4496527426654
 10
76.4563150850526
 20
-140.6360324084174
 10
76.4563150850526
 20
-140.9491915880266
 10
76.4563150850526
 20
-141.2664848822181
 10
76.23203936896283
 20
-141.5010958847636
 10
75.9295599853579
 20
-141.5010958847636
 97
        0
 97
        0
 75
     2
 76
     1
 98
        0
  0
ENDBLK
  5
E0
330
DD
100
AcDbEntity
  8
0
100
AcDbBlockEnd
  0
BLOCK
  5
102
330
100
100
AcDbEntity
  8
0
100
AcDbBlockBegin
  2
block 6
 70
     0
 10
0.0
 20
0.0
 30
0.0
  3
block 6
  1

  0
SPLINE
  5
104
330
100
100
AcDbEntity
  8
_U+30EC_U+30A4_U+30E4_U+30FC 1
370
     0
100
AcDbSpline
210
0.0
220
0.0
230
1.0
 70
    11
 71
     3
 72
    62
 73
    58
 74
     0
 42
0.0000000001
 43
0.0000000001
 12
1.0
 22
0.0
 32
0.0
 13
1.0
 23
0.0
 33
0.0
 40
0.0
 40
0.0
 40
0.0
 40
0.0
 40
1.0
 40
1.0
 40
1.0
 40
2.0
 40
2.0
 40
2.0
 40
3.0
 40
3.0
 40
3.0
 40
4.0
 40
4.0
 40
4.0
 40
5.0
 40
5.0
 40
5.0
 40
6.0
 40
6.0
 40
6.0
 40
7.0
 40
7.0
 40
7.0
 40
8.0
 40
8.0
 40
8.0
 40
9.0
 40
9.0
 40
9.0
 40
10.0
 40
10.0
 40
10.0
 40
11.0
 40
11.0
 40
11.0
 40
12.0
 40
12.0
 40
12.0
 40
13.0
 40
13.0
 40
13.0
 40
14.0
 40
14.0
 40
14.0
 40
15.0
 40
15.0
 40
15.0
 40
16.0
 40
16.0
 40
16.0
 40
17.0
 40
17.0
 40
17.0
 40
18.0
 40
18.0
 40
18.0
 40
19.0
 40
19.0
 40
19.0
 40
19.0
 10
108.5411783582814
 20
-139.2180311066886
 30
0.0
 10
108.5411783582814
 20
-139.31346025163
 30
0.0
 10
108.5198187662728
 20
-139.5311902862978
 30
0.0
 10
108.3337836100693
 20
-139.6562472524123
 30
0.0
 10
108.2214734972502
 20
-139.7299722957967
 30
0.0
 10
108.122254747275
 20
-139.7344509199275
 30
0.0
 10
108.0375053983379
 20
-139.7385850345098
 30
0.0
 10
108.0375053983379
 20
-139.7385850345098
 30
0.0
 10
108.0375053983379
 20
-139.5184434330023
 30
0.0
 10
108.0375053983379
 20
-139.5184434330023
 30
0.0
 10
108.1119194608193
 20
-139.5163763757112
 30
0.0
 10
108.3461859538162
 20
-139.5060410892554
 30
0.0
 10
108.3461859538162
 20
-139.2225097308194
 30
0.0
 10
108.3461859538162
 20
-139.0850504209579
 30
0.0
 10
108.2765950250142
 20
-138.9324326909613
 30
0.0
 10
108.0485297038907
 20
-138.9324326909613
 30
0.0
 10
107.9320854764892
 20
-138.9324326909613
 30
0.0
 10
107.8831651205987
 20
-138.9706732508476
 30
0.0
 10
107.8514702421344
 20
-139.0023681293119
 30
0.0
 10
107.77774519875
 20
-139.0764376822448
 30
0.0
 10
107.7646538359061
 20
-139.1928819096462
 30
0.0
 10
107.7646538359061
 20
-139.2476589278617
 30
0.0
 10
107.7646538359061
 20
-139.2669514625791
 30
0.0
 10
107.7667208931972
 20
-139.3027804556257
 30
0.0
 10
107.7708550077795
 20
-139.3303412195077
 30
0.0
 10
107.7708550077795
 20
-139.3303412195077
 30
0.0
 10
107.5765516224114
 20
-139.3303412195077
 30
0.0
 10
107.5765516224114
 20
-139.3303412195077
 30
0.0
 10
107.5827527942849
 20
-139.2921006596214
 30
0.0
 10
107.584819851576
 20
-139.2500704947014
 30
0.0
 10
107.584819851576
 20
-139.2435248132794
 30
0.0
 10
107.584819851576
 20
-139.1780679990597
 30
0.0
 10
107.5634602595675
 20
-138.9792859895607
 30
0.0
 10
107.3271267092793
 20
-138.9792859895607
 30
0.0
 10
107.1493597822404
 20
-138.9792859895607
 30
0.0
 10
107.0942382544765
 20
-139.1101996180002
 30
0.0
 10
107.0942382544765
 20
-139.2204426735282
 30
0.0
 10
107.0942382544765
 20
-139.4846814972469
 30
0.0
 10
107.3271267092793
 20
-139.49329423596
 30
0.0
 10
107.3987846953725
 20
-139.4974283505423
 30
0.0
 10
107.3987846953725
 20
-139.4974283505423
 30
0.0
 10
107.3987846953725
 20
-139.700688984172
 30
0.0
 10
107.3987846953725
 20
-139.700688984172
 30
0.0
 10
107.2740722388065
 20
-139.6920762454589
 30
0.0
 10
106.8971787927202
 20
-139.6645154815769
 30
0.0
 10
106.8971787927202
 20
-139.2076958202328
 30
0.0
 10
106.8971787927202
 20
-138.9834201041431
 30
0.0
 10
107.0246473256744
 20
-138.7422634201756
 30
0.0
 10
107.3202365183088
 20
-138.7422634201756
 30
0.0
 10
107.5069606936094
 20
-138.7422634201756
 30
0.0
 10
107.5889539661583
 20
-138.8373480555684
 30
0.0
 10
107.6502766657958
 20
-138.9369113150922
 30
0.0
 10
107.6778374296778
 20
-138.8755886154547
 30
0.0
 10
107.7584526640326
 20
-138.6936875738335
 30
0.0
 10
108.0354383410467
 20
-138.6936875738335
 30
0.0
 10
108.3737467176982
 20
-138.6936875738335
 30
0.0
 10
108.5411783582814
 20
-138.9410454296745
 30
0.0
 10
108.5411783582814
 20
-139.2180311066886
 30
0.0
  0
HATCH
  5
105
330
100
100
AcDbEntity
  8
_U+30EC_U+30A4_U+30E4_U+30FC 1
 62
   179
420
  2234388
100
AcDbHatch
 10
0.0
 20
0.0
 30
0.0
210
0.0
220
0.0
230
1.0
  2
SOLID
 70
     1
 71
     0
 91
        1
 92
        1
 93
        1
 72
     4
 94
        3
 73
     0
 74
     1
 95
       62
 96
       58
 40
0.0
 40
0.0
 40
0.0
 40
0.0
 40
1.0
 40
1.0
 40
1.0
 40
2.0
 40
2.0
 40
2.0
 40
3.0
 40
3.0
 40
3.0
 40
4.0
 40
4.0
 40
4.0
 40
5.0
 40
5.0
 40
5.0
 40
6.0
 40
6.0
 40
6.0
 40
7.0
 40
7.0
 40
7.0
 40
8.0
 40
8.0
 40
8.0
 40
9.0
 40
9.0
 40
9.0
 40
10.0
 40
10.0
 40
10.0
 40
11.0
 40
11.0
 40
11.0
 40
12.0
 40
12.0
 40
12.0
 40
13.0
 40
13.0
 40
13.0
 40
14.0
 40
14.0
 40
14.0
 40
15.0
 40
15.0
 40
15.0
 40
16.0
 40
16.0
 40
16.0
 40
17.0
 40
17.0
 40
17.0
 40
18.0
 40
18.0
 40
18.0
 40
19.0
 40
19.0
 40
19.0
 40
19.0
 10
108.5411783582814
 20
-139.2180311066886
 10
108.5411783582814
 20
-139.31346025163
 10
108.5198187662728
 20
-139.5311902862978
 10
108.3337836100693
 20
-139.6562472524123
 10
108.2214734972502
 20
-139.7299722957967
 10
108.122254747275
 20
-139.7344509199275
 10
108.0375053983379
 20
-139.7385850345098
 10
108.0375053983379
 20
-139.7385850345098
 10
108.0375053983379
 20
-139.5184434330023
 10
108.0375053983379
 20
-139.5184434330023
 10
108.1119194608193
 20
-139.5163763757112
 10
108.3461859538162
 20
-139.5060410892554
 10
108.3461859538162
 20
-139.2225097308194
 10
108.3461859538162
 20
-139.0850504209579
 10
108.2765950250142
 20
-138.9324326909613
 10
108.0485297038907
 20
-138.9324326909613
 10
107.9320854764892
 20
-138.9324326909613
 10
107.8831651205987
 20
-138.9706732508476
 10
107.8514702421344
 20
-139.0023681293119
 10
107.77774519875
 20
-139.0764376822448
 10
107.7646538359061
 20
-139.1928819096462
 10
107.7646538359061
 20
-139.2476589278617
 10
107.7646538359061
 20
-139.2669514625791
 10
107.7667208931972
 20
-139.3027804556257
 10
107.7708550077795
 20
-139.3303412195077
 10
107.7708550077795
 20
-139.3303412195077
 10
107.5765516224114
 20
-139.3303412195077
 10
107.5765516224114
 20
-139.3303412195077
 10
107.5827527942849
 20
-139.2921006596214
 10
107.584819851576
 20
-139.2500704947014
 10
107.584819851576
 20
-139.2435248132794
 10
107.584819851576
 20
-139.1780679990597
 10
107.5634602595675
 20
-138.9792859895607
 10
107.3271267092793
 20
-138.9792859895607
 10
107.1493597822404
 20
-138.9792859895607
 10
107.0942382544765
 20
-139.1101996180002
 10
107.0942382544765
 20
-139.2204426735282
 10
107.0942382544765
 20
-139.4846814972469
 10
107.3271267092793
 20
-139.49329423596
 10
107.3987846953725
 20
-139.4974283505423
 10
107.3987846953725
 20
-139.4974283505423
 10
107.3987846953725
 20
-139.700688984172
 10
107.3987846953725
 20
-139.700688984172
 10
107.2740722388065
 20
-139.6920762454589
 10
106.8971787927202
 20
-139.6645154815769
 10
106.8971787927202
 20
-139.2076958202328
 10
106.8971787927202
 20
-138.9834201041431
 10
107.0246473256744
 20
-138.7422634201756
 10
107.3202365183088
 20
-138.7422634201756
 10
107.5069606936094
 20
-138.7422634201756
 10
107.5889539661583
 20
-138.8373480555684
 10
107.6502766657958
 20
-138.9369113150922
 10
107.6778374296778
 20
-138.8755886154547
 10
107.7584526640326
 20
-138.6936875738335
 10
108.0354383410467
 20
-138.6936875738335
 10
108.3737467176982
 20
-138.6936875738335
 10
108.5411783582814
 20
-138.9410454296745
 10
108.5411783582814
 20
-139.2180311066886
 97
        0
 97
        0
 75
     2
 76
     1
 98
        0
  0
POLYLINE
  5
106
330
100
100
AcDbEntity
  8
_U+30EC_U+30A4_U+30E4_U+30FC 1
370
     0
100
AcDb2dPolyline
 66
     1
 10
0.0
 20
0.0
 30
0.0
  0
VERTEX
  5
107
330
106
100
AcDbEntity
  8
_U+30EC_U+30A4_U+30E4_U+30FC 1
370
     0
100
AcDbVertex
100
AcDb2dVertex
 10
108.4901909450997
 20
-138.472856953229
 30
0.0
  0
VERTEX
  5
108
330
106
100
AcDbEntity
  8
_U+30EC_U+30A4_U+30E4_U+30FC 1
370
     0
100
AcDbVertex
100
AcDb2dVertex
 10
108.2386989746764
 20
-138.472856953229
 30
0.0
  0
VERTEX
  5
109
330
106
100
AcDbEntity
  8
_U+30EC_U+30A4_U+30E4_U+30FC 1
370
     0
100
AcDbVertex
100
AcDb2dVertex
 10
108.2386989746764
 20
-138.2210204732573
 30
0.0
  0
VERTEX
  5
10A
330
106
100
AcDbEntity
  8
_U+30EC_U+30A4_U+30E4_U+30FC 1
370
     0
100
AcDbVertex
100
AcDb2dVertex
 10
108.4901909450997
 20
-138.2210204732573
 30
0.0
  0
VERTEX
  5
10B
330
106
100
AcDbEntity
  8
_U+30EC_U+30A4_U+30E4_U+30FC 1
370
     0
100
AcDbVertex
100
AcDb2dVertex
 10
108.4901909450997
 20
-138.472856953229
 30
0.0
  0
SEQEND
  5
10C
330
106
100
AcDbEntity
  8
_U+30EC_U+30A4_U+30E4_U+30FC 1
370
     0
  0
HATCH
  5
10D
330
100
100
AcDbEntity
  8
_U+30EC_U+30A4_U+30E4_U+30FC 1
 62
   179
420
  2234388
100
AcDbHatch
 10
0.0
 20
0.0
 30
0.0
210
0.0
220
0.0
230
1.0
  2
SOLID
 70
     1
 71
     0
 91
        1
 92
        1
 93
        4
 72
     1
 10
108.4901909450997
 20
-138.472856953229
 11
108.2386989746764
 21
-138.472856953229
 72
     1
 10
108.2386989746764
 20
-138.472856953229
 11
108.2386989746764
 21
-138.2210204732573
 72
     1
 10
108.2386989746764
 20
-138.2210204732573
 11
108.4901909450997
 21
-138.2210204732573
 72
     1
 10
108.4901909450997
 20
-138.2210204732573
 11
108.4901909450997
 21
-138.472856953229
 97
        0
 75
     2
 76
     1
 98
        0
  0
SPLINE
  5
10E
330
100
100
AcDbEntity
  8
_U+30EC_U+30A4_U+30E4_U+30FC 1
370
     0
100
AcDbSpline
210
0.0
220
0.0
230
1.0
 70
    11
 71
     3
 72
    53
 73
    49
 74
     0
 42
0.0000000001
 43
0.0000000001
 12
1.0
 22
0.0
 32
0.0
 13
1.0
 23
0.0
 33
0.0
 40
0.0
 40
0.0
 40
0.0
 40
0.0
 40
1.0
 40
1.0
 40
1.0
 40
2.0
 40
2.0
 40
2.0
 40
3.0
 40
3.0
 40
3.0
 40
4.0
 40
4.0
 40
4.0
 40
5.0
 40
5.0
 40
5.0
 40
6.0
 40
6.0
 40
6.0
 40
7.0
 40
7.0
 40
7.0
 40
8.0
 40
8.0
 40
8.0
 40
9.0
 40
9.0
 40
9.0
 40
10.0
 40
10.0
 40
10.0
 40
11.0
 40
11.0
 40
11.0
 40
12.0
 40
12.0
 40
12.0
 40
13.0
 40
13.0
 40
13.0
 40
14.0
 40
14.0
 40
14.0
 40
15.0
 40
15.0
 40
15.0
 40
16.0
 40
16.0
 40
16.0
 40
16.0
 10
108.5411783582814
 20
-137.5037515932282
 30
0.0
 10
108.5411783582814
 20
-137.5819552607434
 30
0.0
 10
108.5239528808551
 20
-137.6835855775583
 30
0.0
 10
108.4605631239265
 20
-137.7852158943732
 30
0.0
 10
108.3510090874956
 20
-137.9585041972812
 30
0.0
 10
108.219406439959
 20
-137.9798637892898
 30
0.0
 10
108.1119194608193
 20
-137.9988118144586
 30
0.0
 10
108.1119194608193
 20
-137.9988118144586
 30
0.0
 10
108.1119194608193
 20
-137.77660315566
 30
0.0
 10
108.1119194608193
 20
-137.77660315566
 30
0.0
 10
108.3103569607696
 20
-137.7218261374445
 30
0.0
 10
108.3399847819428
 20
-137.5947021140388
 30
0.0
 10
108.3399847819428
 20
-137.5016845359371
 30
0.0
 10
108.3399847819428
 20
-137.3621581687845
 30
0.0
 10
108.2407660319676
 20
-137.2098849483364
 30
0.0
 10
108.0078775771647
 20
-137.2098849483364
 30
0.0
 10
107.7522514921592
 20
-137.2098849483364
 30
0.0
 10
107.6819715442601
 20
-137.3897189326665
 30
0.0
 10
107.6819715442601
 20
-137.5102972746502
 30
0.0
 10
107.6819715442601
 20
-137.5419921531145
 30
0.0
 10
107.6819715442601
 20
-137.6835855775583
 30
0.0
 10
107.8115071345055
 20
-137.7724690410777
 30
0.0
 10
107.8115071345055
 20
-137.7724690410777
 30
0.0
 10
107.7922145997881
 20
-137.9481689108255
 30
0.0
 10
107.7922145997881
 20
-137.9481689108255
 30
0.0
 10
107.7922145997881
 20
-137.9481689108255
 30
0.0
 10
106.9460991486107
 20
-137.8275905688417
 30
0.0
 10
106.9460991486107
 20
-137.8275905688417
 30
0.0
 10
106.9460991486107
 20
-137.8275905688417
 30
0.0
 10
106.9460991486107
 20
-137.0489989891753
 30
0.0
 10
106.9460991486107
 20
-137.0489989891753
 30
0.0
 10
106.9460991486107
 20
-137.0489989891753
 30
0.0
 10
107.1404025339788
 20
-137.0489989891753
 30
0.0
 10
107.1404025339788
 20
-137.0489989891753
 30
0.0
 10
107.1404025339788
 20
-137.0489989891753
 30
0.0
 10
107.1404025339788
 20
-137.6646375523894
 30
0.0
 10
107.1404025339788
 20
-137.6646375523894
 30
0.0
 10
107.1404025339788
 20
-137.6646375523894
 30
0.0
 10
107.5634602595675
 20
-137.7300943666091
 30
0.0
 10
107.5634602595675
 20
-137.7300943666091
 30
0.0
 10
107.529698323812
 20
-137.6687716669717
 30
0.0
 10
107.4897352161831
 20
-137.5864338848742
 30
0.0
 10
107.4897352161831
 20
-137.4679226001816
 30
0.0
 10
107.4897352161831
 20
-137.2140190629187
 30
0.0
 10
107.6757703723866
 20
-136.9769964935335
 30
0.0
 10
107.9892740615444
 20
-136.9769964935335
 30
0.0
 10
108.3062228461873
 20
-136.9769964935335
 30
0.0
 10
108.5411783582814
 20
-137.2012722096233
 30
0.0
 10
108.5411783582814
 20
-137.5037515932282
 30
0.0
  0
HATCH
  5
10F
330
100
100
AcDbEntity
  8
_U+30EC_U+30A4_U+30E4_U+30FC 1
 62
   179
420
  2234388
100
AcDbHatch
 10
0.0
 20
0.0
 30
0.0
210
0.0
220
0.0
230
1.0
  2
SOLID
 70
     1
 71
     0
 91
        1
 92
        1
 93
        1
 72
     4
 94
        3
 73
     0
 74
     1
 95
       53
 96
       49
 40
0.0
 40
0.0
 40
0.0
 40
0.0
 40
1.0
 40
1.0
 40
1.0
 40
2.0
 40
2.0
 40
2.0
 40
3.0
 40
3.0
 40
3.0
 40
4.0
 40
4.0
 40
4.0
 40
5.0
 40
5.0
 40
5.0
 40
6.0
 40
6.0
 40
6.0
 40
7.0
 40
7.0
 40
7.0
 40
8.0
 40
8.0
 40
8.0
 40
9.0
 40
9.0
 40
9.0
 40
10.0
 40
10.0
 40
10.0
 40
11.0
 40
11.0
 40
11.0
 40
12.0
 40
12.0
 40
12.0
 40
13.0
 40
13.0
 40
13.0
 40
14.0
 40
14.0
 40
14.0
 40
15.0
 40
15.0
 40
15.0
 40
16.0
 40
16.0
 40
16.0
 40
16.0
 10
108.5411783582814
 20
-137.5037515932282
 10
108.5411783582814
 20
-137.5819552607434
 10
108.5239528808551
 20
-137.6835855775583
 10
108.4605631239265
 20
-137.7852158943732
 10
108.3510090874956
 20
-137.9585041972812
 10
108.219406439959
 20
-137.9798637892898
 10
108.1119194608193
 20
-137.9988118144586
 10
108.1119194608193
 20
-137.9988118144586
 10
108.1119194608193
 20
-137.77660315566
 10
108.1119194608193
 20
-137.77660315566
 10
108.3103569607696
 20
-137.7218261374445
 10
108.3399847819428
 20
-137.5947021140388
 10
108.3399847819428
 20
-137.5016845359371
 10
108.3399847819428
 20
-137.3621581687845
 10
108.2407660319676
 20
-137.2098849483364
 10
108.0078775771647
 20
-137.2098849483364
 10
107.7522514921592
 20
-137.2098849483364
 10
107.6819715442601
 20
-137.3897189326665
 10
107.6819715442601
 20
-137.5102972746502
 10
107.6819715442601
 20
-137.5419921531145
 10
107.6819715442601
 20
-137.6835855775583
 10
107.8115071345055
 20
-137.7724690410777
 10
107.8115071345055
 20
-137.7724690410777
 10
107.7922145997881
 20
-137.9481689108255
 10
107.7922145997881
 20
-137.9481689108255
 10
107.7922145997881
 20
-137.9481689108255
 10
106.9460991486107
 20
-137.8275905688417
 10
106.9460991486107
 20
-137.8275905688417
 10
106.9460991486107
 20
-137.8275905688417
 10
106.9460991486107
 20
-137.0489989891753
 10
106.9460991486107
 20
-137.0489989891753
 10
106.9460991486107
 20
-137.0489989891753
 10
107.1404025339788
 20
-137.0489989891753
 10
107.1404025339788
 20
-137.0489989891753
 10
107.1404025339788
 20
-137.0489989891753
 10
107.1404025339788
 20
-137.6646375523894
 10
107.1404025339788
 20
-137.6646375523894
 10
107.1404025339788
 20
-137.6646375523894
 10
107.5634602595675
 20
-137.7300943666091
 10
107.5634602595675
 20
-137.7300943666091
 10
107.529698323812
 20
-137.6687716669717
 10
107.4897352161831
 20
-137.5864338848742
 10
107.4897352161831
 20
-137.4679226001816
 10
107.4897352161831
 20
-137.2140190629187
 10
107.6757703723866
 20
-136.9769964935335
 10
107.9892740615444
 20
-136.9769964935335
 10
108.3062228461873
 20
-136.9769964935335
 10
108.5411783582814
 20
-137.2012722096233
 10
108.5411783582814
 20
-137.5037515932282
 97
        0
 97
        0
 75
     2
 76
     1
 98
        0
  0
ENDBLK
  5
103
330
100
100
AcDbEntity
  8
0
100
AcDbBlockEnd
  0
BLOCK
  5
122
330
120
100
AcDbEntity
  8
0
100
AcDbBlockBegin
  2
block 7
 70
     0
 10
0.0
 20
0.0
 30
0.0
  3
block 7
  1

  0
SPLINE
  5
124
330
120
100
AcDbEntity
  8
_U+30EC_U+30A4_U+30E4_U+30FC 1
370
     0
100
AcDbSpline
210
0.0
220
0.0
230
1.0
 70
    11
 71
     3
 72
    62
 73
    58
 74
     0
 42
0.0000000001
 43
0.0000000001
 12
1.0
 22
0.0
 32
0.0
 13
1.0
 23
0.0
 33
0.0
 40
0.0
 40
0.0
 40
0.0
 40
0.0
 40
1.0
 40
1.0
 40
1.0
 40
2.0
 40
2.0
 40
2.0
 40
3.0
 40
3.0
 40
3.0
 40
4.0
 40
4.0
 40
4.0
 40
5.0
 40
5.0
 40
5.0
 40
6.0
 40
6.0
 40
6.0
 40
7.0
 40
7.0
 40
7.0
 40
8.0
 40
8.0
 40
8.0
 40
9.0
 40
9.0
 40
9.0
 40
10.0
 40
10.0
 40
10.0
 40
11.0
 40
11.0
 40
11.0
 40
12.0
 40
12.0
 40
12.0
 40
13.0
 40
13.0
 40
13.0
 40
14.0
 40
14.0
 40
14.0
 40
15.0
 40
15.0
 40
15.0
 40
16.0
 40
16.0
 40
16.0
 40
17.0
 40
17.0
 40
17.0
 40
18.0
 40
18.0
 40
18.0
 40
19.0
 40
19.0
 40
19.0
 40
19.0
 10
81.46686195879995
 20
-118.6707926135615
 30
0.0
 10
81.3716050686328
 20
-118.6707926135615
 30
0.0
 10
81.15370277919074
 20
-118.6497775311014
 30
0.0
 10
81.0289903226247
 20
-118.463742374898
 30
0.0
 10
80.95492076969182
 20
-118.3514322620788
 30
0.0
 10
80.95061440033527
 20
-118.2522135121036
 30
0.0
 10
80.94648028575297
 20
-118.1674641631665
 30
0.0
 10
80.94648028575297
 20
-118.1674641631665
 30
0.0
 10
81.16644963248616
 20
-118.1674641631665
 30
0.0
 10
81.16644963248616
 20
-118.1674641631665
 30
0.0
 10
81.16851668977732
 20
-118.2415337160993
 30
0.0
 10
81.17919648578159
 20
-118.4761447186449
 30
0.0
 10
81.4625555894434
 20
-118.4761447186449
 30
0.0
 10
81.60018715407912
 20
-118.4761447186449
 30
0.0
 10
81.75246037452716
 20
-118.4065537898428
 30
0.0
 10
81.75246037452716
 20
-118.1781439591708
 30
0.0
 10
81.75246037452716
 20
-118.0616997317693
 30
0.0
 10
81.71439206941515
 20
-118.012951630653
 30
0.0
 10
81.68269719095086
 20
-117.9812567521887
 30
0.0
 10
81.60862763801799
 20
-117.9071871992558
 30
0.0
 10
81.49218341061655
 20
-117.8946126007347
 30
0.0
 10
81.4372341376268
 20
-117.8946126007347
 30
0.0
 10
81.41828611245793
 20
-117.8946126007347
 30
0.0
 10
81.38228486463707
 20
-117.8966796580258
 30
0.0
 10
81.35472410075508
 20
-117.9008137726081
 30
0.0
 10
81.35472410075508
 20
-117.9008137726081
 30
0.0
 10
81.35472410075508
 20
-117.7061658776915
 30
0.0
 10
81.35472410075508
 20
-117.7061658776915
 30
0.0
 10
81.39279240586708
 20
-117.7125393043392
 30
0.0
 10
81.43516708033566
 20
-117.7147786164046
 30
0.0
 10
81.44154050698337
 20
-117.7147786164046
 30
0.0
 10
81.50699732120312
 20
-117.7147786164046
 30
0.0
 10
81.7059515854763
 20
-117.6935912791704
 30
0.0
 10
81.7059515854763
 20
-117.4565687097852
 30
0.0
 10
81.7059515854763
 20
-117.2789740375205
 30
0.0
 10
81.57469344748827
 20
-117.2238525097565
 30
0.0
 10
81.46479490150881
 20
-117.2238525097565
 30
0.0
 10
81.20038382301588
 20
-117.2238525097565
 30
0.0
 10
81.19177108430276
 20
-117.4565687097852
 30
0.0
 10
81.18763696972046
 20
-117.5285712054269
 30
0.0
 10
81.18763696972046
 20
-117.5285712054269
 30
0.0
 10
80.98454859086497
 20
-117.5285712054269
 30
0.0
 10
80.98454859086497
 20
-117.5285712054269
 30
0.0
 10
80.99298907480384
 20
-117.4036864940866
 30
0.0
 10
81.02054983868584
 20
-117.0271375575488
 30
0.0
 10
81.47736950002997
 20
-117.0271375575488
 30
0.0
 10
81.70164521611973
 20
-117.0271375575488
 30
0.0
 10
81.94280190008722
 20
-117.1540893261802
 30
0.0
 10
81.94280190008722
 20
-117.4501952831375
 30
0.0
 10
81.94280190008722
 20
-117.6364026941152
 30
0.0
 10
81.84771726469432
 20
-117.7189127309869
 30
0.0
 10
81.7481540051706
 20
-117.7802354306244
 30
0.0
 10
81.80964895958232
 20
-117.8077961945064
 30
0.0
 10
81.9915500012035
 20
-117.888239174087
 30
0.0
 10
81.9915500012035
 20
-118.1653971058753
 30
0.0
 10
81.9915500012035
 20
-118.5037054825269
 30
0.0
 10
81.7440198905883
 20
-118.6707926135615
 30
0.0
 10
81.46686195879995
 20
-118.6707926135615
 30
0.0
  0
HATCH
  5
125
330
120
100
AcDbEntity
  8
_U+30EC_U+30A4_U+30E4_U+30FC 1
 62
   179
420
  2234388
100
AcDbHatch
 10
0.0
 20
0.0
 30
0.0
210
0.0
220
0.0
230
1.0
  2
SOLID
 70
     1
 71
     0
 91
        1
 92
        1
 93
        1
 72
     4
 94
        3
 73
     0
 74
     1
 95
       62
 96
       58
 40
0.0
 40
0.0
 40
0.0
 40
0.0
 40
1.0
 40
1.0
 40
1.0
 40
2.0
 40
2.0
 40
2.0
 40
3.0
 40
3.0
 40
3.0
 40
4.0
 40
4.0
 40
4.0
 40
5.0
 40
5.0
 40
5.0
 40
6.0
 40
6.0
 40
6.0
 40
7.0
 40
7.0
 40
7.0
 40
8.0
 40
8.0
 40
8.0
 40
9.0
 40
9.0
 40
9.0
 40
10.0
 40
10.0
 40
10.0
 40
11.0
 40
11.0
 40
11.0
 40
12.0
 40
12.0
 40
12.0
 40
13.0
 40
13.0
 40
13.0
 40
14.0
 40
14.0
 40
14.0
 40
15.0
 40
15.0
 40
15.0
 40
16.0
 40
16.0
 40
16.0
 40
17.0
 40
17.0
 40
17.0
 40
18.0
 40
18.0
 40
18.0
 40
19.0
 40
19.0
 40
19.0
 40
19.0
 10
81.46686195879995
 20
-118.6707926135615
 10
81.3716050686328
 20
-118.6707926135615
 10
81.15370277919074
 20
-118.6497775311014
 10
81.0289903226247
 20
-118.463742374898
 10
80.95492076969182
 20
-118.3514322620788
 10
80.95061440033527
 20
-118.2522135121036
 10
80.94648028575297
 20
-118.1674641631665
 10
80.94648028575297
 20
-118.1674641631665
 10
81.16644963248616
 20
-118.1674641631665
 10
81.16644963248616
 20
-118.1674641631665
 10
81.16851668977732
 20
-118.2415337160993
 10
81.17919648578159
 20
-118.4761447186449
 10
81.4625555894434
 20
-118.4761447186449
 10
81.60018715407912
 20
-118.4761447186449
 10
81.75246037452716
 20
-118.4065537898428
 10
81.75246037452716
 20
-118.1781439591708
 10
81.75246037452716
 20
-118.0616997317693
 10
81.71439206941515
 20
-118.012951630653
 10
81.68269719095086
 20
-117.9812567521887
 10
81.60862763801799
 20
-117.9071871992558
 10
81.49218341061655
 20
-117.8946126007347
 10
81.4372341376268
 20
-117.8946126007347
 10
81.41828611245793
 20
-117.8946126007347
 10
81.38228486463707
 20
-117.8966796580258
 10
81.35472410075508
 20
-117.9008137726081
 10
81.35472410075508
 20
-117.9008137726081
 10
81.35472410075508
 20
-117.7061658776915
 10
81.35472410075508
 20
-117.7061658776915
 10
81.39279240586708
 20
-117.7125393043392
 10
81.43516708033566
 20
-117.7147786164046
 10
81.44154050698337
 20
-117.7147786164046
 10
81.50699732120312
 20
-117.7147786164046
 10
81.7059515854763
 20
-117.6935912791704
 10
81.7059515854763
 20
-117.4565687097852
 10
81.7059515854763
 20
-117.2789740375205
 10
81.57469344748827
 20
-117.2238525097565
 10
81.46479490150881
 20
-117.2238525097565
 10
81.20038382301588
 20
-117.2238525097565
 10
81.19177108430276
 20
-117.4565687097852
 10
81.18763696972046
 20
-117.5285712054269
 10
81.18763696972046
 20
-117.5285712054269
 10
80.98454859086497
 20
-117.5285712054269
 10
80.98454859086497
 20
-117.5285712054269
 10
80.99298907480384
 20
-117.4036864940866
 10
81.02054983868584
 20
-117.0271375575488
 10
81.47736950002997
 20
-117.0271375575488
 10
81.70164521611973
 20
-117.0271375575488
 10
81.94280190008722
 20
-117.1540893261802
 10
81.94280190008722
 20
-117.4501952831375
 10
81.94280190008722
 20
-117.6364026941152
 10
81.84771726469432
 20
-117.7189127309869
 10
81.7481540051706
 20
-117.7802354306244
 10
81.80964895958232
 20
-117.8077961945064
 10
81.9915500012035
 20
-117.888239174087
 10
81.9915500012035
 20
-118.1653971058753
 10
81.9915500012035
 20
-118.5037054825269
 10
81.7440198905883
 20
-118.6707926135615
 10
81.46686195879995
 20
-118.6707926135615
 97
        0
 97
        0
 75
     2
 76
     1
 98
        0
  0
POLYLINE
  5
126
330
120
100
AcDbEntity
  8
_U+30EC_U+30A4_U+30E4_U+30FC 1
370
     0
100
AcDb2dPolyline
 66
     1
 10
0.0
 20
0.0
 30
0.0
  0
VERTEX
  5
127
330
126
100
AcDbEntity
  8
_U+30EC_U+30A4_U+30E4_U+30FC 1
370
     0
100
AcDbVertex
100
AcDb2dVertex
 10
82.21220836703375
 20
-118.6201497099283
 30
0.0
  0
VERTEX
  5
128
330
126
100
AcDbEntity
  8
_U+30EC_U+30A4_U+30E4_U+30FC 1
370
     0
100
AcDbVertex
100
AcDb2dVertex
 10
82.21220836703375
 20
-118.3683132299565
 30
0.0
  0
VERTEX
  5
129
330
126
100
AcDbEntity
  8
_U+30EC_U+30A4_U+30E4_U+30FC 1
370
     0
100
AcDbVertex
100
AcDb2dVertex
 10
82.46387259223125
 20
-118.3683132299565
 30
0.0
  0
VERTEX
  5
12A
330
126
100
AcDbEntity
  8
_U+30EC_U+30A4_U+30E4_U+30FC 1
370
     0
100
AcDbVertex
100
AcDb2dVertex
 10
82.46387259223125
 20
-118.6201497099283
 30
0.0
  0
VERTEX
  5
12B
330
126
100
AcDbEntity
  8
_U+30EC_U+30A4_U+30E4_U+30FC 1
370
     0
100
AcDbVertex
100
AcDb2dVertex
 10
82.21220836703375
 20
-118.6201497099283
 30
0.0
  0
SEQEND
  5
12C
330
126
100
AcDbEntity
  8
_U+30EC_U+30A4_U+30E4_U+30FC 1
370
     0
  0
HATCH
  5
12D
330
120
100
AcDbEntity
  8
_U+30EC_U+30A4_U+30E4_U+30FC 1
 62
   179
420
  2234388
100
AcDbHatch
 10
0.0
 20
0.0
 30
0.0
210
0.0
220
0.0
230
1.0
  2
SOLID
 70
     1
 71
     0
 91
        1
 92
        1
 93
        4
 72
     1
 10
82.21220836703375
 20
-118.6201497099283
 11
82.21220836703375
 21
-118.3683132299565
 72
     1
 10
82.21220836703375
 20
-118.3683132299565
 11
82.46387259223125
 21
-118.3683132299565
 72
     1
 10
82.46387259223125
 20
-118.3683132299565
 11
82.46387259223125
 21
-118.6201497099283
 72
     1
 10
82.46387259223125
 20
-118.6201497099283
 11
82.21220836703375
 21
-118.6201497099283
 97
        0
 75
     2
 76
     1
 98
        0
  0
SPLINE
  5
12E
330
120
100
AcDbEntity
  8
_U+30EC_U+30A4_U+30E4_U+30FC 1
370
     0
100
AcDbSpline
210
0.0
220
0.0
230
1.0
 70
    11
 71
     3
 72
    53
 73
    49
 74
     0
 42
0.0000000001
 43
0.0000000001
 12
1.0
 22
0.0
 32
0.0
 13
1.0
 23
0.0
 33
0.0
 40
0.0
 40
0.0
 40
0.0
 40
0.0
 40
1.0
 40
1.0
 40
1.0
 40
2.0
 40
2.0
 40
2.0
 40
3.0
 40
3.0
 40
3.0
 40
4.0
 40
4.0
 40
4.0
 40
5.0
 40
5.0
 40
5.0
 40
6.0
 40
6.0
 40
6.0
 40
7.0
 40
7.0
 40
7.0
 40
8.0
 40
8.0
 40
8.0
 40
9.0
 40
9.0
 40
9.0
 40
10.0
 40
10.0
 40
10.0
 40
11.0
 40
11.0
 40
11.0
 40
12.0
 40
12.0
 40
12.0
 40
13.0
 40
13.0
 40
13.0
 40
14.0
 40
14.0
 40
14.0
 40
15.0
 40
15.0
 40
15.0
 40
16.0
 40
16.0
 40
16.0
 40
16.0
 10
83.1814859818088
 20
-118.6707926135615
 30
0.0
 10
83.10311005951937
 20
-118.6707926135615
 30
0.0
 10
83.00165199747876
 20
-118.6539116456837
 30
0.0
 10
82.90002168066388
 20
-118.5905218887551
 30
0.0
 10
82.72656112298156
 20
-118.4806233427757
 30
0.0
 10
82.70537378574727
 20
-118.3493652047877
 30
0.0
 10
82.6864257605784
 20
-118.2415337160993
 30
0.0
 10
82.6864257605784
 20
-118.2415337160993
 30
0.0
 10
82.90846216460275
 20
-118.2415337160993
 30
0.0
 10
82.90846216460275
 20
-118.2415337160993
 30
0.0
 10
82.96358369236674
 20
-118.4403157255983
 30
0.0
 10
83.0905354609982
 20
-118.4699435467714
 30
0.0
 10
83.18355303909995
 20
-118.4699435467714
 30
0.0
 10
83.32325166102683
 20
-118.4699435467714
 30
0.0
 10
83.47552488147487
 20
-118.3703802872477
 30
0.0
 10
83.47552488147487
 20
-118.1378363419933
 30
0.0
 10
83.47552488147487
 20
-117.8818657474393
 30
0.0
 10
83.29569089714484
 20
-117.812102563863
 30
0.0
 10
83.17511255516109
 20
-117.812102563863
 30
0.0
 10
83.14341767669679
 20
-117.812102563863
 30
0.0
 10
83.00165199747876
 20
-117.812102563863
 30
0.0
 10
82.91276853395931
 20
-117.9411213897856
 30
0.0
 10
82.91276853395931
 20
-117.9411213897856
 30
0.0
 10
82.73724091898583
 20
-117.9220011098424
 30
0.0
 10
82.73724091898583
 20
-117.9220011098424
 30
0.0
 10
82.73724091898583
 20
-117.9220011098424
 30
0.0
 10
82.85781926096958
 20
-117.0758856586651
 30
0.0
 10
82.85781926096958
 20
-117.0758856586651
 30
0.0
 10
82.85781926096958
 20
-117.0758856586651
 30
0.0
 10
83.63623858586178
 20
-117.0758856586651
 30
0.0
 10
83.63623858586178
 20
-117.0758856586651
 30
0.0
 10
83.63623858586178
 20
-117.0758856586651
 30
0.0
 10
83.63623858586178
 20
-117.2705335535817
 30
0.0
 10
83.63623858586178
 20
-117.2705335535817
 30
0.0
 10
83.63623858586178
 20
-117.2705335535817
 30
0.0
 10
83.02060002264763
 20
-117.2705335535817
 30
0.0
 10
83.02060002264763
 20
-117.2705335535817
 30
0.0
 10
83.02060002264763
 20
-117.2705335535817
 30
0.0
 10
82.95514320842788
 20
-117.6935912791704
 30
0.0
 10
82.95514320842788
 20
-117.6935912791704
 30
0.0
 10
83.01646590806533
 20
-117.6596570886406
 30
0.0
 10
83.09897594493707
 20
-117.6195217262375
 30
0.0
 10
83.2173149748554
 20
-117.6195217262375
 30
0.0
 10
83.47121851211831
 20
-117.6195217262375
 30
0.0
 10
83.7082410815035
 20
-117.8057291372152
 30
0.0
 10
83.7082410815035
 20
-118.1188883168245
 30
0.0
 10
83.7082410815035
 20
-118.436181611016
 30
0.0
 10
83.48396536541374
 20
-118.6707926135615
 30
0.0
 10
83.1814859818088
 20
-118.6707926135615
 30
0.0
  0
HATCH
  5
12F
330
120
100
AcDbEntity
  8
_U+30EC_U+30A4_U+30E4_U+30FC 1
 62
   179
420
  2234388
100
AcDbHatch
 10
0.0
 20
0.0
 30
0.0
210
0.0
220
0.0
230
1.0
  2
SOLID
 70
     1
 71
     0
 91
        1
 92
        1
 93
        1
 72
     4
 94
        3
 73
     0
 74
     1
 95
       53
 96
       49
 40
0.0
 40
0.0
 40
0.0
 40
0.0
 40
1.0
 40
1.0
 40
1.0
 40
2.0
 40
2.0
 40
2.0
 40
3.0
 40
3.0
 40
3.0
 40
4.0
 40
4.0
 40
4.0
 40
5.0
 40
5.0
 40
5.0
 40
6.0
 40
6.0
 40
6.0
 40
7.0
 40
7.0
 40
7.0
 40
8.0
 40
8.0
 40
8.0
 40
9.0
 40
9.0
 40
9.0
 40
10.0
 40
10.0
 40
10.0
 40
11.0
 40
11.0
 40
11.0
 40
12.0
 40
12.0
 40
12.0
 40
13.0
 40
13.0
 40
13.0
 40
14.0
 40
14.0
 40
14.0
 40
15.0
 40
15.0
 40
15.0
 40
16.0
 40
16.0
 40
16.0
 40
16.0
 10
83.1814859818088
 20
-118.6707926135615
 10
83.10311005951937
 20
-118.6707926135615
 10
83.00165199747876
 20
-118.6539116456837
 10
82.90002168066388
 20
-118.5905218887551
 10
82.72656112298156
 20
-118.4806233427757
 10
82.70537378574727
 20
-118.3493652047877
 10
82.6864257605784
 20
-118.2415337160993
 10
82.6864257605784
 20
-118.2415337160993
 10
82.90846216460275
 20
-118.2415337160993
 10
82.90846216460275
 20
-118.2415337160993
 10
82.96358369236674
 20
-118.4403157255983
 10
83.0905354609982
 20
-118.4699435467714
 10
83.18355303909995
 20
-118.4699435467714
 10
83.32325166102683
 20
-118.4699435467714
 10
83.47552488147487
 20
-118.3703802872477
 10
83.47552488147487
 20
-118.1378363419933
 10
83.47552488147487
 20
-117.8818657474393
 10
83.29569089714484
 20
-117.812102563863
 10
83.17511255516109
 20
-117.812102563863
 10
83.14341767669679
 20
-117.812102563863
 10
83.00165199747876
 20
-117.812102563863
 10
82.91276853395931
 20
-117.9411213897856
 10
82.91276853395931
 20
-117.9411213897856
 10
82.73724091898583
 20
-117.9220011098424
 10
82.73724091898583
 20
-117.9220011098424
 10
82.73724091898583
 20
-117.9220011098424
 10
82.85781926096958
 20
-117.0758856586651
 10
82.85781926096958
 20
-117.0758856586651
 10
82.85781926096958
 20
-117.0758856586651
 10
83.63623858586178
 20
-117.0758856586651
 10
83.63623858586178
 20
-117.0758856586651
 10
83.63623858586178
 20
-117.0758856586651
 10
83.63623858586178
 20
-117.2705335535817
 10
83.63623858586178
 20
-117.2705335535817
 10
83.63623858586178
 20
-117.2705335535817
 10
83.02060002264763
 20
-117.2705335535817
 10
83.02060002264763
 20
-117.2705335535817
 10
83.02060002264763
 20
-117.2705335535817
 10
82.95514320842788
 20
-117.6935912791704
 10
82.95514320842788
 20
-117.6935912791704
 10
83.01646590806533
 20
-117.6596570886406
 10
83.09897594493707
 20
-117.6195217262375
 10
83.2173149748554
 20
-117.6195217262375
 10
83.47121851211831
 20
-117.6195217262375
 10
83.7082410815035
 20
-117.8057291372152
 10
83.7082410815035
 20
-118.1188883168245
 10
83.7082410815035
 20
-118.436181611016
 10
83.48396536541374
 20
-118.6707926135615
 10
83.1814859818088
 20
-118.6707926135615
 97
        0
 97
        0
 75
     2
 76
     1
 98
        0
  0
ENDBLK
  5
123
330
120
100
AcDbEntity
  8
0
100
AcDbBlockEnd
  0
BLOCK
  5
13E
330
13C
100
AcDbEntity
  8
0
100
AcDbBlockBegin
  2
block 8
 70
     0
 10
0.0
 20
0.0
 30
0.0
  3
block 8
  1

  0
SPLINE
  5
140
330
13C
100
AcDbEntity
  8
_U+30EC_U+30A4_U+30E4_U+30FC 1
370
     0
100
AcDbSpline
210
0.0
220
0.0
230
1.0
 70
    11
 71
     3
 72
    26
 73
    22
 74
     0
 42
0.0000000001
 43
0.0000000001
 12
1.0
 22
0.0
 32
0.0
 13
1.0
 23
0.0
 33
0.0
 40
0.0
 40
0.0
 40
0.0
 40
0.0
 40
1.0
 40
1.0
 40
1.0
 40
2.0
 40
2.0
 40
2.0
 40
3.0
 40
3.0
 40
3.0
 40
4.0
 40
4.0
 40
4.0
 40
5.0
 40
5.0
 40
5.0
 40
6.0
 40
6.0
 40
6.0
 40
7.0
 40
7.0
 40
7.0
 40
7.0
 10
97.95508895120568
 20
-146.6201632662963
 30
0.0
 10
97.95508895120568
 20
-146.6201632662963
 30
0.0
 10
97.95508895120568
 20
-145.5160101632738
 30
0.0
 10
97.95508895120568
 20
-145.5160101632738
 30
0.0
 10
97.95508895120568
 20
-145.5160101632738
 30
0.0
 10
97.62504880371874
 20
-145.5160101632738
 30
0.0
 10
97.62504880371874
 20
-145.5160101632738
 30
0.0
 10
97.62504880371874
 20
-145.5160101632738
 30
0.0
 10
97.62504880371874
 20
-145.3678710574081
 30
0.0
 10
97.62504880371874
 20
-145.3678710574081
 30
0.0
 10
97.95715600849682
 20
-145.3530571468215
 30
0.0
 10
98.00400930709623
 20
-145.1901041303691
 30
0.0
 10
98.03363712826938
 20
-145.0757269602589
 30
0.0
 10
98.03363712826938
 20
-145.0757269602589
 30
0.0
 10
98.17970917684397
 20
-145.0757269602589
 30
0.0
 10
98.17970917684397
 20
-145.0757269602589
 30
0.0
 10
98.17970917684397
 20
-145.0757269602589
 30
0.0
 10
98.17970917684397
 20
-146.6201632662963
 30
0.0
 10
98.17970917684397
 20
-146.6201632662963
 30
0.0
 10
98.17970917684397
 20
-146.6201632662963
 30
0.0
 10
97.95508895120568
 20
-146.6201632662963
 30
0.0
 10
97.95508895120568
 20
-146.6201632662963
 30
0.0
  0
HATCH
  5
141
330
13C
100
AcDbEntity
  8
_U+30EC_U+30A4_U+30E4_U+30FC 1
 62
   179
420
  2234388
100
AcDbHatch
 10
0.0
 20
0.0
 30
0.0
210
0.0
220
0.0
230
1.0
  2
SOLID
 70
     1
 71
     0
 91
        1
 92
        1
 93
        1
 72
     4
 94
        3
 73
     0
 74
     1
 95
       26
 96
       22
 40
0.0
 40
0.0
 40
0.0
 40
0.0
 40
1.0
 40
1.0
 40
1.0
 40
2.0
 40
2.0
 40
2.0
 40
3.0
 40
3.0
 40
3.0
 40
4.0
 40
4.0
 40
4.0
 40
5.0
 40
5.0
 40
5.0
 40
6.0
 40
6.0
 40
6.0
 40
7.0
 40
7.0
 40
7.0
 40
7.0
 10
97.95508895120568
 20
-146.6201632662963
 10
97.95508895120568
 20
-146.6201632662963
 10
97.95508895120568
 20
-145.5160101632738
 10
97.95508895120568
 20
-145.5160101632738
 10
97.95508895120568
 20
-145.5160101632738
 10
97.62504880371874
 20
-145.5160101632738
 10
97.62504880371874
 20
-145.5160101632738
 10
97.62504880371874
 20
-145.5160101632738
 10
97.62504880371874
 20
-145.3678710574081
 10
97.62504880371874
 20
-145.3678710574081
 10
97.95715600849682
 20
-145.3530571468215
 10
98.00400930709623
 20
-145.1901041303691
 10
98.03363712826938
 20
-145.0757269602589
 10
98.03363712826938
 20
-145.0757269602589
 10
98.17970917684397
 20
-145.0757269602589
 10
98.17970917684397
 20
-145.0757269602589
 10
98.17970917684397
 20
-145.0757269602589
 10
98.17970917684397
 20
-146.6201632662963
 10
98.17970917684397
 20
-146.6201632662963
 10
98.17970917684397
 20
-146.6201632662963
 10
97.95508895120568
 20
-146.6201632662963
 10
97.95508895120568
 20
-146.6201632662963
 97
        0
 97
        0
 75
     2
 76
     1
 98
        0
  0
SPLINE
  5
142
330
13C
100
AcDbEntity
  8
_U+30EC_U+30A4_U+30E4_U+30FC 1
370
     0
100
AcDbSpline
210
0.0
220
0.0
230
1.0
 70
    11
 71
     3
 72
    26
 73
    22
 74
     0
 42
0.0000000001
 43
0.0000000001
 12
1.0
 22
0.0
 32
0.0
 13
1.0
 23
0.0
 33
0.0
 40
0.0
 40
0.0
 40
0.0
 40
0.0
 40
1.0
 40
1.0
 40
1.0
 40
2.0
 40
2.0
 40
2.0
 40
3.0
 40
3.0
 40
3.0
 40
4.0
 40
4.0
 40
4.0
 40
5.0
 40
5.0
 40
5.0
 40
6.0
 40
6.0
 40
6.0
 40
7.0
 40
7.0
 40
7.0
 40
7.0
 10
99.13193356896703
 20
-146.6201632662963
 30
0.0
 10
99.13193356896703
 20
-146.6201632662963
 30
0.0
 10
99.13193356896703
 20
-145.5160101632738
 30
0.0
 10
99.13193356896703
 20
-145.5160101632738
 30
0.0
 10
99.13193356896703
 20
-145.5160101632738
 30
0.0
 10
98.80189342148009
 20
-145.5160101632738
 30
0.0
 10
98.80189342148009
 20
-145.5160101632738
 30
0.0
 10
98.80189342148009
 20
-145.5160101632738
 30
0.0
 10
98.80189342148009
 20
-145.3678710574081
 30
0.0
 10
98.80189342148009
 20
-145.3678710574081
 30
0.0
 10
99.13400062625817
 20
-145.3530571468215
 30
0.0
 10
99.18085392485757
 20
-145.1901041303691
 30
0.0
 10
99.21048174603072
 20
-145.0757269602589
 30
0.0
 10
99.21048174603072
 20
-145.0757269602589
 30
0.0
 10
99.3565537946053
 20
-145.0757269602589
 30
0.0
 10
99.3565537946053
 20
-145.0757269602589
 30
0.0
 10
99.3565537946053
 20
-145.0757269602589
 30
0.0
 10
99.3565537946053
 20
-146.6201632662963
 30
0.0
 10
99.3565537946053
 20
-146.6201632662963
 30
0.0
 10
99.3565537946053
 20
-146.6201632662963
 30
0.0
 10
99.13193356896703
 20
-146.6201632662963
 30
0.0
 10
99.13193356896703
 20
-146.6201632662963
 30
0.0
  0
HATCH
  5
143
330
13C
100
AcDbEntity
  8
_U+30EC_U+30A4_U+30E4_U+30FC 1
 62
   179
420
  2234388
100
AcDbHatch
 10
0.0
 20
0.0
 30
0.0
210
0.0
220
0.0
230
1.0
  2
SOLID
 70
     1
 71
     0
 91
        1
 92
        1
 93
        1
 72
     4
 94
        3
 73
     0
 74
     1
 95
       26
 96
       22
 40
0.0
 40
0.0
 40
0.0
 40
0.0
 40
1.0
 40
1.0
 40
1.0
 40
2.0
 40
2.0
 40
2.0
 40
3.0
 40
3.0
 40
3.0
 40
4.0
 40
4.0
 40
4.0
 40
5.0
 40
5.0
 40
5.0
 40
6.0
 40
6.0
 40
6.0
 40
7.0
 40
7.0
 40
7.0
 40
7.0
 10
99.13193356896703
 20
-146.6201632662963
 10
99.13193356896703
 20
-146.6201632662963
 10
99.13193356896703
 20
-145.5160101632738
 10
99.13193356896703
 20
-145.5160101632738
 10
99.13193356896703
 20
-145.5160101632738
 10
98.80189342148009
 20
-145.5160101632738
 10
98.80189342148009
 20
-145.5160101632738
 10
98.80189342148009
 20
-145.5160101632738
 10
98.80189342148009
 20
-145.3678710574081
 10
98.80189342148009
 20
-145.3678710574081
 10
99.13400062625817
 20
-145.3530571468215
 10
99.18085392485757
 20
-145.1901041303691
 10
99.21048174603072
 20
-145.0757269602589
 10
99.21048174603072
 20
-145.0757269602589
 10
99.3565537946053
 20
-145.0757269602589
 10
99.3565537946053
 20
-145.0757269602589
 10
99.3565537946053
 20
-145.0757269602589
 10
99.3565537946053
 20
-146.6201632662963
 10
99.3565537946053
 20
-146.6201632662963
 10
99.3565537946053
 20
-146.6201632662963
 10
99.13193356896703
 20
-146.6201632662963
 10
99.13193356896703
 20
-146.6201632662963
 97
        0
 97
        0
 75
     2
 76
     1
 98
        0
  0
POLYLINE
  5
144
330
13C
100
AcDbEntity
  8
_U+30EC_U+30A4_U+30E4_U+30FC 1
370
     0
100
AcDb2dPolyline
 66
     1
 10
0.0
 20
0.0
 30
0.0
  0
VERTEX
  5
145
330
144
100
AcDbEntity
  8
_U+30EC_U+30A4_U+30E4_U+30FC 1
370
     0
100
AcDbVertex
100
AcDb2dVertex
 10
99.91741533960398
 20
-146.6201632662963
 30
0.0
  0
VERTEX
  5
146
330
144
100
AcDbEntity
  8
_U+30EC_U+30A4_U+30E4_U+30FC 1
370
     0
100
AcDbVertex
100
AcDb2dVertex
 10
99.91741533960398
 20
-146.3683267863246
 30
0.0
  0
VERTEX
  5
147
330
144
100
AcDbEntity
  8
_U+30EC_U+30A4_U+30E4_U+30FC 1
370
     0
100
AcDbVertex
100
AcDb2dVertex
 10
100.1695963291243
 20
-146.3683267863246
 30
0.0
  0
VERTEX
  5
148
330
144
100
AcDbEntity
  8
_U+30EC_U+30A4_U+30E4_U+30FC 1
370
     0
100
AcDbVertex
100
AcDb2dVertex
 10
100.1695963291243
 20
-146.6201632662963
 30
0.0
  0
VERTEX
  5
149
330
144
100
AcDbEntity
  8
_U+30EC_U+30A4_U+30E4_U+30FC 1
370
     0
100
AcDbVertex
100
AcDb2dVertex
 10
99.91741533960398
 20
-146.6201632662963
 30
0.0
  0
SEQEND
  5
14A
330
144
100
AcDbEntity
  8
_U+30EC_U+30A4_U+30E4_U+30FC 1
370
     0
  0
HATCH
  5
14B
330
13C
100
AcDbEntity
  8
_U+30EC_U+30A4_U+30E4_U+30FC 1
 62
   179
420
  2234388
100
AcDbHatch
 10
0.0
 20
0.0
 30
0.0
210
0.0
220
0.0
230
1.0
  2
SOLID
 70
     1
 71
     0
 91
        1
 92
        1
 93
        4
 72
     1
 10
99.91741533960398
 20
-146.6201632662963
 11
99.91741533960398
 21
-146.3683267863246
 72
     1
 10
99.91741533960398
 20
-146.3683267863246
 11
100.1695963291243
 21
-146.3683267863246
 72
     1
 10
100.1695963291243
 20
-146.3683267863246
 11
100.1695963291243
 21
-146.6201632662963
 72
     1
 10
100.1695963291243
 20
-146.6201632662963
 11
99.91741533960398
 21
-146.6201632662963
 97
        0
 75
     2
 76
     1
 98
        0
  0
SPLINE
  5
14C
330
13C
100
AcDbEntity
  8
_U+30EC_U+30A4_U+30E4_U+30FC 1
370
     0
100
AcDbSpline
210
0.0
220
0.0
230
1.0
 70
    11
 71
     3
 72
    53
 73
    49
 74
     0
 42
0.0000000001
 43
0.0000000001
 12
1.0
 22
0.0
 32
0.0
 13
1.0
 23
0.0
 33
0.0
 40
0.0
 40
0.0
 40
0.0
 40
0.0
 40
1.0
 40
1.0
 40
1.0
 40
2.0
 40
2.0
 40
2.0
 40
3.0
 40
3.0
 40
3.0
 40
4.0
 40
4.0
 40
4.0
 40
5.0
 40
5.0
 40
5.0
 40
6.0
 40
6.0
 40
6.0
 40
7.0
 40
7.0
 40
7.0
 40
8.0
 40
8.0
 40
8.0
 40
9.0
 40
9.0
 40
9.0
 40
10.0
 40
10.0
 40
10.0
 40
11.0
 40
11.0
 40
11.0
 40
12.0
 40
12.0
 40
12.0
 40
13.0
 40
13.0
 40
13.0
 40
14.0
 40
14.0
 40
14.0
 40
15.0
 40
15.0
 40
15.0
 40
16.0
 40
16.0
 40
16.0
 40
16.0
 10
100.8868652091533
 20
-146.6708061699295
 30
0.0
 10
100.8083170320896
 20
-146.6708061699295
 30
0.0
 10
100.7070312248232
 20
-146.6539252020518
 30
0.0
 10
100.6050563984599
 20
-146.5905354451232
 30
0.0
 10
100.4321126051003
 20
-146.4806368991437
 30
0.0
 10
100.4107530130918
 20
-146.3493787611557
 30
0.0
 10
100.3914604783744
 20
-146.2415472724674
 30
0.0
 10
100.3914604783744
 20
-146.2415472724674
 30
0.0
 10
100.6140136467215
 20
-146.2415472724674
 30
0.0
 10
100.6140136467215
 20
-146.2415472724674
 30
0.0
 10
100.6684461553885
 20
-146.4403292819663
 30
0.0
 10
100.7959146883427
 20
-146.4699571031394
 30
0.0
 10
100.8889322664444
 20
-146.4699571031394
 30
0.0
 10
101.0281141240485
 20
-146.4699571031394
 30
0.0
 10
101.1803873444966
 20
-146.3703938436157
 30
0.0
 10
101.1803873444966
 20
-146.1378498983614
 30
0.0
 10
101.1803873444966
 20
-145.8818793038073
 30
0.0
 10
101.0005533601665
 20
-145.8119438654568
 30
0.0
 10
100.8799750181828
 20
-145.8119438654568
 30
0.0
 10
100.8482801397185
 20
-145.8119438654568
 30
0.0
 10
100.7070312248232
 20
-145.8119438654568
 30
0.0
 10
100.6181477613038
 20
-145.9411349461536
 30
0.0
 10
100.6181477613038
 20
-145.9411349461536
 30
0.0
 10
100.4424478915561
 20
-145.9221869209847
 30
0.0
 10
100.4424478915561
 20
-145.9221869209847
 30
0.0
 10
100.4424478915561
 20
-145.9221869209847
 30
0.0
 10
100.5630262335398
 20
-145.0757269602589
 30
0.0
 10
100.5630262335398
 20
-145.0757269602589
 30
0.0
 10
100.5630262335398
 20
-145.0757269602589
 30
0.0
 10
101.3416178132063
 20
-145.0757269602589
 30
0.0
 10
101.3416178132063
 20
-145.0757269602589
 30
0.0
 10
101.3416178132063
 20
-145.0757269602589
 30
0.0
 10
101.3416178132063
 20
-145.2703748551755
 30
0.0
 10
101.3416178132063
 20
-145.2703748551755
 30
0.0
 10
101.3416178132063
 20
-145.2703748551755
 30
0.0
 10
100.7256347404436
 20
-145.2703748551755
 30
0.0
 10
100.7256347404436
 20
-145.2703748551755
 30
0.0
 10
100.7256347404436
 20
-145.2703748551755
 30
0.0
 10
100.6601779262239
 20
-145.6934325807642
 30
0.0
 10
100.6601779262239
 20
-145.6934325807642
 30
0.0
 10
100.7215006258613
 20
-145.6596706450087
 30
0.0
 10
100.8041829175073
 20
-145.6193630278313
 30
0.0
 10
100.9226942021999
 20
-145.6193630278313
 30
0.0
 10
101.1762532299143
 20
-145.6193630278313
 30
0.0
 10
101.4132757992995
 20
-145.8057426935833
 30
0.0
 10
101.4132757992995
 20
-146.1189018731925
 30
0.0
 10
101.4132757992995
 20
-146.436195167384
 30
0.0
 10
101.1893445927582
 20
-146.6708061699295
 30
0.0
 10
100.8868652091533
 20
-146.6708061699295
 30
0.0
  0
HATCH
  5
14D
330
13C
100
AcDbEntity
  8
_U+30EC_U+30A4_U+30E4_U+30FC 1
 62
   179
420
  2234388
100
AcDbHatch
 10
0.0
 20
0.0
 30
0.0
210
0.0
220
0.0
230
1.0
  2
SOLID
 70
     1
 71
     0
 91
        1
 92
        1
 93
        1
 72
     4
 94
        3
 73
     0
 74
     1
 95
       53
 96
       49
 40
0.0
 40
0.0
 40
0.0
 40
0.0
 40
1.0
 40
1.0
 40
1.0
 40
2.0
 40
2.0
 40
2.0
 40
3.0
 40
3.0
 40
3.0
 40
4.0
 40
4.0
 40
4.0
 40
5.0
 40
5.0
 40
5.0
 40
6.0
 40
6.0
 40
6.0
 40
7.0
 40
7.0
 40
7.0
 40
8.0
 40
8.0
 40
8.0
 40
9.0
 40
9.0
 40
9.0
 40
10.0
 40
10.0
 40
10.0
 40
11.0
 40
11.0
 40
11.0
 40
12.0
 40
12.0
 40
12.0
 40
13.0
 40
13.0
 40
13.0
 40
14.0
 40
14.0
 40
14.0
 40
15.0
 40
15.0
 40
15.0
 40
16.0
 40
16.0
 40
16.0
 40
16.0
 10
100.8868652091533
 20
-146.6708061699295
 10
100.8083170320896
 20
-146.6708061699295
 10
100.7070312248232
 20
-146.6539252020518
 10
100.6050563984599
 20
-146.5905354451232
 10
100.4321126051003
 20
-146.4806368991437
 10
100.4107530130918
 20
-146.3493787611557
 10
100.3914604783744
 20
-146.2415472724674
 10
100.3914604783744
 20
-146.2415472724674
 10
100.6140136467215
 20
-146.2415472724674
 10
100.6140136467215
 20
-146.2415472724674
 10
100.6684461553885
 20
-146.4403292819663
 10
100.7959146883427
 20
-146.4699571031394
 10
100.8889322664444
 20
-146.4699571031394
 10
101.0281141240485
 20
-146.4699571031394
 10
101.1803873444966
 20
-146.3703938436157
 10
101.1803873444966
 20
-146.1378498983614
 10
101.1803873444966
 20
-145.8818793038073
 10
101.0005533601665
 20
-145.8119438654568
 10
100.8799750181828
 20
-145.8119438654568
 10
100.8482801397185
 20
-145.8119438654568
 10
100.7070312248232
 20
-145.8119438654568
 10
100.6181477613038
 20
-145.9411349461536
 10
100.6181477613038
 20
-145.9411349461536
 10
100.4424478915561
 20
-145.9221869209847
 10
100.4424478915561
 20
-145.9221869209847
 10
100.4424478915561
 20
-145.9221869209847
 10
100.5630262335398
 20
-145.0757269602589
 10
100.5630262335398
 20
-145.0757269602589
 10
100.5630262335398
 20
-145.0757269602589
 10
101.3416178132063
 20
-145.0757269602589
 10
101.3416178132063
 20
-145.0757269602589
 10
101.3416178132063
 20
-145.0757269602589
 10
101.3416178132063
 20
-145.2703748551755
 10
101.3416178132063
 20
-145.2703748551755
 10
101.3416178132063
 20
-145.2703748551755
 10
100.7256347404436
 20
-145.2703748551755
 10
100.7256347404436
 20
-145.2703748551755
 10
100.7256347404436
 20
-145.2703748551755
 10
100.6601779262239
 20
-145.6934325807642
 10
100.6601779262239
 20
-145.6934325807642
 10
100.7215006258613
 20
-145.6596706450087
 10
100.8041829175073
 20
-145.6193630278313
 10
100.9226942021999
 20
-145.6193630278313
 10
101.1762532299143
 20
-145.6193630278313
 10
101.4132757992995
 20
-145.8057426935833
 10
101.4132757992995
 20
-146.1189018731925
 10
101.4132757992995
 20
-146.436195167384
 10
101.1893445927582
 20
-146.6708061699295
 10
100.8868652091533
 20
-146.6708061699295
 97
        0
 97
        0
 75
     2
 76
     1
 98
        0
  0
ENDBLK
  5
13F
330
13C
100
AcDbEntity
  8
0
100
AcDbBlockEnd
  0
BLOCK
  5
158
330
156
100
AcDbEntity
  8
0
100
AcDbBlockBegin
  2
block 9
 70
     0
 10
0.0
 20
0.0
 30
0.0
  3
block 9
  1

  0
SPLINE
  5
15A
330
156
100
AcDbEntity
  8
_U+30EC_U+30A4_U+30E4_U+30FC 1
370
     0
100
AcDbSpline
210
0.0
220
0.0
230
1.0
 70
    11
 71
     3
 72
    26
 73
    22
 74
     0
 42
0.0000000001
 43
0.0000000001
 12
1.0
 22
0.0
 32
0.0
 13
1.0
 23
0.0
 33
0.0
 40
0.0
 40
0.0
 40
0.0
 40
0.0
 40
1.0
 40
1.0
 40
1.0
 40
2.0
 40
2.0
 40
2.0
 40
3.0
 40
3.0
 40
3.0
 40
4.0
 40
4.0
 40
4.0
 40
5.0
 40
5.0
 40
5.0
 40
6.0
 40
6.0
 40
6.0
 40
7.0
 40
7.0
 40
7.0
 40
7.0
 10
85.87331133920875
 20
-146.6201632662963
 30
0.0
 10
85.87331133920875
 20
-146.6201632662963
 30
0.0
 10
85.87331133920875
 20
-145.5160101632738
 30
0.0
 10
85.87331133920875
 20
-145.5160101632738
 30
0.0
 10
85.87331133920875
 20
-145.5160101632738
 30
0.0
 10
85.54327119172183
 20
-145.5160101632738
 30
0.0
 10
85.54327119172183
 20
-145.5160101632738
 30
0.0
 10
85.54327119172183
 20
-145.5160101632738
 30
0.0
 10
85.54327119172183
 20
-145.3678710574081
 30
0.0
 10
85.54327119172183
 20
-145.3678710574081
 30
0.0
 10
85.87537839649991
 20
-145.3530571468215
 30
0.0
 10
85.92188718555079
 20
-145.1901041303691
 30
0.0
 10
85.95151500672394
 20
-145.0757269602589
 30
0.0
 10
85.95151500672394
 20
-145.0757269602589
 30
0.0
 10
86.09758705529852
 20
-145.0757269602589
 30
0.0
 10
86.09758705529852
 20
-145.0757269602589
 30
0.0
 10
86.09758705529852
 20
-145.0757269602589
 30
0.0
 10
86.09758705529852
 20
-146.6201632662963
 30
0.0
 10
86.09758705529852
 20
-146.6201632662963
 30
0.0
 10
86.09758705529852
 20
-146.6201632662963
 30
0.0
 10
85.87331133920875
 20
-146.6201632662963
 30
0.0
 10
85.87331133920875
 20
-146.6201632662963
 30
0.0
  0
HATCH
  5
15B
330
156
100
AcDbEntity
  8
_U+30EC_U+30A4_U+30E4_U+30FC 1
 62
   179
420
  2234388
100
AcDbHatch
 10
0.0
 20
0.0
 30
0.0
210
0.0
220
0.0
230
1.0
  2
SOLID
 70
     1
 71
     0
 91
        1
 92
        1
 93
        1
 72
     4
 94
        3
 73
     0
 74
     1
 95
       26
 96
       22
 40
0.0
 40
0.0
 40
0.0
 40
0.0
 40
1.0
 40
1.0
 40
1.0
 40
2.0
 40
2.0
 40
2.0
 40
3.0
 40
3.0
 40
3.0
 40
4.0
 40
4.0
 40
4.0
 40
5.0
 40
5.0
 40
5.0
 40
6.0
 40
6.0
 40
6.0
 40
7.0
 40
7.0
 40
7.0
 40
7.0
 10
85.87331133920875
 20
-146.6201632662963
 10
85.87331133920875
 20
-146.6201632662963
 10
85.87331133920875
 20
-145.5160101632738
 10
85.87331133920875
 20
-145.5160101632738
 10
85.87331133920875
 20
-145.5160101632738
 10
85.54327119172183
 20
-145.5160101632738
 10
85.54327119172183
 20
-145.5160101632738
 10
85.54327119172183
 20
-145.5160101632738
 10
85.54327119172183
 20
-145.3678710574081
 10
85.54327119172183
 20
-145.3678710574081
 10
85.87537839649991
 20
-145.3530571468215
 10
85.92188718555079
 20
-145.1901041303691
 10
85.95151500672394
 20
-145.0757269602589
 10
85.95151500672394
 20
-145.0757269602589
 10
86.09758705529852
 20
-145.0757269602589
 10
86.09758705529852
 20
-145.0757269602589
 10
86.09758705529852
 20
-145.0757269602589
 10
86.09758705529852
 20
-146.6201632662963
 10
86.09758705529852
 20
-146.6201632662963
 10
86.09758705529852
 20
-146.6201632662963
 10
85.87331133920875
 20
-146.6201632662963
 10
85.87331133920875
 20
-146.6201632662963
 97
        0
 97
        0
 75
     2
 76
     1
 98
        0
  0
POLYLINE
  5
15C
330
156
100
AcDbEntity
  8
_U+30EC_U+30A4_U+30E4_U+30FC 1
370
     0
100
AcDb2dPolyline
 66
     1
 10
0.0
 20
0.0
 30
0.0
  0
VERTEX
  5
15D
330
15C
100
AcDbEntity
  8
_U+30EC_U+30A4_U+30E4_U+30FC 1
370
     0
100
AcDbVertex
100
AcDb2dVertex
 10
87.43083900809022
 20
-146.2732421509317
 30
0.0
  0
VERTEX
  5
15E
330
15C
100
AcDbEntity
  8
_U+30EC_U+30A4_U+30E4_U+30FC 1
370
     0
100
AcDbVertex
100
AcDb2dVertex
 10
87.43083900809022
 20
-146.6201632662963
 30
0.0
  0
VERTEX
  5
15F
330
15C
100
AcDbEntity
  8
_U+30EC_U+30A4_U+30E4_U+30FC 1
370
     0
100
AcDbVertex
100
AcDb2dVertex
 10
87.21310897342242
 20
-146.6201632662963
 30
0.0
  0
VERTEX
  5
160
330
15C
100
AcDbEntity
  8
_U+30EC_U+30A4_U+30E4_U+30FC 1
370
     0
100
AcDbVertex
100
AcDb2dVertex
 10
87.21310897342242
 20
-146.2732421509317
 30
0.0
  0
VERTEX
  5
161
330
15C
100
AcDbEntity
  8
_U+30EC_U+30A4_U+30E4_U+30FC 1
370
     0
100
AcDbVertex
100
AcDb2dVertex
 10
86.55716279303086
 20
-146.2732421509317
 30
0.0
  0
VERTEX
  5
162
330
15C
100
AcDbEntity
  8
_U+30EC_U+30A4_U+30E4_U+30FC 1
370
     0
100
AcDbVertex
100
AcDb2dVertex
 10
86.55716279303086
 20
-146.0489664348419
 30
0.0
  0
VERTEX
  5
163
330
15C
100
AcDbEntity
  8
_U+30EC_U+30A4_U+30E4_U+30FC 1
370
     0
100
AcDbVertex
100
AcDb2dVertex
 10
87.23619111317359
 20
-145.0757269602589
 30
0.0
  0
VERTEX
  5
164
330
15C
100
AcDbEntity
  8
_U+30EC_U+30A4_U+30E4_U+30FC 1
370
     0
100
AcDbVertex
100
AcDb2dVertex
 10
87.43083900809022
 20
-145.0757269602589
 30
0.0
  0
VERTEX
  5
165
330
15C
100
AcDbEntity
  8
_U+30EC_U+30A4_U+30E4_U+30FC 1
370
     0
100
AcDbVertex
100
AcDb2dVertex
 10
87.43083900809022
 20
-146.0744601414328
 30
0.0
  0
VERTEX
  5
166
330
15C
100
AcDbEntity
  8
_U+30EC_U+30A4_U+30E4_U+30FC 1
370
     0
100
AcDbVertex
100
AcDb2dVertex
 10
87.63823375630226
 20
-146.0744601414328
 30
0.0
  0
VERTEX
  5
167
330
15C
100
AcDbEntity
  8
_U+30EC_U+30A4_U+30E4_U+30FC 1
370
     0
100
AcDbVertex
100
AcDb2dVertex
 10
87.63823375630226
 20
-146.2732421509317
 30
0.0
  0
VERTEX
  5
168
330
15C
100
AcDbEntity
  8
_U+30EC_U+30A4_U+30E4_U+30FC 1
370
     0
100
AcDbVertex
100
AcDb2dVertex
 10
87.43083900809022
 20
-146.2732421509317
 30
0.0
  0
SEQEND
  5
169
330
15C
100
AcDbEntity
  8
_U+30EC_U+30A4_U+30E4_U+30FC 1
370
     0
  0
POLYLINE
  5
16A
330
156
100
AcDbEntity
  8
_U+30EC_U+30A4_U+30E4_U+30FC 1
370
     0
100
AcDb2dPolyline
 66
     1
 10
0.0
 20
0.0
 30
0.0
  0
VERTEX
  5
16B
330
16A
100
AcDbEntity
  8
_U+30EC_U+30A4_U+30E4_U+30FC 1
370
     0
100
AcDbVertex
100
AcDb2dVertex
 10
87.21310897342242
 20
-145.4185139610412
 30
0.0
  0
VERTEX
  5
16C
330
16A
100
AcDbEntity
  8
_U+30EC_U+30A4_U+30E4_U+30FC 1
370
     0
100
AcDbVertex
100
AcDb2dVertex
 10
86.75594480252977
 20
-146.0744601414328
 30
0.0
  0
VERTEX
  5
16D
330
16A
100
AcDbEntity
  8
_U+30EC_U+30A4_U+30E4_U+30FC 1
370
     0
100
AcDbVertex
100
AcDb2dVertex
 10
87.21310897342242
 20
-146.0744601414328
 30
0.0
  0
VERTEX
  5
16E
330
16A
100
AcDbEntity
  8
_U+30EC_U+30A4_U+30E4_U+30FC 1
370
     0
100
AcDbVertex
100
AcDb2dVertex
 10
87.21310897342242
 20
-145.4185139610412
 30
0.0
  0
SEQEND
  5
16F
330
16A
100
AcDbEntity
  8
_U+30EC_U+30A4_U+30E4_U+30FC 1
370
     0
  0
HATCH
  5
170
330
156
100
AcDbEntity
  8
_U+30EC_U+30A4_U+30E4_U+30FC 1
 62
   179
420
  2234388
100
AcDbHatch
 10
0.0
 20
0.0
 30
0.0
210
0.0
220
0.0
230
1.0
  2
SOLID
 70
     1
 71
     0
 91
        2
 92
        1
 93
       11
 72
     1
 10
87.43083900809022
 20
-146.2732421509317
 11
87.43083900809022
 21
-146.6201632662963
 72
     1
 10
87.43083900809022
 20
-146.6201632662963
 11
87.21310897342242
 21
-146.6201632662963
 72
     1
 10
87.21310897342242
 20
-146.6201632662963
 11
87.21310897342242
 21
-146.2732421509317
 72
     1
 10
87.21310897342242
 20
-146.2732421509317
 11
86.55716279303086
 21
-146.2732421509317
 72
     1
 10
86.55716279303086
 20
-146.2732421509317
 11
86.55716279303086
 21
-146.0489664348419
 72
     1
 10
86.55716279303086
 20
-146.0489664348419
 11
87.23619111317359
 21
-145.0757269602589
 72
     1
 10
87.23619111317359
 20
-145.0757269602589
 11
87.43083900809022
 21
-145.0757269602589
 72
     1
 10
87.43083900809022
 20
-145.0757269602589
 11
87.43083900809022
 21
-146.0744601414328
 72
     1
 10
87.43083900809022
 20
-146.0744601414328
 11
87.63823375630226
 21
-146.0744601414328
 72
     1
 10
87.63823375630226
 20
-146.0744601414328
 11
87.63823375630226
 21
-146.2732421509317
 72
     1
 10
87.63823375630226
 20
-146.2732421509317
 11
87.43083900809022
 21
-146.2732421509317
 97
        0
 92
        1
 93
        3
 72
     1
 10
87.21310897342242
 20
-145.4185139610412
 11
86.75594480252977
 21
-146.0744601414328
 72
     1
 10
86.75594480252977
 20
-146.0744601414328
 11
87.21310897342242
 21
-146.0744601414328
 72
     1
 10
87.21310897342242
 20
-146.0744601414328
 11
87.21310897342242
 21
-145.4185139610412
 97
        0
 75
     2
 76
     1
 98
        0
  0
ENDBLK
  5
159
330
156
100
AcDbEntity
  8
0
100
AcDbBlockEnd
  0
ENDSEC
  0
SECTION
  2
ENTITIES
  0
POLYLINE
  5
41
330
1F
100
AcDbEntity
  8
_U+30EC_U+30A4_U+30E4_U+30FC 1
 62
   179
420
  2234388
370
    25
100
AcDb2dPolyline
 66
     1
 10
0.0
 20
0.0
 30
0.0
  0
VERTEX
  5
42
330
41
100
AcDbEntity
  8
_U+30EC_U+30A4_U+30E4_U+30FC 1
 62
   179
420
  2234388
370
    25
100
AcDbVertex
100
AcDb2dVertex
 10
79.58599435848102
 20
-128.2163071901681
 30
0.0
  0
VERTEX
  5
43
330
41
100
AcDbEntity
  8
_U+30EC_U+30A4_U+30E4_U+30FC 1
 62
   179
420
  2234388
370
    25
100
AcDbVertex
100
AcDb2dVertex
 10
79.58599435848102
 20
-138.7167730208765
 30
0.0
  0
SEQEND
  5
44
330
41
100
AcDbEntity
  8
_U+30EC_U+30A4_U+30E4_U+30FC 1
 62
   179
420
  2234388
370
    25
  0
POLYLINE
  5
45
330
1F
100
AcDbEntity
  8
_U+30EC_U+30A4_U+30E4_U+30FC 1
 62
   179
420
  2234388
370
    25
100
AcDb2dPolyline
 66
     1
 10
0.0
 20
0.0
 30
0.0
  0
VERTEX
  5
46
330
45
100
AcDbEntity
  8
_U+30EC_U+30A4_U+30E4_U+30FC 1
 62
   179
420
  2234388
370
    25
100
AcDbVertex
100
AcDb2dVertex
 10
82.08595401692395
 20
-141.2165210758072
 30
0.0
  0
VERTEX
  5
47
330
45
100
AcDbEntity
  8
_U+30EC_U+30A4_U+30E4_U+30FC 1
 62
   179
420
  2234388
370
    25
100
AcDbVertex
100
AcDb2dVertex
 10
92.58589041571493
 20
-141.2165210758072
 30
0.0
  0
SEQEND
  5
48
330
45
100
AcDbEntity
  8
_U+30EC_U+30A4_U+30E4_U+30FC 1
 62
   179
420
  2234388
370
    25
  0
POLYLINE
  5
49
330
1F
100
AcDbEntity
  8
_U+30EC_U+30A4_U+30E4_U+30FC 1
 62
   179
420
  2234388
370
    25
100
AcDb2dPolyline
 66
     1
 10
0.0
 20
0.0
 30
0.0
  0
VERTEX
  5
4A
330
49
100
AcDbEntity
  8
_U+30EC_U+30A4_U+30E4_U+30FC 1
 62
   179
420
  2234388
370
    25
100
AcDbVertex
100
AcDb2dVertex
 10
81.9605415201235
 20
-140.2167488538346
 30
0.0
  0
VERTEX
  5
4B
330
49
100
AcDbEntity
  8
_U+30EC_U+30A4_U+30E4_U+30FC 1
 62
   179
420
  2234388
370
    25
100
AcDbVertex
100
AcDb2dVertex
 10
93.58601539019962
 20
-140.2167488538346
 30
0.0
  0
SEQEND
  5
4C
330
49
100
AcDbEntity
  8
_U+30EC_U+30A4_U+30E4_U+30FC 1
 62
   179
420
  2234388
370
    25
  0
POLYLINE
  5
4D
330
1F
100
AcDbEntity
  8
_U+30EC_U+30A4_U+30E4_U+30FC 1
 62
   179
420
  2234388
370
    25
100
AcDb2dPolyline
 66
     1
 10
0.0
 20
0.0
 30
0.0
  0
VERTEX
  5
4E
330
4D
100
AcDbEntity
  8
_U+30EC_U+30A4_U+30E4_U+30FC 1
 62
   179
420
  2234388
370
    25
100
AcDbVertex
100
AcDb2dVertex
 10
80.58594294408131
 20
-127.2165349681959
 30
0.0
  0
VERTEX
  5
4F
330
4D
100
AcDbEntity
  8
_U+30EC_U+30A4_U+30E4_U+30FC 1
 62
   179
420
  2234388
370
    25
100
AcDbVertex
100
AcDb2dVertex
 10
80.58594294408131
 20
-138.7312369097615
 30
0.0
  0
SEQEND
  5
50
330
4D
100
AcDbEntity
  8
_U+30EC_U+30A4_U+30E4_U+30FC 1
 62
   179
420
  2234388
370
    25
  0
POLYLINE
  5
51
330
1F
100
AcDbEntity
  8
_U+30EC_U+30A4_U+30E4_U+30FC 1
 62
   179
420
  2234388
370
    25
100
AcDb2dPolyline
 66
     1
 10
0.0
 20
0.0
 30
0.0
  0
VERTEX
  5
52
330
51
100
AcDbEntity
  8
_U+30EC_U+30A4_U+30E4_U+30FC 1
 62
   179
420
  2234388
370
    25
100
AcDbVertex
100
AcDb2dVertex
 10
85.08594088483235
 20
-135.7167860771822
 30
0.0
  0
VERTEX
  5
53
330
51
100
AcDbEntity
  8
_U+30EC_U+30A4_U+30E4_U+30FC 1
 62
   179
420
  2234388
370
    25
100
AcDbVertex
100
AcDb2dVertex
 10
105.0860767634753
 20
-135.7167860771822
 30
0.0
  0
SEQEND
  5
54
330
51
100
AcDbEntity
  8
_U+30EC_U+30A4_U+30E4_U+30FC 1
 62
   179
420
  2234388
370
    25
  0
POLYLINE
  5
55
330
1F
100
AcDbEntity
  8
_U+30EC_U+30A4_U+30E4_U+30FC 1
 62
   179
420
  2234388
370
    25
100
AcDb2dPolyline
 66
     1
 10
0.0
 20
0.0
 30
0.0
  0
VERTEX
  5
56
330
55
100
AcDbEntity
  8
_U+30EC_U+30A4_U+30E4_U+30FC 1
 62
   179
420
  2234388
370
    25
100
AcDbVertex
100
AcDb2dVertex
 10
85.08594088483235
 20
-115.7164380266263
 30
0.0
  0
VERTEX
  5
57
330
55
100
AcDbEntity
  8
_U+30EC_U+30A4_U+30E4_U+30FC 1
 62
   179
420
  2234388
370
    25
100
AcDbVertex
100
AcDb2dVertex
 10
85.08594088483235
 20
-135.7167860771822
 30
0.0
  0
SEQEND
  5
58
330
55
100
AcDbEntity
  8
_U+30EC_U+30A4_U+30E4_U+30FC 1
 62
   179
420
  2234388
370
    25
  0
POLYLINE
  5
59
330
1F
100
AcDbEntity
  8
_U+30EC_U+30A4_U+30E4_U+30FC 1
 62
   179
420
  2234388
370
    25
100
AcDb2dPolyline
 66
     1
 10
0.0
 20
0.0
 30
0.0
  0
VERTEX
  5
5A
330
59
100
AcDbEntity
  8
_U+30EC_U+30A4_U+30E4_U+30FC 1
 62
   179
420
  2234388
370
    25
100
AcDbVertex
100
AcDb2dVertex
 10
83.98626202399862
 20
-129.7168121897928
 30
0.0
  0
VERTEX
  5
5B
330
59
100
AcDbEntity
  8
_U+30EC_U+30A4_U+30E4_U+30FC 1
 62
   179
420
  2234388
370
    25
100
AcDbVertex
100
AcDb2dVertex
 10
84.08616868811644
 20
-129.6161999675957
 30
0.0
  0
SEQEND
  5
5C
330
59
100
AcDbEntity
  8
_U+30EC_U+30A4_U+30E4_U+30FC 1
 62
   179
420
  2234388
370
    25
  0
POLYLINE
  5
5D
330
1F
100
AcDbEntity
  8
_U+30EC_U+30A4_U+30E4_U+30FC 1
 62
   179
420
  2234388
370
    25
100
AcDb2dPolyline
 66
     1
 10
0.0
 20
0.0
 30
0.0
  0
VERTEX
  5
5E
330
5D
100
AcDbEntity
  8
_U+30EC_U+30A4_U+30E4_U+30FC 1
 62
   179
420
  2234388
370
    25
100
AcDbVertex
100
AcDb2dVertex
 10
91.08591462064916
 20
-136.8164649657957
 30
0.0
  0
VERTEX
  5
5F
330
5D
100
AcDbEntity
  8
_U+30EC_U+30A4_U+30E4_U+30FC 1
 62
   179
420
  2234388
370
    25
100
AcDbVertex
100
AcDb2dVertex
 10
91.185821284767
 20
-136.7165582991541
 30
0.0
  0
SEQEND
  5
60
330
5D
100
AcDbEntity
  8
_U+30EC_U+30A4_U+30E4_U+30FC 1
 62
   179
420
  2234388
370
    25
  0
POLYLINE
  5
61
330
1F
100
AcDbEntity
  8
_U+30EC_U+30A4_U+30E4_U+30FC 1
 62
   179
420
  2234388
370
    25
100
AcDb2dPolyline
 66
     1
 10
0.0
 20
0.0
 30
0.0
  0
VERTEX
  5
62
330
61
100
AcDbEntity
  8
_U+30EC_U+30A4_U+30E4_U+30FC 1
 62
   179
420
  2234388
370
    25
100
AcDbVertex
100
AcDb2dVertex
 10
81.75797652529135
 20
-139.6951669095208
 30
0.0
  0
VERTEX
  5
63
330
61
100
AcDbEntity
  8
_U+30EC_U+30A4_U+30E4_U+30FC 1
 62
   179
420
  2234388
370
    25
100
AcDbVertex
100
AcDb2dVertex
 10
84.89956838958712
 20
-136.8164649657957
 30
0.0
  0
SEQEND
  5
64
330
61
100
AcDbEntity
  8
_U+30EC_U+30A4_U+30E4_U+30FC 1
 62
   179
420
  2234388
370
    25
  0
POLYLINE
  5
65
330
1F
100
AcDbEntity
  8
_U+30EC_U+30A4_U+30E4_U+30FC 1
 62
   179
420
  2234388
370
    25
100
AcDb2dPolyline
 66
     1
 10
0.0
 20
0.0
 30
0.0
  0
VERTEX
  5
66
330
65
100
AcDbEntity
  8
_U+30EC_U+30A4_U+30E4_U+30FC 1
 62
   179
420
  2234388
370
    25
100
AcDbVertex
100
AcDb2dVertex
 10
81.0889334868045
 20
-138.9524285763731
 30
0.0
  0
VERTEX
  5
67
330
65
100
AcDbEntity
  8
_U+30EC_U+30A4_U+30E4_U+30FC 1
 62
   179
420
  2234388
370
    25
100
AcDbVertex
100
AcDb2dVertex
 10
83.98626202399862
 20
-136.2976346881477
 30
0.0
  0
SEQEND
  5
68
330
65
100
AcDbEntity
  8
_U+30EC_U+30A4_U+30E4_U+30FC 1
 62
   179
420
  2234388
370
    25
  0
POLYLINE
  5
69
330
1F
100
AcDbEntity
  8
_U+30EC_U+30A4_U+30E4_U+30FC 1
 62
   179
420
  2234388
370
     9
100
AcDb2dPolyline
 66
     1
 10
0.0
 20
0.0
 30
0.0
  0
VERTEX
  5
6A
330
69
100
AcDbEntity
  8
_U+30EC_U+30A4_U+30E4_U+30FC 1
 62
   179
420
  2234388
370
     9
100
AcDbVertex
100
AcDb2dVertex
 10
79.9525657380179
 20
-140.0197224649953
 30
0.0
  0
VERTEX
  5
6B
330
69
100
AcDbEntity
  8
_U+30EC_U+30A4_U+30E4_U+30FC 1
 62
   179
420
  2234388
370
     9
100
AcDbVertex
100
AcDb2dVertex
 10
78.993294424696
 20
-140.3021916315913
 30
0.0
  0
SEQEND
  5
6C
330
69
100
AcDbEntity
  8
_U+30EC_U+30A4_U+30E4_U+30FC 1
 62
   179
420
  2234388
370
     9
  0
POLYLINE
  5
6D
330
1F
100
AcDbEntity
  8
_U+30EC_U+30A4_U+30E4_U+30FC 1
 62
   179
420
  2234388
370
     9
100
AcDb2dPolyline
 66
     1
 10
0.0
 20
0.0
 30
0.0
  0
VERTEX
  5
6E
330
6D
100
AcDbEntity
  8
_U+30EC_U+30A4_U+30E4_U+30FC 1
 62
   179
420
  2234388
370
     9
100
AcDbVertex
100
AcDb2dVertex
 10
79.9525657380179
 20
-140.0197224649953
 30
0.0
  0
VERTEX
  5
6F
330
6D
100
AcDbEntity
  8
_U+30EC_U+30A4_U+30E4_U+30FC 1
 62
   179
420
  2234388
370
     9
100
AcDbVertex
100
AcDb2dVertex
 10
79.26320270004945
 20
-140.7438694092587
 30
0.0
  0
SEQEND
  5
70
330
6D
100
AcDbEntity
  8
_U+30EC_U+30A4_U+30E4_U+30FC 1
 62
   179
420
  2234388
370
     9
  0
POLYLINE
  5
71
330
1F
100
AcDbEntity
  8
_U+30EC_U+30A4_U+30E4_U+30FC 1
 62
   179
420
  2234388
370
    25
100
AcDb2dPolyline
 66
     1
 10
0.0
 20
0.0
 30
0.0
  0
VERTEX
  5
72
330
71
100
AcDbEntity
  8
_U+30EC_U+30A4_U+30E4_U+30FC 1
 62
   179
420
  2234388
370
    25
100
AcDbVertex
100
AcDb2dVertex
 10
84.08616868811644
 20
-116.7165630263763
 30
0.0
  0
VERTEX
  5
73
330
71
100
AcDbEntity
  8
_U+30EC_U+30A4_U+30E4_U+30FC 1
 62
   179
420
  2234388
370
    25
100
AcDbVertex
100
AcDb2dVertex
 10
84.08616868811644
 20
-129.6161999675957
 30
0.0
  0
SEQEND
  5
74
330
71
100
AcDbEntity
  8
_U+30EC_U+30A4_U+30E4_U+30FC 1
 62
   179
420
  2234388
370
    25
  0
POLYLINE
  5
75
330
1F
100
AcDbEntity
  8
_U+30EC_U+30A4_U+30E4_U+30FC 1
 62
   179
420
  2234388
370
    25
100
AcDb2dPolyline
 66
     1
 10
0.0
 20
0.0
 30
0.0
  0
VERTEX
  5
76
330
75
100
AcDbEntity
  8
_U+30EC_U+30A4_U+30E4_U+30FC 1
 62
   179
420
  2234388
370
    25
100
AcDbVertex
100
AcDb2dVertex
 10
83.98626202399862
 20
-129.7168121897928
 30
0.0
  0
VERTEX
  5
77
330
75
100
AcDbEntity
  8
_U+30EC_U+30A4_U+30E4_U+30FC 1
 62
   179
420
  2234388
370
    25
100
AcDbVertex
100
AcDb2dVertex
 10
83.98626202399862
 20
-136.2976346881477
 30
0.0
  0
SEQEND
  5
78
330
75
100
AcDbEntity
  8
_U+30EC_U+30A4_U+30E4_U+30FC 1
 62
   179
420
  2234388
370
    25
  0
POLYLINE
  5
79
330
1F
100
AcDbEntity
  8
_U+30EC_U+30A4_U+30E4_U+30FC 1
 62
   179
420
  2234388
370
    25
100
AcDb2dPolyline
 66
     1
 10
0.0
 20
0.0
 30
0.0
  0
VERTEX
  5
7A
330
79
100
AcDbEntity
  8
_U+30EC_U+30A4_U+30E4_U+30FC 1
 62
   179
420
  2234388
370
    25
100
AcDbVertex
100
AcDb2dVertex
 10
84.89956838958712
 20
-136.8164649657957
 30
0.0
  0
VERTEX
  5
7B
330
79
100
AcDbEntity
  8
_U+30EC_U+30A4_U+30E4_U+30FC 1
 62
   179
420
  2234388
370
    25
100
AcDbVertex
100
AcDb2dVertex
 10
91.08591462064916
 20
-136.8164649657957
 30
0.0
  0
SEQEND
  5
7C
330
79
100
AcDbEntity
  8
_U+30EC_U+30A4_U+30E4_U+30FC 1
 62
   179
420
  2234388
370
    25
  0
POLYLINE
  5
7D
330
1F
100
AcDbEntity
  8
_U+30EC_U+30A4_U+30E4_U+30FC 1
 62
   179
420
  2234388
370
    25
100
AcDb2dPolyline
 66
     1
 10
0.0
 20
0.0
 30
0.0
  0
VERTEX
  5
7E
330
7D
100
AcDbEntity
  8
_U+30EC_U+30A4_U+30E4_U+30FC 1
 62
   179
420
  2234388
370
    25
100
AcDbVertex
100
AcDb2dVertex
 10
91.185821284767
 20
-136.7165582991541
 30
0.0
  0
VERTEX
  5
7F
330
7D
100
AcDbEntity
  8
_U+30EC_U+30A4_U+30E4_U+30FC 1
 62
   179
420
  2234388
370
    25
100
AcDbVertex
100
AcDb2dVertex
 10
104.0859870667675
 20
-136.7165582991541
 30
0.0
  0
SEQEND
  5
80
330
7D
100
AcDbEntity
  8
_U+30EC_U+30A4_U+30E4_U+30FC 1
 62
   179
420
  2234388
370
    25
  0
SPLINE
  5
81
330
1F
100
AcDbEntity
  8
_U+30EC_U+30A4_U+30E4_U+30FC 1
 62
   179
420
  2234388
370
    25
100
AcDbSpline
210
0.0
220
0.0
230
1.0
 70
     8
 71
     3
 72
     8
 73
     4
 74
     0
 42
0.0000000001
 43
0.0000000001
 12
1.0
 22
0.0
 32
0.0
 13
1.0
 23
0.0
 33
0.0
 40
0.0
 40
0.0
 40
0.0
 40
0.0
 40
1.0
 40
1.0
 40
1.0
 40
1.0
 10
79.58599435848102
 20
-138.7167730208765
 30
0.0
 10
79.58599435848102
 20
-140.0968749649758
 30
0.0
 10
80.70514655215129
 20
-141.2165210758072
 30
0.0
 10
82.08595401692395
 20
-141.2165210758072
 30
0.0
  0
SPLINE
  5
82
330
1F
100
AcDbEntity
  8
_U+30EC_U+30A4_U+30E4_U+30FC 1
 62
   179
420
  2234388
370
    25
100
AcDbSpline
210
0.0
220
0.0
230
1.0
 70
     8
 71
     3
 72
     8
 73
     4
 74
     0
 42
0.0000000001
 43
0.0000000001
 12
1.0
 22
0.0
 32
0.0
 13
1.0
 23
0.0
 33
0.0
 40
0.0
 40
0.0
 40
0.0
 40
0.0
 40
1.0
 40
1.0
 40
1.0
 40
1.0
 10
92.58589041571493
 20
-141.2165210758072
 30
0.0
 10
93.13848151272826
 20
-141.2165210758072
 30
0.0
 10
93.58601539019962
 20
-140.7686696870301
 30
0.0
 10
93.58601539019962
 20
-140.2167488538346
 30
0.0
  0
SPLINE
  5
83
330
1F
100
AcDbEntity
  8
_U+30EC_U+30A4_U+30E4_U+30FC 1
 62
   179
420
  2234388
370
    25
100
AcDbSpline
210
0.0
220
0.0
230
1.0
 70
     8
 71
     3
 72
     8
 73
     4
 74
     0
 42
0.0000000001
 43
0.0000000001
 12
1.0
 22
0.0
 32
0.0
 13
1.0
 23
0.0
 33
0.0
 40
0.0
 40
0.0
 40
0.0
 40
0.0
 40
1.0
 40
1.0
 40
1.0
 40
1.0
 10
80.58594294408131
 20
-127.2165349681959
 30
0.0
 10
80.03370462483676
 20
-127.2165349681959
 30
0.0
 10
79.58599435848102
 20
-127.6643863569729
 30
0.0
 10
79.58599435848102
 20
-128.2163071901681
 30
0.0
  0
SPLINE
  5
84
330
1F
100
AcDbEntity
  8
_U+30EC_U+30A4_U+30E4_U+30FC 1
 62
   179
420
  2234388
370
    25
100
AcDbSpline
210
0.0
220
0.0
230
1.0
 70
     8
 71
     3
 72
    11
 73
     7
 74
     0
 42
0.0000000001
 43
0.0000000001
 12
1.0
 22
0.0
 32
0.0
 13
1.0
 23
0.0
 33
0.0
 40
0.0
 40
0.0
 40
0.0
 40
0.0
 40
1.0
 40
1.0
 40
1.0
 40
2.0
 40
2.0
 40
2.0
 40
2.0
 10
81.75797652529135
 20
-139.6951669095208
 30
0.0
 10
81.63602125062492
 20
-139.8074913539372
 30
0.0
 10
81.62773097305865
 20
-139.9969682983341
 30
0.0
 10
81.7393498590999
 20
-140.1189235760814
 30
0.0
 10
81.79621763542686
 20
-140.1809419093995
 30
0.0
 10
81.87647457782377
 20
-140.2167488538346
 30
0.0
 10
81.9605415201235
 20
-140.2167488538346
 30
0.0
  0
SPLINE
  5
85
330
1F
100
AcDbEntity
  8
_U+30EC_U+30A4_U+30E4_U+30FC 1
 62
   179
420
  2234388
370
    25
100
AcDbSpline
210
0.0
220
0.0
230
1.0
 70
     8
 71
     3
 72
    11
 73
     7
 74
     0
 42
0.0000000001
 43
0.0000000001
 12
1.0
 22
0.0
 32
0.0
 13
1.0
 23
0.0
 33
0.0
 40
0.0
 40
0.0
 40
0.0
 40
0.0
 40
1.0
 40
1.0
 40
1.0
 40
2.0
 40
2.0
 40
2.0
 40
2.0
 10
80.58594294408131
 20
-138.7312369097615
 30
0.0
 10
80.58594294408131
 20
-138.8966191319426
 30
0.0
 10
80.72031599620873
 20
-139.0309569096864
 30
0.0
 10
80.8860157142036
 20
-139.0309569096864
 30
0.0
 10
80.96112210117636
 20
-139.0309569096864
 30
0.0
 10
81.03347682155267
 20
-139.0026994096938
 30
0.0
 10
81.0889334868045
 20
-138.9524285763731
 30
0.0
  0
SPLINE
  5
86
330
1F
100
AcDbEntity
  8
_U+30EC_U+30A4_U+30E4_U+30FC 1
 62
   179
420
  2234388
370
     9
100
AcDbSpline
210
0.0
220
0.0
230
1.0
 70
    11
 71
     3
 72
    17
 73
    13
 74
     0
 42
0.0000000001
 43
0.0000000001
 12
1.0
 22
0.0
 32
0.0
 13
1.0
 23
0.0
 33
0.0
 40
0.0
 40
0.0
 40
0.0
 40
0.0
 40
1.0
 40
1.0
 40
1.0
 40
2.0
 40
2.0
 40
2.0
 40
3.0
 40
3.0
 40
3.0
 40
4.0
 40
4.0
 40
4.0
 40
4.0
 10
79.68607741148324
 20
-123.2164230247516
 30
0.0
 10
79.68607741148324
 20
-123.1613191358763
 30
0.0
 10
79.64130991262536
 20
-123.1165163581099
 30
0.0
 10
79.58599435848102
 20
-123.1165163581099
 30
0.0
 10
79.53089047099795
 20
-123.1165163581099
 30
0.0
 10
79.48608769436318
 20
-123.1613191358763
 30
0.0
 10
79.48608769436318
 20
-123.2164230247516
 30
0.0
 10
79.48608769436318
 20
-123.2718796914043
 30
0.0
 10
79.53089047099795
 20
-123.316682469171
 30
0.0
 10
79.58599435848102
 20
-123.316682469171
 30
0.0
 10
79.64130991262536
 20
-123.316682469171
 30
0.0
 10
79.68607741148324
 20
-123.2718796914043
 30
0.0
 10
79.68607741148324
 20
-123.2164230247516
 30
0.0
  0
SPLINE
  5
87
330
1F
100
AcDbEntity
  8
_U+30EC_U+30A4_U+30E4_U+30FC 1
 62
   179
420
  2234388
370
     9
100
AcDbSpline
210
0.0
220
0.0
230
1.0
 70
    11
 71
     3
 72
    17
 73
    13
 74
     0
 42
0.0000000001
 43
0.0000000001
 12
1.0
 22
0.0
 32
0.0
 13
1.0
 23
0.0
 33
0.0
 40
0.0
 40
0.0
 40
0.0
 40
0.0
 40
1.0
 40
1.0
 40
1.0
 40
2.0
 40
2.0
 40
2.0
 40
3.0
 40
3.0
 40
3.0
 40
4.0
 40
4.0
 40
4.0
 40
4.0
 10
80.68584960819915
 20
-123.2164230247516
 30
0.0
 10
80.68584960819915
 20
-123.1613191358763
 30
0.0
 10
80.64108210934127
 20
-123.1165163581099
 30
0.0
 10
80.58594294408131
 20
-123.1165163581099
 30
0.0
 10
80.53083905659824
 20
-123.1165163581099
 30
0.0
 10
80.48603627996349
 20
-123.1613191358763
 30
0.0
 10
80.48603627996349
 20
-123.2164230247516
 30
0.0
 10
80.48603627996349
 20
-123.2718796914043
 30
0.0
 10
80.53083905659824
 20
-123.316682469171
 30
0.0
 10
80.58594294408131
 20
-123.316682469171
 30
0.0
 10
80.64108210934127
 20
-123.316682469171
 30
0.0
 10
80.68584960819915
 20
-123.2718796914043
 30
0.0
 10
80.68584960819915
 20
-123.2164230247516
 30
0.0
  0
SPLINE
  5
88
330
1F
100
AcDbEntity
  8
_U+30EC_U+30A4_U+30E4_U+30FC 1
 62
   179
420
  2234388
370
     9
100
AcDbSpline
210
0.0
220
0.0
230
1.0
 70
    11
 71
     3
 72
    17
 73
    13
 74
     0
 42
0.0000000001
 43
0.0000000001
 12
1.0
 22
0.0
 32
0.0
 13
1.0
 23
0.0
 33
0.0
 40
0.0
 40
0.0
 40
0.0
 40
0.0
 40
1.0
 40
1.0
 40
1.0
 40
2.0
 40
2.0
 40
2.0
 40
3.0
 40
3.0
 40
3.0
 40
4.0
 40
4.0
 40
4.0
 40
4.0
 10
85.18584754895019
 20
-111.7165377498487
 30
0.0
 10
85.18584754895019
 20
-111.6612221943071
 30
0.0
 10
85.14104477231542
 20
-111.6164546943182
 30
0.0
 10
85.08594088483235
 20
-111.6164546943182
 30
0.0
 10
85.03080171957241
 20
-111.6164546943182
 30
0.0
 10
84.98603422071453
 20
-111.6612221943071
 30
0.0
 10
84.98603422071453
 20
-111.7165377498487
 30
0.0
 10
84.98603422071453
 20
-111.7718180276125
 30
0.0
 10
85.03080171957241
 20
-111.8164444164904
 30
0.0
 10
85.08594088483235
 20
-111.8164444164904
 30
0.0
 10
85.14104477231542
 20
-111.8164444164904
 30
0.0
 10
85.18584754895019
 20
-111.7718180276125
 30
0.0
 10
85.18584754895019
 20
-111.7165377498487
 30
0.0
  0
SPLINE
  5
89
330
1F
100
AcDbEntity
  8
_U+30EC_U+30A4_U+30E4_U+30FC 1
 62
   179
420
  2234388
370
     9
100
AcDbSpline
210
0.0
220
0.0
230
1.0
 70
    11
 71
     3
 72
    17
 73
    13
 74
     0
 42
0.0000000001
 43
0.0000000001
 12
1.0
 22
0.0
 32
0.0
 13
1.0
 23
0.0
 33
0.0
 40
0.0
 40
0.0
 40
0.0
 40
0.0
 40
1.0
 40
1.0
 40
1.0
 40
2.0
 40
2.0
 40
2.0
 40
3.0
 40
3.0
 40
3.0
 40
4.0
 40
4.0
 40
4.0
 40
4.0
 10
105.1859860848149
 20
-111.7165377498487
 30
0.0
 10
105.1859860848149
 20
-111.6612221943071
 30
0.0
 10
105.1412159287352
 20
-111.6164546943182
 30
0.0
 10
105.0860767634753
 20
-111.6164546943182
 30
0.0
 10
105.0309728759922
 20
-111.6164546943182
 30
0.0
 10
104.9861700993574
 20
-111.6612221943071
 30
0.0
 10
104.9861700993574
 20
-111.7165377498487
 30
0.0
 10
104.9861700993574
 20
-111.7718180276125
 30
0.0
 10
105.0309728759922
 20
-111.8164444164904
 30
0.0
 10
105.0860767634753
 20
-111.8164444164904
 30
0.0
 10
105.1412159287352
 20
-111.8164444164904
 30
0.0
 10
105.1859860848149
 20
-111.7718180276125
 30
0.0
 10
105.1859860848149
 20
-111.7165377498487
 30
0.0
  0
SPLINE
  5
8A
330
1F
100
AcDbEntity
  8
_U+30EC_U+30A4_U+30E4_U+30FC 1
 62
   179
420
  2234388
370
     9
100
AcDbSpline
210
0.0
220
0.0
230
1.0
 70
    11
 71
     3
 72
    17
 73
    13
 74
     0
 42
0.0000000001
 43
0.0000000001
 12
1.0
 22
0.0
 32
0.0
 13
1.0
 23
0.0
 33
0.0
 40
0.0
 40
0.0
 40
0.0
 40
0.0
 40
1.0
 40
1.0
 40
1.0
 40
2.0
 40
2.0
 40
2.0
 40
3.0
 40
3.0
 40
3.0
 40
4.0
 40
4.0
 40
4.0
 40
4.0
 10
109.1860952699862
 20
-115.7164380266263
 30
0.0
 10
109.1860952699862
 20
-115.6613341377514
 30
0.0
 10
109.1413305282704
 20
-115.6165313599847
 30
0.0
 10
109.0861886058684
 20
-115.6165313599847
 30
0.0
 10
109.0307319406165
 20
-115.6165313599847
 30
0.0
 10
108.9859291639818
 20
-115.6613341377514
 30
0.0
 10
108.9859291639818
 20
-115.7164380266263
 30
0.0
 10
108.9859291639818
 20
-115.7717535821683
 30
0.0
 10
109.0307319406165
 20
-115.8165210821572
 30
0.0
 10
109.0861886058684
 20
-115.8165210821572
 30
0.0
 10
109.1413305282704
 20
-115.8165210821572
 30
0.0
 10
109.1860952699862
 20
-115.7717535821683
 30
0.0
 10
109.1860952699862
 20
-115.7164380266263
 30
0.0
  0
SPLINE
  5
8B
330
1F
100
AcDbEntity
  8
_U+30EC_U+30A4_U+30E4_U+30FC 1
 62
   179
420
  2234388
370
     9
100
AcDbSpline
210
0.0
220
0.0
230
1.0
 70
    11
 71
     3
 72
    17
 73
    13
 74
     0
 42
0.0000000001
 43
0.0000000001
 12
1.0
 22
0.0
 32
0.0
 13
1.0
 23
0.0
 33
0.0
 40
0.0
 40
0.0
 40
0.0
 40
0.0
 40
1.0
 40
1.0
 40
1.0
 40
2.0
 40
2.0
 40
2.0
 40
3.0
 40
3.0
 40
3.0
 40
4.0
 40
4.0
 40
4.0
 40
4.0
 10
109.1860952699862
 20
-135.7167860771822
 30
0.0
 10
109.1860952699862
 20
-135.6609766327518
 30
0.0
 10
109.1413305282704
 20
-135.616173854985
 30
0.0
 10
109.0861886058684
 20
-135.616173854985
 30
0.0
 10
109.0307319406165
 20
-135.616173854985
 30
0.0
 10
108.9859291639818
 20
-135.6609766327518
 30
0.0
 10
108.9859291639818
 20
-135.7167860771822
 30
0.0
 10
108.9859291639818
 20
-135.7718899660571
 30
0.0
 10
109.0307319406165
 20
-135.8166927438238
 30
0.0
 10
109.0861886058684
 20
-135.8166927438238
 30
0.0
 10
109.1413305282704
 20
-135.8166927438238
 30
0.0
 10
109.1860952699862
 20
-135.7718899660571
 30
0.0
 10
109.1860952699862
 20
-135.7167860771822
 30
0.0
  0
SPLINE
  5
8C
330
1F
100
AcDbEntity
  8
_U+30EC_U+30A4_U+30E4_U+30FC 1
 62
   179
420
  2234388
370
     9
100
AcDbSpline
210
0.0
220
0.0
230
1.0
 70
    11
 71
     3
 72
    17
 73
    13
 74
     0
 42
0.0000000001
 43
0.0000000001
 12
1.0
 22
0.0
 32
0.0
 13
1.0
 23
0.0
 33
0.0
 40
0.0
 40
0.0
 40
0.0
 40
0.0
 40
1.0
 40
1.0
 40
1.0
 40
2.0
 40
2.0
 40
2.0
 40
3.0
 40
3.0
 40
3.0
 40
4.0
 40
4.0
 40
4.0
 40
4.0
 10
79.68607741148324
 20
-147.2164949631959
 30
0.0
 10
79.68607741148324
 20
-147.1613910743209
 30
0.0
 10
79.64130991262536
 20
-147.1165882965542
 30
0.0
 10
79.58599435848102
 20
-147.1165882965542
 30
0.0
 10
79.53089047099795
 20
-147.1165882965542
 30
0.0
 10
79.48608769436318
 20
-147.1613910743209
 30
0.0
 10
79.48608769436318
 20
-147.2164949631959
 30
0.0
 10
79.48608769436318
 20
-147.2716341298489
 30
0.0
 10
79.53089047099795
 20
-147.3164016298375
 30
0.0
 10
79.58599435848102
 20
-147.3164016298375
 30
0.0
 10
79.64130991262536
 20
-147.3164016298375
 30
0.0
 10
79.68607741148324
 20
-147.2716341298489
 30
0.0
 10
79.68607741148324
 20
-147.2164949631959
 30
0.0
  0
SPLINE
  5
8D
330
1F
100
AcDbEntity
  8
_U+30EC_U+30A4_U+30E4_U+30FC 1
 62
   179
420
  2234388
370
    25
100
AcDbSpline
210
0.0
220
0.0
230
1.0
 70
     8
 71
     3
 72
     8
 73
     4
 74
     0
 42
0.0000000001
 43
0.0000000001
 12
1.0
 22
0.0
 32
0.0
 13
1.0
 23
0.0
 33
0.0
 40
0.0
 40
0.0
 40
0.0
 40
0.0
 40
1.0
 40
1.0
 40
1.0
 40
1.0
 10
85.08594088483235
 20
-115.7164380266263
 30
0.0
 10
84.53366942331088
 20
-115.7164380266263
 30
0.0
 10
84.08616868811644
 20
-116.1643246931812
 30
0.0
 10
84.08616868811644
 20
-116.7165630263763
 30
0.0
  0
SPLINE
  5
8E
330
1F
100
AcDbEntity
  8
_U+30EC_U+30A4_U+30E4_U+30FC 1
 62
   179
420
  2234388
370
    25
100
AcDbSpline
210
0.0
220
0.0
230
1.0
 70
     8
 71
     3
 72
     8
 73
     4
 74
     0
 42
0.0000000001
 43
0.0000000001
 12
1.0
 22
0.0
 32
0.0
 13
1.0
 23
0.0
 33
0.0
 40
0.0
 40
0.0
 40
0.0
 40
0.0
 40
1.0
 40
1.0
 40
1.0
 40
1.0
 10
104.0859870667675
 20
-136.7165582991541
 30
0.0
 10
104.638225386012
 20
-136.7165582991541
 30
0.0
 10
105.0860767634753
 20
-136.2686716325995
 30
0.0
 10
105.0860767634753
 20
-135.7167860771822
 30
0.0
  0
SPLINE
  5
8F
330
1F
100
AcDbEntity
  8
_U+30EC_U+30A4_U+30E4_U+30FC 1
 62
   179
420
  2234388
370
     9
100
AcDbSpline
210
0.0
220
0.0
230
1.0
 70
    11
 71
     3
 72
    17
 73
    13
 74
     0
 42
0.0000000001
 43
0.0000000001
 12
1.0
 22
0.0
 32
0.0
 13
1.0
 23
0.0
 33
0.0
 40
0.0
 40
0.0
 40
0.0
 40
0.0
 40
1.0
 40
1.0
 40
1.0
 40
2.0
 40
2.0
 40
2.0
 40
3.0
 40
3.0
 40
3.0
 40
4.0
 40
4.0
 40
4.0
 40
4.0
 10
109.1860952699862
 20
-136.7165582991541
 30
0.0
 10
109.1860952699862
 20
-136.661419132501
 30
0.0
 10
109.1413305282704
 20
-136.6166516325125
 30
0.0
 10
109.0861886058684
 20
-136.6166516325125
 30
0.0
 10
109.0307319406165
 20
-136.6166516325125
 30
0.0
 10
108.9859291639818
 20
-136.661419132501
 30
0.0
 10
108.9859291639818
 20
-136.7165582991541
 30
0.0
 10
108.9859291639818
 20
-136.771662188029
 30
0.0
 10
109.0307319406165
 20
-136.8164649657957
 30
0.0
 10
109.0861886058684
 20
-136.8164649657957
 30
0.0
 10
109.1413305282704
 20
-136.8164649657957
 30
0.0
 10
109.1860952699862
 20
-136.771662188029
 30
0.0
 10
109.1860952699862
 20
-136.7165582991541
 30
0.0
  0
SPLINE
  5
90
330
1F
100
AcDbEntity
  8
_U+30EC_U+30A4_U+30E4_U+30FC 1
 62
   179
420
  2234388
370
     9
100
AcDbSpline
210
0.0
220
0.0
230
1.0
 70
    11
 71
     3
 72
    17
 73
    13
 74
     0
 42
0.0000000001
 43
0.0000000001
 12
1.0
 22
0.0
 32
0.0
 13
1.0
 23
0.0
 33
0.0
 40
0.0
 40
0.0
 40
0.0
 40
0.0
 40
1.0
 40
1.0
 40
1.0
 40
2.0
 40
2.0
 40
2.0
 40
3.0
 40
3.0
 40
3.0
 40
4.0
 40
4.0
 40
4.0
 40
4.0
 10
109.1860952699862
 20
-140.2167488538346
 30
0.0
 10
109.1860952699862
 20
-140.1609394094042
 30
0.0
 10
109.1413305282704
 20
-140.1161719094156
 30
0.0
 10
109.0861886058684
 20
-140.1161719094156
 30
0.0
 10
109.0307319406165
 20
-140.1161719094156
 30
0.0
 10
108.9859291639818
 20
-140.1609394094042
 30
0.0
 10
108.9859291639818
 20
-140.2167488538346
 30
0.0
 10
108.9859291639818
 20
-140.2718880204877
 30
0.0
 10
109.0307319406165
 20
-140.3166555204762
 30
0.0
 10
109.0861886058684
 20
-140.3166555204762
 30
0.0
 10
109.1413305282704
 20
-140.3166555204762
 30
0.0
 10
109.1860952699862
 20
-140.2718880204877
 30
0.0
 10
109.1860952699862
 20
-140.2167488538346
 30
0.0
  0
SPLINE
  5
91
330
1F
100
AcDbEntity
  8
_U+30EC_U+30A4_U+30E4_U+30FC 1
 62
   179
420
  2234388
370
     9
100
AcDbSpline
210
0.0
220
0.0
230
1.0
 70
    11
 71
     3
 72
    17
 73
    13
 74
     0
 42
0.0000000001
 43
0.0000000001
 12
1.0
 22
0.0
 32
0.0
 13
1.0
 23
0.0
 33
0.0
 40
0.0
 40
0.0
 40
0.0
 40
0.0
 40
1.0
 40
1.0
 40
1.0
 40
2.0
 40
2.0
 40
2.0
 40
3.0
 40
3.0
 40
3.0
 40
4.0
 40
4.0
 40
4.0
 40
4.0
 10
93.68592205431744
 20
-147.2164949631959
 30
0.0
 10
93.68592205431744
 20
-147.1613910743209
 30
0.0
 10
93.64115455545956
 20
-147.1165882965542
 30
0.0
 10
93.58601539019962
 20
-147.1165882965542
 30
0.0
 10
93.5309138655063
 20
-147.1165882965542
 30
0.0
 10
93.48611108773959
 20
-147.1613910743209
 30
0.0
 10
93.48611108773959
 20
-147.2164949631959
 30
0.0
 10
93.48611108773959
 20
-147.2716341298489
 30
0.0
 10
93.5309138655063
 20
-147.3164016298375
 30
0.0
 10
93.58601539019962
 20
-147.3164016298375
 30
0.0
 10
93.64115455545956
 20
-147.3164016298375
 30
0.0
 10
93.68592205431744
 20
-147.2716341298489
 30
0.0
 10
93.68592205431744
 20
-147.2164949631959
 30
0.0
  0
SPLINE
  5
92
330
1F
100
AcDbEntity
  8
_U+30EC_U+30A4_U+30E4_U+30FC 1
 62
   179
420
  2234388
370
     9
100
AcDbSpline
210
0.0
220
0.0
230
1.0
 70
    11
 71
     3
 72
    17
 73
    13
 74
     0
 42
0.0000000001
 43
0.0000000001
 12
1.0
 22
0.0
 32
0.0
 13
1.0
 23
0.0
 33
0.0
 40
0.0
 40
0.0
 40
0.0
 40
0.0
 40
1.0
 40
1.0
 40
1.0
 40
2.0
 40
2.0
 40
2.0
 40
3.0
 40
3.0
 40
3.0
 40
4.0
 40
4.0
 40
4.0
 40
4.0
 10
105.1859860848149
 20
-147.2164949631959
 30
0.0
 10
105.1859860848149
 20
-147.1613910743209
 30
0.0
 10
105.1412159287352
 20
-147.1165882965542
 30
0.0
 10
105.0860767634753
 20
-147.1165882965542
 30
0.0
 10
105.0309728759922
 20
-147.1165882965542
 30
0.0
 10
104.9861700993574
 20
-147.1613910743209
 30
0.0
 10
104.9861700993574
 20
-147.2164949631959
 30
0.0
 10
104.9861700993574
 20
-147.2716341298489
 30
0.0
 10
105.0309728759922
 20
-147.3164016298375
 30
0.0
 10
105.0860767634753
 20
-147.3164016298375
 30
0.0
 10
105.1412159287352
 20
-147.3164016298375
 30
0.0
 10
105.1859860848149
 20
-147.2716341298489
 30
0.0
 10
105.1859860848149
 20
-147.2164949631959
 30
0.0
  0
SPLINE
  5
93
330
1F
100
AcDbEntity
  8
_U+30EC_U+30A4_U+30E4_U+30FC 1
 62
   179
420
  2234388
370
     9
100
AcDbSpline
210
0.0
220
0.0
230
1.0
 70
    11
 71
     3
 72
    17
 73
    13
 74
     0
 42
0.0000000001
 43
0.0000000001
 12
1.0
 22
0.0
 32
0.0
 13
1.0
 23
0.0
 33
0.0
 40
0.0
 40
0.0
 40
0.0
 40
0.0
 40
1.0
 40
1.0
 40
1.0
 40
2.0
 40
2.0
 40
2.0
 40
3.0
 40
3.0
 40
3.0
 40
4.0
 40
4.0
 40
4.0
 40
4.0
 10
80.68584960819915
 20
-119.2163110813069
 30
0.0
 10
80.68584960819915
 20
-119.161207192432
 30
0.0
 10
80.64108210934127
 20
-119.1164044146653
 30
0.0
 10
80.58594294408131
 20
-119.1164044146653
 30
0.0
 10
80.53083905659824
 20
-119.1164044146653
 30
0.0
 10
80.48603627996349
 20
-119.161207192432
 30
0.0
 10
80.48603627996349
 20
-119.2163110813069
 30
0.0
 10
80.48603627996349
 20
-119.2718030257378
 30
0.0
 10
80.53083905659824
 20
-119.3165705257263
 30
0.0
 10
80.58594294408131
 20
-119.3165705257263
 30
0.0
 10
80.64108210934127
 20
-119.3165705257263
 30
0.0
 10
80.68584960819915
 20
-119.2718030257378
 30
0.0
 10
80.68584960819915
 20
-119.2163110813069
 30
0.0
  0
SPLINE
  5
94
330
1F
100
AcDbEntity
  8
_U+30EC_U+30A4_U+30E4_U+30FC 1
 62
   179
420
  2234388
370
     9
100
AcDbSpline
210
0.0
220
0.0
230
1.0
 70
    11
 71
     3
 72
    17
 73
    13
 74
     0
 42
0.0000000001
 43
0.0000000001
 12
1.0
 22
0.0
 32
0.0
 13
1.0
 23
0.0
 33
0.0
 40
0.0
 40
0.0
 40
0.0
 40
0.0
 40
1.0
 40
1.0
 40
1.0
 40
2.0
 40
2.0
 40
2.0
 40
3.0
 40
3.0
 40
3.0
 40
4.0
 40
4.0
 40
4.0
 40
4.0
 10
84.18607535223428
 20
-119.2163110813069
 30
0.0
 10
84.18607535223428
 20
-119.161207192432
 30
0.0
 10
84.14127257559952
 20
-119.1164044146653
 30
0.0
 10
84.08616868811644
 20
-119.1164044146653
 30
0.0
 10
84.0310295228565
 20
-119.1164044146653
 30
0.0
 10
83.98626202399862
 20
-119.161207192432
 30
0.0
 10
83.98626202399862
 20
-119.2163110813069
 30
0.0
 10
83.98626202399862
 20
-119.2718030257378
 30
0.0
 10
84.0310295228565
 20
-119.3165705257263
 30
0.0
 10
84.08616868811644
 20
-119.3165705257263
 30
0.0
 10
84.14127257559952
 20
-119.3165705257263
 30
0.0
 10
84.18607535223428
 20
-119.2718030257378
 30
0.0
 10
84.18607535223428
 20
-119.2163110813069
 30
0.0
  0
POLYLINE
  5
95
330
1F
100
AcDbEntity
  8
_U+30EC_U+30A4_U+30E4_U+30FC 1
 62
   179
420
  2234388
370
     9
100
AcDb2dPolyline
 66
     1
 10
0.0
 20
0.0
 30
0.0
  0
VERTEX
  5
96
330
95
100
AcDbEntity
  8
_U+30EC_U+30A4_U+30E4_U+30FC 1
 62
   179
420
  2234388
370
     9
100
AcDbVertex
100
AcDb2dVertex
 10
79.58599435848102
 20
-123.2164230247516
 30
0.0
  0
VERTEX
  5
97
330
95
100
AcDbEntity
  8
_U+30EC_U+30A4_U+30E4_U+30FC 1
 62
   179
420
  2234388
370
     9
100
AcDbVertex
100
AcDb2dVertex
 10
75.8156819546697
 20
-123.2164230247516
 30
0.0
  0
SEQEND
  5
98
330
95
100
AcDbEntity
  8
_U+30EC_U+30A4_U+30E4_U+30FC 1
 62
   179
420
  2234388
370
     9
  0
POLYLINE
  5
99
330
1F
100
AcDbEntity
  8
_U+30EC_U+30A4_U+30E4_U+30FC 1
 62
   179
420
  2234388
370
     9
100
AcDb2dPolyline
 66
     1
 10
0.0
 20
0.0
 30
0.0
  0
VERTEX
  5
9A
330
99
100
AcDbEntity
  8
_U+30EC_U+30A4_U+30E4_U+30FC 1
 62
   179
420
  2234388
370
     9
100
AcDbVertex
100
AcDb2dVertex
 10
81.586067918566
 20
-123.2164230247516
 30
0.0
  0
VERTEX
  5
9B
330
99
100
AcDbEntity
  8
_U+30EC_U+30A4_U+30E4_U+30FC 1
 62
   179
420
  2234388
370
     9
100
AcDbVertex
100
AcDb2dVertex
 10
79.58599435848102
 20
-123.2164230247516
 30
0.0
  0
SEQEND
  5
9C
330
99
100
AcDbEntity
  8
_U+30EC_U+30A4_U+30E4_U+30FC 1
 62
   179
420
  2234388
370
     9
  0
POLYLINE
  5
9D
330
1F
100
AcDbEntity
  8
_U+30EC_U+30A4_U+30E4_U+30FC 1
 62
   179
420
  2234388
370
     9
100
AcDb2dPolyline
 66
     1
 10
0.0
 20
0.0
 30
0.0
  0
VERTEX
  5
9E
330
9D
100
AcDbEntity
  8
_U+30EC_U+30A4_U+30E4_U+30FC 1
 62
   179
420
  2234388
370
     9
100
AcDbVertex
100
AcDb2dVertex
 10
80.58594294408131
 20
-124.6764644132753
 30
0.0
  0
VERTEX
  5
9F
330
9D
100
AcDbEntity
  8
_U+30EC_U+30A4_U+30E4_U+30FC 1
 62
   179
420
  2234388
370
     9
100
AcDbVertex
100
AcDb2dVertex
 10
80.58594294408131
 20
-122.2162980250016
 30
0.0
  0
SEQEND
  5
A0
330
9D
100
AcDbEntity
  8
_U+30EC_U+30A4_U+30E4_U+30FC 1
 62
   179
420
  2234388
370
     9
  0
POLYLINE
  5
A1
330
1F
100
AcDbEntity
  8
_U+30EC_U+30A4_U+30E4_U+30FC 1
 62
   179
420
  2234388
370
     9
100
AcDb2dPolyline
 66
     1
 10
0.0
 20
0.0
 30
0.0
  0
VERTEX
  5
A2
330
A1
100
AcDbEntity
  8
_U+30EC_U+30A4_U+30E4_U+30FC 1
 62
   179
420
  2234388
370
     9
100
AcDbVertex
100
AcDb2dVertex
 10
79.58599435848102
 20
-125.6765541352474
 30
0.0
  0
VERTEX
  5
A3
330
A1
100
AcDbEntity
  8
_U+30EC_U+30A4_U+30E4_U+30FC 1
 62
   179
420
  2234388
370
     9
100
AcDbVertex
100
AcDb2dVertex
 10
79.58599435848102
 20
-122.2162980250016
 30
0.0
  0
SEQEND
  5
A4
330
A1
100
AcDbEntity
  8
_U+30EC_U+30A4_U+30E4_U+30FC 1
 62
   179
420
  2234388
370
     9
  0
INSERT
  5
A6
330
1F
100
AcDbEntity
  8
_U+30EC_U+30A4_U+30E4_U+30FC 1
100
AcDbBlockReference
  2
block 2
 10
0.0
 20
0.0
 30
0.0
  0
POLYLINE
  5
AB
330
1F
100
AcDbEntity
  8
_U+30EC_U+30A4_U+30E4_U+30FC 1
 62
   179
420
  2234388
370
     9
100
AcDb2dPolyline
 66
     1
 10
0.0
 20
0.0
 30
0.0
  0
VERTEX
  5
AC
330
AB
100
AcDbEntity
  8
_U+30EC_U+30A4_U+30E4_U+30FC 1
 62
   179
420
  2234388
370
     9
100
AcDbVertex
100
AcDb2dVertex
 10
85.08594088483235
 20
-111.7165377498487
 30
0.0
  0
VERTEX
  5
AD
330
AB
100
AcDbEntity
  8
_U+30EC_U+30A4_U+30E4_U+30FC 1
 62
   179
420
  2234388
370
     9
100
AcDbVertex
100
AcDb2dVertex
 10
105.0860767634753
 20
-111.7165377498487
 30
0.0
  0
SEQEND
  5
AE
330
AB
100
AcDbEntity
  8
_U+30EC_U+30A4_U+30E4_U+30FC 1
 62
   179
420
  2234388
370
     9
  0
POLYLINE
  5
AF
330
1F
100
AcDbEntity
  8
_U+30EC_U+30A4_U+30E4_U+30FC 1
 62
   179
420
  2234388
370
     9
100
AcDb2dPolyline
 66
     1
 10
0.0
 20
0.0
 30
0.0
  0
VERTEX
  5
B0
330
AF
100
AcDbEntity
  8
_U+30EC_U+30A4_U+30E4_U+30FC 1
 62
   179
420
  2234388
370
     9
100
AcDbVertex
100
AcDb2dVertex
 10
85.08594088483235
 20
-113.1765438605949
 30
0.0
  0
VERTEX
  5
B1
330
AF
100
AcDbEntity
  8
_U+30EC_U+30A4_U+30E4_U+30FC 1
 62
   179
420
  2234388
370
     9
100
AcDbVertex
100
AcDb2dVertex
 10
85.08594088483235
 20
-110.7165891389876
 30
0.0
  0
SEQEND
  5
B2
330
AF
100
AcDbEntity
  8
_U+30EC_U+30A4_U+30E4_U+30FC 1
 62
   179
420
  2234388
370
     9
  0
POLYLINE
  5
B3
330
1F
100
AcDbEntity
  8
_U+30EC_U+30A4_U+30E4_U+30FC 1
 62
   179
420
  2234388
370
     9
100
AcDb2dPolyline
 66
     1
 10
0.0
 20
0.0
 30
0.0
  0
VERTEX
  5
B4
330
B3
100
AcDbEntity
  8
_U+30EC_U+30A4_U+30E4_U+30FC 1
 62
   179
420
  2234388
370
     9
100
AcDbVertex
100
AcDb2dVertex
 10
105.0860767634753
 20
-133.1763627444835
 30
0.0
  0
VERTEX
  5
B5
330
B3
100
AcDbEntity
  8
_U+30EC_U+30A4_U+30E4_U+30FC 1
 62
   179
420
  2234388
370
     9
100
AcDbVertex
100
AcDb2dVertex
 10
105.0860767634753
 20
-110.7165891389876
 30
0.0
  0
SEQEND
  5
B6
330
B3
100
AcDbEntity
  8
_U+30EC_U+30A4_U+30E4_U+30FC 1
 62
   179
420
  2234388
370
     9
  0
INSERT
  5
B8
330
1F
100
AcDbEntity
  8
_U+30EC_U+30A4_U+30E4_U+30FC 1
100
AcDbBlockReference
  2
block 3
 10
0.0
 20
0.0
 30
0.0
  0
POLYLINE
  5
C0
330
1F
100
AcDbEntity
  8
_U+30EC_U+30A4_U+30E4_U+30FC 1
 62
   179
420
  2234388
370
     9
100
AcDb2dPolyline
 66
     1
 10
0.0
 20
0.0
 30
0.0
  0
VERTEX
  5
C1
330
C0
100
AcDbEntity
  8
_U+30EC_U+30A4_U+30E4_U+30FC 1
 62
   179
420
  2234388
370
     9
100
AcDbVertex
100
AcDb2dVertex
 10
109.0861886058684
 20
-135.7167860771822
 30
0.0
  0
VERTEX
  5
C2
330
C0
100
AcDbEntity
  8
_U+30EC_U+30A4_U+30E4_U+30FC 1
 62
   179
420
  2234388
370
     9
100
AcDbVertex
100
AcDb2dVertex
 10
109.0861886058684
 20
-115.7164380266263
 30
0.0
  0
SEQEND
  5
C3
330
C0
100
AcDbEntity
  8
_U+30EC_U+30A4_U+30E4_U+30FC 1
 62
   179
420
  2234388
370
     9
  0
POLYLINE
  5
C4
330
1F
100
AcDbEntity
  8
_U+30EC_U+30A4_U+30E4_U+30FC 1
 62
   179
420
  2234388
370
     9
100
AcDb2dPolyline
 66
     1
 10
0.0
 20
0.0
 30
0.0
  0
VERTEX
  5
C5
330
C4
100
AcDbEntity
  8
_U+30EC_U+30A4_U+30E4_U+30FC 1
 62
   179
420
  2234388
370
     9
100
AcDbVertex
100
AcDb2dVertex
 10
107.6261499730936
 20
-135.7167860771822
 30
0.0
  0
VERTEX
  5
C6
330
C4
100
AcDbEntity
  8
_U+30EC_U+30A4_U+30E4_U+30FC 1
 62
   179
420
  2234388
370
     9
100
AcDbVertex
100
AcDb2dVertex
 10
110.0859608025843
 20
-135.7167860771822
 30
0.0
  0
SEQEND
  5
C7
330
C4
100
AcDbEntity
  8
_U+30EC_U+30A4_U+30E4_U+30FC 1
 62
   179
420
  2234388
370
     9
  0
POLYLINE
  5
C8
330
1F
100
AcDbEntity
  8
_U+30EC_U+30A4_U+30E4_U+30FC 1
 62
   179
420
  2234388
370
     9
100
AcDb2dPolyline
 66
     1
 10
0.0
 20
0.0
 30
0.0
  0
VERTEX
  5
C9
330
C8
100
AcDbEntity
  8
_U+30EC_U+30A4_U+30E4_U+30FC 1
 62
   179
420
  2234388
370
     9
100
AcDbVertex
100
AcDb2dVertex
 10
87.62601137558532
 20
-115.7164380266263
 30
0.0
  0
VERTEX
  5
CA
330
C8
100
AcDbEntity
  8
_U+30EC_U+30A4_U+30E4_U+30FC 1
 62
   179
420
  2234388
370
     9
100
AcDbVertex
100
AcDb2dVertex
 10
110.0859608025843
 20
-115.7164380266263
 30
0.0
  0
SEQEND
  5
CB
330
C8
100
AcDbEntity
  8
_U+30EC_U+30A4_U+30E4_U+30FC 1
 62
   179
420
  2234388
370
     9
  0
INSERT
  5
CD
330
1F
100
AcDbEntity
  8
_U+30EC_U+30A4_U+30E4_U+30FC 1
100
AcDbBlockReference
  2
block 4
 10
0.0
 20
0.0
 30
0.0
  0
POLYLINE
  5
D5
330
1F
100
AcDbEntity
  8
_U+30EC_U+30A4_U+30E4_U+30FC 1
 62
   179
420
  2234388
370
     9
100
AcDb2dPolyline
 66
     1
 10
0.0
 20
0.0
 30
0.0
  0
VERTEX
  5
D6
330
D5
100
AcDbEntity
  8
_U+30EC_U+30A4_U+30E4_U+30FC 1
 62
   179
420
  2234388
370
     9
100
AcDbVertex
100
AcDb2dVertex
 10
79.9525657380179
 20
-140.0197224649953
 30
0.0
  0
VERTEX
  5
D7
330
D5
100
AcDbEntity
  8
_U+30EC_U+30A4_U+30E4_U+30FC 1
 62
   179
420
  2234388
370
     9
100
AcDbVertex
100
AcDb2dVertex
 10
76.6335638697306
 20
-142.0467835755993
 30
0.0
  0
SEQEND
  5
D8
330
D5
100
AcDbEntity
  8
_U+30EC_U+30A4_U+30E4_U+30FC 1
 62
   179
420
  2234388
370
     9
  0
POLYLINE
  5
D9
330
1F
100
AcDbEntity
  8
_U+30EC_U+30A4_U+30E4_U+30FC 1
 62
   179
420
  2234388
370
     9
100
AcDb2dPolyline
 66
     1
 10
0.0
 20
0.0
 30
0.0
  0
VERTEX
  5
DA
330
D9
100
AcDbEntity
  8
_U+30EC_U+30A4_U+30E4_U+30FC 1
 62
   179
420
  2234388
370
     9
100
AcDbVertex
100
AcDb2dVertex
 10
76.6335638697306
 20
-142.0467835755993
 30
0.0
  0
VERTEX
  5
DB
330
D9
100
AcDbEntity
  8
_U+30EC_U+30A4_U+30E4_U+30FC 1
 62
   179
420
  2234388
370
     9
100
AcDbVertex
100
AcDb2dVertex
 10
72.02624899579064
 20
-142.0467835755993
 30
0.0
  0
SEQEND
  5
DC
330
D9
100
AcDbEntity
  8
_U+30EC_U+30A4_U+30E4_U+30FC 1
 62
   179
420
  2234388
370
     9
  0
INSERT
  5
DE
330
1F
100
AcDbEntity
  8
_U+30EC_U+30A4_U+30E4_U+30FC 1
100
AcDbBlockReference
  2
block 5
 10
0.0
 20
0.0
 30
0.0
  0
POLYLINE
  5
F0
330
1F
100
AcDbEntity
  8
_U+30EC_U+30A4_U+30E4_U+30FC 1
 62
   179
420
  2234388
370
     9
100
AcDb2dPolyline
 66
     1
 10
0.0
 20
0.0
 30
0.0
  0
VERTEX
  5
F1
330
F0
100
AcDbEntity
  8
_U+30EC_U+30A4_U+30E4_U+30FC 1
 62
   179
420
  2234388
370
     9
100
AcDbVertex
100
AcDb2dVertex
 10
109.0861886058684
 20
-140.2167488538346
 30
0.0
  0
VERTEX
  5
F2
330
F0
100
AcDbEntity
  8
_U+30EC_U+30A4_U+30E4_U+30FC 1
 62
   179
420
  2234388
370
     9
100
AcDbVertex
100
AcDb2dVertex
 10
109.0861886058684
 20
-145.4739844080762
 30
0.0
  0
SEQEND
  5
F3
330
F0
100
AcDbEntity
  8
_U+30EC_U+30A4_U+30E4_U+30FC 1
 62
   179
420
  2234388
370
     9
  0
POLYLINE
  5
F4
330
1F
100
AcDbEntity
  8
_U+30EC_U+30A4_U+30E4_U+30FC 1
 62
   179
420
  2234388
370
     9
100
AcDb2dPolyline
 66
     1
 10
0.0
 20
0.0
 30
0.0
  0
VERTEX
  5
F5
330
F4
100
AcDbEntity
  8
_U+30EC_U+30A4_U+30E4_U+30FC 1
 62
   179
420
  2234388
370
     9
100
AcDbVertex
100
AcDb2dVertex
 10
109.0861886058684
 20
-136.7165582991541
 30
0.0
  0
VERTEX
  5
F6
330
F4
100
AcDbEntity
  8
_U+30EC_U+30A4_U+30E4_U+30FC 1
 62
   179
420
  2234388
370
     9
100
AcDbVertex
100
AcDb2dVertex
 10
109.0861886058684
 20
-140.2167488538346
 30
0.0
  0
SEQEND
  5
F7
330
F4
100
AcDbEntity
  8
_U+30EC_U+30A4_U+30E4_U+30FC 1
 62
   179
420
  2234388
370
     9
  0
POLYLINE
  5
F8
330
1F
100
AcDbEntity
  8
_U+30EC_U+30A4_U+30E4_U+30FC 1
 62
   179
420
  2234388
370
     9
100
AcDb2dPolyline
 66
     1
 10
0.0
 20
0.0
 30
0.0
  0
VERTEX
  5
F9
330
F8
100
AcDbEntity
  8
_U+30EC_U+30A4_U+30E4_U+30FC 1
 62
   179
420
  2234388
370
     9
100
AcDbVertex
100
AcDb2dVertex
 10
106.6260575575204
 20
-136.7165582991541
 30
0.0
  0
VERTEX
  5
FA
330
F8
100
AcDbEntity
  8
_U+30EC_U+30A4_U+30E4_U+30FC 1
 62
   179
420
  2234388
370
     9
100
AcDbVertex
100
AcDb2dVertex
 10
110.0859608025843
 20
-136.7165582991541
 30
0.0
  0
SEQEND
  5
FB
330
F8
100
AcDbEntity
  8
_U+30EC_U+30A4_U+30E4_U+30FC 1
 62
   179
420
  2234388
370
     9
  0
POLYLINE
  5
FC
330
1F
100
AcDbEntity
  8
_U+30EC_U+30A4_U+30E4_U+30FC 1
 62
   179
420
  2234388
370
     9
100
AcDb2dPolyline
 66
     1
 10
0.0
 20
0.0
 30
0.0
  0
VERTEX
  5
FD
330
FC
100
AcDbEntity
  8
_U+30EC_U+30A4_U+30E4_U+30FC 1
 62
   179
420
  2234388
370
     9
100
AcDbVertex
100
AcDb2dVertex
 10
95.92592219824049
 20
-140.2167488538346
 30
0.0
  0
VERTEX
  5
FE
330
FC
100
AcDbEntity
  8
_U+30EC_U+30A4_U+30E4_U+30FC 1
 62
   179
420
  2234388
370
     9
100
AcDbVertex
100
AcDb2dVertex
 10
110.0859608025843
 20
-140.2167488538346
 30
0.0
  0
SEQEND
  5
FF
330
FC
100
AcDbEntity
  8
_U+30EC_U+30A4_U+30E4_U+30FC 1
 62
   179
420
  2234388
370
     9
  0
INSERT
  5
101
330
1F
100
AcDbEntity
  8
_U+30EC_U+30A4_U+30E4_U+30FC 1
100
AcDbBlockReference
  2
block 6
 10
0.0
 20
0.0
 30
0.0
  0
POLYLINE
  5
110
330
1F
100
AcDbEntity
  8
_U+30EC_U+30A4_U+30E4_U+30FC 1
 62
   179
420
  2234388
370
     9
100
AcDb2dPolyline
 66
     1
 10
0.0
 20
0.0
 30
0.0
  0
VERTEX
  5
111
330
110
100
AcDbEntity
  8
_U+30EC_U+30A4_U+30E4_U+30FC 1
 62
   179
420
  2234388
370
     9
100
AcDbVertex
100
AcDb2dVertex
 10
80.58594294408131
 20
-119.2163110813069
 30
0.0
  0
VERTEX
  5
112
330
110
100
AcDbEntity
  8
_U+30EC_U+30A4_U+30E4_U+30FC 1
 62
   179
420
  2234388
370
     9
100
AcDbVertex
100
AcDb2dVertex
 10
75.32821363377272
 20
-119.2163110813069
 30
0.0
  0
SEQEND
  5
113
330
110
100
AcDbEntity
  8
_U+30EC_U+30A4_U+30E4_U+30FC 1
 62
   179
420
  2234388
370
     9
  0
POLYLINE
  5
114
330
1F
100
AcDbEntity
  8
_U+30EC_U+30A4_U+30E4_U+30FC 1
 62
   179
420
  2234388
370
     9
100
AcDb2dPolyline
 66
     1
 10
0.0
 20
0.0
 30
0.0
  0
VERTEX
  5
115
330
114
100
AcDbEntity
  8
_U+30EC_U+30A4_U+30E4_U+30FC 1
 62
   179
420
  2234388
370
     9
100
AcDbVertex
100
AcDb2dVertex
 10
80.58594294408131
 20
-119.2163110813069
 30
0.0
  0
VERTEX
  5
116
330
114
100
AcDbEntity
  8
_U+30EC_U+30A4_U+30E4_U+30FC 1
 62
   179
420
  2234388
370
     9
100
AcDbVertex
100
AcDb2dVertex
 10
84.08616868811644
 20
-119.2163110813069
 30
0.0
  0
SEQEND
  5
117
330
114
100
AcDbEntity
  8
_U+30EC_U+30A4_U+30E4_U+30FC 1
 62
   179
420
  2234388
370
     9
  0
POLYLINE
  5
118
330
1F
100
AcDbEntity
  8
_U+30EC_U+30A4_U+30E4_U+30FC 1
 62
   179
420
  2234388
370
     9
100
AcDb2dPolyline
 66
     1
 10
0.0
 20
0.0
 30
0.0
  0
VERTEX
  5
119
330
118
100
AcDbEntity
  8
_U+30EC_U+30A4_U+30E4_U+30FC 1
 62
   179
420
  2234388
370
     9
100
AcDbVertex
100
AcDb2dVertex
 10
80.58594294408131
 20
-124.6764644132753
 30
0.0
  0
VERTEX
  5
11A
330
118
100
AcDbEntity
  8
_U+30EC_U+30A4_U+30E4_U+30FC 1
 62
   179
420
  2234388
370
     9
100
AcDbVertex
100
AcDb2dVertex
 10
80.58594294408131
 20
-118.2165741371125
 30
0.0
  0
SEQEND
  5
11B
330
118
100
AcDbEntity
  8
_U+30EC_U+30A4_U+30E4_U+30FC 1
 62
   179
420
  2234388
370
     9
  0
POLYLINE
  5
11C
330
1F
100
AcDbEntity
  8
_U+30EC_U+30A4_U+30E4_U+30FC 1
 62
   179
420
  2234388
370
    25
100
AcDb2dPolyline
 66
     1
 10
0.0
 20
0.0
 30
0.0
  0
VERTEX
  5
11D
330
11C
100
AcDbEntity
  8
_U+30EC_U+30A4_U+30E4_U+30FC 1
 62
   179
420
  2234388
370
    25
100
AcDbVertex
100
AcDb2dVertex
 10
84.08616868811644
 20
-121.7567344140053
 30
0.0
  0
VERTEX
  5
11E
330
11C
100
AcDbEntity
  8
_U+30EC_U+30A4_U+30E4_U+30FC 1
 62
   179
420
  2234388
370
    25
100
AcDbVertex
100
AcDb2dVertex
 10
84.08616868811644
 20
-119.2176869146401
 30
0.0
  0
SEQEND
  5
11F
330
11C
100
AcDbEntity
  8
_U+30EC_U+30A4_U+30E4_U+30FC 1
 62
   179
420
  2234388
370
    25
  0
INSERT
  5
121
330
1F
100
AcDbEntity
  8
_U+30EC_U+30A4_U+30E4_U+30FC 1
100
AcDbBlockReference
  2
block 7
 10
0.0
 20
0.0
 30
0.0
  0
POLYLINE
  5
130
330
1F
100
AcDbEntity
  8
_U+30EC_U+30A4_U+30E4_U+30FC 1
 62
   179
420
  2234388
370
     9
100
AcDb2dPolyline
 66
     1
 10
0.0
 20
0.0
 30
0.0
  0
VERTEX
  5
131
330
130
100
AcDbEntity
  8
_U+30EC_U+30A4_U+30E4_U+30FC 1
 62
   179
420
  2234388
370
     9
100
AcDbVertex
100
AcDb2dVertex
 10
93.58601539019962
 20
-147.2164949631959
 30
0.0
  0
VERTEX
  5
132
330
130
100
AcDbEntity
  8
_U+30EC_U+30A4_U+30E4_U+30FC 1
 62
   179
420
  2234388
370
     9
100
AcDbVertex
100
AcDb2dVertex
 10
105.0860767634753
 20
-147.2164949631959
 30
0.0
  0
SEQEND
  5
133
330
130
100
AcDbEntity
  8
_U+30EC_U+30A4_U+30E4_U+30FC 1
 62
   179
420
  2234388
370
     9
  0
POLYLINE
  5
134
330
1F
100
AcDbEntity
  8
_U+30EC_U+30A4_U+30E4_U+30FC 1
 62
   179
420
  2234388
370
     9
100
AcDb2dPolyline
 66
     1
 10
0.0
 20
0.0
 30
0.0
  0
VERTEX
  5
135
330
134
100
AcDbEntity
  8
_U+30EC_U+30A4_U+30E4_U+30FC 1
 62
   179
420
  2234388
370
     9
100
AcDbVertex
100
AcDb2dVertex
 10
93.58601539019962
 20
-142.7565019087553
 30
0.0
  0
VERTEX
  5
136
330
134
100
AcDbEntity
  8
_U+30EC_U+30A4_U+30E4_U+30FC 1
 62
   179
420
  2234388
370
     9
100
AcDbVertex
100
AcDb2dVertex
 10
93.58601539019962
 20
-148.2162671851684
 30
0.0
  0
SEQEND
  5
137
330
134
100
AcDbEntity
  8
_U+30EC_U+30A4_U+30E4_U+30FC 1
 62
   179
420
  2234388
370
     9
  0
POLYLINE
  5
138
330
1F
100
AcDbEntity
  8
_U+30EC_U+30A4_U+30E4_U+30FC 1
 62
   179
420
  2234388
370
     9
100
AcDb2dPolyline
 66
     1
 10
0.0
 20
0.0
 30
0.0
  0
VERTEX
  5
139
330
138
100
AcDbEntity
  8
_U+30EC_U+30A4_U+30E4_U+30FC 1
 62
   179
420
  2234388
370
     9
100
AcDbVertex
100
AcDb2dVertex
 10
105.0860767634753
 20
-138.2565038543247
 30
0.0
  0
VERTEX
  5
13A
330
138
100
AcDbEntity
  8
_U+30EC_U+30A4_U+30E4_U+30FC 1
 62
   179
420
  2234388
370
     9
100
AcDbVertex
100
AcDb2dVertex
 10
105.0860767634753
 20
-148.2162671851684
 30
0.0
  0
SEQEND
  5
13B
330
138
100
AcDbEntity
  8
_U+30EC_U+30A4_U+30E4_U+30FC 1
 62
   179
420
  2234388
370
     9
  0
INSERT
  5
13D
330
1F
100
AcDbEntity
  8
_U+30EC_U+30A4_U+30E4_U+30FC 1
100
AcDbBlockReference
  2
block 8
 10
0.0
 20
0.0
 30
0.0
  0
POLYLINE
  5
14E
330
1F
100
AcDbEntity
  8
_U+30EC_U+30A4_U+30E4_U+30FC 1
 62
   179
420
  2234388
370
     9
100
AcDb2dPolyline
 66
     1
 10
0.0
 20
0.0
 30
0.0
  0
VERTEX
  5
14F
330
14E
100
AcDbEntity
  8
_U+30EC_U+30A4_U+30E4_U+30FC 1
 62
   179
420
  2234388
370
     9
100
AcDbVertex
100
AcDb2dVertex
 10
93.58601539019962
 20
-147.2164949631959
 30
0.0
  0
VERTEX
  5
150
330
14E
100
AcDbEntity
  8
_U+30EC_U+30A4_U+30E4_U+30FC 1
 62
   179
420
  2234388
370
     9
100
AcDbVertex
100
AcDb2dVertex
 10
79.58599435848102
 20
-147.2164949631959
 30
0.0
  0
SEQEND
  5
151
330
14E
100
AcDbEntity
  8
_U+30EC_U+30A4_U+30E4_U+30FC 1
 62
   179
420
  2234388
370
     9
  0
POLYLINE
  5
152
330
1F
100
AcDbEntity
  8
_U+30EC_U+30A4_U+30E4_U+30FC 1
 62
   179
420
  2234388
370
     9
100
AcDb2dPolyline
 66
     1
 10
0.0
 20
0.0
 30
0.0
  0
VERTEX
  5
153
330
152
100
AcDbEntity
  8
_U+30EC_U+30A4_U+30E4_U+30FC 1
 62
   179
420
  2234388
370
     9
100
AcDbVertex
100
AcDb2dVertex
 10
79.58599435848102
 20
-141.2564907980191
 30
0.0
  0
VERTEX
  5
154
330
152
100
AcDbEntity
  8
_U+30EC_U+30A4_U+30E4_U+30FC 1
 62
   179
420
  2234388
370
     9
100
AcDbVertex
100
AcDb2dVertex
 10
79.58599435848102
 20
-148.2162671851684
 30
0.0
  0
SEQEND
  5
155
330
152
100
AcDbEntity
  8
_U+30EC_U+30A4_U+30E4_U+30FC 1
 62
   179
420
  2234388
370
     9
  0
INSERT
  5
157
330
1F
100
AcDbEntity
  8
_U+30EC_U+30A4_U+30E4_U+30FC 1
100
AcDbBlockReference
  2
block 9
 10
0.0
 20
0.0
 30
0.0
  0
ENDSEC
  0
SECTION
  2
OBJECTS
  0
DICTIONARY
  5
C
330
0
100
AcDbDictionary
281
     1
  3
ACAD_GROUP
350
D
  3
ACAD_LAYOUT
350
1A
  3
ACAD_MATERIAL
350
3B
  3
ACAD_MLEADERSTYLE
350
172
  3
ACAD_MLINESTYLE
350
17
  3
ACAD_PLOTSETTINGS
350
19
  3
ACAD_PLOTSTYLENAME
350
E
  3
ACAD_TABLESTYLE
350
171
  3
ACAD_VISUALSTYLE
350
2A
  0
SUN
  5
3F
330
29
100
AcDbSun
 90
        1
290
     0
 63
     7
421
 16777215
 40
1.0
291
     1
 91
  2455826
 92
 54000000
292
     0
 70
     2
 71
   256
280
     1
  0
DICTIONARY
  5
D
102
{ACAD_REACTORS
330
C
102
}
330
C
100
AcDbDictionary
281
     1
  0
DICTIONARY
  5
1A
102
{ACAD_REACTORS
330
C
102
}
330
C
100
AcDbDictionary
281
     1
  3
Layout1
350
1E
  3
Layout2
350
26
  3
Model
350
22
  0
DICTIONARY
  5
3B
102
{ACAD_REACTORS
330
C
102
}
330
C
100
AcDbDictionary
281
     1
  3
ByBlock
350
3D
  3
ByLayer
350
3C
  3
Global
350
3E
  0
DICTIONARY
  5
172
102
{ACAD_REACTORS
330
C
102
}
330
C
100
AcDbDictionary
281
     1
  0
DICTIONARY
  5
17
102
{ACAD_REACTORS
330
C
102
}
330
C
100
AcDbDictionary
281
     1
  3
Standard
350
18
  0
DICTIONARY
  5
19
102
{ACAD_REACTORS
330
C
102
}
330
C
100
AcDbDictionary
281
     1
  0
ACDBDICTIONARYWDFLT
  5
E
102
{ACAD_REACTORS
330
C
102
}
330
C
100
AcDbDictionary
281
     1
  3
Normal
350
F
100
AcDbDictionaryWithDefault
340
F
  0
DICTIONARY
  5
171
102
{ACAD_REACTORS
330
C
102
}
330
C
100
AcDbDictionary
281
     1
  0
DICTIONARY
  5
2A
102
{ACAD_REACTORS
330
C
102
}
330
C
100
AcDbDictionary
281
     1
  3
2dWireframe
350
2F
  3
3D Hidden
350
31
  3
3dWireframe
350
30
  3
Basic
350
32
  3
Brighten
350
36
  3
ColorChange
350
3A
  3
Conceptual
350
34
  3
Dim
350
35
  3
Facepattern
350
39
  3
Flat
350
2B
  3
FlatWithEdges
350
2C
  3
Gouraud
350
2D
  3
GouraudWithEdges
350
2E
  3
Linepattern
350
38
  3
Realistic
350
33
  3
Thicken
350
37
  0
LAYOUT
  5
1E
102
{ACAD_REACTORS
330
1A
102
}
330
1A
100
AcDbPlotSettings
  1

  2
none_device
  4

  6

 40
0.0
 41
0.0
 42
0.0
 43
0.0
 44
0.0
 45
0.0
 46
0.0
 47
0.0
 48
0.0
 49
0.0
140
0.0
141
0.0
142
1.0
143
1.0
 70
   688
 72
     0
 73
     0
 74
     5
  7

 75
    16
 76
     0
 77
     2
 78
   300
147
1.0
148
0.0
149
0.0
100
AcDbLayout
  1
Layout1
 70
     1
 71
     1
 10
0.0
 20
0.0
 11
12.0
 21
9.0
 12
0.0
 22
0.0
 32
0.0
 14
1.000000000000000E+20
 24
1.000000000000000E+20
 34
1.000000000000000E+20
 15
-1.000000000000000E+20
 25
-1.000000000000000E+20
 35
-1.000000000000000E+20
146
0.0
 13
0.0
 23
0.0
 33
0.0
 16
1.0
 26
0.0
 36
0.0
 17
0.0
 27
1.0
 37
0.0
 76
     0
330
1B
  0
LAYOUT
  5
26
102
{ACAD_REACTORS
330
1A
102
}
330
1A
100
AcDbPlotSettings
  1

  2
none_device
  4

  6

 40
0.0
 41
0.0
 42
0.0
 43
0.0
 44
0.0
 45
0.0
 46
0.0
 47
0.0
 48
0.0
 49
0.0
140
0.0
141
0.0
142
1.0
143
1.0
 70
   688
 72
     0
 73
     0
 74
     5
  7

 75
    16
 76
     0
 77
     2
 78
   300
147
1.0
148
0.0
149
0.0
100
AcDbLayout
  1
Layout2
 70
     1
 71
     2
 10
0.0
 20
0.0
 11
0.0
 21
0.0
 12
0.0
 22
0.0
 32
0.0
 14
0.0
 24
0.0
 34
0.0
 15
0.0
 25
0.0
 35
0.0
146
0.0
 13
0.0
 23
0.0
 33
0.0
 16
1.0
 26
0.0
 36
0.0
 17
0.0
 27
1.0
 37
0.0
 76
     0
330
23
  0
LAYOUT
  5
22
102
{ACAD_REACTORS
330
1A
102
}
330
1A
100
AcDbPlotSettings
  1

  2
none_device
  4

  6

 40
0.0
 41
0.0
 42
0.0
 43
0.0
 44
0.0
 45
0.0
 46
0.0
 47
0.0
 48
0.0
 49
0.0
140
0.0
141
0.0
142
1.0
143
1.0
 70
  1712
 72
     0
 73
     0
 74
     0
  7

 75
     0
 76
     0
 77
     2
 78
   300
147
1.0
148
0.0
149
0.0
100
AcDbLayout
  1
Model
 70
     1
 71
     0
 10
0.0
 20
0.0
 11
12.0
 21
9.0
 12
0.0
 22
0.0
 32
0.0
 14
1.000000000000000E+20
 24
1.000000000000000E+20
 34
1.000000000000000E+20
 15
-1.000000000000000E+20
 25
-1.000000000000000E+20
 35
-1.000000000000000E+20
146
0.0
 13
0.0
 23
0.0
 33
0.0
 16
1.0
 26
0.0
 36
0.0
 17
0.0
 27
1.0
 37
0.0
 76
     0
330
1F
331
29
  0
MATERIAL
  5
3D
102
{ACAD_REACTORS
330
3B
102
}
330
3B
100
AcDbMaterial
  1
ByBlock
 72
     1
 94
      127
  0
MATERIAL
  5
3C
102
{ACAD_REACTORS
330
3B
102
}
330
3B
100
AcDbMaterial
  1
ByLayer
 72
     1
 94
      127
  0
MATERIAL
  5
3E
102
{ACAD_REACTORS
330
3B
102
}
330
3B
100
AcDbMaterial
  1
Global
 72
     1
 94
      127
  0
MLINESTYLE
  5
18
102
{ACAD_REACTORS
330
17
102
}
330
17
100
AcDbMlineStyle
  2
Standard
 70
     0
  3

 62
   256
 51
90.0
 52
90.0
 71
     2
 49
0.5
 62
   256
  6
BYLAYER
 49
-0.5
 62
   256
  6
BYLAYER
  0
ACDBPLACEHOLDER
  5
F
102
{ACAD_REACTORS
330
E
102
}
330
E
  0
VISUALSTYLE
  5
2F
102
{ACAD_REACTORS
330
2A
102
}
330
2A
100
AcDbVisualStyle
  2
2dWireframe
 70
     4
177
     2
291
     0
 71
     0
176
     1
 72
     2
176
     1
 73
     0
176
     1
 90
        0
176
     1
 40
-0.6
176
     1
 41
-30.0
176
     1
 62
     5
 63
     7
421
 16777215
176
     1
 74
     1
176
     1
 91
        4
176
     1
 64
     7
176
     1
 65
   257
176
     1
 75
     1
176
     1
175
     1
176
     1
 42
1.0
176
     1
 92
        0
176
     1
 66
   257
176
     1
 43
1.0
176
     1
 76
     1
176
     1
 77
     6
176
     1
 78
     2
176
     1
 67
     7
176
     1
 79
     5
176
     1
170
     0
176
     1
171
     0
176
     1
290
     0
176
     1
 93
        1
176
     1
 44
0.0
176
     1
173
     0
176
     1
  0
VISUALSTYLE
  5
31
102
{ACAD_REACTORS
330
2A
102
}
330
2A
100
AcDbVisualStyle
  2
3D Hidden
 70
     6
177
     2
291
     0
 71
     1
176
     1
 72
     2
176
     1
 73
     2
176
     1
 90
        0
176
     1
 40
-0.6
176
     1
 41
-30.0
176
     1
 62
     5
 63
     7
421
 16777215
176
     1
 74
     2
176
     1
 91
        2
176
     1
 64
     7
176
     1
 65
   257
176
     1
 75
     2
176
     1
175
     1
176
     1
 42
40.0
176
     1
 92
        0
176
     1
 66
   257
176
     1
 43
1.0
176
     1
 76
     1
176
     1
 77
     6
176
     1
 78
     2
176
     1
 67
     7
176
     1
 79
     3
176
     1
170
     0
176
     1
171
     0
176
     1
290
     0
176
     1
 93
        1
176
     1
 44
0.0
176
     1
173
     0
176
     1
  0
VISUALSTYLE
  5
30
102
{ACAD_REACTORS
330
2A
102
}
330
2A
100
AcDbVisualStyle
  2
3dWireframe
 70
     5
177
     2
291
     0
 71
     0
176
     1
 72
     2
176
     1
 73
     0
176
     1
 90
        0
176
     1
 40
-0.6
176
     1
 41
-30.0
176
     1
 62
     5
 63
     7
421
 16777215
176
     1
 74
     1
176
     1
 91
        4
176
     1
 64
     7
176
     1
 65
   257
176
     1
 75
     1
176
     1
175
     1
176
     1
 42
1.0
176
     1
 92
        0
176
     1
 66
   257
176
     1
 43
1.0
176
     1
 76
     1
176
     1
 77
     6
176
     1
 78
     2
176
     1
 67
     7
176
     1
 79
     5
176
     1
170
     0
176
     1
171
     0
176
     1
290
     0
176
     1
 93
        1
176
     1
 44
0.0
176
     1
173
     0
176
     1
  0
VISUALSTYLE
  5
32
102
{ACAD_REACTORS
330
2A
102
}
330
2A
100
AcDbVisualStyle
  2
Basic
 70
     7
177
     2
291
     1
 71
     1
176
     1
 72
     0
176
     1
 73
     1
176
     1
 90
        0
176
     1
 40
-0.6
176
     1
 41
-30.0
176
     1
 62
     5
 63
     7
421
 16777215
176
     1
 74
     0
176
     1
 91
        4
176
     1
 64
     7
176
     1
 65
   257
176
     1
 75
     1
176
     1
175
     1
176
     1
 42
1.0
176
     1
 92
        8
176
     1
 66
     7
176
     1
 43
1.0
176
     1
 76
     1
176
     1
 77
     6
176
     1
 78
     2
176
     1
 67
     7
176
     1
 79
     5
176
     1
170
     0
176
     1
171
     0
176
     1
290
     0
176
     1
 93
        1
176
     1
 44
0.0
176
     1
173
     0
176
     1
  0
VISUALSTYLE
  5
36
102
{ACAD_REACTORS
330
2A
102
}
330
2A
100
AcDbVisualStyle
  2
Brighten
 70
    12
177
     2
291
     1
 71
     2
176
     1
 72
     2
176
     1
 73
     0
176
     1
 90
        0
176
     1
 40
-0.6
176
     1
 41
-30.0
176
     1
 62
     5
 63
     7
421
 16777215
176
     1
 74
     1
176
     1
 91
        4
176
     1
 64
     7
176
     1
 65
   257
176
     1
 75
     1
176
     1
175
     1
176
     1
 42
1.0
176
     1
 92
        8
176
     1
 66
     7
176
     1
 43
1.0
176
     1
 76
     1
176
     1
 77
     6
176
     1
 78
     2
176
     1
 67
     7
176
     1
 79
     5
176
     1
170
     0
176
     1
171
     0
176
     1
290
     0
176
     1
 93
        1
176
     1
 44
50.0
176
     1
173
     0
176
     1
  0
VISUALSTYLE
  5
3A
102
{ACAD_REACTORS
330
2A
102
}
330
2A
100
AcDbVisualStyle
  2
ColorChange
 70
    16
177
     2
291
     1
 71
     2
176
     1
 72
     2
176
     1
 73
     3
176
     1
 90
        0
176
     1
 40
-0.6
176
     1
 41
-30.0
176
     1
 62
     5
 63
     8
421
  8421504
176
     1
 74
     1
176
     1
 91
        4
176
     1
 64
     7
176
     1
 65
   257
176
     1
 75
     1
176
     1
175
     1
176
     1
 42
1.0
176
     1
 92
        8
176
     1
 66
     8
424
  8421504
176
     1
 43
1.0
176
     1
 76
     1
176
     1
 77
     6
176
     1
 78
     2
176
     1
 67
     7
176
     1
 79
     5
176
     1
170
     0
176
     1
171
     0
176
     1
290
     0
176
     1
 93
        1
176
     1
 44
0.0
176
     1
173
     0
176
     1
  0
VISUALSTYLE
  5
34
102
{ACAD_REACTORS
330
2A
102
}
330
2A
100
AcDbVisualStyle
  2
Conceptual
 70
     9
177
     2
291
     0
 71
     3
176
     1
 72
     2
176
     1
 73
     0
176
     1
 90
        0
176
     1
 40
-0.6
176
     1
 41
-30.0
176
     1
 62
     5
 63
     7
421
 16777215
176
     1
 74
     2
176
     1
 91
        2
176
     1
 64
     7
176
     1
 65
   257
176
     1
 75
     1
176
     1
175
     1
176
     1
 42
40.0
176
     1
 92
        8
176
     1
 66
     7
176
     1
 43
1.0
176
     1
 76
     1
176
     1
 77
     6
176
     1
 78
     2
176
     1
 67
     7
176
     1
 79
     3
176
     1
170
     0
176
     1
171
     0
176
     1
290
     0
176
     1
 93
        1
176
     1
 44
0.0
176
     1
173
     0
176
     1
  0
VISUALSTYLE
  5
35
102
{ACAD_REACTORS
330
2A
102
}
330
2A
100
AcDbVisualStyle
  2
Dim
 70
    11
177
     2
291
     1
 71
     2
176
     1
 72
     2
176
     1
 73
     0
176
     1
 90
        0
176
     1
 40
-0.6
176
     1
 41
-30.0
176
     1
 62
     5
 63
     7
421
 16777215
176
     1
 74
     1
176
     1
 91
        4
176
     1
 64
     7
176
     1
 65
   257
176
     1
 75
     1
176
     1
175
     1
176
     1
 42
1.0
176
     1
 92
        8
176
     1
 66
     7
176
     1
 43
1.0
176
     1
 76
     1
176
     1
 77
     6
176
     1
 78
     2
176
     1
 67
     7
176
     1
 79
     5
176
     1
170
     0
176
     1
171
     0
176
     1
290
     0
176
     1
 93
        1
176
     1
 44
-50.0
176
     1
173
     0
176
     1
  0
VISUALSTYLE
  5
39
102
{ACAD_REACTORS
330
2A
102
}
330
2A
100
AcDbVisualStyle
  2
Facepattern
 70
    15
177
     2
291
     1
 71
     2
176
     1
 72
     2
176
     1
 73
     0
176
     1
 90
        0
176
     1
 40
-0.6
176
     1
 41
-30.0
176
     1
 62
     5
 63
     7
421
 16777215
176
     1
 74
     1
176
     1
 91
        4
176
     1
 64
     7
176
     1
 65
   257
176
     1
 75
     1
176
     1
175
     1
176
     1
 42
1.0
176
     1
 92
        8
176
     1
 66
     7
176
     1
 43
1.0
176
     1
 76
     1
176
     1
 77
     6
176
     1
 78
     2
176
     1
 67
     7
176
     1
 79
     5
176
     1
170
     0
176
     1
171
     0
176
     1
290
     0
176
     1
 93
        1
176
     1
 44
0.0
176
     1
173
     0
176
     1
  0
VISUALSTYLE
  5
2B
102
{ACAD_REACTORS
330
2A
102
}
330
2A
100
AcDbVisualStyle
  2
Flat
 70
     0
177
     2
291
     1
 71
     2
176
     1
 72
     1
176
     1
 73
     1
176
     1
 90
        2
176
     1
 40
-0.6
176
     1
 41
30.0
176
     1
 62
     5
 63
     7
421
 16777215
176
     1
 74
     0
176
     1
 91
        4
176
     1
 64
     7
176
     1
 65
   257
176
     1
 75
     1
176
     1
175
     1
176
     1
 42
1.0
176
     1
 92
        8
176
     1
 66
     7
176
     1
 43
1.0
176
     1
 76
     1
176
     1
 77
     6
176
     1
 78
     2
176
     1
 67
     7
176
     1
 79
     5
176
     1
170
     0
176
     1
171
     0
176
     1
290
     0
176
     1
 93
       13
176
     1
 44
0.0
176
     1
173
     0
176
     1
  0
VISUALSTYLE
  5
2C
102
{ACAD_REACTORS
330
2A
102
}
330
2A
100
AcDbVisualStyle
  2
FlatWithEdges
 70
     1
177
     2
291
     1
 71
     2
176
     1
 72
     1
176
     1
 73
     1
176
     1
 90
        2
176
     1
 40
-0.6
176
     1
 41
30.0
176
     1
 62
     5
 63
     7
421
 16777215
176
     1
 74
     1
176
     1
 91
        4
176
     1
 64
     7
176
     1
 65
   257
176
     1
 75
     1
176
     1
175
     1
176
     1
 42
1.0
176
     1
 92
        0
176
     1
 66
   257
176
     1
 43
1.0
176
     1
 76
     1
176
     1
 77
     6
176
     1
 78
     2
176
     1
 67
     7
176
     1
 79
     5
176
     1
170
     0
176
     1
171
     0
176
     1
290
     0
176
     1
 93
       13
176
     1
 44
0.0
176
     1
173
     0
176
     1
  0
VISUALSTYLE
  5
2D
102
{ACAD_REACTORS
330
2A
102
}
330
2A
100
AcDbVisualStyle
  2
Gouraud
 70
     2
177
     2
291
     1
 71
     2
176
     1
 72
     2
176
     1
 73
     1
176
     1
 90
        2
176
     1
 40
-0.6
176
     1
 41
30.0
176
     1
 62
     5
 63
     7
421
 16777215
176
     1
 74
     0
176
     1
 91
        4
176
     1
 64
     7
176
     1
 65
   257
176
     1
 75
     1
176
     1
175
     1
176
     1
 42
1.0
176
     1
 92
        0
176
     1
 66
     7
176
     1
 43
1.0
176
     1
 76
     1
176
     1
 77
     6
176
     1
 78
     2
176
     1
 67
     7
176
     1
 79
     5
176
     1
170
     0
176
     1
171
     0
176
     1
290
     0
176
     1
 93
       13
176
     1
 44
0.0
176
     1
173
     0
176
     1
  0
VISUALSTYLE
  5
2E
102
{ACAD_REACTORS
330
2A
102
}
330
2A
100
AcDbVisualStyle
  2
GouraudWithEdges
 70
     3
177
     2
291
     1
 71
     2
176
     1
 72
     2
176
     1
 73
     1
176
     1
 90
        2
176
     1
 40
-0.6
176
     1
 41
30.0
176
     1
 62
     5
 63
     7
421
 16777215
176
     1
 74
     1
176
     1
 91
        4
176
     1
 64
     7
176
     1
 65
   257
176
     1
 75
     1
176
     1
175
     1
176
     1
 42
1.0
176
     1
 92
        0
176
     1
 66
   257
176
     1
 43
1.0
176
     1
 76
     1
176
     1
 77
     6
176
     1
 78
     2
176
     1
 67
     7
176
     1
 79
     5
176
     1
170
     0
176
     1
171
     0
176
     1
290
     0
176
     1
 93
       13
176
     1
 44
0.0
176
     1
173
     0
176
     1
  0
VISUALSTYLE
  5
38
102
{ACAD_REACTORS
330
2A
102
}
330
2A
100
AcDbVisualStyle
  2
Linepattern
 70
    14
177
     2
291
     1
 71
     2
176
     1
 72
     2
176
     1
 73
     0
176
     1
 90
        0
176
     1
 40
-0.6
176
     1
 41
-30.0
176
     1
 62
     5
 63
     7
421
 16777215
176
     1
 74
     1
176
     1
 91
        4
176
     1
 64
     7
176
     1
 65
   257
176
     1
 75
     7
176
     1
175
     7
176
     1
 42
1.0
176
     1
 92
        8
176
     1
 66
     7
176
     1
 43
1.0
176
     1
 76
     1
176
     1
 77
     6
176
     1
 78
     2
176
     1
 67
     7
176
     1
 79
     5
176
     1
170
     0
176
     1
171
     0
176
     1
290
     0
176
     1
 93
        1
176
     1
 44
0.0
176
     1
173
     0
176
     1
  0
VISUALSTYLE
  5
33
102
{ACAD_REACTORS
330
2A
102
}
330
2A
100
AcDbVisualStyle
  2
Realistic
 70
     8
177
     2
291
     0
 71
     2
176
     1
 72
     2
176
     1
 73
     0
176
     1
 90
        0
176
     1
 40
-0.6
176
     1
 41
-30.0
176
     1
 62
     5
 63
     7
421
 16777215
176
     1
 74
     1
176
     1
 91
        0
176
     1
 64
     7
176
     1
 65
   257
176
     1
 75
     1
176
     1
175
     1
176
     1
 42
1.0
176
     1
 92
        8
176
     1
 66
     8
424
  7895160
176
     1
 43
1.0
176
     1
 76
     1
176
     1
 77
     6
176
     1
 78
     2
176
     1
 67
     7
176
     1
 79
     5
176
     1
170
     0
176
     1
171
     0
176
     1
290
     0
176
     1
 93
       13
176
     1
 44
0.0
176
     1
173
     0
176
     1
  0
VISUALSTYLE
  5
37
102
{ACAD_REACTORS
330
2A
102
}
330
2A
100
AcDbVisualStyle
  2
Thicken
 70
    13
177
     2
291
     1
 71
     2
176
     1
 72
     2
176
     1
 73
     0
176
     1
 90
        0
176
     1
 40
-0.6
176
     1
 41
-30.0
176
     1
 62
     5
 63
     7
421
 16777215
176
     1
 74
     1
176
     1
 91
        4
176
     1
 64
     7
176
     1
 65
   257
176
     1
 75
     1
176
     1
175
     1
176
     1
 42
1.0
176
     1
 92
       12
176
     1
 66
     7
176
     1
 43
1.0
176
     1
 76
     1
176
     1
 77
     6
176
     1
 78
     2
176
     1
 67
     7
176
     1
 79
     5
176
     1
170
     0
176
     1
171
     0
176
     1
290
     0
176
     1
 93
        1
176
     1
 44
0.0
176
     1
173
     0
176
     1
  0
ENDSEC
  0
EOF
