  0
SECTION
  2
HEADER
  9
$ACADVER
  1
AC1024
  9
$ACADMAINTVER
 70
     6
  9
$DWGCODEPAGE
  3
UNDEFINED
  9
$INSBASE
 10
0.0
 20
0.0
 30
0.0
  9
$EXTMIN
 10
1.000000000000000E+20
 20
1.000000000000000E+20
 30
1.000000000000000E+20
  9
$EXTMAX
 10
-1.000000000000000E+20
 20
-1.000000000000000E+20
 30
-1.000000000000000E+20
  9
$LIMMIN
 10
0.0
 20
0.0
  9
$LIMMAX
 10
12.0
 20
9.0
  9
$ORTHOMODE
 70
     0
  9
$REGENMODE
 70
     1
  9
$FILLMODE
 70
     1
  9
$QTEXTMODE
 70
     0
  9
$MIRRTEXT
 70
     1
  9
$LTSCALE
 40
1.0
  9
$ATTMODE
 70
     1
  9
$TEXTSIZE
 40
0.2
  9
$TRACEWID
 40
0.05
  9
$TEXTSTYLE
  7
Standard
  9
$CLAYER
  8
0
  9
$CELTYPE
  6
ByLayer
  9
$CECOLOR
 62
   256
  9
$CELTSCALE
 40
1.0
  9
$DISPSILH
 70
     0
  9
$DIMSCALE
 40
1.0
  9
$DIMASZ
 40
0.18
  9
$DIMEXO
 40
0.0625
  9
$DIMDLI
 40
0.38
  9
$DIMRND
 40
0.0
  9
$DIMDLE
 40
0.0
  9
$DIMEXE
 40
0.18
  9
$DIMTP
 40
0.0
  9
$DIMTM
 40
0.0
  9
$DIMTXT
 40
0.18
  9
$DIMCEN
 40
0.09
  9
$DIMTSZ
 40
0.0
  9
$DIMTOL
 70
     0
  9
$DIMLIM
 70
     0
  9
$DIMTIH
 70
     1
  9
$DIMTOH
 70
     1
  9
$DIMSE1
 70
     0
  9
$DIMSE2
 70
     0
  9
$DIMTAD
 70
     0
  9
$DIMZIN
 70
     0
  9
$DIMBLK
  1

  9
$DIMASO
 70
     1
  9
$DIMSHO
 70
     1
  9
$DIMPOST
  1

  9
$DIMAPOST
  1

  9
$DIMALT
 70
     0
  9
$DIMALTD
 70
     2
  9
$DIMALTF
 40
25.4
  9
$DIMLFAC
 40
1.0
  9
$DIMTOFL
 70
     0
  9
$DIMTVP
 40
0.0
  9
$DIMTIX
 70
     0
  9
$DIMSOXD
 70
     0
  9
$DIMSAH
 70
     0
  9
$DIMBLK1
  1

  9
$DIMBLK2
  1

  9
$DIMSTYLE
  2
Standard
  9
$DIMCLRD
 70
     0
  9
$DIMCLRE
 70
     0
  9
$DIMCLRT
 70
     0
  9
$DIMTFAC
 40
1.0
  9
$DIMGAP
 40
0.09
  9
$DIMJUST
 70
     0
  9
$DIMSD1
 70
     0
  9
$DIMSD2
 70
     0
  9
$DIMTOLJ
 70
     1
  9
$DIMTZIN
 70
     0
  9
$DIMALTZ
 70
     0
  9
$DIMALTTZ
 70
     0
  9
$DIMUPT
 70
     0
  9
$DIMDEC
 70
     4
  9
$DIMTDEC
 70
     4
  9
$DIMALTU
 70
     2
  9
$DIMALTTD
 70
     2
  9
$DIMTXSTY
  7
Standard
  9
$DIMAUNIT
 70
     0
  9
$DIMADEC
 70
     0
  9
$DIMALTRND
 40
0.0
  9
$DIMAZIN
 70
     0
  9
$DIMDSEP
 70
    46
  9
$DIMATFIT
 70
     3
  9
$DIMFRAC
 70
     0
  9
$DIMLDRBLK
  1

  9
$DIMLUNIT
 70
     2
  9
$DIMLWD
 70
    -2
  9
$DIMLWE
 70
    -2
  9
$DIMTMOVE
 70
     0
  9
$DIMFXL
 40
1.0
  9
$DIMFXLON
 70
     0
  9
$DIMJOGANG
 40
0.7853981633974483
  9
$DIMTFILL
 70
     0
  9
$DIMTFILLCLR
 70
     0
  9
$DIMARCSYM
 70
     0
  9
$DIMLTYPE
  6

  9
$DIMLTEX1
  6

  9
$DIMLTEX2
  6

  9
$DIMTXTDIRECTION
 70
     0
  9
$LUNITS
 70
     2
  9
$LUPREC
 70
     4
  9
$SKETCHINC
 40
0.1
  9
$FILLETRAD
 40
0.5
  9
$AUNITS
 70
     0
  9
$AUPREC
 70
     0
  9
$MENU
  1
.
  9
$ELEVATION
 40
0.0
  9
$PELEVATION
 40
0.0
  9
$THICKNESS
 40
0.0
  9
$LIMCHECK
 70
     0
  9
$CHAMFERA
 40
0.5
  9
$CHAMFERB
 40
0.5
  9
$CHAMFERC
 40
1.0
  9
$CHAMFERD
 40
0.0
  9
$SKPOLY
 70
     0
  9
$TDCREATE
 40
2457917.594780093
  9
$TDUCREATE
 40
2457917.219780093
  9
$TDUPDATE
 40
2457917.594791655
  9
$TDUUPDATE
 40
2457917.219791667
  9
$TDINDWG
 40
0.0000000116
  9
$TDUSRTIMER
 40
0.0000000116
  9
$USRTIMER
 70
     1
  9
$ANGBASE
 50
0.0
  9
$ANGDIR
 70
     0
  9
$PDMODE
 70
     0
  9
$PDSIZE
 40
0.0
  9
$PLINEWID
 40
0.0
  9
$SPLFRAME
 70
     0
  9
$SPLINETYPE
 70
     6
  9
$SPLINESEGS
 70
     8
  9
$HANDSEED
  5
169
  9
$SURFTAB1
 70
     6
  9
$SURFTAB2
 70
     6
  9
$SURFTYPE
 70
     6
  9
$SURFU
 70
     6
  9
$SURFV
 70
     6
  9
$UCSBASE
  2

  9
$UCSNAME
  2

  9
$UCSORG
 10
0.0
 20
0.0
 30
0.0
  9
$UCSXDIR
 10
1.0
 20
0.0
 30
0.0
  9
$UCSYDIR
 10
0.0
 20
1.0
 30
0.0
  9
$UCSORTHOREF
  2

  9
$UCSORTHOVIEW
 70
     0
  9
$UCSORGTOP
 10
0.0
 20
0.0
 30
0.0
  9
$UCSORGBOTTOM
 10
0.0
 20
0.0
 30
0.0
  9
$UCSORGLEFT
 10
0.0
 20
0.0
 30
0.0
  9
$UCSORGRIGHT
 10
0.0
 20
0.0
 30
0.0
  9
$UCSORGFRONT
 10
0.0
 20
0.0
 30
0.0
  9
$UCSORGBACK
 10
0.0
 20
0.0
 30
0.0
  9
$PUCSBASE
  2

  9
$PUCSNAME
  2

  9
$PUCSORG
 10
0.0
 20
0.0
 30
0.0
  9
$PUCSXDIR
 10
1.0
 20
0.0
 30
0.0
  9
$PUCSYDIR
 10
0.0
 20
1.0
 30
0.0
  9
$PUCSORTHOREF
  2

  9
$PUCSORTHOVIEW
 70
     0
  9
$PUCSORGTOP
 10
0.0
 20
0.0
 30
0.0
  9
$PUCSORGBOTTOM
 10
0.0
 20
0.0
 30
0.0
  9
$PUCSORGLEFT
 10
0.0
 20
0.0
 30
0.0
  9
$PUCSORGRIGHT
 10
0.0
 20
0.0
 30
0.0
  9
$PUCSORGFRONT
 10
0.0
 20
0.0
 30
0.0
  9
$PUCSORGBACK
 10
0.0
 20
0.0
 30
0.0
  9
$USERI1
 70
     0
  9
$USERI2
 70
     0
  9
$USERI3
 70
     0
  9
$USERI4
 70
     0
  9
$USERI5
 70
     0
  9
$USERR1
 40
0.0
  9
$USERR2
 40
0.0
  9
$USERR3
 40
0.0
  9
$USERR4
 40
0.0
  9
$USERR5
 40
0.0
  9
$WORLDVIEW
 70
     1
  9
$SHADEDGE
 70
     3
  9
$SHADEDIF
 70
    70
  9
$TILEMODE
 70
     1
  9
$MAXACTVP
 70
    64
  9
$PINSBASE
 10
0.0
 20
0.0
 30
0.0
  9
$PLIMCHECK
 70
     0
  9
$PEXTMIN
 10
1.000000000000000E+20
 20
1.000000000000000E+20
 30
1.000000000000000E+20
  9
$PEXTMAX
 10
-1.000000000000000E+20
 20
-1.000000000000000E+20
 30
-1.000000000000000E+20
  9
$PLIMMIN
 10
0.0
 20
0.0
  9
$PLIMMAX
 10
12.0
 20
9.0
  9
$UNITMODE
 70
     0
  9
$VISRETAIN
 70
     1
  9
$PLINEGEN
 70
     0
  9
$PSLTSCALE
 70
     1
  9
$TREEDEPTH
 70
  3020
  9
$CMLSTYLE
  2
Standard
  9
$CMLJUST
 70
     0
  9
$CMLSCALE
 40
1.0
  9
$PROXYGRAPHICS
 70
     1
  9
$MEASUREMENT
 70
     0
  9
$CELWEIGHT
370
    -1
  9
$ENDCAPS
280
     0
  9
$JOINSTYLE
280
     0
  9
$LWDISPLAY
290
     1
  9
$INSUNITS
 70
     1
  9
$HYPERLINKBASE
  1

  9
$STYLESHEET
  1

  9
$XEDIT
290
     1
  9
$CEPSNTYPE
380
     0
  9
$PSTYLEMODE
290
     1
  9
$FINGERPRINTGUID
  2
{14598D26-F4EA-5E5B-FBD0-DA29F6EA1E6E}
  9
$VERSIONGUID
  2
{FAEB1C32-E019-11D5-929B-00C0DF256EC4}
  9
$EXTNAMES
290
     1
  9
$PSVPSCALE
 40
0.0
  9
$OLESTARTUP
290
     0
  9
$SORTENTS
280
   127
  9
$INDEXCTL
280
     0
  9
$HIDETEXT
280
     1
  9
$XCLIPFRAME
280
     2
  9
$HALOGAP
280
     0
  9
$OBSCOLOR
 70
   257
  9
$OBSLTYPE
280
     0
  9
$INTERSECTIONDISPLAY
280
     0
  9
$INTERSECTIONCOLOR
 70
   257
  9
$DIMASSOC
280
     2
  9
$PROJECTNAME
  1

  9
$CAMERADISPLAY
290
     0
  9
$LENSLENGTH
 40
50.0
  9
$CAMERAHEIGHT
 40
0.0
  9
$STEPSPERSEC
 40
2.0
  9
$STEPSIZE
 40
6.0
  9
$3DDWFPREC
 40
2.0
  9
$PSOLWIDTH
 40
0.25
  9
$PSOLHEIGHT
 40
4.0
  9
$LOFTANG1
 40
1.570796326794897
  9
$LOFTANG2
 40
1.570796326794897
  9
$LOFTMAG1
 40
0.0
  9
$LOFTMAG2
 40
0.0
  9
$LOFTPARAM
 70
     7
  9
$LOFTNORMALS
280
     1
  9
$LATITUDE
 40
37.795
  9
$LONGITUDE
 40
-122.394
  9
$NORTHDIRECTION
 40
0.0
  9
$TIMEZONE
 70
 -8000
  9
$LIGHTGLYPHDISPLAY
280
     1
  9
$TILEMODELIGHTSYNCH
280
     1
  9
$CMATERIAL
347
3C
  9
$SOLIDHIST
280
     1
  9
$SHOWHIST
280
     1
  9
$DWFFRAME
280
     2
  9
$DGNFRAME
280
     2
  9
$REALWORLDSCALE
290
     1
  9
$INTERFERECOLOR
 62
   256
  9
$CSHADOW
280
     0
  9
$SHADOWPLANELOCATION
 40
0.0
  0
ENDSEC
  0
SECTION
  2
CLASSES
  0
CLASS
  1
ACDBDICTIONARYWDFLT
  2
AcDbDictionaryWithDefault
  3
ObjectDBX Classes
 90
        0
 91
        4
280
     0
281
     0
  0
CLASS
  1
VISUALSTYLE
  2
AcDbVisualStyle
  3
ObjectDBX Classes
 90
     4095
 91
        4
280
     0
281
     0
  0
CLASS
  1
MATERIAL
  2
AcDbMaterial
  3
ObjectDBX Classes
 90
     1153
 91
        4
280
     0
281
     0
  0
CLASS
  1
SUN
  2
AcDbSun
  3
SCENEOE
 90
     1024
 91
        4
280
     0
281
     0
  0
ENDSEC
  0
SECTION
  2
TABLES
  0
TABLE
  2
VPORT
  5
8
330
0
100
AcDbSymbolTable
 70
     1
  0
VPORT
  5
29
330
8
100
AcDbSymbolTableRecord
100
AcDbViewportTableRecord
  2
*Active
 70
     0
 10
0.0
 20
0.0
 11
1.0
 21
1.0
 12
0.0
 22
0.0
 13
0.0
 23
0.0
 14
0.5
 24
0.5
 15
0.5
 25
0.5
 16
0.0
 26
0.0
 36
1.0
 17
91.00082462281999
 27
-128.4993055234307
 37
0.0
 40
256.9986110468615
 41
0.7081814508812795
 42
50.0
 43
0.0
 44
0.0
 50
0.0
 51
0.0
 71
     0
 72
   100
 73
     1
 74
     3
 75
     0
 76
     0
 77
     0
 78
     0
281
     0
 65
     1
110
0.0
120
0.0
130
0.0
111
1.0
121
0.0
131
0.0
112
0.0
122
1.0
132
0.0
 79
     0
146
0.0
 60
     3
 61
     5
292
     1
282
     1
141
0.0
142
0.0
 63
   250
361
3F
  0
ENDTAB
  0
TABLE
  2
LTYPE
  5
5
330
0
100
AcDbSymbolTable
 70
     1
  0
LTYPE
  5
14
330
5
100
AcDbSymbolTableRecord
100
AcDbLinetypeTableRecord
  2
ByBlock
 70
     0
  3

 72
    65
 73
     0
 40
0.0
  0
LTYPE
  5
15
330
5
100
AcDbSymbolTableRecord
100
AcDbLinetypeTableRecord
  2
ByLayer
 70
     0
  3

 72
    65
 73
     0
 40
0.0
  0
LTYPE
  5
16
330
5
100
AcDbSymbolTableRecord
100
AcDbLinetypeTableRecord
  2
Continuous
 70
     0
  3
Solid line
 72
    65
 73
     0
 40
0.0
  0
ENDTAB
  0
TABLE
  2
LAYER
  5
2
330
0
100
AcDbSymbolTable
 70
     2
  0
LAYER
  5
10
330
2
100
AcDbSymbolTableRecord
100
AcDbLayerTableRecord
  2
0
 70
     0
 62
     7
  6
Continuous
370
    -3
390
F
347
3E
  0
LAYER
  5
40
330
2
100
AcDbSymbolTableRecord
100
AcDbLayerTableRecord
  2
_U+30EC_U+30A4_U+30E4_U+30FC 1
 70
     0
 62
     7
  6
Continuous
370
    -3
390
F
347
3E
  0
ENDTAB
  0
TABLE
  2
STYLE
  5
3
330
0
100
AcDbSymbolTable
 70
     1
  0
STYLE
  5
11
330
3
100
AcDbSymbolTableRecord
100
AcDbTextStyleTableRecord
  2
Standard
 70
     0
 40
0.0
 41
1.0
 50
0.0
 71
     0
 42
0.2
  3
txt
  4

  0
ENDTAB
  0
TABLE
  2
VIEW
  5
6
330
0
100
AcDbSymbolTable
 70
     0
  0
ENDTAB
  0
TABLE
  2
UCS
  5
7
330
0
100
AcDbSymbolTable
 70
     0
  0
ENDTAB
  0
TABLE
  2
APPID
  5
9
330
0
100
AcDbSymbolTable
 70
     1
  0
APPID
  5
12
330
9
100
AcDbSymbolTableRecord
100
AcDbRegAppTableRecord
  2
ACAD
 70
     0
  0
ENDTAB
  0
TABLE
  2
DIMSTYLE
  5
A
330
0
100
AcDbSymbolTable
 70
     1
100
AcDbDimStyleTable
  0
DIMSTYLE
105
27
330
A
100
AcDbSymbolTableRecord
100
AcDbDimStyleTableRecord
  2
Standard
 70
     0
178
     0
340
11
  0
ENDTAB
  0
TABLE
  2
BLOCK_RECORD
  5
1
330
0
100
AcDbSymbolTable
 70
     9
  0
BLOCK_RECORD
  5
1F
330
1
100
AcDbSymbolTableRecord
100
AcDbBlockTableRecord
  2
*Model_Space
340
22
 70
     0
280
     1
281
     0
  0
BLOCK_RECORD
  5
1B
330
1
100
AcDbSymbolTableRecord
100
AcDbBlockTableRecord
  2
*Paper_Space
340
1E
 70
     0
280
     1
281
     0
  0
BLOCK_RECORD
  5
23
330
1
100
AcDbSymbolTableRecord
100
AcDbBlockTableRecord
  2
*Paper_Space0
340
26
 70
     0
280
     1
281
     0
  0
BLOCK_RECORD
  5
A2
330
1
100
AcDbSymbolTableRecord
100
AcDbBlockTableRecord
  2
block 2
340
0
102
{BLKREFS
331
A3
102
}
 70
     0
280
     1
281
     0
  0
BLOCK_RECORD
  5
B4
330
1
100
AcDbSymbolTableRecord
100
AcDbBlockTableRecord
  2
block 3
340
0
102
{BLKREFS
331
B5
102
}
 70
     0
280
     1
281
     0
  0
BLOCK_RECORD
  5
C9
330
1
100
AcDbSymbolTableRecord
100
AcDbBlockTableRecord
  2
block 4
340
0
102
{BLKREFS
331
CA
102
}
 70
     0
280
     1
281
     0
  0
BLOCK_RECORD
  5
DA
330
1
100
AcDbSymbolTableRecord
100
AcDbBlockTableRecord
  2
block 5
340
0
102
{BLKREFS
331
DB
102
}
 70
     0
280
     1
281
     0
  0
BLOCK_RECORD
  5
FD
330
1
100
AcDbSymbolTableRecord
100
AcDbBlockTableRecord
  2
block 6
340
0
102
{BLKREFS
331
FE
102
}
 70
     0
280
     1
281
     0
  0
BLOCK_RECORD
  5
11D
330
1
100
AcDbSymbolTableRecord
100
AcDbBlockTableRecord
  2
block 7
340
0
102
{BLKREFS
331
11E
102
}
 70
     0
280
     1
281
     0
  0
BLOCK_RECORD
  5
135
330
1
100
AcDbSymbolTableRecord
100
AcDbBlockTableRecord
  2
block 8
340
0
102
{BLKREFS
331
136
102
}
 70
     0
280
     1
281
     0
  0
BLOCK_RECORD
  5
15E
330
1
100
AcDbSymbolTableRecord
100
AcDbBlockTableRecord
  2
block 9
340
0
102
{BLKREFS
331
15F
102
}
 70
     0
280
     1
281
     0
  0
ENDTAB
  0
ENDSEC
  0
SECTION
  2
BLOCKS
  0
BLOCK
  5
20
330
1F
100
AcDbEntity
  8
0
100
AcDbBlockBegin
  2
*Model_Space
 70
     0
 10
0.0
 20
0.0
 30
0.0
  3
*Model_Space
  1

  0
ENDBLK
  5
21
330
1F
100
AcDbEntity
  8
0
100
AcDbBlockEnd
  0
BLOCK
  5
1C
330
1B
100
AcDbEntity
 67
     1
  8
0
100
AcDbBlockBegin
  2
*Paper_Space
 70
     0
 10
0.0
 20
0.0
 30
0.0
  3
*Paper_Space
  1

  0
ENDBLK
  5
1D
330
1B
100
AcDbEntity
 67
     1
  8
0
100
AcDbBlockEnd
  0
BLOCK
  5
24
330
23
100
AcDbEntity
  8
0
100
AcDbBlockBegin
  2
*Paper_Space0
 70
     0
 10
0.0
 20
0.0
 30
0.0
  3
*Paper_Space0
  1

  0
ENDBLK
  5
25
330
23
100
AcDbEntity
  8
0
100
AcDbBlockEnd
  0
BLOCK
  5
A4
330
A2
100
AcDbEntity
  8
0
100
AcDbBlockBegin
  2
block 2
 70
     0
 10
0.0
 20
0.0
 30
0.0
  3
block 2
  1

  0
SPLINE
  5
A6
330
A2
100
AcDbEntity
  8
_U+30EC_U+30A4_U+30E4_U+30FC 1
370
     0
100
AcDbSpline
210
0.0
220
0.0
230
1.0
 70
    11
 71
     3
 72
    26
 73
    22
 74
     0
 42
0.0000000001
 43
0.0000000001
 12
1.0
 22
0.0
 32
0.0
 13
1.0
 23
0.0
 33
0.0
 40
0.0
 40
0.0
 40
0.0
 40
0.0
 40
1.0
 40
1.0
 40
1.0
 40
2.0
 40
2.0
 40
2.0
 40
3.0
 40
3.0
 40
3.0
 40
4.0
 40
4.0
 40
4.0
 40
5.0
 40
5.0
 40
5.0
 40
6.0
 40
6.0
 40
6.0
 40
7.0
 40
7.0
 40
7.0
 40
7.0
 10
75.59555797806291
 20
-121.9205511847976
 30
0.0
 10
75.59555797806291
 20
-121.9205511847976
 30
0.0
 10
75.59555797806291
 20
-120.8162258270008
 30
0.0
 10
75.59555797806291
 20
-120.8162258270008
 30
0.0
 10
75.59555797806291
 20
-120.8162258270008
 30
0.0
 10
75.26551783057599
 20
-120.8162258270008
 30
0.0
 10
75.26551783057599
 20
-120.8162258270008
 30
0.0
 10
75.26551783057599
 20
-120.8162258270008
 30
0.0
 10
75.26551783057599
 20
-120.6682589759093
 30
0.0
 10
75.26551783057599
 20
-120.6682589759093
 30
0.0
 10
75.59762503535407
 20
-120.6534450653228
 30
0.0
 10
75.64413382440495
 20
-120.4904920488704
 30
0.0
 10
75.6737616455781
 20
-120.3762871335344
 30
0.0
 10
75.6737616455781
 20
-120.3762871335344
 30
0.0
 10
75.81983369415268
 20
-120.3762871335344
 30
0.0
 10
75.81983369415268
 20
-120.3762871335344
 30
0.0
 10
75.81983369415268
 20
-120.3762871335344
 30
0.0
 10
75.81983369415268
 20
-121.9205511847976
 30
0.0
 10
75.81983369415268
 20
-121.9205511847976
 30
0.0
 10
75.81983369415268
 20
-121.9205511847976
 30
0.0
 10
75.59555797806291
 20
-121.9205511847976
 30
0.0
 10
75.59555797806291
 20
-121.9205511847976
 30
0.0
  0
HATCH
  5
A7
330
A2
100
AcDbEntity
  8
_U+30EC_U+30A4_U+30E4_U+30FC 1
 62
   179
420
  2234388
100
AcDbHatch
 10
0.0
 20
0.0
 30
0.0
210
0.0
220
0.0
230
1.0
  2
SOLID
 70
     1
 71
     0
 91
        1
 92
        1
 93
        1
 72
     4
 94
        3
 73
     0
 74
     1
 95
       26
 96
       22
 40
0.0
 40
0.0
 40
0.0
 40
0.0
 40
1.0
 40
1.0
 40
1.0
 40
2.0
 40
2.0
 40
2.0
 40
3.0
 40
3.0
 40
3.0
 40
4.0
 40
4.0
 40
4.0
 40
5.0
 40
5.0
 40
5.0
 40
6.0
 40
6.0
 40
6.0
 40
7.0
 40
7.0
 40
7.0
 40
7.0
 10
75.59555797806291
 20
-121.9205511847976
 10
75.59555797806291
 20
-121.9205511847976
 10
75.59555797806291
 20
-120.8162258270008
 10
75.59555797806291
 20
-120.8162258270008
 10
75.59555797806291
 20
-120.8162258270008
 10
75.26551783057599
 20
-120.8162258270008
 10
75.26551783057599
 20
-120.8162258270008
 10
75.26551783057599
 20
-120.8162258270008
 10
75.26551783057599
 20
-120.6682589759093
 10
75.26551783057599
 20
-120.6682589759093
 10
75.59762503535407
 20
-120.6534450653228
 10
75.64413382440495
 20
-120.4904920488704
 10
75.6737616455781
 20
-120.3762871335344
 10
75.6737616455781
 20
-120.3762871335344
 10
75.81983369415268
 20
-120.3762871335344
 10
75.81983369415268
 20
-120.3762871335344
 10
75.81983369415268
 20
-120.3762871335344
 10
75.81983369415268
 20
-121.9205511847976
 10
75.81983369415268
 20
-121.9205511847976
 10
75.81983369415268
 20
-121.9205511847976
 10
75.59555797806291
 20
-121.9205511847976
 10
75.59555797806291
 20
-121.9205511847976
 97
        0
 97
        0
 75
     2
 76
     1
 98
        0
  0
ENDBLK
  5
A5
330
A2
100
AcDbEntity
  8
0
100
AcDbBlockEnd
  0
BLOCK
  5
B6
330
B4
100
AcDbEntity
  8
0
100
AcDbBlockBegin
  2
block 3
 70
     0
 10
0.0
 20
0.0
 30
0.0
  3
block 3
  1

  0
SPLINE
  5
B8
330
B4
100
AcDbEntity
  8
_U+30EC_U+30A4_U+30E4_U+30FC 1
370
     0
100
AcDbSpline
210
0.0
220
0.0
230
1.0
 70
    11
 71
     3
 72
    44
 73
    40
 74
     0
 42
0.0000000001
 43
0.0000000001
 12
1.0
 22
0.0
 32
0.0
 13
1.0
 23
0.0
 33
0.0
 40
0.0
 40
0.0
 40
0.0
 40
0.0
 40
1.0
 40
1.0
 40
1.0
 40
2.0
 40
2.0
 40
2.0
 40
3.0
 40
3.0
 40
3.0
 40
4.0
 40
4.0
 40
4.0
 40
5.0
 40
5.0
 40
5.0
 40
6.0
 40
6.0
 40
6.0
 40
7.0
 40
7.0
 40
7.0
 40
8.0
 40
8.0
 40
8.0
 40
9.0
 40
9.0
 40
9.0
 40
10.0
 40
10.0
 40
10.0
 40
11.0
 40
11.0
 40
11.0
 40
12.0
 40
12.0
 40
12.0
 40
13.0
 40
13.0
 40
13.0
 40
13.0
 10
92.56833765046903
 20
-110.839057046943
 30
0.0
 10
92.35060761580124
 20
-110.9977036940388
 30
0.0
 10
92.2575900376995
 20
-111.0717732469716
 30
0.0
 10
92.20866968180894
 20
-111.2156059834808
 30
0.0
 10
92.20866968180894
 20
-111.2156059834808
 30
0.0
 10
92.98726126147541
 20
-111.2156059834808
 30
0.0
 10
92.98726126147541
 20
-111.2156059834808
 30
0.0
 10
92.98726126147541
 20
-111.2156059834808
 30
0.0
 10
92.98726126147541
 20
-111.4207614196275
 30
0.0
 10
92.98726126147541
 20
-111.4207614196275
 30
0.0
 10
92.98726126147541
 20
-111.4207614196275
 30
0.0
 10
91.95924476867685
 20
-111.4207614196275
 30
0.0
 10
91.95924476867685
 20
-111.4207614196275
 30
0.0
 10
91.99093964714116
 20
-111.0631605082585
 30
0.0
 10
92.0563964613609
 20
-110.9849568407434
 30
0.0
 10
92.44155813661183
 20
-110.6866115717207
 30
0.0
 10
92.69787324071443
 20
-110.4878295622218
 30
0.0
 10
92.76333005493417
 20
-110.4201334359366
 30
0.0
 10
92.76333005493417
 20
-110.2826741260752
 30
0.0
 10
92.76333005493417
 20
-110.1641628413826
 30
0.0
 10
92.69098304974392
 20
-110.0330769581688
 30
0.0
 10
92.49461260708469
 20
-110.0330769581688
 30
0.0
 10
92.23416338839979
 20
-110.0330769581688
 30
0.0
 10
92.2258951592352
 20
-110.263553846132
 30
0.0
 10
92.2217610446529
 20
-110.3799980735335
 30
0.0
 10
92.2217610446529
 20
-110.3799980735335
 30
0.0
 10
91.9971408190146
 20
-110.3799980735335
 30
0.0
 10
91.9971408190146
 20
-110.3799980735335
 30
0.0
 10
92.00609806727626
 20
-110.253046304902
 30
0.0
 10
92.01643335373201
 20
-110.1409084468571
 30
0.0
 10
92.09704858808685
 20
-110.0223971621645
 30
0.0
 10
92.2066026245178
 20
-109.8616834577776
 30
0.0
 10
92.39332679981834
 20
-109.8277492672479
 30
0.0
 10
92.50908200812273
 20
-109.8277492672479
 30
0.0
 10
92.78675670423387
 20
-109.8277492672479
 30
0.0
 10
92.9941514524459
 20
-110.0118896209345
 30
0.0
 10
92.9941514524459
 20
-110.2847411833663
 30
0.0
 10
92.9941514524459
 20
-110.5131510140384
 30
0.0
 10
92.87770722504446
 20
-110.6127142735621
 30
0.0
 10
92.56833765046903
 20
-110.839057046943
 30
0.0
  0
HATCH
  5
B9
330
B4
100
AcDbEntity
  8
_U+30EC_U+30A4_U+30E4_U+30FC 1
 62
   179
420
  2234388
100
AcDbHatch
 10
0.0
 20
0.0
 30
0.0
210
0.0
220
0.0
230
1.0
  2
SOLID
 70
     1
 71
     0
 91
        1
 92
        1
 93
        1
 72
     4
 94
        3
 73
     0
 74
     1
 95
       44
 96
       40
 40
0.0
 40
0.0
 40
0.0
 40
0.0
 40
1.0
 40
1.0
 40
1.0
 40
2.0
 40
2.0
 40
2.0
 40
3.0
 40
3.0
 40
3.0
 40
4.0
 40
4.0
 40
4.0
 40
5.0
 40
5.0
 40
5.0
 40
6.0
 40
6.0
 40
6.0
 40
7.0
 40
7.0
 40
7.0
 40
8.0
 40
8.0
 40
8.0
 40
9.0
 40
9.0
 40
9.0
 40
10.0
 40
10.0
 40
10.0
 40
11.0
 40
11.0
 40
11.0
 40
12.0
 40
12.0
 40
12.0
 40
13.0
 40
13.0
 40
13.0
 40
13.0
 10
92.56833765046903
 20
-110.839057046943
 10
92.35060761580124
 20
-110.9977036940388
 10
92.2575900376995
 20
-111.0717732469716
 10
92.20866968180894
 20
-111.2156059834808
 10
92.20866968180894
 20
-111.2156059834808
 10
92.98726126147541
 20
-111.2156059834808
 10
92.98726126147541
 20
-111.2156059834808
 10
92.98726126147541
 20
-111.2156059834808
 10
92.98726126147541
 20
-111.4207614196275
 10
92.98726126147541
 20
-111.4207614196275
 10
92.98726126147541
 20
-111.4207614196275
 10
91.95924476867685
 20
-111.4207614196275
 10
91.95924476867685
 20
-111.4207614196275
 10
91.99093964714116
 20
-111.0631605082585
 10
92.0563964613609
 20
-110.9849568407434
 10
92.44155813661183
 20
-110.6866115717207
 10
92.69787324071443
 20
-110.4878295622218
 10
92.76333005493417
 20
-110.4201334359366
 10
92.76333005493417
 20
-110.2826741260752
 10
92.76333005493417
 20
-110.1641628413826
 10
92.69098304974392
 20
-110.0330769581688
 10
92.49461260708469
 20
-110.0330769581688
 10
92.23416338839979
 20
-110.0330769581688
 10
92.2258951592352
 20
-110.263553846132
 10
92.2217610446529
 20
-110.3799980735335
 10
92.2217610446529
 20
-110.3799980735335
 10
91.9971408190146
 20
-110.3799980735335
 10
91.9971408190146
 20
-110.3799980735335
 10
92.00609806727626
 20
-110.253046304902
 10
92.01643335373201
 20
-110.1409084468571
 10
92.09704858808685
 20
-110.0223971621645
 10
92.2066026245178
 20
-109.8616834577776
 10
92.39332679981834
 20
-109.8277492672479
 10
92.50908200812273
 20
-109.8277492672479
 10
92.78675670423387
 20
-109.8277492672479
 10
92.9941514524459
 20
-110.0118896209345
 10
92.9941514524459
 20
-110.2847411833663
 10
92.9941514524459
 20
-110.5131510140384
 10
92.87770722504446
 20
-110.6127142735621
 10
92.56833765046903
 20
-110.839057046943
 97
        0
 97
        0
 75
     2
 76
     1
 98
        0
  0
SPLINE
  5
BA
330
B4
100
AcDbEntity
  8
_U+30EC_U+30A4_U+30E4_U+30FC 1
370
     0
100
AcDbSpline
210
0.0
220
0.0
230
1.0
 70
    11
 71
     3
 72
    29
 73
    25
 74
     0
 42
0.0000000001
 43
0.0000000001
 12
1.0
 22
0.0
 32
0.0
 13
1.0
 23
0.0
 33
0.0
 40
0.0
 40
0.0
 40
0.0
 40
0.0
 40
1.0
 40
1.0
 40
1.0
 40
2.0
 40
2.0
 40
2.0
 40
3.0
 40
3.0
 40
3.0
 40
4.0
 40
4.0
 40
4.0
 40
5.0
 40
5.0
 40
5.0
 40
6.0
 40
6.0
 40
6.0
 40
7.0
 40
7.0
 40
7.0
 40
8.0
 40
8.0
 40
8.0
 40
8.0
 10
94.05041772822351
 20
-111.2429944925886
 30
0.0
 10
93.94224172998666
 20
-111.4524562980917
 30
0.0
 10
93.76860891753007
 20
-111.4715765780349
 30
0.0
 10
93.65216469012863
 20
-111.4715765780349
 30
0.0
 10
93.49162324051599
 20
-111.4715765780349
 30
0.0
 10
93.3496853065237
 20
-111.425067788984
 30
0.0
 10
93.2546006711308
 20
-111.2429944925886
 30
0.0
 10
93.15124780657331
 20
-111.048346597672
 30
0.0
 10
93.1319552718559
 20
-110.811496283061
 30
0.0
 10
93.1319552718559
 20
-110.6485432666087
 30
0.0
 10
93.1319552718559
 20
-110.5047105300995
 30
0.0
 10
93.14918074928215
 20
-110.253046304902
 30
0.0
 10
93.2546006711308
 20
-110.0540920406288
 30
0.0
 10
93.36277666936765
 20
-109.8510036617734
 30
0.0
 10
93.52331811898028
 20
-109.8277492672479
 30
0.0
 10
93.65216469012863
 20
-109.8277492672479
 30
0.0
 10
93.81132810154718
 20
-109.8277492672479
 30
0.0
 10
93.95464407373356
 20
-109.8721909990077
 30
0.0
 10
94.05041772822351
 20
-110.0540920406288
 30
0.0
 10
94.1496364781987
 20
-110.2466728782543
 30
0.0
 10
94.17306312749841
 20
-110.4750827089264
 30
0.0
 10
94.17306312749841
 20
-110.6485432666087
 30
0.0
 10
94.17306312749841
 20
-110.8199367669999
 30
0.0
 10
94.15170353548986
 20
-111.0505859097374
 30
0.0
 10
94.05041772822351
 20
-111.2429944925886
 30
0.0
  0
SPLINE
  5
BB
330
B4
100
AcDbEntity
  8
_U+30EC_U+30A4_U+30E4_U+30FC 1
370
     0
100
AcDbSpline
210
0.0
220
0.0
230
1.0
 70
    11
 71
     3
 72
    17
 73
    13
 74
     0
 42
0.0000000001
 43
0.0000000001
 12
1.0
 22
0.0
 32
0.0
 13
1.0
 23
0.0
 33
0.0
 40
0.0
 40
0.0
 40
0.0
 40
0.0
 40
1.0
 40
1.0
 40
1.0
 40
2.0
 40
2.0
 40
2.0
 40
3.0
 40
3.0
 40
3.0
 40
4.0
 40
4.0
 40
4.0
 40
4.0
 10
93.65216469012863
 20
-110.0203301048734
 30
0.0
 10
93.40273977699654
 20
-110.0203301048734
 30
0.0
 10
93.35588647839714
 20
-110.3038614633095
 30
0.0
 10
93.35588647839714
 20
-110.6485432666087
 30
0.0
 10
93.35588647839714
 20
-110.9680758728656
 30
0.0
 10
93.3924044905408
 20
-111.2769286831183
 30
0.0
 10
93.65216469012863
 20
-111.2769286831183
 30
0.0
 10
93.90021156506661
 20
-111.2769286831183
 30
0.0
 10
93.94844290186012
 20
-110.9954643819734
 30
0.0
 10
93.94844290186012
 20
-110.6485432666087
 30
0.0
 10
93.94844290186012
 20
-110.329182915126
 30
0.0
 10
93.91054685152237
 20
-110.0203301048734
 30
0.0
 10
93.65216469012863
 20
-110.0203301048734
 30
0.0
  0
HATCH
  5
BC
330
B4
100
AcDbEntity
  8
_U+30EC_U+30A4_U+30E4_U+30FC 1
 62
   179
420
  2234388
100
AcDbHatch
 10
0.0
 20
0.0
 30
0.0
210
0.0
220
0.0
230
1.0
  2
SOLID
 70
     1
 71
     0
 91
        2
 92
        1
 93
        1
 72
     4
 94
        3
 73
     0
 74
     1
 95
       29
 96
       25
 40
0.0
 40
0.0
 40
0.0
 40
0.0
 40
1.0
 40
1.0
 40
1.0
 40
2.0
 40
2.0
 40
2.0
 40
3.0
 40
3.0
 40
3.0
 40
4.0
 40
4.0
 40
4.0
 40
5.0
 40
5.0
 40
5.0
 40
6.0
 40
6.0
 40
6.0
 40
7.0
 40
7.0
 40
7.0
 40
8.0
 40
8.0
 40
8.0
 40
8.0
 10
94.05041772822351
 20
-111.2429944925886
 10
93.94224172998666
 20
-111.4524562980917
 10
93.76860891753007
 20
-111.4715765780349
 10
93.65216469012863
 20
-111.4715765780349
 10
93.49162324051599
 20
-111.4715765780349
 10
93.3496853065237
 20
-111.425067788984
 10
93.2546006711308
 20
-111.2429944925886
 10
93.15124780657331
 20
-111.048346597672
 10
93.1319552718559
 20
-110.811496283061
 10
93.1319552718559
 20
-110.6485432666087
 10
93.1319552718559
 20
-110.5047105300995
 10
93.14918074928215
 20
-110.253046304902
 10
93.2546006711308
 20
-110.0540920406288
 10
93.36277666936765
 20
-109.8510036617734
 10
93.52331811898028
 20
-109.8277492672479
 10
93.65216469012863
 20
-109.8277492672479
 10
93.81132810154718
 20
-109.8277492672479
 10
93.95464407373356
 20
-109.8721909990077
 10
94.05041772822351
 20
-110.0540920406288
 10
94.1496364781987
 20
-110.2466728782543
 10
94.17306312749841
 20
-110.4750827089264
 10
94.17306312749841
 20
-110.6485432666087
 10
94.17306312749841
 20
-110.8199367669999
 10
94.15170353548986
 20
-111.0505859097374
 10
94.05041772822351
 20
-111.2429944925886
 97
        0
 97
        0
 92
        1
 93
        1
 72
     4
 94
        3
 73
     0
 74
     1
 95
       17
 96
       13
 40
0.0
 40
0.0
 40
0.0
 40
0.0
 40
1.0
 40
1.0
 40
1.0
 40
2.0
 40
2.0
 40
2.0
 40
3.0
 40
3.0
 40
3.0
 40
4.0
 40
4.0
 40
4.0
 40
4.0
 10
93.65216469012863
 20
-110.0203301048734
 10
93.40273977699654
 20
-110.0203301048734
 10
93.35588647839714
 20
-110.3038614633095
 10
93.35588647839714
 20
-110.6485432666087
 10
93.35588647839714
 20
-110.9680758728656
 10
93.3924044905408
 20
-111.2769286831183
 10
93.65216469012863
 20
-111.2769286831183
 10
93.90021156506661
 20
-111.2769286831183
 10
93.94844290186012
 20
-110.9954643819734
 10
93.94844290186012
 20
-110.6485432666087
 10
93.94844290186012
 20
-110.329182915126
 10
93.91054685152237
 20
-110.0203301048734
 10
93.65216469012863
 20
-110.0203301048734
 97
        0
 97
        0
 75
     2
 76
     1
 98
        0
  0
ENDBLK
  5
B7
330
B4
100
AcDbEntity
  8
0
100
AcDbBlockEnd
  0
BLOCK
  5
CB
330
C9
100
AcDbEntity
  8
0
100
AcDbBlockBegin
  2
block 4
 70
     0
 10
0.0
 20
0.0
 30
0.0
  3
block 4
  1

  0
SPLINE
  5
CD
330
C9
100
AcDbEntity
  8
_U+30EC_U+30A4_U+30E4_U+30FC 1
370
     0
100
AcDbSpline
210
0.0
220
0.0
230
1.0
 70
    11
 71
     3
 72
    44
 73
    40
 74
     0
 42
0.0000000001
 43
0.0000000001
 12
1.0
 22
0.0
 32
0.0
 13
1.0
 23
0.0
 33
0.0
 40
0.0
 40
0.0
 40
0.0
 40
0.0
 40
1.0
 40
1.0
 40
1.0
 40
2.0
 40
2.0
 40
2.0
 40
3.0
 40
3.0
 40
3.0
 40
4.0
 40
4.0
 40
4.0
 40
5.0
 40
5.0
 40
5.0
 40
6.0
 40
6.0
 40
6.0
 40
7.0
 40
7.0
 40
7.0
 40
8.0
 40
8.0
 40
8.0
 40
9.0
 40
9.0
 40
9.0
 40
10.0
 40
10.0
 40
10.0
 40
11.0
 40
11.0
 40
11.0
 40
12.0
 40
12.0
 40
12.0
 40
13.0
 40
13.0
 40
13.0
 40
13.0
 10
105.9621798780233
 20
-126.5884833125369
 30
0.0
 10
106.1206542703448
 20
-126.8062133472047
 30
0.0
 10
106.1950683328262
 20
-126.8992309253065
 30
0.0
 10
106.3383843050126
 20
-126.948151281197
 30
0.0
 10
106.3383843050126
 20
-126.948151281197
 30
0.0
 10
106.3383843050126
 20
-126.1695597015305
 30
0.0
 10
106.3383843050126
 20
-126.1695597015305
 30
0.0
 10
106.3383843050126
 20
-126.1695597015305
 30
0.0
 10
106.5437119959335
 20
-126.1695597015305
 30
0.0
 10
106.5437119959335
 20
-126.1695597015305
 30
0.0
 10
106.5437119959335
 20
-126.1695597015305
 30
0.0
 10
106.5437119959335
 20
-127.1975761943291
 30
0.0
 10
106.5437119959335
 20
-127.1975761943291
 30
0.0
 10
106.1861110845646
 20
-127.1658813158648
 30
0.0
 10
106.1082519265979
 20
-127.100424501645
 30
0.0
 10
105.8099066575753
 20
-126.7152628263941
 30
0.0
 10
105.6107801385279
 20
-126.45929223184
 30
0.0
 10
105.543256267017
 20
-126.3938354176203
 30
0.0
 10
105.405452447607
 20
-126.3938354176203
 30
0.0
 10
105.2869411629144
 20
-126.3938354176203
 30
0.0
 10
105.1560275344749
 20
-126.465837913262
 30
0.0
 10
105.1560275344749
 20
-126.6625528654698
 30
0.0
 10
105.1560275344749
 20
-126.9226575746061
 30
0.0
 10
105.3868489319866
 20
-126.9312703133193
 30
0.0
 10
105.5032931593881
 20
-126.9354044279016
 30
0.0
 10
105.5032931593881
 20
-126.9354044279016
 30
0.0
 10
105.5032931593881
 20
-127.1596801439913
 30
0.0
 10
105.5032931593881
 20
-127.1596801439913
 30
0.0
 10
105.3758246264338
 20
-127.1510674052782
 30
0.0
 10
105.2642035327117
 20
-127.1403876092739
 30
0.0
 10
105.1456922480191
 20
-127.0601168844676
 30
0.0
 10
104.9844617793094
 20
-126.9502183384881
 30
0.0
 10
104.950699843554
 20
-126.7638386727361
 30
0.0
 10
104.950699843554
 20
-126.6477389548832
 30
0.0
 10
104.950699843554
 20
-126.3704087683206
 30
0.0
 10
105.1346679424663
 20
-126.1630140201086
 30
0.0
 10
105.4075195048981
 20
-126.1630140201086
 30
0.0
 10
105.6362738451187
 20
-126.1630140201086
 30
0.0
 10
105.7354925950939
 20
-126.27945824751
 30
0.0
 10
105.9621798780233
 20
-126.5884833125369
 30
0.0
  0
HATCH
  5
CE
330
C9
100
AcDbEntity
  8
_U+30EC_U+30A4_U+30E4_U+30FC 1
 62
   179
420
  2234388
100
AcDbHatch
 10
0.0
 20
0.0
 30
0.0
210
0.0
220
0.0
230
1.0
  2
SOLID
 70
     1
 71
     0
 91
        1
 92
        1
 93
        1
 72
     4
 94
        3
 73
     0
 74
     1
 95
       44
 96
       40
 40
0.0
 40
0.0
 40
0.0
 40
0.0
 40
1.0
 40
1.0
 40
1.0
 40
2.0
 40
2.0
 40
2.0
 40
3.0
 40
3.0
 40
3.0
 40
4.0
 40
4.0
 40
4.0
 40
5.0
 40
5.0
 40
5.0
 40
6.0
 40
6.0
 40
6.0
 40
7.0
 40
7.0
 40
7.0
 40
8.0
 40
8.0
 40
8.0
 40
9.0
 40
9.0
 40
9.0
 40
10.0
 40
10.0
 40
10.0
 40
11.0
 40
11.0
 40
11.0
 40
12.0
 40
12.0
 40
12.0
 40
13.0
 40
13.0
 40
13.0
 40
13.0
 10
105.9621798780233
 20
-126.5884833125369
 10
106.1206542703448
 20
-126.8062133472047
 10
106.1950683328262
 20
-126.8992309253065
 10
106.3383843050126
 20
-126.948151281197
 10
106.3383843050126
 20
-126.948151281197
 10
106.3383843050126
 20
-126.1695597015305
 10
106.3383843050126
 20
-126.1695597015305
 10
106.3383843050126
 20
-126.1695597015305
 10
106.5437119959335
 20
-126.1695597015305
 10
106.5437119959335
 20
-126.1695597015305
 10
106.5437119959335
 20
-126.1695597015305
 10
106.5437119959335
 20
-127.1975761943291
 10
106.5437119959335
 20
-127.1975761943291
 10
106.1861110845646
 20
-127.1658813158648
 10
106.1082519265979
 20
-127.100424501645
 10
105.8099066575753
 20
-126.7152628263941
 10
105.6107801385279
 20
-126.45929223184
 10
105.543256267017
 20
-126.3938354176203
 10
105.405452447607
 20
-126.3938354176203
 10
105.2869411629144
 20
-126.3938354176203
 10
105.1560275344749
 20
-126.465837913262
 10
105.1560275344749
 20
-126.6625528654698
 10
105.1560275344749
 20
-126.9226575746061
 10
105.3868489319866
 20
-126.9312703133193
 10
105.5032931593881
 20
-126.9354044279016
 10
105.5032931593881
 20
-126.9354044279016
 10
105.5032931593881
 20
-127.1596801439913
 10
105.5032931593881
 20
-127.1596801439913
 10
105.3758246264338
 20
-127.1510674052782
 10
105.2642035327117
 20
-127.1403876092739
 10
105.1456922480191
 20
-127.0601168844676
 10
104.9844617793094
 20
-126.9502183384881
 10
104.950699843554
 20
-126.7638386727361
 10
104.950699843554
 20
-126.6477389548832
 10
104.950699843554
 20
-126.3704087683206
 10
105.1346679424663
 20
-126.1630140201086
 10
105.4075195048981
 20
-126.1630140201086
 10
105.6362738451187
 20
-126.1630140201086
 10
105.7354925950939
 20
-126.27945824751
 10
105.9621798780233
 20
-126.5884833125369
 97
        0
 97
        0
 75
     2
 76
     1
 98
        0
  0
SPLINE
  5
CF
330
C9
100
AcDbEntity
  8
_U+30EC_U+30A4_U+30E4_U+30FC 1
370
     0
100
AcDbSpline
210
0.0
220
0.0
230
1.0
 70
    11
 71
     3
 72
    29
 73
    25
 74
     0
 42
0.0000000001
 43
0.0000000001
 12
1.0
 22
0.0
 32
0.0
 13
1.0
 23
0.0
 33
0.0
 40
0.0
 40
0.0
 40
0.0
 40
0.0
 40
1.0
 40
1.0
 40
1.0
 40
2.0
 40
2.0
 40
2.0
 40
3.0
 40
3.0
 40
3.0
 40
4.0
 40
4.0
 40
4.0
 40
5.0
 40
5.0
 40
5.0
 40
6.0
 40
6.0
 40
6.0
 40
7.0
 40
7.0
 40
7.0
 40
8.0
 40
8.0
 40
8.0
 40
8.0
 10
106.3659450688946
 20
-125.106747744331
 30
0.0
 10
106.5754068743978
 20
-125.2149237425678
 30
0.0
 10
106.5946994091152
 20
-125.3882120454759
 30
0.0
 10
106.5946994091152
 20
-125.5046562728773
 30
0.0
 10
106.5946994091152
 20
-125.6655422320385
 30
0.0
 10
106.5478461105158
 20
-125.8071356564822
 30
0.0
 10
106.3659450688946
 20
-125.9022202918751
 30
0.0
 10
106.1716416835265
 20
-126.0059176659812
 30
0.0
 10
105.9346191141414
 20
-126.0252102006986
 30
0.0
 10
105.7720106072376
 20
-126.0252102006986
 30
0.0
 10
105.6280056159541
 20
-126.0252102006986
 30
0.0
 10
105.3758246264338
 20
-126.0079847232723
 30
0.0
 10
105.1773871264834
 20
-125.9022202918751
 30
0.0
 10
104.9741264928537
 20
-125.7943888031868
 30
0.0
 10
104.950699843554
 20
-125.6335028440257
 30
0.0
 10
104.950699843554
 20
-125.5046562728773
 30
0.0
 10
104.950699843554
 20
-125.3458373710073
 30
0.0
 10
104.9954860848623
 20
-125.2021768892724
 30
0.0
 10
105.1773871264834
 20
-125.106747744331
 30
0.0
 10
105.3696234545604
 20
-125.0075289943558
 30
0.0
 10
105.598377794781
 20
-124.9841023450561
 30
0.0
 10
105.7720106072376
 20
-124.9841023450561
 30
0.0
 10
105.942887343306
 20
-124.9841023450561
 30
0.0
 10
106.1737087408177
 20
-125.0054619370646
 30
0.0
 10
106.3659450688946
 20
-125.106747744331
 30
0.0
  0
SPLINE
  5
D0
330
C9
100
AcDbEntity
  8
_U+30EC_U+30A4_U+30E4_U+30FC 1
370
     0
100
AcDbSpline
210
0.0
220
0.0
230
1.0
 70
    11
 71
     3
 72
    17
 73
    13
 74
     0
 42
0.0000000001
 43
0.0000000001
 12
1.0
 22
0.0
 32
0.0
 13
1.0
 23
0.0
 33
0.0
 40
0.0
 40
0.0
 40
0.0
 40
0.0
 40
1.0
 40
1.0
 40
1.0
 40
2.0
 40
2.0
 40
2.0
 40
3.0
 40
3.0
 40
3.0
 40
4.0
 40
4.0
 40
4.0
 40
4.0
 10
105.143625190728
 20
-125.5046562728773
 30
0.0
 10
105.143625190728
 20
-125.7544256955579
 30
0.0
 10
105.4268120396155
 20
-125.8009344846088
 30
0.0
 10
105.7720106072376
 20
-125.8009344846088
 30
0.0
 10
106.0910264491717
 20
-125.8009344846088
 30
0.0
 10
106.3997070046501
 20
-125.7647609820137
 30
0.0
 10
106.3997070046501
 20
-125.5046562728773
 30
0.0
 10
106.3997070046501
 20
-125.2569539074879
 30
0.0
 10
106.1185872130537
 20
-125.2083780611458
 30
0.0
 10
105.7720106072376
 20
-125.2083780611458
 30
0.0
 10
105.4523057462064
 20
-125.2083780611458
 30
0.0
 10
105.143625190728
 20
-125.2466186210321
 30
0.0
 10
105.143625190728
 20
-125.5046562728773
 30
0.0
  0
HATCH
  5
D1
330
C9
100
AcDbEntity
  8
_U+30EC_U+30A4_U+30E4_U+30FC 1
 62
   179
420
  2234388
100
AcDbHatch
 10
0.0
 20
0.0
 30
0.0
210
0.0
220
0.0
230
1.0
  2
SOLID
 70
     1
 71
     0
 91
        2
 92
        1
 93
        1
 72
     4
 94
        3
 73
     0
 74
     1
 95
       29
 96
       25
 40
0.0
 40
0.0
 40
0.0
 40
0.0
 40
1.0
 40
1.0
 40
1.0
 40
2.0
 40
2.0
 40
2.0
 40
3.0
 40
3.0
 40
3.0
 40
4.0
 40
4.0
 40
4.0
 40
5.0
 40
5.0
 40
5.0
 40
6.0
 40
6.0
 40
6.0
 40
7.0
 40
7.0
 40
7.0
 40
8.0
 40
8.0
 40
8.0
 40
8.0
 10
106.3659450688946
 20
-125.106747744331
 10
106.5754068743978
 20
-125.2149237425678
 10
106.5946994091152
 20
-125.3882120454759
 10
106.5946994091152
 20
-125.5046562728773
 10
106.5946994091152
 20
-125.6655422320385
 10
106.5478461105158
 20
-125.8071356564822
 10
106.3659450688946
 20
-125.9022202918751
 10
106.1716416835265
 20
-126.0059176659812
 10
105.9346191141414
 20
-126.0252102006986
 10
105.7720106072376
 20
-126.0252102006986
 10
105.6280056159541
 20
-126.0252102006986
 10
105.3758246264338
 20
-126.0079847232723
 10
105.1773871264834
 20
-125.9022202918751
 10
104.9741264928537
 20
-125.7943888031868
 10
104.950699843554
 20
-125.6335028440257
 10
104.950699843554
 20
-125.5046562728773
 10
104.950699843554
 20
-125.3458373710073
 10
104.9954860848623
 20
-125.2021768892724
 10
105.1773871264834
 20
-125.106747744331
 10
105.3696234545604
 20
-125.0075289943558
 10
105.598377794781
 20
-124.9841023450561
 10
105.7720106072376
 20
-124.9841023450561
 10
105.942887343306
 20
-124.9841023450561
 10
106.1737087408177
 20
-125.0054619370646
 10
106.3659450688946
 20
-125.106747744331
 97
        0
 97
        0
 92
        1
 93
        1
 72
     4
 94
        3
 73
     0
 74
     1
 95
       17
 96
       13
 40
0.0
 40
0.0
 40
0.0
 40
0.0
 40
1.0
 40
1.0
 40
1.0
 40
2.0
 40
2.0
 40
2.0
 40
3.0
 40
3.0
 40
3.0
 40
4.0
 40
4.0
 40
4.0
 40
4.0
 10
105.143625190728
 20
-125.5046562728773
 10
105.143625190728
 20
-125.7544256955579
 10
105.4268120396155
 20
-125.8009344846088
 10
105.7720106072376
 20
-125.8009344846088
 10
106.0910264491717
 20
-125.8009344846088
 10
106.3997070046501
 20
-125.7647609820137
 10
106.3997070046501
 20
-125.5046562728773
 10
106.3997070046501
 20
-125.2569539074879
 10
106.1185872130537
 20
-125.2083780611458
 10
105.7720106072376
 20
-125.2083780611458
 10
105.4523057462064
 20
-125.2083780611458
 10
105.143625190728
 20
-125.2466186210321
 10
105.143625190728
 20
-125.5046562728773
 97
        0
 97
        0
 75
     2
 76
     1
 98
        0
  0
ENDBLK
  5
CC
330
C9
100
AcDbEntity
  8
0
100
AcDbBlockEnd
  0
BLOCK
  5
DC
330
DA
100
AcDbEntity
  8
0
100
AcDbBlockBegin
  2
block 5
 70
     0
 10
0.0
 20
0.0
 30
0.0
  3
block 5
  1

  0
SPLINE
  5
DE
330
DA
100
AcDbEntity
  8
_U+30EC_U+30A4_U+30E4_U+30FC 1
370
     0
100
AcDbSpline
210
0.0
220
0.0
230
1.0
 70
    11
 71
     3
 72
    44
 73
    40
 74
     0
 42
0.0000000001
 43
0.0000000001
 12
1.0
 22
0.0
 32
0.0
 13
1.0
 23
0.0
 33
0.0
 40
0.0
 40
0.0
 40
0.0
 40
0.0
 40
1.0
 40
1.0
 40
1.0
 40
2.0
 40
2.0
 40
2.0
 40
3.0
 40
3.0
 40
3.0
 40
4.0
 40
4.0
 40
4.0
 40
5.0
 40
5.0
 40
5.0
 40
6.0
 40
6.0
 40
6.0
 40
7.0
 40
7.0
 40
7.0
 40
8.0
 40
8.0
 40
8.0
 40
9.0
 40
9.0
 40
9.0
 40
10.0
 40
10.0
 40
10.0
 40
11.0
 40
11.0
 40
11.0
 40
12.0
 40
12.0
 40
12.0
 40
13.0
 40
13.0
 40
13.0
 40
13.0
 10
72.3409762731474
 20
-140.7507540880762
 30
0.0
 10
72.3175496238477
 20
-140.7063123563165
 30
0.0
 10
72.29653454138767
 20
-140.6536023953922
 30
0.0
 10
72.29429522932226
 20
-140.4227809978804
 30
0.0
 10
72.29016111473996
 20
-140.1795572566218
 30
0.0
 10
72.23090547239367
 20
-140.1096218182712
 30
0.0
 10
72.05313854535477
 20
-140.1096218182712
 30
0.0
 10
72.05313854535477
 20
-140.1096218182712
 30
0.0
 10
71.64489473035268
 20
-140.1096218182712
 30
0.0
 10
71.64489473035268
 20
-140.1096218182712
 30
0.0
 10
71.64489473035268
 20
-140.1096218182712
 30
0.0
 10
71.64489473035268
 20
-140.7507540880762
 30
0.0
 10
71.64489473035268
 20
-140.7507540880762
 30
0.0
 10
71.64489473035268
 20
-140.7507540880762
 30
0.0
 10
71.4101114730329
 20
-140.7507540880762
 30
0.0
 10
71.4101114730329
 20
-140.7507540880762
 30
0.0
 10
71.4101114730329
 20
-140.7507540880762
 30
0.0
 10
71.4101114730329
 20
-139.2063177820387
 30
0.0
 10
71.4101114730329
 20
-139.2063177820387
 30
0.0
 10
71.4101114730329
 20
-139.2063177820387
 30
0.0
 10
72.08500567859333
 20
-139.2063177820387
 30
0.0
 10
72.08500567859333
 20
-139.2063177820387
 30
0.0
 10
72.39161917678057
 20
-139.2063177820387
 30
0.0
 10
72.55870630781519
 20
-139.3778835372042
 30
0.0
 10
72.55870630781519
 20
-139.6338541317582
 30
0.0
 10
72.55870630781519
 20
-139.6844970353914
 30
0.0
 10
72.55026582387633
 20
-139.7671793270374
 30
0.0
 10
72.5058240921166
 20
-139.8474500518437
 30
0.0
 10
72.44674070454457
 20
-139.9511474259497
 30
0.0
 10
72.38111163555055
 20
-139.9700954511186
 30
0.0
 10
72.31978893591311
 20
-139.9869764189963
 30
0.0
 10
72.45724824577458
 20
-140.0293510934649
 30
0.0
 10
72.52494437205974
 20
-140.0779269398069
 30
0.0
 10
72.5292507414163
 20
-140.3931531767073
 30
0.0
 10
72.5333848559986
 20
-140.6639376818479
 30
0.0
 10
72.56938610381947
 20
-140.6956325603122
 30
0.0
 10
72.63708223010462
 20
-140.7507540880762
 30
0.0
 10
72.63708223010462
 20
-140.7507540880762
 30
0.0
 10
72.3409762731474
 20
-140.7507540880762
 30
0.0
 10
72.3409762731474
 20
-140.7507540880762
 30
0.0
  0
SPLINE
  5
DF
330
DA
100
AcDbEntity
  8
_U+30EC_U+30A4_U+30E4_U+30FC 1
370
     0
100
AcDbSpline
210
0.0
220
0.0
230
1.0
 70
    11
 71
     3
 72
    20
 73
    16
 74
     0
 42
0.0000000001
 43
0.0000000001
 12
1.0
 22
0.0
 32
0.0
 13
1.0
 23
0.0
 33
0.0
 40
0.0
 40
0.0
 40
0.0
 40
0.0
 40
1.0
 40
1.0
 40
1.0
 40
2.0
 40
2.0
 40
2.0
 40
3.0
 40
3.0
 40
3.0
 40
4.0
 40
4.0
 40
4.0
 40
5.0
 40
5.0
 40
5.0
 40
5.0
 10
72.08913979317563
 20
-139.417846644833
 30
0.0
 10
72.08913979317563
 20
-139.417846644833
 30
0.0
 10
71.64489473035268
 20
-139.417846644833
 30
0.0
 10
71.64489473035268
 20
-139.417846644833
 30
0.0
 10
71.64489473035268
 20
-139.417846644833
 30
0.0
 10
71.64489473035268
 20
-139.8980929554769
 30
0.0
 10
71.64489473035268
 20
-139.8980929554769
 30
0.0
 10
71.64489473035268
 20
-139.8980929554769
 30
0.0
 10
72.08707273588449
 20
-139.8980929554769
 30
0.0
 10
72.08707273588449
 20
-139.8980929554769
 30
0.0
 10
72.18646374063394
 20
-139.8980929554769
 30
0.0
 10
72.32185599320427
 20
-139.8219563452529
 30
0.0
 10
72.32185599320427
 20
-139.6507350996359
 30
0.0
 10
72.32185599320427
 20
-139.5725314321208
 30
0.0
 10
72.28792180267455
 20
-139.417846644833
 30
0.0
 10
72.08913979317563
 20
-139.417846644833
 30
0.0
  0
HATCH
  5
E0
330
DA
100
AcDbEntity
  8
_U+30EC_U+30A4_U+30E4_U+30FC 1
 62
   179
420
  2234388
100
AcDbHatch
 10
0.0
 20
0.0
 30
0.0
210
0.0
220
0.0
230
1.0
  2
SOLID
 70
     1
 71
     0
 91
        2
 92
        1
 93
        1
 72
     4
 94
        3
 73
     0
 74
     1
 95
       44
 96
       40
 40
0.0
 40
0.0
 40
0.0
 40
0.0
 40
1.0
 40
1.0
 40
1.0
 40
2.0
 40
2.0
 40
2.0
 40
3.0
 40
3.0
 40
3.0
 40
4.0
 40
4.0
 40
4.0
 40
5.0
 40
5.0
 40
5.0
 40
6.0
 40
6.0
 40
6.0
 40
7.0
 40
7.0
 40
7.0
 40
8.0
 40
8.0
 40
8.0
 40
9.0
 40
9.0
 40
9.0
 40
10.0
 40
10.0
 40
10.0
 40
11.0
 40
11.0
 40
11.0
 40
12.0
 40
12.0
 40
12.0
 40
13.0
 40
13.0
 40
13.0
 40
13.0
 10
72.3409762731474
 20
-140.7507540880762
 10
72.3175496238477
 20
-140.7063123563165
 10
72.29653454138767
 20
-140.6536023953922
 10
72.29429522932226
 20
-140.4227809978804
 10
72.29016111473996
 20
-140.1795572566218
 10
72.23090547239367
 20
-140.1096218182712
 10
72.05313854535477
 20
-140.1096218182712
 10
72.05313854535477
 20
-140.1096218182712
 10
71.64489473035268
 20
-140.1096218182712
 10
71.64489473035268
 20
-140.1096218182712
 10
71.64489473035268
 20
-140.1096218182712
 10
71.64489473035268
 20
-140.7507540880762
 10
71.64489473035268
 20
-140.7507540880762
 10
71.64489473035268
 20
-140.7507540880762
 10
71.4101114730329
 20
-140.7507540880762
 10
71.4101114730329
 20
-140.7507540880762
 10
71.4101114730329
 20
-140.7507540880762
 10
71.4101114730329
 20
-139.2063177820387
 10
71.4101114730329
 20
-139.2063177820387
 10
71.4101114730329
 20
-139.2063177820387
 10
72.08500567859333
 20
-139.2063177820387
 10
72.08500567859333
 20
-139.2063177820387
 10
72.39161917678057
 20
-139.2063177820387
 10
72.55870630781519
 20
-139.3778835372042
 10
72.55870630781519
 20
-139.6338541317582
 10
72.55870630781519
 20
-139.6844970353914
 10
72.55026582387633
 20
-139.7671793270374
 10
72.5058240921166
 20
-139.8474500518437
 10
72.44674070454457
 20
-139.9511474259497
 10
72.38111163555055
 20
-139.9700954511186
 10
72.31978893591311
 20
-139.9869764189963
 10
72.45724824577458
 20
-140.0293510934649
 10
72.52494437205974
 20
-140.0779269398069
 10
72.5292507414163
 20
-140.3931531767073
 10
72.5333848559986
 20
-140.6639376818479
 10
72.56938610381947
 20
-140.6956325603122
 10
72.63708223010462
 20
-140.7507540880762
 10
72.63708223010462
 20
-140.7507540880762
 10
72.3409762731474
 20
-140.7507540880762
 10
72.3409762731474
 20
-140.7507540880762
 97
        0
 97
        0
 92
        1
 93
        1
 72
     4
 94
        3
 73
     0
 74
     1
 95
       20
 96
       16
 40
0.0
 40
0.0
 40
0.0
 40
0.0
 40
1.0
 40
1.0
 40
1.0
 40
2.0
 40
2.0
 40
2.0
 40
3.0
 40
3.0
 40
3.0
 40
4.0
 40
4.0
 40
4.0
 40
5.0
 40
5.0
 40
5.0
 40
5.0
 10
72.08913979317563
 20
-139.417846644833
 10
72.08913979317563
 20
-139.417846644833
 10
71.64489473035268
 20
-139.417846644833
 10
71.64489473035268
 20
-139.417846644833
 10
71.64489473035268
 20
-139.417846644833
 10
71.64489473035268
 20
-139.8980929554769
 10
71.64489473035268
 20
-139.8980929554769
 10
71.64489473035268
 20
-139.8980929554769
 10
72.08707273588449
 20
-139.8980929554769
 10
72.08707273588449
 20
-139.8980929554769
 10
72.18646374063394
 20
-139.8980929554769
 10
72.32185599320427
 20
-139.8219563452529
 10
72.32185599320427
 20
-139.6507350996359
 10
72.32185599320427
 20
-139.5725314321208
 10
72.28792180267455
 20
-139.417846644833
 10
72.08913979317563
 20
-139.417846644833
 97
        0
 97
        0
 75
     2
 76
     1
 98
        0
  0
SPLINE
  5
E1
330
DA
100
AcDbEntity
  8
_U+30EC_U+30A4_U+30E4_U+30FC 1
370
     0
100
AcDbSpline
210
0.0
220
0.0
230
1.0
 70
    11
 71
     3
 72
    44
 73
    40
 74
     0
 42
0.0000000001
 43
0.0000000001
 12
1.0
 22
0.0
 32
0.0
 13
1.0
 23
0.0
 33
0.0
 40
0.0
 40
0.0
 40
0.0
 40
0.0
 40
1.0
 40
1.0
 40
1.0
 40
2.0
 40
2.0
 40
2.0
 40
3.0
 40
3.0
 40
3.0
 40
4.0
 40
4.0
 40
4.0
 40
5.0
 40
5.0
 40
5.0
 40
6.0
 40
6.0
 40
6.0
 40
7.0
 40
7.0
 40
7.0
 40
8.0
 40
8.0
 40
8.0
 40
9.0
 40
9.0
 40
9.0
 40
10.0
 40
10.0
 40
10.0
 40
11.0
 40
11.0
 40
11.0
 40
12.0
 40
12.0
 40
12.0
 40
13.0
 40
13.0
 40
13.0
 40
13.0
 10
73.36985403981726
 20
-140.1688774606175
 30
0.0
 10
73.1519517503752
 20
-140.3276963624875
 30
0.0
 10
73.0587619174992
 20
-140.4017659154204
 30
0.0
 10
73.01018607115718
 20
-140.5454263971553
 30
0.0
 10
73.01018607115718
 20
-140.5454263971553
 30
0.0
 10
73.78860539604938
 20
-140.5454263971553
 30
0.0
 10
73.78860539604938
 20
-140.5454263971553
 30
0.0
 10
73.78860539604938
 20
-140.5454263971553
 30
0.0
 10
73.78860539604938
 20
-140.7507540880762
 30
0.0
 10
73.78860539604938
 20
-140.7507540880762
 30
0.0
 10
73.78860539604938
 20
-140.7507540880762
 30
0.0
 10
72.76058890325083
 20
-140.7507540880762
 30
0.0
 10
72.76058890325083
 20
-140.7507540880762
 30
0.0
 10
72.79228378171513
 20
-140.3931531767073
 30
0.0
 10
72.85774059593487
 20
-140.3149495091921
 30
0.0
 10
73.24290227118581
 20
-140.0166042401695
 30
0.0
 10
73.49887286573987
 20
-139.8178222306705
 30
0.0
 10
73.56432967995961
 20
-139.7499538496111
 30
0.0
 10
73.56432967995961
 20
-139.6124945397497
 30
0.0
 10
73.56432967995961
 20
-139.4939832550571
 30
0.0
 10
73.49249943909216
 20
-139.3630696266176
 30
0.0
 10
73.29578448688439
 20
-139.3630696266176
 30
0.0
 10
73.03550752297376
 20
-139.3630696266176
 30
0.0
 10
73.0270670390349
 20
-139.5935465145808
 30
0.0
 10
73.02276066967833
 20
-139.7099907419822
 30
0.0
 10
73.02276066967833
 20
-139.7099907419822
 30
0.0
 10
72.79865720836284
 20
-139.7099907419822
 30
0.0
 10
72.79865720836284
 20
-139.7099907419822
 30
0.0
 10
72.8070976923017
 20
-139.5828667185765
 30
0.0
 10
72.81760523353171
 20
-139.4709011153059
 30
0.0
 10
72.89804821311229
 20
-139.3523898306133
 30
0.0
 10
73.00794675909177
 20
-139.1915038714521
 30
0.0
 10
73.19415417006952
 20
-139.1577419356967
 30
0.0
 10
73.31059839747097
 20
-139.1577419356967
 30
0.0
 10
73.58775632925932
 20
-139.1577419356967
 30
0.0
 10
73.79497882269709
 20
-139.341710034609
 30
0.0
 10
73.79497882269709
 20
-139.6145615970408
 30
0.0
 10
73.79497882269709
 20
-139.8433159372614
 30
0.0
 10
73.67870685006991
 20
-139.9425346872366
 30
0.0
 10
73.36985403981726
 20
-140.1688774606175
 30
0.0
  0
HATCH
  5
E2
330
DA
100
AcDbEntity
  8
_U+30EC_U+30A4_U+30E4_U+30FC 1
 62
   179
420
  2234388
100
AcDbHatch
 10
0.0
 20
0.0
 30
0.0
210
0.0
220
0.0
230
1.0
  2
SOLID
 70
     1
 71
     0
 91
        1
 92
        1
 93
        1
 72
     4
 94
        3
 73
     0
 74
     1
 95
       44
 96
       40
 40
0.0
 40
0.0
 40
0.0
 40
0.0
 40
1.0
 40
1.0
 40
1.0
 40
2.0
 40
2.0
 40
2.0
 40
3.0
 40
3.0
 40
3.0
 40
4.0
 40
4.0
 40
4.0
 40
5.0
 40
5.0
 40
5.0
 40
6.0
 40
6.0
 40
6.0
 40
7.0
 40
7.0
 40
7.0
 40
8.0
 40
8.0
 40
8.0
 40
9.0
 40
9.0
 40
9.0
 40
10.0
 40
10.0
 40
10.0
 40
11.0
 40
11.0
 40
11.0
 40
12.0
 40
12.0
 40
12.0
 40
13.0
 40
13.0
 40
13.0
 40
13.0
 10
73.36985403981726
 20
-140.1688774606175
 10
73.1519517503752
 20
-140.3276963624875
 10
73.0587619174992
 20
-140.4017659154204
 10
73.01018607115718
 20
-140.5454263971553
 10
73.01018607115718
 20
-140.5454263971553
 10
73.78860539604938
 20
-140.5454263971553
 10
73.78860539604938
 20
-140.5454263971553
 10
73.78860539604938
 20
-140.5454263971553
 10
73.78860539604938
 20
-140.7507540880762
 10
73.78860539604938
 20
-140.7507540880762
 10
73.78860539604938
 20
-140.7507540880762
 10
72.76058890325083
 20
-140.7507540880762
 10
72.76058890325083
 20
-140.7507540880762
 10
72.79228378171513
 20
-140.3931531767073
 10
72.85774059593487
 20
-140.3149495091921
 10
73.24290227118581
 20
-140.0166042401695
 10
73.49887286573987
 20
-139.8178222306705
 10
73.56432967995961
 20
-139.7499538496111
 10
73.56432967995961
 20
-139.6124945397497
 10
73.56432967995961
 20
-139.4939832550571
 10
73.49249943909216
 20
-139.3630696266176
 10
73.29578448688439
 20
-139.3630696266176
 10
73.03550752297376
 20
-139.3630696266176
 10
73.0270670390349
 20
-139.5935465145808
 10
73.02276066967833
 20
-139.7099907419822
 10
73.02276066967833
 20
-139.7099907419822
 10
72.79865720836284
 20
-139.7099907419822
 10
72.79865720836284
 20
-139.7099907419822
 10
72.8070976923017
 20
-139.5828667185765
 10
72.81760523353171
 20
-139.4709011153059
 10
72.89804821311229
 20
-139.3523898306133
 10
73.00794675909177
 20
-139.1915038714521
 10
73.19415417006952
 20
-139.1577419356967
 10
73.31059839747097
 20
-139.1577419356967
 10
73.58775632925932
 20
-139.1577419356967
 10
73.79497882269709
 20
-139.341710034609
 10
73.79497882269709
 20
-139.6145615970408
 10
73.79497882269709
 20
-139.8433159372614
 10
73.67870685006991
 20
-139.9425346872366
 10
73.36985403981726
 20
-140.1688774606175
 97
        0
 97
        0
 75
     2
 76
     1
 98
        0
  0
POLYLINE
  5
E3
330
DA
100
AcDbEntity
  8
_U+30EC_U+30A4_U+30E4_U+30FC 1
370
     0
100
AcDb2dPolyline
 66
     1
 10
0.0
 20
0.0
 30
0.0
  0
VERTEX
  5
E4
330
E3
100
AcDbEntity
  8
_U+30EC_U+30A4_U+30E4_U+30FC 1
370
     0
100
AcDbVertex
100
AcDb2dVertex
 10
74.0135701312362
 20
-140.7507540880762
 30
0.0
  0
VERTEX
  5
E5
330
E3
100
AcDbEntity
  8
_U+30EC_U+30A4_U+30E4_U+30FC 1
370
     0
100
AcDbVertex
100
AcDb2dVertex
 10
74.0135701312362
 20
-140.4989176081044
 30
0.0
  0
VERTEX
  5
E6
330
E3
100
AcDbEntity
  8
_U+30EC_U+30A4_U+30E4_U+30FC 1
370
     0
100
AcDbVertex
100
AcDb2dVertex
 10
74.2652343564337
 20
-140.4989176081044
 30
0.0
  0
VERTEX
  5
E7
330
E3
100
AcDbEntity
  8
_U+30EC_U+30A4_U+30E4_U+30FC 1
370
     0
100
AcDbVertex
100
AcDb2dVertex
 10
74.2652343564337
 20
-140.7507540880762
 30
0.0
  0
VERTEX
  5
E8
330
E3
100
AcDbEntity
  8
_U+30EC_U+30A4_U+30E4_U+30FC 1
370
     0
100
AcDbVertex
100
AcDb2dVertex
 10
74.0135701312362
 20
-140.7507540880762
 30
0.0
  0
SEQEND
  5
E9
330
E3
100
AcDbEntity
  8
_U+30EC_U+30A4_U+30E4_U+30FC 1
370
     0
  0
HATCH
  5
EA
330
DA
100
AcDbEntity
  8
_U+30EC_U+30A4_U+30E4_U+30FC 1
 62
   179
420
  2234388
100
AcDbHatch
 10
0.0
 20
0.0
 30
0.0
210
0.0
220
0.0
230
1.0
  2
SOLID
 70
     1
 71
     0
 91
        1
 92
        1
 93
        4
 72
     1
 10
74.0135701312362
 20
-140.7507540880762
 11
74.0135701312362
 21
-140.4989176081044
 72
     1
 10
74.0135701312362
 20
-140.4989176081044
 11
74.2652343564337
 21
-140.4989176081044
 72
     1
 10
74.2652343564337
 20
-140.4989176081044
 11
74.2652343564337
 21
-140.7507540880762
 72
     1
 10
74.2652343564337
 20
-140.7507540880762
 11
74.0135701312362
 21
-140.7507540880762
 97
        0
 75
     2
 76
     1
 98
        0
  0
SPLINE
  5
EB
330
DA
100
AcDbEntity
  8
_U+30EC_U+30A4_U+30E4_U+30FC 1
370
     0
100
AcDbSpline
210
0.0
220
0.0
230
1.0
 70
    11
 71
     3
 72
    53
 73
    49
 74
     0
 42
0.0000000001
 43
0.0000000001
 12
1.0
 22
0.0
 32
0.0
 13
1.0
 23
0.0
 33
0.0
 40
0.0
 40
0.0
 40
0.0
 40
0.0
 40
1.0
 40
1.0
 40
1.0
 40
2.0
 40
2.0
 40
2.0
 40
3.0
 40
3.0
 40
3.0
 40
4.0
 40
4.0
 40
4.0
 40
5.0
 40
5.0
 40
5.0
 40
6.0
 40
6.0
 40
6.0
 40
7.0
 40
7.0
 40
7.0
 40
8.0
 40
8.0
 40
8.0
 40
9.0
 40
9.0
 40
9.0
 40
10.0
 40
10.0
 40
10.0
 40
11.0
 40
11.0
 40
11.0
 40
12.0
 40
12.0
 40
12.0
 40
13.0
 40
13.0
 40
13.0
 40
14.0
 40
14.0
 40
14.0
 40
15.0
 40
15.0
 40
15.0
 40
16.0
 40
16.0
 40
16.0
 40
16.0
 10
74.98284774601123
 20
-140.8013969917094
 30
0.0
 10
74.9044718237218
 20
-140.8013969917094
 30
0.0
 10
74.8030137616812
 20
-140.7845160238317
 30
0.0
 10
74.70138344486632
 20
-140.7211262669031
 30
0.0
 10
74.52792288718399
 20
-140.6112277209236
 30
0.0
 10
74.50673554994971
 20
-140.4799695829356
 30
0.0
 10
74.48778752478083
 20
-140.3721380942472
 30
0.0
 10
74.48778752478083
 20
-140.3721380942472
 30
0.0
 10
74.70982392880519
 20
-140.3721380942472
 30
0.0
 10
74.70982392880519
 20
-140.3721380942472
 30
0.0
 10
74.76494545656918
 20
-140.5709201037462
 30
0.0
 10
74.89189722520064
 20
-140.6005479249193
 30
0.0
 10
74.98491480330239
 20
-140.6005479249193
 30
0.0
 10
75.12461342522927
 20
-140.6005479249193
 30
0.0
 10
75.27688664567731
 20
-140.5009846653956
 30
0.0
 10
75.27688664567731
 20
-140.2684407201412
 30
0.0
 10
75.27688664567731
 20
-140.0124701255872
 30
0.0
 10
75.09705266134726
 20
-139.9425346872366
 30
0.0
 10
74.97647431936352
 20
-139.9425346872366
 30
0.0
 10
74.94477944089923
 20
-139.9425346872366
 30
0.0
 10
74.8030137616812
 20
-139.9425346872366
 30
0.0
 10
74.71413029816175
 20
-140.0717257679335
 30
0.0
 10
74.71413029816175
 20
-140.0717257679335
 30
0.0
 10
74.53860268318827
 20
-140.0527777427646
 30
0.0
 10
74.53860268318827
 20
-140.0527777427646
 30
0.0
 10
74.53860268318827
 20
-140.0527777427646
 30
0.0
 10
74.65918102517202
 20
-139.2063177820387
 30
0.0
 10
74.65918102517202
 20
-139.2063177820387
 30
0.0
 10
74.65918102517202
 20
-139.2063177820387
 30
0.0
 10
75.43760035006422
 20
-139.2063177820387
 30
0.0
 10
75.43760035006422
 20
-139.2063177820387
 30
0.0
 10
75.43760035006422
 20
-139.2063177820387
 30
0.0
 10
75.43760035006422
 20
-139.4009656769553
 30
0.0
 10
75.43760035006422
 20
-139.4009656769553
 30
0.0
 10
75.43760035006422
 20
-139.4009656769553
 30
0.0
 10
74.82196178685007
 20
-139.4009656769553
 30
0.0
 10
74.82196178685007
 20
-139.4009656769553
 30
0.0
 10
74.82196178685007
 20
-139.4009656769553
 30
0.0
 10
74.75650497263032
 20
-139.824023402544
 30
0.0
 10
74.75650497263032
 20
-139.824023402544
 30
0.0
 10
74.81782767226777
 20
-139.7902614667886
 30
0.0
 10
74.9003377091395
 20
-139.7499538496111
 30
0.0
 10
75.01867673905784
 20
-139.7499538496111
 30
0.0
 10
75.27258027632075
 20
-139.7499538496111
 30
0.0
 10
75.50960284570594
 20
-139.9363335153631
 30
0.0
 10
75.50960284570594
 20
-140.2494926949724
 30
0.0
 10
75.50960284570594
 20
-140.5667859891639
 30
0.0
 10
75.28532712961618
 20
-140.8013969917094
 30
0.0
 10
74.98284774601123
 20
-140.8013969917094
 30
0.0
  0
HATCH
  5
EC
330
DA
100
AcDbEntity
  8
_U+30EC_U+30A4_U+30E4_U+30FC 1
 62
   179
420
  2234388
100
AcDbHatch
 10
0.0
 20
0.0
 30
0.0
210
0.0
220
0.0
230
1.0
  2
SOLID
 70
     1
 71
     0
 91
        1
 92
        1
 93
        1
 72
     4
 94
        3
 73
     0
 74
     1
 95
       53
 96
       49
 40
0.0
 40
0.0
 40
0.0
 40
0.0
 40
1.0
 40
1.0
 40
1.0
 40
2.0
 40
2.0
 40
2.0
 40
3.0
 40
3.0
 40
3.0
 40
4.0
 40
4.0
 40
4.0
 40
5.0
 40
5.0
 40
5.0
 40
6.0
 40
6.0
 40
6.0
 40
7.0
 40
7.0
 40
7.0
 40
8.0
 40
8.0
 40
8.0
 40
9.0
 40
9.0
 40
9.0
 40
10.0
 40
10.0
 40
10.0
 40
11.0
 40
11.0
 40
11.0
 40
12.0
 40
12.0
 40
12.0
 40
13.0
 40
13.0
 40
13.0
 40
14.0
 40
14.0
 40
14.0
 40
15.0
 40
15.0
 40
15.0
 40
16.0
 40
16.0
 40
16.0
 40
16.0
 10
74.98284774601123
 20
-140.8013969917094
 10
74.9044718237218
 20
-140.8013969917094
 10
74.8030137616812
 20
-140.7845160238317
 10
74.70138344486632
 20
-140.7211262669031
 10
74.52792288718399
 20
-140.6112277209236
 10
74.50673554994971
 20
-140.4799695829356
 10
74.48778752478083
 20
-140.3721380942472
 10
74.48778752478083
 20
-140.3721380942472
 10
74.70982392880519
 20
-140.3721380942472
 10
74.70982392880519
 20
-140.3721380942472
 10
74.76494545656918
 20
-140.5709201037462
 10
74.89189722520064
 20
-140.6005479249193
 10
74.98491480330239
 20
-140.6005479249193
 10
75.12461342522927
 20
-140.6005479249193
 10
75.27688664567731
 20
-140.5009846653956
 10
75.27688664567731
 20
-140.2684407201412
 10
75.27688664567731
 20
-140.0124701255872
 10
75.09705266134726
 20
-139.9425346872366
 10
74.97647431936352
 20
-139.9425346872366
 10
74.94477944089923
 20
-139.9425346872366
 10
74.8030137616812
 20
-139.9425346872366
 10
74.71413029816175
 20
-140.0717257679335
 10
74.71413029816175
 20
-140.0717257679335
 10
74.53860268318827
 20
-140.0527777427646
 10
74.53860268318827
 20
-140.0527777427646
 10
74.53860268318827
 20
-140.0527777427646
 10
74.65918102517202
 20
-139.2063177820387
 10
74.65918102517202
 20
-139.2063177820387
 10
74.65918102517202
 20
-139.2063177820387
 10
75.43760035006422
 20
-139.2063177820387
 10
75.43760035006422
 20
-139.2063177820387
 10
75.43760035006422
 20
-139.2063177820387
 10
75.43760035006422
 20
-139.4009656769553
 10
75.43760035006422
 20
-139.4009656769553
 10
75.43760035006422
 20
-139.4009656769553
 10
74.82196178685007
 20
-139.4009656769553
 10
74.82196178685007
 20
-139.4009656769553
 10
74.82196178685007
 20
-139.4009656769553
 10
74.75650497263032
 20
-139.824023402544
 10
74.75650497263032
 20
-139.824023402544
 10
74.81782767226777
 20
-139.7902614667886
 10
74.9003377091395
 20
-139.7499538496111
 10
75.01867673905784
 20
-139.7499538496111
 10
75.27258027632075
 20
-139.7499538496111
 10
75.50960284570594
 20
-139.9363335153631
 10
75.50960284570594
 20
-140.2494926949724
 10
75.50960284570594
 20
-140.5667859891639
 10
75.28532712961618
 20
-140.8013969917094
 10
74.98284774601123
 20
-140.8013969917094
 97
        0
 97
        0
 75
     2
 76
     1
 98
        0
  0
ENDBLK
  5
DD
330
DA
100
AcDbEntity
  8
0
100
AcDbBlockEnd
  0
BLOCK
  5
FF
330
FD
100
AcDbEntity
  8
0
100
AcDbBlockBegin
  2
block 6
 70
     0
 10
0.0
 20
0.0
 30
0.0
  3
block 6
  1

  0
SPLINE
  5
101
330
FD
100
AcDbEntity
  8
_U+30EC_U+30A4_U+30E4_U+30FC 1
370
     0
100
AcDbSpline
210
0.0
220
0.0
230
1.0
 70
    11
 71
     3
 72
    44
 73
    40
 74
     0
 42
0.0000000001
 43
0.0000000001
 12
1.0
 22
0.0
 32
0.0
 13
1.0
 23
0.0
 33
0.0
 40
0.0
 40
0.0
 40
0.0
 40
0.0
 40
1.0
 40
1.0
 40
1.0
 40
2.0
 40
2.0
 40
2.0
 40
3.0
 40
3.0
 40
3.0
 40
4.0
 40
4.0
 40
4.0
 40
5.0
 40
5.0
 40
5.0
 40
6.0
 40
6.0
 40
6.0
 40
7.0
 40
7.0
 40
7.0
 40
8.0
 40
8.0
 40
8.0
 40
9.0
 40
9.0
 40
9.0
 40
10.0
 40
10.0
 40
10.0
 40
11.0
 40
11.0
 40
11.0
 40
12.0
 40
12.0
 40
12.0
 40
13.0
 40
13.0
 40
13.0
 40
13.0
 10
109.4207112356657
 20
-139.0371635937129
 30
0.0
 10
109.5795301375357
 20
-139.2548936283807
 30
0.0
 10
109.6535996904686
 20
-139.3479112064825
 30
0.0
 10
109.7972601722035
 20
-139.396831562373
 30
0.0
 10
109.7972601722035
 20
-139.396831562373
 30
0.0
 10
109.7972601722035
 20
-138.6182399827066
 30
0.0
 10
109.7972601722035
 20
-138.6182399827066
 30
0.0
 10
109.7972601722035
 20
-138.6182399827066
 30
0.0
 10
110.0025878631244
 20
-138.6182399827066
 30
0.0
 10
110.0025878631244
 20
-138.6182399827066
 30
0.0
 10
110.0025878631244
 20
-138.6182399827066
 30
0.0
 10
110.0025878631244
 20
-139.6462564755051
 30
0.0
 10
110.0025878631244
 20
-139.6462564755051
 30
0.0
 10
109.6449869517554
 20
-139.6145615970408
 30
0.0
 10
109.5667832842403
 20
-139.5491047828211
 30
0.0
 10
109.2684380152176
 20
-139.1639431075701
 30
0.0
 10
109.0696560057187
 20
-138.9079725130161
 30
0.0
 10
109.0017876246593
 20
-138.8425156987963
 30
0.0
 10
108.8643283147978
 20
-138.8425156987963
 30
0.0
 10
108.7458170301052
 20
-138.8425156987963
 30
0.0
 10
108.6149034016657
 20
-138.914518194438
 30
0.0
 10
108.6149034016657
 20
-139.1112331466458
 30
0.0
 10
108.6149034016657
 20
-139.3713378557822
 30
0.0
 10
108.8453802896289
 20
-139.3796060849468
 30
0.0
 10
108.9618245170304
 20
-139.3840847090776
 30
0.0
 10
108.9618245170304
 20
-139.3840847090776
 30
0.0
 10
108.9618245170304
 20
-139.6083604251673
 30
0.0
 10
108.9618245170304
 20
-139.6083604251673
 30
0.0
 10
108.8347004936247
 20
-139.5997476864542
 30
0.0
 10
108.722734890354
 20
-139.58906789045
 30
0.0
 10
108.6042236056614
 20
-139.5087971656436
 30
0.0
 10
108.4433376465003
 20
-139.3988986196642
 30
0.0
 10
108.4095757107448
 20
-139.2125189539122
 30
0.0
 10
108.4095757107448
 20
-139.0964192360592
 30
0.0
 10
108.4095757107448
 20
-138.8190890494966
 30
0.0
 10
108.5935438096572
 20
-138.6116943012846
 30
0.0
 10
108.866395372089
 20
-138.6116943012846
 30
0.0
 10
109.0951497123095
 20
-138.6116943012846
 30
0.0
 10
109.1943684622847
 20
-138.728138528686
 30
0.0
 10
109.4207112356657
 20
-139.0371635937129
 30
0.0
  0
HATCH
  5
102
330
FD
100
AcDbEntity
  8
_U+30EC_U+30A4_U+30E4_U+30FC 1
 62
   179
420
  2234388
100
AcDbHatch
 10
0.0
 20
0.0
 30
0.0
210
0.0
220
0.0
230
1.0
  2
SOLID
 70
     1
 71
     0
 91
        1
 92
        1
 93
        1
 72
     4
 94
        3
 73
     0
 74
     1
 95
       44
 96
       40
 40
0.0
 40
0.0
 40
0.0
 40
0.0
 40
1.0
 40
1.0
 40
1.0
 40
2.0
 40
2.0
 40
2.0
 40
3.0
 40
3.0
 40
3.0
 40
4.0
 40
4.0
 40
4.0
 40
5.0
 40
5.0
 40
5.0
 40
6.0
 40
6.0
 40
6.0
 40
7.0
 40
7.0
 40
7.0
 40
8.0
 40
8.0
 40
8.0
 40
9.0
 40
9.0
 40
9.0
 40
10.0
 40
10.0
 40
10.0
 40
11.0
 40
11.0
 40
11.0
 40
12.0
 40
12.0
 40
12.0
 40
13.0
 40
13.0
 40
13.0
 40
13.0
 10
109.4207112356657
 20
-139.0371635937129
 10
109.5795301375357
 20
-139.2548936283807
 10
109.6535996904686
 20
-139.3479112064825
 10
109.7972601722035
 20
-139.396831562373
 10
109.7972601722035
 20
-139.396831562373
 10
109.7972601722035
 20
-138.6182399827066
 10
109.7972601722035
 20
-138.6182399827066
 10
109.7972601722035
 20
-138.6182399827066
 10
110.0025878631244
 20
-138.6182399827066
 10
110.0025878631244
 20
-138.6182399827066
 10
110.0025878631244
 20
-138.6182399827066
 10
110.0025878631244
 20
-139.6462564755051
 10
110.0025878631244
 20
-139.6462564755051
 10
109.6449869517554
 20
-139.6145615970408
 10
109.5667832842403
 20
-139.5491047828211
 10
109.2684380152176
 20
-139.1639431075701
 10
109.0696560057187
 20
-138.9079725130161
 10
109.0017876246593
 20
-138.8425156987963
 10
108.8643283147978
 20
-138.8425156987963
 10
108.7458170301052
 20
-138.8425156987963
 10
108.6149034016657
 20
-138.914518194438
 10
108.6149034016657
 20
-139.1112331466458
 10
108.6149034016657
 20
-139.3713378557822
 10
108.8453802896289
 20
-139.3796060849468
 10
108.9618245170304
 20
-139.3840847090776
 10
108.9618245170304
 20
-139.3840847090776
 10
108.9618245170304
 20
-139.6083604251673
 10
108.9618245170304
 20
-139.6083604251673
 10
108.8347004936247
 20
-139.5997476864542
 10
108.722734890354
 20
-139.58906789045
 10
108.6042236056614
 20
-139.5087971656436
 10
108.4433376465003
 20
-139.3988986196642
 10
108.4095757107448
 20
-139.2125189539122
 10
108.4095757107448
 20
-139.0964192360592
 10
108.4095757107448
 20
-138.8190890494966
 10
108.5935438096572
 20
-138.6116943012846
 10
108.866395372089
 20
-138.6116943012846
 10
109.0951497123095
 20
-138.6116943012846
 10
109.1943684622847
 20
-138.728138528686
 10
109.4207112356657
 20
-139.0371635937129
 97
        0
 97
        0
 75
     2
 76
     1
 98
        0
  0
POLYLINE
  5
103
330
FD
100
AcDbEntity
  8
_U+30EC_U+30A4_U+30E4_U+30FC 1
370
     0
100
AcDb2dPolyline
 66
     1
 10
0.0
 20
0.0
 30
0.0
  0
VERTEX
  5
104
330
103
100
AcDbEntity
  8
_U+30EC_U+30A4_U+30E4_U+30FC 1
370
     0
100
AcDbVertex
100
AcDb2dVertex
 10
110.0025878631244
 20
-138.3932752475197
 30
0.0
  0
VERTEX
  5
105
330
103
100
AcDbEntity
  8
_U+30EC_U+30A4_U+30E4_U+30FC 1
370
     0
100
AcDbVertex
100
AcDb2dVertex
 10
109.7507513831526
 20
-138.3932752475197
 30
0.0
  0
VERTEX
  5
106
330
103
100
AcDbEntity
  8
_U+30EC_U+30A4_U+30E4_U+30FC 1
370
     0
100
AcDbVertex
100
AcDb2dVertex
 10
109.7507513831526
 20
-138.141438767548
 30
0.0
  0
VERTEX
  5
107
330
103
100
AcDbEntity
  8
_U+30EC_U+30A4_U+30E4_U+30FC 1
370
     0
100
AcDbVertex
100
AcDb2dVertex
 10
110.0025878631244
 20
-138.141438767548
 30
0.0
  0
VERTEX
  5
108
330
103
100
AcDbEntity
  8
_U+30EC_U+30A4_U+30E4_U+30FC 1
370
     0
100
AcDbVertex
100
AcDb2dVertex
 10
110.0025878631244
 20
-138.3932752475197
 30
0.0
  0
SEQEND
  5
109
330
103
100
AcDbEntity
  8
_U+30EC_U+30A4_U+30E4_U+30FC 1
370
     0
  0
HATCH
  5
10A
330
FD
100
AcDbEntity
  8
_U+30EC_U+30A4_U+30E4_U+30FC 1
 62
   179
420
  2234388
100
AcDbHatch
 10
0.0
 20
0.0
 30
0.0
210
0.0
220
0.0
230
1.0
  2
SOLID
 70
     1
 71
     0
 91
        1
 92
        1
 93
        4
 72
     1
 10
110.0025878631244
 20
-138.3932752475197
 11
109.7507513831526
 21
-138.3932752475197
 72
     1
 10
109.7507513831526
 20
-138.3932752475197
 11
109.7507513831526
 21
-138.141438767548
 72
     1
 10
109.7507513831526
 20
-138.141438767548
 11
110.0025878631244
 21
-138.141438767548
 72
     1
 10
110.0025878631244
 20
-138.141438767548
 11
110.0025878631244
 21
-138.3932752475197
 97
        0
 75
     2
 76
     1
 98
        0
  0
SPLINE
  5
10B
330
FD
100
AcDbEntity
  8
_U+30EC_U+30A4_U+30E4_U+30FC 1
370
     0
100
AcDbSpline
210
0.0
220
0.0
230
1.0
 70
    11
 71
     3
 72
    53
 73
    49
 74
     0
 42
0.0000000001
 43
0.0000000001
 12
1.0
 22
0.0
 32
0.0
 13
1.0
 23
0.0
 33
0.0
 40
0.0
 40
0.0
 40
0.0
 40
0.0
 40
1.0
 40
1.0
 40
1.0
 40
2.0
 40
2.0
 40
2.0
 40
3.0
 40
3.0
 40
3.0
 40
4.0
 40
4.0
 40
4.0
 40
5.0
 40
5.0
 40
5.0
 40
6.0
 40
6.0
 40
6.0
 40
7.0
 40
7.0
 40
7.0
 40
8.0
 40
8.0
 40
8.0
 40
9.0
 40
9.0
 40
9.0
 40
10.0
 40
10.0
 40
10.0
 40
11.0
 40
11.0
 40
11.0
 40
12.0
 40
12.0
 40
12.0
 40
13.0
 40
13.0
 40
13.0
 40
14.0
 40
14.0
 40
14.0
 40
15.0
 40
15.0
 40
15.0
 40
16.0
 40
16.0
 40
16.0
 40
16.0
 10
110.0532307667575
 20
-137.424169887519
 30
0.0
 10
110.0532307667575
 20
-137.5023735550341
 30
0.0
 10
110.0363497988798
 20
-137.604003871849
 30
0.0
 10
109.9729600419512
 20
-137.7056341886639
 30
0.0
 10
109.8630614959717
 20
-137.878922491572
 30
0.0
 10
109.7318033579837
 20
-137.9002820835805
 30
0.0
 10
109.6239718692954
 20
-137.9192301087494
 30
0.0
 10
109.6239718692954
 20
-137.9192301087494
 30
0.0
 10
109.6239718692954
 20
-137.6970214499507
 30
0.0
 10
109.6239718692954
 20
-137.6970214499507
 30
0.0
 10
109.8227538787943
 20
-137.6422444317353
 30
0.0
 10
109.8523816999675
 20
-137.5151204083296
 30
0.0
 10
109.8523816999675
 20
-137.4221028302278
 30
0.0
 10
109.8523816999675
 20
-137.2825764630752
 30
0.0
 10
109.7528184404437
 20
-137.1303032426271
 30
0.0
 10
109.5202744951894
 20
-137.1303032426271
 30
0.0
 10
109.2643039006353
 20
-137.1303032426271
 30
0.0
 10
109.1943684622847
 20
-137.3101372269572
 30
0.0
 10
109.1943684622847
 20
-137.4307155689409
 30
0.0
 10
109.1943684622847
 20
-137.4624104474052
 30
0.0
 10
109.1943684622847
 20
-137.604003871849
 30
0.0
 10
109.3235595429816
 20
-137.6928873353685
 30
0.0
 10
109.3235595429816
 20
-137.6928873353685
 30
0.0
 10
109.3046115178127
 20
-137.8685872051162
 30
0.0
 10
109.3046115178127
 20
-137.8685872051162
 30
0.0
 10
109.3046115178127
 20
-137.8685872051162
 30
0.0
 10
108.4581515570869
 20
-137.7480088631324
 30
0.0
 10
108.4581515570869
 20
-137.7480088631324
 30
0.0
 10
108.4581515570869
 20
-137.7480088631324
 30
0.0
 10
108.4581515570869
 20
-136.969417283466
 30
0.0
 10
108.4581515570869
 20
-136.969417283466
 30
0.0
 10
108.4581515570869
 20
-136.969417283466
 30
0.0
 10
108.6527994520035
 20
-136.969417283466
 30
0.0
 10
108.6527994520035
 20
-136.969417283466
 30
0.0
 10
108.6527994520035
 20
-136.969417283466
 30
0.0
 10
108.6527994520035
 20
-137.5850558466801
 30
0.0
 10
108.6527994520035
 20
-137.5850558466801
 30
0.0
 10
108.6527994520035
 20
-137.5850558466801
 30
0.0
 10
109.0758571775922
 20
-137.6505126608999
 30
0.0
 10
109.0758571775922
 20
-137.6505126608999
 30
0.0
 10
109.0420952418367
 20
-137.5891899612624
 30
0.0
 10
109.0017876246593
 20
-137.506852179165
 30
0.0
 10
109.0017876246593
 20
-137.3883408944724
 30
0.0
 10
109.0017876246593
 20
-137.1344373572095
 30
0.0
 10
109.1881672904113
 20
-136.8974147878243
 30
0.0
 10
109.5013264700205
 20
-136.8974147878243
 30
0.0
 10
109.818619764212
 20
-136.8974147878243
 30
0.0
 10
110.0532307667575
 20
-137.121690503914
 30
0.0
 10
110.0532307667575
 20
-137.424169887519
 30
0.0
  0
HATCH
  5
10C
330
FD
100
AcDbEntity
  8
_U+30EC_U+30A4_U+30E4_U+30FC 1
 62
   179
420
  2234388
100
AcDbHatch
 10
0.0
 20
0.0
 30
0.0
210
0.0
220
0.0
230
1.0
  2
SOLID
 70
     1
 71
     0
 91
        1
 92
        1
 93
        1
 72
     4
 94
        3
 73
     0
 74
     1
 95
       53
 96
       49
 40
0.0
 40
0.0
 40
0.0
 40
0.0
 40
1.0
 40
1.0
 40
1.0
 40
2.0
 40
2.0
 40
2.0
 40
3.0
 40
3.0
 40
3.0
 40
4.0
 40
4.0
 40
4.0
 40
5.0
 40
5.0
 40
5.0
 40
6.0
 40
6.0
 40
6.0
 40
7.0
 40
7.0
 40
7.0
 40
8.0
 40
8.0
 40
8.0
 40
9.0
 40
9.0
 40
9.0
 40
10.0
 40
10.0
 40
10.0
 40
11.0
 40
11.0
 40
11.0
 40
12.0
 40
12.0
 40
12.0
 40
13.0
 40
13.0
 40
13.0
 40
14.0
 40
14.0
 40
14.0
 40
15.0
 40
15.0
 40
15.0
 40
16.0
 40
16.0
 40
16.0
 40
16.0
 10
110.0532307667575
 20
-137.424169887519
 10
110.0532307667575
 20
-137.5023735550341
 10
110.0363497988798
 20
-137.604003871849
 10
109.9729600419512
 20
-137.7056341886639
 10
109.8630614959717
 20
-137.878922491572
 10
109.7318033579837
 20
-137.9002820835805
 10
109.6239718692954
 20
-137.9192301087494
 10
109.6239718692954
 20
-137.9192301087494
 10
109.6239718692954
 20
-137.6970214499507
 10
109.6239718692954
 20
-137.6970214499507
 10
109.8227538787943
 20
-137.6422444317353
 10
109.8523816999675
 20
-137.5151204083296
 10
109.8523816999675
 20
-137.4221028302278
 10
109.8523816999675
 20
-137.2825764630752
 10
109.7528184404437
 20
-137.1303032426271
 10
109.5202744951894
 20
-137.1303032426271
 10
109.2643039006353
 20
-137.1303032426271
 10
109.1943684622847
 20
-137.3101372269572
 10
109.1943684622847
 20
-137.4307155689409
 10
109.1943684622847
 20
-137.4624104474052
 10
109.1943684622847
 20
-137.604003871849
 10
109.3235595429816
 20
-137.6928873353685
 10
109.3235595429816
 20
-137.6928873353685
 10
109.3046115178127
 20
-137.8685872051162
 10
109.3046115178127
 20
-137.8685872051162
 10
109.3046115178127
 20
-137.8685872051162
 10
108.4581515570869
 20
-137.7480088631324
 10
108.4581515570869
 20
-137.7480088631324
 10
108.4581515570869
 20
-137.7480088631324
 10
108.4581515570869
 20
-136.969417283466
 10
108.4581515570869
 20
-136.969417283466
 10
108.4581515570869
 20
-136.969417283466
 10
108.6527994520035
 20
-136.969417283466
 10
108.6527994520035
 20
-136.969417283466
 10
108.6527994520035
 20
-136.969417283466
 10
108.6527994520035
 20
-137.5850558466801
 10
108.6527994520035
 20
-137.5850558466801
 10
108.6527994520035
 20
-137.5850558466801
 10
109.0758571775922
 20
-137.6505126608999
 10
109.0758571775922
 20
-137.6505126608999
 10
109.0420952418367
 20
-137.5891899612624
 10
109.0017876246593
 20
-137.506852179165
 10
109.0017876246593
 20
-137.3883408944724
 10
109.0017876246593
 20
-137.1344373572095
 10
109.1881672904113
 20
-136.8974147878243
 10
109.5013264700205
 20
-136.8974147878243
 10
109.818619764212
 20
-136.8974147878243
 10
110.0532307667575
 20
-137.121690503914
 10
110.0532307667575
 20
-137.424169887519
 97
        0
 97
        0
 75
     2
 76
     1
 98
        0
  0
ENDBLK
  5
100
330
FD
100
AcDbEntity
  8
0
100
AcDbBlockEnd
  0
BLOCK
  5
11F
330
11D
100
AcDbEntity
  8
0
100
AcDbBlockBegin
  2
block 7
 70
     0
 10
0.0
 20
0.0
 30
0.0
  3
block 7
  1

  0
SPLINE
  5
121
330
11D
100
AcDbEntity
  8
_U+30EC_U+30A4_U+30E4_U+30FC 1
370
     0
100
AcDbSpline
210
0.0
220
0.0
230
1.0
 70
    11
 71
     3
 72
    44
 73
    40
 74
     0
 42
0.0000000001
 43
0.0000000001
 12
1.0
 22
0.0
 32
0.0
 13
1.0
 23
0.0
 33
0.0
 40
0.0
 40
0.0
 40
0.0
 40
0.0
 40
1.0
 40
1.0
 40
1.0
 40
2.0
 40
2.0
 40
2.0
 40
3.0
 40
3.0
 40
3.0
 40
4.0
 40
4.0
 40
4.0
 40
5.0
 40
5.0
 40
5.0
 40
6.0
 40
6.0
 40
6.0
 40
7.0
 40
7.0
 40
7.0
 40
8.0
 40
8.0
 40
8.0
 40
9.0
 40
9.0
 40
9.0
 40
10.0
 40
10.0
 40
10.0
 40
11.0
 40
11.0
 40
11.0
 40
12.0
 40
12.0
 40
12.0
 40
13.0
 40
13.0
 40
13.0
 40
13.0
 10
79.60461559424816
 20
-117.5297769888467
 30
0.0
 10
79.38671330480611
 20
-117.6884236359425
 30
0.0
 10
79.2935234719301
 20
-117.7624931888754
 30
0.0
 10
79.24494762558807
 20
-117.9061536706103
 30
0.0
 10
79.24494762558807
 20
-117.9061536706103
 30
0.0
 10
80.02336695048027
 20
-117.9061536706103
 30
0.0
 10
80.02336695048027
 20
-117.9061536706103
 30
0.0
 10
80.02336695048027
 20
-117.9061536706103
 30
0.0
 10
80.02336695048027
 20
-118.1114813615312
 30
0.0
 10
80.02336695048027
 20
-118.1114813615312
 30
0.0
 10
80.02336695048027
 20
-118.1114813615312
 30
0.0
 10
78.99535045768172
 20
-118.1114813615312
 30
0.0
 10
78.99535045768172
 20
-118.1114813615312
 30
0.0
 10
79.02704533614602
 20
-117.7538804501622
 30
0.0
 10
79.09267440514003
 20
-117.6756767826471
 30
0.0
 10
79.4776638256167
 20
-117.3773315136244
 30
0.0
 10
79.73363442017076
 20
-117.1785495041255
 30
0.0
 10
79.7990912343905
 20
-117.1108533778403
 30
0.0
 10
79.7990912343905
 20
-116.9733940679789
 30
0.0
 10
79.7990912343905
 20
-116.8548827832863
 30
0.0
 10
79.72726099352305
 20
-116.7237969000725
 30
0.0
 10
79.53054604131529
 20
-116.7237969000725
 30
0.0
 10
79.27026907740466
 20
-116.7237969000725
 30
0.0
 10
79.2618285934658
 20
-116.9542737880357
 30
0.0
 10
79.25752222410924
 20
-117.0707180154372
 30
0.0
 10
79.25752222410924
 20
-117.0707180154372
 30
0.0
 10
79.03341876279373
 20
-117.0707180154372
 30
0.0
 10
79.03341876279373
 20
-117.0707180154372
 30
0.0
 10
79.0418592467326
 20
-116.9437662468057
 30
0.0
 10
79.05236678796261
 20
-116.8316283887608
 30
0.0
 10
79.1328097675432
 20
-116.7131171040683
 30
0.0
 10
79.24270831352266
 20
-116.5524033996814
 30
0.0
 10
79.42891572450041
 20
-116.5184692091516
 30
0.0
 10
79.54535995190186
 20
-116.5184692091516
 30
0.0
 10
79.82251788369021
 20
-116.5184692091516
 30
0.0
 10
80.02974037712798
 20
-116.7026095628382
 30
0.0
 10
80.02974037712798
 20
-116.97546112527
 30
0.0
 10
80.02974037712798
 20
-117.2038709559421
 30
0.0
 10
79.9134684045008
 20
-117.3034342154658
 30
0.0
 10
79.60461559424816
 20
-117.5297769888467
 30
0.0
  0
HATCH
  5
122
330
11D
100
AcDbEntity
  8
_U+30EC_U+30A4_U+30E4_U+30FC 1
 62
   179
420
  2234388
100
AcDbHatch
 10
0.0
 20
0.0
 30
0.0
210
0.0
220
0.0
230
1.0
  2
SOLID
 70
     1
 71
     0
 91
        1
 92
        1
 93
        1
 72
     4
 94
        3
 73
     0
 74
     1
 95
       44
 96
       40
 40
0.0
 40
0.0
 40
0.0
 40
0.0
 40
1.0
 40
1.0
 40
1.0
 40
2.0
 40
2.0
 40
2.0
 40
3.0
 40
3.0
 40
3.0
 40
4.0
 40
4.0
 40
4.0
 40
5.0
 40
5.0
 40
5.0
 40
6.0
 40
6.0
 40
6.0
 40
7.0
 40
7.0
 40
7.0
 40
8.0
 40
8.0
 40
8.0
 40
9.0
 40
9.0
 40
9.0
 40
10.0
 40
10.0
 40
10.0
 40
11.0
 40
11.0
 40
11.0
 40
12.0
 40
12.0
 40
12.0
 40
13.0
 40
13.0
 40
13.0
 40
13.0
 10
79.60461559424816
 20
-117.5297769888467
 10
79.38671330480611
 20
-117.6884236359425
 10
79.2935234719301
 20
-117.7624931888754
 10
79.24494762558807
 20
-117.9061536706103
 10
79.24494762558807
 20
-117.9061536706103
 10
80.02336695048027
 20
-117.9061536706103
 10
80.02336695048027
 20
-117.9061536706103
 10
80.02336695048027
 20
-117.9061536706103
 10
80.02336695048027
 20
-118.1114813615312
 10
80.02336695048027
 20
-118.1114813615312
 10
80.02336695048027
 20
-118.1114813615312
 10
78.99535045768172
 20
-118.1114813615312
 10
78.99535045768172
 20
-118.1114813615312
 10
79.02704533614602
 20
-117.7538804501622
 10
79.09267440514003
 20
-117.6756767826471
 10
79.4776638256167
 20
-117.3773315136244
 10
79.73363442017076
 20
-117.1785495041255
 10
79.7990912343905
 20
-117.1108533778403
 10
79.7990912343905
 20
-116.9733940679789
 10
79.7990912343905
 20
-116.8548827832863
 10
79.72726099352305
 20
-116.7237969000725
 10
79.53054604131529
 20
-116.7237969000725
 10
79.27026907740466
 20
-116.7237969000725
 10
79.2618285934658
 20
-116.9542737880357
 10
79.25752222410924
 20
-117.0707180154372
 10
79.25752222410924
 20
-117.0707180154372
 10
79.03341876279373
 20
-117.0707180154372
 10
79.03341876279373
 20
-117.0707180154372
 10
79.0418592467326
 20
-116.9437662468057
 10
79.05236678796261
 20
-116.8316283887608
 10
79.1328097675432
 20
-116.7131171040683
 10
79.24270831352266
 20
-116.5524033996814
 10
79.42891572450041
 20
-116.5184692091516
 10
79.54535995190186
 20
-116.5184692091516
 10
79.82251788369021
 20
-116.5184692091516
 10
80.02974037712798
 20
-116.7026095628382
 10
80.02974037712798
 20
-116.97546112527
 10
80.02974037712798
 20
-117.2038709559421
 10
79.9134684045008
 20
-117.3034342154658
 10
79.60461559424816
 20
-117.5297769888467
 97
        0
 97
        0
 75
     2
 76
     1
 98
        0
  0
POLYLINE
  5
123
330
11D
100
AcDbEntity
  8
_U+30EC_U+30A4_U+30E4_U+30FC 1
370
     0
100
AcDb2dPolyline
 66
     1
 10
0.0
 20
0.0
 30
0.0
  0
VERTEX
  5
124
330
123
100
AcDbEntity
  8
_U+30EC_U+30A4_U+30E4_U+30FC 1
370
     0
100
AcDbVertex
100
AcDb2dVertex
 10
80.24833168566708
 20
-118.1114813615312
 30
0.0
  0
VERTEX
  5
125
330
123
100
AcDbEntity
  8
_U+30EC_U+30A4_U+30E4_U+30FC 1
370
     0
100
AcDbVertex
100
AcDb2dVertex
 10
80.24833168566708
 20
-117.8596448815594
 30
0.0
  0
VERTEX
  5
126
330
123
100
AcDbEntity
  8
_U+30EC_U+30A4_U+30E4_U+30FC 1
370
     0
100
AcDbVertex
100
AcDb2dVertex
 10
80.49999591086458
 20
-117.8596448815594
 30
0.0
  0
VERTEX
  5
127
330
123
100
AcDbEntity
  8
_U+30EC_U+30A4_U+30E4_U+30FC 1
370
     0
100
AcDbVertex
100
AcDb2dVertex
 10
80.49999591086458
 20
-118.1114813615312
 30
0.0
  0
VERTEX
  5
128
330
123
100
AcDbEntity
  8
_U+30EC_U+30A4_U+30E4_U+30FC 1
370
     0
100
AcDbVertex
100
AcDb2dVertex
 10
80.24833168566708
 20
-118.1114813615312
 30
0.0
  0
SEQEND
  5
129
330
123
100
AcDbEntity
  8
_U+30EC_U+30A4_U+30E4_U+30FC 1
370
     0
  0
HATCH
  5
12A
330
11D
100
AcDbEntity
  8
_U+30EC_U+30A4_U+30E4_U+30FC 1
 62
   179
420
  2234388
100
AcDbHatch
 10
0.0
 20
0.0
 30
0.0
210
0.0
220
0.0
230
1.0
  2
SOLID
 70
     1
 71
     0
 91
        1
 92
        1
 93
        4
 72
     1
 10
80.24833168566708
 20
-118.1114813615312
 11
80.24833168566708
 21
-117.8596448815594
 72
     1
 10
80.24833168566708
 20
-117.8596448815594
 11
80.49999591086458
 21
-117.8596448815594
 72
     1
 10
80.49999591086458
 20
-117.8596448815594
 11
80.49999591086458
 21
-118.1114813615312
 72
     1
 10
80.49999591086458
 20
-118.1114813615312
 11
80.24833168566708
 21
-118.1114813615312
 97
        0
 75
     2
 76
     1
 98
        0
  0
SPLINE
  5
12B
330
11D
100
AcDbEntity
  8
_U+30EC_U+30A4_U+30E4_U+30FC 1
370
     0
100
AcDbSpline
210
0.0
220
0.0
230
1.0
 70
    11
 71
     3
 72
    53
 73
    49
 74
     0
 42
0.0000000001
 43
0.0000000001
 12
1.0
 22
0.0
 32
0.0
 13
1.0
 23
0.0
 33
0.0
 40
0.0
 40
0.0
 40
0.0
 40
0.0
 40
1.0
 40
1.0
 40
1.0
 40
2.0
 40
2.0
 40
2.0
 40
3.0
 40
3.0
 40
3.0
 40
4.0
 40
4.0
 40
4.0
 40
5.0
 40
5.0
 40
5.0
 40
6.0
 40
6.0
 40
6.0
 40
7.0
 40
7.0
 40
7.0
 40
8.0
 40
8.0
 40
8.0
 40
9.0
 40
9.0
 40
9.0
 40
10.0
 40
10.0
 40
10.0
 40
11.0
 40
11.0
 40
11.0
 40
12.0
 40
12.0
 40
12.0
 40
13.0
 40
13.0
 40
13.0
 40
14.0
 40
14.0
 40
14.0
 40
15.0
 40
15.0
 40
15.0
 40
16.0
 40
16.0
 40
16.0
 40
16.0
 10
81.21760930044213
 20
-118.1621242651643
 30
0.0
 10
81.1392333781527
 20
-118.1621242651643
 30
0.0
 10
81.03777531611209
 20
-118.1452432972866
 30
0.0
 10
80.93614499929721
 20
-118.081853540358
 30
0.0
 10
80.7626844416149
 20
-117.9719549943785
 30
0.0
 10
80.7414971043806
 20
-117.8406968563905
 30
0.0
 10
80.72254907921173
 20
-117.7328653677022
 30
0.0
 10
80.72254907921173
 20
-117.7328653677022
 30
0.0
 10
80.94458548323608
 20
-117.7328653677022
 30
0.0
 10
80.94458548323608
 20
-117.7328653677022
 30
0.0
 10
80.99970701100008
 20
-117.9316473772011
 30
0.0
 10
81.12665877963153
 20
-117.9612751983743
 30
0.0
 10
81.21967635773328
 20
-117.9612751983743
 30
0.0
 10
81.3592027248859
 20
-117.9612751983743
 30
0.0
 10
81.5116482001082
 20
-117.8617119388505
 30
0.0
 10
81.5116482001082
 20
-117.6291679935962
 30
0.0
 10
81.5116482001082
 20
-117.3731973990421
 30
0.0
 10
81.33181421577817
 20
-117.3034342154658
 30
0.0
 10
81.21123587379442
 20
-117.3034342154658
 30
0.0
 10
81.17954099533011
 20
-117.3034342154658
 30
0.0
 10
81.03777531611209
 20
-117.3034342154658
 30
0.0
 10
80.94889185259264
 20
-117.4324530413884
 30
0.0
 10
80.94889185259264
 20
-117.4324530413884
 30
0.0
 10
80.77336423761916
 20
-117.4133327614453
 30
0.0
 10
80.77336423761916
 20
-117.4133327614453
 30
0.0
 10
80.77336423761916
 20
-117.4133327614453
 30
0.0
 10
80.8939425796029
 20
-116.5672173102679
 30
0.0
 10
80.8939425796029
 20
-116.5672173102679
 30
0.0
 10
80.8939425796029
 20
-116.5672173102679
 30
0.0
 10
81.6723619044951
 20
-116.5672173102679
 30
0.0
 10
81.6723619044951
 20
-116.5672173102679
 30
0.0
 10
81.6723619044951
 20
-116.5672173102679
 30
0.0
 10
81.6723619044951
 20
-116.7618652051845
 30
0.0
 10
81.6723619044951
 20
-116.7618652051845
 30
0.0
 10
81.6723619044951
 20
-116.7618652051845
 30
0.0
 10
81.05672334128096
 20
-116.7618652051845
 30
0.0
 10
81.05672334128096
 20
-116.7618652051845
 30
0.0
 10
81.05672334128096
 20
-116.7618652051845
 30
0.0
 10
80.99126652706121
 20
-117.1849229307732
 30
0.0
 10
80.99126652706121
 20
-117.1849229307732
 30
0.0
 10
81.05258922669866
 20
-117.1509887402435
 30
0.0
 10
81.1350992635704
 20
-117.1108533778403
 30
0.0
 10
81.25343829348873
 20
-117.1108533778403
 30
0.0
 10
81.50734183075164
 20
-117.1108533778403
 30
0.0
 10
81.74436440013683
 20
-117.2970607888181
 30
0.0
 10
81.74436440013683
 20
-117.6102199684273
 30
0.0
 10
81.74436440013683
 20
-117.9275132626188
 30
0.0
 10
81.52008868404707
 20
-118.1621242651643
 30
0.0
 10
81.21760930044213
 20
-118.1621242651643
 30
0.0
  0
HATCH
  5
12C
330
11D
100
AcDbEntity
  8
_U+30EC_U+30A4_U+30E4_U+30FC 1
 62
   179
420
  2234388
100
AcDbHatch
 10
0.0
 20
0.0
 30
0.0
210
0.0
220
0.0
230
1.0
  2
SOLID
 70
     1
 71
     0
 91
        1
 92
        1
 93
        1
 72
     4
 94
        3
 73
     0
 74
     1
 95
       53
 96
       49
 40
0.0
 40
0.0
 40
0.0
 40
0.0
 40
1.0
 40
1.0
 40
1.0
 40
2.0
 40
2.0
 40
2.0
 40
3.0
 40
3.0
 40
3.0
 40
4.0
 40
4.0
 40
4.0
 40
5.0
 40
5.0
 40
5.0
 40
6.0
 40
6.0
 40
6.0
 40
7.0
 40
7.0
 40
7.0
 40
8.0
 40
8.0
 40
8.0
 40
9.0
 40
9.0
 40
9.0
 40
10.0
 40
10.0
 40
10.0
 40
11.0
 40
11.0
 40
11.0
 40
12.0
 40
12.0
 40
12.0
 40
13.0
 40
13.0
 40
13.0
 40
14.0
 40
14.0
 40
14.0
 40
15.0
 40
15.0
 40
15.0
 40
16.0
 40
16.0
 40
16.0
 40
16.0
 10
81.21760930044213
 20
-118.1621242651643
 10
81.1392333781527
 20
-118.1621242651643
 10
81.03777531611209
 20
-118.1452432972866
 10
80.93614499929721
 20
-118.081853540358
 10
80.7626844416149
 20
-117.9719549943785
 10
80.7414971043806
 20
-117.8406968563905
 10
80.72254907921173
 20
-117.7328653677022
 10
80.72254907921173
 20
-117.7328653677022
 10
80.94458548323608
 20
-117.7328653677022
 10
80.94458548323608
 20
-117.7328653677022
 10
80.99970701100008
 20
-117.9316473772011
 10
81.12665877963153
 20
-117.9612751983743
 10
81.21967635773328
 20
-117.9612751983743
 10
81.3592027248859
 20
-117.9612751983743
 10
81.5116482001082
 20
-117.8617119388505
 10
81.5116482001082
 20
-117.6291679935962
 10
81.5116482001082
 20
-117.3731973990421
 10
81.33181421577817
 20
-117.3034342154658
 10
81.21123587379442
 20
-117.3034342154658
 10
81.17954099533011
 20
-117.3034342154658
 10
81.03777531611209
 20
-117.3034342154658
 10
80.94889185259264
 20
-117.4324530413884
 10
80.94889185259264
 20
-117.4324530413884
 10
80.77336423761916
 20
-117.4133327614453
 10
80.77336423761916
 20
-117.4133327614453
 10
80.77336423761916
 20
-117.4133327614453
 10
80.8939425796029
 20
-116.5672173102679
 10
80.8939425796029
 20
-116.5672173102679
 10
80.8939425796029
 20
-116.5672173102679
 10
81.6723619044951
 20
-116.5672173102679
 10
81.6723619044951
 20
-116.5672173102679
 10
81.6723619044951
 20
-116.5672173102679
 10
81.6723619044951
 20
-116.7618652051845
 10
81.6723619044951
 20
-116.7618652051845
 10
81.6723619044951
 20
-116.7618652051845
 10
81.05672334128096
 20
-116.7618652051845
 10
81.05672334128096
 20
-116.7618652051845
 10
81.05672334128096
 20
-116.7618652051845
 10
80.99126652706121
 20
-117.1849229307732
 10
80.99126652706121
 20
-117.1849229307732
 10
81.05258922669866
 20
-117.1509887402435
 10
81.1350992635704
 20
-117.1108533778403
 10
81.25343829348873
 20
-117.1108533778403
 10
81.50734183075164
 20
-117.1108533778403
 10
81.74436440013683
 20
-117.2970607888181
 10
81.74436440013683
 20
-117.6102199684273
 10
81.74436440013683
 20
-117.9275132626188
 10
81.52008868404707
 20
-118.1621242651643
 10
81.21760930044213
 20
-118.1621242651643
 97
        0
 97
        0
 75
     2
 76
     1
 98
        0
  0
ENDBLK
  5
120
330
11D
100
AcDbEntity
  8
0
100
AcDbBlockEnd
  0
BLOCK
  5
137
330
135
100
AcDbEntity
  8
0
100
AcDbBlockBegin
  2
block 8
 70
     0
 10
0.0
 20
0.0
 30
0.0
  3
block 8
  1

  0
SPLINE
  5
139
330
135
100
AcDbEntity
  8
_U+30EC_U+30A4_U+30E4_U+30FC 1
370
     0
100
AcDbSpline
210
0.0
220
0.0
230
1.0
 70
    11
 71
     3
 72
    26
 73
    22
 74
     0
 42
0.0000000001
 43
0.0000000001
 12
1.0
 22
0.0
 32
0.0
 13
1.0
 23
0.0
 33
0.0
 40
0.0
 40
0.0
 40
0.0
 40
0.0
 40
1.0
 40
1.0
 40
1.0
 40
2.0
 40
2.0
 40
2.0
 40
3.0
 40
3.0
 40
3.0
 40
4.0
 40
4.0
 40
4.0
 40
5.0
 40
5.0
 40
5.0
 40
6.0
 40
6.0
 40
6.0
 40
7.0
 40
7.0
 40
7.0
 40
7.0
 10
94.29915362225854
 20
-145.9204643732421
 30
0.0
 10
94.29915362225854
 20
-145.9204643732421
 30
0.0
 10
94.29915362225854
 20
-144.8163112702195
 30
0.0
 10
94.29915362225854
 20
-144.8163112702195
 30
0.0
 10
94.29915362225854
 20
-144.8163112702195
 30
0.0
 10
93.96911347477162
 20
-144.8163112702195
 30
0.0
 10
93.96911347477162
 20
-144.8163112702195
 30
0.0
 10
93.96911347477162
 20
-144.8163112702195
 30
0.0
 10
93.96911347477162
 20
-144.6681721643538
 30
0.0
 10
93.96911347477162
 20
-144.6681721643538
 30
0.0
 10
94.3012206795497
 20
-144.6533582537672
 30
0.0
 10
94.3480739781491
 20
-144.4904052373149
 30
0.0
 10
94.37770179932224
 20
-144.3760280672046
 30
0.0
 10
94.37770179932224
 20
-144.3760280672046
 30
0.0
 10
94.52377384789683
 20
-144.3760280672046
 30
0.0
 10
94.52377384789683
 20
-144.3760280672046
 30
0.0
 10
94.52377384789683
 20
-144.3760280672046
 30
0.0
 10
94.52377384789683
 20
-145.9204643732421
 30
0.0
 10
94.52377384789683
 20
-145.9204643732421
 30
0.0
 10
94.52377384789683
 20
-145.9204643732421
 30
0.0
 10
94.29915362225854
 20
-145.9204643732421
 30
0.0
 10
94.29915362225854
 20
-145.9204643732421
 30
0.0
  0
HATCH
  5
13A
330
135
100
AcDbEntity
  8
_U+30EC_U+30A4_U+30E4_U+30FC 1
 62
   179
420
  2234388
100
AcDbHatch
 10
0.0
 20
0.0
 30
0.0
210
0.0
220
0.0
230
1.0
  2
SOLID
 70
     1
 71
     0
 91
        1
 92
        1
 93
        1
 72
     4
 94
        3
 73
     0
 74
     1
 95
       26
 96
       22
 40
0.0
 40
0.0
 40
0.0
 40
0.0
 40
1.0
 40
1.0
 40
1.0
 40
2.0
 40
2.0
 40
2.0
 40
3.0
 40
3.0
 40
3.0
 40
4.0
 40
4.0
 40
4.0
 40
5.0
 40
5.0
 40
5.0
 40
6.0
 40
6.0
 40
6.0
 40
7.0
 40
7.0
 40
7.0
 40
7.0
 10
94.29915362225854
 20
-145.9204643732421
 10
94.29915362225854
 20
-145.9204643732421
 10
94.29915362225854
 20
-144.8163112702195
 10
94.29915362225854
 20
-144.8163112702195
 10
94.29915362225854
 20
-144.8163112702195
 10
93.96911347477162
 20
-144.8163112702195
 10
93.96911347477162
 20
-144.8163112702195
 10
93.96911347477162
 20
-144.8163112702195
 10
93.96911347477162
 20
-144.6681721643538
 10
93.96911347477162
 20
-144.6681721643538
 10
94.3012206795497
 20
-144.6533582537672
 10
94.3480739781491
 20
-144.4904052373149
 10
94.37770179932224
 20
-144.3760280672046
 10
94.37770179932224
 20
-144.3760280672046
 10
94.52377384789683
 20
-144.3760280672046
 10
94.52377384789683
 20
-144.3760280672046
 10
94.52377384789683
 20
-144.3760280672046
 10
94.52377384789683
 20
-145.9204643732421
 10
94.52377384789683
 20
-145.9204643732421
 10
94.52377384789683
 20
-145.9204643732421
 10
94.29915362225854
 20
-145.9204643732421
 10
94.29915362225854
 20
-145.9204643732421
 97
        0
 97
        0
 75
     2
 76
     1
 98
        0
  0
POLYLINE
  5
13B
330
135
100
AcDbEntity
  8
_U+30EC_U+30A4_U+30E4_U+30FC 1
370
     0
100
AcDb2dPolyline
 66
     1
 10
0.0
 20
0.0
 30
0.0
  0
VERTEX
  5
13C
330
13B
100
AcDbEntity
  8
_U+30EC_U+30A4_U+30E4_U+30FC 1
370
     0
100
AcDbVertex
100
AcDb2dVertex
 10
95.85702580068853
 20
-145.5735432578774
 30
0.0
  0
VERTEX
  5
13D
330
13B
100
AcDbEntity
  8
_U+30EC_U+30A4_U+30E4_U+30FC 1
370
     0
100
AcDbVertex
100
AcDb2dVertex
 10
95.85702580068853
 20
-145.9204643732421
 30
0.0
  0
VERTEX
  5
13E
330
13B
100
AcDbEntity
  8
_U+30EC_U+30A4_U+30E4_U+30FC 1
370
     0
100
AcDbVertex
100
AcDb2dVertex
 10
95.63929576602074
 20
-145.9204643732421
 30
0.0
  0
VERTEX
  5
13F
330
13B
100
AcDbEntity
  8
_U+30EC_U+30A4_U+30E4_U+30FC 1
370
     0
100
AcDbVertex
100
AcDb2dVertex
 10
95.63929576602074
 20
-145.5735432578774
 30
0.0
  0
VERTEX
  5
140
330
13B
100
AcDbEntity
  8
_U+30EC_U+30A4_U+30E4_U+30FC 1
370
     0
100
AcDbVertex
100
AcDb2dVertex
 10
94.98334958562917
 20
-145.5735432578774
 30
0.0
  0
VERTEX
  5
141
330
13B
100
AcDbEntity
  8
_U+30EC_U+30A4_U+30E4_U+30FC 1
370
     0
100
AcDbVertex
100
AcDb2dVertex
 10
94.98334958562917
 20
-145.3492675417877
 30
0.0
  0
VERTEX
  5
142
330
13B
100
AcDbEntity
  8
_U+30EC_U+30A4_U+30E4_U+30FC 1
370
     0
100
AcDbVertex
100
AcDb2dVertex
 10
95.66203339622338
 20
-144.3760280672046
 30
0.0
  0
VERTEX
  5
143
330
13B
100
AcDbEntity
  8
_U+30EC_U+30A4_U+30E4_U+30FC 1
370
     0
100
AcDbVertex
100
AcDb2dVertex
 10
95.85702580068853
 20
-144.3760280672046
 30
0.0
  0
VERTEX
  5
144
330
13B
100
AcDbEntity
  8
_U+30EC_U+30A4_U+30E4_U+30FC 1
370
     0
100
AcDbVertex
100
AcDb2dVertex
 10
95.85702580068853
 20
-145.3747612483785
 30
0.0
  0
VERTEX
  5
145
330
13B
100
AcDbEntity
  8
_U+30EC_U+30A4_U+30E4_U+30FC 1
370
     0
100
AcDbVertex
100
AcDb2dVertex
 10
96.06442054890057
 20
-145.3747612483785
 30
0.0
  0
VERTEX
  5
146
330
13B
100
AcDbEntity
  8
_U+30EC_U+30A4_U+30E4_U+30FC 1
370
     0
100
AcDbVertex
100
AcDb2dVertex
 10
96.06442054890057
 20
-145.5735432578774
 30
0.0
  0
VERTEX
  5
147
330
13B
100
AcDbEntity
  8
_U+30EC_U+30A4_U+30E4_U+30FC 1
370
     0
100
AcDbVertex
100
AcDb2dVertex
 10
95.85702580068853
 20
-145.5735432578774
 30
0.0
  0
SEQEND
  5
148
330
13B
100
AcDbEntity
  8
_U+30EC_U+30A4_U+30E4_U+30FC 1
370
     0
  0
POLYLINE
  5
149
330
135
100
AcDbEntity
  8
_U+30EC_U+30A4_U+30E4_U+30FC 1
370
     0
100
AcDb2dPolyline
 66
     1
 10
0.0
 20
0.0
 30
0.0
  0
VERTEX
  5
14A
330
149
100
AcDbEntity
  8
_U+30EC_U+30A4_U+30E4_U+30FC 1
370
     0
100
AcDbVertex
100
AcDb2dVertex
 10
95.63929576602074
 20
-144.718815067987
 30
0.0
  0
VERTEX
  5
14B
330
149
100
AcDbEntity
  8
_U+30EC_U+30A4_U+30E4_U+30FC 1
370
     0
100
AcDbVertex
100
AcDb2dVertex
 10
95.18178708557956
 20
-145.3747612483785
 30
0.0
  0
VERTEX
  5
14C
330
149
100
AcDbEntity
  8
_U+30EC_U+30A4_U+30E4_U+30FC 1
370
     0
100
AcDbVertex
100
AcDb2dVertex
 10
95.63929576602074
 20
-145.3747612483785
 30
0.0
  0
VERTEX
  5
14D
330
149
100
AcDbEntity
  8
_U+30EC_U+30A4_U+30E4_U+30FC 1
370
     0
100
AcDbVertex
100
AcDb2dVertex
 10
95.63929576602074
 20
-144.718815067987
 30
0.0
  0
SEQEND
  5
14E
330
149
100
AcDbEntity
  8
_U+30EC_U+30A4_U+30E4_U+30FC 1
370
     0
  0
HATCH
  5
14F
330
135
100
AcDbEntity
  8
_U+30EC_U+30A4_U+30E4_U+30FC 1
 62
   179
420
  2234388
100
AcDbHatch
 10
0.0
 20
0.0
 30
0.0
210
0.0
220
0.0
230
1.0
  2
SOLID
 70
     1
 71
     0
 91
        2
 92
        1
 93
       11
 72
     1
 10
95.85702580068853
 20
-145.5735432578774
 11
95.85702580068853
 21
-145.9204643732421
 72
     1
 10
95.85702580068853
 20
-145.9204643732421
 11
95.63929576602074
 21
-145.9204643732421
 72
     1
 10
95.63929576602074
 20
-145.9204643732421
 11
95.63929576602074
 21
-145.5735432578774
 72
     1
 10
95.63929576602074
 20
-145.5735432578774
 11
94.98334958562917
 21
-145.5735432578774
 72
     1
 10
94.98334958562917
 20
-145.5735432578774
 11
94.98334958562917
 21
-145.3492675417877
 72
     1
 10
94.98334958562917
 20
-145.3492675417877
 11
95.66203339622338
 21
-144.3760280672046
 72
     1
 10
95.66203339622338
 20
-144.3760280672046
 11
95.85702580068853
 21
-144.3760280672046
 72
     1
 10
95.85702580068853
 20
-144.3760280672046
 11
95.85702580068853
 21
-145.3747612483785
 72
     1
 10
95.85702580068853
 20
-145.3747612483785
 11
96.06442054890057
 21
-145.3747612483785
 72
     1
 10
96.06442054890057
 20
-145.3747612483785
 11
96.06442054890057
 21
-145.5735432578774
 72
     1
 10
96.06442054890057
 20
-145.5735432578774
 11
95.85702580068853
 21
-145.5735432578774
 97
        0
 92
        1
 93
        3
 72
     1
 10
95.63929576602074
 20
-144.718815067987
 11
95.18178708557956
 21
-145.3747612483785
 72
     1
 10
95.18178708557956
 20
-145.3747612483785
 11
95.63929576602074
 21
-145.3747612483785
 72
     1
 10
95.63929576602074
 20
-145.3747612483785
 11
95.63929576602074
 21
-144.718815067987
 97
        0
 75
     2
 76
     1
 98
        0
  0
POLYLINE
  5
150
330
135
100
AcDbEntity
  8
_U+30EC_U+30A4_U+30E4_U+30FC 1
370
     0
100
AcDb2dPolyline
 66
     1
 10
0.0
 20
0.0
 30
0.0
  0
VERTEX
  5
151
330
150
100
AcDbEntity
  8
_U+30EC_U+30A4_U+30E4_U+30FC 1
370
     0
100
AcDbVertex
100
AcDb2dVertex
 10
96.26148001065685
 20
-145.9204643732421
 30
0.0
  0
VERTEX
  5
152
330
150
100
AcDbEntity
  8
_U+30EC_U+30A4_U+30E4_U+30FC 1
370
     0
100
AcDbVertex
100
AcDb2dVertex
 10
96.26148001065685
 20
-145.6686278932704
 30
0.0
  0
VERTEX
  5
153
330
150
100
AcDbEntity
  8
_U+30EC_U+30A4_U+30E4_U+30FC 1
370
     0
100
AcDbVertex
100
AcDb2dVertex
 10
96.51366100017715
 20
-145.6686278932704
 30
0.0
  0
VERTEX
  5
154
330
150
100
AcDbEntity
  8
_U+30EC_U+30A4_U+30E4_U+30FC 1
370
     0
100
AcDbVertex
100
AcDb2dVertex
 10
96.51366100017715
 20
-145.9204643732421
 30
0.0
  0
VERTEX
  5
155
330
150
100
AcDbEntity
  8
_U+30EC_U+30A4_U+30E4_U+30FC 1
370
     0
100
AcDbVertex
100
AcDb2dVertex
 10
96.26148001065685
 20
-145.9204643732421
 30
0.0
  0
SEQEND
  5
156
330
150
100
AcDbEntity
  8
_U+30EC_U+30A4_U+30E4_U+30FC 1
370
     0
  0
HATCH
  5
157
330
135
100
AcDbEntity
  8
_U+30EC_U+30A4_U+30E4_U+30FC 1
 62
   179
420
  2234388
100
AcDbHatch
 10
0.0
 20
0.0
 30
0.0
210
0.0
220
0.0
230
1.0
  2
SOLID
 70
     1
 71
     0
 91
        1
 92
        1
 93
        4
 72
     1
 10
96.26148001065685
 20
-145.9204643732421
 11
96.26148001065685
 21
-145.6686278932704
 72
     1
 10
96.26148001065685
 20
-145.6686278932704
 11
96.51366100017715
 21
-145.6686278932704
 72
     1
 10
96.51366100017715
 20
-145.6686278932704
 11
96.51366100017715
 21
-145.9204643732421
 72
     1
 10
96.51366100017715
 20
-145.9204643732421
 11
96.26148001065685
 21
-145.9204643732421
 97
        0
 75
     2
 76
     1
 98
        0
  0
SPLINE
  5
158
330
135
100
AcDbEntity
  8
_U+30EC_U+30A4_U+30E4_U+30FC 1
370
     0
100
AcDbSpline
210
0.0
220
0.0
230
1.0
 70
    11
 71
     3
 72
    53
 73
    49
 74
     0
 42
0.0000000001
 43
0.0000000001
 12
1.0
 22
0.0
 32
0.0
 13
1.0
 23
0.0
 33
0.0
 40
0.0
 40
0.0
 40
0.0
 40
0.0
 40
1.0
 40
1.0
 40
1.0
 40
2.0
 40
2.0
 40
2.0
 40
3.0
 40
3.0
 40
3.0
 40
4.0
 40
4.0
 40
4.0
 40
5.0
 40
5.0
 40
5.0
 40
6.0
 40
6.0
 40
6.0
 40
7.0
 40
7.0
 40
7.0
 40
8.0
 40
8.0
 40
8.0
 40
9.0
 40
9.0
 40
9.0
 40
10.0
 40
10.0
 40
10.0
 40
11.0
 40
11.0
 40
11.0
 40
12.0
 40
12.0
 40
12.0
 40
13.0
 40
13.0
 40
13.0
 40
14.0
 40
14.0
 40
14.0
 40
15.0
 40
15.0
 40
15.0
 40
16.0
 40
16.0
 40
16.0
 40
16.0
 10
97.23092988020616
 20
-145.9711072768753
 30
0.0
 10
97.15238170314247
 20
-145.9711072768753
 30
0.0
 10
97.05109589587612
 20
-145.9542263089976
 30
0.0
 10
96.94912106951273
 20
-145.890836552069
 30
0.0
 10
96.77617727615318
 20
-145.7809380060895
 30
0.0
 10
96.75481768414463
 20
-145.6496798681015
 30
0.0
 10
96.73552514942723
 20
-145.5418483794132
 30
0.0
 10
96.73552514942723
 20
-145.5418483794132
 30
0.0
 10
96.95807831777438
 20
-145.5418483794132
 30
0.0
 10
96.95807831777438
 20
-145.5418483794132
 30
0.0
 10
97.01251082644131
 20
-145.7406303889121
 30
0.0
 10
97.13997935939557
 20
-145.7702582100852
 30
0.0
 10
97.2329969374973
 20
-145.7702582100852
 30
0.0
 10
97.3721787951014
 20
-145.7702582100852
 30
0.0
 10
97.52445201554944
 20
-145.6706949505615
 30
0.0
 10
97.52445201554944
 20
-145.4381510053071
 30
0.0
 10
97.52445201554944
 20
-145.1821804107531
 30
0.0
 10
97.34461803121941
 20
-145.1122449724025
 30
0.0
 10
97.22403968923567
 20
-145.1122449724025
 30
0.0
 10
97.19234481077136
 20
-145.1122449724025
 30
0.0
 10
97.05109589587612
 20
-145.1122449724025
 30
0.0
 10
96.96221243235668
 20
-145.2414360530994
 30
0.0
 10
96.96221243235668
 20
-145.2414360530994
 30
0.0
 10
96.78651256260893
 20
-145.2224880279305
 30
0.0
 10
96.78651256260893
 20
-145.2224880279305
 30
0.0
 10
96.78651256260893
 20
-145.2224880279305
 30
0.0
 10
96.90709090459268
 20
-144.3760280672046
 30
0.0
 10
96.90709090459268
 20
-144.3760280672046
 30
0.0
 10
96.90709090459268
 20
-144.3760280672046
 30
0.0
 10
97.68568248425915
 20
-144.3760280672046
 30
0.0
 10
97.68568248425915
 20
-144.3760280672046
 30
0.0
 10
97.68568248425915
 20
-144.3760280672046
 30
0.0
 10
97.68568248425915
 20
-144.5706759621212
 30
0.0
 10
97.68568248425915
 20
-144.5706759621212
 30
0.0
 10
97.68568248425915
 20
-144.5706759621212
 30
0.0
 10
97.06969941149647
 20
-144.5706759621212
 30
0.0
 10
97.06969941149647
 20
-144.5706759621212
 30
0.0
 10
97.06969941149647
 20
-144.5706759621212
 30
0.0
 10
97.00424259727671
 20
-144.9937336877099
 30
0.0
 10
97.00424259727671
 20
-144.9937336877099
 30
0.0
 10
97.06556529691417
 20
-144.9599717519545
 30
0.0
 10
97.14824758856017
 20
-144.919664134777
 30
0.0
 10
97.26675887325275
 20
-144.919664134777
 30
0.0
 10
97.52031790096714
 20
-144.919664134777
 30
0.0
 10
97.75734047035233
 20
-145.1060438005291
 30
0.0
 10
97.75734047035233
 20
-145.4192029801383
 30
0.0
 10
97.75734047035233
 20
-145.7364962743298
 30
0.0
 10
97.5334092638111
 20
-145.9711072768753
 30
0.0
 10
97.23092988020616
 20
-145.9711072768753
 30
0.0
  0
HATCH
  5
159
330
135
100
AcDbEntity
  8
_U+30EC_U+30A4_U+30E4_U+30FC 1
 62
   179
420
  2234388
100
AcDbHatch
 10
0.0
 20
0.0
 30
0.0
210
0.0
220
0.0
230
1.0
  2
SOLID
 70
     1
 71
     0
 91
        1
 92
        1
 93
        1
 72
     4
 94
        3
 73
     0
 74
     1
 95
       53
 96
       49
 40
0.0
 40
0.0
 40
0.0
 40
0.0
 40
1.0
 40
1.0
 40
1.0
 40
2.0
 40
2.0
 40
2.0
 40
3.0
 40
3.0
 40
3.0
 40
4.0
 40
4.0
 40
4.0
 40
5.0
 40
5.0
 40
5.0
 40
6.0
 40
6.0
 40
6.0
 40
7.0
 40
7.0
 40
7.0
 40
8.0
 40
8.0
 40
8.0
 40
9.0
 40
9.0
 40
9.0
 40
10.0
 40
10.0
 40
10.0
 40
11.0
 40
11.0
 40
11.0
 40
12.0
 40
12.0
 40
12.0
 40
13.0
 40
13.0
 40
13.0
 40
14.0
 40
14.0
 40
14.0
 40
15.0
 40
15.0
 40
15.0
 40
16.0
 40
16.0
 40
16.0
 40
16.0
 10
97.23092988020616
 20
-145.9711072768753
 10
97.15238170314247
 20
-145.9711072768753
 10
97.05109589587612
 20
-145.9542263089976
 10
96.94912106951273
 20
-145.890836552069
 10
96.77617727615318
 20
-145.7809380060895
 10
96.75481768414463
 20
-145.6496798681015
 10
96.73552514942723
 20
-145.5418483794132
 10
96.73552514942723
 20
-145.5418483794132
 10
96.95807831777438
 20
-145.5418483794132
 10
96.95807831777438
 20
-145.5418483794132
 10
97.01251082644131
 20
-145.7406303889121
 10
97.13997935939557
 20
-145.7702582100852
 10
97.2329969374973
 20
-145.7702582100852
 10
97.3721787951014
 20
-145.7702582100852
 10
97.52445201554944
 20
-145.6706949505615
 10
97.52445201554944
 20
-145.4381510053071
 10
97.52445201554944
 20
-145.1821804107531
 10
97.34461803121941
 20
-145.1122449724025
 10
97.22403968923567
 20
-145.1122449724025
 10
97.19234481077136
 20
-145.1122449724025
 10
97.05109589587612
 20
-145.1122449724025
 10
96.96221243235668
 20
-145.2414360530994
 10
96.96221243235668
 20
-145.2414360530994
 10
96.78651256260893
 20
-145.2224880279305
 10
96.78651256260893
 20
-145.2224880279305
 10
96.78651256260893
 20
-145.2224880279305
 10
96.90709090459268
 20
-144.3760280672046
 10
96.90709090459268
 20
-144.3760280672046
 10
96.90709090459268
 20
-144.3760280672046
 10
97.68568248425915
 20
-144.3760280672046
 10
97.68568248425915
 20
-144.3760280672046
 10
97.68568248425915
 20
-144.3760280672046
 10
97.68568248425915
 20
-144.5706759621212
 10
97.68568248425915
 20
-144.5706759621212
 10
97.68568248425915
 20
-144.5706759621212
 10
97.06969941149647
 20
-144.5706759621212
 10
97.06969941149647
 20
-144.5706759621212
 10
97.06969941149647
 20
-144.5706759621212
 10
97.00424259727671
 20
-144.9937336877099
 10
97.00424259727671
 20
-144.9937336877099
 10
97.06556529691417
 20
-144.9599717519545
 10
97.14824758856017
 20
-144.919664134777
 10
97.26675887325275
 20
-144.919664134777
 10
97.52031790096714
 20
-144.919664134777
 10
97.75734047035233
 20
-145.1060438005291
 10
97.75734047035233
 20
-145.4192029801383
 10
97.75734047035233
 20
-145.7364962743298
 10
97.5334092638111
 20
-145.9711072768753
 10
97.23092988020616
 20
-145.9711072768753
 97
        0
 97
        0
 75
     2
 76
     1
 98
        0
  0
ENDBLK
  5
138
330
135
100
AcDbEntity
  8
0
100
AcDbBlockEnd
  0
BLOCK
  5
160
330
15E
100
AcDbEntity
  8
0
100
AcDbBlockBegin
  2
block 9
 70
     0
 10
0.0
 20
0.0
 30
0.0
  3
block 9
  1

  0
SPLINE
  5
162
330
15E
100
AcDbEntity
  8
_U+30EC_U+30A4_U+30E4_U+30FC 1
370
     0
100
AcDbSpline
210
0.0
220
0.0
230
1.0
 70
    11
 71
     3
 72
    26
 73
    22
 74
     0
 42
0.0000000001
 43
0.0000000001
 12
1.0
 22
0.0
 32
0.0
 13
1.0
 23
0.0
 33
0.0
 40
0.0
 40
0.0
 40
0.0
 40
0.0
 40
1.0
 40
1.0
 40
1.0
 40
2.0
 40
2.0
 40
2.0
 40
3.0
 40
3.0
 40
3.0
 40
4.0
 40
4.0
 40
4.0
 40
5.0
 40
5.0
 40
5.0
 40
6.0
 40
6.0
 40
6.0
 40
7.0
 40
7.0
 40
7.0
 40
7.0
 10
82.98167044366431
 20
-145.9204643732421
 30
0.0
 10
82.98167044366431
 20
-145.9204643732421
 30
0.0
 10
82.98167044366431
 20
-144.8163112702195
 30
0.0
 10
82.98167044366431
 20
-144.8163112702195
 30
0.0
 10
82.98167044366431
 20
-144.8163112702195
 30
0.0
 10
82.65163029617737
 20
-144.8163112702195
 30
0.0
 10
82.65163029617737
 20
-144.8163112702195
 30
0.0
 10
82.65163029617737
 20
-144.8163112702195
 30
0.0
 10
82.65163029617737
 20
-144.6681721643538
 30
0.0
 10
82.65163029617737
 20
-144.6681721643538
 30
0.0
 10
82.98373750095546
 20
-144.6533582537672
 30
0.0
 10
83.03024629000633
 20
-144.4904052373149
 30
0.0
 10
83.05987411117948
 20
-144.3760280672046
 30
0.0
 10
83.05987411117948
 20
-144.3760280672046
 30
0.0
 10
83.20594615975408
 20
-144.3760280672046
 30
0.0
 10
83.20594615975408
 20
-144.3760280672046
 30
0.0
 10
83.20594615975408
 20
-144.3760280672046
 30
0.0
 10
83.20594615975408
 20
-145.9204643732421
 30
0.0
 10
83.20594615975408
 20
-145.9204643732421
 30
0.0
 10
83.20594615975408
 20
-145.9204643732421
 30
0.0
 10
82.98167044366431
 20
-145.9204643732421
 30
0.0
 10
82.98167044366431
 20
-145.9204643732421
 30
0.0
  0
HATCH
  5
163
330
15E
100
AcDbEntity
  8
_U+30EC_U+30A4_U+30E4_U+30FC 1
 62
   179
420
  2234388
100
AcDbHatch
 10
0.0
 20
0.0
 30
0.0
210
0.0
220
0.0
230
1.0
  2
SOLID
 70
     1
 71
     0
 91
        1
 92
        1
 93
        1
 72
     4
 94
        3
 73
     0
 74
     1
 95
       26
 96
       22
 40
0.0
 40
0.0
 40
0.0
 40
0.0
 40
1.0
 40
1.0
 40
1.0
 40
2.0
 40
2.0
 40
2.0
 40
3.0
 40
3.0
 40
3.0
 40
4.0
 40
4.0
 40
4.0
 40
5.0
 40
5.0
 40
5.0
 40
6.0
 40
6.0
 40
6.0
 40
7.0
 40
7.0
 40
7.0
 40
7.0
 10
82.98167044366431
 20
-145.9204643732421
 10
82.98167044366431
 20
-145.9204643732421
 10
82.98167044366431
 20
-144.8163112702195
 10
82.98167044366431
 20
-144.8163112702195
 10
82.98167044366431
 20
-144.8163112702195
 10
82.65163029617737
 20
-144.8163112702195
 10
82.65163029617737
 20
-144.8163112702195
 10
82.65163029617737
 20
-144.8163112702195
 10
82.65163029617737
 20
-144.6681721643538
 10
82.65163029617737
 20
-144.6681721643538
 10
82.98373750095546
 20
-144.6533582537672
 10
83.03024629000633
 20
-144.4904052373149
 10
83.05987411117948
 20
-144.3760280672046
 10
83.05987411117948
 20
-144.3760280672046
 10
83.20594615975408
 20
-144.3760280672046
 10
83.20594615975408
 20
-144.3760280672046
 10
83.20594615975408
 20
-144.3760280672046
 10
83.20594615975408
 20
-145.9204643732421
 10
83.20594615975408
 20
-145.9204643732421
 10
83.20594615975408
 20
-145.9204643732421
 10
82.98167044366431
 20
-145.9204643732421
 10
82.98167044366431
 20
-145.9204643732421
 97
        0
 97
        0
 75
     2
 76
     1
 98
        0
  0
SPLINE
  5
164
330
15E
100
AcDbEntity
  8
_U+30EC_U+30A4_U+30E4_U+30FC 1
370
     0
100
AcDbSpline
210
0.0
220
0.0
230
1.0
 70
    11
 71
     3
 72
    29
 73
    25
 74
     0
 42
0.0000000001
 43
0.0000000001
 12
1.0
 22
0.0
 32
0.0
 13
1.0
 23
0.0
 33
0.0
 40
0.0
 40
0.0
 40
0.0
 40
0.0
 40
1.0
 40
1.0
 40
1.0
 40
2.0
 40
2.0
 40
2.0
 40
3.0
 40
3.0
 40
3.0
 40
4.0
 40
4.0
 40
4.0
 40
5.0
 40
5.0
 40
5.0
 40
6.0
 40
6.0
 40
6.0
 40
7.0
 40
7.0
 40
7.0
 40
8.0
 40
8.0
 40
8.0
 40
8.0
 10
84.60499943631403
 20
-145.7426974462032
 30
0.0
 10
84.49682343807719
 20
-145.9521592517064
 30
0.0
 10
84.32353513516912
 20
-145.9711072768753
 30
0.0
 10
84.20709090776768
 20
-145.9711072768753
 30
0.0
 10
84.0462049486065
 20
-145.9711072768753
 30
0.0
 10
83.90461152416275
 20
-145.9245984878244
 30
0.0
 10
83.80952688876984
 20
-145.7426974462032
 30
0.0
 10
83.70582951466382
 20
-145.5480495512866
 30
0.0
 10
83.68653697994642
 20
-145.3110269819014
 30
0.0
 10
83.68653697994642
 20
-145.1484184749976
 30
0.0
 10
83.68653697994642
 20
-145.0044134837142
 30
0.0
 10
83.70376245737268
 20
-144.7525770037424
 30
0.0
 10
83.80952688876984
 20
-144.5537949942435
 30
0.0
 10
83.91735837745816
 20
-144.3508788701623
 30
0.0
 10
84.07824433661933
 20
-144.3274522208626
 30
0.0
 10
84.20709090776768
 20
-144.3274522208626
 30
0.0
 10
84.3659098096377
 20
-144.3274522208626
 30
0.0
 10
84.50957029137261
 20
-144.3718939526223
 30
0.0
 10
84.60499943631403
 20
-144.5537949942435
 30
0.0
 10
84.70421818628922
 20
-144.746375831869
 30
0.0
 10
84.72764483558893
 20
-144.974785662541
 30
0.0
 10
84.72764483558893
 20
-145.1484184749976
 30
0.0
 10
84.72764483558893
 20
-145.3196397206145
 30
0.0
 10
84.70628524358038
 20
-145.5501166085778
 30
0.0
 10
84.60499943631403
 20
-145.7426974462032
 30
0.0
  0
SPLINE
  5
165
330
15E
100
AcDbEntity
  8
_U+30EC_U+30A4_U+30E4_U+30FC 1
370
     0
100
AcDbSpline
210
0.0
220
0.0
230
1.0
 70
    11
 71
     3
 72
    17
 73
    13
 74
     0
 42
0.0000000001
 43
0.0000000001
 12
1.0
 22
0.0
 32
0.0
 13
1.0
 23
0.0
 33
0.0
 40
0.0
 40
0.0
 40
0.0
 40
0.0
 40
1.0
 40
1.0
 40
1.0
 40
2.0
 40
2.0
 40
2.0
 40
3.0
 40
3.0
 40
3.0
 40
4.0
 40
4.0
 40
4.0
 40
4.0
 10
84.20709090776768
 20
-144.5200330584881
 30
0.0
 10
83.95732148508706
 20
-144.5200330584881
 30
0.0
 10
83.91081269603619
 20
-144.8035644169241
 30
0.0
 10
83.91081269603619
 20
-145.1484184749976
 30
0.0
 10
83.91081269603619
 20
-145.4677788264803
 30
0.0
 10
83.94698619863131
 20
-145.7764593819587
 30
0.0
 10
84.20709090776768
 20
-145.7764593819587
 30
0.0
 10
84.45479327315714
 20
-145.7764593819587
 30
0.0
 10
84.50336911949915
 20
-145.4953395903623
 30
0.0
 10
84.50336911949915
 20
-145.1484184749976
 30
0.0
 10
84.50336911949915
 20
-144.8287136139664
 30
0.0
 10
84.4651285596129
 20
-144.5200330584881
 30
0.0
 10
84.20709090776768
 20
-144.5200330584881
 30
0.0
  0
HATCH
  5
166
330
15E
100
AcDbEntity
  8
_U+30EC_U+30A4_U+30E4_U+30FC 1
 62
   179
420
  2234388
100
AcDbHatch
 10
0.0
 20
0.0
 30
0.0
210
0.0
220
0.0
230
1.0
  2
SOLID
 70
     1
 71
     0
 91
        2
 92
        1
 93
        1
 72
     4
 94
        3
 73
     0
 74
     1
 95
       29
 96
       25
 40
0.0
 40
0.0
 40
0.0
 40
0.0
 40
1.0
 40
1.0
 40
1.0
 40
2.0
 40
2.0
 40
2.0
 40
3.0
 40
3.0
 40
3.0
 40
4.0
 40
4.0
 40
4.0
 40
5.0
 40
5.0
 40
5.0
 40
6.0
 40
6.0
 40
6.0
 40
7.0
 40
7.0
 40
7.0
 40
8.0
 40
8.0
 40
8.0
 40
8.0
 10
84.60499943631403
 20
-145.7426974462032
 10
84.49682343807719
 20
-145.9521592517064
 10
84.32353513516912
 20
-145.9711072768753
 10
84.20709090776768
 20
-145.9711072768753
 10
84.0462049486065
 20
-145.9711072768753
 10
83.90461152416275
 20
-145.9245984878244
 10
83.80952688876984
 20
-145.7426974462032
 10
83.70582951466382
 20
-145.5480495512866
 10
83.68653697994642
 20
-145.3110269819014
 10
83.68653697994642
 20
-145.1484184749976
 10
83.68653697994642
 20
-145.0044134837142
 10
83.70376245737268
 20
-144.7525770037424
 10
83.80952688876984
 20
-144.5537949942435
 10
83.91735837745816
 20
-144.3508788701623
 10
84.07824433661933
 20
-144.3274522208626
 10
84.20709090776768
 20
-144.3274522208626
 10
84.3659098096377
 20
-144.3274522208626
 10
84.50957029137261
 20
-144.3718939526223
 10
84.60499943631403
 20
-144.5537949942435
 10
84.70421818628922
 20
-144.746375831869
 10
84.72764483558893
 20
-144.974785662541
 10
84.72764483558893
 20
-145.1484184749976
 10
84.72764483558893
 20
-145.3196397206145
 10
84.70628524358038
 20
-145.5501166085778
 10
84.60499943631403
 20
-145.7426974462032
 97
        0
 97
        0
 92
        1
 93
        1
 72
     4
 94
        3
 73
     0
 74
     1
 95
       17
 96
       13
 40
0.0
 40
0.0
 40
0.0
 40
0.0
 40
1.0
 40
1.0
 40
1.0
 40
2.0
 40
2.0
 40
2.0
 40
3.0
 40
3.0
 40
3.0
 40
4.0
 40
4.0
 40
4.0
 40
4.0
 10
84.20709090776768
 20
-144.5200330584881
 10
83.95732148508706
 20
-144.5200330584881
 10
83.91081269603619
 20
-144.8035644169241
 10
83.91081269603619
 20
-145.1484184749976
 10
83.91081269603619
 20
-145.4677788264803
 10
83.94698619863131
 20
-145.7764593819587
 10
84.20709090776768
 20
-145.7764593819587
 10
84.45479327315714
 20
-145.7764593819587
 10
84.50336911949915
 20
-145.4953395903623
 10
84.50336911949915
 20
-145.1484184749976
 10
84.50336911949915
 20
-144.8287136139664
 10
84.4651285596129
 20
-144.5200330584881
 10
84.20709090776768
 20
-144.5200330584881
 97
        0
 97
        0
 75
     2
 76
     1
 98
        0
  0
ENDBLK
  5
161
330
15E
100
AcDbEntity
  8
0
100
AcDbBlockEnd
  0
ENDSEC
  0
SECTION
  2
ENTITIES
  0
POLYLINE
  5
41
330
1F
100
AcDbEntity
  8
_U+30EC_U+30A4_U+30E4_U+30FC 1
 62
   179
420
  2234388
370
    25
100
AcDb2dPolyline
 66
     1
 10
0.0
 20
0.0
 30
0.0
  0
VERTEX
  5
42
330
41
100
AcDbEntity
  8
_U+30EC_U+30A4_U+30E4_U+30FC 1
 62
   179
420
  2234388
370
    25
100
AcDbVertex
100
AcDb2dVertex
 10
78.64171410479383
 20
-131.5165080226765
 30
0.0
  0
VERTEX
  5
43
330
41
100
AcDbEntity
  8
_U+30EC_U+30A4_U+30E4_U+30FC 1
 62
   179
420
  2234388
370
    25
100
AcDbVertex
100
AcDb2dVertex
 10
78.64171410479383
 20
-138.0170735766067
 30
0.0
  0
SEQEND
  5
44
330
41
100
AcDbEntity
  8
_U+30EC_U+30A4_U+30E4_U+30FC 1
 62
   179
420
  2234388
370
    25
  0
POLYLINE
  5
45
330
1F
100
AcDbEntity
  8
_U+30EC_U+30A4_U+30E4_U+30FC 1
 62
   179
420
  2234388
370
    25
100
AcDb2dPolyline
 66
     1
 10
0.0
 20
0.0
 30
0.0
  0
VERTEX
  5
46
330
45
100
AcDbEntity
  8
_U+30EC_U+30A4_U+30E4_U+30FC 1
 62
   179
420
  2234388
370
    25
100
AcDbVertex
100
AcDb2dVertex
 10
81.1416384854599
 20
-140.5168216315373
 30
0.0
  0
VERTEX
  5
47
330
45
100
AcDbEntity
  8
_U+30EC_U+30A4_U+30E4_U+30FC 1
 62
   179
420
  2234388
370
    25
100
AcDbVertex
100
AcDb2dVertex
 10
87.64132193075027
 20
-140.5168216315373
 30
0.0
  0
SEQEND
  5
48
330
45
100
AcDbEntity
  8
_U+30EC_U+30A4_U+30E4_U+30FC 1
 62
   179
420
  2234388
370
    25
  0
POLYLINE
  5
49
330
1F
100
AcDbEntity
  8
_U+30EC_U+30A4_U+30E4_U+30FC 1
 62
   179
420
  2234388
370
    25
100
AcDb2dPolyline
 66
     1
 10
0.0
 20
0.0
 30
0.0
  0
VERTEX
  5
4A
330
49
100
AcDbEntity
  8
_U+30EC_U+30A4_U+30E4_U+30FC 1
 62
   179
420
  2234388
370
    25
100
AcDbVertex
100
AcDb2dVertex
 10
81.01622598865944
 20
-139.5170494095654
 30
0.0
  0
VERTEX
  5
4B
330
49
100
AcDbEntity
  8
_U+30EC_U+30A4_U+30E4_U+30FC 1
 62
   179
420
  2234388
370
    25
100
AcDbVertex
100
AcDb2dVertex
 10
88.64162329411934
 20
-139.5170494095654
 30
0.0
  0
SEQEND
  5
4C
330
49
100
AcDbEntity
  8
_U+30EC_U+30A4_U+30E4_U+30FC 1
 62
   179
420
  2234388
370
    25
  0
POLYLINE
  5
4D
330
1F
100
AcDbEntity
  8
_U+30EC_U+30A4_U+30E4_U+30FC 1
 62
   179
420
  2234388
370
    25
100
AcDb2dPolyline
 66
     1
 10
0.0
 20
0.0
 30
0.0
  0
VERTEX
  5
4E
330
4D
100
AcDbEntity
  8
_U+30EC_U+30A4_U+30E4_U+30FC 1
 62
   179
420
  2234388
370
    25
100
AcDbVertex
100
AcDb2dVertex
 10
79.64166269039413
 20
-130.5167710784821
 30
0.0
  0
VERTEX
  5
4F
330
4D
100
AcDbEntity
  8
_U+30EC_U+30A4_U+30E4_U+30FC 1
 62
   179
420
  2234388
370
    25
100
AcDbVertex
100
AcDb2dVertex
 10
79.64166269039413
 20
-138.0315374654923
 30
0.0
  0
SEQEND
  5
50
330
4D
100
AcDbEntity
  8
_U+30EC_U+30A4_U+30E4_U+30FC 1
 62
   179
420
  2234388
370
    25
  0
POLYLINE
  5
51
330
1F
100
AcDbEntity
  8
_U+30EC_U+30A4_U+30E4_U+30FC 1
 62
   179
420
  2234388
370
    25
100
AcDb2dPolyline
 66
     1
 10
0.0
 20
0.0
 30
0.0
  0
VERTEX
  5
52
330
51
100
AcDbEntity
  8
_U+30EC_U+30A4_U+30E4_U+30FC 1
 62
   179
420
  2234388
370
    25
100
AcDbVertex
100
AcDb2dVertex
 10
83.141676767768
 20
-136.0171763548845
 30
0.0
  0
VERTEX
  5
53
330
51
100
AcDbEntity
  8
_U+30EC_U+30A4_U+30E4_U+30FC 1
 62
   179
420
  2234388
370
    25
100
AcDbVertex
100
AcDb2dVertex
 10
103.1392726464757
 20
-136.0171763548845
 30
0.0
  0
SEQEND
  5
54
330
51
100
AcDbEntity
  8
_U+30EC_U+30A4_U+30E4_U+30FC 1
 62
   179
420
  2234388
370
    25
  0
POLYLINE
  5
55
330
1F
100
AcDbEntity
  8
_U+30EC_U+30A4_U+30E4_U+30FC 1
 62
   179
420
  2234388
370
    25
100
AcDb2dPolyline
 66
     1
 10
0.0
 20
0.0
 30
0.0
  0
VERTEX
  5
56
330
55
100
AcDbEntity
  8
_U+30EC_U+30A4_U+30E4_U+30FC 1
 62
   179
420
  2234388
370
    25
100
AcDbVertex
100
AcDb2dVertex
 10
83.141676767768
 20
-116.0168635821071
 30
0.0
  0
VERTEX
  5
57
330
55
100
AcDbEntity
  8
_U+30EC_U+30A4_U+30E4_U+30FC 1
 62
   179
420
  2234388
370
    25
100
AcDbVertex
100
AcDb2dVertex
 10
83.141676767768
 20
-136.0171763548845
 30
0.0
  0
SEQEND
  5
58
330
55
100
AcDbEntity
  8
_U+30EC_U+30A4_U+30E4_U+30FC 1
 62
   179
420
  2234388
370
    25
  0
POLYLINE
  5
59
330
1F
100
AcDbEntity
  8
_U+30EC_U+30A4_U+30E4_U+30FC 1
 62
   179
420
  2234388
370
    25
100
AcDb2dPolyline
 66
     1
 10
0.0
 20
0.0
 30
0.0
  0
VERTEX
  5
5A
330
59
100
AcDbEntity
  8
_U+30EC_U+30A4_U+30E4_U+30FC 1
 62
   179
420
  2234388
370
    25
100
AcDbVertex
100
AcDb2dVertex
 10
82.04203318471113
 20
-130.0172024674958
 30
0.0
  0
VERTEX
  5
5B
330
59
100
AcDbEntity
  8
_U+30EC_U+30A4_U+30E4_U+30FC 1
 62
   179
420
  2234388
370
    25
100
AcDbVertex
100
AcDb2dVertex
 10
82.14193984882897
 20
-129.9166255230761
 30
0.0
  0
SEQEND
  5
5C
330
59
100
AcDbEntity
  8
_U+30EC_U+30A4_U+30E4_U+30FC 1
 62
   179
420
  2234388
370
    25
  0
POLYLINE
  5
5D
330
1F
100
AcDbEntity
  8
_U+30EC_U+30A4_U+30E4_U+30FC 1
 62
   179
420
  2234388
370
    25
100
AcDb2dPolyline
 66
     1
 10
0.0
 20
0.0
 30
0.0
  0
VERTEX
  5
5E
330
5D
100
AcDbEntity
  8
_U+30EC_U+30A4_U+30E4_U+30FC 1
 62
   179
420
  2234388
370
    25
100
AcDbVertex
100
AcDb2dVertex
 10
89.14168578136169
 20
-137.1168552434986
 30
0.0
  0
VERTEX
  5
5F
330
5D
100
AcDbEntity
  8
_U+30EC_U+30A4_U+30E4_U+30FC 1
 62
   179
420
  2234388
370
    25
100
AcDbVertex
100
AcDb2dVertex
 10
89.24159244547953
 20
-137.016948576857
 30
0.0
  0
SEQEND
  5
60
330
5D
100
AcDbEntity
  8
_U+30EC_U+30A4_U+30E4_U+30FC 1
 62
   179
420
  2234388
370
    25
  0
POLYLINE
  5
61
330
1F
100
AcDbEntity
  8
_U+30EC_U+30A4_U+30E4_U+30FC 1
 62
   179
420
  2234388
370
    25
100
AcDb2dPolyline
 66
     1
 10
0.0
 20
0.0
 30
0.0
  0
VERTEX
  5
62
330
61
100
AcDbEntity
  8
_U+30EC_U+30A4_U+30E4_U+30FC 1
 62
   179
420
  2234388
370
    25
100
AcDbVertex
100
AcDb2dVertex
 10
80.8136609938273
 20
-138.9958202430287
 30
0.0
  0
VERTEX
  5
63
330
61
100
AcDbEntity
  8
_U+30EC_U+30A4_U+30E4_U+30FC 1
 62
   179
420
  2234388
370
    25
100
AcDbVertex
100
AcDb2dVertex
 10
82.95530427252277
 20
-137.1168552434986
 30
0.0
  0
SEQEND
  5
64
330
61
100
AcDbEntity
  8
_U+30EC_U+30A4_U+30E4_U+30FC 1
 62
   179
420
  2234388
370
    25
  0
POLYLINE
  5
65
330
1F
100
AcDbEntity
  8
_U+30EC_U+30A4_U+30E4_U+30FC 1
 62
   179
420
  2234388
370
    25
100
AcDb2dPolyline
 66
     1
 10
0.0
 20
0.0
 30
0.0
  0
VERTEX
  5
66
330
65
100
AcDbEntity
  8
_U+30EC_U+30A4_U+30E4_U+30FC 1
 62
   179
420
  2234388
370
    25
100
AcDbVertex
100
AcDb2dVertex
 10
80.14461795534045
 20
-138.2527291321032
 30
0.0
  0
VERTEX
  5
67
330
65
100
AcDbEntity
  8
_U+30EC_U+30A4_U+30E4_U+30FC 1
 62
   179
420
  2234388
370
    25
100
AcDbVertex
100
AcDb2dVertex
 10
82.04203318471113
 20
-136.5980249658506
 30
0.0
  0
SEQEND
  5
68
330
65
100
AcDbEntity
  8
_U+30EC_U+30A4_U+30E4_U+30FC 1
 62
   179
420
  2234388
370
    25
  0
POLYLINE
  5
69
330
1F
100
AcDbEntity
  8
_U+30EC_U+30A4_U+30E4_U+30FC 1
 62
   179
420
  2234388
370
     9
100
AcDb2dPolyline
 66
     1
 10
0.0
 20
0.0
 30
0.0
  0
VERTEX
  5
6A
330
69
100
AcDbEntity
  8
_U+30EC_U+30A4_U+30E4_U+30FC 1
 62
   179
420
  2234388
370
     9
100
AcDbVertex
100
AcDb2dVertex
 10
79.00825020655384
 20
-139.3200230207254
 30
0.0
  0
VERTEX
  5
6B
330
69
100
AcDbEntity
  8
_U+30EC_U+30A4_U+30E4_U+30FC 1
 62
   179
420
  2234388
370
     9
100
AcDbVertex
100
AcDb2dVertex
 10
78.0489768976936
 20
-139.6028449650991
 30
0.0
  0
SEQEND
  5
6C
330
69
100
AcDbEntity
  8
_U+30EC_U+30A4_U+30E4_U+30FC 1
 62
   179
420
  2234388
370
     9
  0
POLYLINE
  5
6D
330
1F
100
AcDbEntity
  8
_U+30EC_U+30A4_U+30E4_U+30FC 1
 62
   179
420
  2234388
370
     9
100
AcDb2dPolyline
 66
     1
 10
0.0
 20
0.0
 30
0.0
  0
VERTEX
  5
6E
330
6D
100
AcDbEntity
  8
_U+30EC_U+30A4_U+30E4_U+30FC 1
 62
   179
420
  2234388
370
     9
100
AcDbVertex
100
AcDb2dVertex
 10
79.00825020655384
 20
-139.3200230207254
 30
0.0
  0
VERTEX
  5
6F
330
6D
100
AcDbEntity
  8
_U+30EC_U+30A4_U+30E4_U+30FC 1
 62
   179
420
  2234388
370
     9
100
AcDbVertex
100
AcDb2dVertex
 10
78.31888716858539
 20
-140.0445227427666
 30
0.0
  0
SEQEND
  5
70
330
6D
100
AcDbEntity
  8
_U+30EC_U+30A4_U+30E4_U+30FC 1
 62
   179
420
  2234388
370
     9
  0
POLYLINE
  5
71
330
1F
100
AcDbEntity
  8
_U+30EC_U+30A4_U+30E4_U+30FC 1
 62
   179
420
  2234388
370
    25
100
AcDb2dPolyline
 66
     1
 10
0.0
 20
0.0
 30
0.0
  0
VERTEX
  5
72
330
71
100
AcDbEntity
  8
_U+30EC_U+30A4_U+30E4_U+30FC 1
 62
   179
420
  2234388
370
    25
100
AcDbVertex
100
AcDb2dVertex
 10
82.14193984882897
 20
-117.0169885818567
 30
0.0
  0
VERTEX
  5
73
330
71
100
AcDbEntity
  8
_U+30EC_U+30A4_U+30E4_U+30FC 1
 62
   179
420
  2234388
370
    25
100
AcDbVertex
100
AcDb2dVertex
 10
82.14193984882897
 20
-129.9166255230761
 30
0.0
  0
SEQEND
  5
74
330
71
100
AcDbEntity
  8
_U+30EC_U+30A4_U+30E4_U+30FC 1
 62
   179
420
  2234388
370
    25
  0
POLYLINE
  5
75
330
1F
100
AcDbEntity
  8
_U+30EC_U+30A4_U+30E4_U+30FC 1
 62
   179
420
  2234388
370
    25
100
AcDb2dPolyline
 66
     1
 10
0.0
 20
0.0
 30
0.0
  0
VERTEX
  5
76
330
75
100
AcDbEntity
  8
_U+30EC_U+30A4_U+30E4_U+30FC 1
 62
   179
420
  2234388
370
    25
100
AcDbVertex
100
AcDb2dVertex
 10
82.04203318471113
 20
-130.0172024674958
 30
0.0
  0
VERTEX
  5
77
330
75
100
AcDbEntity
  8
_U+30EC_U+30A4_U+30E4_U+30FC 1
 62
   179
420
  2234388
370
    25
100
AcDbVertex
100
AcDb2dVertex
 10
82.04203318471113
 20
-136.5980249658506
 30
0.0
  0
SEQEND
  5
78
330
75
100
AcDbEntity
  8
_U+30EC_U+30A4_U+30E4_U+30FC 1
 62
   179
420
  2234388
370
    25
  0
POLYLINE
  5
79
330
1F
100
AcDbEntity
  8
_U+30EC_U+30A4_U+30E4_U+30FC 1
 62
   179
420
  2234388
370
    25
100
AcDb2dPolyline
 66
     1
 10
0.0
 20
0.0
 30
0.0
  0
VERTEX
  5
7A
330
79
100
AcDbEntity
  8
_U+30EC_U+30A4_U+30E4_U+30FC 1
 62
   179
420
  2234388
370
    25
100
AcDbVertex
100
AcDb2dVertex
 10
82.95530427252277
 20
-137.1168552434986
 30
0.0
  0
VERTEX
  5
7B
330
79
100
AcDbEntity
  8
_U+30EC_U+30A4_U+30E4_U+30FC 1
 62
   179
420
  2234388
370
    25
100
AcDbVertex
100
AcDb2dVertex
 10
89.14168578136169
 20
-137.1168552434986
 30
0.0
  0
SEQEND
  5
7C
330
79
100
AcDbEntity
  8
_U+30EC_U+30A4_U+30E4_U+30FC 1
 62
   179
420
  2234388
370
    25
  0
POLYLINE
  5
7D
330
1F
100
AcDbEntity
  8
_U+30EC_U+30A4_U+30E4_U+30FC 1
 62
   179
420
  2234388
370
    25
100
AcDb2dPolyline
 66
     1
 10
0.0
 20
0.0
 30
0.0
  0
VERTEX
  5
7E
330
7D
100
AcDbEntity
  8
_U+30EC_U+30A4_U+30E4_U+30FC 1
 62
   179
420
  2234388
370
    25
100
AcDbVertex
100
AcDb2dVertex
 10
89.24159244547953
 20
-137.016948576857
 30
0.0
  0
VERTEX
  5
7F
330
7D
100
AcDbEntity
  8
_U+30EC_U+30A4_U+30E4_U+30FC 1
 62
   179
420
  2234388
370
    25
100
AcDbVertex
100
AcDb2dVertex
 10
102.1398532275286
 20
-137.016948576857
 30
0.0
  0
SEQEND
  5
80
330
7D
100
AcDbEntity
  8
_U+30EC_U+30A4_U+30E4_U+30FC 1
 62
   179
420
  2234388
370
    25
  0
SPLINE
  5
81
330
1F
100
AcDbEntity
  8
_U+30EC_U+30A4_U+30E4_U+30FC 1
 62
   179
420
  2234388
370
    25
100
AcDbSpline
210
0.0
220
0.0
230
1.0
 70
     8
 71
     3
 72
     8
 73
     4
 74
     0
 42
0.0000000001
 43
0.0000000001
 12
1.0
 22
0.0
 32
0.0
 13
1.0
 23
0.0
 33
0.0
 40
0.0
 40
0.0
 40
0.0
 40
0.0
 40
1.0
 40
1.0
 40
1.0
 40
1.0
 10
78.64171410479383
 20
-138.0170735766067
 30
0.0
 10
78.64171410479383
 20
-139.3975282984837
 30
0.0
 10
79.76086629846411
 20
-140.5168216315373
 30
0.0
 10
81.1416384854599
 20
-140.5168216315373
 30
0.0
  0
SPLINE
  5
82
330
1F
100
AcDbEntity
  8
_U+30EC_U+30A4_U+30E4_U+30FC 1
 62
   179
420
  2234388
370
    25
100
AcDbSpline
210
0.0
220
0.0
230
1.0
 70
     8
 71
     3
 72
     8
 73
     4
 74
     0
 42
0.0000000001
 43
0.0000000001
 12
1.0
 22
0.0
 32
0.0
 13
1.0
 23
0.0
 33
0.0
 40
0.0
 40
0.0
 40
0.0
 40
0.0
 40
1.0
 40
1.0
 40
1.0
 40
1.0
 10
87.64132193075027
 20
-140.5168216315373
 30
0.0
 10
88.1939130277636
 20
-140.5168216315373
 30
0.0
 10
88.64162329411934
 20
-140.069323020538
 30
0.0
 10
88.64162329411934
 20
-139.5170494095654
 30
0.0
  0
SPLINE
  5
83
330
1F
100
AcDbEntity
  8
_U+30EC_U+30A4_U+30E4_U+30FC 1
 62
   179
420
  2234388
370
    25
100
AcDbSpline
210
0.0
220
0.0
230
1.0
 70
     8
 71
     3
 72
     8
 73
     4
 74
     0
 42
0.0000000001
 43
0.0000000001
 12
1.0
 22
0.0
 32
0.0
 13
1.0
 23
0.0
 33
0.0
 40
0.0
 40
0.0
 40
0.0
 40
0.0
 40
1.0
 40
1.0
 40
1.0
 40
1.0
 10
79.64166269039413
 20
-130.5167710784821
 30
0.0
 10
79.0893890933727
 20
-130.5167710784821
 30
0.0
 10
78.64171410479383
 20
-130.9646224672592
 30
0.0
 10
78.64171410479383
 20
-131.5165080226765
 30
0.0
  0
SPLINE
  5
84
330
1F
100
AcDbEntity
  8
_U+30EC_U+30A4_U+30E4_U+30FC 1
 62
   179
420
  2234388
370
    25
100
AcDbSpline
210
0.0
220
0.0
230
1.0
 70
     8
 71
     3
 72
    11
 73
     7
 74
     0
 42
0.0000000001
 43
0.0000000001
 12
1.0
 22
0.0
 32
0.0
 13
1.0
 23
0.0
 33
0.0
 40
0.0
 40
0.0
 40
0.0
 40
0.0
 40
1.0
 40
1.0
 40
1.0
 40
2.0
 40
2.0
 40
2.0
 40
2.0
 10
80.8136609938273
 20
-138.9958202430287
 30
0.0
 10
80.69170571916086
 20
-139.1077919096674
 30
0.0
 10
80.68345275760686
 20
-139.297621631842
 30
0.0
 10
80.79506960541272
 20
-139.4195769095893
 30
0.0
 10
80.8519021039628
 20
-139.4815952429074
 30
0.0
 10
80.93219432413659
 20
-139.5170494095654
 30
0.0
 10
81.01622598865944
 20
-139.5170494095654
 30
0.0
  0
SPLINE
  5
85
330
1F
100
AcDbEntity
  8
_U+30EC_U+30A4_U+30E4_U+30FC 1
 62
   179
420
  2234388
370
    25
100
AcDbSpline
210
0.0
220
0.0
230
1.0
 70
     8
 71
     3
 72
    11
 73
     7
 74
     0
 42
0.0000000001
 43
0.0000000001
 12
1.0
 22
0.0
 32
0.0
 13
1.0
 23
0.0
 33
0.0
 40
0.0
 40
0.0
 40
0.0
 40
0.0
 40
1.0
 40
1.0
 40
1.0
 40
2.0
 40
2.0
 40
2.0
 40
2.0
 10
79.64166269039413
 20
-138.0315374654923
 30
0.0
 10
79.64166269039413
 20
-138.197237187673
 30
0.0
 10
79.77600046474467
 20
-138.331610243195
 30
0.0
 10
79.94170018273954
 20
-138.331610243195
 30
0.0
 10
80.0168065697123
 20
-138.331610243195
 30
0.0
 10
80.0891612900886
 20
-138.3033527432017
 30
0.0
 10
80.14461795534045
 20
-138.2527291321032
 30
0.0
  0
SPLINE
  5
86
330
1F
100
AcDbEntity
  8
_U+30EC_U+30A4_U+30E4_U+30FC 1
 62
   179
420
  2234388
370
     9
100
AcDbSpline
210
0.0
220
0.0
230
1.0
 70
    11
 71
     3
 72
    17
 73
    13
 74
     0
 42
0.0000000001
 43
0.0000000001
 12
1.0
 22
0.0
 32
0.0
 13
1.0
 23
0.0
 33
0.0
 40
0.0
 40
0.0
 40
0.0
 40
0.0
 40
1.0
 40
1.0
 40
1.0
 40
2.0
 40
2.0
 40
2.0
 40
3.0
 40
3.0
 40
3.0
 40
4.0
 40
4.0
 40
4.0
 40
4.0
 10
78.74179715779606
 20
-122.5168999693709
 30
0.0
 10
78.74179715779606
 20
-122.4617608027178
 30
0.0
 10
78.6969943811613
 20
-122.416993302729
 30
0.0
 10
78.64171410479383
 20
-122.416993302729
 30
0.0
 10
78.58657493953389
 20
-122.416993302729
 30
0.0
 10
78.541807440676
 20
-122.4617608027178
 30
0.0
 10
78.541807440676
 20
-122.5168999693709
 30
0.0
 10
78.541807440676
 20
-122.5723566360236
 30
0.0
 10
78.58657493953389
 20
-122.6171594137903
 30
0.0
 10
78.64171410479383
 20
-122.6171594137903
 30
0.0
 10
78.6969943811613
 20
-122.6171594137903
 30
0.0
 10
78.74179715779606
 20
-122.5723566360236
 30
0.0
 10
78.74179715779606
 20
-122.5168999693709
 30
0.0
  0
SPLINE
  5
87
330
1F
100
AcDbEntity
  8
_U+30EC_U+30A4_U+30E4_U+30FC 1
 62
   179
420
  2234388
370
     9
100
AcDbSpline
210
0.0
220
0.0
230
1.0
 70
    11
 71
     3
 72
    17
 73
    13
 74
     0
 42
0.0000000001
 43
0.0000000001
 12
1.0
 22
0.0
 32
0.0
 13
1.0
 23
0.0
 33
0.0
 40
0.0
 40
0.0
 40
0.0
 40
0.0
 40
1.0
 40
1.0
 40
1.0
 40
2.0
 40
2.0
 40
2.0
 40
3.0
 40
3.0
 40
3.0
 40
4.0
 40
4.0
 40
4.0
 40
4.0
 10
79.74156935451197
 20
-122.5168999693709
 30
0.0
 10
79.74156935451197
 20
-122.4617608027178
 30
0.0
 10
79.6967665778772
 20
-122.416993302729
 30
0.0
 10
79.64166269039413
 20
-122.416993302729
 30
0.0
 10
79.58652352513418
 20
-122.416993302729
 30
0.0
 10
79.5417560262763
 20
-122.4617608027178
 30
0.0
 10
79.5417560262763
 20
-122.5168999693709
 30
0.0
 10
79.5417560262763
 20
-122.5723566360236
 30
0.0
 10
79.58652352513418
 20
-122.6171594137903
 30
0.0
 10
79.64166269039413
 20
-122.6171594137903
 30
0.0
 10
79.6967665778772
 20
-122.6171594137903
 30
0.0
 10
79.74156935451197
 20
-122.5723566360236
 30
0.0
 10
79.74156935451197
 20
-122.5168999693709
 30
0.0
  0
SPLINE
  5
88
330
1F
100
AcDbEntity
  8
_U+30EC_U+30A4_U+30E4_U+30FC 1
 62
   179
420
  2234388
370
     9
100
AcDbSpline
210
0.0
220
0.0
230
1.0
 70
    11
 71
     3
 72
    17
 73
    13
 74
     0
 42
0.0000000001
 43
0.0000000001
 12
1.0
 22
0.0
 32
0.0
 13
1.0
 23
0.0
 33
0.0
 40
0.0
 40
0.0
 40
0.0
 40
0.0
 40
1.0
 40
1.0
 40
1.0
 40
2.0
 40
2.0
 40
2.0
 40
3.0
 40
3.0
 40
3.0
 40
4.0
 40
4.0
 40
4.0
 40
4.0
 10
83.24158343188584
 20
-112.0169280275513
 30
0.0
 10
83.24158343188584
 20
-111.9616477497875
 30
0.0
 10
83.19681593302795
 20
-111.9168449720208
 30
0.0
 10
83.141676767768
 20
-111.9168449720208
 30
0.0
 10
83.08657497922826
 20
-111.9168449720208
 30
0.0
 10
83.04177220146187
 20
-111.9616477497875
 30
0.0
 10
83.04177220146187
 20
-112.0169280275513
 30
0.0
 10
83.04177220146187
 20
-112.0722435830929
 30
0.0
 10
83.08657497922826
 20
-112.1168346941929
 30
0.0
 10
83.141676767768
 20
-112.1168346941929
 30
0.0
 10
83.19681593302795
 20
-112.1168346941929
 30
0.0
 10
83.24158343188584
 20
-112.0722435830929
 30
0.0
 10
83.24158343188584
 20
-112.0169280275513
 30
0.0
  0
SPLINE
  5
89
330
1F
100
AcDbEntity
  8
_U+30EC_U+30A4_U+30E4_U+30FC 1
 62
   179
420
  2234388
370
     9
100
AcDbSpline
210
0.0
220
0.0
230
1.0
 70
    11
 71
     3
 72
    17
 73
    13
 74
     0
 42
0.0000000001
 43
0.0000000001
 12
1.0
 22
0.0
 32
0.0
 13
1.0
 23
0.0
 33
0.0
 40
0.0
 40
0.0
 40
0.0
 40
0.0
 40
1.0
 40
1.0
 40
1.0
 40
2.0
 40
2.0
 40
2.0
 40
3.0
 40
3.0
 40
3.0
 40
4.0
 40
4.0
 40
4.0
 40
4.0
 10
103.2391793105936
 20
-112.0169280275513
 30
0.0
 10
103.2391793105936
 20
-111.9616477497875
 30
0.0
 10
103.1943765339588
 20
-111.9168449720208
 30
0.0
 10
103.1392726464757
 20
-111.9168449720208
 30
0.0
 10
103.0841360853402
 20
-111.9168449720208
 30
0.0
 10
103.0393659823579
 20
-111.9616477497875
 30
0.0
 10
103.0393659823579
 20
-112.0169280275513
 30
0.0
 10
103.0393659823579
 20
-112.0722435830929
 30
0.0
 10
103.0841360853402
 20
-112.1168346941929
 30
0.0
 10
103.1392726464757
 20
-112.1168346941929
 30
0.0
 10
103.1943765339588
 20
-112.1168346941929
 30
0.0
 10
103.2391793105936
 20
-112.0722435830929
 30
0.0
 10
103.2391793105936
 20
-112.0169280275513
 30
0.0
  0
SPLINE
  5
8A
330
1F
100
AcDbEntity
  8
_U+30EC_U+30A4_U+30E4_U+30FC 1
 62
   179
420
  2234388
370
     9
100
AcDbSpline
210
0.0
220
0.0
230
1.0
 70
    11
 71
     3
 72
    17
 73
    13
 74
     0
 42
0.0000000001
 43
0.0000000001
 12
1.0
 22
0.0
 32
0.0
 13
1.0
 23
0.0
 33
0.0
 40
0.0
 40
0.0
 40
0.0
 40
0.0
 40
1.0
 40
1.0
 40
1.0
 40
2.0
 40
2.0
 40
2.0
 40
3.0
 40
3.0
 40
3.0
 40
4.0
 40
4.0
 40
4.0
 40
4.0
 10
107.2389383752179
 20
-116.0168635821071
 30
0.0
 10
107.2389383752179
 20
-115.961724415454
 30
0.0
 10
107.1941355985831
 20
-115.9169569154651
 30
0.0
 10
107.1390317111
 20
-115.9169569154651
 30
0.0
 10
107.0832249732291
 20
-115.9169569154651
 30
0.0
 10
107.0384221954624
 20
-115.961724415454
 30
0.0
 10
107.0384221954624
 20
-116.0168635821071
 30
0.0
 10
107.0384221954624
 20
-116.0721438598709
 30
0.0
 10
107.0832249732291
 20
-116.1169466376376
 30
0.0
 10
107.1390317111
 20
-116.1169466376376
 30
0.0
 10
107.1941355985831
 20
-116.1169466376376
 30
0.0
 10
107.2389383752179
 20
-116.0721438598709
 30
0.0
 10
107.2389383752179
 20
-116.0168635821071
 30
0.0
  0
SPLINE
  5
8B
330
1F
100
AcDbEntity
  8
_U+30EC_U+30A4_U+30E4_U+30FC 1
 62
   179
420
  2234388
370
     9
100
AcDbSpline
210
0.0
220
0.0
230
1.0
 70
    11
 71
     3
 72
    17
 73
    13
 74
     0
 42
0.0000000001
 43
0.0000000001
 12
1.0
 22
0.0
 32
0.0
 13
1.0
 23
0.0
 33
0.0
 40
0.0
 40
0.0
 40
0.0
 40
0.0
 40
1.0
 40
1.0
 40
1.0
 40
2.0
 40
2.0
 40
2.0
 40
3.0
 40
3.0
 40
3.0
 40
4.0
 40
4.0
 40
4.0
 40
4.0
 10
107.2389383752179
 20
-136.0171763548845
 30
0.0
 10
107.2389383752179
 20
-135.961366910454
 30
0.0
 10
107.1941355985831
 20
-135.9165994104655
 30
0.0
 10
107.1390317111
 20
-135.9165994104655
 30
0.0
 10
107.0832249732291
 20
-135.9165994104655
 30
0.0
 10
107.0384221954624
 20
-135.961366910454
 30
0.0
 10
107.0384221954624
 20
-136.0171763548845
 30
0.0
 10
107.0384221954624
 20
-136.0723155215375
 30
0.0
 10
107.0832249732291
 20
-136.1171182993043
 30
0.0
 10
107.1390317111
 20
-136.1171182993043
 30
0.0
 10
107.1941355985831
 20
-136.1171182993043
 30
0.0
 10
107.2389383752179
 20
-136.0723155215375
 30
0.0
 10
107.2389383752179
 20
-136.0171763548845
 30
0.0
  0
SPLINE
  5
8C
330
1F
100
AcDbEntity
  8
_U+30EC_U+30A4_U+30E4_U+30FC 1
 62
   179
420
  2234388
370
    25
100
AcDbSpline
210
0.0
220
0.0
230
1.0
 70
     8
 71
     3
 72
     8
 73
     4
 74
     0
 42
0.0000000001
 43
0.0000000001
 12
1.0
 22
0.0
 32
0.0
 13
1.0
 23
0.0
 33
0.0
 40
0.0
 40
0.0
 40
0.0
 40
0.0
 40
1.0
 40
1.0
 40
1.0
 40
1.0
 10
83.141676767768
 20
-116.0168635821071
 30
0.0
 10
82.58943844852344
 20
-116.0168635821071
 30
0.0
 10
82.14193984882897
 20
-116.4647149708838
 30
0.0
 10
82.14193984882897
 20
-117.0169885818567
 30
0.0
  0
SPLINE
  5
8D
330
1F
100
AcDbEntity
  8
_U+30EC_U+30A4_U+30E4_U+30FC 1
 62
   179
420
  2234388
370
    25
100
AcDbSpline
210
0.0
220
0.0
230
1.0
 70
     8
 71
     3
 72
     8
 73
     4
 74
     0
 42
0.0000000001
 43
0.0000000001
 12
1.0
 22
0.0
 32
0.0
 13
1.0
 23
0.0
 33
0.0
 40
0.0
 40
0.0
 40
0.0
 40
0.0
 40
1.0
 40
1.0
 40
1.0
 40
1.0
 10
102.1398532275286
 20
-137.016948576857
 30
0.0
 10
102.6914212690125
 20
-137.016948576857
 30
0.0
 10
103.1392726464757
 20
-136.56909718808
 30
0.0
 10
103.1392726464757
 20
-136.0171763548845
 30
0.0
  0
SPLINE
  5
8E
330
1F
100
AcDbEntity
  8
_U+30EC_U+30A4_U+30E4_U+30FC 1
 62
   179
420
  2234388
370
     9
100
AcDbSpline
210
0.0
220
0.0
230
1.0
 70
    11
 71
     3
 72
    17
 73
    13
 74
     0
 42
0.0000000001
 43
0.0000000001
 12
1.0
 22
0.0
 32
0.0
 13
1.0
 23
0.0
 33
0.0
 40
0.0
 40
0.0
 40
0.0
 40
0.0
 40
1.0
 40
1.0
 40
1.0
 40
2.0
 40
2.0
 40
2.0
 40
3.0
 40
3.0
 40
3.0
 40
4.0
 40
4.0
 40
4.0
 40
4.0
 10
107.2389383752179
 20
-137.016948576857
 30
0.0
 10
107.2389383752179
 20
-136.9618446879821
 30
0.0
 10
107.1941355985831
 20
-136.9170419102154
 30
0.0
 10
107.1390317111
 20
-136.9170419102154
 30
0.0
 10
107.0832249732291
 20
-136.9170419102154
 30
0.0
 10
107.0384221954624
 20
-136.9618446879821
 30
0.0
 10
107.0384221954624
 20
-137.016948576857
 30
0.0
 10
107.0384221954624
 20
-137.0720877435101
 30
0.0
 10
107.0832249732291
 20
-137.1168552434986
 30
0.0
 10
107.1390317111
 20
-137.1168552434986
 30
0.0
 10
107.1941355985831
 20
-137.1168552434986
 30
0.0
 10
107.2389383752179
 20
-137.0720877435101
 30
0.0
 10
107.2389383752179
 20
-137.016948576857
 30
0.0
  0
SPLINE
  5
8F
330
1F
100
AcDbEntity
  8
_U+30EC_U+30A4_U+30E4_U+30FC 1
 62
   179
420
  2234388
370
     9
100
AcDbSpline
210
0.0
220
0.0
230
1.0
 70
    11
 71
     3
 72
    17
 73
    13
 74
     0
 42
0.0000000001
 43
0.0000000001
 12
1.0
 22
0.0
 32
0.0
 13
1.0
 23
0.0
 33
0.0
 40
0.0
 40
0.0
 40
0.0
 40
0.0
 40
1.0
 40
1.0
 40
1.0
 40
2.0
 40
2.0
 40
2.0
 40
3.0
 40
3.0
 40
3.0
 40
4.0
 40
4.0
 40
4.0
 40
4.0
 10
107.2389383752179
 20
-139.5170494095654
 30
0.0
 10
107.2389383752179
 20
-139.4615927429121
 30
0.0
 10
107.1941355985831
 20
-139.4168252429235
 30
0.0
 10
107.1390317111
 20
-139.4168252429235
 30
0.0
 10
107.0832249732291
 20
-139.4168252429235
 30
0.0
 10
107.0384221954624
 20
-139.4615927429121
 30
0.0
 10
107.0384221954624
 20
-139.5170494095654
 30
0.0
 10
107.0384221954624
 20
-139.5721885762178
 30
0.0
 10
107.0832249732291
 20
-139.616956076207
 30
0.0
 10
107.1390317111
 20
-139.616956076207
 30
0.0
 10
107.1941355985831
 20
-139.616956076207
 30
0.0
 10
107.2389383752179
 20
-139.5721885762178
 30
0.0
 10
107.2389383752179
 20
-139.5170494095654
 30
0.0
  0
SPLINE
  5
90
330
1F
100
AcDbEntity
  8
_U+30EC_U+30A4_U+30E4_U+30FC 1
 62
   179
420
  2234388
370
     9
100
AcDbSpline
210
0.0
220
0.0
230
1.0
 70
    11
 71
     3
 72
    17
 73
    13
 74
     0
 42
0.0000000001
 43
0.0000000001
 12
1.0
 22
0.0
 32
0.0
 13
1.0
 23
0.0
 33
0.0
 40
0.0
 40
0.0
 40
0.0
 40
0.0
 40
1.0
 40
1.0
 40
1.0
 40
2.0
 40
2.0
 40
2.0
 40
3.0
 40
3.0
 40
3.0
 40
4.0
 40
4.0
 40
4.0
 40
4.0
 10
79.74156935451197
 20
-119.5167366367874
 30
0.0
 10
79.74156935451197
 20
-119.4615974701346
 30
0.0
 10
79.6967665778772
 20
-119.4168299701457
 30
0.0
 10
79.64166269039413
 20
-119.4168299701457
 30
0.0
 10
79.58652352513418
 20
-119.4168299701457
 30
0.0
 10
79.5417560262763
 20
-119.4615974701346
 30
0.0
 10
79.5417560262763
 20
-119.5167366367874
 30
0.0
 10
79.5417560262763
 20
-119.5721933034404
 30
0.0
 10
79.58652352513418
 20
-119.6169960812068
 30
0.0
 10
79.64166269039413
 20
-119.6169960812068
 30
0.0
 10
79.6967665778772
 20
-119.6169960812068
 30
0.0
 10
79.74156935451197
 20
-119.5721933034404
 30
0.0
 10
79.74156935451197
 20
-119.5167366367874
 30
0.0
  0
SPLINE
  5
91
330
1F
100
AcDbEntity
  8
_U+30EC_U+30A4_U+30E4_U+30FC 1
 62
   179
420
  2234388
370
     9
100
AcDbSpline
210
0.0
220
0.0
230
1.0
 70
    11
 71
     3
 72
    17
 73
    13
 74
     0
 42
0.0000000001
 43
0.0000000001
 12
1.0
 22
0.0
 32
0.0
 13
1.0
 23
0.0
 33
0.0
 40
0.0
 40
0.0
 40
0.0
 40
0.0
 40
1.0
 40
1.0
 40
1.0
 40
2.0
 40
2.0
 40
2.0
 40
3.0
 40
3.0
 40
3.0
 40
4.0
 40
4.0
 40
4.0
 40
4.0
 10
82.24184651294681
 20
-119.5167366367874
 30
0.0
 10
82.24184651294681
 20
-119.4615974701346
 30
0.0
 10
82.19704373631204
 20
-119.4168299701457
 30
0.0
 10
82.14193984882897
 20
-119.4168299701457
 30
0.0
 10
82.08680275725604
 20
-119.4168299701457
 30
0.0
 10
82.04203318471113
 20
-119.4615974701346
 30
0.0
 10
82.04203318471113
 20
-119.5167366367874
 30
0.0
 10
82.04203318471113
 20
-119.5721933034404
 30
0.0
 10
82.08680275725604
 20
-119.6169960812068
 30
0.0
 10
82.14193984882897
 20
-119.6169960812068
 30
0.0
 10
82.19704373631204
 20
-119.6169960812068
 30
0.0
 10
82.24184651294681
 20
-119.5721933034404
 30
0.0
 10
82.24184651294681
 20
-119.5167366367874
 30
0.0
  0
POLYLINE
  5
92
330
1F
100
AcDbEntity
  8
_U+30EC_U+30A4_U+30E4_U+30FC 1
 62
   179
420
  2234388
370
     9
100
AcDb2dPolyline
 66
     1
 10
0.0
 20
0.0
 30
0.0
  0
VERTEX
  5
93
330
92
100
AcDbEntity
  8
_U+30EC_U+30A4_U+30E4_U+30FC 1
 62
   179
420
  2234388
370
     9
100
AcDbVertex
100
AcDb2dVertex
 10
78.64171410479383
 20
-122.5168999693709
 30
0.0
  0
VERTEX
  5
94
330
92
100
AcDbEntity
  8
_U+30EC_U+30A4_U+30E4_U+30FC 1
 62
   179
420
  2234388
370
     9
100
AcDbVertex
100
AcDb2dVertex
 10
74.87140170098252
 20
-122.5168999693709
 30
0.0
  0
SEQEND
  5
95
330
92
100
AcDbEntity
  8
_U+30EC_U+30A4_U+30E4_U+30FC 1
 62
   179
420
  2234388
370
     9
  0
POLYLINE
  5
96
330
1F
100
AcDbEntity
  8
_U+30EC_U+30A4_U+30E4_U+30FC 1
 62
   179
420
  2234388
370
     9
100
AcDb2dPolyline
 66
     1
 10
0.0
 20
0.0
 30
0.0
  0
VERTEX
  5
97
330
96
100
AcDbEntity
  8
_U+30EC_U+30A4_U+30E4_U+30FC 1
 62
   179
420
  2234388
370
     9
100
AcDbVertex
100
AcDb2dVertex
 10
80.64175238710195
 20
-122.5168999693709
 30
0.0
  0
VERTEX
  5
98
330
96
100
AcDbEntity
  8
_U+30EC_U+30A4_U+30E4_U+30FC 1
 62
   179
420
  2234388
370
     9
100
AcDbVertex
100
AcDb2dVertex
 10
78.64171410479383
 20
-122.5168999693709
 30
0.0
  0
SEQEND
  5
99
330
96
100
AcDbEntity
  8
_U+30EC_U+30A4_U+30E4_U+30FC 1
 62
   179
420
  2234388
370
     9
  0
POLYLINE
  5
9A
330
1F
100
AcDbEntity
  8
_U+30EC_U+30A4_U+30E4_U+30FC 1
 62
   179
420
  2234388
370
     9
100
AcDb2dPolyline
 66
     1
 10
0.0
 20
0.0
 30
0.0
  0
VERTEX
  5
9B
330
9A
100
AcDbEntity
  8
_U+30EC_U+30A4_U+30E4_U+30FC 1
 62
   179
420
  2234388
370
     9
100
AcDbVertex
100
AcDb2dVertex
 10
79.64166269039413
 20
-123.9769413578946
 30
0.0
  0
VERTEX
  5
9C
330
9A
100
AcDbEntity
  8
_U+30EC_U+30A4_U+30E4_U+30FC 1
 62
   179
420
  2234388
370
     9
100
AcDbVertex
100
AcDb2dVertex
 10
79.64166269039413
 20
-121.5167749696209
 30
0.0
  0
SEQEND
  5
9D
330
9A
100
AcDbEntity
  8
_U+30EC_U+30A4_U+30E4_U+30FC 1
 62
   179
420
  2234388
370
     9
  0
POLYLINE
  5
9E
330
1F
100
AcDbEntity
  8
_U+30EC_U+30A4_U+30E4_U+30FC 1
 62
   179
420
  2234388
370
     9
100
AcDb2dPolyline
 66
     1
 10
0.0
 20
0.0
 30
0.0
  0
VERTEX
  5
9F
330
9E
100
AcDbEntity
  8
_U+30EC_U+30A4_U+30E4_U+30FC 1
 62
   179
420
  2234388
370
     9
100
AcDbVertex
100
AcDb2dVertex
 10
78.64171410479383
 20
-124.9770310798668
 30
0.0
  0
VERTEX
  5
A0
330
9E
100
AcDbEntity
  8
_U+30EC_U+30A4_U+30E4_U+30FC 1
 62
   179
420
  2234388
370
     9
100
AcDbVertex
100
AcDb2dVertex
 10
78.64171410479383
 20
-121.5167749696209
 30
0.0
  0
SEQEND
  5
A1
330
9E
100
AcDbEntity
  8
_U+30EC_U+30A4_U+30E4_U+30FC 1
 62
   179
420
  2234388
370
     9
  0
INSERT
  5
A3
330
1F
100
AcDbEntity
  8
_U+30EC_U+30A4_U+30E4_U+30FC 1
100
AcDbBlockReference
  2
block 2
 10
0.0
 20
0.0
 30
0.0
  0
POLYLINE
  5
A8
330
1F
100
AcDbEntity
  8
_U+30EC_U+30A4_U+30E4_U+30FC 1
 62
   179
420
  2234388
370
     9
100
AcDb2dPolyline
 66
     1
 10
0.0
 20
0.0
 30
0.0
  0
VERTEX
  5
A9
330
A8
100
AcDbEntity
  8
_U+30EC_U+30A4_U+30E4_U+30FC 1
 62
   179
420
  2234388
370
     9
100
AcDbVertex
100
AcDb2dVertex
 10
83.141676767768
 20
-112.0169280275513
 30
0.0
  0
VERTEX
  5
AA
330
A8
100
AcDbEntity
  8
_U+30EC_U+30A4_U+30E4_U+30FC 1
 62
   179
420
  2234388
370
     9
100
AcDbVertex
100
AcDb2dVertex
 10
103.1392726464757
 20
-112.0169280275513
 30
0.0
  0
SEQEND
  5
AB
330
A8
100
AcDbEntity
  8
_U+30EC_U+30A4_U+30E4_U+30FC 1
 62
   179
420
  2234388
370
     9
  0
POLYLINE
  5
AC
330
1F
100
AcDbEntity
  8
_U+30EC_U+30A4_U+30E4_U+30FC 1
 62
   179
420
  2234388
370
     9
100
AcDb2dPolyline
 66
     1
 10
0.0
 20
0.0
 30
0.0
  0
VERTEX
  5
AD
330
AC
100
AcDbEntity
  8
_U+30EC_U+30A4_U+30E4_U+30FC 1
 62
   179
420
  2234388
370
     9
100
AcDbVertex
100
AcDb2dVertex
 10
83.141676767768
 20
-113.4769694160753
 30
0.0
  0
VERTEX
  5
AE
330
AC
100
AcDbEntity
  8
_U+30EC_U+30A4_U+30E4_U+30FC 1
 62
   179
420
  2234388
370
     9
100
AcDbVertex
100
AcDb2dVertex
 10
83.141676767768
 20
-111.0169794166902
 30
0.0
  0
SEQEND
  5
AF
330
AC
100
AcDbEntity
  8
_U+30EC_U+30A4_U+30E4_U+30FC 1
 62
   179
420
  2234388
370
     9
  0
POLYLINE
  5
B0
330
1F
100
AcDbEntity
  8
_U+30EC_U+30A4_U+30E4_U+30FC 1
 62
   179
420
  2234388
370
     9
100
AcDb2dPolyline
 66
     1
 10
0.0
 20
0.0
 30
0.0
  0
VERTEX
  5
B1
330
B0
100
AcDbEntity
  8
_U+30EC_U+30A4_U+30E4_U+30FC 1
 62
   179
420
  2234388
370
     9
100
AcDbVertex
100
AcDb2dVertex
 10
103.1392726464757
 20
-133.4767882999639
 30
0.0
  0
VERTEX
  5
B2
330
B0
100
AcDbEntity
  8
_U+30EC_U+30A4_U+30E4_U+30FC 1
 62
   179
420
  2234388
370
     9
100
AcDbVertex
100
AcDb2dVertex
 10
103.1392726464757
 20
-111.0169794166902
 30
0.0
  0
SEQEND
  5
B3
330
B0
100
AcDbEntity
  8
_U+30EC_U+30A4_U+30E4_U+30FC 1
 62
   179
420
  2234388
370
     9
  0
INSERT
  5
B5
330
1F
100
AcDbEntity
  8
_U+30EC_U+30A4_U+30E4_U+30FC 1
100
AcDbBlockReference
  2
block 3
 10
0.0
 20
0.0
 30
0.0
  0
POLYLINE
  5
BD
330
1F
100
AcDbEntity
  8
_U+30EC_U+30A4_U+30E4_U+30FC 1
 62
   179
420
  2234388
370
     9
100
AcDb2dPolyline
 66
     1
 10
0.0
 20
0.0
 30
0.0
  0
VERTEX
  5
BE
330
BD
100
AcDbEntity
  8
_U+30EC_U+30A4_U+30E4_U+30FC 1
 62
   179
420
  2234388
370
     9
100
AcDbVertex
100
AcDb2dVertex
 10
107.1390317111
 20
-136.0171763548845
 30
0.0
  0
VERTEX
  5
BF
330
BD
100
AcDbEntity
  8
_U+30EC_U+30A4_U+30E4_U+30FC 1
 62
   179
420
  2234388
370
     9
100
AcDbVertex
100
AcDb2dVertex
 10
107.1390317111
 20
-116.0168635821071
 30
0.0
  0
SEQEND
  5
C0
330
BD
100
AcDbEntity
  8
_U+30EC_U+30A4_U+30E4_U+30FC 1
 62
   179
420
  2234388
370
     9
  0
POLYLINE
  5
C1
330
1F
100
AcDbEntity
  8
_U+30EC_U+30A4_U+30E4_U+30FC 1
 62
   179
420
  2234388
370
     9
100
AcDb2dPolyline
 66
     1
 10
0.0
 20
0.0
 30
0.0
  0
VERTEX
  5
C2
330
C1
100
AcDbEntity
  8
_U+30EC_U+30A4_U+30E4_U+30FC 1
 62
   179
420
  2234388
370
     9
100
AcDbVertex
100
AcDb2dVertex
 10
105.6793431372287
 20
-136.0171763548845
 30
0.0
  0
VERTEX
  5
C3
330
C1
100
AcDbEntity
  8
_U+30EC_U+30A4_U+30E4_U+30FC 1
 62
   179
420
  2234388
370
     9
100
AcDbVertex
100
AcDb2dVertex
 10
108.1388039078159
 20
-136.0171763548845
 30
0.0
  0
SEQEND
  5
C4
330
C1
100
AcDbEntity
  8
_U+30EC_U+30A4_U+30E4_U+30FC 1
 62
   179
420
  2234388
370
     9
  0
POLYLINE
  5
C5
330
1F
100
AcDbEntity
  8
_U+30EC_U+30A4_U+30E4_U+30FC 1
 62
   179
420
  2234388
370
     9
100
AcDb2dPolyline
 66
     1
 10
0.0
 20
0.0
 30
0.0
  0
VERTEX
  5
C6
330
C5
100
AcDbEntity
  8
_U+30EC_U+30A4_U+30E4_U+30FC 1
 62
   179
420
  2234388
370
     9
100
AcDbVertex
100
AcDb2dVertex
 10
85.68174725852096
 20
-116.0168635821071
 30
0.0
  0
VERTEX
  5
C7
330
C5
100
AcDbEntity
  8
_U+30EC_U+30A4_U+30E4_U+30FC 1
 62
   179
420
  2234388
370
     9
100
AcDbVertex
100
AcDb2dVertex
 10
108.1388039078159
 20
-116.0168635821071
 30
0.0
  0
SEQEND
  5
C8
330
C5
100
AcDbEntity
  8
_U+30EC_U+30A4_U+30E4_U+30FC 1
 62
   179
420
  2234388
370
     9
  0
INSERT
  5
CA
330
1F
100
AcDbEntity
  8
_U+30EC_U+30A4_U+30E4_U+30FC 1
100
AcDbBlockReference
  2
block 4
 10
0.0
 20
0.0
 30
0.0
  0
POLYLINE
  5
D2
330
1F
100
AcDbEntity
  8
_U+30EC_U+30A4_U+30E4_U+30FC 1
 62
   179
420
  2234388
370
     9
100
AcDb2dPolyline
 66
     1
 10
0.0
 20
0.0
 30
0.0
  0
VERTEX
  5
D3
330
D2
100
AcDbEntity
  8
_U+30EC_U+30A4_U+30E4_U+30FC 1
 62
   179
420
  2234388
370
     9
100
AcDbVertex
100
AcDb2dVertex
 10
79.00825020655384
 20
-139.3200230207254
 30
0.0
  0
VERTEX
  5
D4
330
D2
100
AcDbEntity
  8
_U+30EC_U+30A4_U+30E4_U+30FC 1
 62
   179
420
  2234388
370
     9
100
AcDbVertex
100
AcDb2dVertex
 10
75.68924640233979
 20
-141.3474369091079
 30
0.0
  0
SEQEND
  5
D5
330
D2
100
AcDbEntity
  8
_U+30EC_U+30A4_U+30E4_U+30FC 1
 62
   179
420
  2234388
370
     9
  0
POLYLINE
  5
D6
330
1F
100
AcDbEntity
  8
_U+30EC_U+30A4_U+30E4_U+30FC 1
 62
   179
420
  2234388
370
     9
100
AcDb2dPolyline
 66
     1
 10
0.0
 20
0.0
 30
0.0
  0
VERTEX
  5
D7
330
D6
100
AcDbEntity
  8
_U+30EC_U+30A4_U+30E4_U+30FC 1
 62
   179
420
  2234388
370
     9
100
AcDbVertex
100
AcDb2dVertex
 10
75.68924640233979
 20
-141.3474369091079
 30
0.0
  0
VERTEX
  5
D8
330
D6
100
AcDbEntity
  8
_U+30EC_U+30A4_U+30E4_U+30FC 1
 62
   179
420
  2234388
370
     9
100
AcDbVertex
100
AcDb2dVertex
 10
71.08196874210346
 20
-141.3474369091079
 30
0.0
  0
SEQEND
  5
D9
330
D6
100
AcDbEntity
  8
_U+30EC_U+30A4_U+30E4_U+30FC 1
 62
   179
420
  2234388
370
     9
  0
INSERT
  5
DB
330
1F
100
AcDbEntity
  8
_U+30EC_U+30A4_U+30E4_U+30FC 1
100
AcDbBlockReference
  2
block 5
 10
0.0
 20
0.0
 30
0.0
  0
POLYLINE
  5
ED
330
1F
100
AcDbEntity
  8
_U+30EC_U+30A4_U+30E4_U+30FC 1
 62
   179
420
  2234388
370
     9
100
AcDb2dPolyline
 66
     1
 10
0.0
 20
0.0
 30
0.0
  0
VERTEX
  5
EE
330
ED
100
AcDbEntity
  8
_U+30EC_U+30A4_U+30E4_U+30FC 1
 62
   179
420
  2234388
370
     9
100
AcDbVertex
100
AcDb2dVertex
 10
107.1390317111
 20
-139.5170494095654
 30
0.0
  0
VERTEX
  5
EF
330
ED
100
AcDbEntity
  8
_U+30EC_U+30A4_U+30E4_U+30FC 1
 62
   179
420
  2234388
370
     9
100
AcDbVertex
100
AcDb2dVertex
 10
107.1390317111
 20
-144.7746377415841
 30
0.0
  0
SEQEND
  5
F0
330
ED
100
AcDbEntity
  8
_U+30EC_U+30A4_U+30E4_U+30FC 1
 62
   179
420
  2234388
370
     9
  0
POLYLINE
  5
F1
330
1F
100
AcDbEntity
  8
_U+30EC_U+30A4_U+30E4_U+30FC 1
 62
   179
420
  2234388
370
     9
100
AcDb2dPolyline
 66
     1
 10
0.0
 20
0.0
 30
0.0
  0
VERTEX
  5
F2
330
F1
100
AcDbEntity
  8
_U+30EC_U+30A4_U+30E4_U+30FC 1
 62
   179
420
  2234388
370
     9
100
AcDbVertex
100
AcDb2dVertex
 10
107.1390317111
 20
-137.016948576857
 30
0.0
  0
VERTEX
  5
F3
330
F1
100
AcDbEntity
  8
_U+30EC_U+30A4_U+30E4_U+30FC 1
 62
   179
420
  2234388
370
     9
100
AcDbVertex
100
AcDb2dVertex
 10
107.1390317111
 20
-139.5170494095654
 30
0.0
  0
SEQEND
  5
F4
330
F1
100
AcDbEntity
  8
_U+30EC_U+30A4_U+30E4_U+30FC 1
 62
   179
420
  2234388
370
     9
  0
POLYLINE
  5
F5
330
1F
100
AcDbEntity
  8
_U+30EC_U+30A4_U+30E4_U+30FC 1
 62
   179
420
  2234388
370
     9
100
AcDb2dPolyline
 66
     1
 10
0.0
 20
0.0
 30
0.0
  0
VERTEX
  5
F6
330
F5
100
AcDbEntity
  8
_U+30EC_U+30A4_U+30E4_U+30FC 1
 62
   179
420
  2234388
370
     9
100
AcDbVertex
100
AcDb2dVertex
 10
104.679218162744
 20
-137.016948576857
 30
0.0
  0
VERTEX
  5
F7
330
F5
100
AcDbEntity
  8
_U+30EC_U+30A4_U+30E4_U+30FC 1
 62
   179
420
  2234388
370
     9
100
AcDbVertex
100
AcDb2dVertex
 10
108.1388039078159
 20
-137.016948576857
 30
0.0
  0
SEQEND
  5
F8
330
F5
100
AcDbEntity
  8
_U+30EC_U+30A4_U+30E4_U+30FC 1
 62
   179
420
  2234388
370
     9
  0
POLYLINE
  5
F9
330
1F
100
AcDbEntity
  8
_U+30EC_U+30A4_U+30E4_U+30FC 1
 62
   179
420
  2234388
370
     9
100
AcDb2dPolyline
 66
     1
 10
0.0
 20
0.0
 30
0.0
  0
VERTEX
  5
FA
330
F9
100
AcDbEntity
  8
_U+30EC_U+30A4_U+30E4_U+30FC 1
 62
   179
420
  2234388
370
     9
100
AcDbVertex
100
AcDb2dVertex
 10
94.98058118795461
 20
-139.5170494095654
 30
0.0
  0
VERTEX
  5
FB
330
F9
100
AcDbEntity
  8
_U+30EC_U+30A4_U+30E4_U+30FC 1
 62
   179
420
  2234388
370
     9
100
AcDbVertex
100
AcDb2dVertex
 10
108.1388039078159
 20
-139.5170494095654
 30
0.0
  0
SEQEND
  5
FC
330
F9
100
AcDbEntity
  8
_U+30EC_U+30A4_U+30E4_U+30FC 1
 62
   179
420
  2234388
370
     9
  0
INSERT
  5
FE
330
1F
100
AcDbEntity
  8
_U+30EC_U+30A4_U+30E4_U+30FC 1
100
AcDbBlockReference
  2
block 6
 10
0.0
 20
0.0
 30
0.0
  0
POLYLINE
  5
10D
330
1F
100
AcDbEntity
  8
_U+30EC_U+30A4_U+30E4_U+30FC 1
 62
   179
420
  2234388
370
     9
100
AcDb2dPolyline
 66
     1
 10
0.0
 20
0.0
 30
0.0
  0
VERTEX
  5
10E
330
10D
100
AcDbEntity
  8
_U+30EC_U+30A4_U+30E4_U+30FC 1
 62
   179
420
  2234388
370
     9
100
AcDbVertex
100
AcDb2dVertex
 10
79.64166269039413
 20
-119.5167366367874
 30
0.0
  0
VERTEX
  5
10F
330
10D
100
AcDbEntity
  8
_U+30EC_U+30A4_U+30E4_U+30FC 1
 62
   179
420
  2234388
370
     9
100
AcDbVertex
100
AcDb2dVertex
 10
74.38393338008554
 20
-119.5167366367874
 30
0.0
  0
SEQEND
  5
110
330
10D
100
AcDbEntity
  8
_U+30EC_U+30A4_U+30E4_U+30FC 1
 62
   179
420
  2234388
370
     9
  0
POLYLINE
  5
111
330
1F
100
AcDbEntity
  8
_U+30EC_U+30A4_U+30E4_U+30FC 1
 62
   179
420
  2234388
370
     9
100
AcDb2dPolyline
 66
     1
 10
0.0
 20
0.0
 30
0.0
  0
VERTEX
  5
112
330
111
100
AcDbEntity
  8
_U+30EC_U+30A4_U+30E4_U+30FC 1
 62
   179
420
  2234388
370
     9
100
AcDbVertex
100
AcDb2dVertex
 10
79.64166269039413
 20
-119.5167366367874
 30
0.0
  0
VERTEX
  5
113
330
111
100
AcDbEntity
  8
_U+30EC_U+30A4_U+30E4_U+30FC 1
 62
   179
420
  2234388
370
     9
100
AcDbVertex
100
AcDb2dVertex
 10
82.14193984882897
 20
-119.5167366367874
 30
0.0
  0
SEQEND
  5
114
330
111
100
AcDbEntity
  8
_U+30EC_U+30A4_U+30E4_U+30FC 1
 62
   179
420
  2234388
370
     9
  0
POLYLINE
  5
115
330
1F
100
AcDbEntity
  8
_U+30EC_U+30A4_U+30E4_U+30FC 1
 62
   179
420
  2234388
370
     9
100
AcDb2dPolyline
 66
     1
 10
0.0
 20
0.0
 30
0.0
  0
VERTEX
  5
116
330
115
100
AcDbEntity
  8
_U+30EC_U+30A4_U+30E4_U+30FC 1
 62
   179
420
  2234388
370
     9
100
AcDbVertex
100
AcDb2dVertex
 10
79.64166269039413
 20
-123.9769413578946
 30
0.0
  0
VERTEX
  5
117
330
115
100
AcDbEntity
  8
_U+30EC_U+30A4_U+30E4_U+30FC 1
 62
   179
420
  2234388
370
     9
100
AcDbVertex
100
AcDb2dVertex
 10
79.64166269039413
 20
-118.5169644148151
 30
0.0
  0
SEQEND
  5
118
330
115
100
AcDbEntity
  8
_U+30EC_U+30A4_U+30E4_U+30FC 1
 62
   179
420
  2234388
370
     9
  0
POLYLINE
  5
119
330
1F
100
AcDbEntity
  8
_U+30EC_U+30A4_U+30E4_U+30FC 1
 62
   179
420
  2234388
370
    25
100
AcDb2dPolyline
 66
     1
 10
0.0
 20
0.0
 30
0.0
  0
VERTEX
  5
11A
330
119
100
AcDbEntity
  8
_U+30EC_U+30A4_U+30E4_U+30FC 1
 62
   179
420
  2234388
370
    25
100
AcDbVertex
100
AcDb2dVertex
 10
82.14193984882897
 20
-122.0571599694857
 30
0.0
  0
VERTEX
  5
11B
330
119
100
AcDbEntity
  8
_U+30EC_U+30A4_U+30E4_U+30FC 1
 62
   179
420
  2234388
370
    25
100
AcDbVertex
100
AcDb2dVertex
 10
82.14193984882897
 20
-119.5181124701206
 30
0.0
  0
SEQEND
  5
11C
330
119
100
AcDbEntity
  8
_U+30EC_U+30A4_U+30E4_U+30FC 1
 62
   179
420
  2234388
370
    25
  0
INSERT
  5
11E
330
1F
100
AcDbEntity
  8
_U+30EC_U+30A4_U+30E4_U+30FC 1
100
AcDbBlockReference
  2
block 7
 10
0.0
 20
0.0
 30
0.0
  0
POLYLINE
  5
12D
330
1F
100
AcDbEntity
  8
_U+30EC_U+30A4_U+30E4_U+30FC 1
 62
   179
420
  2234388
370
     9
100
AcDb2dPolyline
 66
     1
 10
0.0
 20
0.0
 30
0.0
  0
VERTEX
  5
12E
330
12D
100
AcDbEntity
  8
_U+30EC_U+30A4_U+30E4_U+30FC 1
 62
   179
420
  2234388
370
     9
100
AcDbVertex
100
AcDb2dVertex
 10
88.64162329411934
 20
-142.0571199644857
 30
0.0
  0
VERTEX
  5
12F
330
12D
100
AcDbEntity
  8
_U+30EC_U+30A4_U+30E4_U+30FC 1
 62
   179
420
  2234388
370
     9
100
AcDbVertex
100
AcDb2dVertex
 10
88.64162329411934
 20
-147.5169205186763
 30
0.0
  0
SEQEND
  5
130
330
12D
100
AcDbEntity
  8
_U+30EC_U+30A4_U+30E4_U+30FC 1
 62
   179
420
  2234388
370
     9
  0
POLYLINE
  5
131
330
1F
100
AcDbEntity
  8
_U+30EC_U+30A4_U+30E4_U+30FC 1
 62
   179
420
  2234388
370
     9
100
AcDb2dPolyline
 66
     1
 10
0.0
 20
0.0
 30
0.0
  0
VERTEX
  5
132
330
131
100
AcDbEntity
  8
_U+30EC_U+30A4_U+30E4_U+30FC 1
 62
   179
420
  2234388
370
     9
100
AcDbVertex
100
AcDb2dVertex
 10
103.1392726464757
 20
-138.5569294098052
 30
0.0
  0
VERTEX
  5
133
330
131
100
AcDbEntity
  8
_U+30EC_U+30A4_U+30E4_U+30FC 1
 62
   179
420
  2234388
370
     9
100
AcDbVertex
100
AcDb2dVertex
 10
103.1392726464757
 20
-147.5169205186763
 30
0.0
  0
SEQEND
  5
134
330
131
100
AcDbEntity
  8
_U+30EC_U+30A4_U+30E4_U+30FC 1
 62
   179
420
  2234388
370
     9
  0
INSERT
  5
136
330
1F
100
AcDbEntity
  8
_U+30EC_U+30A4_U+30E4_U+30FC 1
100
AcDbBlockReference
  2
block 8
 10
0.0
 20
0.0
 30
0.0
  0
POLYLINE
  5
15A
330
1F
100
AcDbEntity
  8
_U+30EC_U+30A4_U+30E4_U+30FC 1
 62
   179
420
  2234388
370
     9
100
AcDb2dPolyline
 66
     1
 10
0.0
 20
0.0
 30
0.0
  0
VERTEX
  5
15B
330
15A
100
AcDbEntity
  8
_U+30EC_U+30A4_U+30E4_U+30FC 1
 62
   179
420
  2234388
370
     9
100
AcDbVertex
100
AcDb2dVertex
 10
78.64171410479383
 20
-140.5571441315276
 30
0.0
  0
VERTEX
  5
15C
330
15A
100
AcDbEntity
  8
_U+30EC_U+30A4_U+30E4_U+30FC 1
 62
   179
420
  2234388
370
     9
100
AcDbVertex
100
AcDb2dVertex
 10
78.64171410479383
 20
-147.5169205186763
 30
0.0
  0
SEQEND
  5
15D
330
15A
100
AcDbEntity
  8
_U+30EC_U+30A4_U+30E4_U+30FC 1
 62
   179
420
  2234388
370
     9
  0
INSERT
  5
15F
330
1F
100
AcDbEntity
  8
_U+30EC_U+30A4_U+30E4_U+30FC 1
100
AcDbBlockReference
  2
block 9
 10
0.0
 20
0.0
 30
0.0
  0
ENDSEC
  0
SECTION
  2
OBJECTS
  0
DICTIONARY
  5
C
330
0
100
AcDbDictionary
281
     1
  3
ACAD_GROUP
350
D
  3
ACAD_LAYOUT
350
1A
  3
ACAD_MATERIAL
350
3B
  3
ACAD_MLEADERSTYLE
350
168
  3
ACAD_MLINESTYLE
350
17
  3
ACAD_PLOTSETTINGS
350
19
  3
ACAD_PLOTSTYLENAME
350
E
  3
ACAD_TABLESTYLE
350
167
  3
ACAD_VISUALSTYLE
350
2A
  0
SUN
  5
3F
330
29
100
AcDbSun
 90
        1
290
     0
 63
     7
421
 16777215
 40
1.0
291
     1
 91
  2455826
 92
 54000000
292
     0
 70
     2
 71
   256
280
     1
  0
DICTIONARY
  5
D
102
{ACAD_REACTORS
330
C
102
}
330
C
100
AcDbDictionary
281
     1
  0
DICTIONARY
  5
1A
102
{ACAD_REACTORS
330
C
102
}
330
C
100
AcDbDictionary
281
     1
  3
Layout1
350
1E
  3
Layout2
350
26
  3
Model
350
22
  0
DICTIONARY
  5
3B
102
{ACAD_REACTORS
330
C
102
}
330
C
100
AcDbDictionary
281
     1
  3
ByBlock
350
3D
  3
ByLayer
350
3C
  3
Global
350
3E
  0
DICTIONARY
  5
168
102
{ACAD_REACTORS
330
C
102
}
330
C
100
AcDbDictionary
281
     1
  0
DICTIONARY
  5
17
102
{ACAD_REACTORS
330
C
102
}
330
C
100
AcDbDictionary
281
     1
  3
Standard
350
18
  0
DICTIONARY
  5
19
102
{ACAD_REACTORS
330
C
102
}
330
C
100
AcDbDictionary
281
     1
  0
ACDBDICTIONARYWDFLT
  5
E
102
{ACAD_REACTORS
330
C
102
}
330
C
100
AcDbDictionary
281
     1
  3
Normal
350
F
100
AcDbDictionaryWithDefault
340
F
  0
DICTIONARY
  5
167
102
{ACAD_REACTORS
330
C
102
}
330
C
100
AcDbDictionary
281
     1
  0
DICTIONARY
  5
2A
102
{ACAD_REACTORS
330
C
102
}
330
C
100
AcDbDictionary
281
     1
  3
2dWireframe
350
2F
  3
3D Hidden
350
31
  3
3dWireframe
350
30
  3
Basic
350
32
  3
Brighten
350
36
  3
ColorChange
350
3A
  3
Conceptual
350
34
  3
Dim
350
35
  3
Facepattern
350
39
  3
Flat
350
2B
  3
FlatWithEdges
350
2C
  3
Gouraud
350
2D
  3
GouraudWithEdges
350
2E
  3
Linepattern
350
38
  3
Realistic
350
33
  3
Thicken
350
37
  0
LAYOUT
  5
1E
102
{ACAD_REACTORS
330
1A
102
}
330
1A
100
AcDbPlotSettings
  1

  2
none_device
  4

  6

 40
0.0
 41
0.0
 42
0.0
 43
0.0
 44
0.0
 45
0.0
 46
0.0
 47
0.0
 48
0.0
 49
0.0
140
0.0
141
0.0
142
1.0
143
1.0
 70
   688
 72
     0
 73
     0
 74
     5
  7

 75
    16
 76
     0
 77
     2
 78
   300
147
1.0
148
0.0
149
0.0
100
AcDbLayout
  1
Layout1
 70
     1
 71
     1
 10
0.0
 20
0.0
 11
12.0
 21
9.0
 12
0.0
 22
0.0
 32
0.0
 14
1.000000000000000E+20
 24
1.000000000000000E+20
 34
1.000000000000000E+20
 15
-1.000000000000000E+20
 25
-1.000000000000000E+20
 35
-1.000000000000000E+20
146
0.0
 13
0.0
 23
0.0
 33
0.0
 16
1.0
 26
0.0
 36
0.0
 17
0.0
 27
1.0
 37
0.0
 76
     0
330
1B
  0
LAYOUT
  5
26
102
{ACAD_REACTORS
330
1A
102
}
330
1A
100
AcDbPlotSettings
  1

  2
none_device
  4

  6

 40
0.0
 41
0.0
 42
0.0
 43
0.0
 44
0.0
 45
0.0
 46
0.0
 47
0.0
 48
0.0
 49
0.0
140
0.0
141
0.0
142
1.0
143
1.0
 70
   688
 72
     0
 73
     0
 74
     5
  7

 75
    16
 76
     0
 77
     2
 78
   300
147
1.0
148
0.0
149
0.0
100
AcDbLayout
  1
Layout2
 70
     1
 71
     2
 10
0.0
 20
0.0
 11
0.0
 21
0.0
 12
0.0
 22
0.0
 32
0.0
 14
0.0
 24
0.0
 34
0.0
 15
0.0
 25
0.0
 35
0.0
146
0.0
 13
0.0
 23
0.0
 33
0.0
 16
1.0
 26
0.0
 36
0.0
 17
0.0
 27
1.0
 37
0.0
 76
     0
330
23
  0
LAYOUT
  5
22
102
{ACAD_REACTORS
330
1A
102
}
330
1A
100
AcDbPlotSettings
  1

  2
none_device
  4

  6

 40
0.0
 41
0.0
 42
0.0
 43
0.0
 44
0.0
 45
0.0
 46
0.0
 47
0.0
 48
0.0
 49
0.0
140
0.0
141
0.0
142
1.0
143
1.0
 70
  1712
 72
     0
 73
     0
 74
     0
  7

 75
     0
 76
     0
 77
     2
 78
   300
147
1.0
148
0.0
149
0.0
100
AcDbLayout
  1
Model
 70
     1
 71
     0
 10
0.0
 20
0.0
 11
12.0
 21
9.0
 12
0.0
 22
0.0
 32
0.0
 14
1.000000000000000E+20
 24
1.000000000000000E+20
 34
1.000000000000000E+20
 15
-1.000000000000000E+20
 25
-1.000000000000000E+20
 35
-1.000000000000000E+20
146
0.0
 13
0.0
 23
0.0
 33
0.0
 16
1.0
 26
0.0
 36
0.0
 17
0.0
 27
1.0
 37
0.0
 76
     0
330
1F
331
29
  0
MATERIAL
  5
3D
102
{ACAD_REACTORS
330
3B
102
}
330
3B
100
AcDbMaterial
  1
ByBlock
 72
     1
 94
      127
  0
MATERIAL
  5
3C
102
{ACAD_REACTORS
330
3B
102
}
330
3B
100
AcDbMaterial
  1
ByLayer
 72
     1
 94
      127
  0
MATERIAL
  5
3E
102
{ACAD_REACTORS
330
3B
102
}
330
3B
100
AcDbMaterial
  1
Global
 72
     1
 94
      127
  0
MLINESTYLE
  5
18
102
{ACAD_REACTORS
330
17
102
}
330
17
100
AcDbMlineStyle
  2
Standard
 70
     0
  3

 62
   256
 51
90.0
 52
90.0
 71
     2
 49
0.5
 62
   256
  6
BYLAYER
 49
-0.5
 62
   256
  6
BYLAYER
  0
ACDBPLACEHOLDER
  5
F
102
{ACAD_REACTORS
330
E
102
}
330
E
  0
VISUALSTYLE
  5
2F
102
{ACAD_REACTORS
330
2A
102
}
330
2A
100
AcDbVisualStyle
  2
2dWireframe
 70
     4
177
     2
291
     0
 71
     0
176
     1
 72
     2
176
     1
 73
     0
176
     1
 90
        0
176
     1
 40
-0.6
176
     1
 41
-30.0
176
     1
 62
     5
 63
     7
421
 16777215
176
     1
 74
     1
176
     1
 91
        4
176
     1
 64
     7
176
     1
 65
   257
176
     1
 75
     1
176
     1
175
     1
176
     1
 42
1.0
176
     1
 92
        0
176
     1
 66
   257
176
     1
 43
1.0
176
     1
 76
     1
176
     1
 77
     6
176
     1
 78
     2
176
     1
 67
     7
176
     1
 79
     5
176
     1
170
     0
176
     1
171
     0
176
     1
290
     0
176
     1
 93
        1
176
     1
 44
0.0
176
     1
173
     0
176
     1
  0
VISUALSTYLE
  5
31
102
{ACAD_REACTORS
330
2A
102
}
330
2A
100
AcDbVisualStyle
  2
3D Hidden
 70
     6
177
     2
291
     0
 71
     1
176
     1
 72
     2
176
     1
 73
     2
176
     1
 90
        0
176
     1
 40
-0.6
176
     1
 41
-30.0
176
     1
 62
     5
 63
     7
421
 16777215
176
     1
 74
     2
176
     1
 91
        2
176
     1
 64
     7
176
     1
 65
   257
176
     1
 75
     2
176
     1
175
     1
176
     1
 42
40.0
176
     1
 92
        0
176
     1
 66
   257
176
     1
 43
1.0
176
     1
 76
     1
176
     1
 77
     6
176
     1
 78
     2
176
     1
 67
     7
176
     1
 79
     3
176
     1
170
     0
176
     1
171
     0
176
     1
290
     0
176
     1
 93
        1
176
     1
 44
0.0
176
     1
173
     0
176
     1
  0
VISUALSTYLE
  5
30
102
{ACAD_REACTORS
330
2A
102
}
330
2A
100
AcDbVisualStyle
  2
3dWireframe
 70
     5
177
     2
291
     0
 71
     0
176
     1
 72
     2
176
     1
 73
     0
176
     1
 90
        0
176
     1
 40
-0.6
176
     1
 41
-30.0
176
     1
 62
     5
 63
     7
421
 16777215
176
     1
 74
     1
176
     1
 91
        4
176
     1
 64
     7
176
     1
 65
   257
176
     1
 75
     1
176
     1
175
     1
176
     1
 42
1.0
176
     1
 92
        0
176
     1
 66
   257
176
     1
 43
1.0
176
     1
 76
     1
176
     1
 77
     6
176
     1
 78
     2
176
     1
 67
     7
176
     1
 79
     5
176
     1
170
     0
176
     1
171
     0
176
     1
290
     0
176
     1
 93
        1
176
     1
 44
0.0
176
     1
173
     0
176
     1
  0
VISUALSTYLE
  5
32
102
{ACAD_REACTORS
330
2A
102
}
330
2A
100
AcDbVisualStyle
  2
Basic
 70
     7
177
     2
291
     1
 71
     1
176
     1
 72
     0
176
     1
 73
     1
176
     1
 90
        0
176
     1
 40
-0.6
176
     1
 41
-30.0
176
     1
 62
     5
 63
     7
421
 16777215
176
     1
 74
     0
176
     1
 91
        4
176
     1
 64
     7
176
     1
 65
   257
176
     1
 75
     1
176
     1
175
     1
176
     1
 42
1.0
176
     1
 92
        8
176
     1
 66
     7
176
     1
 43
1.0
176
     1
 76
     1
176
     1
 77
     6
176
     1
 78
     2
176
     1
 67
     7
176
     1
 79
     5
176
     1
170
     0
176
     1
171
     0
176
     1
290
     0
176
     1
 93
        1
176
     1
 44
0.0
176
     1
173
     0
176
     1
  0
VISUALSTYLE
  5
36
102
{ACAD_REACTORS
330
2A
102
}
330
2A
100
AcDbVisualStyle
  2
Brighten
 70
    12
177
     2
291
     1
 71
     2
176
     1
 72
     2
176
     1
 73
     0
176
     1
 90
        0
176
     1
 40
-0.6
176
     1
 41
-30.0
176
     1
 62
     5
 63
     7
421
 16777215
176
     1
 74
     1
176
     1
 91
        4
176
     1
 64
     7
176
     1
 65
   257
176
     1
 75
     1
176
     1
175
     1
176
     1
 42
1.0
176
     1
 92
        8
176
     1
 66
     7
176
     1
 43
1.0
176
     1
 76
     1
176
     1
 77
     6
176
     1
 78
     2
176
     1
 67
     7
176
     1
 79
     5
176
     1
170
     0
176
     1
171
     0
176
     1
290
     0
176
     1
 93
        1
176
     1
 44
50.0
176
     1
173
     0
176
     1
  0
VISUALSTYLE
  5
3A
102
{ACAD_REACTORS
330
2A
102
}
330
2A
100
AcDbVisualStyle
  2
ColorChange
 70
    16
177
     2
291
     1
 71
     2
176
     1
 72
     2
176
     1
 73
     3
176
     1
 90
        0
176
     1
 40
-0.6
176
     1
 41
-30.0
176
     1
 62
     5
 63
     8
421
  8421504
176
     1
 74
     1
176
     1
 91
        4
176
     1
 64
     7
176
     1
 65
   257
176
     1
 75
     1
176
     1
175
     1
176
     1
 42
1.0
176
     1
 92
        8
176
     1
 66
     8
424
  8421504
176
     1
 43
1.0
176
     1
 76
     1
176
     1
 77
     6
176
     1
 78
     2
176
     1
 67
     7
176
     1
 79
     5
176
     1
170
     0
176
     1
171
     0
176
     1
290
     0
176
     1
 93
        1
176
     1
 44
0.0
176
     1
173
     0
176
     1
  0
VISUALSTYLE
  5
34
102
{ACAD_REACTORS
330
2A
102
}
330
2A
100
AcDbVisualStyle
  2
Conceptual
 70
     9
177
     2
291
     0
 71
     3
176
     1
 72
     2
176
     1
 73
     0
176
     1
 90
        0
176
     1
 40
-0.6
176
     1
 41
-30.0
176
     1
 62
     5
 63
     7
421
 16777215
176
     1
 74
     2
176
     1
 91
        2
176
     1
 64
     7
176
     1
 65
   257
176
     1
 75
     1
176
     1
175
     1
176
     1
 42
40.0
176
     1
 92
        8
176
     1
 66
     7
176
     1
 43
1.0
176
     1
 76
     1
176
     1
 77
     6
176
     1
 78
     2
176
     1
 67
     7
176
     1
 79
     3
176
     1
170
     0
176
     1
171
     0
176
     1
290
     0
176
     1
 93
        1
176
     1
 44
0.0
176
     1
173
     0
176
     1
  0
VISUALSTYLE
  5
35
102
{ACAD_REACTORS
330
2A
102
}
330
2A
100
AcDbVisualStyle
  2
Dim
 70
    11
177
     2
291
     1
 71
     2
176
     1
 72
     2
176
     1
 73
     0
176
     1
 90
        0
176
     1
 40
-0.6
176
     1
 41
-30.0
176
     1
 62
     5
 63
     7
421
 16777215
176
     1
 74
     1
176
     1
 91
        4
176
     1
 64
     7
176
     1
 65
   257
176
     1
 75
     1
176
     1
175
     1
176
     1
 42
1.0
176
     1
 92
        8
176
     1
 66
     7
176
     1
 43
1.0
176
     1
 76
     1
176
     1
 77
     6
176
     1
 78
     2
176
     1
 67
     7
176
     1
 79
     5
176
     1
170
     0
176
     1
171
     0
176
     1
290
     0
176
     1
 93
        1
176
     1
 44
-50.0
176
     1
173
     0
176
     1
  0
VISUALSTYLE
  5
39
102
{ACAD_REACTORS
330
2A
102
}
330
2A
100
AcDbVisualStyle
  2
Facepattern
 70
    15
177
     2
291
     1
 71
     2
176
     1
 72
     2
176
     1
 73
     0
176
     1
 90
        0
176
     1
 40
-0.6
176
     1
 41
-30.0
176
     1
 62
     5
 63
     7
421
 16777215
176
     1
 74
     1
176
     1
 91
        4
176
     1
 64
     7
176
     1
 65
   257
176
     1
 75
     1
176
     1
175
     1
176
     1
 42
1.0
176
     1
 92
        8
176
     1
 66
     7
176
     1
 43
1.0
176
     1
 76
     1
176
     1
 77
     6
176
     1
 78
     2
176
     1
 67
     7
176
     1
 79
     5
176
     1
170
     0
176
     1
171
     0
176
     1
290
     0
176
     1
 93
        1
176
     1
 44
0.0
176
     1
173
     0
176
     1
  0
VISUALSTYLE
  5
2B
102
{ACAD_REACTORS
330
2A
102
}
330
2A
100
AcDbVisualStyle
  2
Flat
 70
     0
177
     2
291
     1
 71
     2
176
     1
 72
     1
176
     1
 73
     1
176
     1
 90
        2
176
     1
 40
-0.6
176
     1
 41
30.0
176
     1
 62
     5
 63
     7
421
 16777215
176
     1
 74
     0
176
     1
 91
        4
176
     1
 64
     7
176
     1
 65
   257
176
     1
 75
     1
176
     1
175
     1
176
     1
 42
1.0
176
     1
 92
        8
176
     1
 66
     7
176
     1
 43
1.0
176
     1
 76
     1
176
     1
 77
     6
176
     1
 78
     2
176
     1
 67
     7
176
     1
 79
     5
176
     1
170
     0
176
     1
171
     0
176
     1
290
     0
176
     1
 93
       13
176
     1
 44
0.0
176
     1
173
     0
176
     1
  0
VISUALSTYLE
  5
2C
102
{ACAD_REACTORS
330
2A
102
}
330
2A
100
AcDbVisualStyle
  2
FlatWithEdges
 70
     1
177
     2
291
     1
 71
     2
176
     1
 72
     1
176
     1
 73
     1
176
     1
 90
        2
176
     1
 40
-0.6
176
     1
 41
30.0
176
     1
 62
     5
 63
     7
421
 16777215
176
     1
 74
     1
176
     1
 91
        4
176
     1
 64
     7
176
     1
 65
   257
176
     1
 75
     1
176
     1
175
     1
176
     1
 42
1.0
176
     1
 92
        0
176
     1
 66
   257
176
     1
 43
1.0
176
     1
 76
     1
176
     1
 77
     6
176
     1
 78
     2
176
     1
 67
     7
176
     1
 79
     5
176
     1
170
     0
176
     1
171
     0
176
     1
290
     0
176
     1
 93
       13
176
     1
 44
0.0
176
     1
173
     0
176
     1
  0
VISUALSTYLE
  5
2D
102
{ACAD_REACTORS
330
2A
102
}
330
2A
100
AcDbVisualStyle
  2
Gouraud
 70
     2
177
     2
291
     1
 71
     2
176
     1
 72
     2
176
     1
 73
     1
176
     1
 90
        2
176
     1
 40
-0.6
176
     1
 41
30.0
176
     1
 62
     5
 63
     7
421
 16777215
176
     1
 74
     0
176
     1
 91
        4
176
     1
 64
     7
176
     1
 65
   257
176
     1
 75
     1
176
     1
175
     1
176
     1
 42
1.0
176
     1
 92
        0
176
     1
 66
     7
176
     1
 43
1.0
176
     1
 76
     1
176
     1
 77
     6
176
     1
 78
     2
176
     1
 67
     7
176
     1
 79
     5
176
     1
170
     0
176
     1
171
     0
176
     1
290
     0
176
     1
 93
       13
176
     1
 44
0.0
176
     1
173
     0
176
     1
  0
VISUALSTYLE
  5
2E
102
{ACAD_REACTORS
330
2A
102
}
330
2A
100
AcDbVisualStyle
  2
GouraudWithEdges
 70
     3
177
     2
291
     1
 71
     2
176
     1
 72
     2
176
     1
 73
     1
176
     1
 90
        2
176
     1
 40
-0.6
176
     1
 41
30.0
176
     1
 62
     5
 63
     7
421
 16777215
176
     1
 74
     1
176
     1
 91
        4
176
     1
 64
     7
176
     1
 65
   257
176
     1
 75
     1
176
     1
175
     1
176
     1
 42
1.0
176
     1
 92
        0
176
     1
 66
   257
176
     1
 43
1.0
176
     1
 76
     1
176
     1
 77
     6
176
     1
 78
     2
176
     1
 67
     7
176
     1
 79
     5
176
     1
170
     0
176
     1
171
     0
176
     1
290
     0
176
     1
 93
       13
176
     1
 44
0.0
176
     1
173
     0
176
     1
  0
VISUALSTYLE
  5
38
102
{ACAD_REACTORS
330
2A
102
}
330
2A
100
AcDbVisualStyle
  2
Linepattern
 70
    14
177
     2
291
     1
 71
     2
176
     1
 72
     2
176
     1
 73
     0
176
     1
 90
        0
176
     1
 40
-0.6
176
     1
 41
-30.0
176
     1
 62
     5
 63
     7
421
 16777215
176
     1
 74
     1
176
     1
 91
        4
176
     1
 64
     7
176
     1
 65
   257
176
     1
 75
     7
176
     1
175
     7
176
     1
 42
1.0
176
     1
 92
        8
176
     1
 66
     7
176
     1
 43
1.0
176
     1
 76
     1
176
     1
 77
     6
176
     1
 78
     2
176
     1
 67
     7
176
     1
 79
     5
176
     1
170
     0
176
     1
171
     0
176
     1
290
     0
176
     1
 93
        1
176
     1
 44
0.0
176
     1
173
     0
176
     1
  0
VISUALSTYLE
  5
33
102
{ACAD_REACTORS
330
2A
102
}
330
2A
100
AcDbVisualStyle
  2
Realistic
 70
     8
177
     2
291
     0
 71
     2
176
     1
 72
     2
176
     1
 73
     0
176
     1
 90
        0
176
     1
 40
-0.6
176
     1
 41
-30.0
176
     1
 62
     5
 63
     7
421
 16777215
176
     1
 74
     1
176
     1
 91
        0
176
     1
 64
     7
176
     1
 65
   257
176
     1
 75
     1
176
     1
175
     1
176
     1
 42
1.0
176
     1
 92
        8
176
     1
 66
     8
424
  7895160
176
     1
 43
1.0
176
     1
 76
     1
176
     1
 77
     6
176
     1
 78
     2
176
     1
 67
     7
176
     1
 79
     5
176
     1
170
     0
176
     1
171
     0
176
     1
290
     0
176
     1
 93
       13
176
     1
 44
0.0
176
     1
173
     0
176
     1
  0
VISUALSTYLE
  5
37
102
{ACAD_REACTORS
330
2A
102
}
330
2A
100
AcDbVisualStyle
  2
Thicken
 70
    13
177
     2
291
     1
 71
     2
176
     1
 72
     2
176
     1
 73
     0
176
     1
 90
        0
176
     1
 40
-0.6
176
     1
 41
-30.0
176
     1
 62
     5
 63
     7
421
 16777215
176
     1
 74
     1
176
     1
 91
        4
176
     1
 64
     7
176
     1
 65
   257
176
     1
 75
     1
176
     1
175
     1
176
     1
 42
1.0
176
     1
 92
       12
176
     1
 66
     7
176
     1
 43
1.0
176
     1
 76
     1
176
     1
 77
     6
176
     1
 78
     2
176
     1
 67
     7
176
     1
 79
     5
176
     1
170
     0
176
     1
171
     0
176
     1
290
     0
176
     1
 93
        1
176
     1
 44
0.0
176
     1
173
     0
176
     1
  0
ENDSEC
  0
EOF
