  0
SECTION
  2
HEADER
  9
$ACADVER
  1
AC1024
  9
$ACADMAINTVER
 70
     6
  9
$DWGCODEPAGE
  3
UNDEFINED
  9
$INSBASE
 10
0.0
 20
0.0
 30
0.0
  9
$EXTMIN
 10
1.000000000000000E+20
 20
1.000000000000000E+20
 30
1.000000000000000E+20
  9
$EXTMAX
 10
-1.000000000000000E+20
 20
-1.000000000000000E+20
 30
-1.000000000000000E+20
  9
$LIMMIN
 10
0.0
 20
0.0
  9
$LIMMAX
 10
12.0
 20
9.0
  9
$ORTHOMODE
 70
     0
  9
$REGENMODE
 70
     1
  9
$FILLMODE
 70
     1
  9
$QTEXTMODE
 70
     0
  9
$MIRRTEXT
 70
     1
  9
$LTSCALE
 40
1.0
  9
$ATTMODE
 70
     1
  9
$TEXTSIZE
 40
0.2
  9
$TRACEWID
 40
0.05
  9
$TEXTSTYLE
  7
Standard
  9
$CLAYER
  8
0
  9
$CELTYPE
  6
ByLayer
  9
$CECOLOR
 62
   256
  9
$CELTSCALE
 40
1.0
  9
$DISPSILH
 70
     0
  9
$DIMSCALE
 40
1.0
  9
$DIMASZ
 40
0.18
  9
$DIMEXO
 40
0.0625
  9
$DIMDLI
 40
0.38
  9
$DIMRND
 40
0.0
  9
$DIMDLE
 40
0.0
  9
$DIMEXE
 40
0.18
  9
$DIMTP
 40
0.0
  9
$DIMTM
 40
0.0
  9
$DIMTXT
 40
0.18
  9
$DIMCEN
 40
0.09
  9
$DIMTSZ
 40
0.0
  9
$DIMTOL
 70
     0
  9
$DIMLIM
 70
     0
  9
$DIMTIH
 70
     1
  9
$DIMTOH
 70
     1
  9
$DIMSE1
 70
     0
  9
$DIMSE2
 70
     0
  9
$DIMTAD
 70
     0
  9
$DIMZIN
 70
     0
  9
$DIMBLK
  1

  9
$DIMASO
 70
     1
  9
$DIMSHO
 70
     1
  9
$DIMPOST
  1

  9
$DIMAPOST
  1

  9
$DIMALT
 70
     0
  9
$DIMALTD
 70
     2
  9
$DIMALTF
 40
25.4
  9
$DIMLFAC
 40
1.0
  9
$DIMTOFL
 70
     0
  9
$DIMTVP
 40
0.0
  9
$DIMTIX
 70
     0
  9
$DIMSOXD
 70
     0
  9
$DIMSAH
 70
     0
  9
$DIMBLK1
  1

  9
$DIMBLK2
  1

  9
$DIMSTYLE
  2
Standard
  9
$DIMCLRD
 70
     0
  9
$DIMCLRE
 70
     0
  9
$DIMCLRT
 70
     0
  9
$DIMTFAC
 40
1.0
  9
$DIMGAP
 40
0.09
  9
$DIMJUST
 70
     0
  9
$DIMSD1
 70
     0
  9
$DIMSD2
 70
     0
  9
$DIMTOLJ
 70
     1
  9
$DIMTZIN
 70
     0
  9
$DIMALTZ
 70
     0
  9
$DIMALTTZ
 70
     0
  9
$DIMUPT
 70
     0
  9
$DIMDEC
 70
     4
  9
$DIMTDEC
 70
     4
  9
$DIMALTU
 70
     2
  9
$DIMALTTD
 70
     2
  9
$DIMTXSTY
  7
Standard
  9
$DIMAUNIT
 70
     0
  9
$DIMADEC
 70
     0
  9
$DIMALTRND
 40
0.0
  9
$DIMAZIN
 70
     0
  9
$DIMDSEP
 70
    46
  9
$DIMATFIT
 70
     3
  9
$DIMFRAC
 70
     0
  9
$DIMLDRBLK
  1

  9
$DIMLUNIT
 70
     2
  9
$DIMLWD
 70
    -2
  9
$DIMLWE
 70
    -2
  9
$DIMTMOVE
 70
     0
  9
$DIMFXL
 40
1.0
  9
$DIMFXLON
 70
     0
  9
$DIMJOGANG
 40
0.7853981633974483
  9
$DIMTFILL
 70
     0
  9
$DIMTFILLCLR
 70
     0
  9
$DIMARCSYM
 70
     0
  9
$DIMLTYPE
  6

  9
$DIMLTEX1
  6

  9
$DIMLTEX2
  6

  9
$DIMTXTDIRECTION
 70
     0
  9
$LUNITS
 70
     2
  9
$LUPREC
 70
     4
  9
$SKETCHINC
 40
0.1
  9
$FILLETRAD
 40
0.5
  9
$AUNITS
 70
     0
  9
$AUPREC
 70
     0
  9
$MENU
  1
.
  9
$ELEVATION
 40
0.0
  9
$PELEVATION
 40
0.0
  9
$THICKNESS
 40
0.0
  9
$LIMCHECK
 70
     0
  9
$CHAMFERA
 40
0.5
  9
$CHAMFERB
 40
0.5
  9
$CHAMFERC
 40
1.0
  9
$CHAMFERD
 40
0.0
  9
$SKPOLY
 70
     0
  9
$TDCREATE
 40
2457917.594745371
  9
$TDUCREATE
 40
2457917.219745371
  9
$TDUPDATE
 40
2457917.594745371
  9
$TDUUPDATE
 40
2457917.219745371
  9
$TDINDWG
 40
0.0000000116
  9
$TDUSRTIMER
 40
0.0000000116
  9
$USRTIMER
 70
     1
  9
$ANGBASE
 50
0.0
  9
$ANGDIR
 70
     0
  9
$PDMODE
 70
     0
  9
$PDSIZE
 40
0.0
  9
$PLINEWID
 40
0.0
  9
$SPLFRAME
 70
     0
  9
$SPLINETYPE
 70
     6
  9
$SPLINESEGS
 70
     8
  9
$HANDSEED
  5
DA
  9
$SURFTAB1
 70
     6
  9
$SURFTAB2
 70
     6
  9
$SURFTYPE
 70
     6
  9
$SURFU
 70
     6
  9
$SURFV
 70
     6
  9
$UCSBASE
  2

  9
$UCSNAME
  2

  9
$UCSORG
 10
0.0
 20
0.0
 30
0.0
  9
$UCSXDIR
 10
1.0
 20
0.0
 30
0.0
  9
$UCSYDIR
 10
0.0
 20
1.0
 30
0.0
  9
$UCSORTHOREF
  2

  9
$UCSORTHOVIEW
 70
     0
  9
$UCSORGTOP
 10
0.0
 20
0.0
 30
0.0
  9
$UCSORGBOTTOM
 10
0.0
 20
0.0
 30
0.0
  9
$UCSORGLEFT
 10
0.0
 20
0.0
 30
0.0
  9
$UCSORGRIGHT
 10
0.0
 20
0.0
 30
0.0
  9
$UCSORGFRONT
 10
0.0
 20
0.0
 30
0.0
  9
$UCSORGBACK
 10
0.0
 20
0.0
 30
0.0
  9
$PUCSBASE
  2

  9
$PUCSNAME
  2

  9
$PUCSORG
 10
0.0
 20
0.0
 30
0.0
  9
$PUCSXDIR
 10
1.0
 20
0.0
 30
0.0
  9
$PUCSYDIR
 10
0.0
 20
1.0
 30
0.0
  9
$PUCSORTHOREF
  2

  9
$PUCSORTHOVIEW
 70
     0
  9
$PUCSORGTOP
 10
0.0
 20
0.0
 30
0.0
  9
$PUCSORGBOTTOM
 10
0.0
 20
0.0
 30
0.0
  9
$PUCSORGLEFT
 10
0.0
 20
0.0
 30
0.0
  9
$PUCSORGRIGHT
 10
0.0
 20
0.0
 30
0.0
  9
$PUCSORGFRONT
 10
0.0
 20
0.0
 30
0.0
  9
$PUCSORGBACK
 10
0.0
 20
0.0
 30
0.0
  9
$USERI1
 70
     0
  9
$USERI2
 70
     0
  9
$USERI3
 70
     0
  9
$USERI4
 70
     0
  9
$USERI5
 70
     0
  9
$USERR1
 40
0.0
  9
$USERR2
 40
0.0
  9
$USERR3
 40
0.0
  9
$USERR4
 40
0.0
  9
$USERR5
 40
0.0
  9
$WORLDVIEW
 70
     1
  9
$SHADEDGE
 70
     3
  9
$SHADEDIF
 70
    70
  9
$TILEMODE
 70
     1
  9
$MAXACTVP
 70
    64
  9
$PINSBASE
 10
0.0
 20
0.0
 30
0.0
  9
$PLIMCHECK
 70
     0
  9
$PEXTMIN
 10
1.000000000000000E+20
 20
1.000000000000000E+20
 30
1.000000000000000E+20
  9
$PEXTMAX
 10
-1.000000000000000E+20
 20
-1.000000000000000E+20
 30
-1.000000000000000E+20
  9
$PLIMMIN
 10
0.0
 20
0.0
  9
$PLIMMAX
 10
12.0
 20
9.0
  9
$UNITMODE
 70
     0
  9
$VISRETAIN
 70
     1
  9
$PLINEGEN
 70
     0
  9
$PSLTSCALE
 70
     1
  9
$TREEDEPTH
 70
  3020
  9
$CMLSTYLE
  2
Standard
  9
$CMLJUST
 70
     0
  9
$CMLSCALE
 40
1.0
  9
$PROXYGRAPHICS
 70
     1
  9
$MEASUREMENT
 70
     0
  9
$CELWEIGHT
370
    -1
  9
$ENDCAPS
280
     0
  9
$JOINSTYLE
280
     0
  9
$LWDISPLAY
290
     1
  9
$INSUNITS
 70
     1
  9
$HYPERLINKBASE
  1

  9
$STYLESHEET
  1

  9
$XEDIT
290
     1
  9
$CEPSNTYPE
380
     0
  9
$PSTYLEMODE
290
     1
  9
$FINGERPRINTGUID
  2
{19356E98-660A-3027-A446-65193D09B9B4}
  9
$VERSIONGUID
  2
{FAEB1C32-E019-11D5-929B-00C0DF256EC4}
  9
$EXTNAMES
290
     1
  9
$PSVPSCALE
 40
0.0
  9
$OLESTARTUP
290
     0
  9
$SORTENTS
280
   127
  9
$INDEXCTL
280
     0
  9
$HIDETEXT
280
     1
  9
$XCLIPFRAME
280
     2
  9
$HALOGAP
280
     0
  9
$OBSCOLOR
 70
   257
  9
$OBSLTYPE
280
     0
  9
$INTERSECTIONDISPLAY
280
     0
  9
$INTERSECTIONCOLOR
 70
   257
  9
$DIMASSOC
280
     2
  9
$PROJECTNAME
  1

  9
$CAMERADISPLAY
290
     0
  9
$LENSLENGTH
 40
50.0
  9
$CAMERAHEIGHT
 40
0.0
  9
$STEPSPERSEC
 40
2.0
  9
$STEPSIZE
 40
6.0
  9
$3DDWFPREC
 40
2.0
  9
$PSOLWIDTH
 40
0.25
  9
$PSOLHEIGHT
 40
4.0
  9
$LOFTANG1
 40
1.570796326794897
  9
$LOFTANG2
 40
1.570796326794897
  9
$LOFTMAG1
 40
0.0
  9
$LOFTMAG2
 40
0.0
  9
$LOFTPARAM
 70
     7
  9
$LOFTNORMALS
280
     1
  9
$LATITUDE
 40
37.795
  9
$LONGITUDE
 40
-122.394
  9
$NORTHDIRECTION
 40
0.0
  9
$TIMEZONE
 70
 -8000
  9
$LIGHTGLYPHDISPLAY
280
     1
  9
$TILEMODELIGHTSYNCH
280
     1
  9
$CMATERIAL
347
3C
  9
$SOLIDHIST
280
     1
  9
$SHOWHIST
280
     1
  9
$DWFFRAME
280
     2
  9
$DGNFRAME
280
     2
  9
$REALWORLDSCALE
290
     1
  9
$INTERFERECOLOR
 62
   256
  9
$CSHADOW
280
     0
  9
$SHADOWPLANELOCATION
 40
0.0
  0
ENDSEC
  0
SECTION
  2
CLASSES
  0
CLASS
  1
ACDBDICTIONARYWDFLT
  2
AcDbDictionaryWithDefault
  3
ObjectDBX Classes
 90
        0
 91
        4
280
     0
281
     0
  0
CLASS
  1
VISUALSTYLE
  2
AcDbVisualStyle
  3
ObjectDBX Classes
 90
     4095
 91
        4
280
     0
281
     0
  0
CLASS
  1
MATERIAL
  2
AcDbMaterial
  3
ObjectDBX Classes
 90
     1153
 91
        4
280
     0
281
     0
  0
CLASS
  1
SUN
  2
AcDbSun
  3
SCENEOE
 90
     1024
 91
        4
280
     0
281
     0
  0
ENDSEC
  0
SECTION
  2
TABLES
  0
TABLE
  2
VPORT
  5
8
330
0
100
AcDbSymbolTable
 70
     1
  0
VPORT
  5
29
330
8
100
AcDbSymbolTableRecord
100
AcDbViewportTableRecord
  2
*Active
 70
     0
 10
0.0
 20
0.0
 11
1.0
 21
1.0
 12
0.0
 22
0.0
 13
0.0
 23
0.0
 14
0.5
 24
0.5
 15
0.5
 25
0.5
 16
0.0
 26
0.0
 36
1.0
 17
91.00082462281999
 27
-128.4993055234307
 37
0.0
 40
256.9986110468615
 41
0.7081814508812795
 42
50.0
 43
0.0
 44
0.0
 50
0.0
 51
0.0
 71
     0
 72
   100
 73
     1
 74
     3
 75
     0
 76
     0
 77
     0
 78
     0
281
     0
 65
     1
110
0.0
120
0.0
130
0.0
111
1.0
121
0.0
131
0.0
112
0.0
122
1.0
132
0.0
 79
     0
146
0.0
 60
     3
 61
     5
292
     1
282
     1
141
0.0
142
0.0
 63
   250
361
3F
  0
ENDTAB
  0
TABLE
  2
LTYPE
  5
5
330
0
100
AcDbSymbolTable
 70
     1
  0
LTYPE
  5
14
330
5
100
AcDbSymbolTableRecord
100
AcDbLinetypeTableRecord
  2
ByBlock
 70
     0
  3

 72
    65
 73
     0
 40
0.0
  0
LTYPE
  5
15
330
5
100
AcDbSymbolTableRecord
100
AcDbLinetypeTableRecord
  2
ByLayer
 70
     0
  3

 72
    65
 73
     0
 40
0.0
  0
LTYPE
  5
16
330
5
100
AcDbSymbolTableRecord
100
AcDbLinetypeTableRecord
  2
Continuous
 70
     0
  3
Solid line
 72
    65
 73
     0
 40
0.0
  0
ENDTAB
  0
TABLE
  2
LAYER
  5
2
330
0
100
AcDbSymbolTable
 70
     2
  0
LAYER
  5
10
330
2
100
AcDbSymbolTableRecord
100
AcDbLayerTableRecord
  2
0
 70
     0
 62
     7
  6
Continuous
370
    -3
390
F
347
3E
  0
LAYER
  5
40
330
2
100
AcDbSymbolTableRecord
100
AcDbLayerTableRecord
  2
_U+30EC_U+30A4_U+30E4_U+30FC 1
 70
     0
 62
     7
  6
Continuous
370
    -3
390
F
347
3E
  0
ENDTAB
  0
TABLE
  2
STYLE
  5
3
330
0
100
AcDbSymbolTable
 70
     1
  0
STYLE
  5
11
330
3
100
AcDbSymbolTableRecord
100
AcDbTextStyleTableRecord
  2
Standard
 70
     0
 40
0.0
 41
1.0
 50
0.0
 71
     0
 42
0.2
  3
txt
  4

  0
ENDTAB
  0
TABLE
  2
VIEW
  5
6
330
0
100
AcDbSymbolTable
 70
     0
  0
ENDTAB
  0
TABLE
  2
UCS
  5
7
330
0
100
AcDbSymbolTable
 70
     0
  0
ENDTAB
  0
TABLE
  2
APPID
  5
9
330
0
100
AcDbSymbolTable
 70
     1
  0
APPID
  5
12
330
9
100
AcDbSymbolTableRecord
100
AcDbRegAppTableRecord
  2
ACAD
 70
     0
  0
ENDTAB
  0
TABLE
  2
DIMSTYLE
  5
A
330
0
100
AcDbSymbolTable
 70
     1
100
AcDbDimStyleTable
  0
DIMSTYLE
105
27
330
A
100
AcDbSymbolTableRecord
100
AcDbDimStyleTableRecord
  2
Standard
 70
     0
178
     0
340
11
  0
ENDTAB
  0
TABLE
  2
BLOCK_RECORD
  5
1
330
0
100
AcDbSymbolTable
 70
     9
  0
BLOCK_RECORD
  5
1F
330
1
100
AcDbSymbolTableRecord
100
AcDbBlockTableRecord
  2
*Model_Space
340
22
 70
     0
280
     1
281
     0
  0
BLOCK_RECORD
  5
1B
330
1
100
AcDbSymbolTableRecord
100
AcDbBlockTableRecord
  2
*Paper_Space
340
1E
 70
     0
280
     1
281
     0
  0
BLOCK_RECORD
  5
23
330
1
100
AcDbSymbolTableRecord
100
AcDbBlockTableRecord
  2
*Paper_Space0
340
26
 70
     0
280
     1
281
     0
  0
BLOCK_RECORD
  5
71
330
1
100
AcDbSymbolTableRecord
100
AcDbBlockTableRecord
  2
block 2
340
0
102
{BLKREFS
331
72
102
}
 70
     0
280
     1
281
     0
  0
BLOCK_RECORD
  5
7A
330
1
100
AcDbSymbolTableRecord
100
AcDbBlockTableRecord
  2
block 3
340
0
102
{BLKREFS
331
7B
102
}
 70
     0
280
     1
281
     0
  0
BLOCK_RECORD
  5
80
330
1
100
AcDbSymbolTableRecord
100
AcDbBlockTableRecord
  2
block 4
340
0
102
{BLKREFS
331
81
102
}
 70
     0
280
     1
281
     0
  0
BLOCK_RECORD
  5
8A
330
1
100
AcDbSymbolTableRecord
100
AcDbBlockTableRecord
  2
block 5
340
0
102
{BLKREFS
331
8B
102
}
 70
     0
280
     1
281
     0
  0
BLOCK_RECORD
  5
9F
330
1
100
AcDbSymbolTableRecord
100
AcDbBlockTableRecord
  2
block 6
340
0
102
{BLKREFS
331
A0
102
}
 70
     0
280
     1
281
     0
  0
BLOCK_RECORD
  5
A7
330
1
100
AcDbSymbolTableRecord
100
AcDbBlockTableRecord
  2
block 7
340
0
102
{BLKREFS
331
A8
102
}
 70
     0
280
     1
281
     0
  0
BLOCK_RECORD
  5
B0
330
1
100
AcDbSymbolTableRecord
100
AcDbBlockTableRecord
  2
block 8
340
0
102
{BLKREFS
331
B1
102
}
 70
     0
280
     1
281
     0
  0
BLOCK_RECORD
  5
C1
330
1
100
AcDbSymbolTableRecord
100
AcDbBlockTableRecord
  2
block 9
340
0
102
{BLKREFS
331
C2
102
}
 70
     0
280
     1
281
     0
  0
ENDTAB
  0
ENDSEC
  0
SECTION
  2
BLOCKS
  0
BLOCK
  5
20
330
1F
100
AcDbEntity
  8
0
100
AcDbBlockBegin
  2
*Model_Space
 70
     0
 10
0.0
 20
0.0
 30
0.0
  3
*Model_Space
  1

  0
ENDBLK
  5
21
330
1F
100
AcDbEntity
  8
0
100
AcDbBlockEnd
  0
BLOCK
  5
1C
330
1B
100
AcDbEntity
 67
     1
  8
0
100
AcDbBlockBegin
  2
*Paper_Space
 70
     0
 10
0.0
 20
0.0
 30
0.0
  3
*Paper_Space
  1

  0
ENDBLK
  5
1D
330
1B
100
AcDbEntity
 67
     1
  8
0
100
AcDbBlockEnd
  0
BLOCK
  5
24
330
23
100
AcDbEntity
  8
0
100
AcDbBlockBegin
  2
*Paper_Space0
 70
     0
 10
0.0
 20
0.0
 30
0.0
  3
*Paper_Space0
  1

  0
ENDBLK
  5
25
330
23
100
AcDbEntity
  8
0
100
AcDbBlockEnd
  0
BLOCK
  5
73
330
71
100
AcDbEntity
  8
0
100
AcDbBlockBegin
  2
block 2
 70
     0
 10
0.0
 20
0.0
 30
0.0
  3
block 2
  1

  0
SPLINE
  5
75
330
71
100
AcDbEntity
  8
_U+30EC_U+30A4_U+30E4_U+30FC 1
370
     0
100
AcDbSpline
210
0.0
220
0.0
230
1.0
 70
    11
 71
     3
 72
    26
 73
    22
 74
     0
 42
0.0000000001
 43
0.0000000001
 12
1.0
 22
0.0
 32
0.0
 13
1.0
 23
0.0
 33
0.0
 40
0.0
 40
0.0
 40
0.0
 40
0.0
 40
1.0
 40
1.0
 40
1.0
 40
2.0
 40
2.0
 40
2.0
 40
3.0
 40
3.0
 40
3.0
 40
4.0
 40
4.0
 40
4.0
 40
5.0
 40
5.0
 40
5.0
 40
6.0
 40
6.0
 40
6.0
 40
7.0
 40
7.0
 40
7.0
 40
7.0
 10
116.3277831740431
 20
-140.0293510934649
 30
0.0
 10
116.3277831740431
 20
-140.0293510934649
 30
0.0
 10
115.2236300710205
 20
-140.0293510934649
 30
0.0
 10
115.2236300710205
 20
-140.0293510934649
 30
0.0
 10
115.2236300710205
 20
-140.0293510934649
 30
0.0
 10
115.2236300710205
 20
-140.3593912409518
 30
0.0
 10
115.2236300710205
 20
-140.3593912409518
 30
0.0
 10
115.2236300710205
 20
-140.3593912409518
 30
0.0
 10
115.0754909651547
 20
-140.3593912409518
 30
0.0
 10
115.0754909651547
 20
-140.3593912409518
 30
0.0
 10
115.0606770545682
 20
-140.0272840361737
 30
0.0
 10
114.8977240381159
 20
-139.9807752471229
 30
0.0
 10
114.7833468680056
 20
-139.9511474259497
 30
0.0
 10
114.7833468680056
 20
-139.9511474259497
 30
0.0
 10
114.7833468680056
 20
-139.8050753773751
 30
0.0
 10
114.7833468680056
 20
-139.8050753773751
 30
0.0
 10
114.7833468680056
 20
-139.8050753773751
 30
0.0
 10
116.3277831740431
 20
-139.8050753773751
 30
0.0
 10
116.3277831740431
 20
-139.8050753773751
 30
0.0
 10
116.3277831740431
 20
-139.8050753773751
 30
0.0
 10
116.3277831740431
 20
-140.0293510934649
 30
0.0
 10
116.3277831740431
 20
-140.0293510934649
 30
0.0
  0
HATCH
  5
76
330
71
100
AcDbEntity
  8
_U+30EC_U+30A4_U+30E4_U+30FC 1
 62
     7
420
 16777215
100
AcDbHatch
 10
0.0
 20
0.0
 30
0.0
210
0.0
220
0.0
230
1.0
  2
SOLID
 70
     1
 71
     0
 91
        1
 92
        1
 93
        1
 72
     4
 94
        3
 73
     0
 74
     1
 95
       26
 96
       22
 40
0.0
 40
0.0
 40
0.0
 40
0.0
 40
1.0
 40
1.0
 40
1.0
 40
2.0
 40
2.0
 40
2.0
 40
3.0
 40
3.0
 40
3.0
 40
4.0
 40
4.0
 40
4.0
 40
5.0
 40
5.0
 40
5.0
 40
6.0
 40
6.0
 40
6.0
 40
7.0
 40
7.0
 40
7.0
 40
7.0
 10
116.3277831740431
 20
-140.0293510934649
 10
116.3277831740431
 20
-140.0293510934649
 10
115.2236300710205
 20
-140.0293510934649
 10
115.2236300710205
 20
-140.0293510934649
 10
115.2236300710205
 20
-140.0293510934649
 10
115.2236300710205
 20
-140.3593912409518
 10
115.2236300710205
 20
-140.3593912409518
 10
115.2236300710205
 20
-140.3593912409518
 10
115.0754909651547
 20
-140.3593912409518
 10
115.0754909651547
 20
-140.3593912409518
 10
115.0606770545682
 20
-140.0272840361737
 10
114.8977240381159
 20
-139.9807752471229
 10
114.7833468680056
 20
-139.9511474259497
 10
114.7833468680056
 20
-139.9511474259497
 10
114.7833468680056
 20
-139.8050753773751
 10
114.7833468680056
 20
-139.8050753773751
 10
114.7833468680056
 20
-139.8050753773751
 10
116.3277831740431
 20
-139.8050753773751
 10
116.3277831740431
 20
-139.8050753773751
 10
116.3277831740431
 20
-139.8050753773751
 10
116.3277831740431
 20
-140.0293510934649
 10
116.3277831740431
 20
-140.0293510934649
 97
        0
 97
        0
 75
     2
 76
     1
 98
        0
  0
SPLINE
  5
77
330
71
100
AcDbEntity
  8
_U+30EC_U+30A4_U+30E4_U+30FC 1
370
     0
100
AcDbSpline
210
0.0
220
0.0
230
1.0
 70
    11
 71
     3
 72
    29
 73
    25
 74
     0
 42
0.0000000001
 43
0.0000000001
 12
1.0
 22
0.0
 32
0.0
 13
1.0
 23
0.0
 33
0.0
 40
0.0
 40
0.0
 40
0.0
 40
0.0
 40
1.0
 40
1.0
 40
1.0
 40
2.0
 40
2.0
 40
2.0
 40
3.0
 40
3.0
 40
3.0
 40
4.0
 40
4.0
 40
4.0
 40
5.0
 40
5.0
 40
5.0
 40
6.0
 40
6.0
 40
6.0
 40
7.0
 40
7.0
 40
7.0
 40
8.0
 40
8.0
 40
8.0
 40
8.0
 10
116.1500162470042
 20
-138.4060221008152
 30
0.0
 10
116.3594780525074
 20
-138.514198099052
 30
0.0
 10
116.3784260776762
 20
-138.6874864019601
 30
0.0
 10
116.3784260776762
 20
-138.8039306293615
 30
0.0
 10
116.3784260776762
 20
-138.9648165885227
 30
0.0
 10
116.3319172886254
 20
-139.1064100129664
 30
0.0
 10
116.1500162470042
 20
-139.2014946483594
 30
0.0
 10
115.9553683520875
 20
-139.3051920224654
 30
0.0
 10
115.7183457827024
 20
-139.3244845571828
 30
0.0
 10
115.5557372757986
 20
-139.3244845571828
 30
0.0
 10
115.4117322845151
 20
-139.3244845571828
 30
0.0
 10
115.1598958045434
 20
-139.3072590797565
 30
0.0
 10
114.9611137950445
 20
-139.2014946483594
 30
0.0
 10
114.7581976709632
 20
-139.093663159671
 30
0.0
 10
114.7347710216635
 20
-138.9327772005099
 30
0.0
 10
114.7347710216635
 20
-138.8039306293615
 30
0.0
 10
114.7347710216635
 20
-138.6451117274915
 30
0.0
 10
114.7792127534233
 20
-138.5014512457566
 30
0.0
 10
114.9611137950445
 20
-138.4060221008152
 30
0.0
 10
115.1536946326699
 20
-138.30680335084
 30
0.0
 10
115.382104463342
 20
-138.2833767015403
 30
0.0
 10
115.5557372757986
 20
-138.2833767015403
 30
0.0
 10
115.7269585214155
 20
-138.2833767015403
 30
0.0
 10
115.9574354093787
 20
-138.3047362935488
 30
0.0
 10
116.1500162470042
 20
-138.4060221008152
 30
0.0
  0
SPLINE
  5
78
330
71
100
AcDbEntity
  8
_U+30EC_U+30A4_U+30E4_U+30FC 1
370
     0
100
AcDbSpline
210
0.0
220
0.0
230
1.0
 70
    11
 71
     3
 72
    17
 73
    13
 74
     0
 42
0.0000000001
 43
0.0000000001
 12
1.0
 22
0.0
 32
0.0
 13
1.0
 23
0.0
 33
0.0
 40
0.0
 40
0.0
 40
0.0
 40
0.0
 40
1.0
 40
1.0
 40
1.0
 40
2.0
 40
2.0
 40
2.0
 40
3.0
 40
3.0
 40
3.0
 40
4.0
 40
4.0
 40
4.0
 40
4.0
 10
114.927351859289
 20
-138.8039306293615
 30
0.0
 10
114.927351859289
 20
-139.0537000520421
 30
0.0
 10
115.2108832177251
 20
-139.100208841093
 30
0.0
 10
115.5557372757986
 20
-139.100208841093
 30
0.0
 10
115.8750976272812
 20
-139.100208841093
 30
0.0
 10
116.1837781827596
 20
-139.0640353384979
 30
0.0
 10
116.1837781827596
 20
-138.8039306293615
 30
0.0
 10
116.1837781827596
 20
-138.5562282639721
 30
0.0
 10
115.9026583911632
 20
-138.50765241763
 30
0.0
 10
115.5557372757986
 20
-138.50765241763
 30
0.0
 10
115.2360324147674
 20
-138.50765241763
 30
0.0
 10
114.927351859289
 20
-138.5458929775163
 30
0.0
 10
114.927351859289
 20
-138.8039306293615
 30
0.0
  0
HATCH
  5
79
330
71
100
AcDbEntity
  8
_U+30EC_U+30A4_U+30E4_U+30FC 1
 62
     7
420
 16777215
100
AcDbHatch
 10
0.0
 20
0.0
 30
0.0
210
0.0
220
0.0
230
1.0
  2
SOLID
 70
     1
 71
     0
 91
        2
 92
        1
 93
        1
 72
     4
 94
        3
 73
     0
 74
     1
 95
       29
 96
       25
 40
0.0
 40
0.0
 40
0.0
 40
0.0
 40
1.0
 40
1.0
 40
1.0
 40
2.0
 40
2.0
 40
2.0
 40
3.0
 40
3.0
 40
3.0
 40
4.0
 40
4.0
 40
4.0
 40
5.0
 40
5.0
 40
5.0
 40
6.0
 40
6.0
 40
6.0
 40
7.0
 40
7.0
 40
7.0
 40
8.0
 40
8.0
 40
8.0
 40
8.0
 10
116.1500162470042
 20
-138.4060221008152
 10
116.3594780525074
 20
-138.514198099052
 10
116.3784260776762
 20
-138.6874864019601
 10
116.3784260776762
 20
-138.8039306293615
 10
116.3784260776762
 20
-138.9648165885227
 10
116.3319172886254
 20
-139.1064100129664
 10
116.1500162470042
 20
-139.2014946483594
 10
115.9553683520875
 20
-139.3051920224654
 10
115.7183457827024
 20
-139.3244845571828
 10
115.5557372757986
 20
-139.3244845571828
 10
115.4117322845151
 20
-139.3244845571828
 10
115.1598958045434
 20
-139.3072590797565
 10
114.9611137950445
 20
-139.2014946483594
 10
114.7581976709632
 20
-139.093663159671
 10
114.7347710216635
 20
-138.9327772005099
 10
114.7347710216635
 20
-138.8039306293615
 10
114.7347710216635
 20
-138.6451117274915
 10
114.7792127534233
 20
-138.5014512457566
 10
114.9611137950445
 20
-138.4060221008152
 10
115.1536946326699
 20
-138.30680335084
 10
115.382104463342
 20
-138.2833767015403
 10
115.5557372757986
 20
-138.2833767015403
 10
115.7269585214155
 20
-138.2833767015403
 10
115.9574354093787
 20
-138.3047362935488
 10
116.1500162470042
 20
-138.4060221008152
 97
        0
 97
        0
 92
        1
 93
        1
 72
     4
 94
        3
 73
     0
 74
     1
 95
       17
 96
       13
 40
0.0
 40
0.0
 40
0.0
 40
0.0
 40
1.0
 40
1.0
 40
1.0
 40
2.0
 40
2.0
 40
2.0
 40
3.0
 40
3.0
 40
3.0
 40
4.0
 40
4.0
 40
4.0
 40
4.0
 10
114.927351859289
 20
-138.8039306293615
 10
114.927351859289
 20
-139.0537000520421
 10
115.2108832177251
 20
-139.100208841093
 10
115.5557372757986
 20
-139.100208841093
 10
115.8750976272812
 20
-139.100208841093
 10
116.1837781827596
 20
-139.0640353384979
 10
116.1837781827596
 20
-138.8039306293615
 10
116.1837781827596
 20
-138.5562282639721
 10
115.9026583911632
 20
-138.50765241763
 10
115.5557372757986
 20
-138.50765241763
 10
115.2360324147674
 20
-138.50765241763
 10
114.927351859289
 20
-138.5458929775163
 10
114.927351859289
 20
-138.8039306293615
 97
        0
 97
        0
 75
     2
 76
     1
 98
        0
  0
ENDBLK
  5
74
330
71
100
AcDbEntity
  8
0
100
AcDbBlockEnd
  0
BLOCK
  5
7C
330
7A
100
AcDbEntity
  8
0
100
AcDbBlockBegin
  2
block 3
 70
     0
 10
0.0
 20
0.0
 30
0.0
  3
block 3
  1

  0
SPLINE
  5
7E
330
7A
100
AcDbEntity
  8
_U+30EC_U+30A4_U+30E4_U+30FC 1
370
     0
100
AcDbSpline
210
0.0
220
0.0
230
1.0
 70
    11
 71
     3
 72
    26
 73
    22
 74
     0
 42
0.0000000001
 43
0.0000000001
 12
1.0
 22
0.0
 32
0.0
 13
1.0
 23
0.0
 33
0.0
 40
0.0
 40
0.0
 40
0.0
 40
0.0
 40
1.0
 40
1.0
 40
1.0
 40
2.0
 40
2.0
 40
2.0
 40
3.0
 40
3.0
 40
3.0
 40
4.0
 40
4.0
 40
4.0
 40
5.0
 40
5.0
 40
5.0
 40
6.0
 40
6.0
 40
6.0
 40
7.0
 40
7.0
 40
7.0
 40
7.0
 10
116.3277831740431
 20
-133.9990559560836
 30
0.0
 10
116.3277831740431
 20
-133.9990559560836
 30
0.0
 10
115.2236300710205
 20
-133.9990559560836
 30
0.0
 10
115.2236300710205
 20
-133.9990559560836
 30
0.0
 10
115.2236300710205
 20
-133.9990559560836
 30
0.0
 10
115.2236300710205
 20
-134.3290961035705
 30
0.0
 10
115.2236300710205
 20
-134.3290961035705
 30
0.0
 10
115.2236300710205
 20
-134.3290961035705
 30
0.0
 10
115.0754909651547
 20
-134.3290961035705
 30
0.0
 10
115.0754909651547
 20
-134.3290961035705
 30
0.0
 10
115.0606770545682
 20
-133.9969888987924
 30
0.0
 10
114.8977240381159
 20
-133.9504801097416
 30
0.0
 10
114.7833468680056
 20
-133.9208522885684
 30
0.0
 10
114.7833468680056
 20
-133.9208522885684
 30
0.0
 10
114.7833468680056
 20
-133.7747802399938
 30
0.0
 10
114.7833468680056
 20
-133.7747802399938
 30
0.0
 10
114.7833468680056
 20
-133.7747802399938
 30
0.0
 10
116.3277831740431
 20
-133.7747802399938
 30
0.0
 10
116.3277831740431
 20
-133.7747802399938
 30
0.0
 10
116.3277831740431
 20
-133.7747802399938
 30
0.0
 10
116.3277831740431
 20
-133.9990559560836
 30
0.0
 10
116.3277831740431
 20
-133.9990559560836
 30
0.0
  0
HATCH
  5
7F
330
7A
100
AcDbEntity
  8
_U+30EC_U+30A4_U+30E4_U+30FC 1
 62
     7
420
 16777215
100
AcDbHatch
 10
0.0
 20
0.0
 30
0.0
210
0.0
220
0.0
230
1.0
  2
SOLID
 70
     1
 71
     0
 91
        1
 92
        1
 93
        1
 72
     4
 94
        3
 73
     0
 74
     1
 95
       26
 96
       22
 40
0.0
 40
0.0
 40
0.0
 40
0.0
 40
1.0
 40
1.0
 40
1.0
 40
2.0
 40
2.0
 40
2.0
 40
3.0
 40
3.0
 40
3.0
 40
4.0
 40
4.0
 40
4.0
 40
5.0
 40
5.0
 40
5.0
 40
6.0
 40
6.0
 40
6.0
 40
7.0
 40
7.0
 40
7.0
 40
7.0
 10
116.3277831740431
 20
-133.9990559560836
 10
116.3277831740431
 20
-133.9990559560836
 10
115.2236300710205
 20
-133.9990559560836
 10
115.2236300710205
 20
-133.9990559560836
 10
115.2236300710205
 20
-133.9990559560836
 10
115.2236300710205
 20
-134.3290961035705
 10
115.2236300710205
 20
-134.3290961035705
 10
115.2236300710205
 20
-134.3290961035705
 10
115.0754909651547
 20
-134.3290961035705
 10
115.0754909651547
 20
-134.3290961035705
 10
115.0606770545682
 20
-133.9969888987924
 10
114.8977240381159
 20
-133.9504801097416
 10
114.7833468680056
 20
-133.9208522885684
 10
114.7833468680056
 20
-133.9208522885684
 10
114.7833468680056
 20
-133.7747802399938
 10
114.7833468680056
 20
-133.7747802399938
 10
114.7833468680056
 20
-133.7747802399938
 10
116.3277831740431
 20
-133.7747802399938
 10
116.3277831740431
 20
-133.7747802399938
 10
116.3277831740431
 20
-133.7747802399938
 10
116.3277831740431
 20
-133.9990559560836
 10
116.3277831740431
 20
-133.9990559560836
 97
        0
 97
        0
 75
     2
 76
     1
 98
        0
  0
ENDBLK
  5
7D
330
7A
100
AcDbEntity
  8
0
100
AcDbBlockEnd
  0
BLOCK
  5
82
330
80
100
AcDbEntity
  8
0
100
AcDbBlockBegin
  2
block 4
 70
     0
 10
0.0
 20
0.0
 30
0.0
  3
block 4
  1

  0
SPLINE
  5
84
330
80
100
AcDbEntity
  8
_U+30EC_U+30A4_U+30E4_U+30FC 1
370
     0
100
AcDbSpline
210
0.0
220
0.0
230
1.0
 70
    11
 71
     3
 72
    44
 73
    40
 74
     0
 42
0.0000000001
 43
0.0000000001
 12
1.0
 22
0.0
 32
0.0
 13
1.0
 23
0.0
 33
0.0
 40
0.0
 40
0.0
 40
0.0
 40
0.0
 40
1.0
 40
1.0
 40
1.0
 40
2.0
 40
2.0
 40
2.0
 40
3.0
 40
3.0
 40
3.0
 40
4.0
 40
4.0
 40
4.0
 40
5.0
 40
5.0
 40
5.0
 40
6.0
 40
6.0
 40
6.0
 40
7.0
 40
7.0
 40
7.0
 40
8.0
 40
8.0
 40
8.0
 40
9.0
 40
9.0
 40
9.0
 40
10.0
 40
10.0
 40
10.0
 40
11.0
 40
11.0
 40
11.0
 40
12.0
 40
12.0
 40
12.0
 40
13.0
 40
13.0
 40
13.0
 40
13.0
 10
115.7459065465844
 20
-119.8879448485002
 30
0.0
 10
115.9047254484544
 20
-120.105674883168
 30
0.0
 10
115.9787950013873
 20
-120.1986924612698
 30
0.0
 10
116.1224554831222
 20
-120.2476128171603
 30
0.0
 10
116.1224554831222
 20
-120.2476128171603
 30
0.0
 10
116.1224554831222
 20
-119.4690212374939
 30
0.0
 10
116.1224554831222
 20
-119.4690212374939
 30
0.0
 10
116.1224554831222
 20
-119.4690212374939
 30
0.0
 10
116.3277831740431
 20
-119.4690212374939
 30
0.0
 10
116.3277831740431
 20
-119.4690212374939
 30
0.0
 10
116.3277831740431
 20
-119.4690212374939
 30
0.0
 10
116.3277831740431
 20
-120.4970377302924
 30
0.0
 10
116.3277831740431
 20
-120.4970377302924
 30
0.0
 10
115.9701822626741
 20
-120.4653428518281
 30
0.0
 10
115.891978595159
 20
-120.3998860376084
 30
0.0
 10
115.5936333261363
 20
-120.0147243623574
 30
0.0
 10
115.3948513166374
 20
-119.7587537678034
 30
0.0
 10
115.326982935578
 20
-119.6932969535836
 30
0.0
 10
115.1895236257165
 20
-119.6932969535836
 30
0.0
 10
115.0710123410239
 20
-119.6932969535836
 30
0.0
 10
114.9400987125844
 20
-119.7652994492254
 30
0.0
 10
114.9400987125844
 20
-119.9620144014331
 30
0.0
 10
114.9400987125844
 20
-120.2221191105695
 30
0.0
 10
115.1705756005476
 20
-120.2307318492826
 30
0.0
 10
115.2870198279491
 20
-120.2348659638649
 30
0.0
 10
115.2870198279491
 20
-120.2348659638649
 30
0.0
 10
115.2870198279491
 20
-120.4591416799547
 30
0.0
 10
115.2870198279491
 20
-120.4591416799547
 30
0.0
 10
115.1598958045434
 20
-120.4505289412415
 30
0.0
 10
115.0479302012727
 20
-120.4398491452373
 30
0.0
 10
114.9294189165801
 20
-120.3595784204309
 30
0.0
 10
114.768532957419
 20
-120.2496798744515
 30
0.0
 10
114.7347710216635
 20
-120.0633002086995
 30
0.0
 10
114.7347710216635
 20
-119.9472004908465
 30
0.0
 10
114.7347710216635
 20
-119.6698703042839
 30
0.0
 10
114.9187391205759
 20
-119.4624755560719
 30
0.0
 10
115.1915906830077
 20
-119.4624755560719
 30
0.0
 10
115.4203450232283
 20
-119.4624755560719
 30
0.0
 10
115.5195637732034
 20
-119.5789197834733
 30
0.0
 10
115.7459065465844
 20
-119.8879448485002
 30
0.0
  0
HATCH
  5
85
330
80
100
AcDbEntity
  8
_U+30EC_U+30A4_U+30E4_U+30FC 1
 62
     7
420
 16777215
100
AcDbHatch
 10
0.0
 20
0.0
 30
0.0
210
0.0
220
0.0
230
1.0
  2
SOLID
 70
     1
 71
     0
 91
        1
 92
        1
 93
        1
 72
     4
 94
        3
 73
     0
 74
     1
 95
       44
 96
       40
 40
0.0
 40
0.0
 40
0.0
 40
0.0
 40
1.0
 40
1.0
 40
1.0
 40
2.0
 40
2.0
 40
2.0
 40
3.0
 40
3.0
 40
3.0
 40
4.0
 40
4.0
 40
4.0
 40
5.0
 40
5.0
 40
5.0
 40
6.0
 40
6.0
 40
6.0
 40
7.0
 40
7.0
 40
7.0
 40
8.0
 40
8.0
 40
8.0
 40
9.0
 40
9.0
 40
9.0
 40
10.0
 40
10.0
 40
10.0
 40
11.0
 40
11.0
 40
11.0
 40
12.0
 40
12.0
 40
12.0
 40
13.0
 40
13.0
 40
13.0
 40
13.0
 10
115.7459065465844
 20
-119.8879448485002
 10
115.9047254484544
 20
-120.105674883168
 10
115.9787950013873
 20
-120.1986924612698
 10
116.1224554831222
 20
-120.2476128171603
 10
116.1224554831222
 20
-120.2476128171603
 10
116.1224554831222
 20
-119.4690212374939
 10
116.1224554831222
 20
-119.4690212374939
 10
116.1224554831222
 20
-119.4690212374939
 10
116.3277831740431
 20
-119.4690212374939
 10
116.3277831740431
 20
-119.4690212374939
 10
116.3277831740431
 20
-119.4690212374939
 10
116.3277831740431
 20
-120.4970377302924
 10
116.3277831740431
 20
-120.4970377302924
 10
115.9701822626741
 20
-120.4653428518281
 10
115.891978595159
 20
-120.3998860376084
 10
115.5936333261363
 20
-120.0147243623574
 10
115.3948513166374
 20
-119.7587537678034
 10
115.326982935578
 20
-119.6932969535836
 10
115.1895236257165
 20
-119.6932969535836
 10
115.0710123410239
 20
-119.6932969535836
 10
114.9400987125844
 20
-119.7652994492254
 10
114.9400987125844
 20
-119.9620144014331
 10
114.9400987125844
 20
-120.2221191105695
 10
115.1705756005476
 20
-120.2307318492826
 10
115.2870198279491
 20
-120.2348659638649
 10
115.2870198279491
 20
-120.2348659638649
 10
115.2870198279491
 20
-120.4591416799547
 10
115.2870198279491
 20
-120.4591416799547
 10
115.1598958045434
 20
-120.4505289412415
 10
115.0479302012727
 20
-120.4398491452373
 10
114.9294189165801
 20
-120.3595784204309
 10
114.768532957419
 20
-120.2496798744515
 10
114.7347710216635
 20
-120.0633002086995
 10
114.7347710216635
 20
-119.9472004908465
 10
114.7347710216635
 20
-119.6698703042839
 10
114.9187391205759
 20
-119.4624755560719
 10
115.1915906830077
 20
-119.4624755560719
 10
115.4203450232283
 20
-119.4624755560719
 10
115.5195637732034
 20
-119.5789197834733
 10
115.7459065465844
 20
-119.8879448485002
 97
        0
 97
        0
 75
     2
 76
     1
 98
        0
  0
SPLINE
  5
86
330
80
100
AcDbEntity
  8
_U+30EC_U+30A4_U+30E4_U+30FC 1
370
     0
100
AcDbSpline
210
0.0
220
0.0
230
1.0
 70
    11
 71
     3
 72
    29
 73
    25
 74
     0
 42
0.0000000001
 43
0.0000000001
 12
1.0
 22
0.0
 32
0.0
 13
1.0
 23
0.0
 33
0.0
 40
0.0
 40
0.0
 40
0.0
 40
0.0
 40
1.0
 40
1.0
 40
1.0
 40
2.0
 40
2.0
 40
2.0
 40
3.0
 40
3.0
 40
3.0
 40
4.0
 40
4.0
 40
4.0
 40
5.0
 40
5.0
 40
5.0
 40
6.0
 40
6.0
 40
6.0
 40
7.0
 40
7.0
 40
7.0
 40
8.0
 40
8.0
 40
8.0
 40
8.0
 10
116.3784260776762
 20
-118.8041178088406
 30
0.0
 10
116.3784260776762
 20
-119.070768199399
 30
0.0
 10
116.2409667678148
 20
-119.3246717366619
 30
0.0
 10
115.891978595159
 20
-119.3246717366619
 30
0.0
 10
115.6360080006049
 20
-119.3246717366619
 30
0.0
 10
115.540923365212
 20
-119.1827338026696
 30
0.0
 10
115.4796006655746
 20
-119.0769693712724
 30
0.0
 10
115.4203450232283
 20
-119.2016818278385
 30
0.0
 10
115.305967853118
 20
-119.2778184380625
 30
0.0
 10
115.1450818939568
 20
-119.2778184380625
 30
0.0
 10
114.8701632742339
 20
-119.2778184380625
 30
0.0
 10
114.7347710216635
 20
-119.0790364285636
 30
0.0
 10
114.7347710216635
 20
-118.8041178088406
 30
0.0
 10
114.7347710216635
 20
-118.5205864504046
 30
0.0
 10
114.878776012947
 20
-118.3300726700703
 30
0.0
 10
115.1450818939568
 20
-118.3300726700703
 30
0.0
 10
115.305967853118
 20
-118.3300726700703
 30
0.0
 10
115.4203450232283
 20
-118.408620847134
 30
0.0
 10
115.4796006655746
 20
-118.5333333037
 30
0.0
 10
115.5302435692077
 20
-118.4444498401806
 30
0.0
 10
115.6253282046006
 20
-118.2856309383105
 30
0.0
 10
115.8878444805767
 20
-118.2856309383105
 30
0.0
 10
116.2623263598233
 20
-118.2856309383105
 30
0.0
 10
116.3784260776762
 20
-118.5650281821643
 30
0.0
 10
116.3784260776762
 20
-118.8041178088406
 30
0.0
  0
SPLINE
  5
87
330
80
100
AcDbEntity
  8
_U+30EC_U+30A4_U+30E4_U+30FC 1
370
     0
100
AcDbSpline
210
0.0
220
0.0
230
1.0
 70
    11
 71
     3
 72
    17
 73
    13
 74
     0
 42
0.0000000001
 43
0.0000000001
 12
1.0
 22
0.0
 32
0.0
 13
1.0
 23
0.0
 33
0.0
 40
0.0
 40
0.0
 40
0.0
 40
0.0
 40
1.0
 40
1.0
 40
1.0
 40
2.0
 40
2.0
 40
2.0
 40
3.0
 40
3.0
 40
3.0
 40
4.0
 40
4.0
 40
4.0
 40
4.0
 10
114.927351859289
 20
-118.8041178088406
 30
0.0
 10
114.927351859289
 20
-118.9691378825841
 30
0.0
 10
115.0224364946819
 20
-119.0538872315213
 30
0.0
 10
115.1578287472522
 20
-119.0538872315213
 30
0.0
 10
115.2804741465271
 20
-119.0538872315213
 30
0.0
 10
115.3989854312197
 20
-118.9818847358795
 30
0.0
 10
115.3989854312197
 20
-118.8041178088406
 30
0.0
 10
115.3989854312197
 20
-118.6263508818018
 30
0.0
 10
115.2804741465271
 20
-118.55434838616
 30
0.0
 10
115.1578287472522
 20
-118.55434838616
 30
0.0
 10
115.0224364946819
 20
-118.55434838616
 30
0.0
 10
114.927351859289
 20
-118.6411647923883
 30
0.0
 10
114.927351859289
 20
-118.8041178088406
 30
0.0
  0
SPLINE
  5
88
330
80
100
AcDbEntity
  8
_U+30EC_U+30A4_U+30E4_U+30FC 1
370
     0
100
AcDbSpline
210
0.0
220
0.0
230
1.0
 70
    11
 71
     3
 72
    17
 73
    13
 74
     0
 42
0.0000000001
 43
0.0000000001
 12
1.0
 22
0.0
 32
0.0
 13
1.0
 23
0.0
 33
0.0
 40
0.0
 40
0.0
 40
0.0
 40
0.0
 40
1.0
 40
1.0
 40
1.0
 40
2.0
 40
2.0
 40
2.0
 40
3.0
 40
3.0
 40
3.0
 40
4.0
 40
4.0
 40
4.0
 40
4.0
 10
115.5874321542629
 20
-118.8041178088406
 30
0.0
 10
115.5874321542629
 20
-118.9477782905756
 30
0.0
 10
115.6742485604912
 20
-119.1003960205721
 30
0.0
 10
115.8771646845724
 20
-119.1003960205721
 30
0.0
 10
116.0824923754933
 20
-119.1003960205721
 30
0.0
 10
116.1837781827596
 20
-118.9732719971664
 30
0.0
 10
116.1837781827596
 20
-118.8041178088406
 30
0.0
 10
116.1837781827596
 20
-118.6180826526372
 30
0.0
 10
116.0611327834847
 20
-118.5078395971092
 30
0.0
 10
115.8833658564458
 20
-118.5078395971092
 30
0.0
 10
115.6615017071957
 20
-118.5078395971092
 30
0.0
 10
115.5874321542629
 20
-118.6707926135615
 30
0.0
 10
115.5874321542629
 20
-118.8041178088406
 30
0.0
  0
HATCH
  5
89
330
80
100
AcDbEntity
  8
_U+30EC_U+30A4_U+30E4_U+30FC 1
 62
     7
420
 16777215
100
AcDbHatch
 10
0.0
 20
0.0
 30
0.0
210
0.0
220
0.0
230
1.0
  2
SOLID
 70
     1
 71
     0
 91
        3
 92
        1
 93
        1
 72
     4
 94
        3
 73
     0
 74
     1
 95
       29
 96
       25
 40
0.0
 40
0.0
 40
0.0
 40
0.0
 40
1.0
 40
1.0
 40
1.0
 40
2.0
 40
2.0
 40
2.0
 40
3.0
 40
3.0
 40
3.0
 40
4.0
 40
4.0
 40
4.0
 40
5.0
 40
5.0
 40
5.0
 40
6.0
 40
6.0
 40
6.0
 40
7.0
 40
7.0
 40
7.0
 40
8.0
 40
8.0
 40
8.0
 40
8.0
 10
116.3784260776762
 20
-118.8041178088406
 10
116.3784260776762
 20
-119.070768199399
 10
116.2409667678148
 20
-119.3246717366619
 10
115.891978595159
 20
-119.3246717366619
 10
115.6360080006049
 20
-119.3246717366619
 10
115.540923365212
 20
-119.1827338026696
 10
115.4796006655746
 20
-119.0769693712724
 10
115.4203450232283
 20
-119.2016818278385
 10
115.305967853118
 20
-119.2778184380625
 10
115.1450818939568
 20
-119.2778184380625
 10
114.8701632742339
 20
-119.2778184380625
 10
114.7347710216635
 20
-119.0790364285636
 10
114.7347710216635
 20
-118.8041178088406
 10
114.7347710216635
 20
-118.5205864504046
 10
114.878776012947
 20
-118.3300726700703
 10
115.1450818939568
 20
-118.3300726700703
 10
115.305967853118
 20
-118.3300726700703
 10
115.4203450232283
 20
-118.408620847134
 10
115.4796006655746
 20
-118.5333333037
 10
115.5302435692077
 20
-118.4444498401806
 10
115.6253282046006
 20
-118.2856309383105
 10
115.8878444805767
 20
-118.2856309383105
 10
116.2623263598233
 20
-118.2856309383105
 10
116.3784260776762
 20
-118.5650281821643
 10
116.3784260776762
 20
-118.8041178088406
 97
        0
 97
        0
 92
        1
 93
        1
 72
     4
 94
        3
 73
     0
 74
     1
 95
       17
 96
       13
 40
0.0
 40
0.0
 40
0.0
 40
0.0
 40
1.0
 40
1.0
 40
1.0
 40
2.0
 40
2.0
 40
2.0
 40
3.0
 40
3.0
 40
3.0
 40
4.0
 40
4.0
 40
4.0
 40
4.0
 10
114.927351859289
 20
-118.8041178088406
 10
114.927351859289
 20
-118.9691378825841
 10
115.0224364946819
 20
-119.0538872315213
 10
115.1578287472522
 20
-119.0538872315213
 10
115.2804741465271
 20
-119.0538872315213
 10
115.3989854312197
 20
-118.9818847358795
 10
115.3989854312197
 20
-118.8041178088406
 10
115.3989854312197
 20
-118.6263508818018
 10
115.2804741465271
 20
-118.55434838616
 10
115.1578287472522
 20
-118.55434838616
 10
115.0224364946819
 20
-118.55434838616
 10
114.927351859289
 20
-118.6411647923883
 10
114.927351859289
 20
-118.8041178088406
 97
        0
 97
        0
 92
        1
 93
        1
 72
     4
 94
        3
 73
     0
 74
     1
 95
       17
 96
       13
 40
0.0
 40
0.0
 40
0.0
 40
0.0
 40
1.0
 40
1.0
 40
1.0
 40
2.0
 40
2.0
 40
2.0
 40
3.0
 40
3.0
 40
3.0
 40
4.0
 40
4.0
 40
4.0
 40
4.0
 10
115.5874321542629
 20
-118.8041178088406
 10
115.5874321542629
 20
-118.9477782905756
 10
115.6742485604912
 20
-119.1003960205721
 10
115.8771646845724
 20
-119.1003960205721
 10
116.0824923754933
 20
-119.1003960205721
 10
116.1837781827596
 20
-118.9732719971664
 10
116.1837781827596
 20
-118.8041178088406
 10
116.1837781827596
 20
-118.6180826526372
 10
116.0611327834847
 20
-118.5078395971092
 10
115.8833658564458
 20
-118.5078395971092
 10
115.6615017071957
 20
-118.5078395971092
 10
115.5874321542629
 20
-118.6707926135615
 10
115.5874321542629
 20
-118.8041178088406
 97
        0
 97
        0
 75
     2
 76
     1
 98
        0
  0
ENDBLK
  5
83
330
80
100
AcDbEntity
  8
0
100
AcDbBlockEnd
  0
BLOCK
  5
8C
330
8A
100
AcDbEntity
  8
0
100
AcDbBlockBegin
  2
block 5
 70
     0
 10
0.0
 20
0.0
 30
0.0
  3
block 5
  1

  0
SPLINE
  5
8E
330
8A
100
AcDbEntity
  8
_U+30EC_U+30A4_U+30E4_U+30FC 1
370
     0
100
AcDbSpline
210
0.0
220
0.0
230
1.0
 70
    11
 71
     3
 72
    26
 73
    22
 74
     0
 42
0.0000000001
 43
0.0000000001
 12
1.0
 22
0.0
 32
0.0
 13
1.0
 23
0.0
 33
0.0
 40
0.0
 40
0.0
 40
0.0
 40
0.0
 40
1.0
 40
1.0
 40
1.0
 40
2.0
 40
2.0
 40
2.0
 40
3.0
 40
3.0
 40
3.0
 40
4.0
 40
4.0
 40
4.0
 40
5.0
 40
5.0
 40
5.0
 40
6.0
 40
6.0
 40
6.0
 40
7.0
 40
7.0
 40
7.0
 40
7.0
 10
116.3277831740431
 20
-149.1209580790392
 30
0.0
 10
116.3277831740431
 20
-149.1209580790392
 30
0.0
 10
115.2236300710205
 20
-149.1209580790392
 30
0.0
 10
115.2236300710205
 20
-149.1209580790392
 30
0.0
 10
115.2236300710205
 20
-149.1209580790392
 30
0.0
 10
115.2236300710205
 20
-149.4509982265261
 30
0.0
 10
115.2236300710205
 20
-149.4509982265261
 30
0.0
 10
115.2236300710205
 20
-149.4509982265261
 30
0.0
 10
115.0754909651547
 20
-149.4509982265261
 30
0.0
 10
115.0754909651547
 20
-149.4509982265261
 30
0.0
 10
115.0606770545682
 20
-149.1188910217481
 30
0.0
 10
114.8977240381159
 20
-149.0723822326972
 30
0.0
 10
114.7833468680056
 20
-149.042754411524
 30
0.0
 10
114.7833468680056
 20
-149.042754411524
 30
0.0
 10
114.7833468680056
 20
-148.8966823629494
 30
0.0
 10
114.7833468680056
 20
-148.8966823629494
 30
0.0
 10
114.7833468680056
 20
-148.8966823629494
 30
0.0
 10
116.3277831740431
 20
-148.8966823629494
 30
0.0
 10
116.3277831740431
 20
-148.8966823629494
 30
0.0
 10
116.3277831740431
 20
-148.8966823629494
 30
0.0
 10
116.3277831740431
 20
-149.1209580790392
 30
0.0
 10
116.3277831740431
 20
-149.1209580790392
 30
0.0
  0
HATCH
  5
8F
330
8A
100
AcDbEntity
  8
_U+30EC_U+30A4_U+30E4_U+30FC 1
 62
     7
420
 16777215
100
AcDbHatch
 10
0.0
 20
0.0
 30
0.0
210
0.0
220
0.0
230
1.0
  2
SOLID
 70
     1
 71
     0
 91
        1
 92
        1
 93
        1
 72
     4
 94
        3
 73
     0
 74
     1
 95
       26
 96
       22
 40
0.0
 40
0.0
 40
0.0
 40
0.0
 40
1.0
 40
1.0
 40
1.0
 40
2.0
 40
2.0
 40
2.0
 40
3.0
 40
3.0
 40
3.0
 40
4.0
 40
4.0
 40
4.0
 40
5.0
 40
5.0
 40
5.0
 40
6.0
 40
6.0
 40
6.0
 40
7.0
 40
7.0
 40
7.0
 40
7.0
 10
116.3277831740431
 20
-149.1209580790392
 10
116.3277831740431
 20
-149.1209580790392
 10
115.2236300710205
 20
-149.1209580790392
 10
115.2236300710205
 20
-149.1209580790392
 10
115.2236300710205
 20
-149.1209580790392
 10
115.2236300710205
 20
-149.4509982265261
 10
115.2236300710205
 20
-149.4509982265261
 10
115.2236300710205
 20
-149.4509982265261
 10
115.0754909651547
 20
-149.4509982265261
 10
115.0754909651547
 20
-149.4509982265261
 10
115.0606770545682
 20
-149.1188910217481
 10
114.8977240381159
 20
-149.0723822326972
 10
114.7833468680056
 20
-149.042754411524
 10
114.7833468680056
 20
-149.042754411524
 10
114.7833468680056
 20
-148.8966823629494
 10
114.7833468680056
 20
-148.8966823629494
 10
114.7833468680056
 20
-148.8966823629494
 10
116.3277831740431
 20
-148.8966823629494
 10
116.3277831740431
 20
-148.8966823629494
 10
116.3277831740431
 20
-148.8966823629494
 10
116.3277831740431
 20
-149.1209580790392
 10
116.3277831740431
 20
-149.1209580790392
 97
        0
 97
        0
 75
     2
 76
     1
 98
        0
  0
POLYLINE
  5
90
330
8A
100
AcDbEntity
  8
_U+30EC_U+30A4_U+30E4_U+30FC 1
370
     0
100
AcDb2dPolyline
 66
     1
 10
0.0
 20
0.0
 30
0.0
  0
VERTEX
  5
91
330
90
100
AcDbEntity
  8
_U+30EC_U+30A4_U+30E4_U+30FC 1
370
     0
100
AcDbVertex
100
AcDb2dVertex
 10
116.3277831740431
 20
-148.3354763084022
 30
0.0
  0
VERTEX
  5
92
330
90
100
AcDbEntity
  8
_U+30EC_U+30A4_U+30E4_U+30FC 1
370
     0
100
AcDbVertex
100
AcDb2dVertex
 10
116.0759466940713
 20
-148.3354763084022
 30
0.0
  0
VERTEX
  5
93
330
90
100
AcDbEntity
  8
_U+30EC_U+30A4_U+30E4_U+30FC 1
370
     0
100
AcDbVertex
100
AcDb2dVertex
 10
116.0759466940713
 20
-148.0836398284305
 30
0.0
  0
VERTEX
  5
94
330
90
100
AcDbEntity
  8
_U+30EC_U+30A4_U+30E4_U+30FC 1
370
     0
100
AcDbVertex
100
AcDb2dVertex
 10
116.3277831740431
 20
-148.0836398284305
 30
0.0
  0
VERTEX
  5
95
330
90
100
AcDbEntity
  8
_U+30EC_U+30A4_U+30E4_U+30FC 1
370
     0
100
AcDbVertex
100
AcDb2dVertex
 10
116.3277831740431
 20
-148.3354763084022
 30
0.0
  0
SEQEND
  5
96
330
90
100
AcDbEntity
  8
_U+30EC_U+30A4_U+30E4_U+30FC 1
370
     0
  0
HATCH
  5
97
330
8A
100
AcDbEntity
  8
_U+30EC_U+30A4_U+30E4_U+30FC 1
 62
     7
420
 16777215
100
AcDbHatch
 10
0.0
 20
0.0
 30
0.0
210
0.0
220
0.0
230
1.0
  2
SOLID
 70
     1
 71
     0
 91
        1
 92
        1
 93
        4
 72
     1
 10
116.3277831740431
 20
-148.3354763084022
 11
116.0759466940713
 21
-148.3354763084022
 72
     1
 10
116.0759466940713
 20
-148.3354763084022
 11
116.0759466940713
 21
-148.0836398284305
 72
     1
 10
116.0759466940713
 20
-148.0836398284305
 11
116.3277831740431
 21
-148.0836398284305
 72
     1
 10
116.3277831740431
 20
-148.0836398284305
 11
116.3277831740431
 21
-148.3354763084022
 97
        0
 75
     2
 76
     1
 98
        0
  0
SPLINE
  5
98
330
8A
100
AcDbEntity
  8
_U+30EC_U+30A4_U+30E4_U+30FC 1
370
     0
100
AcDbSpline
210
0.0
220
0.0
230
1.0
 70
    11
 71
     3
 72
    53
 73
    49
 74
     0
 42
0.0000000001
 43
0.0000000001
 12
1.0
 22
0.0
 32
0.0
 13
1.0
 23
0.0
 33
0.0
 40
0.0
 40
0.0
 40
0.0
 40
0.0
 40
1.0
 40
1.0
 40
1.0
 40
2.0
 40
2.0
 40
2.0
 40
3.0
 40
3.0
 40
3.0
 40
4.0
 40
4.0
 40
4.0
 40
5.0
 40
5.0
 40
5.0
 40
6.0
 40
6.0
 40
6.0
 40
7.0
 40
7.0
 40
7.0
 40
8.0
 40
8.0
 40
8.0
 40
9.0
 40
9.0
 40
9.0
 40
10.0
 40
10.0
 40
10.0
 40
11.0
 40
11.0
 40
11.0
 40
12.0
 40
12.0
 40
12.0
 40
13.0
 40
13.0
 40
13.0
 40
14.0
 40
14.0
 40
14.0
 40
15.0
 40
15.0
 40
15.0
 40
16.0
 40
16.0
 40
16.0
 40
16.0
 10
116.3784260776762
 20
-147.3663709484015
 30
0.0
 10
116.3784260776762
 20
-147.4445746159167
 30
0.0
 10
116.3615451097985
 20
-147.5462049327315
 30
0.0
 10
116.2981553528699
 20
-147.6478352495464
 30
0.0
 10
116.1882568068904
 20
-147.8211235524545
 30
0.0
 10
116.0569986689024
 20
-147.842483144463
 30
0.0
 10
115.9491671802141
 20
-147.8614311696319
 30
0.0
 10
115.9491671802141
 20
-147.8614311696319
 30
0.0
 10
115.9491671802141
 20
-147.6392225108333
 30
0.0
 10
115.9491671802141
 20
-147.6392225108333
 30
0.0
 10
116.147949189713
 20
-147.5844454926178
 30
0.0
 10
116.1775770108862
 20
-147.4573214692121
 30
0.0
 10
116.1775770108862
 20
-147.3643038911103
 30
0.0
 10
116.1775770108862
 20
-147.2247775239577
 30
0.0
 10
116.0780137513624
 20
-147.0725043035096
 30
0.0
 10
115.8454698061081
 20
-147.0725043035096
 30
0.0
 10
115.589499211554
 20
-147.0725043035096
 30
0.0
 10
115.5195637732034
 20
-147.2523382878397
 30
0.0
 10
115.5195637732034
 20
-147.3729166298234
 30
0.0
 10
115.5195637732034
 20
-147.4046115082877
 30
0.0
 10
115.5195637732034
 20
-147.5462049327315
 30
0.0
 10
115.6487548539003
 20
-147.6350883962509
 30
0.0
 10
115.6487548539003
 20
-147.6350883962509
 30
0.0
 10
115.6298068287314
 20
-147.8107882659987
 30
0.0
 10
115.6298068287314
 20
-147.8107882659987
 30
0.0
 10
115.6298068287314
 20
-147.8107882659987
 30
0.0
 10
114.7833468680056
 20
-147.690209924015
 30
0.0
 10
114.7833468680056
 20
-147.690209924015
 30
0.0
 10
114.7833468680056
 20
-147.690209924015
 30
0.0
 10
114.7833468680056
 20
-146.9116183443485
 30
0.0
 10
114.7833468680056
 20
-146.9116183443485
 30
0.0
 10
114.7833468680056
 20
-146.9116183443485
 30
0.0
 10
114.9779947629222
 20
-146.9116183443485
 30
0.0
 10
114.9779947629222
 20
-146.9116183443485
 30
0.0
 10
114.9779947629222
 20
-146.9116183443485
 30
0.0
 10
114.9779947629222
 20
-147.5272569075626
 30
0.0
 10
114.9779947629222
 20
-147.5272569075626
 30
0.0
 10
114.9779947629222
 20
-147.5272569075626
 30
0.0
 10
115.4010524885109
 20
-147.5927137217824
 30
0.0
 10
115.4010524885109
 20
-147.5927137217824
 30
0.0
 10
115.3672905527554
 20
-147.5313910221449
 30
0.0
 10
115.326982935578
 20
-147.4490532400475
 30
0.0
 10
115.326982935578
 20
-147.3305419553549
 30
0.0
 10
115.326982935578
 20
-147.076638418092
 30
0.0
 10
115.51336260133
 20
-146.8396158487068
 30
0.0
 10
115.8265217809392
 20
-146.8396158487068
 30
0.0
 10
116.1438150751307
 20
-146.8396158487068
 30
0.0
 10
116.3784260776762
 20
-147.0638915647965
 30
0.0
 10
116.3784260776762
 20
-147.3663709484015
 30
0.0
  0
HATCH
  5
99
330
8A
100
AcDbEntity
  8
_U+30EC_U+30A4_U+30E4_U+30FC 1
 62
     7
420
 16777215
100
AcDbHatch
 10
0.0
 20
0.0
 30
0.0
210
0.0
220
0.0
230
1.0
  2
SOLID
 70
     1
 71
     0
 91
        1
 92
        1
 93
        1
 72
     4
 94
        3
 73
     0
 74
     1
 95
       53
 96
       49
 40
0.0
 40
0.0
 40
0.0
 40
0.0
 40
1.0
 40
1.0
 40
1.0
 40
2.0
 40
2.0
 40
2.0
 40
3.0
 40
3.0
 40
3.0
 40
4.0
 40
4.0
 40
4.0
 40
5.0
 40
5.0
 40
5.0
 40
6.0
 40
6.0
 40
6.0
 40
7.0
 40
7.0
 40
7.0
 40
8.0
 40
8.0
 40
8.0
 40
9.0
 40
9.0
 40
9.0
 40
10.0
 40
10.0
 40
10.0
 40
11.0
 40
11.0
 40
11.0
 40
12.0
 40
12.0
 40
12.0
 40
13.0
 40
13.0
 40
13.0
 40
14.0
 40
14.0
 40
14.0
 40
15.0
 40
15.0
 40
15.0
 40
16.0
 40
16.0
 40
16.0
 40
16.0
 10
116.3784260776762
 20
-147.3663709484015
 10
116.3784260776762
 20
-147.4445746159167
 10
116.3615451097985
 20
-147.5462049327315
 10
116.2981553528699
 20
-147.6478352495464
 10
116.1882568068904
 20
-147.8211235524545
 10
116.0569986689024
 20
-147.842483144463
 10
115.9491671802141
 20
-147.8614311696319
 10
115.9491671802141
 20
-147.8614311696319
 10
115.9491671802141
 20
-147.6392225108333
 10
115.9491671802141
 20
-147.6392225108333
 10
116.147949189713
 20
-147.5844454926178
 10
116.1775770108862
 20
-147.4573214692121
 10
116.1775770108862
 20
-147.3643038911103
 10
116.1775770108862
 20
-147.2247775239577
 10
116.0780137513624
 20
-147.0725043035096
 10
115.8454698061081
 20
-147.0725043035096
 10
115.589499211554
 20
-147.0725043035096
 10
115.5195637732034
 20
-147.2523382878397
 10
115.5195637732034
 20
-147.3729166298234
 10
115.5195637732034
 20
-147.4046115082877
 10
115.5195637732034
 20
-147.5462049327315
 10
115.6487548539003
 20
-147.6350883962509
 10
115.6487548539003
 20
-147.6350883962509
 10
115.6298068287314
 20
-147.8107882659987
 10
115.6298068287314
 20
-147.8107882659987
 10
115.6298068287314
 20
-147.8107882659987
 10
114.7833468680056
 20
-147.690209924015
 10
114.7833468680056
 20
-147.690209924015
 10
114.7833468680056
 20
-147.690209924015
 10
114.7833468680056
 20
-146.9116183443485
 10
114.7833468680056
 20
-146.9116183443485
 10
114.7833468680056
 20
-146.9116183443485
 10
114.9779947629222
 20
-146.9116183443485
 10
114.9779947629222
 20
-146.9116183443485
 10
114.9779947629222
 20
-146.9116183443485
 10
114.9779947629222
 20
-147.5272569075626
 10
114.9779947629222
 20
-147.5272569075626
 10
114.9779947629222
 20
-147.5272569075626
 10
115.4010524885109
 20
-147.5927137217824
 10
115.4010524885109
 20
-147.5927137217824
 10
115.3672905527554
 20
-147.5313910221449
 10
115.326982935578
 20
-147.4490532400475
 10
115.326982935578
 20
-147.3305419553549
 10
115.326982935578
 20
-147.076638418092
 10
115.51336260133
 20
-146.8396158487068
 10
115.8265217809392
 20
-146.8396158487068
 10
116.1438150751307
 20
-146.8396158487068
 10
116.3784260776762
 20
-147.0638915647965
 10
116.3784260776762
 20
-147.3663709484015
 97
        0
 97
        0
 75
     2
 76
     1
 98
        0
  0
ENDBLK
  5
8D
330
8A
100
AcDbEntity
  8
0
100
AcDbBlockEnd
  0
BLOCK
  5
A1
330
9F
100
AcDbEntity
  8
0
100
AcDbBlockBegin
  2
block 6
 70
     0
 10
0.0
 20
0.0
 30
0.0
  3
block 6
  1

  0
SPLINE
  5
A3
330
9F
100
AcDbEntity
  8
_U+30EC_U+30A4_U+30E4_U+30FC 1
370
     0
100
AcDbSpline
210
0.0
220
0.0
230
1.0
 70
    11
 71
     3
 72
    26
 73
    22
 74
     0
 42
0.0000000001
 43
0.0000000001
 12
1.0
 22
0.0
 32
0.0
 13
1.0
 23
0.0
 33
0.0
 40
0.0
 40
0.0
 40
0.0
 40
0.0
 40
1.0
 40
1.0
 40
1.0
 40
2.0
 40
2.0
 40
2.0
 40
3.0
 40
3.0
 40
3.0
 40
4.0
 40
4.0
 40
4.0
 40
5.0
 40
5.0
 40
5.0
 40
6.0
 40
6.0
 40
6.0
 40
7.0
 40
7.0
 40
7.0
 40
7.0
 10
78.06414114801869
 20
-149.2952799105929
 30
0.0
 10
78.06414114801869
 20
-149.2952799105929
 30
0.0
 10
78.06414114801869
 20
-148.1911268075703
 30
0.0
 10
78.06414114801869
 20
-148.1911268075703
 30
0.0
 10
78.06414114801869
 20
-148.1911268075703
 30
0.0
 10
77.73410100053175
 20
-148.1911268075703
 30
0.0
 10
77.73410100053175
 20
-148.1911268075703
 30
0.0
 10
77.73410100053175
 20
-148.1911268075703
 30
0.0
 10
77.73410100053175
 20
-148.0429877017045
 30
0.0
 10
77.73410100053175
 20
-148.0429877017045
 30
0.0
 10
78.06620820530983
 20
-148.028173791118
 30
0.0
 10
78.11271699436071
 20
-147.8652207746657
 30
0.0
 10
78.14234481553386
 20
-147.7508436045553
 30
0.0
 10
78.14234481553386
 20
-147.7508436045553
 30
0.0
 10
78.28841686410846
 20
-147.7508436045553
 30
0.0
 10
78.28841686410846
 20
-147.7508436045553
 30
0.0
 10
78.28841686410846
 20
-147.7508436045553
 30
0.0
 10
78.28841686410846
 20
-149.2952799105929
 30
0.0
 10
78.28841686410846
 20
-149.2952799105929
 30
0.0
 10
78.28841686410846
 20
-149.2952799105929
 30
0.0
 10
78.06414114801869
 20
-149.2952799105929
 30
0.0
 10
78.06414114801869
 20
-149.2952799105929
 30
0.0
  0
HATCH
  5
A4
330
9F
100
AcDbEntity
  8
_U+30EC_U+30A4_U+30E4_U+30FC 1
 62
     7
420
 16777215
100
AcDbHatch
 10
0.0
 20
0.0
 30
0.0
210
0.0
220
0.0
230
1.0
  2
SOLID
 70
     1
 71
     0
 91
        1
 92
        1
 93
        1
 72
     4
 94
        3
 73
     0
 74
     1
 95
       26
 96
       22
 40
0.0
 40
0.0
 40
0.0
 40
0.0
 40
1.0
 40
1.0
 40
1.0
 40
2.0
 40
2.0
 40
2.0
 40
3.0
 40
3.0
 40
3.0
 40
4.0
 40
4.0
 40
4.0
 40
5.0
 40
5.0
 40
5.0
 40
6.0
 40
6.0
 40
6.0
 40
7.0
 40
7.0
 40
7.0
 40
7.0
 10
78.06414114801869
 20
-149.2952799105929
 10
78.06414114801869
 20
-149.2952799105929
 10
78.06414114801869
 20
-148.1911268075703
 10
78.06414114801869
 20
-148.1911268075703
 10
78.06414114801869
 20
-148.1911268075703
 10
77.73410100053175
 20
-148.1911268075703
 10
77.73410100053175
 20
-148.1911268075703
 10
77.73410100053175
 20
-148.1911268075703
 10
77.73410100053175
 20
-148.0429877017045
 10
77.73410100053175
 20
-148.0429877017045
 10
78.06620820530983
 20
-148.028173791118
 10
78.11271699436071
 20
-147.8652207746657
 10
78.14234481553386
 20
-147.7508436045553
 10
78.14234481553386
 20
-147.7508436045553
 10
78.28841686410846
 20
-147.7508436045553
 10
78.28841686410846
 20
-147.7508436045553
 10
78.28841686410846
 20
-147.7508436045553
 10
78.28841686410846
 20
-149.2952799105929
 10
78.28841686410846
 20
-149.2952799105929
 10
78.28841686410846
 20
-149.2952799105929
 10
78.06414114801869
 20
-149.2952799105929
 10
78.06414114801869
 20
-149.2952799105929
 97
        0
 97
        0
 75
     2
 76
     1
 98
        0
  0
SPLINE
  5
A5
330
9F
100
AcDbEntity
  8
_U+30EC_U+30A4_U+30E4_U+30FC 1
370
     0
100
AcDbSpline
210
0.0
220
0.0
230
1.0
 70
    11
 71
     3
 72
    53
 73
    49
 74
     0
 42
0.0000000001
 43
0.0000000001
 12
1.0
 22
0.0
 32
0.0
 13
1.0
 23
0.0
 33
0.0
 40
0.0
 40
0.0
 40
0.0
 40
0.0
 40
1.0
 40
1.0
 40
1.0
 40
2.0
 40
2.0
 40
2.0
 40
3.0
 40
3.0
 40
3.0
 40
4.0
 40
4.0
 40
4.0
 40
5.0
 40
5.0
 40
5.0
 40
6.0
 40
6.0
 40
6.0
 40
7.0
 40
7.0
 40
7.0
 40
8.0
 40
8.0
 40
8.0
 40
9.0
 40
9.0
 40
9.0
 40
10.0
 40
10.0
 40
10.0
 40
11.0
 40
11.0
 40
11.0
 40
12.0
 40
12.0
 40
12.0
 40
13.0
 40
13.0
 40
13.0
 40
14.0
 40
14.0
 40
14.0
 40
15.0
 40
15.0
 40
15.0
 40
16.0
 40
16.0
 40
16.0
 40
16.0
 10
79.27061358695319
 20
-149.345922814226
 30
0.0
 10
79.192409919438
 20
-149.345922814226
 30
0.0
 10
79.09077960262314
 20
-149.3290418463483
 30
0.0
 10
78.98914928580827
 20
-149.2656520894197
 30
0.0
 10
78.8158609829002
 20
-149.1557535434402
 30
0.0
 10
78.79450139089165
 20
-149.0244954054522
 30
0.0
 10
78.77555336572279
 20
-148.9166639167639
 30
0.0
 10
78.77555336572279
 20
-148.9166639167639
 30
0.0
 10
78.99776202452139
 20
-148.9166639167639
 30
0.0
 10
78.99776202452139
 20
-148.9166639167639
 30
0.0
 10
79.05253904273687
 20
-149.1154459262628
 30
0.0
 10
79.17966306614258
 20
-149.145073747436
 30
0.0
 10
79.27268064424433
 20
-149.145073747436
 30
0.0
 10
79.41220701139696
 20
-149.145073747436
 30
0.0
 10
79.564480231845
 20
-149.0455104879123
 30
0.0
 10
79.564480231845
 20
-148.8129665426579
 30
0.0
 10
79.564480231845
 20
-148.5569959481038
 30
0.0
 10
79.38464624751495
 20
-148.4870605097532
 30
0.0
 10
79.2640679055312
 20
-148.4870605097532
 30
0.0
 10
79.23237302706691
 20
-148.4870605097532
 30
0.0
 10
79.09077960262314
 20
-148.4870605097532
 30
0.0
 10
79.00189613910369
 20
-148.6162515904501
 30
0.0
 10
79.00189613910369
 20
-148.6162515904501
 30
0.0
 10
78.82619626935596
 20
-148.5973035652812
 30
0.0
 10
78.82619626935596
 20
-148.5973035652812
 30
0.0
 10
78.82619626935596
 20
-148.5973035652812
 30
0.0
 10
78.9467746113397
 20
-147.7508436045553
 30
0.0
 10
78.9467746113397
 20
-147.7508436045553
 30
0.0
 10
78.9467746113397
 20
-147.7508436045553
 30
0.0
 10
79.72536619100616
 20
-147.7508436045553
 30
0.0
 10
79.72536619100616
 20
-147.7508436045553
 30
0.0
 10
79.72536619100616
 20
-147.7508436045553
 30
0.0
 10
79.72536619100616
 20
-147.945491499472
 30
0.0
 10
79.72536619100616
 20
-147.945491499472
 30
0.0
 10
79.72536619100616
 20
-147.945491499472
 30
0.0
 10
79.10972762779201
 20
-147.945491499472
 30
0.0
 10
79.10972762779201
 20
-147.945491499472
 30
0.0
 10
79.10972762779201
 20
-147.945491499472
 30
0.0
 10
79.04427081357227
 20
-148.3685492250607
 30
0.0
 10
79.04427081357227
 20
-148.3685492250607
 30
0.0
 10
79.10559351320971
 20
-148.3347872893052
 30
0.0
 10
79.1879312953072
 20
-148.2944796721278
 30
0.0
 10
79.30644257999978
 20
-148.2944796721278
 30
0.0
 10
79.5603461172627
 20
-148.2944796721278
 30
0.0
 10
79.79736868664789
 20
-148.4808593378798
 30
0.0
 10
79.79736868664789
 20
-148.794018517489
 30
0.0
 10
79.79736868664789
 20
-149.1113118116805
 30
0.0
 10
79.57309297055812
 20
-149.345922814226
 30
0.0
 10
79.27061358695319
 20
-149.345922814226
 30
0.0
  0
HATCH
  5
A6
330
9F
100
AcDbEntity
  8
_U+30EC_U+30A4_U+30E4_U+30FC 1
 62
     7
420
 16777215
100
AcDbHatch
 10
0.0
 20
0.0
 30
0.0
210
0.0
220
0.0
230
1.0
  2
SOLID
 70
     1
 71
     0
 91
        1
 92
        1
 93
        1
 72
     4
 94
        3
 73
     0
 74
     1
 95
       53
 96
       49
 40
0.0
 40
0.0
 40
0.0
 40
0.0
 40
1.0
 40
1.0
 40
1.0
 40
2.0
 40
2.0
 40
2.0
 40
3.0
 40
3.0
 40
3.0
 40
4.0
 40
4.0
 40
4.0
 40
5.0
 40
5.0
 40
5.0
 40
6.0
 40
6.0
 40
6.0
 40
7.0
 40
7.0
 40
7.0
 40
8.0
 40
8.0
 40
8.0
 40
9.0
 40
9.0
 40
9.0
 40
10.0
 40
10.0
 40
10.0
 40
11.0
 40
11.0
 40
11.0
 40
12.0
 40
12.0
 40
12.0
 40
13.0
 40
13.0
 40
13.0
 40
14.0
 40
14.0
 40
14.0
 40
15.0
 40
15.0
 40
15.0
 40
16.0
 40
16.0
 40
16.0
 40
16.0
 10
79.27061358695319
 20
-149.345922814226
 10
79.192409919438
 20
-149.345922814226
 10
79.09077960262314
 20
-149.3290418463483
 10
78.98914928580827
 20
-149.2656520894197
 10
78.8158609829002
 20
-149.1557535434402
 10
78.79450139089165
 20
-149.0244954054522
 10
78.77555336572279
 20
-148.9166639167639
 10
78.77555336572279
 20
-148.9166639167639
 10
78.99776202452139
 20
-148.9166639167639
 10
78.99776202452139
 20
-148.9166639167639
 10
79.05253904273687
 20
-149.1154459262628
 10
79.17966306614258
 20
-149.145073747436
 10
79.27268064424433
 20
-149.145073747436
 10
79.41220701139696
 20
-149.145073747436
 10
79.564480231845
 20
-149.0455104879123
 10
79.564480231845
 20
-148.8129665426579
 10
79.564480231845
 20
-148.5569959481038
 10
79.38464624751495
 20
-148.4870605097532
 10
79.2640679055312
 20
-148.4870605097532
 10
79.23237302706691
 20
-148.4870605097532
 10
79.09077960262314
 20
-148.4870605097532
 10
79.00189613910369
 20
-148.6162515904501
 10
79.00189613910369
 20
-148.6162515904501
 10
78.82619626935596
 20
-148.5973035652812
 10
78.82619626935596
 20
-148.5973035652812
 10
78.82619626935596
 20
-148.5973035652812
 10
78.9467746113397
 20
-147.7508436045553
 10
78.9467746113397
 20
-147.7508436045553
 10
78.9467746113397
 20
-147.7508436045553
 10
79.72536619100616
 20
-147.7508436045553
 10
79.72536619100616
 20
-147.7508436045553
 10
79.72536619100616
 20
-147.7508436045553
 10
79.72536619100616
 20
-147.945491499472
 10
79.72536619100616
 20
-147.945491499472
 10
79.72536619100616
 20
-147.945491499472
 10
79.10972762779201
 20
-147.945491499472
 10
79.10972762779201
 20
-147.945491499472
 10
79.10972762779201
 20
-147.945491499472
 10
79.04427081357227
 20
-148.3685492250607
 10
79.04427081357227
 20
-148.3685492250607
 10
79.10559351320971
 20
-148.3347872893052
 10
79.1879312953072
 20
-148.2944796721278
 10
79.30644257999978
 20
-148.2944796721278
 10
79.5603461172627
 20
-148.2944796721278
 10
79.79736868664789
 20
-148.4808593378798
 10
79.79736868664789
 20
-148.794018517489
 10
79.79736868664789
 20
-149.1113118116805
 10
79.57309297055812
 20
-149.345922814226
 10
79.27061358695319
 20
-149.345922814226
 97
        0
 97
        0
 75
     2
 76
     1
 98
        0
  0
ENDBLK
  5
A2
330
9F
100
AcDbEntity
  8
0
100
AcDbBlockEnd
  0
BLOCK
  5
A9
330
A7
100
AcDbEntity
  8
0
100
AcDbBlockBegin
  2
block 7
 70
     0
 10
0.0
 20
0.0
 30
0.0
  3
block 7
  1

  0
SPLINE
  5
AB
330
A7
100
AcDbEntity
  8
_U+30EC_U+30A4_U+30E4_U+30FC 1
370
     0
100
AcDbSpline
210
0.0
220
0.0
230
1.0
 70
    11
 71
     3
 72
    26
 73
    22
 74
     0
 42
0.0000000001
 43
0.0000000001
 12
1.0
 22
0.0
 32
0.0
 13
1.0
 23
0.0
 33
0.0
 40
0.0
 40
0.0
 40
0.0
 40
0.0
 40
1.0
 40
1.0
 40
1.0
 40
2.0
 40
2.0
 40
2.0
 40
3.0
 40
3.0
 40
3.0
 40
4.0
 40
4.0
 40
4.0
 40
5.0
 40
5.0
 40
5.0
 40
6.0
 40
6.0
 40
6.0
 40
7.0
 40
7.0
 40
7.0
 40
7.0
 10
90.46493460194974
 20
-149.2952799105929
 30
0.0
 10
90.46493460194974
 20
-149.2952799105929
 30
0.0
 10
90.46493460194974
 20
-148.1911268075703
 30
0.0
 10
90.46493460194974
 20
-148.1911268075703
 30
0.0
 10
90.46493460194974
 20
-148.1911268075703
 30
0.0
 10
90.13489445446281
 20
-148.1911268075703
 30
0.0
 10
90.13489445446281
 20
-148.1911268075703
 30
0.0
 10
90.13489445446281
 20
-148.1911268075703
 30
0.0
 10
90.13489445446281
 20
-148.0429877017045
 30
0.0
 10
90.13489445446281
 20
-148.0429877017045
 30
0.0
 10
90.46700165924089
 20
-148.028173791118
 30
0.0
 10
90.51351044829177
 20
-147.8652207746657
 30
0.0
 10
90.54313826946492
 20
-147.7508436045553
 30
0.0
 10
90.54313826946492
 20
-147.7508436045553
 30
0.0
 10
90.68921031803951
 20
-147.7508436045553
 30
0.0
 10
90.68921031803951
 20
-147.7508436045553
 30
0.0
 10
90.68921031803951
 20
-147.7508436045553
 30
0.0
 10
90.68921031803951
 20
-149.2952799105929
 30
0.0
 10
90.68921031803951
 20
-149.2952799105929
 30
0.0
 10
90.68921031803951
 20
-149.2952799105929
 30
0.0
 10
90.46493460194974
 20
-149.2952799105929
 30
0.0
 10
90.46493460194974
 20
-149.2952799105929
 30
0.0
  0
HATCH
  5
AC
330
A7
100
AcDbEntity
  8
_U+30EC_U+30A4_U+30E4_U+30FC 1
 62
     7
420
 16777215
100
AcDbHatch
 10
0.0
 20
0.0
 30
0.0
210
0.0
220
0.0
230
1.0
  2
SOLID
 70
     1
 71
     0
 91
        1
 92
        1
 93
        1
 72
     4
 94
        3
 73
     0
 74
     1
 95
       26
 96
       22
 40
0.0
 40
0.0
 40
0.0
 40
0.0
 40
1.0
 40
1.0
 40
1.0
 40
2.0
 40
2.0
 40
2.0
 40
3.0
 40
3.0
 40
3.0
 40
4.0
 40
4.0
 40
4.0
 40
5.0
 40
5.0
 40
5.0
 40
6.0
 40
6.0
 40
6.0
 40
7.0
 40
7.0
 40
7.0
 40
7.0
 10
90.46493460194974
 20
-149.2952799105929
 10
90.46493460194974
 20
-149.2952799105929
 10
90.46493460194974
 20
-148.1911268075703
 10
90.46493460194974
 20
-148.1911268075703
 10
90.46493460194974
 20
-148.1911268075703
 10
90.13489445446281
 20
-148.1911268075703
 10
90.13489445446281
 20
-148.1911268075703
 10
90.13489445446281
 20
-148.1911268075703
 10
90.13489445446281
 20
-148.0429877017045
 10
90.13489445446281
 20
-148.0429877017045
 10
90.46700165924089
 20
-148.028173791118
 10
90.51351044829177
 20
-147.8652207746657
 10
90.54313826946492
 20
-147.7508436045553
 10
90.54313826946492
 20
-147.7508436045553
 10
90.68921031803951
 20
-147.7508436045553
 10
90.68921031803951
 20
-147.7508436045553
 10
90.68921031803951
 20
-147.7508436045553
 10
90.68921031803951
 20
-149.2952799105929
 10
90.68921031803951
 20
-149.2952799105929
 10
90.68921031803951
 20
-149.2952799105929
 10
90.46493460194974
 20
-149.2952799105929
 10
90.46493460194974
 20
-149.2952799105929
 97
        0
 97
        0
 75
     2
 76
     1
 98
        0
  0
SPLINE
  5
AD
330
A7
100
AcDbEntity
  8
_U+30EC_U+30A4_U+30E4_U+30FC 1
370
     0
100
AcDbSpline
210
0.0
220
0.0
230
1.0
 70
    11
 71
     3
 72
    29
 73
    25
 74
     0
 42
0.0000000001
 43
0.0000000001
 12
1.0
 22
0.0
 32
0.0
 13
1.0
 23
0.0
 33
0.0
 40
0.0
 40
0.0
 40
0.0
 40
0.0
 40
1.0
 40
1.0
 40
1.0
 40
2.0
 40
2.0
 40
2.0
 40
3.0
 40
3.0
 40
3.0
 40
4.0
 40
4.0
 40
4.0
 40
5.0
 40
5.0
 40
5.0
 40
6.0
 40
6.0
 40
6.0
 40
7.0
 40
7.0
 40
7.0
 40
8.0
 40
8.0
 40
8.0
 40
8.0
 10
92.0880913398252
 20
-149.117512983554
 30
0.0
 10
91.97991534158835
 20
-149.3269747890571
 30
0.0
 10
91.80662703868029
 20
-149.345922814226
 30
0.0
 10
91.69018281127885
 20
-149.345922814226
 30
0.0
 10
91.52929685211768
 20
-149.345922814226
 30
0.0
 10
91.38770342767391
 20
-149.2994140251752
 30
0.0
 10
91.29279104705527
 20
-149.117512983554
 30
0.0
 10
91.18909367294926
 20
-148.9228650886373
 30
0.0
 10
91.17014564778039
 20
-148.6858425192522
 30
0.0
 10
91.17014564778039
 20
-148.5232340123484
 30
0.0
 10
91.17014564778039
 20
-148.3792290210649
 30
0.0
 10
91.18702661565811
 20
-148.1273925410932
 30
0.0
 10
91.29279104705527
 20
-147.9286105315942
 30
0.0
 10
91.40045028096934
 20
-147.725694407513
 30
0.0
 10
91.5613362401305
 20
-147.7022677582133
 30
0.0
 10
91.69018281127885
 20
-147.7022677582133
 30
0.0
 10
91.84900171314887
 20
-147.7022677582133
 30
0.0
 10
91.99266219488378
 20
-147.7467094899731
 30
0.0
 10
92.0880913398252
 20
-147.9286105315942
 30
0.0
 10
92.1873100898004
 20
-148.1211913692197
 30
0.0
 10
92.2107367391001
 20
-148.3496011998918
 30
0.0
 10
92.2107367391001
 20
-148.5232340123484
 30
0.0
 10
92.2107367391001
 20
-148.6944552579653
 30
0.0
 10
92.18937714709155
 20
-148.9249321459285
 30
0.0
 10
92.0880913398252
 20
-149.117512983554
 30
0.0
  0
SPLINE
  5
AE
330
A7
100
AcDbEntity
  8
_U+30EC_U+30A4_U+30E4_U+30FC 1
370
     0
100
AcDbSpline
210
0.0
220
0.0
230
1.0
 70
    11
 71
     3
 72
    17
 73
    13
 74
     0
 42
0.0000000001
 43
0.0000000001
 12
1.0
 22
0.0
 32
0.0
 13
1.0
 23
0.0
 33
0.0
 40
0.0
 40
0.0
 40
0.0
 40
0.0
 40
1.0
 40
1.0
 40
1.0
 40
2.0
 40
2.0
 40
2.0
 40
3.0
 40
3.0
 40
3.0
 40
4.0
 40
4.0
 40
4.0
 40
4.0
 10
91.69018281127885
 20
-147.8948485958388
 30
0.0
 10
91.44075789814676
 20
-147.8948485958388
 30
0.0
 10
91.39390459954735
 20
-148.1783799542748
 30
0.0
 10
91.39390459954735
 20
-148.5232340123484
 30
0.0
 10
91.39390459954735
 20
-148.842594363831
 30
0.0
 10
91.43007810214249
 20
-149.1512749193094
 30
0.0
 10
91.69018281127885
 20
-149.1512749193094
 30
0.0
 10
91.93788517666832
 20
-149.1512749193094
 30
0.0
 10
91.98646102301034
 20
-148.870155127713
 30
0.0
 10
91.98646102301034
 20
-148.5232340123484
 30
0.0
 10
91.98646102301034
 20
-148.2035291513172
 30
0.0
 10
91.94822046312406
 20
-147.8948485958388
 30
0.0
 10
91.69018281127885
 20
-147.8948485958388
 30
0.0
  0
HATCH
  5
AF
330
A7
100
AcDbEntity
  8
_U+30EC_U+30A4_U+30E4_U+30FC 1
 62
     7
420
 16777215
100
AcDbHatch
 10
0.0
 20
0.0
 30
0.0
210
0.0
220
0.0
230
1.0
  2
SOLID
 70
     1
 71
     0
 91
        2
 92
        1
 93
        1
 72
     4
 94
        3
 73
     0
 74
     1
 95
       29
 96
       25
 40
0.0
 40
0.0
 40
0.0
 40
0.0
 40
1.0
 40
1.0
 40
1.0
 40
2.0
 40
2.0
 40
2.0
 40
3.0
 40
3.0
 40
3.0
 40
4.0
 40
4.0
 40
4.0
 40
5.0
 40
5.0
 40
5.0
 40
6.0
 40
6.0
 40
6.0
 40
7.0
 40
7.0
 40
7.0
 40
8.0
 40
8.0
 40
8.0
 40
8.0
 10
92.0880913398252
 20
-149.117512983554
 10
91.97991534158835
 20
-149.3269747890571
 10
91.80662703868029
 20
-149.345922814226
 10
91.69018281127885
 20
-149.345922814226
 10
91.52929685211768
 20
-149.345922814226
 10
91.38770342767391
 20
-149.2994140251752
 10
91.29279104705527
 20
-149.117512983554
 10
91.18909367294926
 20
-148.9228650886373
 10
91.17014564778039
 20
-148.6858425192522
 10
91.17014564778039
 20
-148.5232340123484
 10
91.17014564778039
 20
-148.3792290210649
 10
91.18702661565811
 20
-148.1273925410932
 10
91.29279104705527
 20
-147.9286105315942
 10
91.40045028096934
 20
-147.725694407513
 10
91.5613362401305
 20
-147.7022677582133
 10
91.69018281127885
 20
-147.7022677582133
 10
91.84900171314887
 20
-147.7022677582133
 10
91.99266219488378
 20
-147.7467094899731
 10
92.0880913398252
 20
-147.9286105315942
 10
92.1873100898004
 20
-148.1211913692197
 10
92.2107367391001
 20
-148.3496011998918
 10
92.2107367391001
 20
-148.5232340123484
 10
92.2107367391001
 20
-148.6944552579653
 10
92.18937714709155
 20
-148.9249321459285
 10
92.0880913398252
 20
-149.117512983554
 97
        0
 97
        0
 92
        1
 93
        1
 72
     4
 94
        3
 73
     0
 74
     1
 95
       17
 96
       13
 40
0.0
 40
0.0
 40
0.0
 40
0.0
 40
1.0
 40
1.0
 40
1.0
 40
2.0
 40
2.0
 40
2.0
 40
3.0
 40
3.0
 40
3.0
 40
4.0
 40
4.0
 40
4.0
 40
4.0
 10
91.69018281127885
 20
-147.8948485958388
 10
91.44075789814676
 20
-147.8948485958388
 10
91.39390459954735
 20
-148.1783799542748
 10
91.39390459954735
 20
-148.5232340123484
 10
91.39390459954735
 20
-148.842594363831
 10
91.43007810214249
 20
-149.1512749193094
 10
91.69018281127885
 20
-149.1512749193094
 10
91.93788517666832
 20
-149.1512749193094
 10
91.98646102301034
 20
-148.870155127713
 10
91.98646102301034
 20
-148.5232340123484
 10
91.98646102301034
 20
-148.2035291513172
 10
91.94822046312406
 20
-147.8948485958388
 10
91.69018281127885
 20
-147.8948485958388
 97
        0
 97
        0
 75
     2
 76
     1
 98
        0
  0
ENDBLK
  5
AA
330
A7
100
AcDbEntity
  8
0
100
AcDbBlockEnd
  0
BLOCK
  5
B2
330
B0
100
AcDbEntity
  8
0
100
AcDbBlockBegin
  2
block 8
 70
     0
 10
0.0
 20
0.0
 30
0.0
  3
block 8
  1

  0
SPLINE
  5
B4
330
B0
100
AcDbEntity
  8
_U+30EC_U+30A4_U+30E4_U+30FC 1
370
     0
100
AcDbSpline
210
0.0
220
0.0
230
1.0
 70
    11
 71
     3
 72
    26
 73
    22
 74
     0
 42
0.0000000001
 43
0.0000000001
 12
1.0
 22
0.0
 32
0.0
 13
1.0
 23
0.0
 33
0.0
 40
0.0
 40
0.0
 40
0.0
 40
0.0
 40
1.0
 40
1.0
 40
1.0
 40
2.0
 40
2.0
 40
2.0
 40
3.0
 40
3.0
 40
3.0
 40
4.0
 40
4.0
 40
4.0
 40
5.0
 40
5.0
 40
5.0
 40
6.0
 40
6.0
 40
6.0
 40
7.0
 40
7.0
 40
7.0
 40
7.0
 10
98.74711640326461
 20
-149.2952799105929
 30
0.0
 10
98.74711640326461
 20
-149.2952799105929
 30
0.0
 10
98.74711640326461
 20
-148.1911268075703
 30
0.0
 10
98.74711640326461
 20
-148.1911268075703
 30
0.0
 10
98.74711640326461
 20
-148.1911268075703
 30
0.0
 10
98.41707625577769
 20
-148.1911268075703
 30
0.0
 10
98.41707625577769
 20
-148.1911268075703
 30
0.0
 10
98.41707625577769
 20
-148.1911268075703
 30
0.0
 10
98.41707625577769
 20
-148.0429877017045
 30
0.0
 10
98.41707625577769
 20
-148.0429877017045
 30
0.0
 10
98.74918346055577
 20
-148.028173791118
 30
0.0
 10
98.79569224960663
 20
-147.8652207746657
 30
0.0
 10
98.82532007077978
 20
-147.7508436045553
 30
0.0
 10
98.82532007077978
 20
-147.7508436045553
 30
0.0
 10
98.97139211935438
 20
-147.7508436045553
 30
0.0
 10
98.97139211935438
 20
-147.7508436045553
 30
0.0
 10
98.97139211935438
 20
-147.7508436045553
 30
0.0
 10
98.97139211935438
 20
-149.2952799105929
 30
0.0
 10
98.97139211935438
 20
-149.2952799105929
 30
0.0
 10
98.97139211935438
 20
-149.2952799105929
 30
0.0
 10
98.74711640326461
 20
-149.2952799105929
 30
0.0
 10
98.74711640326461
 20
-149.2952799105929
 30
0.0
  0
HATCH
  5
B5
330
B0
100
AcDbEntity
  8
_U+30EC_U+30A4_U+30E4_U+30FC 1
 62
     7
420
 16777215
100
AcDbHatch
 10
0.0
 20
0.0
 30
0.0
210
0.0
220
0.0
230
1.0
  2
SOLID
 70
     1
 71
     0
 91
        1
 92
        1
 93
        1
 72
     4
 94
        3
 73
     0
 74
     1
 95
       26
 96
       22
 40
0.0
 40
0.0
 40
0.0
 40
0.0
 40
1.0
 40
1.0
 40
1.0
 40
2.0
 40
2.0
 40
2.0
 40
3.0
 40
3.0
 40
3.0
 40
4.0
 40
4.0
 40
4.0
 40
5.0
 40
5.0
 40
5.0
 40
6.0
 40
6.0
 40
6.0
 40
7.0
 40
7.0
 40
7.0
 40
7.0
 10
98.74711640326461
 20
-149.2952799105929
 10
98.74711640326461
 20
-149.2952799105929
 10
98.74711640326461
 20
-148.1911268075703
 10
98.74711640326461
 20
-148.1911268075703
 10
98.74711640326461
 20
-148.1911268075703
 10
98.41707625577769
 20
-148.1911268075703
 10
98.41707625577769
 20
-148.1911268075703
 10
98.41707625577769
 20
-148.1911268075703
 10
98.41707625577769
 20
-148.0429877017045
 10
98.41707625577769
 20
-148.0429877017045
 10
98.74918346055577
 20
-148.028173791118
 10
98.79569224960663
 20
-147.8652207746657
 10
98.82532007077978
 20
-147.7508436045553
 10
98.82532007077978
 20
-147.7508436045553
 10
98.97139211935438
 20
-147.7508436045553
 10
98.97139211935438
 20
-147.7508436045553
 10
98.97139211935438
 20
-147.7508436045553
 10
98.97139211935438
 20
-149.2952799105929
 10
98.97139211935438
 20
-149.2952799105929
 10
98.97139211935438
 20
-149.2952799105929
 10
98.74711640326461
 20
-149.2952799105929
 10
98.74711640326461
 20
-149.2952799105929
 97
        0
 97
        0
 75
     2
 76
     1
 98
        0
  0
POLYLINE
  5
B6
330
B0
100
AcDbEntity
  8
_U+30EC_U+30A4_U+30E4_U+30FC 1
370
     0
100
AcDb2dPolyline
 66
     1
 10
0.0
 20
0.0
 30
0.0
  0
VERTEX
  5
B7
330
B6
100
AcDbEntity
  8
_U+30EC_U+30A4_U+30E4_U+30FC 1
370
     0
100
AcDbVertex
100
AcDb2dVertex
 10
99.53259817390158
 20
-149.2952799105929
 30
0.0
  0
VERTEX
  5
B8
330
B6
100
AcDbEntity
  8
_U+30EC_U+30A4_U+30E4_U+30FC 1
370
     0
100
AcDbVertex
100
AcDb2dVertex
 10
99.53259817390158
 20
-149.0434434306211
 30
0.0
  0
VERTEX
  5
B9
330
B6
100
AcDbEntity
  8
_U+30EC_U+30A4_U+30E4_U+30FC 1
370
     0
100
AcDbVertex
100
AcDb2dVertex
 10
99.78443465387333
 20
-149.0434434306211
 30
0.0
  0
VERTEX
  5
BA
330
B6
100
AcDbEntity
  8
_U+30EC_U+30A4_U+30E4_U+30FC 1
370
     0
100
AcDbVertex
100
AcDb2dVertex
 10
99.78443465387333
 20
-149.2952799105929
 30
0.0
  0
VERTEX
  5
BB
330
B6
100
AcDbEntity
  8
_U+30EC_U+30A4_U+30E4_U+30FC 1
370
     0
100
AcDbVertex
100
AcDb2dVertex
 10
99.53259817390158
 20
-149.2952799105929
 30
0.0
  0
SEQEND
  5
BC
330
B6
100
AcDbEntity
  8
_U+30EC_U+30A4_U+30E4_U+30FC 1
370
     0
  0
HATCH
  5
BD
330
B0
100
AcDbEntity
  8
_U+30EC_U+30A4_U+30E4_U+30FC 1
 62
     7
420
 16777215
100
AcDbHatch
 10
0.0
 20
0.0
 30
0.0
210
0.0
220
0.0
230
1.0
  2
SOLID
 70
     1
 71
     0
 91
        1
 92
        1
 93
        4
 72
     1
 10
99.53259817390158
 20
-149.2952799105929
 11
99.53259817390158
 21
-149.0434434306211
 72
     1
 10
99.53259817390158
 20
-149.0434434306211
 11
99.78443465387333
 21
-149.0434434306211
 72
     1
 10
99.78443465387333
 20
-149.0434434306211
 11
99.78443465387333
 21
-149.2952799105929
 72
     1
 10
99.78443465387333
 20
-149.2952799105929
 11
99.53259817390158
 21
-149.2952799105929
 97
        0
 75
     2
 76
     1
 98
        0
  0
SPLINE
  5
BE
330
B0
100
AcDbEntity
  8
_U+30EC_U+30A4_U+30E4_U+30FC 1
370
     0
100
AcDbSpline
210
0.0
220
0.0
230
1.0
 70
    11
 71
     3
 72
    53
 73
    49
 74
     0
 42
0.0000000001
 43
0.0000000001
 12
1.0
 22
0.0
 32
0.0
 13
1.0
 23
0.0
 33
0.0
 40
0.0
 40
0.0
 40
0.0
 40
0.0
 40
1.0
 40
1.0
 40
1.0
 40
2.0
 40
2.0
 40
2.0
 40
3.0
 40
3.0
 40
3.0
 40
4.0
 40
4.0
 40
4.0
 40
5.0
 40
5.0
 40
5.0
 40
6.0
 40
6.0
 40
6.0
 40
7.0
 40
7.0
 40
7.0
 40
8.0
 40
8.0
 40
8.0
 40
9.0
 40
9.0
 40
9.0
 40
10.0
 40
10.0
 40
10.0
 40
11.0
 40
11.0
 40
11.0
 40
12.0
 40
12.0
 40
12.0
 40
13.0
 40
13.0
 40
13.0
 40
14.0
 40
14.0
 40
14.0
 40
15.0
 40
15.0
 40
15.0
 40
16.0
 40
16.0
 40
16.0
 40
16.0
 10
100.5017035339024
 20
-149.345922814226
 30
0.0
 10
100.4234998663872
 20
-149.345922814226
 30
0.0
 10
100.3218695495723
 20
-149.3290418463483
 30
0.0
 10
100.2202392327575
 20
-149.2656520894197
 30
0.0
 10
100.0469509298494
 20
-149.1557535434402
 30
0.0
 10
100.0255913378408
 20
-149.0244954054522
 30
0.0
 10
100.006643312672
 20
-148.9166639167639
 30
0.0
 10
100.006643312672
 20
-148.9166639167639
 30
0.0
 10
100.2288519714706
 20
-148.9166639167639
 30
0.0
 10
100.2288519714706
 20
-148.9166639167639
 30
0.0
 10
100.283628989686
 20
-149.1154459262628
 30
0.0
 10
100.4107530130918
 20
-149.145073747436
 30
0.0
 10
100.5037705911935
 20
-149.145073747436
 30
0.0
 10
100.6432969583461
 20
-149.145073747436
 30
0.0
 10
100.7955701787942
 20
-149.0455104879123
 30
0.0
 10
100.7955701787942
 20
-148.8129665426579
 30
0.0
 10
100.7955701787942
 20
-148.5569959481038
 30
0.0
 10
100.6157361944641
 20
-148.4870605097532
 30
0.0
 10
100.4951578524804
 20
-148.4870605097532
 30
0.0
 10
100.4634629740161
 20
-148.4870605097532
 30
0.0
 10
100.3218695495723
 20
-148.4870605097532
 30
0.0
 10
100.2329860860529
 20
-148.6162515904501
 30
0.0
 10
100.2329860860529
 20
-148.6162515904501
 30
0.0
 10
100.0572862163051
 20
-148.5973035652812
 30
0.0
 10
100.0572862163051
 20
-148.5973035652812
 30
0.0
 10
100.0572862163051
 20
-148.5973035652812
 30
0.0
 10
100.1778645582889
 20
-147.7508436045553
 30
0.0
 10
100.1778645582889
 20
-147.7508436045553
 30
0.0
 10
100.1778645582889
 20
-147.7508436045553
 30
0.0
 10
100.9564561379553
 20
-147.7508436045553
 30
0.0
 10
100.9564561379553
 20
-147.7508436045553
 30
0.0
 10
100.9564561379553
 20
-147.7508436045553
 30
0.0
 10
100.9564561379553
 20
-147.945491499472
 30
0.0
 10
100.9564561379553
 20
-147.945491499472
 30
0.0
 10
100.9564561379553
 20
-147.945491499472
 30
0.0
 10
100.3408175747412
 20
-147.945491499472
 30
0.0
 10
100.3408175747412
 20
-147.945491499472
 30
0.0
 10
100.3408175747412
 20
-147.945491499472
 30
0.0
 10
100.2753607605214
 20
-148.3685492250607
 30
0.0
 10
100.2753607605214
 20
-148.3685492250607
 30
0.0
 10
100.3366834601589
 20
-148.3347872893052
 30
0.0
 10
100.4190212422564
 20
-148.2944796721278
 30
0.0
 10
100.537532526949
 20
-148.2944796721278
 30
0.0
 10
100.7914360642119
 20
-148.2944796721278
 30
0.0
 10
101.0284586335971
 20
-148.4808593378798
 30
0.0
 10
101.0284586335971
 20
-148.794018517489
 30
0.0
 10
101.0284586335971
 20
-149.1113118116805
 30
0.0
 10
100.8041829175073
 20
-149.345922814226
 30
0.0
 10
100.5017035339024
 20
-149.345922814226
 30
0.0
  0
HATCH
  5
BF
330
B0
100
AcDbEntity
  8
_U+30EC_U+30A4_U+30E4_U+30FC 1
 62
     7
420
 16777215
100
AcDbHatch
 10
0.0
 20
0.0
 30
0.0
210
0.0
220
0.0
230
1.0
  2
SOLID
 70
     1
 71
     0
 91
        1
 92
        1
 93
        1
 72
     4
 94
        3
 73
     0
 74
     1
 95
       53
 96
       49
 40
0.0
 40
0.0
 40
0.0
 40
0.0
 40
1.0
 40
1.0
 40
1.0
 40
2.0
 40
2.0
 40
2.0
 40
3.0
 40
3.0
 40
3.0
 40
4.0
 40
4.0
 40
4.0
 40
5.0
 40
5.0
 40
5.0
 40
6.0
 40
6.0
 40
6.0
 40
7.0
 40
7.0
 40
7.0
 40
8.0
 40
8.0
 40
8.0
 40
9.0
 40
9.0
 40
9.0
 40
10.0
 40
10.0
 40
10.0
 40
11.0
 40
11.0
 40
11.0
 40
12.0
 40
12.0
 40
12.0
 40
13.0
 40
13.0
 40
13.0
 40
14.0
 40
14.0
 40
14.0
 40
15.0
 40
15.0
 40
15.0
 40
16.0
 40
16.0
 40
16.0
 40
16.0
 10
100.5017035339024
 20
-149.345922814226
 10
100.4234998663872
 20
-149.345922814226
 10
100.3218695495723
 20
-149.3290418463483
 10
100.2202392327575
 20
-149.2656520894197
 10
100.0469509298494
 20
-149.1557535434402
 10
100.0255913378408
 20
-149.0244954054522
 10
100.006643312672
 20
-148.9166639167639
 10
100.006643312672
 20
-148.9166639167639
 10
100.2288519714706
 20
-148.9166639167639
 10
100.2288519714706
 20
-148.9166639167639
 10
100.283628989686
 20
-149.1154459262628
 10
100.4107530130918
 20
-149.145073747436
 10
100.5037705911935
 20
-149.145073747436
 10
100.6432969583461
 20
-149.145073747436
 10
100.7955701787942
 20
-149.0455104879123
 10
100.7955701787942
 20
-148.8129665426579
 10
100.7955701787942
 20
-148.5569959481038
 10
100.6157361944641
 20
-148.4870605097532
 10
100.4951578524804
 20
-148.4870605097532
 10
100.4634629740161
 20
-148.4870605097532
 10
100.3218695495723
 20
-148.4870605097532
 10
100.2329860860529
 20
-148.6162515904501
 10
100.2329860860529
 20
-148.6162515904501
 10
100.0572862163051
 20
-148.5973035652812
 10
100.0572862163051
 20
-148.5973035652812
 10
100.0572862163051
 20
-148.5973035652812
 10
100.1778645582889
 20
-147.7508436045553
 10
100.1778645582889
 20
-147.7508436045553
 10
100.1778645582889
 20
-147.7508436045553
 10
100.9564561379553
 20
-147.7508436045553
 10
100.9564561379553
 20
-147.7508436045553
 10
100.9564561379553
 20
-147.7508436045553
 10
100.9564561379553
 20
-147.945491499472
 10
100.9564561379553
 20
-147.945491499472
 10
100.9564561379553
 20
-147.945491499472
 10
100.3408175747412
 20
-147.945491499472
 10
100.3408175747412
 20
-147.945491499472
 10
100.3408175747412
 20
-147.945491499472
 10
100.2753607605214
 20
-148.3685492250607
 10
100.2753607605214
 20
-148.3685492250607
 10
100.3366834601589
 20
-148.3347872893052
 10
100.4190212422564
 20
-148.2944796721278
 10
100.537532526949
 20
-148.2944796721278
 10
100.7914360642119
 20
-148.2944796721278
 10
101.0284586335971
 20
-148.4808593378798
 10
101.0284586335971
 20
-148.794018517489
 10
101.0284586335971
 20
-149.1113118116805
 10
100.8041829175073
 20
-149.345922814226
 10
100.5017035339024
 20
-149.345922814226
 97
        0
 97
        0
 75
     2
 76
     1
 98
        0
  0
ENDBLK
  5
B3
330
B0
100
AcDbEntity
  8
0
100
AcDbBlockEnd
  0
BLOCK
  5
C3
330
C1
100
AcDbEntity
  8
0
100
AcDbBlockBegin
  2
block 9
 70
     0
 10
0.0
 20
0.0
 30
0.0
  3
block 9
  1

  0
SPLINE
  5
C5
330
C1
100
AcDbEntity
  8
_U+30EC_U+30A4_U+30E4_U+30FC 1
370
     0
100
AcDbSpline
210
0.0
220
0.0
230
1.0
 70
    11
 71
     3
 72
    44
 73
    40
 74
     0
 42
0.0000000001
 43
0.0000000001
 12
1.0
 22
0.0
 32
0.0
 13
1.0
 23
0.0
 33
0.0
 40
0.0
 40
0.0
 40
0.0
 40
0.0
 40
1.0
 40
1.0
 40
1.0
 40
2.0
 40
2.0
 40
2.0
 40
3.0
 40
3.0
 40
3.0
 40
4.0
 40
4.0
 40
4.0
 40
5.0
 40
5.0
 40
5.0
 40
6.0
 40
6.0
 40
6.0
 40
7.0
 40
7.0
 40
7.0
 40
8.0
 40
8.0
 40
8.0
 40
9.0
 40
9.0
 40
9.0
 40
10.0
 40
10.0
 40
10.0
 40
11.0
 40
11.0
 40
11.0
 40
12.0
 40
12.0
 40
12.0
 40
13.0
 40
13.0
 40
13.0
 40
13.0
 10
66.3790662811483
 20
-150.827658382432
 30
0.0
 10
66.35563963184859
 20
-150.7832166506722
 30
0.0
 10
66.33462454938856
 20
-150.7305066897479
 30
0.0
 10
66.33238523732315
 20
-150.4996852922362
 30
0.0
 10
66.32825112274085
 20
-150.2564615509775
 30
0.0
 10
66.26899548039457
 20
-150.1868706221755
 30
0.0
 10
66.09122855335566
 20
-150.1868706221755
 30
0.0
 10
66.09122855335566
 20
-150.1868706221755
 30
0.0
 10
65.68298473835357
 20
-150.1868706221755
 30
0.0
 10
65.68298473835357
 20
-150.1868706221755
 30
0.0
 10
65.68298473835357
 20
-150.1868706221755
 30
0.0
 10
65.68298473835357
 20
-150.827658382432
 30
0.0
 10
65.68298473835357
 20
-150.827658382432
 30
0.0
 10
65.68298473835357
 20
-150.827658382432
 30
0.0
 10
65.44820148103379
 20
-150.827658382432
 30
0.0
 10
65.44820148103379
 20
-150.827658382432
 30
0.0
 10
65.44820148103379
 20
-150.827658382432
 30
0.0
 10
65.44820148103379
 20
-149.283566585943
 30
0.0
 10
65.44820148103379
 20
-149.283566585943
 30
0.0
 10
65.44820148103379
 20
-149.283566585943
 30
0.0
 10
66.12292343181997
 20
-149.283566585943
 30
0.0
 10
66.12292343181997
 20
-149.283566585943
 30
0.0
 10
66.42970918478146
 20
-149.283566585943
 30
0.0
 10
66.59696857059035
 20
-149.4544433220114
 30
0.0
 10
66.59696857059035
 20
-149.710758426114
 30
0.0
 10
66.59696857059035
 20
-149.7614013297471
 30
0.0
 10
66.58835583187722
 20
-149.8437391118446
 30
0.0
 10
66.54391410011749
 20
-149.9243543461995
 30
0.0
 10
66.48483071254546
 20
-150.0280517203055
 30
0.0
 10
66.41920164355145
 20
-150.0469997454744
 30
0.0
 10
66.357878943914
 20
-150.0638807133521
 30
0.0
 10
66.49533825377547
 20
-150.1062553878207
 30
0.0
 10
66.56303438006063
 20
-150.1551757437112
 30
0.0
 10
66.5673407494172
 20
-150.4700574710631
 30
0.0
 10
66.5714748639995
 20
-150.7408419762037
 30
0.0
 10
66.60747611182036
 20
-150.772536854668
 30
0.0
 10
66.67517223810552
 20
-150.827658382432
 30
0.0
 10
66.67517223810552
 20
-150.827658382432
 30
0.0
 10
66.3790662811483
 20
-150.827658382432
 30
0.0
 10
66.3790662811483
 20
-150.827658382432
 30
0.0
  0
SPLINE
  5
C6
330
C1
100
AcDbEntity
  8
_U+30EC_U+30A4_U+30E4_U+30FC 1
370
     0
100
AcDbSpline
210
0.0
220
0.0
230
1.0
 70
    11
 71
     3
 72
    20
 73
    16
 74
     0
 42
0.0000000001
 43
0.0000000001
 12
1.0
 22
0.0
 32
0.0
 13
1.0
 23
0.0
 33
0.0
 40
0.0
 40
0.0
 40
0.0
 40
0.0
 40
1.0
 40
1.0
 40
1.0
 40
2.0
 40
2.0
 40
2.0
 40
3.0
 40
3.0
 40
3.0
 40
4.0
 40
4.0
 40
4.0
 40
5.0
 40
5.0
 40
5.0
 40
5.0
 10
66.12722980117653
 20
-149.4950954487373
 30
0.0
 10
66.12722980117653
 20
-149.4950954487373
 30
0.0
 10
65.68298473835357
 20
-149.4950954487373
 30
0.0
 10
65.68298473835357
 20
-149.4950954487373
 30
0.0
 10
65.68298473835357
 20
-149.4950954487373
 30
0.0
 10
65.68298473835357
 20
-149.9753417593812
 30
0.0
 10
65.68298473835357
 20
-149.9753417593812
 30
0.0
 10
65.68298473835357
 20
-149.9753417593812
 30
0.0
 10
66.12516274388538
 20
-149.9753417593812
 30
0.0
 10
66.12516274388538
 20
-149.9753417593812
 30
0.0
 10
66.22455374863483
 20
-149.9753417593812
 30
0.0
 10
66.35994600120516
 20
-149.8988606396086
 30
0.0
 10
66.35994600120516
 20
-149.7276393939917
 30
0.0
 10
66.35994600120516
 20
-149.6494357264765
 30
0.0
 10
66.32618406544971
 20
-149.4950954487373
 30
0.0
 10
66.12722980117653
 20
-149.4950954487373
 30
0.0
  0
HATCH
  5
C7
330
C1
100
AcDbEntity
  8
_U+30EC_U+30A4_U+30E4_U+30FC 1
 62
     7
420
 16777215
100
AcDbHatch
 10
0.0
 20
0.0
 30
0.0
210
0.0
220
0.0
230
1.0
  2
SOLID
 70
     1
 71
     0
 91
        2
 92
        1
 93
        1
 72
     4
 94
        3
 73
     0
 74
     1
 95
       44
 96
       40
 40
0.0
 40
0.0
 40
0.0
 40
0.0
 40
1.0
 40
1.0
 40
1.0
 40
2.0
 40
2.0
 40
2.0
 40
3.0
 40
3.0
 40
3.0
 40
4.0
 40
4.0
 40
4.0
 40
5.0
 40
5.0
 40
5.0
 40
6.0
 40
6.0
 40
6.0
 40
7.0
 40
7.0
 40
7.0
 40
8.0
 40
8.0
 40
8.0
 40
9.0
 40
9.0
 40
9.0
 40
10.0
 40
10.0
 40
10.0
 40
11.0
 40
11.0
 40
11.0
 40
12.0
 40
12.0
 40
12.0
 40
13.0
 40
13.0
 40
13.0
 40
13.0
 10
66.3790662811483
 20
-150.827658382432
 10
66.35563963184859
 20
-150.7832166506722
 10
66.33462454938856
 20
-150.7305066897479
 10
66.33238523732315
 20
-150.4996852922362
 10
66.32825112274085
 20
-150.2564615509775
 10
66.26899548039457
 20
-150.1868706221755
 10
66.09122855335566
 20
-150.1868706221755
 10
66.09122855335566
 20
-150.1868706221755
 10
65.68298473835357
 20
-150.1868706221755
 10
65.68298473835357
 20
-150.1868706221755
 10
65.68298473835357
 20
-150.1868706221755
 10
65.68298473835357
 20
-150.827658382432
 10
65.68298473835357
 20
-150.827658382432
 10
65.68298473835357
 20
-150.827658382432
 10
65.44820148103379
 20
-150.827658382432
 10
65.44820148103379
 20
-150.827658382432
 10
65.44820148103379
 20
-150.827658382432
 10
65.44820148103379
 20
-149.283566585943
 10
65.44820148103379
 20
-149.283566585943
 10
65.44820148103379
 20
-149.283566585943
 10
66.12292343181997
 20
-149.283566585943
 10
66.12292343181997
 20
-149.283566585943
 10
66.42970918478146
 20
-149.283566585943
 10
66.59696857059035
 20
-149.4544433220114
 10
66.59696857059035
 20
-149.710758426114
 10
66.59696857059035
 20
-149.7614013297471
 10
66.58835583187722
 20
-149.8437391118446
 10
66.54391410011749
 20
-149.9243543461995
 10
66.48483071254546
 20
-150.0280517203055
 10
66.41920164355145
 20
-150.0469997454744
 10
66.357878943914
 20
-150.0638807133521
 10
66.49533825377547
 20
-150.1062553878207
 10
66.56303438006063
 20
-150.1551757437112
 10
66.5673407494172
 20
-150.4700574710631
 10
66.5714748639995
 20
-150.7408419762037
 10
66.60747611182036
 20
-150.772536854668
 10
66.67517223810552
 20
-150.827658382432
 10
66.67517223810552
 20
-150.827658382432
 10
66.3790662811483
 20
-150.827658382432
 10
66.3790662811483
 20
-150.827658382432
 97
        0
 97
        0
 92
        1
 93
        1
 72
     4
 94
        3
 73
     0
 74
     1
 95
       20
 96
       16
 40
0.0
 40
0.0
 40
0.0
 40
0.0
 40
1.0
 40
1.0
 40
1.0
 40
2.0
 40
2.0
 40
2.0
 40
3.0
 40
3.0
 40
3.0
 40
4.0
 40
4.0
 40
4.0
 40
5.0
 40
5.0
 40
5.0
 40
5.0
 10
66.12722980117653
 20
-149.4950954487373
 10
66.12722980117653
 20
-149.4950954487373
 10
65.68298473835357
 20
-149.4950954487373
 10
65.68298473835357
 20
-149.4950954487373
 10
65.68298473835357
 20
-149.4950954487373
 10
65.68298473835357
 20
-149.9753417593812
 10
65.68298473835357
 20
-149.9753417593812
 10
65.68298473835357
 20
-149.9753417593812
 10
66.12516274388538
 20
-149.9753417593812
 10
66.12516274388538
 20
-149.9753417593812
 10
66.22455374863483
 20
-149.9753417593812
 10
66.35994600120516
 20
-149.8988606396086
 10
66.35994600120516
 20
-149.7276393939917
 10
66.35994600120516
 20
-149.6494357264765
 10
66.32618406544971
 20
-149.4950954487373
 10
66.12722980117653
 20
-149.4950954487373
 97
        0
 97
        0
 75
     2
 76
     1
 98
        0
  0
SPLINE
  5
C8
330
C1
100
AcDbEntity
  8
_U+30EC_U+30A4_U+30E4_U+30FC 1
370
     0
100
AcDbSpline
210
0.0
220
0.0
230
1.0
 70
    11
 71
     3
 72
    26
 73
    22
 74
     0
 42
0.0000000001
 43
0.0000000001
 12
1.0
 22
0.0
 32
0.0
 13
1.0
 23
0.0
 33
0.0
 40
0.0
 40
0.0
 40
0.0
 40
0.0
 40
1.0
 40
1.0
 40
1.0
 40
2.0
 40
2.0
 40
2.0
 40
3.0
 40
3.0
 40
3.0
 40
4.0
 40
4.0
 40
4.0
 40
5.0
 40
5.0
 40
5.0
 40
6.0
 40
6.0
 40
6.0
 40
7.0
 40
7.0
 40
7.0
 40
7.0
 10
67.26617836860012
 20
-150.827658382432
 30
0.0
 10
67.26617836860012
 20
-150.827658382432
 30
0.0
 10
67.26617836860012
 20
-149.7231607698609
 30
0.0
 10
67.26617836860012
 20
-149.7231607698609
 30
0.0
 10
67.26617836860012
 20
-149.7231607698609
 30
0.0
 10
66.9361382211132
 20
-149.7231607698609
 30
0.0
 10
66.9361382211132
 20
-149.7231607698609
 30
0.0
 10
66.9361382211132
 20
-149.7231607698609
 30
0.0
 10
66.9361382211132
 20
-149.5753661735437
 30
0.0
 10
66.9361382211132
 20
-149.5753661735437
 30
0.0
 10
67.26824542589128
 20
-149.5605522629571
 30
0.0
 10
67.31475421494214
 20
-149.3975992465048
 30
0.0
 10
67.34438203611529
 20
-149.283566585943
 30
0.0
 10
67.34438203611529
 20
-149.283566585943
 30
0.0
 10
67.49045408468989
 20
-149.283566585943
 30
0.0
 10
67.49045408468989
 20
-149.283566585943
 30
0.0
 10
67.49045408468989
 20
-149.283566585943
 30
0.0
 10
67.49045408468989
 20
-150.827658382432
 30
0.0
 10
67.49045408468989
 20
-150.827658382432
 30
0.0
 10
67.49045408468989
 20
-150.827658382432
 30
0.0
 10
67.26617836860012
 20
-150.827658382432
 30
0.0
 10
67.26617836860012
 20
-150.827658382432
 30
0.0
  0
HATCH
  5
C9
330
C1
100
AcDbEntity
  8
_U+30EC_U+30A4_U+30E4_U+30FC 1
 62
     7
420
 16777215
100
AcDbHatch
 10
0.0
 20
0.0
 30
0.0
210
0.0
220
0.0
230
1.0
  2
SOLID
 70
     1
 71
     0
 91
        1
 92
        1
 93
        1
 72
     4
 94
        3
 73
     0
 74
     1
 95
       26
 96
       22
 40
0.0
 40
0.0
 40
0.0
 40
0.0
 40
1.0
 40
1.0
 40
1.0
 40
2.0
 40
2.0
 40
2.0
 40
3.0
 40
3.0
 40
3.0
 40
4.0
 40
4.0
 40
4.0
 40
5.0
 40
5.0
 40
5.0
 40
6.0
 40
6.0
 40
6.0
 40
7.0
 40
7.0
 40
7.0
 40
7.0
 10
67.26617836860012
 20
-150.827658382432
 10
67.26617836860012
 20
-150.827658382432
 10
67.26617836860012
 20
-149.7231607698609
 10
67.26617836860012
 20
-149.7231607698609
 10
67.26617836860012
 20
-149.7231607698609
 10
66.9361382211132
 20
-149.7231607698609
 10
66.9361382211132
 20
-149.7231607698609
 10
66.9361382211132
 20
-149.7231607698609
 10
66.9361382211132
 20
-149.5753661735437
 10
66.9361382211132
 20
-149.5753661735437
 10
67.26824542589128
 20
-149.5605522629571
 10
67.31475421494214
 20
-149.3975992465048
 10
67.34438203611529
 20
-149.283566585943
 10
67.34438203611529
 20
-149.283566585943
 10
67.49045408468989
 20
-149.283566585943
 10
67.49045408468989
 20
-149.283566585943
 10
67.49045408468989
 20
-149.283566585943
 10
67.49045408468989
 20
-150.827658382432
 10
67.49045408468989
 20
-150.827658382432
 10
67.49045408468989
 20
-150.827658382432
 10
67.26617836860012
 20
-150.827658382432
 10
67.26617836860012
 20
-150.827658382432
 97
        0
 97
        0
 75
     2
 76
     1
 98
        0
  0
SPLINE
  5
CA
330
C1
100
AcDbEntity
  8
_U+30EC_U+30A4_U+30E4_U+30FC 1
370
     0
100
AcDbSpline
210
0.0
220
0.0
230
1.0
 70
    11
 71
     3
 72
    53
 73
    49
 74
     0
 42
0.0000000001
 43
0.0000000001
 12
1.0
 22
0.0
 32
0.0
 13
1.0
 23
0.0
 33
0.0
 40
0.0
 40
0.0
 40
0.0
 40
0.0
 40
1.0
 40
1.0
 40
1.0
 40
2.0
 40
2.0
 40
2.0
 40
3.0
 40
3.0
 40
3.0
 40
4.0
 40
4.0
 40
4.0
 40
5.0
 40
5.0
 40
5.0
 40
6.0
 40
6.0
 40
6.0
 40
7.0
 40
7.0
 40
7.0
 40
8.0
 40
8.0
 40
8.0
 40
9.0
 40
9.0
 40
9.0
 40
10.0
 40
10.0
 40
10.0
 40
11.0
 40
11.0
 40
11.0
 40
12.0
 40
12.0
 40
12.0
 40
13.0
 40
13.0
 40
13.0
 40
14.0
 40
14.0
 40
14.0
 40
15.0
 40
15.0
 40
15.0
 40
16.0
 40
16.0
 40
16.0
 40
16.0
 10
68.47265080753462
 20
-150.8786457956137
 30
0.0
 10
68.39427488524518
 20
-150.8786457956137
 30
0.0
 10
68.29281682320457
 20
-150.8614203181874
 30
0.0
 10
68.19118650638971
 20
-150.7980305612588
 30
0.0
 10
68.01772594870738
 20
-150.6877875057308
 30
0.0
 10
67.99653861147308
 20
-150.5568738772913
 30
0.0
 10
67.97759058630422
 20
-150.449042388603
 30
0.0
 10
67.97759058630422
 20
-150.449042388603
 30
0.0
 10
68.19962699032857
 20
-150.449042388603
 30
0.0
 10
68.19962699032857
 20
-150.449042388603
 30
0.0
 10
68.25474851809257
 20
-150.6478243981019
 30
0.0
 10
68.38170028672403
 20
-150.6774522192751
 30
0.0
 10
68.47471786482576
 20
-150.6774522192751
 30
0.0
 10
68.61441648675265
 20
-150.6774522192751
 30
0.0
 10
68.7666897072007
 20
-150.5782334692999
 30
0.0
 10
68.7666897072007
 20
-150.345345014497
 30
0.0
 10
68.7666897072007
 20
-150.0893744199429
 30
0.0
 10
68.58685572287065
 20
-150.0194389815924
 30
0.0
 10
68.46627738088691
 20
-150.0194389815924
 30
0.0
 10
68.43458250242261
 20
-150.0194389815924
 30
0.0
 10
68.29281682320457
 20
-150.0194389815924
 30
0.0
 10
68.20393335968514
 20
-150.1486300622892
 30
0.0
 10
68.20393335968514
 20
-150.1486300622892
 30
0.0
 10
68.02840574471165
 20
-150.1296820371204
 30
0.0
 10
68.02840574471165
 20
-150.1296820371204
 30
0.0
 10
68.02840574471165
 20
-150.1296820371204
 30
0.0
 10
68.14898408669539
 20
-149.283566585943
 30
0.0
 10
68.14898408669539
 20
-149.283566585943
 30
0.0
 10
68.14898408669539
 20
-149.283566585943
 30
0.0
 10
68.92740341158759
 20
-149.283566585943
 30
0.0
 10
68.92740341158759
 20
-149.283566585943
 30
0.0
 10
68.92740341158759
 20
-149.283566585943
 30
0.0
 10
68.92740341158759
 20
-149.4778699713111
 30
0.0
 10
68.92740341158759
 20
-149.4778699713111
 30
0.0
 10
68.92740341158759
 20
-149.4778699713111
 30
0.0
 10
68.31176484837346
 20
-149.4778699713111
 30
0.0
 10
68.31176484837346
 20
-149.4778699713111
 30
0.0
 10
68.31176484837346
 20
-149.4778699713111
 30
0.0
 10
68.2463080341537
 20
-149.9009276968998
 30
0.0
 10
68.2463080341537
 20
-149.9009276968998
 30
0.0
 10
68.30763073379116
 20
-149.8671657611443
 30
0.0
 10
68.39014077066288
 20
-149.8272026535154
 30
0.0
 10
68.50847980058121
 20
-149.8272026535154
 30
0.0
 10
68.76238333784413
 20
-149.8272026535154
 30
0.0
 10
68.99940590722932
 20
-150.0132378097189
 30
0.0
 10
68.99940590722932
 20
-150.3260524797796
 30
0.0
 10
68.99940590722932
 20
-150.6436902835196
 30
0.0
 10
68.77513019113955
 20
-150.8786457956137
 30
0.0
 10
68.47265080753462
 20
-150.8786457956137
 30
0.0
  0
HATCH
  5
CB
330
C1
100
AcDbEntity
  8
_U+30EC_U+30A4_U+30E4_U+30FC 1
 62
     7
420
 16777215
100
AcDbHatch
 10
0.0
 20
0.0
 30
0.0
210
0.0
220
0.0
230
1.0
  2
SOLID
 70
     1
 71
     0
 91
        1
 92
        1
 93
        1
 72
     4
 94
        3
 73
     0
 74
     1
 95
       53
 96
       49
 40
0.0
 40
0.0
 40
0.0
 40
0.0
 40
1.0
 40
1.0
 40
1.0
 40
2.0
 40
2.0
 40
2.0
 40
3.0
 40
3.0
 40
3.0
 40
4.0
 40
4.0
 40
4.0
 40
5.0
 40
5.0
 40
5.0
 40
6.0
 40
6.0
 40
6.0
 40
7.0
 40
7.0
 40
7.0
 40
8.0
 40
8.0
 40
8.0
 40
9.0
 40
9.0
 40
9.0
 40
10.0
 40
10.0
 40
10.0
 40
11.0
 40
11.0
 40
11.0
 40
12.0
 40
12.0
 40
12.0
 40
13.0
 40
13.0
 40
13.0
 40
14.0
 40
14.0
 40
14.0
 40
15.0
 40
15.0
 40
15.0
 40
16.0
 40
16.0
 40
16.0
 40
16.0
 10
68.47265080753462
 20
-150.8786457956137
 10
68.39427488524518
 20
-150.8786457956137
 10
68.29281682320457
 20
-150.8614203181874
 10
68.19118650638971
 20
-150.7980305612588
 10
68.01772594870738
 20
-150.6877875057308
 10
67.99653861147308
 20
-150.5568738772913
 10
67.97759058630422
 20
-150.449042388603
 10
67.97759058630422
 20
-150.449042388603
 10
68.19962699032857
 20
-150.449042388603
 10
68.19962699032857
 20
-150.449042388603
 10
68.25474851809257
 20
-150.6478243981019
 10
68.38170028672403
 20
-150.6774522192751
 10
68.47471786482576
 20
-150.6774522192751
 10
68.61441648675265
 20
-150.6774522192751
 10
68.7666897072007
 20
-150.5782334692999
 10
68.7666897072007
 20
-150.345345014497
 10
68.7666897072007
 20
-150.0893744199429
 10
68.58685572287065
 20
-150.0194389815924
 10
68.46627738088691
 20
-150.0194389815924
 10
68.43458250242261
 20
-150.0194389815924
 10
68.29281682320457
 20
-150.0194389815924
 10
68.20393335968514
 20
-150.1486300622892
 10
68.20393335968514
 20
-150.1486300622892
 10
68.02840574471165
 20
-150.1296820371204
 10
68.02840574471165
 20
-150.1296820371204
 10
68.02840574471165
 20
-150.1296820371204
 10
68.14898408669539
 20
-149.283566585943
 10
68.14898408669539
 20
-149.283566585943
 10
68.14898408669539
 20
-149.283566585943
 10
68.92740341158759
 20
-149.283566585943
 10
68.92740341158759
 20
-149.283566585943
 10
68.92740341158759
 20
-149.283566585943
 10
68.92740341158759
 20
-149.4778699713111
 10
68.92740341158759
 20
-149.4778699713111
 10
68.92740341158759
 20
-149.4778699713111
 10
68.31176484837346
 20
-149.4778699713111
 10
68.31176484837346
 20
-149.4778699713111
 10
68.31176484837346
 20
-149.4778699713111
 10
68.2463080341537
 20
-149.9009276968998
 10
68.2463080341537
 20
-149.9009276968998
 10
68.30763073379116
 20
-149.8671657611443
 10
68.39014077066288
 20
-149.8272026535154
 10
68.50847980058121
 20
-149.8272026535154
 10
68.76238333784413
 20
-149.8272026535154
 10
68.99940590722932
 20
-150.0132378097189
 10
68.99940590722932
 20
-150.3260524797796
 10
68.99940590722932
 20
-150.6436902835196
 10
68.77513019113955
 20
-150.8786457956137
 10
68.47265080753462
 20
-150.8786457956137
 97
        0
 97
        0
 75
     2
 76
     1
 98
        0
  0
ENDBLK
  5
C4
330
C1
100
AcDbEntity
  8
0
100
AcDbBlockEnd
  0
ENDSEC
  0
SECTION
  2
ENTITIES
  0
SPLINE
  5
41
330
1F
100
AcDbEntity
  8
_U+30EC_U+30A4_U+30E4_U+30FC 1
 62
     7
420
 16777215
370
     9
100
AcDbSpline
210
0.0
220
0.0
230
1.0
 70
    11
 71
     3
 72
    17
 73
    13
 74
     0
 42
0.0000000001
 43
0.0000000001
 12
1.0
 22
0.0
 32
0.0
 13
1.0
 23
0.0
 33
0.0
 40
0.0
 40
0.0
 40
0.0
 40
0.0
 40
1.0
 40
1.0
 40
1.0
 40
2.0
 40
2.0
 40
2.0
 40
3.0
 40
3.0
 40
3.0
 40
4.0
 40
4.0
 40
4.0
 40
4.0
 10
86.20248252301367
 20
-149.8919616291939
 30
0.0
 10
86.20248252301367
 20
-149.8368577403184
 30
0.0
 10
86.15771502415579
 20
-149.7920549625523
 30
0.0
 10
86.10190558113516
 20
-149.7920549625523
 30
0.0
 10
86.04676641587521
 20
-149.7920549625523
 30
0.0
 10
86.00199891701733
 20
-149.8368577403184
 30
0.0
 10
86.00199891701733
 20
-149.8919616291939
 30
0.0
 10
86.00199891701733
 20
-149.9471007958464
 30
0.0
 10
86.04676641587521
 20
-149.9918682958355
 30
0.0
 10
86.10190558113516
 20
-149.9918682958355
 30
0.0
 10
86.15771502415579
 20
-149.9918682958355
 30
0.0
 10
86.20248252301367
 20
-149.9471007958464
 30
0.0
 10
86.20248252301367
 20
-149.8919616291939
 30
0.0
  0
POLYLINE
  5
42
330
1F
100
AcDbEntity
  8
_U+30EC_U+30A4_U+30E4_U+30FC 1
 62
     7
420
 16777215
370
     9
100
AcDb2dPolyline
 66
     1
 10
0.0
 20
0.0
 30
0.0
  0
VERTEX
  5
43
330
42
100
AcDbEntity
  8
_U+30EC_U+30A4_U+30E4_U+30FC 1
 62
     7
420
 16777215
370
     9
100
AcDbVertex
100
AcDb2dVertex
 10
86.10190558113516
 20
-148.4319555184477
 30
0.0
  0
VERTEX
  5
44
330
42
100
AcDbEntity
  8
_U+30EC_U+30A4_U+30E4_U+30FC 1
 62
     7
420
 16777215
370
     9
100
AcDbVertex
100
AcDb2dVertex
 10
86.10190558113516
 20
-150.8917338511658
 30
0.0
  0
SEQEND
  5
45
330
42
100
AcDbEntity
  8
_U+30EC_U+30A4_U+30E4_U+30FC 1
 62
     7
420
 16777215
370
     9
  0
SPLINE
  5
46
330
1F
100
AcDbEntity
  8
_U+30EC_U+30A4_U+30E4_U+30FC 1
 62
     7
420
 16777215
370
     9
100
AcDbSpline
210
0.0
220
0.0
230
1.0
 70
    11
 71
     3
 72
    17
 73
    13
 74
     0
 42
0.0000000001
 43
0.0000000001
 12
1.0
 22
0.0
 32
0.0
 13
1.0
 23
0.0
 33
0.0
 40
0.0
 40
0.0
 40
0.0
 40
0.0
 40
1.0
 40
1.0
 40
1.0
 40
2.0
 40
2.0
 40
2.0
 40
3.0
 40
3.0
 40
3.0
 40
4.0
 40
4.0
 40
4.0
 40
4.0
 10
96.20154504569412
 20
-149.8916088514162
 30
0.0
 10
96.20154504569412
 20
-149.8365049625406
 30
0.0
 10
96.15674226905935
 20
-149.7917021847745
 30
0.0
 10
96.10163838157628
 20
-149.7917021847745
 30
0.0
 10
96.04649921631633
 20
-149.7917021847745
 30
0.0
 10
96.00173171745844
 20
-149.8365049625406
 30
0.0
 10
96.00173171745844
 20
-149.8916088514162
 30
0.0
 10
96.00173171745844
 20
-149.9467480180686
 30
0.0
 10
96.04649921631633
 20
-149.9915507958353
 30
0.0
 10
96.10163838157628
 20
-149.9915507958353
 30
0.0
 10
96.15674226905935
 20
-149.9915507958353
 30
0.0
 10
96.20154504569412
 20
-149.9467480180686
 30
0.0
 10
96.20154504569412
 20
-149.8916088514162
 30
0.0
  0
POLYLINE
  5
47
330
1F
100
AcDbEntity
  8
_U+30EC_U+30A4_U+30E4_U+30FC 1
 62
     7
420
 16777215
370
     9
100
AcDb2dPolyline
 66
     1
 10
0.0
 20
0.0
 30
0.0
  0
VERTEX
  5
48
330
47
100
AcDbEntity
  8
_U+30EC_U+30A4_U+30E4_U+30FC 1
 62
     7
420
 16777215
370
     9
100
AcDbVertex
100
AcDb2dVertex
 10
96.10163838157628
 20
-147.3918607964855
 30
0.0
  0
VERTEX
  5
49
330
47
100
AcDbEntity
  8
_U+30EC_U+30A4_U+30E4_U+30FC 1
 62
     7
420
 16777215
370
     9
100
AcDbVertex
100
AcDb2dVertex
 10
96.10163838157628
 20
-150.8917338511658
 30
0.0
  0
SEQEND
  5
4A
330
47
100
AcDbEntity
  8
_U+30EC_U+30A4_U+30E4_U+30FC 1
 62
     7
420
 16777215
370
     9
  0
SPLINE
  5
4B
330
1F
100
AcDbEntity
  8
_U+30EC_U+30A4_U+30E4_U+30FC 1
 62
     7
420
 16777215
370
     9
100
AcDbSpline
210
0.0
220
0.0
230
1.0
 70
    11
 71
     3
 72
    17
 73
    13
 74
     0
 42
0.0000000001
 43
0.0000000001
 12
1.0
 22
0.0
 32
0.0
 13
1.0
 23
0.0
 33
0.0
 40
0.0
 40
0.0
 40
0.0
 40
0.0
 40
1.0
 40
1.0
 40
1.0
 40
2.0
 40
2.0
 40
2.0
 40
3.0
 40
3.0
 40
3.0
 40
4.0
 40
4.0
 40
4.0
 40
4.0
 10
97.70187361852865
 20
-149.8916088514162
 30
0.0
 10
97.70187361852865
 20
-149.8365049625406
 30
0.0
 10
97.6570708418939
 20
-149.7917021847745
 30
0.0
 10
97.60196942004377
 20
-149.7917021847745
 30
0.0
 10
97.54682778915087
 20
-149.7917021847745
 30
0.0
 10
97.50206029029299
 20
-149.8365049625406
 30
0.0
 10
97.50206029029299
 20
-149.8916088514162
 30
0.0
 10
97.50206029029299
 20
-149.9467480180686
 30
0.0
 10
97.54682778915087
 20
-149.9915507958353
 30
0.0
 10
97.60196942004377
 20
-149.9915507958353
 30
0.0
 10
97.6570708418939
 20
-149.9915507958353
 30
0.0
 10
97.70187361852865
 20
-149.9467480180686
 30
0.0
 10
97.70187361852865
 20
-149.8916088514162
 30
0.0
  0
POLYLINE
  5
4C
330
1F
100
AcDbEntity
  8
_U+30EC_U+30A4_U+30E4_U+30FC 1
 62
     7
420
 16777215
370
     9
100
AcDb2dPolyline
 66
     1
 10
0.0
 20
0.0
 30
0.0
  0
VERTEX
  5
4D
330
4C
100
AcDbEntity
  8
_U+30EC_U+30A4_U+30E4_U+30FC 1
 62
     7
420
 16777215
370
     9
100
AcDbVertex
100
AcDb2dVertex
 10
97.60196942004377
 20
-146.3917710745134
 30
0.0
  0
VERTEX
  5
4E
330
4C
100
AcDbEntity
  8
_U+30EC_U+30A4_U+30E4_U+30FC 1
 62
     7
420
 16777215
370
     9
100
AcDbVertex
100
AcDb2dVertex
 10
97.60196942004377
 20
-150.8917338511658
 30
0.0
  0
SEQEND
  5
4F
330
4C
100
AcDbEntity
  8
_U+30EC_U+30A4_U+30E4_U+30FC 1
 62
     7
420
 16777215
370
     9
  0
POLYLINE
  5
50
330
1F
100
AcDbEntity
  8
_U+30EC_U+30A4_U+30E4_U+30FC 1
 62
     7
420
 16777215
370
     9
100
AcDb2dPolyline
 66
     1
 10
0.0
 20
0.0
 30
0.0
  0
VERTEX
  5
51
330
50
100
AcDbEntity
  8
_U+30EC_U+30A4_U+30E4_U+30FC 1
 62
     7
420
 16777215
370
     9
100
AcDbVertex
100
AcDb2dVertex
 10
71.10193596381627
 20
-136.8918888546662
 30
0.0
  0
VERTEX
  5
52
330
50
100
AcDbEntity
  8
_U+30EC_U+30A4_U+30E4_U+30FC 1
 62
     7
420
 16777215
370
     9
100
AcDbVertex
100
AcDb2dVertex
 10
71.10193596381627
 20
-150.8917338511658
 30
0.0
  0
SEQEND
  5
53
330
50
100
AcDbEntity
  8
_U+30EC_U+30A4_U+30E4_U+30FC 1
 62
     7
420
 16777215
370
     9
  0
SPLINE
  5
54
330
1F
100
AcDbEntity
  8
_U+30EC_U+30A4_U+30E4_U+30FC 1
 62
     7
420
 16777215
370
     9
100
AcDbSpline
210
0.0
220
0.0
230
1.0
 70
    11
 71
     3
 72
    17
 73
    13
 74
     0
 42
0.0000000001
 43
0.0000000001
 12
1.0
 22
0.0
 32
0.0
 13
1.0
 23
0.0
 33
0.0
 40
0.0
 40
0.0
 40
0.0
 40
0.0
 40
1.0
 40
1.0
 40
1.0
 40
2.0
 40
2.0
 40
2.0
 40
3.0
 40
3.0
 40
3.0
 40
4.0
 40
4.0
 40
4.0
 40
4.0
 10
114.2021718086821
 20
-134.3917880219578
 30
0.0
 10
114.2021718086821
 20
-134.3366841330823
 30
0.0
 10
114.1573690320473
 20
-134.2918813553162
 30
0.0
 10
114.1022651445643
 20
-134.2918813553162
 30
0.0
 10
114.0471259793043
 20
-134.2918813553162
 30
0.0
 10
114.0023584804464
 20
-134.3366841330823
 30
0.0
 10
114.0023584804464
 20
-134.3917880219578
 30
0.0
 10
114.0023584804464
 20
-134.4475974663883
 30
0.0
 10
114.0471259793043
 20
-134.492400244155
 30
0.0
 10
114.1022651445643
 20
-134.492400244155
 30
0.0
 10
114.1573690320473
 20
-134.492400244155
 30
0.0
 10
114.2021718086821
 20
-134.4475974663883
 30
0.0
 10
114.2021718086821
 20
-134.3917880219578
 30
0.0
  0
SPLINE
  5
55
330
1F
100
AcDbEntity
  8
_U+30EC_U+30A4_U+30E4_U+30FC 1
 62
     7
420
 16777215
370
     9
100
AcDbSpline
210
0.0
220
0.0
230
1.0
 70
    11
 71
     3
 72
    17
 73
    13
 74
     0
 42
0.0000000001
 43
0.0000000001
 12
1.0
 22
0.0
 32
0.0
 13
1.0
 23
0.0
 33
0.0
 40
0.0
 40
0.0
 40
0.0
 40
0.0
 40
1.0
 40
1.0
 40
1.0
 40
2.0
 40
2.0
 40
2.0
 40
3.0
 40
3.0
 40
3.0
 40
4.0
 40
4.0
 40
4.0
 40
4.0
 10
114.2021718086821
 20
-145.8918849635268
 30
0.0
 10
114.2021718086821
 20
-145.8367457968743
 30
0.0
 10
114.1573690320473
 20
-145.7919782968851
 30
0.0
 10
114.1022651445643
 20
-145.7919782968851
 30
0.0
 10
114.0471259793043
 20
-145.7919782968851
 30
0.0
 10
114.0023584804464
 20
-145.8367457968743
 30
0.0
 10
114.0023584804464
 20
-145.8918849635268
 30
0.0
 10
114.0023584804464
 20
-145.9476944079572
 30
0.0
 10
114.0471259793043
 20
-145.9924619079464
 30
0.0
 10
114.1022651445643
 20
-145.9924619079464
 30
0.0
 10
114.1573690320473
 20
-145.9924619079464
 30
0.0
 10
114.2021718086821
 20
-145.9476944079572
 30
0.0
 10
114.2021718086821
 20
-145.8918849635268
 30
0.0
  0
POLYLINE
  5
56
330
1F
100
AcDbEntity
  8
_U+30EC_U+30A4_U+30E4_U+30FC 1
 62
     7
420
 16777215
370
     9
100
AcDb2dPolyline
 66
     1
 10
0.0
 20
0.0
 30
0.0
  0
VERTEX
  5
57
330
56
100
AcDbEntity
  8
_U+30EC_U+30A4_U+30E4_U+30FC 1
 62
     7
420
 16777215
370
     9
100
AcDbVertex
100
AcDb2dVertex
 10
114.1022651445643
 20
-145.8918849635268
 30
0.0
  0
VERTEX
  5
58
330
56
100
AcDbEntity
  8
_U+30EC_U+30A4_U+30E4_U+30FC 1
 62
     7
420
 16777215
370
     9
100
AcDbVertex
100
AcDb2dVertex
 10
114.1022651445643
 20
-105.3920083069853
 30
0.0
  0
SEQEND
  5
59
330
56
100
AcDbEntity
  8
_U+30EC_U+30A4_U+30E4_U+30FC 1
 62
     7
420
 16777215
370
     9
  0
POLYLINE
  5
5A
330
1F
100
AcDbEntity
  8
_U+30EC_U+30A4_U+30E4_U+30FC 1
 62
     7
420
 16777215
370
     9
100
AcDb2dPolyline
 66
     1
 10
0.0
 20
0.0
 30
0.0
  0
VERTEX
  5
5B
330
5A
100
AcDbEntity
  8
_U+30EC_U+30A4_U+30E4_U+30FC 1
 62
     7
420
 16777215
370
     9
100
AcDbVertex
100
AcDb2dVertex
 10
98.10185553103035
 20
-145.8918849635268
 30
0.0
  0
VERTEX
  5
5C
330
5A
100
AcDbEntity
  8
_U+30EC_U+30A4_U+30E4_U+30FC 1
 62
     7
420
 16777215
370
     9
100
AcDbVertex
100
AcDb2dVertex
 10
115.1020020635033
 20
-145.8918849635268
 30
0.0
  0
SEQEND
  5
5D
330
5A
100
AcDbEntity
  8
_U+30EC_U+30A4_U+30E4_U+30FC 1
 62
     7
420
 16777215
370
     9
  0
SPLINE
  5
5E
330
1F
100
AcDbEntity
  8
_U+30EC_U+30A4_U+30E4_U+30FC 1
 62
     7
420
 16777215
370
     9
100
AcDbSpline
210
0.0
220
0.0
230
1.0
 70
    11
 71
     3
 72
    17
 73
    13
 74
     0
 42
0.0000000001
 43
0.0000000001
 12
1.0
 22
0.0
 32
0.0
 13
1.0
 23
0.0
 33
0.0
 40
0.0
 40
0.0
 40
0.0
 40
0.0
 40
1.0
 40
1.0
 40
1.0
 40
2.0
 40
2.0
 40
2.0
 40
3.0
 40
3.0
 40
3.0
 40
4.0
 40
4.0
 40
4.0
 40
4.0
 10
114.2021718086821
 20
-144.3918738527912
 30
0.0
 10
114.2021718086821
 20
-144.3367699639156
 30
0.0
 10
114.1573690320473
 20
-144.2919671861495
 30
0.0
 10
114.1022651445643
 20
-144.2919671861495
 30
0.0
 10
114.0471259793043
 20
-144.2919671861495
 30
0.0
 10
114.0023584804464
 20
-144.3367699639156
 30
0.0
 10
114.0023584804464
 20
-144.3918738527912
 30
0.0
 10
114.0023584804464
 20
-144.4476832972216
 30
0.0
 10
114.0471259793043
 20
-144.4924860749877
 30
0.0
 10
114.1022651445643
 20
-144.4924860749877
 30
0.0
 10
114.1573690320473
 20
-144.4924860749877
 30
0.0
 10
114.2021718086821
 20
-144.4476832972216
 30
0.0
 10
114.2021718086821
 20
-144.3918738527912
 30
0.0
  0
POLYLINE
  5
5F
330
1F
100
AcDbEntity
  8
_U+30EC_U+30A4_U+30E4_U+30FC 1
 62
     7
420
 16777215
370
     9
100
AcDb2dPolyline
 66
     1
 10
0.0
 20
0.0
 30
0.0
  0
VERTEX
  5
60
330
5F
100
AcDbEntity
  8
_U+30EC_U+30A4_U+30E4_U+30FC 1
 62
     7
420
 16777215
370
     9
100
AcDbVertex
100
AcDb2dVertex
 10
98.75195192507226
 20
-144.3918738527912
 30
0.0
  0
VERTEX
  5
61
330
5F
100
AcDbEntity
  8
_U+30EC_U+30A4_U+30E4_U+30FC 1
 62
     7
420
 16777215
370
     9
100
AcDbVertex
100
AcDb2dVertex
 10
115.1020020635033
 20
-144.3918738527912
 30
0.0
  0
SEQEND
  5
62
330
5F
100
AcDbEntity
  8
_U+30EC_U+30A4_U+30E4_U+30FC 1
 62
     7
420
 16777215
370
     9
  0
POLYLINE
  5
63
330
1F
100
AcDbEntity
  8
_U+30EC_U+30A4_U+30E4_U+30FC 1
 62
     7
420
 16777215
370
     9
100
AcDb2dPolyline
 66
     1
 10
0.0
 20
0.0
 30
0.0
  0
VERTEX
  5
64
330
63
100
AcDbEntity
  8
_U+30EC_U+30A4_U+30E4_U+30FC 1
 62
     7
420
 16777215
370
     9
100
AcDbVertex
100
AcDb2dVertex
 10
112.6422237929241
 20
-134.3917880219578
 30
0.0
  0
VERTEX
  5
65
330
63
100
AcDbEntity
  8
_U+30EC_U+30A4_U+30E4_U+30FC 1
 62
     7
420
 16777215
370
     9
100
AcDbVertex
100
AcDb2dVertex
 10
115.1020020635033
 20
-134.3917880219578
 30
0.0
  0
SEQEND
  5
66
330
63
100
AcDbEntity
  8
_U+30EC_U+30A4_U+30E4_U+30FC 1
 62
     7
420
 16777215
370
     9
  0
SPLINE
  5
67
330
1F
100
AcDbEntity
  8
_U+30EC_U+30A4_U+30E4_U+30FC 1
 62
     7
420
 16777215
370
     9
100
AcDbSpline
210
0.0
220
0.0
230
1.0
 70
    11
 71
     3
 72
    17
 73
    13
 74
     0
 42
0.0000000001
 43
0.0000000001
 12
1.0
 22
0.0
 32
0.0
 13
1.0
 23
0.0
 33
0.0
 40
0.0
 40
0.0
 40
0.0
 40
0.0
 40
1.0
 40
1.0
 40
1.0
 40
2.0
 40
2.0
 40
2.0
 40
3.0
 40
3.0
 40
3.0
 40
4.0
 40
4.0
 40
4.0
 40
4.0
 10
114.2021718086821
 20
-133.3920157999853
 30
0.0
 10
114.2021718086821
 20
-133.3369119111104
 30
0.0
 10
114.1573690320473
 20
-133.2921091333437
 30
0.0
 10
114.1022651445643
 20
-133.2921091333437
 30
0.0
 10
114.0471259793043
 20
-133.2921091333437
 30
0.0
 10
114.0023584804464
 20
-133.3369119111104
 30
0.0
 10
114.0023584804464
 20
-133.3920157999853
 30
0.0
 10
114.0023584804464
 20
-133.4478252444157
 30
0.0
 10
114.0471259793043
 20
-133.4926280221825
 30
0.0
 10
114.1022651445643
 20
-133.4926280221825
 30
0.0
 10
114.1573690320473
 20
-133.4926280221825
 30
0.0
 10
114.2021718086821
 20
-133.4478252444157
 30
0.0
 10
114.2021718086821
 20
-133.3920157999853
 30
0.0
  0
POLYLINE
  5
68
330
1F
100
AcDbEntity
  8
_U+30EC_U+30A4_U+30E4_U+30FC 1
 62
     7
420
 16777215
370
     9
100
AcDb2dPolyline
 66
     1
 10
0.0
 20
0.0
 30
0.0
  0
VERTEX
  5
69
330
68
100
AcDbEntity
  8
_U+30EC_U+30A4_U+30E4_U+30FC 1
 62
     7
420
 16777215
370
     9
100
AcDbVertex
100
AcDb2dVertex
 10
112.6422237929241
 20
-133.3920157999853
 30
0.0
  0
VERTEX
  5
6A
330
68
100
AcDbEntity
  8
_U+30EC_U+30A4_U+30E4_U+30FC 1
 62
     7
420
 16777215
370
     9
100
AcDbVertex
100
AcDb2dVertex
 10
115.1020020635033
 20
-133.3920157999853
 30
0.0
  0
SEQEND
  5
6B
330
68
100
AcDbEntity
  8
_U+30EC_U+30A4_U+30E4_U+30FC 1
 62
     7
420
 16777215
370
     9
  0
SPLINE
  5
6C
330
1F
100
AcDbEntity
  8
_U+30EC_U+30A4_U+30E4_U+30FC 1
 62
     7
420
 16777215
370
     9
100
AcDbSpline
210
0.0
220
0.0
230
1.0
 70
    11
 71
     3
 72
    17
 73
    13
 74
     0
 42
0.0000000001
 43
0.0000000001
 12
1.0
 22
0.0
 32
0.0
 13
1.0
 23
0.0
 33
0.0
 40
0.0
 40
0.0
 40
0.0
 40
0.0
 40
1.0
 40
1.0
 40
1.0
 40
2.0
 40
2.0
 40
2.0
 40
3.0
 40
3.0
 40
3.0
 40
4.0
 40
4.0
 40
4.0
 40
4.0
 10
114.2021718086821
 20
-105.3918319180964
 30
0.0
 10
114.2021718086821
 20
-105.3367280292215
 30
0.0
 10
114.1573690320473
 20
-105.2919252514547
 30
0.0
 10
114.1022651445643
 20
-105.2919252514547
 30
0.0
 10
114.0471259793043
 20
-105.2919252514547
 30
0.0
 10
114.0023584804464
 20
-105.3367280292215
 30
0.0
 10
114.0023584804464
 20
-105.3918319180964
 30
0.0
 10
114.0023584804464
 20
-105.4476413625268
 30
0.0
 10
114.0471259793043
 20
-105.4924441402935
 30
0.0
 10
114.1022651445643
 20
-105.4924441402935
 30
0.0
 10
114.1573690320473
 20
-105.4924441402935
 30
0.0
 10
114.2021718086821
 20
-105.4476413625268
 30
0.0
 10
114.2021718086821
 20
-105.3918319180964
 30
0.0
  0
POLYLINE
  5
6D
330
1F
100
AcDbEntity
  8
_U+30EC_U+30A4_U+30E4_U+30FC 1
 62
     7
420
 16777215
370
     9
100
AcDb2dPolyline
 66
     1
 10
0.0
 20
0.0
 30
0.0
  0
VERTEX
  5
6E
330
6D
100
AcDbEntity
  8
_U+30EC_U+30A4_U+30E4_U+30FC 1
 62
     7
420
 16777215
370
     9
100
AcDbVertex
100
AcDb2dVertex
 10
84.63498506300387
 20
-105.3918319180964
 30
0.0
  0
VERTEX
  5
6F
330
6D
100
AcDbEntity
  8
_U+30EC_U+30A4_U+30E4_U+30FC 1
 62
     7
420
 16777215
370
     9
100
AcDbVertex
100
AcDb2dVertex
 10
115.1020020635033
 20
-105.3918319180964
 30
0.0
  0
SEQEND
  5
70
330
6D
100
AcDbEntity
  8
_U+30EC_U+30A4_U+30E4_U+30FC 1
 62
     7
420
 16777215
370
     9
  0
INSERT
  5
72
330
1F
100
AcDbEntity
  8
_U+30EC_U+30A4_U+30E4_U+30FC 1
100
AcDbBlockReference
  2
block 2
 10
0.0
 20
0.0
 30
0.0
  0
INSERT
  5
7B
330
1F
100
AcDbEntity
  8
_U+30EC_U+30A4_U+30E4_U+30FC 1
100
AcDbBlockReference
  2
block 3
 10
0.0
 20
0.0
 30
0.0
  0
INSERT
  5
81
330
1F
100
AcDbEntity
  8
_U+30EC_U+30A4_U+30E4_U+30FC 1
100
AcDbBlockReference
  2
block 4
 10
0.0
 20
0.0
 30
0.0
  0
INSERT
  5
8B
330
1F
100
AcDbEntity
  8
_U+30EC_U+30A4_U+30E4_U+30FC 1
100
AcDbBlockReference
  2
block 5
 10
0.0
 20
0.0
 30
0.0
  0
SPLINE
  5
9A
330
1F
100
AcDbEntity
  8
_U+30EC_U+30A4_U+30E4_U+30FC 1
 62
     7
420
 16777215
370
     9
100
AcDbSpline
210
0.0
220
0.0
230
1.0
 70
    11
 71
     3
 72
    17
 73
    13
 74
     0
 42
0.0000000001
 43
0.0000000001
 12
1.0
 22
0.0
 32
0.0
 13
1.0
 23
0.0
 33
0.0
 40
0.0
 40
0.0
 40
0.0
 40
0.0
 40
1.0
 40
1.0
 40
1.0
 40
2.0
 40
2.0
 40
2.0
 40
3.0
 40
3.0
 40
3.0
 40
4.0
 40
4.0
 40
4.0
 40
4.0
 10
71.2018444266441
 20
-149.8916088514162
 30
0.0
 10
71.2018444266441
 20
-149.8365049625406
 30
0.0
 10
71.15707512907622
 20
-149.7917021847745
 30
0.0
 10
71.10193596381627
 20
-149.7917021847745
 30
0.0
 10
71.0468320763332
 20
-149.7917021847745
 30
0.0
 10
71.00202929969844
 20
-149.8365049625406
 30
0.0
 10
71.00202929969844
 20
-149.8916088514162
 30
0.0
 10
71.00202929969844
 20
-149.9467480180686
 30
0.0
 10
71.0468320763332
 20
-149.9915507958353
 30
0.0
 10
71.10193596381627
 20
-149.9915507958353
 30
0.0
 10
71.15707512907622
 20
-149.9915507958353
 30
0.0
 10
71.2018444266441
 20
-149.9467480180686
 30
0.0
 10
71.2018444266441
 20
-149.8916088514162
 30
0.0
  0
POLYLINE
  5
9B
330
1F
100
AcDbEntity
  8
_U+30EC_U+30A4_U+30E4_U+30FC 1
 62
     7
420
 16777215
370
     9
100
AcDb2dPolyline
 66
     1
 10
0.0
 20
0.0
 30
0.0
  0
VERTEX
  5
9C
330
9B
100
AcDbEntity
  8
_U+30EC_U+30A4_U+30E4_U+30FC 1
 62
     7
420
 16777215
370
     9
100
AcDbVertex
100
AcDb2dVertex
 10
71.10193596381627
 20
-149.8916088514162
 30
0.0
  0
VERTEX
  5
9D
330
9B
100
AcDbEntity
  8
_U+30EC_U+30A4_U+30E4_U+30FC 1
 62
     7
420
 16777215
370
     9
100
AcDbVertex
100
AcDb2dVertex
 10
97.60196942004377
 20
-149.8916088514162
 30
0.0
  0
SEQEND
  5
9E
330
9B
100
AcDbEntity
  8
_U+30EC_U+30A4_U+30E4_U+30FC 1
 62
     7
420
 16777215
370
     9
  0
INSERT
  5
A0
330
1F
100
AcDbEntity
  8
_U+30EC_U+30A4_U+30E4_U+30FC 1
100
AcDbBlockReference
  2
block 6
 10
0.0
 20
0.0
 30
0.0
  0
INSERT
  5
A8
330
1F
100
AcDbEntity
  8
_U+30EC_U+30A4_U+30E4_U+30FC 1
100
AcDbBlockReference
  2
block 7
 10
0.0
 20
0.0
 30
0.0
  0
INSERT
  5
B1
330
1F
100
AcDbEntity
  8
_U+30EC_U+30A4_U+30E4_U+30FC 1
100
AcDbBlockReference
  2
block 8
 10
0.0
 20
0.0
 30
0.0
  0
SPLINE
  5
C0
330
1F
100
AcDbEntity
  8
_U+30EC_U+30A4_U+30E4_U+30FC 1
 62
     7
420
 16777215
370
    25
100
AcDbSpline
210
0.0
220
0.0
230
1.0
 70
    11
 71
     3
 72
    71
 73
    67
 74
     0
 42
0.0000000001
 43
0.0000000001
 12
1.0
 22
0.0
 32
0.0
 13
1.0
 23
0.0
 33
0.0
 40
0.0
 40
0.0
 40
0.0
 40
0.0
 40
1.0
 40
1.0
 40
1.0
 40
2.0
 40
2.0
 40
2.0
 40
3.0
 40
3.0
 40
3.0
 40
4.0
 40
4.0
 40
4.0
 40
5.0
 40
5.0
 40
5.0
 40
6.0
 40
6.0
 40
6.0
 40
7.0
 40
7.0
 40
7.0
 40
8.0
 40
8.0
 40
8.0
 40
9.0
 40
9.0
 40
9.0
 40
10.0
 40
10.0
 40
10.0
 40
11.0
 40
11.0
 40
11.0
 40
12.0
 40
12.0
 40
12.0
 40
13.0
 40
13.0
 40
13.0
 40
14.0
 40
14.0
 40
14.0
 40
15.0
 40
15.0
 40
15.0
 40
16.0
 40
16.0
 40
16.0
 40
17.0
 40
17.0
 40
17.0
 40
18.0
 40
18.0
 40
18.0
 40
19.0
 40
19.0
 40
19.0
 40
20.0
 40
20.0
 40
20.0
 40
21.0
 40
21.0
 40
21.0
 40
22.0
 40
22.0
 40
22.0
 40
22.0
 10
72.60159425889013
 20
-120.8920055253325
 30
0.0
 10
72.60159425889013
 20
-120.8920055253325
 30
0.0
 10
72.60159425889013
 20
-119.3913241368188
 30
0.0
 10
72.60159425889013
 20
-119.3913241368188
 30
0.0
 10
72.60159425889013
 20
-119.3913241368188
 30
0.0
 10
71.10161846382437
 20
-120.8920055253325
 30
0.0
 10
71.10161846382437
 20
-120.8920055253325
 30
0.0
 10
71.10161846382437
 20
-120.8920055253325
 30
0.0
 10
71.10161846382437
 20
-130.8919149672769
 30
0.0
 10
71.10161846382437
 20
-130.8919149672769
 30
0.0
 10
71.10161846382437
 20
-130.8919149672769
 30
0.0
 10
71.10193596381627
 20
-130.8919149672769
 30
0.0
 10
71.10193596381627
 20
-130.8919149672769
 30
0.0
 10
71.10193596381627
 20
-139.1763366318728
 30
0.0
 10
77.8178016258136
 20
-145.8918849635268
 30
0.0
 10
86.10190558113516
 20
-145.8918849635268
 30
0.0
 10
86.10190558113516
 20
-145.8918849635268
 30
0.0
 10
96.10163838157628
 20
-145.8918849635268
 30
0.0
 10
96.10163838157628
 20
-145.8918849635268
 30
0.0
 10
96.10163838157628
 20
-145.8918849635268
 30
0.0
 10
97.60196942004377
 20
-144.3918738527912
 30
0.0
 10
97.60196942004377
 20
-144.3918738527912
 30
0.0
 10
97.60196942004377
 20
-144.3918738527912
 30
0.0
 10
96.10163838157628
 20
-144.3918738527912
 30
0.0
 10
96.10163838157628
 20
-144.3918738527912
 30
0.0
 10
96.10163838157628
 20
-144.3918738527912
 30
0.0
 10
95.60175228321833
 20
-144.8917599637771
 30
0.0
 10
95.60175228321833
 20
-144.8917599637771
 30
0.0
 10
95.60175228321833
 20
-144.8917599637771
 30
0.0
 10
86.10190558113516
 20
-144.8917599637771
 30
0.0
 10
86.10190558113516
 20
-144.8917599637771
 30
0.0
 10
82.42045789727894
 20
-144.8917599637771
 30
0.0
 10
79.07252631602512
 20
-143.4685838530218
 30
0.0
 10
76.57344860200413
 20
-141.1448719091582
 30
0.0
 10
76.57344860200413
 20
-141.1448719091582
 30
0.0
 10
83.3265323186075
 20
-134.3917880219578
 30
0.0
 10
83.3265323186075
 20
-134.3917880219578
 30
0.0
 10
83.3265323186075
 20
-134.3917880219578
 30
0.0
 10
111.601811597245
 20
-134.3917880219578
 30
0.0
 10
111.601811597245
 20
-134.3917880219578
 30
0.0
 10
111.601811597245
 20
-134.3917880219578
 30
0.0
 10
111.601811597245
 20
-133.358960522216
 30
0.0
 10
111.601811597245
 20
-133.358960522216
 30
0.0
 10
111.601811597245
 20
-133.358960522216
 30
0.0
 10
83.63521286628796
 20
-133.358960522216
 30
0.0
 10
83.63521286628796
 20
-133.358960522216
 30
0.0
 10
83.63521286628796
 20
-133.358960522216
 30
0.0
 10
83.63521286628796
 20
-105.3920083069853
 30
0.0
 10
83.63521286628796
 20
-105.3920083069853
 30
0.0
 10
83.63521286628796
 20
-105.3920083069853
 30
0.0
 10
82.60167983710002
 20
-105.3920083069853
 30
0.0
 10
82.60167983710002
 20
-105.3920083069853
 30
0.0
 10
82.60167983710002
 20
-105.3920083069853
 30
0.0
 10
82.60167983710002
 20
-133.7020721887966
 30
0.0
 10
82.60167983710002
 20
-133.7020721887966
 30
0.0
 10
82.60167983710002
 20
-133.7020721887966
 30
0.0
 10
75.865811675613
 20
-140.4382932982239
 30
0.0
 10
75.865811675613
 20
-140.4382932982239
 30
0.0
 10
73.53211617959498
 20
-137.9371341321822
 30
0.0
 10
72.10170816053218
 20
-134.582323299688
 30
0.0
 10
72.10170816053218
 20
-130.8915974672773
 30
0.0
 10
72.10170816053218
 20
-130.8915974672773
 30
0.0
 10
72.10170816053218
 20
-121.3920680252076
 30
0.0
 10
72.10170816053218
 20
-121.3920680252076
 30
0.0
 10
72.10170816053218
 20
-121.3920680252076
 30
0.0
 10
72.60159425889013
 20
-120.8920055253325
 30
0.0
 10
72.60159425889013
 20
-120.8920055253325
 30
0.0
  0
INSERT
  5
C2
330
1F
100
AcDbEntity
  8
_U+30EC_U+30A4_U+30E4_U+30FC 1
100
AcDbBlockReference
  2
block 9
 10
0.0
 20
0.0
 30
0.0
  0
POLYLINE
  5
CC
330
1F
100
AcDbEntity
  8
_U+30EC_U+30A4_U+30E4_U+30FC 1
 62
     7
420
 16777215
370
     9
100
AcDb2dPolyline
 66
     1
 10
0.0
 20
0.0
 30
0.0
  0
VERTEX
  5
CD
330
CC
100
AcDbEntity
  8
_U+30EC_U+30A4_U+30E4_U+30FC 1
 62
     7
420
 16777215
370
     9
100
AcDbVertex
100
AcDb2dVertex
 10
68.30384381297932
 20
-148.6899771850494
 30
0.0
  0
VERTEX
  5
CE
330
CC
100
AcDbEntity
  8
_U+30EC_U+30A4_U+30E4_U+30FC 1
 62
     7
420
 16777215
370
     9
100
AcDbVertex
100
AcDb2dVertex
 10
75.11203331455539
 20
-141.8831652423071
 30
0.0
  0
SEQEND
  5
CF
330
CC
100
AcDbEntity
  8
_U+30EC_U+30A4_U+30E4_U+30FC 1
 62
     7
420
 16777215
370
     9
  0
POLYLINE
  5
D0
330
1F
100
AcDbEntity
  8
_U+30EC_U+30A4_U+30E4_U+30FC 1
 62
     7
420
 16777215
370
     9
100
AcDb2dPolyline
 66
     1
 10
0.0
 20
0.0
 30
0.0
  0
VERTEX
  5
D1
330
D0
100
AcDbEntity
  8
_U+30EC_U+30A4_U+30E4_U+30FC 1
 62
     7
420
 16777215
370
     9
100
AcDbVertex
100
AcDb2dVertex
 10
75.11203331455539
 20
-141.8831652423071
 30
0.0
  0
VERTEX
  5
D2
330
D0
100
AcDbEntity
  8
_U+30EC_U+30A4_U+30E4_U+30FC 1
 62
     7
420
 16777215
370
     9
100
AcDbVertex
100
AcDb2dVertex
 10
74.1997833847836
 20
-142.3895777421803
 30
0.0
  0
SEQEND
  5
D3
330
D0
100
AcDbEntity
  8
_U+30EC_U+30A4_U+30E4_U+30FC 1
 62
     7
420
 16777215
370
     9
  0
POLYLINE
  5
D4
330
1F
100
AcDbEntity
  8
_U+30EC_U+30A4_U+30E4_U+30FC 1
 62
     7
420
 16777215
370
     9
100
AcDb2dPolyline
 66
     1
 10
0.0
 20
0.0
 30
0.0
  0
VERTEX
  5
D5
330
D4
100
AcDbEntity
  8
_U+30EC_U+30A4_U+30E4_U+30FC 1
 62
     7
420
 16777215
370
     9
100
AcDbVertex
100
AcDb2dVertex
 10
75.11203331455539
 20
-141.8831652423071
 30
0.0
  0
VERTEX
  5
D6
330
D4
100
AcDbEntity
  8
_U+30EC_U+30A4_U+30E4_U+30FC 1
 62
     7
420
 16777215
370
     9
100
AcDbVertex
100
AcDb2dVertex
 10
74.57460976410987
 20
-142.777174686528
 30
0.0
  0
SEQEND
  5
D7
330
D4
100
AcDbEntity
  8
_U+30EC_U+30A4_U+30E4_U+30FC 1
 62
     7
420
 16777215
370
     9
  0
ENDSEC
  0
SECTION
  2
OBJECTS
  0
DICTIONARY
  5
C
330
0
100
AcDbDictionary
281
     1
  3
ACAD_GROUP
350
D
  3
ACAD_LAYOUT
350
1A
  3
ACAD_MATERIAL
350
3B
  3
ACAD_MLEADERSTYLE
350
D9
  3
ACAD_MLINESTYLE
350
17
  3
ACAD_PLOTSETTINGS
350
19
  3
ACAD_PLOTSTYLENAME
350
E
  3
ACAD_TABLESTYLE
350
D8
  3
ACAD_VISUALSTYLE
350
2A
  0
SUN
  5
3F
330
29
100
AcDbSun
 90
        1
290
     0
 63
     7
421
 16777215
 40
1.0
291
     1
 91
  2455826
 92
 54000000
292
     0
 70
     2
 71
   256
280
     1
  0
DICTIONARY
  5
D
102
{ACAD_REACTORS
330
C
102
}
330
C
100
AcDbDictionary
281
     1
  0
DICTIONARY
  5
1A
102
{ACAD_REACTORS
330
C
102
}
330
C
100
AcDbDictionary
281
     1
  3
Layout1
350
1E
  3
Layout2
350
26
  3
Model
350
22
  0
DICTIONARY
  5
3B
102
{ACAD_REACTORS
330
C
102
}
330
C
100
AcDbDictionary
281
     1
  3
ByBlock
350
3D
  3
ByLayer
350
3C
  3
Global
350
3E
  0
DICTIONARY
  5
D9
102
{ACAD_REACTORS
330
C
102
}
330
C
100
AcDbDictionary
281
     1
  0
DICTIONARY
  5
17
102
{ACAD_REACTORS
330
C
102
}
330
C
100
AcDbDictionary
281
     1
  3
Standard
350
18
  0
DICTIONARY
  5
19
102
{ACAD_REACTORS
330
C
102
}
330
C
100
AcDbDictionary
281
     1
  0
ACDBDICTIONARYWDFLT
  5
E
102
{ACAD_REACTORS
330
C
102
}
330
C
100
AcDbDictionary
281
     1
  3
Normal
350
F
100
AcDbDictionaryWithDefault
340
F
  0
DICTIONARY
  5
D8
102
{ACAD_REACTORS
330
C
102
}
330
C
100
AcDbDictionary
281
     1
  0
DICTIONARY
  5
2A
102
{ACAD_REACTORS
330
C
102
}
330
C
100
AcDbDictionary
281
     1
  3
2dWireframe
350
2F
  3
3D Hidden
350
31
  3
3dWireframe
350
30
  3
Basic
350
32
  3
Brighten
350
36
  3
ColorChange
350
3A
  3
Conceptual
350
34
  3
Dim
350
35
  3
Facepattern
350
39
  3
Flat
350
2B
  3
FlatWithEdges
350
2C
  3
Gouraud
350
2D
  3
GouraudWithEdges
350
2E
  3
Linepattern
350
38
  3
Realistic
350
33
  3
Thicken
350
37
  0
LAYOUT
  5
1E
102
{ACAD_REACTORS
330
1A
102
}
330
1A
100
AcDbPlotSettings
  1

  2
none_device
  4

  6

 40
0.0
 41
0.0
 42
0.0
 43
0.0
 44
0.0
 45
0.0
 46
0.0
 47
0.0
 48
0.0
 49
0.0
140
0.0
141
0.0
142
1.0
143
1.0
 70
   688
 72
     0
 73
     0
 74
     5
  7

 75
    16
 76
     0
 77
     2
 78
   300
147
1.0
148
0.0
149
0.0
100
AcDbLayout
  1
Layout1
 70
     1
 71
     1
 10
0.0
 20
0.0
 11
12.0
 21
9.0
 12
0.0
 22
0.0
 32
0.0
 14
1.000000000000000E+20
 24
1.000000000000000E+20
 34
1.000000000000000E+20
 15
-1.000000000000000E+20
 25
-1.000000000000000E+20
 35
-1.000000000000000E+20
146
0.0
 13
0.0
 23
0.0
 33
0.0
 16
1.0
 26
0.0
 36
0.0
 17
0.0
 27
1.0
 37
0.0
 76
     0
330
1B
  0
LAYOUT
  5
26
102
{ACAD_REACTORS
330
1A
102
}
330
1A
100
AcDbPlotSettings
  1

  2
none_device
  4

  6

 40
0.0
 41
0.0
 42
0.0
 43
0.0
 44
0.0
 45
0.0
 46
0.0
 47
0.0
 48
0.0
 49
0.0
140
0.0
141
0.0
142
1.0
143
1.0
 70
   688
 72
     0
 73
     0
 74
     5
  7

 75
    16
 76
     0
 77
     2
 78
   300
147
1.0
148
0.0
149
0.0
100
AcDbLayout
  1
Layout2
 70
     1
 71
     2
 10
0.0
 20
0.0
 11
0.0
 21
0.0
 12
0.0
 22
0.0
 32
0.0
 14
0.0
 24
0.0
 34
0.0
 15
0.0
 25
0.0
 35
0.0
146
0.0
 13
0.0
 23
0.0
 33
0.0
 16
1.0
 26
0.0
 36
0.0
 17
0.0
 27
1.0
 37
0.0
 76
     0
330
23
  0
LAYOUT
  5
22
102
{ACAD_REACTORS
330
1A
102
}
330
1A
100
AcDbPlotSettings
  1

  2
none_device
  4

  6

 40
0.0
 41
0.0
 42
0.0
 43
0.0
 44
0.0
 45
0.0
 46
0.0
 47
0.0
 48
0.0
 49
0.0
140
0.0
141
0.0
142
1.0
143
1.0
 70
  1712
 72
     0
 73
     0
 74
     0
  7

 75
     0
 76
     0
 77
     2
 78
   300
147
1.0
148
0.0
149
0.0
100
AcDbLayout
  1
Model
 70
     1
 71
     0
 10
0.0
 20
0.0
 11
12.0
 21
9.0
 12
0.0
 22
0.0
 32
0.0
 14
1.000000000000000E+20
 24
1.000000000000000E+20
 34
1.000000000000000E+20
 15
-1.000000000000000E+20
 25
-1.000000000000000E+20
 35
-1.000000000000000E+20
146
0.0
 13
0.0
 23
0.0
 33
0.0
 16
1.0
 26
0.0
 36
0.0
 17
0.0
 27
1.0
 37
0.0
 76
     0
330
1F
331
29
  0
MATERIAL
  5
3D
102
{ACAD_REACTORS
330
3B
102
}
330
3B
100
AcDbMaterial
  1
ByBlock
 72
     1
 94
      127
  0
MATERIAL
  5
3C
102
{ACAD_REACTORS
330
3B
102
}
330
3B
100
AcDbMaterial
  1
ByLayer
 72
     1
 94
      127
  0
MATERIAL
  5
3E
102
{ACAD_REACTORS
330
3B
102
}
330
3B
100
AcDbMaterial
  1
Global
 72
     1
 94
      127
  0
MLINESTYLE
  5
18
102
{ACAD_REACTORS
330
17
102
}
330
17
100
AcDbMlineStyle
  2
Standard
 70
     0
  3

 62
   256
 51
90.0
 52
90.0
 71
     2
 49
0.5
 62
   256
  6
BYLAYER
 49
-0.5
 62
   256
  6
BYLAYER
  0
ACDBPLACEHOLDER
  5
F
102
{ACAD_REACTORS
330
E
102
}
330
E
  0
VISUALSTYLE
  5
2F
102
{ACAD_REACTORS
330
2A
102
}
330
2A
100
AcDbVisualStyle
  2
2dWireframe
 70
     4
177
     2
291
     0
 71
     0
176
     1
 72
     2
176
     1
 73
     0
176
     1
 90
        0
176
     1
 40
-0.6
176
     1
 41
-30.0
176
     1
 62
     5
 63
     7
421
 16777215
176
     1
 74
     1
176
     1
 91
        4
176
     1
 64
     7
176
     1
 65
   257
176
     1
 75
     1
176
     1
175
     1
176
     1
 42
1.0
176
     1
 92
        0
176
     1
 66
   257
176
     1
 43
1.0
176
     1
 76
     1
176
     1
 77
     6
176
     1
 78
     2
176
     1
 67
     7
176
     1
 79
     5
176
     1
170
     0
176
     1
171
     0
176
     1
290
     0
176
     1
 93
        1
176
     1
 44
0.0
176
     1
173
     0
176
     1
  0
VISUALSTYLE
  5
31
102
{ACAD_REACTORS
330
2A
102
}
330
2A
100
AcDbVisualStyle
  2
3D Hidden
 70
     6
177
     2
291
     0
 71
     1
176
     1
 72
     2
176
     1
 73
     2
176
     1
 90
        0
176
     1
 40
-0.6
176
     1
 41
-30.0
176
     1
 62
     5
 63
     7
421
 16777215
176
     1
 74
     2
176
     1
 91
        2
176
     1
 64
     7
176
     1
 65
   257
176
     1
 75
     2
176
     1
175
     1
176
     1
 42
40.0
176
     1
 92
        0
176
     1
 66
   257
176
     1
 43
1.0
176
     1
 76
     1
176
     1
 77
     6
176
     1
 78
     2
176
     1
 67
     7
176
     1
 79
     3
176
     1
170
     0
176
     1
171
     0
176
     1
290
     0
176
     1
 93
        1
176
     1
 44
0.0
176
     1
173
     0
176
     1
  0
VISUALSTYLE
  5
30
102
{ACAD_REACTORS
330
2A
102
}
330
2A
100
AcDbVisualStyle
  2
3dWireframe
 70
     5
177
     2
291
     0
 71
     0
176
     1
 72
     2
176
     1
 73
     0
176
     1
 90
        0
176
     1
 40
-0.6
176
     1
 41
-30.0
176
     1
 62
     5
 63
     7
421
 16777215
176
     1
 74
     1
176
     1
 91
        4
176
     1
 64
     7
176
     1
 65
   257
176
     1
 75
     1
176
     1
175
     1
176
     1
 42
1.0
176
     1
 92
        0
176
     1
 66
   257
176
     1
 43
1.0
176
     1
 76
     1
176
     1
 77
     6
176
     1
 78
     2
176
     1
 67
     7
176
     1
 79
     5
176
     1
170
     0
176
     1
171
     0
176
     1
290
     0
176
     1
 93
        1
176
     1
 44
0.0
176
     1
173
     0
176
     1
  0
VISUALSTYLE
  5
32
102
{ACAD_REACTORS
330
2A
102
}
330
2A
100
AcDbVisualStyle
  2
Basic
 70
     7
177
     2
291
     1
 71
     1
176
     1
 72
     0
176
     1
 73
     1
176
     1
 90
        0
176
     1
 40
-0.6
176
     1
 41
-30.0
176
     1
 62
     5
 63
     7
421
 16777215
176
     1
 74
     0
176
     1
 91
        4
176
     1
 64
     7
176
     1
 65
   257
176
     1
 75
     1
176
     1
175
     1
176
     1
 42
1.0
176
     1
 92
        8
176
     1
 66
     7
176
     1
 43
1.0
176
     1
 76
     1
176
     1
 77
     6
176
     1
 78
     2
176
     1
 67
     7
176
     1
 79
     5
176
     1
170
     0
176
     1
171
     0
176
     1
290
     0
176
     1
 93
        1
176
     1
 44
0.0
176
     1
173
     0
176
     1
  0
VISUALSTYLE
  5
36
102
{ACAD_REACTORS
330
2A
102
}
330
2A
100
AcDbVisualStyle
  2
Brighten
 70
    12
177
     2
291
     1
 71
     2
176
     1
 72
     2
176
     1
 73
     0
176
     1
 90
        0
176
     1
 40
-0.6
176
     1
 41
-30.0
176
     1
 62
     5
 63
     7
421
 16777215
176
     1
 74
     1
176
     1
 91
        4
176
     1
 64
     7
176
     1
 65
   257
176
     1
 75
     1
176
     1
175
     1
176
     1
 42
1.0
176
     1
 92
        8
176
     1
 66
     7
176
     1
 43
1.0
176
     1
 76
     1
176
     1
 77
     6
176
     1
 78
     2
176
     1
 67
     7
176
     1
 79
     5
176
     1
170
     0
176
     1
171
     0
176
     1
290
     0
176
     1
 93
        1
176
     1
 44
50.0
176
     1
173
     0
176
     1
  0
VISUALSTYLE
  5
3A
102
{ACAD_REACTORS
330
2A
102
}
330
2A
100
AcDbVisualStyle
  2
ColorChange
 70
    16
177
     2
291
     1
 71
     2
176
     1
 72
     2
176
     1
 73
     3
176
     1
 90
        0
176
     1
 40
-0.6
176
     1
 41
-30.0
176
     1
 62
     5
 63
     8
421
  8421504
176
     1
 74
     1
176
     1
 91
        4
176
     1
 64
     7
176
     1
 65
   257
176
     1
 75
     1
176
     1
175
     1
176
     1
 42
1.0
176
     1
 92
        8
176
     1
 66
     8
424
  8421504
176
     1
 43
1.0
176
     1
 76
     1
176
     1
 77
     6
176
     1
 78
     2
176
     1
 67
     7
176
     1
 79
     5
176
     1
170
     0
176
     1
171
     0
176
     1
290
     0
176
     1
 93
        1
176
     1
 44
0.0
176
     1
173
     0
176
     1
  0
VISUALSTYLE
  5
34
102
{ACAD_REACTORS
330
2A
102
}
330
2A
100
AcDbVisualStyle
  2
Conceptual
 70
     9
177
     2
291
     0
 71
     3
176
     1
 72
     2
176
     1
 73
     0
176
     1
 90
        0
176
     1
 40
-0.6
176
     1
 41
-30.0
176
     1
 62
     5
 63
     7
421
 16777215
176
     1
 74
     2
176
     1
 91
        2
176
     1
 64
     7
176
     1
 65
   257
176
     1
 75
     1
176
     1
175
     1
176
     1
 42
40.0
176
     1
 92
        8
176
     1
 66
     7
176
     1
 43
1.0
176
     1
 76
     1
176
     1
 77
     6
176
     1
 78
     2
176
     1
 67
     7
176
     1
 79
     3
176
     1
170
     0
176
     1
171
     0
176
     1
290
     0
176
     1
 93
        1
176
     1
 44
0.0
176
     1
173
     0
176
     1
  0
VISUALSTYLE
  5
35
102
{ACAD_REACTORS
330
2A
102
}
330
2A
100
AcDbVisualStyle
  2
Dim
 70
    11
177
     2
291
     1
 71
     2
176
     1
 72
     2
176
     1
 73
     0
176
     1
 90
        0
176
     1
 40
-0.6
176
     1
 41
-30.0
176
     1
 62
     5
 63
     7
421
 16777215
176
     1
 74
     1
176
     1
 91
        4
176
     1
 64
     7
176
     1
 65
   257
176
     1
 75
     1
176
     1
175
     1
176
     1
 42
1.0
176
     1
 92
        8
176
     1
 66
     7
176
     1
 43
1.0
176
     1
 76
     1
176
     1
 77
     6
176
     1
 78
     2
176
     1
 67
     7
176
     1
 79
     5
176
     1
170
     0
176
     1
171
     0
176
     1
290
     0
176
     1
 93
        1
176
     1
 44
-50.0
176
     1
173
     0
176
     1
  0
VISUALSTYLE
  5
39
102
{ACAD_REACTORS
330
2A
102
}
330
2A
100
AcDbVisualStyle
  2
Facepattern
 70
    15
177
     2
291
     1
 71
     2
176
     1
 72
     2
176
     1
 73
     0
176
     1
 90
        0
176
     1
 40
-0.6
176
     1
 41
-30.0
176
     1
 62
     5
 63
     7
421
 16777215
176
     1
 74
     1
176
     1
 91
        4
176
     1
 64
     7
176
     1
 65
   257
176
     1
 75
     1
176
     1
175
     1
176
     1
 42
1.0
176
     1
 92
        8
176
     1
 66
     7
176
     1
 43
1.0
176
     1
 76
     1
176
     1
 77
     6
176
     1
 78
     2
176
     1
 67
     7
176
     1
 79
     5
176
     1
170
     0
176
     1
171
     0
176
     1
290
     0
176
     1
 93
        1
176
     1
 44
0.0
176
     1
173
     0
176
     1
  0
VISUALSTYLE
  5
2B
102
{ACAD_REACTORS
330
2A
102
}
330
2A
100
AcDbVisualStyle
  2
Flat
 70
     0
177
     2
291
     1
 71
     2
176
     1
 72
     1
176
     1
 73
     1
176
     1
 90
        2
176
     1
 40
-0.6
176
     1
 41
30.0
176
     1
 62
     5
 63
     7
421
 16777215
176
     1
 74
     0
176
     1
 91
        4
176
     1
 64
     7
176
     1
 65
   257
176
     1
 75
     1
176
     1
175
     1
176
     1
 42
1.0
176
     1
 92
        8
176
     1
 66
     7
176
     1
 43
1.0
176
     1
 76
     1
176
     1
 77
     6
176
     1
 78
     2
176
     1
 67
     7
176
     1
 79
     5
176
     1
170
     0
176
     1
171
     0
176
     1
290
     0
176
     1
 93
       13
176
     1
 44
0.0
176
     1
173
     0
176
     1
  0
VISUALSTYLE
  5
2C
102
{ACAD_REACTORS
330
2A
102
}
330
2A
100
AcDbVisualStyle
  2
FlatWithEdges
 70
     1
177
     2
291
     1
 71
     2
176
     1
 72
     1
176
     1
 73
     1
176
     1
 90
        2
176
     1
 40
-0.6
176
     1
 41
30.0
176
     1
 62
     5
 63
     7
421
 16777215
176
     1
 74
     1
176
     1
 91
        4
176
     1
 64
     7
176
     1
 65
   257
176
     1
 75
     1
176
     1
175
     1
176
     1
 42
1.0
176
     1
 92
        0
176
     1
 66
   257
176
     1
 43
1.0
176
     1
 76
     1
176
     1
 77
     6
176
     1
 78
     2
176
     1
 67
     7
176
     1
 79
     5
176
     1
170
     0
176
     1
171
     0
176
     1
290
     0
176
     1
 93
       13
176
     1
 44
0.0
176
     1
173
     0
176
     1
  0
VISUALSTYLE
  5
2D
102
{ACAD_REACTORS
330
2A
102
}
330
2A
100
AcDbVisualStyle
  2
Gouraud
 70
     2
177
     2
291
     1
 71
     2
176
     1
 72
     2
176
     1
 73
     1
176
     1
 90
        2
176
     1
 40
-0.6
176
     1
 41
30.0
176
     1
 62
     5
 63
     7
421
 16777215
176
     1
 74
     0
176
     1
 91
        4
176
     1
 64
     7
176
     1
 65
   257
176
     1
 75
     1
176
     1
175
     1
176
     1
 42
1.0
176
     1
 92
        0
176
     1
 66
     7
176
     1
 43
1.0
176
     1
 76
     1
176
     1
 77
     6
176
     1
 78
     2
176
     1
 67
     7
176
     1
 79
     5
176
     1
170
     0
176
     1
171
     0
176
     1
290
     0
176
     1
 93
       13
176
     1
 44
0.0
176
     1
173
     0
176
     1
  0
VISUALSTYLE
  5
2E
102
{ACAD_REACTORS
330
2A
102
}
330
2A
100
AcDbVisualStyle
  2
GouraudWithEdges
 70
     3
177
     2
291
     1
 71
     2
176
     1
 72
     2
176
     1
 73
     1
176
     1
 90
        2
176
     1
 40
-0.6
176
     1
 41
30.0
176
     1
 62
     5
 63
     7
421
 16777215
176
     1
 74
     1
176
     1
 91
        4
176
     1
 64
     7
176
     1
 65
   257
176
     1
 75
     1
176
     1
175
     1
176
     1
 42
1.0
176
     1
 92
        0
176
     1
 66
   257
176
     1
 43
1.0
176
     1
 76
     1
176
     1
 77
     6
176
     1
 78
     2
176
     1
 67
     7
176
     1
 79
     5
176
     1
170
     0
176
     1
171
     0
176
     1
290
     0
176
     1
 93
       13
176
     1
 44
0.0
176
     1
173
     0
176
     1
  0
VISUALSTYLE
  5
38
102
{ACAD_REACTORS
330
2A
102
}
330
2A
100
AcDbVisualStyle
  2
Linepattern
 70
    14
177
     2
291
     1
 71
     2
176
     1
 72
     2
176
     1
 73
     0
176
     1
 90
        0
176
     1
 40
-0.6
176
     1
 41
-30.0
176
     1
 62
     5
 63
     7
421
 16777215
176
     1
 74
     1
176
     1
 91
        4
176
     1
 64
     7
176
     1
 65
   257
176
     1
 75
     7
176
     1
175
     7
176
     1
 42
1.0
176
     1
 92
        8
176
     1
 66
     7
176
     1
 43
1.0
176
     1
 76
     1
176
     1
 77
     6
176
     1
 78
     2
176
     1
 67
     7
176
     1
 79
     5
176
     1
170
     0
176
     1
171
     0
176
     1
290
     0
176
     1
 93
        1
176
     1
 44
0.0
176
     1
173
     0
176
     1
  0
VISUALSTYLE
  5
33
102
{ACAD_REACTORS
330
2A
102
}
330
2A
100
AcDbVisualStyle
  2
Realistic
 70
     8
177
     2
291
     0
 71
     2
176
     1
 72
     2
176
     1
 73
     0
176
     1
 90
        0
176
     1
 40
-0.6
176
     1
 41
-30.0
176
     1
 62
     5
 63
     7
421
 16777215
176
     1
 74
     1
176
     1
 91
        0
176
     1
 64
     7
176
     1
 65
   257
176
     1
 75
     1
176
     1
175
     1
176
     1
 42
1.0
176
     1
 92
        8
176
     1
 66
     8
424
  7895160
176
     1
 43
1.0
176
     1
 76
     1
176
     1
 77
     6
176
     1
 78
     2
176
     1
 67
     7
176
     1
 79
     5
176
     1
170
     0
176
     1
171
     0
176
     1
290
     0
176
     1
 93
       13
176
     1
 44
0.0
176
     1
173
     0
176
     1
  0
VISUALSTYLE
  5
37
102
{ACAD_REACTORS
330
2A
102
}
330
2A
100
AcDbVisualStyle
  2
Thicken
 70
    13
177
     2
291
     1
 71
     2
176
     1
 72
     2
176
     1
 73
     0
176
     1
 90
        0
176
     1
 40
-0.6
176
     1
 41
-30.0
176
     1
 62
     5
 63
     7
421
 16777215
176
     1
 74
     1
176
     1
 91
        4
176
     1
 64
     7
176
     1
 65
   257
176
     1
 75
     1
176
     1
175
     1
176
     1
 42
1.0
176
     1
 92
       12
176
     1
 66
     7
176
     1
 43
1.0
176
     1
 76
     1
176
     1
 77
     6
176
     1
 78
     2
176
     1
 67
     7
176
     1
 79
     5
176
     1
170
     0
176
     1
171
     0
176
     1
290
     0
176
     1
 93
        1
176
     1
 44
0.0
176
     1
173
     0
176
     1
  0
ENDSEC
  0
EOF
