  0
SECTION
  2
HEADER
  9
$ACADVER
  1
AC1024
  9
$ACADMAINTVER
 70
     6
  9
$DWGCODEPAGE
  3
UNDEFINED
  9
$INSBASE
 10
0.0
 20
0.0
 30
0.0
  9
$EXTMIN
 10
1.000000000000000E+20
 20
1.000000000000000E+20
 30
1.000000000000000E+20
  9
$EXTMAX
 10
-1.000000000000000E+20
 20
-1.000000000000000E+20
 30
-1.000000000000000E+20
  9
$LIMMIN
 10
0.0
 20
0.0
  9
$LIMMAX
 10
12.0
 20
9.0
  9
$ORTHOMODE
 70
     0
  9
$REGENMODE
 70
     1
  9
$FILLMODE
 70
     1
  9
$QTEXTMODE
 70
     0
  9
$MIRRTEXT
 70
     1
  9
$LTSCALE
 40
1.0
  9
$ATTMODE
 70
     1
  9
$TEXTSIZE
 40
0.2
  9
$TRACEWID
 40
0.05
  9
$TEXTSTYLE
  7
Standard
  9
$CLAYER
  8
0
  9
$CELTYPE
  6
ByLayer
  9
$CECOLOR
 62
   256
  9
$CELTSCALE
 40
1.0
  9
$DISPSILH
 70
     0
  9
$DIMSCALE
 40
1.0
  9
$DIMASZ
 40
0.18
  9
$DIMEXO
 40
0.0625
  9
$DIMDLI
 40
0.38
  9
$DIMRND
 40
0.0
  9
$DIMDLE
 40
0.0
  9
$DIMEXE
 40
0.18
  9
$DIMTP
 40
0.0
  9
$DIMTM
 40
0.0
  9
$DIMTXT
 40
0.18
  9
$DIMCEN
 40
0.09
  9
$DIMTSZ
 40
0.0
  9
$DIMTOL
 70
     0
  9
$DIMLIM
 70
     0
  9
$DIMTIH
 70
     1
  9
$DIMTOH
 70
     1
  9
$DIMSE1
 70
     0
  9
$DIMSE2
 70
     0
  9
$DIMTAD
 70
     0
  9
$DIMZIN
 70
     0
  9
$DIMBLK
  1

  9
$DIMASO
 70
     1
  9
$DIMSHO
 70
     1
  9
$DIMPOST
  1

  9
$DIMAPOST
  1

  9
$DIMALT
 70
     0
  9
$DIMALTD
 70
     2
  9
$DIMALTF
 40
25.4
  9
$DIMLFAC
 40
1.0
  9
$DIMTOFL
 70
     0
  9
$DIMTVP
 40
0.0
  9
$DIMTIX
 70
     0
  9
$DIMSOXD
 70
     0
  9
$DIMSAH
 70
     0
  9
$DIMBLK1
  1

  9
$DIMBLK2
  1

  9
$DIMSTYLE
  2
Standard
  9
$DIMCLRD
 70
     0
  9
$DIMCLRE
 70
     0
  9
$DIMCLRT
 70
     0
  9
$DIMTFAC
 40
1.0
  9
$DIMGAP
 40
0.09
  9
$DIMJUST
 70
     0
  9
$DIMSD1
 70
     0
  9
$DIMSD2
 70
     0
  9
$DIMTOLJ
 70
     1
  9
$DIMTZIN
 70
     0
  9
$DIMALTZ
 70
     0
  9
$DIMALTTZ
 70
     0
  9
$DIMUPT
 70
     0
  9
$DIMDEC
 70
     4
  9
$DIMTDEC
 70
     4
  9
$DIMALTU
 70
     2
  9
$DIMALTTD
 70
     2
  9
$DIMTXSTY
  7
Standard
  9
$DIMAUNIT
 70
     0
  9
$DIMADEC
 70
     0
  9
$DIMALTRND
 40
0.0
  9
$DIMAZIN
 70
     0
  9
$DIMDSEP
 70
    46
  9
$DIMATFIT
 70
     3
  9
$DIMFRAC
 70
     0
  9
$DIMLDRBLK
  1

  9
$DIMLUNIT
 70
     2
  9
$DIMLWD
 70
    -2
  9
$DIMLWE
 70
    -2
  9
$DIMTMOVE
 70
     0
  9
$DIMFXL
 40
1.0
  9
$DIMFXLON
 70
     0
  9
$DIMJOGANG
 40
0.7853981633974483
  9
$DIMTFILL
 70
     0
  9
$DIMTFILLCLR
 70
     0
  9
$DIMARCSYM
 70
     0
  9
$DIMLTYPE
  6

  9
$DIMLTEX1
  6

  9
$DIMLTEX2
  6

  9
$DIMTXTDIRECTION
 70
     0
  9
$LUNITS
 70
     2
  9
$LUPREC
 70
     4
  9
$SKETCHINC
 40
0.1
  9
$FILLETRAD
 40
0.5
  9
$AUNITS
 70
     0
  9
$AUPREC
 70
     0
  9
$MENU
  1
.
  9
$ELEVATION
 40
0.0
  9
$PELEVATION
 40
0.0
  9
$THICKNESS
 40
0.0
  9
$LIMCHECK
 70
     0
  9
$CHAMFERA
 40
0.5
  9
$CHAMFERB
 40
0.5
  9
$CHAMFERC
 40
1.0
  9
$CHAMFERD
 40
0.0
  9
$SKPOLY
 70
     0
  9
$TDCREATE
 40
2457917.594699062
  9
$TDUCREATE
 40
2457917.219699074
  9
$TDUPDATE
 40
2457917.594699062
  9
$TDUUPDATE
 40
2457917.219699074
  9
$TDINDWG
 40
0.0000000116
  9
$TDUSRTIMER
 40
0.0000000116
  9
$USRTIMER
 70
     1
  9
$ANGBASE
 50
0.0
  9
$ANGDIR
 70
     0
  9
$PDMODE
 70
     0
  9
$PDSIZE
 40
0.0
  9
$PLINEWID
 40
0.0
  9
$SPLFRAME
 70
     0
  9
$SPLINETYPE
 70
     6
  9
$SPLINESEGS
 70
     8
  9
$HANDSEED
  5
113
  9
$SURFTAB1
 70
     6
  9
$SURFTAB2
 70
     6
  9
$SURFTYPE
 70
     6
  9
$SURFU
 70
     6
  9
$SURFV
 70
     6
  9
$UCSBASE
  2

  9
$UCSNAME
  2

  9
$UCSORG
 10
0.0
 20
0.0
 30
0.0
  9
$UCSXDIR
 10
1.0
 20
0.0
 30
0.0
  9
$UCSYDIR
 10
0.0
 20
1.0
 30
0.0
  9
$UCSORTHOREF
  2

  9
$UCSORTHOVIEW
 70
     0
  9
$UCSORGTOP
 10
0.0
 20
0.0
 30
0.0
  9
$UCSORGBOTTOM
 10
0.0
 20
0.0
 30
0.0
  9
$UCSORGLEFT
 10
0.0
 20
0.0
 30
0.0
  9
$UCSORGRIGHT
 10
0.0
 20
0.0
 30
0.0
  9
$UCSORGFRONT
 10
0.0
 20
0.0
 30
0.0
  9
$UCSORGBACK
 10
0.0
 20
0.0
 30
0.0
  9
$PUCSBASE
  2

  9
$PUCSNAME
  2

  9
$PUCSORG
 10
0.0
 20
0.0
 30
0.0
  9
$PUCSXDIR
 10
1.0
 20
0.0
 30
0.0
  9
$PUCSYDIR
 10
0.0
 20
1.0
 30
0.0
  9
$PUCSORTHOREF
  2

  9
$PUCSORTHOVIEW
 70
     0
  9
$PUCSORGTOP
 10
0.0
 20
0.0
 30
0.0
  9
$PUCSORGBOTTOM
 10
0.0
 20
0.0
 30
0.0
  9
$PUCSORGLEFT
 10
0.0
 20
0.0
 30
0.0
  9
$PUCSORGRIGHT
 10
0.0
 20
0.0
 30
0.0
  9
$PUCSORGFRONT
 10
0.0
 20
0.0
 30
0.0
  9
$PUCSORGBACK
 10
0.0
 20
0.0
 30
0.0
  9
$USERI1
 70
     0
  9
$USERI2
 70
     0
  9
$USERI3
 70
     0
  9
$USERI4
 70
     0
  9
$USERI5
 70
     0
  9
$USERR1
 40
0.0
  9
$USERR2
 40
0.0
  9
$USERR3
 40
0.0
  9
$USERR4
 40
0.0
  9
$USERR5
 40
0.0
  9
$WORLDVIEW
 70
     1
  9
$SHADEDGE
 70
     3
  9
$SHADEDIF
 70
    70
  9
$TILEMODE
 70
     1
  9
$MAXACTVP
 70
    64
  9
$PINSBASE
 10
0.0
 20
0.0
 30
0.0
  9
$PLIMCHECK
 70
     0
  9
$PEXTMIN
 10
1.000000000000000E+20
 20
1.000000000000000E+20
 30
1.000000000000000E+20
  9
$PEXTMAX
 10
-1.000000000000000E+20
 20
-1.000000000000000E+20
 30
-1.000000000000000E+20
  9
$PLIMMIN
 10
0.0
 20
0.0
  9
$PLIMMAX
 10
12.0
 20
9.0
  9
$UNITMODE
 70
     0
  9
$VISRETAIN
 70
     1
  9
$PLINEGEN
 70
     0
  9
$PSLTSCALE
 70
     1
  9
$TREEDEPTH
 70
  3020
  9
$CMLSTYLE
  2
Standard
  9
$CMLJUST
 70
     0
  9
$CMLSCALE
 40
1.0
  9
$PROXYGRAPHICS
 70
     1
  9
$MEASUREMENT
 70
     0
  9
$CELWEIGHT
370
    -1
  9
$ENDCAPS
280
     0
  9
$JOINSTYLE
280
     0
  9
$LWDISPLAY
290
     1
  9
$INSUNITS
 70
     1
  9
$HYPERLINKBASE
  1

  9
$STYLESHEET
  1

  9
$XEDIT
290
     1
  9
$CEPSNTYPE
380
     0
  9
$PSTYLEMODE
290
     1
  9
$FINGERPRINTGUID
  2
{F8717FBF-2F22-7DC8-61F6-F4076D730C40}
  9
$VERSIONGUID
  2
{FAEB1C32-E019-11D5-929B-00C0DF256EC4}
  9
$EXTNAMES
290
     1
  9
$PSVPSCALE
 40
0.0
  9
$OLESTARTUP
290
     0
  9
$SORTENTS
280
   127
  9
$INDEXCTL
280
     0
  9
$HIDETEXT
280
     1
  9
$XCLIPFRAME
280
     2
  9
$HALOGAP
280
     0
  9
$OBSCOLOR
 70
   257
  9
$OBSLTYPE
280
     0
  9
$INTERSECTIONDISPLAY
280
     0
  9
$INTERSECTIONCOLOR
 70
   257
  9
$DIMASSOC
280
     2
  9
$PROJECTNAME
  1

  9
$CAMERADISPLAY
290
     0
  9
$LENSLENGTH
 40
50.0
  9
$CAMERAHEIGHT
 40
0.0
  9
$STEPSPERSEC
 40
2.0
  9
$STEPSIZE
 40
6.0
  9
$3DDWFPREC
 40
2.0
  9
$PSOLWIDTH
 40
0.25
  9
$PSOLHEIGHT
 40
4.0
  9
$LOFTANG1
 40
1.570796326794897
  9
$LOFTANG2
 40
1.570796326794897
  9
$LOFTMAG1
 40
0.0
  9
$LOFTMAG2
 40
0.0
  9
$LOFTPARAM
 70
     7
  9
$LOFTNORMALS
280
     1
  9
$LATITUDE
 40
37.795
  9
$LONGITUDE
 40
-122.394
  9
$NORTHDIRECTION
 40
0.0
  9
$TIMEZONE
 70
 -8000
  9
$LIGHTGLYPHDISPLAY
280
     1
  9
$TILEMODELIGHTSYNCH
280
     1
  9
$CMATERIAL
347
3C
  9
$SOLIDHIST
280
     1
  9
$SHOWHIST
280
     1
  9
$DWFFRAME
280
     2
  9
$DGNFRAME
280
     2
  9
$REALWORLDSCALE
290
     1
  9
$INTERFERECOLOR
 62
   256
  9
$CSHADOW
280
     0
  9
$SHADOWPLANELOCATION
 40
0.0
  0
ENDSEC
  0
SECTION
  2
CLASSES
  0
CLASS
  1
ACDBDICTIONARYWDFLT
  2
AcDbDictionaryWithDefault
  3
ObjectDBX Classes
 90
        0
 91
        4
280
     0
281
     0
  0
CLASS
  1
VISUALSTYLE
  2
AcDbVisualStyle
  3
ObjectDBX Classes
 90
     4095
 91
        4
280
     0
281
     0
  0
CLASS
  1
MATERIAL
  2
AcDbMaterial
  3
ObjectDBX Classes
 90
     1153
 91
        4
280
     0
281
     0
  0
CLASS
  1
SUN
  2
AcDbSun
  3
SCENEOE
 90
     1024
 91
        4
280
     0
281
     0
  0
ENDSEC
  0
SECTION
  2
TABLES
  0
TABLE
  2
VPORT
  5
8
330
0
100
AcDbSymbolTable
 70
     1
  0
VPORT
  5
29
330
8
100
AcDbSymbolTableRecord
100
AcDbViewportTableRecord
  2
*Active
 70
     0
 10
0.0
 20
0.0
 11
1.0
 21
1.0
 12
0.0
 22
0.0
 13
0.0
 23
0.0
 14
0.5
 24
0.5
 15
0.5
 25
0.5
 16
0.0
 26
0.0
 36
1.0
 17
91.00082462281999
 27
-128.4993055234307
 37
0.0
 40
256.9986110468615
 41
0.7081814508812795
 42
50.0
 43
0.0
 44
0.0
 50
0.0
 51
0.0
 71
     0
 72
   100
 73
     1
 74
     3
 75
     0
 76
     0
 77
     0
 78
     0
281
     0
 65
     1
110
0.0
120
0.0
130
0.0
111
1.0
121
0.0
131
0.0
112
0.0
122
1.0
132
0.0
 79
     0
146
0.0
 60
     3
 61
     5
292
     1
282
     1
141
0.0
142
0.0
 63
   250
361
3F
  0
ENDTAB
  0
TABLE
  2
LTYPE
  5
5
330
0
100
AcDbSymbolTable
 70
     1
  0
LTYPE
  5
14
330
5
100
AcDbSymbolTableRecord
100
AcDbLinetypeTableRecord
  2
ByBlock
 70
     0
  3

 72
    65
 73
     0
 40
0.0
  0
LTYPE
  5
15
330
5
100
AcDbSymbolTableRecord
100
AcDbLinetypeTableRecord
  2
ByLayer
 70
     0
  3

 72
    65
 73
     0
 40
0.0
  0
LTYPE
  5
16
330
5
100
AcDbSymbolTableRecord
100
AcDbLinetypeTableRecord
  2
Continuous
 70
     0
  3
Solid line
 72
    65
 73
     0
 40
0.0
  0
ENDTAB
  0
TABLE
  2
LAYER
  5
2
330
0
100
AcDbSymbolTable
 70
     2
  0
LAYER
  5
10
330
2
100
AcDbSymbolTableRecord
100
AcDbLayerTableRecord
  2
0
 70
     0
 62
     7
  6
Continuous
370
    -3
390
F
347
3E
  0
LAYER
  5
40
330
2
100
AcDbSymbolTableRecord
100
AcDbLayerTableRecord
  2
_U+30EC_U+30A4_U+30E4_U+30FC 1
 70
     0
 62
     7
  6
Continuous
370
    -3
390
F
347
3E
  0
ENDTAB
  0
TABLE
  2
STYLE
  5
3
330
0
100
AcDbSymbolTable
 70
     1
  0
STYLE
  5
11
330
3
100
AcDbSymbolTableRecord
100
AcDbTextStyleTableRecord
  2
Standard
 70
     0
 40
0.0
 41
1.0
 50
0.0
 71
     0
 42
0.2
  3
txt
  4

  0
ENDTAB
  0
TABLE
  2
VIEW
  5
6
330
0
100
AcDbSymbolTable
 70
     0
  0
ENDTAB
  0
TABLE
  2
UCS
  5
7
330
0
100
AcDbSymbolTable
 70
     0
  0
ENDTAB
  0
TABLE
  2
APPID
  5
9
330
0
100
AcDbSymbolTable
 70
     1
  0
APPID
  5
12
330
9
100
AcDbSymbolTableRecord
100
AcDbRegAppTableRecord
  2
ACAD
 70
     0
  0
ENDTAB
  0
TABLE
  2
DIMSTYLE
  5
A
330
0
100
AcDbSymbolTable
 70
     1
100
AcDbDimStyleTable
  0
DIMSTYLE
105
27
330
A
100
AcDbSymbolTableRecord
100
AcDbDimStyleTableRecord
  2
Standard
 70
     0
178
     0
340
11
  0
ENDTAB
  0
TABLE
  2
BLOCK_RECORD
  5
1
330
0
100
AcDbSymbolTable
 70
     7
  0
BLOCK_RECORD
  5
1F
330
1
100
AcDbSymbolTableRecord
100
AcDbBlockTableRecord
  2
*Model_Space
340
22
 70
     0
280
     1
281
     0
  0
BLOCK_RECORD
  5
1B
330
1
100
AcDbSymbolTableRecord
100
AcDbBlockTableRecord
  2
*Paper_Space
340
1E
 70
     0
280
     1
281
     0
  0
BLOCK_RECORD
  5
23
330
1
100
AcDbSymbolTableRecord
100
AcDbBlockTableRecord
  2
*Paper_Space0
340
26
 70
     0
280
     1
281
     0
  0
BLOCK_RECORD
  5
94
330
1
100
AcDbSymbolTableRecord
100
AcDbBlockTableRecord
  2
block 2
340
0
102
{BLKREFS
331
95
102
}
 70
     0
280
     1
281
     0
  0
BLOCK_RECORD
  5
B1
330
1
100
AcDbSymbolTableRecord
100
AcDbBlockTableRecord
  2
block 3
340
0
102
{BLKREFS
331
B2
102
}
 70
     0
280
     1
281
     0
  0
BLOCK_RECORD
  5
C5
330
1
100
AcDbSymbolTableRecord
100
AcDbBlockTableRecord
  2
block 4
340
0
102
{BLKREFS
331
C6
102
}
 70
     0
280
     1
281
     0
  0
BLOCK_RECORD
  5
D9
330
1
100
AcDbSymbolTableRecord
100
AcDbBlockTableRecord
  2
block 5
340
0
102
{BLKREFS
331
DA
102
}
 70
     0
280
     1
281
     0
  0
BLOCK_RECORD
  5
F9
330
1
100
AcDbSymbolTableRecord
100
AcDbBlockTableRecord
  2
block 6
340
0
102
{BLKREFS
331
FA
102
}
 70
     0
280
     1
281
     0
  0
BLOCK_RECORD
  5
10B
330
1
100
AcDbSymbolTableRecord
100
AcDbBlockTableRecord
  2
block 7
340
0
102
{BLKREFS
331
10C
102
}
 70
     0
280
     1
281
     0
  0
ENDTAB
  0
ENDSEC
  0
SECTION
  2
BLOCKS
  0
BLOCK
  5
20
330
1F
100
AcDbEntity
  8
0
100
AcDbBlockBegin
  2
*Model_Space
 70
     0
 10
0.0
 20
0.0
 30
0.0
  3
*Model_Space
  1

  0
ENDBLK
  5
21
330
1F
100
AcDbEntity
  8
0
100
AcDbBlockEnd
  0
BLOCK
  5
1C
330
1B
100
AcDbEntity
 67
     1
  8
0
100
AcDbBlockBegin
  2
*Paper_Space
 70
     0
 10
0.0
 20
0.0
 30
0.0
  3
*Paper_Space
  1

  0
ENDBLK
  5
1D
330
1B
100
AcDbEntity
 67
     1
  8
0
100
AcDbBlockEnd
  0
BLOCK
  5
24
330
23
100
AcDbEntity
  8
0
100
AcDbBlockBegin
  2
*Paper_Space0
 70
     0
 10
0.0
 20
0.0
 30
0.0
  3
*Paper_Space0
  1

  0
ENDBLK
  5
25
330
23
100
AcDbEntity
  8
0
100
AcDbBlockEnd
  0
BLOCK
  5
96
330
94
100
AcDbEntity
  8
0
100
AcDbBlockBegin
  2
block 2
 70
     0
 10
0.0
 20
0.0
 30
0.0
  3
block 2
  1

  0
SPLINE
  5
98
330
94
100
AcDbEntity
  8
_U+30EC_U+30A4_U+30E4_U+30FC 1
370
     0
100
AcDbSpline
210
0.0
220
0.0
230
1.0
 70
    11
 71
     3
 72
    29
 73
    25
 74
     0
 42
0.0000000001
 43
0.0000000001
 12
1.0
 22
0.0
 32
0.0
 13
1.0
 23
0.0
 33
0.0
 40
0.0
 40
0.0
 40
0.0
 40
0.0
 40
1.0
 40
1.0
 40
1.0
 40
2.0
 40
2.0
 40
2.0
 40
3.0
 40
3.0
 40
3.0
 40
4.0
 40
4.0
 40
4.0
 40
5.0
 40
5.0
 40
5.0
 40
6.0
 40
6.0
 40
6.0
 40
7.0
 40
7.0
 40
7.0
 40
8.0
 40
8.0
 40
8.0
 40
8.0
 10
105.5904540751649
 20
-132.1411159608883
 30
0.0
 10
105.7999158806681
 20
-132.2565266596442
 30
0.0
 10
105.8188639058369
 20
-132.4418727967507
 30
0.0
 10
105.8188639058369
 20
-132.5662407437682
 30
0.0
 10
105.8188639058369
 20
-132.7378064989336
 30
0.0
 10
105.7723551167861
 20
-132.8893907002846
 30
0.0
 10
105.5904540751649
 20
-132.9910210170995
 30
0.0
 10
105.3958061802483
 20
-133.1019530917245
 30
0.0
 10
105.1591281204116
 20
-133.1222791550875
 30
0.0
 10
104.9961751039593
 20
-133.1222791550875
 30
0.0
 10
104.8521701126759
 20
-133.1222791550875
 30
0.0
 10
104.6003336327041
 20
-133.1043646585642
 30
0.0
 10
104.4015516232052
 20
-132.9910210170995
 30
0.0
 10
104.198635499124
 20
-132.8759548278921
 30
0.0
 10
104.1752088498243
 20
-132.7040445631782
 30
0.0
 10
104.1752088498243
 20
-132.5662407437682
 30
0.0
 10
104.1752088498243
 20
-132.3963975363453
 30
0.0
 10
104.219650581584
 20
-132.2427462777032
 30
0.0
 10
104.4015516232052
 20
-132.1411159608883
 30
0.0
 10
104.5941324608306
 20
-132.0346625103941
 30
0.0
 10
104.8225422915027
 20
-132.0098578229003
 30
0.0
 10
104.9961751039593
 20
-132.0098578229003
 30
0.0
 10
105.1673963495762
 20
-132.0098578229003
 30
0.0
 10
105.3978732375394
 20
-132.032595453103
 30
0.0
 10
105.5904540751649
 20
-132.1411159608883
 30
0.0
  0
SPLINE
  5
99
330
94
100
AcDbEntity
  8
_U+30EC_U+30A4_U+30E4_U+30FC 1
370
     0
100
AcDbSpline
210
0.0
220
0.0
230
1.0
 70
    11
 71
     3
 72
    17
 73
    13
 74
     0
 42
0.0000000001
 43
0.0000000001
 12
1.0
 22
0.0
 32
0.0
 13
1.0
 23
0.0
 33
0.0
 40
0.0
 40
0.0
 40
0.0
 40
0.0
 40
1.0
 40
1.0
 40
1.0
 40
2.0
 40
2.0
 40
2.0
 40
3.0
 40
3.0
 40
3.0
 40
4.0
 40
4.0
 40
4.0
 40
4.0
 10
104.3677896874497
 20
-132.5662407437682
 30
0.0
 10
104.3677896874497
 20
-132.8328911343265
 30
0.0
 10
104.6513210458858
 20
-132.8825005093141
 30
0.0
 10
104.9961751039593
 20
-132.8825005093141
 30
0.0
 10
105.315535455442
 20
-132.8825005093141
 30
0.0
 10
105.6242160109203
 20
-132.8442599494278
 30
0.0
 10
105.6242160109203
 20
-132.5662407437682
 30
0.0
 10
105.6242160109203
 20
-132.301657410501
 30
0.0
 10
105.343096219324
 20
-132.2496364686737
 30
0.0
 10
104.9961751039593
 20
-132.2496364686737
 30
0.0
 10
104.6764702429281
 20
-132.2496364686737
 30
0.0
 10
104.3677896874497
 20
-132.2902885953997
 30
0.0
 10
104.3677896874497
 20
-132.5662407437682
 30
0.0
  0
HATCH
  5
9A
330
94
100
AcDbEntity
  8
_U+30EC_U+30A4_U+30E4_U+30FC 1
 62
   179
420
  2234388
100
AcDbHatch
 10
0.0
 20
0.0
 30
0.0
210
0.0
220
0.0
230
1.0
  2
SOLID
 70
     1
 71
     0
 91
        2
 92
        1
 93
        1
 72
     4
 94
        3
 73
     0
 74
     1
 95
       29
 96
       25
 40
0.0
 40
0.0
 40
0.0
 40
0.0
 40
1.0
 40
1.0
 40
1.0
 40
2.0
 40
2.0
 40
2.0
 40
3.0
 40
3.0
 40
3.0
 40
4.0
 40
4.0
 40
4.0
 40
5.0
 40
5.0
 40
5.0
 40
6.0
 40
6.0
 40
6.0
 40
7.0
 40
7.0
 40
7.0
 40
8.0
 40
8.0
 40
8.0
 40
8.0
 10
105.5904540751649
 20
-132.1411159608883
 10
105.7999158806681
 20
-132.2565266596442
 10
105.8188639058369
 20
-132.4418727967507
 10
105.8188639058369
 20
-132.5662407437682
 10
105.8188639058369
 20
-132.7378064989336
 10
105.7723551167861
 20
-132.8893907002846
 10
105.5904540751649
 20
-132.9910210170995
 10
105.3958061802483
 20
-133.1019530917245
 10
105.1591281204116
 20
-133.1222791550875
 10
104.9961751039593
 20
-133.1222791550875
 10
104.8521701126759
 20
-133.1222791550875
 10
104.6003336327041
 20
-133.1043646585642
 10
104.4015516232052
 20
-132.9910210170995
 10
104.198635499124
 20
-132.8759548278921
 10
104.1752088498243
 20
-132.7040445631782
 10
104.1752088498243
 20
-132.5662407437682
 10
104.1752088498243
 20
-132.3963975363453
 10
104.219650581584
 20
-132.2427462777032
 10
104.4015516232052
 20
-132.1411159608883
 10
104.5941324608306
 20
-132.0346625103941
 10
104.8225422915027
 20
-132.0098578229003
 10
104.9961751039593
 20
-132.0098578229003
 10
105.1673963495762
 20
-132.0098578229003
 10
105.3978732375394
 20
-132.032595453103
 10
105.5904540751649
 20
-132.1411159608883
 97
        0
 97
        0
 92
        1
 93
        1
 72
     4
 94
        3
 73
     0
 74
     1
 95
       17
 96
       13
 40
0.0
 40
0.0
 40
0.0
 40
0.0
 40
1.0
 40
1.0
 40
1.0
 40
2.0
 40
2.0
 40
2.0
 40
3.0
 40
3.0
 40
3.0
 40
4.0
 40
4.0
 40
4.0
 40
4.0
 10
104.3677896874497
 20
-132.5662407437682
 10
104.3677896874497
 20
-132.8328911343265
 10
104.6513210458858
 20
-132.8825005093141
 10
104.9961751039593
 20
-132.8825005093141
 10
105.315535455442
 20
-132.8825005093141
 10
105.6242160109203
 20
-132.8442599494278
 10
105.6242160109203
 20
-132.5662407437682
 10
105.6242160109203
 20
-132.301657410501
 10
105.343096219324
 20
-132.2496364686737
 10
104.9961751039593
 20
-132.2496364686737
 10
104.6764702429281
 20
-132.2496364686737
 10
104.3677896874497
 20
-132.2902885953997
 10
104.3677896874497
 20
-132.5662407437682
 97
        0
 97
        0
 75
     2
 76
     1
 98
        0
  0
POLYLINE
  5
9B
330
94
100
AcDbEntity
  8
_U+30EC_U+30A4_U+30E4_U+30FC 1
370
     0
100
AcDb2dPolyline
 66
     1
 10
0.0
 20
0.0
 30
0.0
  0
VERTEX
  5
9C
330
9B
100
AcDbEntity
  8
_U+30EC_U+30A4_U+30E4_U+30FC 1
370
     0
100
AcDbVertex
100
AcDb2dVertex
 10
105.7682210022038
 20
-131.7786919158401
 30
0.0
  0
VERTEX
  5
9D
330
9B
100
AcDbEntity
  8
_U+30EC_U+30A4_U+30E4_U+30FC 1
370
     0
100
AcDbVertex
100
AcDb2dVertex
 10
105.516384522232
 20
-131.7786919158401
 30
0.0
  0
VERTEX
  5
9E
330
9B
100
AcDbEntity
  8
_U+30EC_U+30A4_U+30E4_U+30FC 1
370
     0
100
AcDbVertex
100
AcDb2dVertex
 10
105.516384522232
 20
-131.509629958442
 30
0.0
  0
VERTEX
  5
9F
330
9B
100
AcDbEntity
  8
_U+30EC_U+30A4_U+30E4_U+30FC 1
370
     0
100
AcDbVertex
100
AcDb2dVertex
 10
105.7682210022038
 20
-131.509629958442
 30
0.0
  0
VERTEX
  5
A0
330
9B
100
AcDbEntity
  8
_U+30EC_U+30A4_U+30E4_U+30FC 1
370
     0
100
AcDbVertex
100
AcDb2dVertex
 10
105.7682210022038
 20
-131.7786919158401
 30
0.0
  0
SEQEND
  5
A1
330
9B
100
AcDbEntity
  8
_U+30EC_U+30A4_U+30E4_U+30FC 1
370
     0
  0
HATCH
  5
A2
330
94
100
AcDbEntity
  8
_U+30EC_U+30A4_U+30E4_U+30FC 1
 62
   179
420
  2234388
100
AcDbHatch
 10
0.0
 20
0.0
 30
0.0
210
0.0
220
0.0
230
1.0
  2
SOLID
 70
     1
 71
     0
 91
        1
 92
        1
 93
        4
 72
     1
 10
105.7682210022038
 20
-131.7786919158401
 11
105.516384522232
 21
-131.7786919158401
 72
     1
 10
105.516384522232
 20
-131.7786919158401
 11
105.516384522232
 21
-131.509629958442
 72
     1
 10
105.516384522232
 20
-131.509629958442
 11
105.7682210022038
 21
-131.509629958442
 72
     1
 10
105.7682210022038
 20
-131.509629958442
 11
105.7682210022038
 21
-131.7786919158401
 97
        0
 75
     2
 76
     1
 98
        0
  0
SPLINE
  5
A3
330
94
100
AcDbEntity
  8
_U+30EC_U+30A4_U+30E4_U+30FC 1
370
     0
100
AcDbSpline
210
0.0
220
0.0
230
1.0
 70
    11
 71
     3
 72
    26
 73
    22
 74
     0
 42
0.0000000001
 43
0.0000000001
 12
1.0
 22
0.0
 32
0.0
 13
1.0
 23
0.0
 33
0.0
 40
0.0
 40
0.0
 40
0.0
 40
0.0
 40
1.0
 40
1.0
 40
1.0
 40
2.0
 40
2.0
 40
2.0
 40
3.0
 40
3.0
 40
3.0
 40
4.0
 40
4.0
 40
4.0
 40
5.0
 40
5.0
 40
5.0
 40
6.0
 40
6.0
 40
6.0
 40
7.0
 40
7.0
 40
7.0
 40
7.0
 10
105.7682210022038
 20
-130.8171657659068
 30
0.0
 10
105.7682210022038
 20
-130.8171657659068
 30
0.0
 10
105.7682210022038
 20
-131.0703802840727
 30
0.0
 10
105.7682210022038
 20
-131.0703802840727
 30
0.0
 10
105.4591959371769
 20
-131.0435085392877
 30
0.0
 10
104.9410535761953
 20
-130.8374918292698
 30
0.0
 10
104.4353135589606
 20
-130.4034097981283
 30
0.0
 10
104.4353135589606
 20
-130.4034097981283
 30
0.0
 10
104.4353135589606
 20
-131.2987901147447
 30
0.0
 10
104.4353135589606
 20
-131.2987901147447
 30
0.0
 10
104.4353135589606
 20
-131.2987901147447
 30
0.0
 10
104.2237846961663
 20
-131.2987901147447
 30
0.0
 10
104.2237846961663
 20
-131.2987901147447
 30
0.0
 10
104.2237846961663
 20
-131.2987901147447
 30
0.0
 10
104.2237846961663
 20
-130.1501952799624
 30
0.0
 10
104.2237846961663
 20
-130.1501952799624
 30
0.0
 10
104.2237846961663
 20
-130.1501952799624
 30
0.0
 10
104.4353135589606
 20
-130.1501952799624
 30
0.0
 10
104.4353135589606
 20
-130.1501952799624
 30
0.0
 10
104.7253905988187
 20
-130.4960828666815
 30
0.0
 10
105.3176025127331
 20
-130.7809922633117
 30
0.0
 10
105.7682210022038
 20
-130.8171657659068
 30
0.0
  0
HATCH
  5
A4
330
94
100
AcDbEntity
  8
_U+30EC_U+30A4_U+30E4_U+30FC 1
 62
   179
420
  2234388
100
AcDbHatch
 10
0.0
 20
0.0
 30
0.0
210
0.0
220
0.0
230
1.0
  2
SOLID
 70
     1
 71
     0
 91
        1
 92
        1
 93
        1
 72
     4
 94
        3
 73
     0
 74
     1
 95
       26
 96
       22
 40
0.0
 40
0.0
 40
0.0
 40
0.0
 40
1.0
 40
1.0
 40
1.0
 40
2.0
 40
2.0
 40
2.0
 40
3.0
 40
3.0
 40
3.0
 40
4.0
 40
4.0
 40
4.0
 40
5.0
 40
5.0
 40
5.0
 40
6.0
 40
6.0
 40
6.0
 40
7.0
 40
7.0
 40
7.0
 40
7.0
 10
105.7682210022038
 20
-130.8171657659068
 10
105.7682210022038
 20
-130.8171657659068
 10
105.7682210022038
 20
-131.0703802840727
 10
105.7682210022038
 20
-131.0703802840727
 10
105.4591959371769
 20
-131.0435085392877
 10
104.9410535761953
 20
-130.8374918292698
 10
104.4353135589606
 20
-130.4034097981283
 10
104.4353135589606
 20
-130.4034097981283
 10
104.4353135589606
 20
-131.2987901147447
 10
104.4353135589606
 20
-131.2987901147447
 10
104.4353135589606
 20
-131.2987901147447
 10
104.2237846961663
 20
-131.2987901147447
 10
104.2237846961663
 20
-131.2987901147447
 10
104.2237846961663
 20
-131.2987901147447
 10
104.2237846961663
 20
-130.1501952799624
 10
104.2237846961663
 20
-130.1501952799624
 10
104.2237846961663
 20
-130.1501952799624
 10
104.4353135589606
 20
-130.1501952799624
 10
104.4353135589606
 20
-130.1501952799624
 10
104.7253905988187
 20
-130.4960828666815
 10
105.3176025127331
 20
-130.7809922633117
 10
105.7682210022038
 20
-130.8171657659068
 97
        0
 97
        0
 75
     2
 76
     1
 98
        0
  0
ENDBLK
  5
97
330
94
100
AcDbEntity
  8
0
100
AcDbBlockEnd
  0
BLOCK
  5
B3
330
B1
100
AcDbEntity
  8
0
100
AcDbBlockBegin
  2
block 3
 70
     0
 10
0.0
 20
0.0
 30
0.0
  3
block 3
  1

  0
SPLINE
  5
B5
330
B1
100
AcDbEntity
  8
_U+30EC_U+30A4_U+30E4_U+30FC 1
370
     0
100
AcDbSpline
210
0.0
220
0.0
230
1.0
 70
    11
 71
     3
 72
    44
 73
    40
 74
     0
 42
0.0000000001
 43
0.0000000001
 12
1.0
 22
0.0
 32
0.0
 13
1.0
 23
0.0
 33
0.0
 40
0.0
 40
0.0
 40
0.0
 40
0.0
 40
1.0
 40
1.0
 40
1.0
 40
2.0
 40
2.0
 40
2.0
 40
3.0
 40
3.0
 40
3.0
 40
4.0
 40
4.0
 40
4.0
 40
5.0
 40
5.0
 40
5.0
 40
6.0
 40
6.0
 40
6.0
 40
7.0
 40
7.0
 40
7.0
 40
8.0
 40
8.0
 40
8.0
 40
9.0
 40
9.0
 40
9.0
 40
10.0
 40
10.0
 40
10.0
 40
11.0
 40
11.0
 40
11.0
 40
12.0
 40
12.0
 40
12.0
 40
13.0
 40
13.0
 40
13.0
 40
13.0
 10
91.69190535902148
 20
-134.4348605349677
 30
0.0
 10
91.45901690421859
 20
-134.5936794368377
 30
0.0
 10
91.35962589946912
 20
-134.6677489897706
 30
0.0
 10
91.30760495764186
 20
-134.8114094715055
 30
0.0
 10
91.30760495764186
 20
-134.8114094715055
 30
0.0
 10
92.13976777210395
 20
-134.8114094715055
 30
0.0
 10
92.13976777210395
 20
-134.8114094715055
 30
0.0
 10
92.13976777210395
 20
-134.8114094715055
 30
0.0
 10
92.13976777210395
 20
-135.0167371624264
 30
0.0
 10
92.13976777210395
 20
-135.0167371624264
 30
0.0
 10
92.13976777210395
 20
-135.0167371624264
 30
0.0
 10
91.04095456708352
 20
-135.0167371624264
 30
0.0
 10
91.04095456708352
 20
-135.0167371624264
 30
0.0
 10
91.0750610123875
 20
-134.6591362510574
 30
0.0
 10
91.14499645073806
 20
-134.5809325835423
 30
0.0
 10
91.55616859690262
 20
-134.2825873145196
 30
0.0
 10
91.82970917843147
 20
-134.0838053050207
 30
0.0
 10
91.89998912633057
 20
-134.0159369239613
 30
0.0
 10
91.89998912633057
 20
-133.8784776140998
 30
0.0
 10
91.89998912633057
 20
-133.7599663294072
 30
0.0
 10
91.82316349700949
 20
-133.6290527009677
 30
0.0
 10
91.61266816286073
 20
-133.6290527009677
 30
0.0
 10
91.33482121197532
 20
-133.6290527009677
 30
0.0
 10
91.32586396371367
 20
-133.859529588931
 30
0.0
 10
91.32138533958285
 20
-133.9759738163324
 30
0.0
 10
91.32138533958285
 20
-133.9759738163324
 30
0.0
 10
91.08160669380946
 20
-133.9759738163324
 30
0.0
 10
91.08160669380946
 20
-133.9759738163324
 30
0.0
 10
91.09056394207111
 20
-133.8488497929267
 30
0.0
 10
91.10193275717243
 20
-133.7368841896561
 30
0.0
 10
91.18806014430368
 20
-133.6183729049635
 30
0.0
 10
91.3055379003507
 20
-133.4574869458023
 30
0.0
 10
91.50414765507536
 20
-133.4237250100469
 30
0.0
 10
91.62851560209288
 20
-133.4237250100469
 30
0.0
 10
91.92479381382437
 20
-133.4237250100469
 30
0.0
 10
92.14631345352592
 20
-133.6076931089592
 30
0.0
 10
92.14631345352592
 20
-133.880544671391
 30
0.0
 10
92.14631345352592
 20
-134.1092990116116
 30
0.0
 10
92.0219455065084
 20
-134.2085177615868
 30
0.0
 10
91.69190535902148
 20
-134.4348605349677
 30
0.0
  0
HATCH
  5
B6
330
B1
100
AcDbEntity
  8
_U+30EC_U+30A4_U+30E4_U+30FC 1
 62
   179
420
  2234388
100
AcDbHatch
 10
0.0
 20
0.0
 30
0.0
210
0.0
220
0.0
230
1.0
  2
SOLID
 70
     1
 71
     0
 91
        1
 92
        1
 93
        1
 72
     4
 94
        3
 73
     0
 74
     1
 95
       44
 96
       40
 40
0.0
 40
0.0
 40
0.0
 40
0.0
 40
1.0
 40
1.0
 40
1.0
 40
2.0
 40
2.0
 40
2.0
 40
3.0
 40
3.0
 40
3.0
 40
4.0
 40
4.0
 40
4.0
 40
5.0
 40
5.0
 40
5.0
 40
6.0
 40
6.0
 40
6.0
 40
7.0
 40
7.0
 40
7.0
 40
8.0
 40
8.0
 40
8.0
 40
9.0
 40
9.0
 40
9.0
 40
10.0
 40
10.0
 40
10.0
 40
11.0
 40
11.0
 40
11.0
 40
12.0
 40
12.0
 40
12.0
 40
13.0
 40
13.0
 40
13.0
 40
13.0
 10
91.69190535902148
 20
-134.4348605349677
 10
91.45901690421859
 20
-134.5936794368377
 10
91.35962589946912
 20
-134.6677489897706
 10
91.30760495764186
 20
-134.8114094715055
 10
91.30760495764186
 20
-134.8114094715055
 10
92.13976777210395
 20
-134.8114094715055
 10
92.13976777210395
 20
-134.8114094715055
 10
92.13976777210395
 20
-134.8114094715055
 10
92.13976777210395
 20
-135.0167371624264
 10
92.13976777210395
 20
-135.0167371624264
 10
92.13976777210395
 20
-135.0167371624264
 10
91.04095456708352
 20
-135.0167371624264
 10
91.04095456708352
 20
-135.0167371624264
 10
91.0750610123875
 20
-134.6591362510574
 10
91.14499645073806
 20
-134.5809325835423
 10
91.55616859690262
 20
-134.2825873145196
 10
91.82970917843147
 20
-134.0838053050207
 10
91.89998912633057
 20
-134.0159369239613
 10
91.89998912633057
 20
-133.8784776140998
 10
91.89998912633057
 20
-133.7599663294072
 10
91.82316349700949
 20
-133.6290527009677
 10
91.61266816286073
 20
-133.6290527009677
 10
91.33482121197532
 20
-133.6290527009677
 10
91.32586396371367
 20
-133.859529588931
 10
91.32138533958285
 20
-133.9759738163324
 10
91.32138533958285
 20
-133.9759738163324
 10
91.08160669380946
 20
-133.9759738163324
 10
91.08160669380946
 20
-133.9759738163324
 10
91.09056394207111
 20
-133.8488497929267
 10
91.10193275717243
 20
-133.7368841896561
 10
91.18806014430368
 20
-133.6183729049635
 10
91.3055379003507
 20
-133.4574869458023
 10
91.50414765507536
 20
-133.4237250100469
 10
91.62851560209288
 20
-133.4237250100469
 10
91.92479381382437
 20
-133.4237250100469
 10
92.14631345352592
 20
-133.6076931089592
 10
92.14631345352592
 20
-133.880544671391
 10
92.14631345352592
 20
-134.1092990116116
 10
92.0219455065084
 20
-134.2085177615868
 10
91.69190535902148
 20
-134.4348605349677
 97
        0
 97
        0
 75
     2
 76
     1
 98
        0
  0
SPLINE
  5
B7
330
B1
100
AcDbEntity
  8
_U+30EC_U+30A4_U+30E4_U+30FC 1
370
     0
100
AcDbSpline
210
0.0
220
0.0
230
1.0
 70
    11
 71
     3
 72
    62
 73
    58
 74
     0
 42
0.0000000001
 43
0.0000000001
 12
1.0
 22
0.0
 32
0.0
 13
1.0
 23
0.0
 33
0.0
 40
0.0
 40
0.0
 40
0.0
 40
0.0
 40
1.0
 40
1.0
 40
1.0
 40
2.0
 40
2.0
 40
2.0
 40
3.0
 40
3.0
 40
3.0
 40
4.0
 40
4.0
 40
4.0
 40
5.0
 40
5.0
 40
5.0
 40
6.0
 40
6.0
 40
6.0
 40
7.0
 40
7.0
 40
7.0
 40
8.0
 40
8.0
 40
8.0
 40
9.0
 40
9.0
 40
9.0
 40
10.0
 40
10.0
 40
10.0
 40
11.0
 40
11.0
 40
11.0
 40
12.0
 40
12.0
 40
12.0
 40
13.0
 40
13.0
 40
13.0
 40
14.0
 40
14.0
 40
14.0
 40
15.0
 40
15.0
 40
15.0
 40
16.0
 40
16.0
 40
16.0
 40
17.0
 40
17.0
 40
17.0
 40
18.0
 40
18.0
 40
18.0
 40
19.0
 40
19.0
 40
19.0
 40
19.0
 10
92.84118921290082
 20
-135.0673800660595
 30
0.0
 10
92.73955889608595
 20
-135.0673800660595
 30
0.0
 10
92.50667044128306
 20
-135.0463649835995
 30
0.0
 10
92.3733452460039
 20
-134.860329827396
 30
0.0
 10
92.29410804984315
 20
-134.7480197145769
 30
0.0
 10
92.28962942571232
 20
-134.6488009646017
 30
0.0
 10
92.2851508015815
 20
-134.5640516156645
 30
0.0
 10
92.2851508015815
 20
-134.5640516156645
 30
0.0
 10
92.52010631367553
 20
-134.5640516156645
 30
0.0
 10
92.52010631367553
 20
-134.5640516156645
 30
0.0
 10
92.52251788051521
 20
-134.6381211685974
 30
0.0
 10
92.53388669561653
 20
-134.8727321711429
 30
0.0
 10
92.83671058876999
 20
-134.8727321711429
 30
0.0
 10
92.98381616599016
 20
-134.8727321711429
 30
0.0
 10
93.14642467289396
 20
-134.8031412423409
 30
0.0
 10
93.14642467289396
 20
-134.5747314116688
 30
0.0
 10
93.14642467289396
 20
-134.4582871842674
 30
0.0
 10
93.10577254616801
 20
-134.4097113379254
 30
0.0
 10
93.07201061041256
 20
-134.3780164594611
 30
0.0
 10
92.99277341425181
 20
-134.3039469065282
 30
0.0
 10
92.8684054672343
 20
-134.2912000532328
 30
0.0
 10
92.80949433443652
 20
-134.2912000532328
 30
0.0
 10
92.78916827107355
 20
-134.2912000532328
 30
0.0
 10
92.75092771118727
 20
-134.2932671105239
 30
0.0
 10
92.72129989001412
 20
-134.2974012251062
 30
0.0
 10
92.72129989001412
 20
-134.2974012251062
 30
0.0
 10
92.72129989001412
 20
-134.1027533301896
 30
0.0
 10
92.72129989001412
 20
-134.1027533301896
 30
0.0
 10
92.76195201674007
 20
-134.1092990116116
 30
0.0
 10
92.80742727714536
 20
-134.1113660689027
 30
0.0
 10
92.81397295856735
 20
-134.1113660689027
 30
0.0
 10
92.88425290646644
 20
-134.1113660689027
 30
0.0
 10
93.09681529790636
 20
-134.0900064768942
 30
0.0
 10
93.09681529790636
 20
-133.8533284170575
 30
0.0
 10
93.09681529790636
 20
-133.6755614900186
 30
0.0
 10
92.95659991165668
 20
-133.6204399622546
 30
0.0
 10
92.83912215560967
 20
-133.6204399622546
 30
0.0
 10
92.55627981627066
 20
-133.6204399622546
 30
0.0
 10
92.54732256800901
 20
-133.8533284170575
 30
0.0
 10
92.54284394387818
 20
-133.9249864031507
 30
0.0
 10
92.54284394387818
 20
-133.9249864031507
 30
0.0
 10
92.32580292830744
 20
-133.9249864031507
 30
0.0
 10
92.32580292830744
 20
-133.9249864031507
 30
0.0
 10
92.33476017656909
 20
-133.8002739465847
 30
0.0
 10
92.36404348819372
 20
-133.4237250100469
 30
0.0
 10
92.85255802800214
 20
-133.4237250100469
 30
0.0
 10
93.09233667377553
 20
-133.4237250100469
 30
0.0
 10
93.35002981607222
 20
-133.5508490334526
 30
0.0
 10
93.35002981607222
 20
-133.8467827356355
 30
0.0
 10
93.35002981607222
 20
-134.0331624013876
 30
0.0
 10
93.24805498970882
 20
-134.115500183485
 30
0.0
 10
93.14194604876313
 20
-134.1768228831225
 30
0.0
 10
93.20740286298287
 20
-134.2043836470045
 30
0.0
 10
93.40205075789949
 20
-134.2846543718108
 30
0.0
 10
93.40205075789949
 20
-134.5619845583734
 30
0.0
 10
93.40205075789949
 20
-134.9002929350249
 30
0.0
 10
93.1374674246323
 20
-135.0673800660595
 30
0.0
 10
92.84118921290082
 20
-135.0673800660595
 30
0.0
  0
HATCH
  5
B8
330
B1
100
AcDbEntity
  8
_U+30EC_U+30A4_U+30E4_U+30FC 1
 62
   179
420
  2234388
100
AcDbHatch
 10
0.0
 20
0.0
 30
0.0
210
0.0
220
0.0
230
1.0
  2
SOLID
 70
     1
 71
     0
 91
        1
 92
        1
 93
        1
 72
     4
 94
        3
 73
     0
 74
     1
 95
       62
 96
       58
 40
0.0
 40
0.0
 40
0.0
 40
0.0
 40
1.0
 40
1.0
 40
1.0
 40
2.0
 40
2.0
 40
2.0
 40
3.0
 40
3.0
 40
3.0
 40
4.0
 40
4.0
 40
4.0
 40
5.0
 40
5.0
 40
5.0
 40
6.0
 40
6.0
 40
6.0
 40
7.0
 40
7.0
 40
7.0
 40
8.0
 40
8.0
 40
8.0
 40
9.0
 40
9.0
 40
9.0
 40
10.0
 40
10.0
 40
10.0
 40
11.0
 40
11.0
 40
11.0
 40
12.0
 40
12.0
 40
12.0
 40
13.0
 40
13.0
 40
13.0
 40
14.0
 40
14.0
 40
14.0
 40
15.0
 40
15.0
 40
15.0
 40
16.0
 40
16.0
 40
16.0
 40
17.0
 40
17.0
 40
17.0
 40
18.0
 40
18.0
 40
18.0
 40
19.0
 40
19.0
 40
19.0
 40
19.0
 10
92.84118921290082
 20
-135.0673800660595
 10
92.73955889608595
 20
-135.0673800660595
 10
92.50667044128306
 20
-135.0463649835995
 10
92.3733452460039
 20
-134.860329827396
 10
92.29410804984315
 20
-134.7480197145769
 10
92.28962942571232
 20
-134.6488009646017
 10
92.2851508015815
 20
-134.5640516156645
 10
92.2851508015815
 20
-134.5640516156645
 10
92.52010631367553
 20
-134.5640516156645
 10
92.52010631367553
 20
-134.5640516156645
 10
92.52251788051521
 20
-134.6381211685974
 10
92.53388669561653
 20
-134.8727321711429
 10
92.83671058876999
 20
-134.8727321711429
 10
92.98381616599016
 20
-134.8727321711429
 10
93.14642467289396
 20
-134.8031412423409
 10
93.14642467289396
 20
-134.5747314116688
 10
93.14642467289396
 20
-134.4582871842674
 10
93.10577254616801
 20
-134.4097113379254
 10
93.07201061041256
 20
-134.3780164594611
 10
92.99277341425181
 20
-134.3039469065282
 10
92.8684054672343
 20
-134.2912000532328
 10
92.80949433443652
 20
-134.2912000532328
 10
92.78916827107355
 20
-134.2912000532328
 10
92.75092771118727
 20
-134.2932671105239
 10
92.72129989001412
 20
-134.2974012251062
 10
92.72129989001412
 20
-134.2974012251062
 10
92.72129989001412
 20
-134.1027533301896
 10
92.72129989001412
 20
-134.1027533301896
 10
92.76195201674007
 20
-134.1092990116116
 10
92.80742727714536
 20
-134.1113660689027
 10
92.81397295856735
 20
-134.1113660689027
 10
92.88425290646644
 20
-134.1113660689027
 10
93.09681529790636
 20
-134.0900064768942
 10
93.09681529790636
 20
-133.8533284170575
 10
93.09681529790636
 20
-133.6755614900186
 10
92.95659991165668
 20
-133.6204399622546
 10
92.83912215560967
 20
-133.6204399622546
 10
92.55627981627066
 20
-133.6204399622546
 10
92.54732256800901
 20
-133.8533284170575
 10
92.54284394387818
 20
-133.9249864031507
 10
92.54284394387818
 20
-133.9249864031507
 10
92.32580292830744
 20
-133.9249864031507
 10
92.32580292830744
 20
-133.9249864031507
 10
92.33476017656909
 20
-133.8002739465847
 10
92.36404348819372
 20
-133.4237250100469
 10
92.85255802800214
 20
-133.4237250100469
 10
93.09233667377553
 20
-133.4237250100469
 10
93.35002981607222
 20
-133.5508490334526
 10
93.35002981607222
 20
-133.8467827356355
 10
93.35002981607222
 20
-134.0331624013876
 10
93.24805498970882
 20
-134.115500183485
 10
93.14194604876313
 20
-134.1768228831225
 10
93.20740286298287
 20
-134.2043836470045
 10
93.40205075789949
 20
-134.2846543718108
 10
93.40205075789949
 20
-134.5619845583734
 10
93.40205075789949
 20
-134.9002929350249
 10
93.1374674246323
 20
-135.0673800660595
 10
92.84118921290082
 20
-135.0673800660595
 97
        0
 97
        0
 75
     2
 76
     1
 98
        0
  0
ENDBLK
  5
B4
330
B1
100
AcDbEntity
  8
0
100
AcDbBlockEnd
  0
BLOCK
  5
C7
330
C5
100
AcDbEntity
  8
0
100
AcDbBlockBegin
  2
block 4
 70
     0
 10
0.0
 20
0.0
 30
0.0
  3
block 4
  1

  0
SPLINE
  5
C9
330
C5
100
AcDbEntity
  8
_U+30EC_U+30A4_U+30E4_U+30FC 1
370
     0
100
AcDbSpline
210
0.0
220
0.0
230
1.0
 70
    11
 71
     3
 72
    26
 73
    22
 74
     0
 42
0.0000000001
 43
0.0000000001
 12
1.0
 22
0.0
 32
0.0
 13
1.0
 23
0.0
 33
0.0
 40
0.0
 40
0.0
 40
0.0
 40
0.0
 40
1.0
 40
1.0
 40
1.0
 40
2.0
 40
2.0
 40
2.0
 40
3.0
 40
3.0
 40
3.0
 40
4.0
 40
4.0
 40
4.0
 40
5.0
 40
5.0
 40
5.0
 40
6.0
 40
6.0
 40
6.0
 40
7.0
 40
7.0
 40
7.0
 40
7.0
 10
86.0407429797919
 20
-122.4428276603615
 30
0.0
 10
86.0407429797919
 20
-122.4428276603615
 30
0.0
 10
86.0407429797919
 20
-121.3386745573389
 30
0.0
 10
86.0407429797919
 20
-121.3386745573389
 30
0.0
 10
86.0407429797919
 20
-121.3386745573389
 30
0.0
 10
85.68830971165085
 20
-121.3386745573389
 30
0.0
 10
85.68830971165085
 20
-121.3386745573389
 30
0.0
 10
85.68830971165085
 20
-121.3386745573389
 30
0.0
 10
85.68830971165085
 20
-121.1905354514732
 30
0.0
 10
85.68830971165085
 20
-121.1905354514732
 30
0.0
 10
86.04315454663157
 20
-121.1757215408866
 30
0.0
 10
86.09276392161918
 20
-121.0127685244343
 30
0.0
 10
86.12445880008347
 20
-120.898391354324
 30
0.0
 10
86.12445880008347
 20
-120.898391354324
 30
0.0
 10
86.28052162556529
 20
-120.898391354324
 30
0.0
 10
86.28052162556529
 20
-120.898391354324
 30
0.0
 10
86.28052162556529
 20
-120.898391354324
 30
0.0
 10
86.28052162556529
 20
-122.4428276603615
 30
0.0
 10
86.28052162556529
 20
-122.4428276603615
 30
0.0
 10
86.28052162556529
 20
-122.4428276603615
 30
0.0
 10
86.0407429797919
 20
-122.4428276603615
 30
0.0
 10
86.0407429797919
 20
-122.4428276603615
 30
0.0
  0
HATCH
  5
CA
330
C5
100
AcDbEntity
  8
_U+30EC_U+30A4_U+30E4_U+30FC 1
 62
   179
420
  2234388
100
AcDbHatch
 10
0.0
 20
0.0
 30
0.0
210
0.0
220
0.0
230
1.0
  2
SOLID
 70
     1
 71
     0
 91
        1
 92
        1
 93
        1
 72
     4
 94
        3
 73
     0
 74
     1
 95
       26
 96
       22
 40
0.0
 40
0.0
 40
0.0
 40
0.0
 40
1.0
 40
1.0
 40
1.0
 40
2.0
 40
2.0
 40
2.0
 40
3.0
 40
3.0
 40
3.0
 40
4.0
 40
4.0
 40
4.0
 40
5.0
 40
5.0
 40
5.0
 40
6.0
 40
6.0
 40
6.0
 40
7.0
 40
7.0
 40
7.0
 40
7.0
 10
86.0407429797919
 20
-122.4428276603615
 10
86.0407429797919
 20
-122.4428276603615
 10
86.0407429797919
 20
-121.3386745573389
 10
86.0407429797919
 20
-121.3386745573389
 10
86.0407429797919
 20
-121.3386745573389
 10
85.68830971165085
 20
-121.3386745573389
 10
85.68830971165085
 20
-121.3386745573389
 10
85.68830971165085
 20
-121.3386745573389
 10
85.68830971165085
 20
-121.1905354514732
 10
85.68830971165085
 20
-121.1905354514732
 10
86.04315454663157
 20
-121.1757215408866
 10
86.09276392161918
 20
-121.0127685244343
 10
86.12445880008347
 20
-120.898391354324
 10
86.12445880008347
 20
-120.898391354324
 10
86.28052162556529
 20
-120.898391354324
 10
86.28052162556529
 20
-120.898391354324
 10
86.28052162556529
 20
-120.898391354324
 10
86.28052162556529
 20
-122.4428276603615
 10
86.28052162556529
 20
-122.4428276603615
 10
86.28052162556529
 20
-122.4428276603615
 10
86.0407429797919
 20
-122.4428276603615
 10
86.0407429797919
 20
-122.4428276603615
 97
        0
 97
        0
 75
     2
 76
     1
 98
        0
  0
SPLINE
  5
CB
330
C5
100
AcDbEntity
  8
_U+30EC_U+30A4_U+30E4_U+30FC 1
370
     0
100
AcDbSpline
210
0.0
220
0.0
230
1.0
 70
    11
 71
     3
 72
    44
 73
    40
 74
     0
 42
0.0000000001
 43
0.0000000001
 12
1.0
 22
0.0
 32
0.0
 13
1.0
 23
0.0
 33
0.0
 40
0.0
 40
0.0
 40
0.0
 40
0.0
 40
1.0
 40
1.0
 40
1.0
 40
2.0
 40
2.0
 40
2.0
 40
3.0
 40
3.0
 40
3.0
 40
4.0
 40
4.0
 40
4.0
 40
5.0
 40
5.0
 40
5.0
 40
6.0
 40
6.0
 40
6.0
 40
7.0
 40
7.0
 40
7.0
 40
8.0
 40
8.0
 40
8.0
 40
9.0
 40
9.0
 40
9.0
 40
10.0
 40
10.0
 40
10.0
 40
11.0
 40
11.0
 40
11.0
 40
12.0
 40
12.0
 40
12.0
 40
13.0
 40
13.0
 40
13.0
 40
13.0
 10
87.45013154280761
 20
-121.8609510329028
 30
0.0
 10
87.21724308800472
 20
-122.0197699347728
 30
0.0
 10
87.117679828481
 20
-122.0938394877057
 30
0.0
 10
87.06600339620225
 20
-122.2374999694406
 30
0.0
 10
87.06600339620225
 20
-122.2374999694406
 30
0.0
 10
87.89764944634156
 20
-122.2374999694406
 30
0.0
 10
87.89764944634156
 20
-122.2374999694406
 30
0.0
 10
87.89764944634156
 20
-122.2374999694406
 30
0.0
 10
87.89764944634156
 20
-122.4428276603615
 30
0.0
 10
87.89764944634156
 20
-122.4428276603615
 30
0.0
 10
87.89764944634156
 20
-122.4428276603615
 30
0.0
 10
86.7990084960954
 20
-122.4428276603615
 30
0.0
 10
86.7990084960954
 20
-122.4428276603615
 30
0.0
 10
86.83311494139936
 20
-122.0852267489926
 30
0.0
 10
86.90305037974994
 20
-122.0070230814774
 30
0.0
 10
87.31439478068877
 20
-121.7086778124548
 30
0.0
 10
87.5879353622176
 20
-121.5098958029559
 30
0.0
 10
87.6582153101167
 20
-121.4420274218964
 30
0.0
 10
87.6582153101167
 20
-121.304568112035
 30
0.0
 10
87.6582153101167
 20
-121.1860568273424
 30
0.0
 10
87.58138968079562
 20
-121.0551431989029
 30
0.0
 10
87.37089434664686
 20
-121.0551431989029
 30
0.0
 10
87.0928751409872
 20
-121.0551431989029
 30
0.0
 10
87.08391789272555
 20
-121.2856200868661
 30
0.0
 10
87.07943926859473
 20
-121.4020643142675
 30
0.0
 10
87.07943926859473
 20
-121.4020643142675
 30
0.0
 10
86.83966062282134
 20
-121.4020643142675
 30
0.0
 10
86.83966062282134
 20
-121.4020643142675
 30
0.0
 10
86.84896238063152
 20
-121.2749402908618
 30
0.0
 10
86.85998668618431
 20
-121.1629746875912
 30
0.0
 10
86.94611407331556
 20
-121.0444634028986
 30
0.0
 10
87.06359182936258
 20
-120.8835774437375
 30
0.0
 10
87.26237383886149
 20
-120.849815507982
 30
0.0
 10
87.38674178587901
 20
-120.849815507982
 30
0.0
 10
87.6830199976105
 20
-120.849815507982
 30
0.0
 10
87.90453963731207
 20
-121.0337836068943
 30
0.0
 10
87.90453963731207
 20
-121.3066351693261
 30
0.0
 10
87.90453963731207
 20
-121.5353895095467
 30
0.0
 10
87.78017169029455
 20
-121.6346082595219
 30
0.0
 10
87.45013154280761
 20
-121.8609510329028
 30
0.0
  0
HATCH
  5
CC
330
C5
100
AcDbEntity
  8
_U+30EC_U+30A4_U+30E4_U+30FC 1
 62
   179
420
  2234388
100
AcDbHatch
 10
0.0
 20
0.0
 30
0.0
210
0.0
220
0.0
230
1.0
  2
SOLID
 70
     1
 71
     0
 91
        1
 92
        1
 93
        1
 72
     4
 94
        3
 73
     0
 74
     1
 95
       44
 96
       40
 40
0.0
 40
0.0
 40
0.0
 40
0.0
 40
1.0
 40
1.0
 40
1.0
 40
2.0
 40
2.0
 40
2.0
 40
3.0
 40
3.0
 40
3.0
 40
4.0
 40
4.0
 40
4.0
 40
5.0
 40
5.0
 40
5.0
 40
6.0
 40
6.0
 40
6.0
 40
7.0
 40
7.0
 40
7.0
 40
8.0
 40
8.0
 40
8.0
 40
9.0
 40
9.0
 40
9.0
 40
10.0
 40
10.0
 40
10.0
 40
11.0
 40
11.0
 40
11.0
 40
12.0
 40
12.0
 40
12.0
 40
13.0
 40
13.0
 40
13.0
 40
13.0
 10
87.45013154280761
 20
-121.8609510329028
 10
87.21724308800472
 20
-122.0197699347728
 10
87.117679828481
 20
-122.0938394877057
 10
87.06600339620225
 20
-122.2374999694406
 10
87.06600339620225
 20
-122.2374999694406
 10
87.89764944634156
 20
-122.2374999694406
 10
87.89764944634156
 20
-122.2374999694406
 10
87.89764944634156
 20
-122.2374999694406
 10
87.89764944634156
 20
-122.4428276603615
 10
87.89764944634156
 20
-122.4428276603615
 10
87.89764944634156
 20
-122.4428276603615
 10
86.7990084960954
 20
-122.4428276603615
 10
86.7990084960954
 20
-122.4428276603615
 10
86.83311494139936
 20
-122.0852267489926
 10
86.90305037974994
 20
-122.0070230814774
 10
87.31439478068877
 20
-121.7086778124548
 10
87.5879353622176
 20
-121.5098958029559
 10
87.6582153101167
 20
-121.4420274218964
 10
87.6582153101167
 20
-121.304568112035
 10
87.6582153101167
 20
-121.1860568273424
 10
87.58138968079562
 20
-121.0551431989029
 10
87.37089434664686
 20
-121.0551431989029
 10
87.0928751409872
 20
-121.0551431989029
 10
87.08391789272555
 20
-121.2856200868661
 10
87.07943926859473
 20
-121.4020643142675
 10
87.07943926859473
 20
-121.4020643142675
 10
86.83966062282134
 20
-121.4020643142675
 10
86.83966062282134
 20
-121.4020643142675
 10
86.84896238063152
 20
-121.2749402908618
 10
86.85998668618431
 20
-121.1629746875912
 10
86.94611407331556
 20
-121.0444634028986
 10
87.06359182936258
 20
-120.8835774437375
 10
87.26237383886149
 20
-120.849815507982
 10
87.38674178587901
 20
-120.849815507982
 10
87.6830199976105
 20
-120.849815507982
 10
87.90453963731207
 20
-121.0337836068943
 10
87.90453963731207
 20
-121.3066351693261
 10
87.90453963731207
 20
-121.5353895095467
 10
87.78017169029455
 20
-121.6346082595219
 10
87.45013154280761
 20
-121.8609510329028
 97
        0
 97
        0
 75
     2
 76
     1
 98
        0
  0
ENDBLK
  5
C8
330
C5
100
AcDbEntity
  8
0
100
AcDbBlockEnd
  0
BLOCK
  5
DB
330
D9
100
AcDbEntity
  8
0
100
AcDbBlockBegin
  2
block 5
 70
     0
 10
0.0
 20
0.0
 30
0.0
  3
block 5
  1

  0
SPLINE
  5
DD
330
D9
100
AcDbEntity
  8
_U+30EC_U+30A4_U+30E4_U+30FC 1
370
     0
100
AcDbSpline
210
0.0
220
0.0
230
1.0
 70
    11
 71
     3
 72
    44
 73
    40
 74
     0
 42
0.0000000001
 43
0.0000000001
 12
1.0
 22
0.0
 32
0.0
 13
1.0
 23
0.0
 33
0.0
 40
0.0
 40
0.0
 40
0.0
 40
0.0
 40
1.0
 40
1.0
 40
1.0
 40
2.0
 40
2.0
 40
2.0
 40
3.0
 40
3.0
 40
3.0
 40
4.0
 40
4.0
 40
4.0
 40
5.0
 40
5.0
 40
5.0
 40
6.0
 40
6.0
 40
6.0
 40
7.0
 40
7.0
 40
7.0
 40
8.0
 40
8.0
 40
8.0
 40
9.0
 40
9.0
 40
9.0
 40
10.0
 40
10.0
 40
10.0
 40
11.0
 40
11.0
 40
11.0
 40
12.0
 40
12.0
 40
12.0
 40
13.0
 40
13.0
 40
13.0
 40
13.0
 10
75.53836939300777
 20
-126.6499782669486
 30
0.0
 10
75.69701604010352
 20
-126.8828667217515
 30
0.0
 10
75.7710855930364
 20
-126.9824299812752
 30
0.0
 10
75.91491832954559
 20
-127.034106413554
 30
0.0
 10
75.91491832954559
 20
-127.034106413554
 30
0.0
 10
75.91491832954559
 20
-126.2024603634147
 30
0.0
 10
75.91491832954559
 20
-126.2024603634147
 30
0.0
 10
75.91491832954559
 20
-126.2024603634147
 30
0.0
 10
76.12007376569221
 20
-126.2024603634147
 30
0.0
 10
76.12007376569221
 20
-126.2024603634147
 30
0.0
 10
76.12007376569221
 20
-126.2024603634147
 30
0.0
 10
76.12007376569221
 20
-127.3011013136608
 30
0.0
 10
76.12007376569221
 20
-127.3011013136608
 30
0.0
 10
75.76247285432328
 20
-127.2669948683569
 30
0.0
 10
75.68426918680811
 20
-127.1970594300063
 30
0.0
 10
75.38592391778546
 20
-126.7857150290675
 30
0.0
 10
75.18714190828655
 20
-126.5121744475386
 30
0.0
 10
75.11944578200139
 20
-126.4418944996395
 30
0.0
 10
74.98198647213992
 20
-126.4418944996395
 30
0.0
 10
74.86347518744734
 20
-126.4418944996395
 30
0.0
 10
74.73221704945931
 20
-126.5187201289606
 30
0.0
 10
74.73221704945931
 20
-126.7292154631094
 30
0.0
 10
74.73221704945931
 20
-127.007234668769
 30
0.0
 10
74.96286619219678
 20
-127.0161919170307
 30
0.0
 10
75.07931041959823
 20
-127.0206705411615
 30
0.0
 10
75.07931041959823
 20
-127.0206705411615
 30
0.0
 10
75.07931041959823
 20
-127.2604491869349
 30
0.0
 10
75.07931041959823
 20
-127.2604491869349
 30
0.0
 10
74.95235865096677
 20
-127.2511474291247
 30
0.0
 10
74.8402207929219
 20
-127.2401231235719
 30
0.0
 10
74.7217095082293
 20
-127.1539957364407
 30
0.0
 10
74.56099580384239
 20
-127.0365179803937
 30
0.0
 10
74.52706161331268
 20
-126.8377359708947
 30
0.0
 10
74.52706161331268
 20
-126.7133680238772
 30
0.0
 10
74.52706161331268
 20
-126.4170898121457
 30
0.0
 10
74.71120196699928
 20
-126.1955701724442
 30
0.0
 10
74.98405352943108
 20
-126.1955701724442
 30
0.0
 10
75.21246336010314
 20
-126.1955701724442
 30
0.0
 10
75.31202661962686
 20
-126.3199381194617
 30
0.0
 10
75.53836939300777
 20
-126.6499782669486
 30
0.0
  0
HATCH
  5
DE
330
D9
100
AcDbEntity
  8
_U+30EC_U+30A4_U+30E4_U+30FC 1
 62
   179
420
  2234388
100
AcDbHatch
 10
0.0
 20
0.0
 30
0.0
210
0.0
220
0.0
230
1.0
  2
SOLID
 70
     1
 71
     0
 91
        1
 92
        1
 93
        1
 72
     4
 94
        3
 73
     0
 74
     1
 95
       44
 96
       40
 40
0.0
 40
0.0
 40
0.0
 40
0.0
 40
1.0
 40
1.0
 40
1.0
 40
2.0
 40
2.0
 40
2.0
 40
3.0
 40
3.0
 40
3.0
 40
4.0
 40
4.0
 40
4.0
 40
5.0
 40
5.0
 40
5.0
 40
6.0
 40
6.0
 40
6.0
 40
7.0
 40
7.0
 40
7.0
 40
8.0
 40
8.0
 40
8.0
 40
9.0
 40
9.0
 40
9.0
 40
10.0
 40
10.0
 40
10.0
 40
11.0
 40
11.0
 40
11.0
 40
12.0
 40
12.0
 40
12.0
 40
13.0
 40
13.0
 40
13.0
 40
13.0
 10
75.53836939300777
 20
-126.6499782669486
 10
75.69701604010352
 20
-126.8828667217515
 10
75.7710855930364
 20
-126.9824299812752
 10
75.91491832954559
 20
-127.034106413554
 10
75.91491832954559
 20
-127.034106413554
 10
75.91491832954559
 20
-126.2024603634147
 10
75.91491832954559
 20
-126.2024603634147
 10
75.91491832954559
 20
-126.2024603634147
 10
76.12007376569221
 20
-126.2024603634147
 10
76.12007376569221
 20
-126.2024603634147
 10
76.12007376569221
 20
-126.2024603634147
 10
76.12007376569221
 20
-127.3011013136608
 10
76.12007376569221
 20
-127.3011013136608
 10
75.76247285432328
 20
-127.2669948683569
 10
75.68426918680811
 20
-127.1970594300063
 10
75.38592391778546
 20
-126.7857150290675
 10
75.18714190828655
 20
-126.5121744475386
 10
75.11944578200139
 20
-126.4418944996395
 10
74.98198647213992
 20
-126.4418944996395
 10
74.86347518744734
 20
-126.4418944996395
 10
74.73221704945931
 20
-126.5187201289606
 10
74.73221704945931
 20
-126.7292154631094
 10
74.73221704945931
 20
-127.007234668769
 10
74.96286619219678
 20
-127.0161919170307
 10
75.07931041959823
 20
-127.0206705411615
 10
75.07931041959823
 20
-127.0206705411615
 10
75.07931041959823
 20
-127.2604491869349
 10
75.07931041959823
 20
-127.2604491869349
 10
74.95235865096677
 20
-127.2511474291247
 10
74.8402207929219
 20
-127.2401231235719
 10
74.7217095082293
 20
-127.1539957364407
 10
74.56099580384239
 20
-127.0365179803937
 10
74.52706161331268
 20
-126.8377359708947
 10
74.52706161331268
 20
-126.7133680238772
 10
74.52706161331268
 20
-126.4170898121457
 10
74.71120196699928
 20
-126.1955701724442
 10
74.98405352943108
 20
-126.1955701724442
 10
75.21246336010314
 20
-126.1955701724442
 10
75.31202661962686
 20
-126.3199381194617
 10
75.53836939300777
 20
-126.6499782669486
 97
        0
 97
        0
 75
     2
 76
     1
 98
        0
  0
POLYLINE
  5
DF
330
D9
100
AcDbEntity
  8
_U+30EC_U+30A4_U+30E4_U+30FC 1
370
     0
100
AcDb2dPolyline
 66
     1
 10
0.0
 20
0.0
 30
0.0
  0
VERTEX
  5
E0
330
DF
100
AcDbEntity
  8
_U+30EC_U+30A4_U+30E4_U+30FC 1
370
     0
100
AcDbVertex
100
AcDb2dVertex
 10
76.12007376569221
 20
-125.9619926985442
 30
0.0
  0
VERTEX
  5
E1
330
DF
100
AcDbEntity
  8
_U+30EC_U+30A4_U+30E4_U+30FC 1
370
     0
100
AcDbVertex
100
AcDb2dVertex
 10
75.86840954049471
 20
-125.9619926985442
 30
0.0
  0
VERTEX
  5
E2
330
DF
100
AcDbEntity
  8
_U+30EC_U+30A4_U+30E4_U+30FC 1
370
     0
100
AcDbVertex
100
AcDb2dVertex
 10
75.86840954049471
 20
-125.6929307411462
 30
0.0
  0
VERTEX
  5
E3
330
DF
100
AcDbEntity
  8
_U+30EC_U+30A4_U+30E4_U+30FC 1
370
     0
100
AcDbVertex
100
AcDb2dVertex
 10
76.12007376569221
 20
-125.6929307411462
 30
0.0
  0
VERTEX
  5
E4
330
DF
100
AcDbEntity
  8
_U+30EC_U+30A4_U+30E4_U+30FC 1
370
     0
100
AcDbVertex
100
AcDb2dVertex
 10
76.12007376569221
 20
-125.9619926985442
 30
0.0
  0
SEQEND
  5
E5
330
DF
100
AcDbEntity
  8
_U+30EC_U+30A4_U+30E4_U+30FC 1
370
     0
  0
HATCH
  5
E6
330
D9
100
AcDbEntity
  8
_U+30EC_U+30A4_U+30E4_U+30FC 1
 62
   179
420
  2234388
100
AcDbHatch
 10
0.0
 20
0.0
 30
0.0
210
0.0
220
0.0
230
1.0
  2
SOLID
 70
     1
 71
     0
 91
        1
 92
        1
 93
        4
 72
     1
 10
76.12007376569221
 20
-125.9619926985442
 11
75.86840954049471
 21
-125.9619926985442
 72
     1
 10
75.86840954049471
 20
-125.9619926985442
 11
75.86840954049471
 21
-125.6929307411462
 72
     1
 10
75.86840954049471
 20
-125.6929307411462
 11
76.12007376569221
 21
-125.6929307411462
 72
     1
 10
76.12007376569221
 20
-125.6929307411462
 11
76.12007376569221
 21
-125.9619926985442
 97
        0
 75
     2
 76
     1
 98
        0
  0
SPLINE
  5
E7
330
D9
100
AcDbEntity
  8
_U+30EC_U+30A4_U+30E4_U+30FC 1
370
     0
100
AcDbSpline
210
0.0
220
0.0
230
1.0
 70
    11
 71
     3
 72
    53
 73
    49
 74
     0
 42
0.0000000001
 43
0.0000000001
 12
1.0
 22
0.0
 32
0.0
 13
1.0
 23
0.0
 33
0.0
 40
0.0
 40
0.0
 40
0.0
 40
0.0
 40
1.0
 40
1.0
 40
1.0
 40
2.0
 40
2.0
 40
2.0
 40
3.0
 40
3.0
 40
3.0
 40
4.0
 40
4.0
 40
4.0
 40
5.0
 40
5.0
 40
5.0
 40
6.0
 40
6.0
 40
6.0
 40
7.0
 40
7.0
 40
7.0
 40
8.0
 40
8.0
 40
8.0
 40
9.0
 40
9.0
 40
9.0
 40
10.0
 40
10.0
 40
10.0
 40
11.0
 40
11.0
 40
11.0
 40
12.0
 40
12.0
 40
12.0
 40
13.0
 40
13.0
 40
13.0
 40
14.0
 40
14.0
 40
14.0
 40
15.0
 40
15.0
 40
15.0
 40
16.0
 40
16.0
 40
16.0
 40
16.0
 10
76.17088892409964
 20
-124.9260524861296
 30
0.0
 10
76.17088892409964
 20
-125.0097683064212
 30
0.0
 10
76.15400795622192
 20
-125.117944304658
 30
0.0
 10
76.09044594451906
 20
-125.2268093219919
 30
0.0
 10
75.98037514376533
 20
-125.4121554590984
 30
0.0
 10
75.84928926055157
 20
-125.4345485797525
 30
0.0
 10
75.74145777186325
 20
-125.4548746431155
 30
0.0
 10
75.74145777186325
 20
-125.4548746431155
 30
0.0
 10
75.74145777186325
 20
-125.2175075641817
 30
0.0
 10
75.74145777186325
 20
-125.2175075641817
 30
0.0
 10
75.94023978136217
 20
-125.1589409409325
 30
0.0
 10
75.96986760253532
 20
-125.0232041788136
 30
0.0
 10
75.96986760253532
 20
-124.9236409192899
 30
0.0
 10
75.96986760253532
 20
-124.7744682847786
 30
0.0
 10
75.87047659778585
 20
-124.6115152683263
 30
0.0
 10
75.63776039775723
 20
-124.6115152683263
 30
0.0
 10
75.38178980320316
 20
-124.6115152683263
 30
0.0
 10
75.31202661962686
 20
-124.8037515964032
 30
0.0
 10
75.31202661962686
 20
-124.9325981675516
 30
0.0
 10
75.31202661962686
 20
-124.9667046128556
 30
0.0
 10
75.31202661962686
 20
-125.117944304658
 30
0.0
 10
75.44104544554946
 20
-125.2130289400509
 30
0.0
 10
75.44104544554946
 20
-125.2130289400509
 30
0.0
 10
75.42192516560632
 20
-125.400786643997
 30
0.0
 10
75.42192516560632
 20
-125.400786643997
 30
0.0
 10
75.42192516560632
 20
-125.400786643997
 30
0.0
 10
74.57580971442897
 20
-125.2719400728487
 30
0.0
 10
74.57580971442897
 20
-125.2719400728487
 30
0.0
 10
74.57580971442897
 20
-125.2719400728487
 30
0.0
 10
74.57580971442897
 20
-124.4399495131609
 30
0.0
 10
74.57580971442897
 20
-124.4399495131609
 30
0.0
 10
74.57580971442897
 20
-124.4399495131609
 30
0.0
 10
74.77045760934558
 20
-124.4399495131609
 30
0.0
 10
74.77045760934558
 20
-124.4399495131609
 30
0.0
 10
74.77045760934558
 20
-124.4399495131609
 30
0.0
 10
74.77045760934558
 20
-125.0976182412951
 30
0.0
 10
74.77045760934558
 20
-125.0976182412951
 30
0.0
 10
74.77045760934558
 20
-125.0976182412951
 30
0.0
 10
75.19351533493426
 20
-125.1678981891941
 30
0.0
 10
75.19351533493426
 20
-125.1678981891941
 30
0.0
 10
75.15958114440456
 20
-125.1024413749744
 30
0.0
 10
75.11944578200139
 20
-125.014246930552
 30
0.0
 10
75.11944578200139
 20
-124.8874674166948
 30
0.0
 10
75.11944578200139
 20
-124.6163384020056
 30
0.0
 10
75.30565319297915
 20
-124.3631238838398
 30
0.0
 10
75.6186401178141
 20
-124.3631238838398
 30
0.0
 10
75.93610566677987
 20
-124.3631238838398
 30
0.0
 10
76.17088892409964
 20
-124.6025580200646
 30
0.0
 10
76.17088892409964
 20
-124.9260524861296
 30
0.0
  0
HATCH
  5
E8
330
D9
100
AcDbEntity
  8
_U+30EC_U+30A4_U+30E4_U+30FC 1
 62
   179
420
  2234388
100
AcDbHatch
 10
0.0
 20
0.0
 30
0.0
210
0.0
220
0.0
230
1.0
  2
SOLID
 70
     1
 71
     0
 91
        1
 92
        1
 93
        1
 72
     4
 94
        3
 73
     0
 74
     1
 95
       53
 96
       49
 40
0.0
 40
0.0
 40
0.0
 40
0.0
 40
1.0
 40
1.0
 40
1.0
 40
2.0
 40
2.0
 40
2.0
 40
3.0
 40
3.0
 40
3.0
 40
4.0
 40
4.0
 40
4.0
 40
5.0
 40
5.0
 40
5.0
 40
6.0
 40
6.0
 40
6.0
 40
7.0
 40
7.0
 40
7.0
 40
8.0
 40
8.0
 40
8.0
 40
9.0
 40
9.0
 40
9.0
 40
10.0
 40
10.0
 40
10.0
 40
11.0
 40
11.0
 40
11.0
 40
12.0
 40
12.0
 40
12.0
 40
13.0
 40
13.0
 40
13.0
 40
14.0
 40
14.0
 40
14.0
 40
15.0
 40
15.0
 40
15.0
 40
16.0
 40
16.0
 40
16.0
 40
16.0
 10
76.17088892409964
 20
-124.9260524861296
 10
76.17088892409964
 20
-125.0097683064212
 10
76.15400795622192
 20
-125.117944304658
 10
76.09044594451906
 20
-125.2268093219919
 10
75.98037514376533
 20
-125.4121554590984
 10
75.84928926055157
 20
-125.4345485797525
 10
75.74145777186325
 20
-125.4548746431155
 10
75.74145777186325
 20
-125.4548746431155
 10
75.74145777186325
 20
-125.2175075641817
 10
75.74145777186325
 20
-125.2175075641817
 10
75.94023978136217
 20
-125.1589409409325
 10
75.96986760253532
 20
-125.0232041788136
 10
75.96986760253532
 20
-124.9236409192899
 10
75.96986760253532
 20
-124.7744682847786
 10
75.87047659778585
 20
-124.6115152683263
 10
75.63776039775723
 20
-124.6115152683263
 10
75.38178980320316
 20
-124.6115152683263
 10
75.31202661962686
 20
-124.8037515964032
 10
75.31202661962686
 20
-124.9325981675516
 10
75.31202661962686
 20
-124.9667046128556
 10
75.31202661962686
 20
-125.117944304658
 10
75.44104544554946
 20
-125.2130289400509
 10
75.44104544554946
 20
-125.2130289400509
 10
75.42192516560632
 20
-125.400786643997
 10
75.42192516560632
 20
-125.400786643997
 10
75.42192516560632
 20
-125.400786643997
 10
74.57580971442897
 20
-125.2719400728487
 10
74.57580971442897
 20
-125.2719400728487
 10
74.57580971442897
 20
-125.2719400728487
 10
74.57580971442897
 20
-124.4399495131609
 10
74.57580971442897
 20
-124.4399495131609
 10
74.57580971442897
 20
-124.4399495131609
 10
74.77045760934558
 20
-124.4399495131609
 10
74.77045760934558
 20
-124.4399495131609
 10
74.77045760934558
 20
-124.4399495131609
 10
74.77045760934558
 20
-125.0976182412951
 10
74.77045760934558
 20
-125.0976182412951
 10
74.77045760934558
 20
-125.0976182412951
 10
75.19351533493426
 20
-125.1678981891941
 10
75.19351533493426
 20
-125.1678981891941
 10
75.15958114440456
 20
-125.1024413749744
 10
75.11944578200139
 20
-125.014246930552
 10
75.11944578200139
 20
-124.8874674166948
 10
75.11944578200139
 20
-124.6163384020056
 10
75.30565319297915
 20
-124.3631238838398
 10
75.6186401178141
 20
-124.3631238838398
 10
75.93610566677987
 20
-124.3631238838398
 10
76.17088892409964
 20
-124.6025580200646
 10
76.17088892409964
 20
-124.9260524861296
 97
        0
 97
        0
 75
     2
 76
     1
 98
        0
  0
ENDBLK
  5
DC
330
D9
100
AcDbEntity
  8
0
100
AcDbBlockEnd
  0
BLOCK
  5
FB
330
F9
100
AcDbEntity
  8
0
100
AcDbBlockBegin
  2
block 6
 70
     0
 10
0.0
 20
0.0
 30
0.0
  3
block 6
  1

  0
SPLINE
  5
FD
330
F9
100
AcDbEntity
  8
_U+30EC_U+30A4_U+30E4_U+30FC 1
370
     0
100
AcDbSpline
210
0.0
220
0.0
230
1.0
 70
    11
 71
     3
 72
    26
 73
    22
 74
     0
 42
0.0000000001
 43
0.0000000001
 12
1.0
 22
0.0
 32
0.0
 13
1.0
 23
0.0
 33
0.0
 40
0.0
 40
0.0
 40
0.0
 40
0.0
 40
1.0
 40
1.0
 40
1.0
 40
2.0
 40
2.0
 40
2.0
 40
3.0
 40
3.0
 40
3.0
 40
4.0
 40
4.0
 40
4.0
 40
5.0
 40
5.0
 40
5.0
 40
6.0
 40
6.0
 40
6.0
 40
7.0
 40
7.0
 40
7.0
 40
7.0
 10
76.12024602046647
 20
-134.6229627484623
 30
0.0
 10
76.12024602046647
 20
-134.6229627484623
 30
0.0
 10
75.01592066266963
 20
-134.6229627484623
 30
0.0
 10
75.01592066266963
 20
-134.6229627484623
 30
0.0
 10
75.01592066266963
 20
-134.6229627484623
 30
0.0
 10
75.01592066266963
 20
-134.9753960166034
 30
0.0
 10
75.01592066266963
 20
-134.9753960166034
 30
0.0
 10
75.01592066266963
 20
-134.9753960166034
 30
0.0
 10
74.86778155680389
 20
-134.9753960166034
 30
0.0
 10
74.86778155680389
 20
-134.9753960166034
 30
0.0
 10
74.85313990099158
 20
-134.6205511816227
 30
0.0
 10
74.69018688453926
 20
-134.5709418066351
 30
0.0
 10
74.57598196920323
 20
-134.5392469281707
 30
0.0
 10
74.57598196920323
 20
-134.5392469281707
 30
0.0
 10
74.57598196920323
 20
-134.3831841026889
 30
0.0
 10
74.57598196920323
 20
-134.3831841026889
 30
0.0
 10
74.57598196920323
 20
-134.3831841026889
 30
0.0
 10
76.12024602046647
 20
-134.3831841026889
 30
0.0
 10
76.12024602046647
 20
-134.3831841026889
 30
0.0
 10
76.12024602046647
 20
-134.3831841026889
 30
0.0
 10
76.12024602046647
 20
-134.6229627484623
 30
0.0
 10
76.12024602046647
 20
-134.6229627484623
 30
0.0
  0
HATCH
  5
FE
330
F9
100
AcDbEntity
  8
_U+30EC_U+30A4_U+30E4_U+30FC 1
 62
   179
420
  2234388
100
AcDbHatch
 10
0.0
 20
0.0
 30
0.0
210
0.0
220
0.0
230
1.0
  2
SOLID
 70
     1
 71
     0
 91
        1
 92
        1
 93
        1
 72
     4
 94
        3
 73
     0
 74
     1
 95
       26
 96
       22
 40
0.0
 40
0.0
 40
0.0
 40
0.0
 40
1.0
 40
1.0
 40
1.0
 40
2.0
 40
2.0
 40
2.0
 40
3.0
 40
3.0
 40
3.0
 40
4.0
 40
4.0
 40
4.0
 40
5.0
 40
5.0
 40
5.0
 40
6.0
 40
6.0
 40
6.0
 40
7.0
 40
7.0
 40
7.0
 40
7.0
 10
76.12024602046647
 20
-134.6229627484623
 10
76.12024602046647
 20
-134.6229627484623
 10
75.01592066266963
 20
-134.6229627484623
 10
75.01592066266963
 20
-134.6229627484623
 10
75.01592066266963
 20
-134.6229627484623
 10
75.01592066266963
 20
-134.9753960166034
 10
75.01592066266963
 20
-134.9753960166034
 10
75.01592066266963
 20
-134.9753960166034
 10
74.86778155680389
 20
-134.9753960166034
 10
74.86778155680389
 20
-134.9753960166034
 10
74.85313990099158
 20
-134.6205511816227
 10
74.69018688453926
 20
-134.5709418066351
 10
74.57598196920323
 20
-134.5392469281707
 10
74.57598196920323
 20
-134.5392469281707
 10
74.57598196920323
 20
-134.3831841026889
 10
74.57598196920323
 20
-134.3831841026889
 10
74.57598196920323
 20
-134.3831841026889
 10
76.12024602046647
 20
-134.3831841026889
 10
76.12024602046647
 20
-134.3831841026889
 10
76.12024602046647
 20
-134.3831841026889
 10
76.12024602046647
 20
-134.6229627484623
 10
76.12024602046647
 20
-134.6229627484623
 97
        0
 97
        0
 75
     2
 76
     1
 98
        0
  0
ENDBLK
  5
FC
330
F9
100
AcDbEntity
  8
0
100
AcDbBlockEnd
  0
BLOCK
  5
10D
330
10B
100
AcDbEntity
  8
0
100
AcDbBlockBegin
  2
block 7
 70
     0
 10
0.0
 20
0.0
 30
0.0
  3
block 7
  1

  0
SPLINE
  5
10F
330
10B
100
AcDbEntity
  8
_U+30EC_U+30A4_U+30E4_U+30FC 1
370
     0
100
AcDbSpline
210
0.0
220
0.0
230
1.0
 70
    11
 71
     3
 72
    26
 73
    22
 74
     0
 42
0.0000000001
 43
0.0000000001
 12
1.0
 22
0.0
 32
0.0
 13
1.0
 23
0.0
 33
0.0
 40
0.0
 40
0.0
 40
0.0
 40
0.0
 40
1.0
 40
1.0
 40
1.0
 40
2.0
 40
2.0
 40
2.0
 40
3.0
 40
3.0
 40
3.0
 40
4.0
 40
4.0
 40
4.0
 40
5.0
 40
5.0
 40
5.0
 40
6.0
 40
6.0
 40
6.0
 40
7.0
 40
7.0
 40
7.0
 40
7.0
 10
100.1644286858964
 20
-126.3173542978478
 30
0.0
 10
100.1644286858964
 20
-126.3173542978478
 30
0.0
 10
99.91121416773053
 20
-126.3173542978478
 30
0.0
 10
99.91121416773053
 20
-126.3173542978478
 30
0.0
 10
99.93808591251549
 20
-126.0085014875951
 30
0.0
 10
100.1441026225334
 20
-125.4901868718393
 30
0.0
 10
100.5781846536749
 20
-124.9846191093789
 30
0.0
 10
100.5781846536749
 20
-124.9846191093789
 30
0.0
 10
99.68280433705847
 20
-124.9846191093789
 30
0.0
 10
99.68280433705847
 20
-124.9846191093789
 30
0.0
 10
99.68280433705847
 20
-124.9846191093789
 30
0.0
 10
99.68280433705847
 20
-124.7730902465845
 30
0.0
 10
99.68280433705847
 20
-124.7730902465845
 30
0.0
 10
99.68280433705847
 20
-124.7730902465845
 30
0.0
 10
100.8313991718408
 20
-124.7730902465845
 30
0.0
 10
100.8313991718408
 20
-124.7730902465845
 30
0.0
 10
100.8313991718408
 20
-124.7730902465845
 30
0.0
 10
100.8313991718408
 20
-124.9846191093789
 30
0.0
 10
100.8313991718408
 20
-124.9846191093789
 30
0.0
 10
100.4855115851217
 20
-125.2743516396884
 30
0.0
 10
100.2006021884915
 20
-125.8667358083771
 30
0.0
 10
100.1644286858964
 20
-126.3173542978478
 30
0.0
  0
HATCH
  5
110
330
10B
100
AcDbEntity
  8
_U+30EC_U+30A4_U+30E4_U+30FC 1
 62
   179
420
  2234388
100
AcDbHatch
 10
0.0
 20
0.0
 30
0.0
210
0.0
220
0.0
230
1.0
  2
SOLID
 70
     1
 71
     0
 91
        1
 92
        1
 93
        1
 72
     4
 94
        3
 73
     0
 74
     1
 95
       26
 96
       22
 40
0.0
 40
0.0
 40
0.0
 40
0.0
 40
1.0
 40
1.0
 40
1.0
 40
2.0
 40
2.0
 40
2.0
 40
3.0
 40
3.0
 40
3.0
 40
4.0
 40
4.0
 40
4.0
 40
5.0
 40
5.0
 40
5.0
 40
6.0
 40
6.0
 40
6.0
 40
7.0
 40
7.0
 40
7.0
 40
7.0
 10
100.1644286858964
 20
-126.3173542978478
 10
100.1644286858964
 20
-126.3173542978478
 10
99.91121416773053
 20
-126.3173542978478
 10
99.91121416773053
 20
-126.3173542978478
 10
99.93808591251549
 20
-126.0085014875951
 10
100.1441026225334
 20
-125.4901868718393
 10
100.5781846536749
 20
-124.9846191093789
 10
100.5781846536749
 20
-124.9846191093789
 10
99.68280433705847
 20
-124.9846191093789
 10
99.68280433705847
 20
-124.9846191093789
 10
99.68280433705847
 20
-124.9846191093789
 10
99.68280433705847
 20
-124.7730902465845
 10
99.68280433705847
 20
-124.7730902465845
 10
99.68280433705847
 20
-124.7730902465845
 10
100.8313991718408
 20
-124.7730902465845
 10
100.8313991718408
 20
-124.7730902465845
 10
100.8313991718408
 20
-124.7730902465845
 10
100.8313991718408
 20
-124.9846191093789
 10
100.8313991718408
 20
-124.9846191093789
 10
100.4855115851217
 20
-125.2743516396884
 10
100.2006021884915
 20
-125.8667358083771
 10
100.1644286858964
 20
-126.3173542978478
 97
        0
 97
        0
 75
     2
 76
     1
 98
        0
  0
ENDBLK
  5
10E
330
10B
100
AcDbEntity
  8
0
100
AcDbBlockEnd
  0
ENDSEC
  0
SECTION
  2
ENTITIES
  0
POLYLINE
  5
41
330
1F
100
AcDbEntity
  8
_U+30EC_U+30A4_U+30E4_U+30FC 1
 62
   179
420
  2234388
370
    25
100
AcDb2dPolyline
 66
     1
 10
0.0
 20
0.0
 30
0.0
  0
VERTEX
  5
42
330
41
100
AcDbEntity
  8
_U+30EC_U+30A4_U+30E4_U+30FC 1
 62
   179
420
  2234388
370
    25
100
AcDbVertex
100
AcDb2dVertex
 10
81.08081959812263
 20
-130.6132205229025
 30
0.0
  0
VERTEX
  5
43
330
41
100
AcDbEntity
  8
_U+30EC_U+30A4_U+30E4_U+30FC 1
 62
   179
420
  2234388
370
    25
100
AcDbVertex
100
AcDb2dVertex
 10
86.21677220066812
 20
-130.6132205229025
 30
0.0
  0
SEQEND
  5
44
330
41
100
AcDbEntity
  8
_U+30EC_U+30A4_U+30E4_U+30FC 1
 62
   179
420
  2234388
370
    25
  0
POLYLINE
  5
45
330
1F
100
AcDbEntity
  8
_U+30EC_U+30A4_U+30E4_U+30FC 1
 62
   179
420
  2234388
370
    25
100
AcDb2dPolyline
 66
     1
 10
0.0
 20
0.0
 30
0.0
  0
VERTEX
  5
46
330
45
100
AcDbEntity
  8
_U+30EC_U+30A4_U+30E4_U+30FC 1
 62
   179
420
  2234388
370
    25
100
AcDbVertex
100
AcDb2dVertex
 10
80.71668238519032
 20
-128.0393891346567
 30
0.0
  0
VERTEX
  5
47
330
45
100
AcDbEntity
  8
_U+30EC_U+30A4_U+30E4_U+30FC 1
 62
   179
420
  2234388
370
    25
100
AcDbVertex
100
AcDb2dVertex
 10
86.21677220066812
 20
-128.0393891346567
 30
0.0
  0
SEQEND
  5
48
330
45
100
AcDbEntity
  8
_U+30EC_U+30A4_U+30E4_U+30FC 1
 62
   179
420
  2234388
370
    25
  0
POLYLINE
  5
49
330
1F
100
AcDbEntity
  8
_U+30EC_U+30A4_U+30E4_U+30FC 1
 62
   179
420
  2234388
370
    25
100
AcDb2dPolyline
 66
     1
 10
0.0
 20
0.0
 30
0.0
  0
VERTEX
  5
4A
330
49
100
AcDbEntity
  8
_U+30EC_U+30A4_U+30E4_U+30FC 1
 62
   179
420
  2234388
370
    25
100
AcDbVertex
100
AcDb2dVertex
 10
81.08081959812263
 20
-127.0396169126845
 30
0.0
  0
VERTEX
  5
4B
330
49
100
AcDbEntity
  8
_U+30EC_U+30A4_U+30E4_U+30FC 1
 62
   179
420
  2234388
370
    25
100
AcDbVertex
100
AcDb2dVertex
 10
92.352669032776
 20
-127.0396169126845
 30
0.0
  0
SEQEND
  5
4C
330
49
100
AcDbEntity
  8
_U+30EC_U+30A4_U+30E4_U+30FC 1
 62
   179
420
  2234388
370
    25
  0
POLYLINE
  5
4D
330
1F
100
AcDbEntity
  8
_U+30EC_U+30A4_U+30E4_U+30FC 1
 62
   179
420
  2234388
370
    25
100
AcDb2dPolyline
 66
     1
 10
0.0
 20
0.0
 30
0.0
  0
VERTEX
  5
4E
330
4D
100
AcDbEntity
  8
_U+30EC_U+30A4_U+30E4_U+30FC 1
 62
   179
420
  2234388
370
    25
100
AcDbVertex
100
AcDb2dVertex
 10
80.71668238519032
 20
-131.6129927448744
 30
0.0
  0
VERTEX
  5
4F
330
4D
100
AcDbEntity
  8
_U+30EC_U+30A4_U+30E4_U+30FC 1
 62
   179
420
  2234388
370
    25
100
AcDbVertex
100
AcDb2dVertex
 10
103.7166666407375
 20
-131.6129927448744
 30
0.0
  0
SEQEND
  5
50
330
4D
100
AcDbEntity
  8
_U+30EC_U+30A4_U+30E4_U+30FC 1
 62
   179
420
  2234388
370
    25
  0
POLYLINE
  5
51
330
1F
100
AcDbEntity
  8
_U+30EC_U+30A4_U+30E4_U+30FC 1
 62
   179
420
  2234388
370
    25
100
AcDb2dPolyline
 66
     1
 10
0.0
 20
0.0
 30
0.0
  0
VERTEX
  5
52
330
51
100
AcDbEntity
  8
_U+30EC_U+30A4_U+30E4_U+30FC 1
 62
   179
420
  2234388
370
    25
100
AcDbVertex
100
AcDb2dVertex
 10
97.01663808045491
 20
-130.9129405228274
 30
0.0
  0
VERTEX
  5
53
330
51
100
AcDbEntity
  8
_U+30EC_U+30A4_U+30E4_U+30FC 1
 62
   179
420
  2234388
370
    25
100
AcDbVertex
100
AcDb2dVertex
 10
103.4617115271385
 20
-130.9129405228274
 30
0.0
  0
SEQEND
  5
54
330
51
100
AcDbEntity
  8
_U+30EC_U+30A4_U+30E4_U+30FC 1
 62
   179
420
  2234388
370
    25
  0
POLYLINE
  5
55
330
1F
100
AcDbEntity
  8
_U+30EC_U+30A4_U+30E4_U+30FC 1
 62
   179
420
  2234388
370
    25
100
AcDb2dPolyline
 66
     1
 10
0.0
 20
0.0
 30
0.0
  0
VERTEX
  5
56
330
55
100
AcDbEntity
  8
_U+30EC_U+30A4_U+30E4_U+30FC 1
 62
   179
420
  2234388
370
    25
100
AcDbVertex
100
AcDb2dVertex
 10
92.352669032776
 20
-127.0396169126845
 30
0.0
  0
VERTEX
  5
57
330
55
100
AcDbEntity
  8
_U+30EC_U+30A4_U+30E4_U+30FC 1
 62
   179
420
  2234388
370
    25
100
AcDbVertex
100
AcDb2dVertex
 10
92.71648874571642
 20
-128.0393891346567
 30
0.0
  0
SEQEND
  5
58
330
55
100
AcDbEntity
  8
_U+30EC_U+30A4_U+30E4_U+30FC 1
 62
   179
420
  2234388
370
    25
  0
POLYLINE
  5
59
330
1F
100
AcDbEntity
  8
_U+30EC_U+30A4_U+30E4_U+30FC 1
 62
   179
420
  2234388
370
    25
100
AcDb2dPolyline
 66
     1
 10
0.0
 20
0.0
 30
0.0
  0
VERTEX
  5
5A
330
59
100
AcDbEntity
  8
_U+30EC_U+30A4_U+30E4_U+30FC 1
 62
   179
420
  2234388
370
    25
100
AcDbVertex
100
AcDb2dVertex
 10
103.4617115271385
 20
-130.9129405228274
 30
0.0
  0
VERTEX
  5
5B
330
59
100
AcDbEntity
  8
_U+30EC_U+30A4_U+30E4_U+30FC 1
 62
   179
420
  2234388
370
    25
100
AcDbVertex
100
AcDb2dVertex
 10
103.7166666407375
 20
-131.6129927448744
 30
0.0
  0
SEQEND
  5
5C
330
59
100
AcDbEntity
  8
_U+30EC_U+30A4_U+30E4_U+30FC 1
 62
   179
420
  2234388
370
    25
  0
POLYLINE
  5
5D
330
1F
100
AcDbEntity
  8
_U+30EC_U+30A4_U+30E4_U+30FC 1
 62
   179
420
  2234388
370
    25
100
AcDb2dPolyline
 66
     1
 10
0.0
 20
0.0
 30
0.0
  0
VERTEX
  5
5E
330
5D
100
AcDbEntity
  8
_U+30EC_U+30A4_U+30E4_U+30FC 1
 62
   179
420
  2234388
370
    25
100
AcDbVertex
100
AcDb2dVertex
 10
96.71691808810141
 20
-130.6132205229025
 30
0.0
  0
VERTEX
  5
5F
330
5D
100
AcDbEntity
  8
_U+30EC_U+30A4_U+30E4_U+30FC 1
 62
   179
420
  2234388
370
    25
100
AcDbVertex
100
AcDb2dVertex
 10
97.01663808045491
 20
-130.9129405228274
 30
0.0
  0
SEQEND
  5
60
330
5D
100
AcDbEntity
  8
_U+30EC_U+30A4_U+30E4_U+30FC 1
 62
   179
420
  2234388
370
    25
  0
POLYLINE
  5
61
330
1F
100
AcDbEntity
  8
_U+30EC_U+30A4_U+30E4_U+30FC 1
 62
   179
420
  2234388
370
    25
100
AcDb2dPolyline
 66
     1
 10
0.0
 20
0.0
 30
0.0
  0
VERTEX
  5
62
330
61
100
AcDbEntity
  8
_U+30EC_U+30A4_U+30E4_U+30FC 1
 62
   179
420
  2234388
370
    25
100
AcDbVertex
100
AcDb2dVertex
 10
80.71668238519032
 20
-128.0393891346567
 30
0.0
  0
VERTEX
  5
63
330
61
100
AcDbEntity
  8
_U+30EC_U+30A4_U+30E4_U+30FC 1
 62
   179
420
  2234388
370
    25
100
AcDbVertex
100
AcDb2dVertex
 10
81.08081959812263
 20
-127.0396169126845
 30
0.0
  0
SEQEND
  5
64
330
61
100
AcDbEntity
  8
_U+30EC_U+30A4_U+30E4_U+30FC 1
 62
   179
420
  2234388
370
    25
  0
POLYLINE
  5
65
330
1F
100
AcDbEntity
  8
_U+30EC_U+30A4_U+30E4_U+30FC 1
 62
   179
420
  2234388
370
    25
100
AcDb2dPolyline
 66
     1
 10
0.0
 20
0.0
 30
0.0
  0
VERTEX
  5
66
330
65
100
AcDbEntity
  8
_U+30EC_U+30A4_U+30E4_U+30FC 1
 62
   179
420
  2234388
370
    25
100
AcDbVertex
100
AcDb2dVertex
 10
80.71668238519032
 20
-131.6129927448744
 30
0.0
  0
VERTEX
  5
67
330
65
100
AcDbEntity
  8
_U+30EC_U+30A4_U+30E4_U+30FC 1
 62
   179
420
  2234388
370
    25
100
AcDbVertex
100
AcDb2dVertex
 10
81.08081959812263
 20
-130.6132205229025
 30
0.0
  0
SEQEND
  5
68
330
65
100
AcDbEntity
  8
_U+30EC_U+30A4_U+30E4_U+30FC 1
 62
   179
420
  2234388
370
    25
  0
POLYLINE
  5
69
330
1F
100
AcDbEntity
  8
_U+30EC_U+30A4_U+30E4_U+30FC 1
 62
   179
420
  2234388
370
    25
100
AcDb2dPolyline
 66
     1
 10
0.0
 20
0.0
 30
0.0
  0
VERTEX
  5
6A
330
69
100
AcDbEntity
  8
_U+30EC_U+30A4_U+30E4_U+30FC 1
 62
   179
420
  2234388
370
    25
100
AcDbVertex
100
AcDb2dVertex
 10
86.21677220066812
 20
-128.1131196901941
 30
0.0
  0
VERTEX
  5
6B
330
69
100
AcDbEntity
  8
_U+30EC_U+30A4_U+30E4_U+30FC 1
 62
   179
420
  2234388
370
    25
100
AcDbVertex
100
AcDb2dVertex
 10
86.21677220066812
 20
-130.6132205229025
 30
0.0
  0
SEQEND
  5
6C
330
69
100
AcDbEntity
  8
_U+30EC_U+30A4_U+30E4_U+30FC 1
 62
   179
420
  2234388
370
    25
  0
POLYLINE
  5
6D
330
1F
100
AcDbEntity
  8
_U+30EC_U+30A4_U+30E4_U+30FC 1
 62
   179
420
  2234388
370
    25
100
AcDb2dPolyline
 66
     1
 10
0.0
 20
0.0
 30
0.0
  0
VERTEX
  5
6E
330
6D
100
AcDbEntity
  8
_U+30EC_U+30A4_U+30E4_U+30FC 1
 62
   179
420
  2234388
370
    25
100
AcDbVertex
100
AcDb2dVertex
 10
87.21654442264034
 20
-128.1131196901941
 30
0.0
  0
VERTEX
  5
6F
330
6D
100
AcDbEntity
  8
_U+30EC_U+30A4_U+30E4_U+30FC 1
 62
   179
420
  2234388
370
    25
100
AcDbVertex
100
AcDb2dVertex
 10
87.21654442264034
 20
-130.6132205229025
 30
0.0
  0
SEQEND
  5
70
330
6D
100
AcDbEntity
  8
_U+30EC_U+30A4_U+30E4_U+30FC 1
 62
   179
420
  2234388
370
    25
  0
POLYLINE
  5
71
330
1F
100
AcDbEntity
  8
_U+30EC_U+30A4_U+30E4_U+30FC 1
 62
   179
420
  2234388
370
    25
100
AcDb2dPolyline
 66
     1
 10
0.0
 20
0.0
 30
0.0
  0
VERTEX
  5
72
330
71
100
AcDbEntity
  8
_U+30EC_U+30A4_U+30E4_U+30FC 1
 62
   179
420
  2234388
370
    25
100
AcDbVertex
100
AcDb2dVertex
 10
87.21654442264034
 20
-128.0393891346567
 30
0.0
  0
VERTEX
  5
73
330
71
100
AcDbEntity
  8
_U+30EC_U+30A4_U+30E4_U+30FC 1
 62
   179
420
  2234388
370
    25
100
AcDbVertex
100
AcDb2dVertex
 10
92.71648874571642
 20
-128.0393891346567
 30
0.0
  0
SEQEND
  5
74
330
71
100
AcDbEntity
  8
_U+30EC_U+30A4_U+30E4_U+30FC 1
 62
   179
420
  2234388
370
    25
  0
POLYLINE
  5
75
330
1F
100
AcDbEntity
  8
_U+30EC_U+30A4_U+30E4_U+30FC 1
 62
   179
420
  2234388
370
    25
100
AcDb2dPolyline
 66
     1
 10
0.0
 20
0.0
 30
0.0
  0
VERTEX
  5
76
330
75
100
AcDbEntity
  8
_U+30EC_U+30A4_U+30E4_U+30FC 1
 62
   179
420
  2234388
370
    25
100
AcDbVertex
100
AcDb2dVertex
 10
87.21654442264034
 20
-130.6132205229025
 30
0.0
  0
VERTEX
  5
77
330
75
100
AcDbEntity
  8
_U+30EC_U+30A4_U+30E4_U+30FC 1
 62
   179
420
  2234388
370
    25
100
AcDbVertex
100
AcDb2dVertex
 10
96.71691808810141
 20
-130.6132205229025
 30
0.0
  0
SEQEND
  5
78
330
75
100
AcDbEntity
  8
_U+30EC_U+30A4_U+30E4_U+30FC 1
 62
   179
420
  2234388
370
    25
  0
SPLINE
  5
79
330
1F
100
AcDbEntity
  8
_U+30EC_U+30A4_U+30E4_U+30FC 1
 62
   179
420
  2234388
370
     9
100
AcDbSpline
210
0.0
220
0.0
230
1.0
 70
    11
 71
     3
 72
    17
 73
    13
 74
     0
 42
0.0000000001
 43
0.0000000001
 12
1.0
 22
0.0
 32
0.0
 13
1.0
 23
0.0
 33
0.0
 40
0.0
 40
0.0
 40
0.0
 40
0.0
 40
1.0
 40
1.0
 40
1.0
 40
2.0
 40
2.0
 40
2.0
 40
3.0
 40
3.0
 40
3.0
 40
4.0
 40
4.0
 40
4.0
 40
4.0
 10
107.8163297493763
 20
-130.9129405228274
 30
0.0
 10
107.8163297493763
 20
-130.8578013561743
 30
0.0
 10
107.7715269727415
 20
-130.8130338561857
 30
0.0
 10
107.7164230852584
 20
-130.8130338561857
 30
0.0
 10
107.6612839199985
 20
-130.8130338561857
 30
0.0
 10
107.6165164211406
 20
-130.8578013561743
 30
0.0
 10
107.6165164211406
 20
-130.9129405228274
 30
0.0
 10
107.6165164211406
 20
-130.9687499672578
 30
0.0
 10
107.6612839199985
 20
-131.0135527450245
 30
0.0
 10
107.7164230852584
 20
-131.0135527450245
 30
0.0
 10
107.7715269727415
 20
-131.0135527450245
 30
0.0
 10
107.8163297493763
 20
-130.9687499672578
 30
0.0
 10
107.8163297493763
 20
-130.9129405228274
 30
0.0
  0
SPLINE
  5
7A
330
1F
100
AcDbEntity
  8
_U+30EC_U+30A4_U+30E4_U+30FC 1
 62
   179
420
  2234388
370
     9
100
AcDbSpline
210
0.0
220
0.0
230
1.0
 70
    11
 71
     3
 72
    17
 73
    13
 74
     0
 42
0.0000000001
 43
0.0000000001
 12
1.0
 22
0.0
 32
0.0
 13
1.0
 23
0.0
 33
0.0
 40
0.0
 40
0.0
 40
0.0
 40
0.0
 40
1.0
 40
1.0
 40
1.0
 40
2.0
 40
2.0
 40
2.0
 40
3.0
 40
3.0
 40
3.0
 40
4.0
 40
4.0
 40
4.0
 40
4.0
 10
107.8163297493763
 20
-131.6129927448744
 30
0.0
 10
107.8163297493763
 20
-131.5578535782219
 30
0.0
 10
107.7715269727415
 20
-131.5130860782327
 30
0.0
 10
107.7164230852584
 20
-131.5130860782327
 30
0.0
 10
107.6612839199985
 20
-131.5130860782327
 30
0.0
 10
107.6165164211406
 20
-131.5578535782219
 30
0.0
 10
107.6165164211406
 20
-131.6129927448744
 30
0.0
 10
107.6165164211406
 20
-131.6680966337499
 30
0.0
 10
107.6612839199985
 20
-131.712899411516
 30
0.0
 10
107.7164230852584
 20
-131.712899411516
 30
0.0
 10
107.7715269727415
 20
-131.712899411516
 30
0.0
 10
107.8163297493763
 20
-131.6680966337499
 30
0.0
 10
107.8163297493763
 20
-131.6129927448744
 30
0.0
  0
SPLINE
  5
7B
330
1F
100
AcDbEntity
  8
_U+30EC_U+30A4_U+30E4_U+30FC 1
 62
   179
420
  2234388
370
     9
100
AcDbSpline
210
0.0
220
0.0
230
1.0
 70
    11
 71
     3
 72
    17
 73
    13
 74
     0
 42
0.0000000001
 43
0.0000000001
 12
1.0
 22
0.0
 32
0.0
 13
1.0
 23
0.0
 33
0.0
 40
0.0
 40
0.0
 40
0.0
 40
0.0
 40
1.0
 40
1.0
 40
1.0
 40
2.0
 40
2.0
 40
2.0
 40
3.0
 40
3.0
 40
3.0
 40
4.0
 40
4.0
 40
4.0
 40
4.0
 10
103.816570684752
 20
-135.6134221883186
 30
0.0
 10
103.816570684752
 20
-135.5583182994437
 30
0.0
 10
103.7718031858941
 20
-135.513515521677
 30
0.0
 10
103.7166666407375
 20
-135.513515521677
 30
0.0
 10
103.6615601331511
 20
-135.513515521677
 30
0.0
 10
103.6167573565163
 20
-135.5583182994437
 30
0.0
 10
103.6167573565163
 20
-135.6134221883186
 30
0.0
 10
103.6167573565163
 20
-135.6685613549717
 30
0.0
 10
103.6615601331511
 20
-135.7133288549603
 30
0.0
 10
103.7166666407375
 20
-135.7133288549603
 30
0.0
 10
103.7718031858941
 20
-135.7133288549603
 30
0.0
 10
103.816570684752
 20
-135.6685613549717
 30
0.0
 10
103.816570684752
 20
-135.6134221883186
 30
0.0
  0
SPLINE
  5
7C
330
1F
100
AcDbEntity
  8
_U+30EC_U+30A4_U+30E4_U+30FC 1
 62
   179
420
  2234388
370
     9
100
AcDbSpline
210
0.0
220
0.0
230
1.0
 70
    11
 71
     3
 72
    17
 73
    13
 74
     0
 42
0.0000000001
 43
0.0000000001
 12
1.0
 22
0.0
 32
0.0
 13
1.0
 23
0.0
 33
0.0
 40
0.0
 40
0.0
 40
0.0
 40
0.0
 40
1.0
 40
1.0
 40
1.0
 40
2.0
 40
2.0
 40
2.0
 40
3.0
 40
3.0
 40
3.0
 40
4.0
 40
4.0
 40
4.0
 40
4.0
 10
76.81651248469194
 20
-127.9952919124455
 30
0.0
 10
76.81651248469194
 20
-127.9401527457927
 30
0.0
 10
76.77170970805717
 20
-127.8953852458039
 30
0.0
 10
76.7166058205741
 20
-127.8953852458039
 30
0.0
 10
76.66146665531416
 20
-127.8953852458039
 30
0.0
 10
76.61669915645628
 20
-127.9401527457927
 30
0.0
 10
76.61669915645628
 20
-127.9952919124455
 30
0.0
 10
76.61669915645628
 20
-128.0503958013207
 30
0.0
 10
76.66146665531416
 20
-128.0951985790875
 30
0.0
 10
76.7166058205741
 20
-128.0951985790875
 30
0.0
 10
76.77170970805717
 20
-128.0951985790875
 30
0.0
 10
76.81651248469194
 20
-128.0503958013207
 30
0.0
 10
76.81651248469194
 20
-127.9952919124455
 30
0.0
  0
SPLINE
  5
7D
330
1F
100
AcDbEntity
  8
_U+30EC_U+30A4_U+30E4_U+30FC 1
 62
   179
420
  2234388
370
     9
100
AcDbSpline
210
0.0
220
0.0
230
1.0
 70
    11
 71
     3
 72
    17
 73
    13
 74
     0
 42
0.0000000001
 43
0.0000000001
 12
1.0
 22
0.0
 32
0.0
 13
1.0
 23
0.0
 33
0.0
 40
0.0
 40
0.0
 40
0.0
 40
0.0
 40
1.0
 40
1.0
 40
1.0
 40
2.0
 40
2.0
 40
2.0
 40
3.0
 40
3.0
 40
3.0
 40
4.0
 40
4.0
 40
4.0
 40
4.0
 10
76.81651248469194
 20
-130.6132205229025
 30
0.0
 10
76.81651248469194
 20
-130.5580813562494
 30
0.0
 10
76.77170970805717
 20
-130.5133138562608
 30
0.0
 10
76.7166058205741
 20
-130.5133138562608
 30
0.0
 10
76.66146665531416
 20
-130.5133138562608
 30
0.0
 10
76.61669915645628
 20
-130.5580813562494
 30
0.0
 10
76.61669915645628
 20
-130.6132205229025
 30
0.0
 10
76.61669915645628
 20
-130.6683244117774
 30
0.0
 10
76.66146665531416
 20
-130.7131271895441
 30
0.0
 10
76.7166058205741
 20
-130.7131271895441
 30
0.0
 10
76.77170970805717
 20
-130.7131271895441
 30
0.0
 10
76.81651248469194
 20
-130.6683244117774
 30
0.0
 10
76.81651248469194
 20
-130.6132205229025
 30
0.0
  0
SPLINE
  5
7E
330
1F
100
AcDbEntity
  8
_U+30EC_U+30A4_U+30E4_U+30FC 1
 62
   179
420
  2234388
370
     9
100
AcDbSpline
210
0.0
220
0.0
230
1.0
 70
    11
 71
     3
 72
    17
 73
    13
 74
     0
 42
0.0000000001
 43
0.0000000001
 12
1.0
 22
0.0
 32
0.0
 13
1.0
 23
0.0
 33
0.0
 40
0.0
 40
0.0
 40
0.0
 40
0.0
 40
1.0
 40
1.0
 40
1.0
 40
2.0
 40
2.0
 40
2.0
 40
3.0
 40
3.0
 40
3.0
 40
4.0
 40
4.0
 40
4.0
 40
4.0
 10
76.81651248469194
 20
-131.6129927448744
 30
0.0
 10
76.81651248469194
 20
-131.5578535782219
 30
0.0
 10
76.77170970805717
 20
-131.5130860782327
 30
0.0
 10
76.7166058205741
 20
-131.5130860782327
 30
0.0
 10
76.66146665531416
 20
-131.5130860782327
 30
0.0
 10
76.61669915645628
 20
-131.5578535782219
 30
0.0
 10
76.61669915645628
 20
-131.6129927448744
 30
0.0
 10
76.61669915645628
 20
-131.6680966337499
 30
0.0
 10
76.66146665531416
 20
-131.712899411516
 30
0.0
 10
76.7166058205741
 20
-131.712899411516
 30
0.0
 10
76.77170970805717
 20
-131.712899411516
 30
0.0
 10
76.81651248469194
 20
-131.6680966337499
 30
0.0
 10
76.81651248469194
 20
-131.6129927448744
 30
0.0
  0
SPLINE
  5
7F
330
1F
100
AcDbEntity
  8
_U+30EC_U+30A4_U+30E4_U+30FC 1
 62
   179
420
  2234388
370
     9
100
AcDbSpline
210
0.0
220
0.0
230
1.0
 70
    11
 71
     3
 72
    17
 73
    13
 74
     0
 42
0.0000000001
 43
0.0000000001
 12
1.0
 22
0.0
 32
0.0
 13
1.0
 23
0.0
 33
0.0
 40
0.0
 40
0.0
 40
0.0
 40
0.0
 40
1.0
 40
1.0
 40
1.0
 40
2.0
 40
2.0
 40
2.0
 40
3.0
 40
3.0
 40
3.0
 40
4.0
 40
4.0
 40
4.0
 40
4.0
 10
80.81658904930815
 20
-135.6134221883186
 30
0.0
 10
80.81658904930815
 20
-135.5583182994437
 30
0.0
 10
80.77182155045027
 20
-135.513515521677
 30
0.0
 10
80.71668238519032
 20
-135.513515521677
 30
0.0
 10
80.66122775761238
 20
-135.513515521677
 30
0.0
 10
80.61642497984597
 20
-135.5583182994437
 30
0.0
 10
80.61642497984597
 20
-135.6134221883186
 30
0.0
 10
80.61642497984597
 20
-135.6685613549717
 30
0.0
 10
80.66122775761238
 20
-135.7133288549603
 30
0.0
 10
80.71668238519032
 20
-135.7133288549603
 30
0.0
 10
80.77182155045027
 20
-135.7133288549603
 30
0.0
 10
80.81658904930815
 20
-135.6685613549717
 30
0.0
 10
80.81658904930815
 20
-135.6134221883186
 30
0.0
  0
SPLINE
  5
80
330
1F
100
AcDbEntity
  8
_U+30EC_U+30A4_U+30E4_U+30FC 1
 62
   179
420
  2234388
370
     9
100
AcDbSpline
210
0.0
220
0.0
230
1.0
 70
    11
 71
     3
 72
    17
 73
    13
 74
     0
 42
0.0000000001
 43
0.0000000001
 12
1.0
 22
0.0
 32
0.0
 13
1.0
 23
0.0
 33
0.0
 40
0.0
 40
0.0
 40
0.0
 40
0.0
 40
1.0
 40
1.0
 40
1.0
 40
2.0
 40
2.0
 40
2.0
 40
3.0
 40
3.0
 40
3.0
 40
4.0
 40
4.0
 40
4.0
 40
4.0
 10
92.81639540983426
 20
-123.0391874692402
 30
0.0
 10
92.81639540983426
 20
-122.9840483025875
 30
0.0
 10
92.77159263319949
 20
-122.9392808025986
 30
0.0
 10
92.71648874571642
 20
-122.9392808025986
 30
0.0
 10
92.66134958045647
 20
-122.9392808025986
 30
0.0
 10
92.61658208159858
 20
-122.9840483025875
 30
0.0
 10
92.61658208159858
 20
-123.0391874692402
 30
0.0
 10
92.61658208159858
 20
-123.0949969136707
 30
0.0
 10
92.66134958045647
 20
-123.1397644136595
 30
0.0
 10
92.71648874571642
 20
-123.1397644136595
 30
0.0
 10
92.77159263319949
 20
-123.1397644136595
 30
0.0
 10
92.81639540983426
 20
-123.0949969136707
 30
0.0
 10
92.81639540983426
 20
-123.0391874692402
 30
0.0
  0
SPLINE
  5
81
330
1F
100
AcDbEntity
  8
_U+30EC_U+30A4_U+30E4_U+30FC 1
 62
   179
420
  2234388
370
     9
100
AcDbSpline
210
0.0
220
0.0
230
1.0
 70
    11
 71
     3
 72
    17
 73
    13
 74
     0
 42
0.0000000001
 43
0.0000000001
 12
1.0
 22
0.0
 32
0.0
 13
1.0
 23
0.0
 33
0.0
 40
0.0
 40
0.0
 40
0.0
 40
0.0
 40
1.0
 40
1.0
 40
1.0
 40
2.0
 40
2.0
 40
2.0
 40
3.0
 40
3.0
 40
3.0
 40
4.0
 40
4.0
 40
4.0
 40
4.0
 10
80.81658904930815
 20
-123.0391874692402
 30
0.0
 10
80.81658904930815
 20
-122.9840483025875
 30
0.0
 10
80.77182155045027
 20
-122.9392808025986
 30
0.0
 10
80.71668238519032
 20
-122.9392808025986
 30
0.0
 10
80.66122775761238
 20
-122.9392808025986
 30
0.0
 10
80.61642497984597
 20
-122.9840483025875
 30
0.0
 10
80.61642497984597
 20
-123.0391874692402
 30
0.0
 10
80.61642497984597
 20
-123.0949969136707
 30
0.0
 10
80.66122775761238
 20
-123.1397644136595
 30
0.0
 10
80.71668238519032
 20
-123.1397644136595
 30
0.0
 10
80.77182155045027
 20
-123.1397644136595
 30
0.0
 10
80.81658904930815
 20
-123.0949969136707
 30
0.0
 10
80.81658904930815
 20
-123.0391874692402
 30
0.0
  0
SPLINE
  5
82
330
1F
100
AcDbEntity
  8
_U+30EC_U+30A4_U+30E4_U+30FC 1
 62
   179
420
  2234388
370
     9
100
AcDbSpline
210
0.0
220
0.0
230
1.0
 70
    11
 71
     3
 72
    17
 73
    13
 74
     0
 42
0.0000000001
 43
0.0000000001
 12
1.0
 22
0.0
 32
0.0
 13
1.0
 23
0.0
 33
0.0
 40
0.0
 40
0.0
 40
0.0
 40
0.0
 40
1.0
 40
1.0
 40
1.0
 40
2.0
 40
2.0
 40
2.0
 40
3.0
 40
3.0
 40
3.0
 40
4.0
 40
4.0
 40
4.0
 40
4.0
 10
103.816570684752
 20
-126.9133577460494
 30
0.0
 10
103.816570684752
 20
-126.8582185793966
 30
0.0
 10
103.7718031858941
 20
-126.8134510794077
 30
0.0
 10
103.7166666407375
 20
-126.8134510794077
 30
0.0
 10
103.6615601331511
 20
-126.8134510794077
 30
0.0
 10
103.6167573565163
 20
-126.8582185793966
 30
0.0
 10
103.6167573565163
 20
-126.9133577460494
 30
0.0
 10
103.6167573565163
 20
-126.9684616349246
 30
0.0
 10
103.6615601331511
 20
-127.013264412691
 30
0.0
 10
103.7166666407375
 20
-127.013264412691
 30
0.0
 10
103.7718031858941
 20
-127.013264412691
 30
0.0
 10
103.816570684752
 20
-126.9684616349246
 30
0.0
 10
103.816570684752
 20
-126.9133577460494
 30
0.0
  0
SPLINE
  5
83
330
1F
100
AcDbEntity
  8
_U+30EC_U+30A4_U+30E4_U+30FC 1
 62
   179
420
  2234388
370
     9
100
AcDbSpline
210
0.0
220
0.0
230
1.0
 70
    11
 71
     3
 72
    17
 73
    13
 74
     0
 42
0.0000000001
 43
0.0000000001
 12
1.0
 22
0.0
 32
0.0
 13
1.0
 23
0.0
 33
0.0
 40
0.0
 40
0.0
 40
0.0
 40
0.0
 40
1.0
 40
1.0
 40
1.0
 40
2.0
 40
2.0
 40
2.0
 40
3.0
 40
3.0
 40
3.0
 40
4.0
 40
4.0
 40
4.0
 40
4.0
 10
96.81682475221925
 20
-126.9133577460494
 30
0.0
 10
96.81682475221925
 20
-126.8582185793966
 30
0.0
 10
96.77205725336135
 20
-126.8134510794077
 30
0.0
 10
96.71691808810141
 20
-126.8134510794077
 30
0.0
 10
96.66111108694584
 20
-126.8134510794077
 30
0.0
 10
96.61630830917912
 20
-126.8582185793966
 30
0.0
 10
96.61630830917912
 20
-126.9133577460494
 30
0.0
 10
96.61630830917912
 20
-126.9684616349246
 30
0.0
 10
96.66111108694584
 20
-127.013264412691
 30
0.0
 10
96.71691808810141
 20
-127.013264412691
 30
0.0
 10
96.77205725336135
 20
-127.013264412691
 30
0.0
 10
96.81682475221925
 20
-126.9684616349246
 30
0.0
 10
96.81682475221925
 20
-126.9133577460494
 30
0.0
  0
POLYLINE
  5
84
330
1F
100
AcDbEntity
  8
_U+30EC_U+30A4_U+30E4_U+30FC 1
 62
   179
420
  2234388
370
     9
100
AcDb2dPolyline
 66
     1
 10
0.0
 20
0.0
 30
0.0
  0
VERTEX
  5
85
330
84
100
AcDbEntity
  8
_U+30EC_U+30A4_U+30E4_U+30FC 1
 62
   179
420
  2234388
370
     9
100
AcDbVertex
100
AcDb2dVertex
 10
107.7164230852584
 20
-131.6129927448744
 30
0.0
  0
VERTEX
  5
86
330
84
100
AcDbEntity
  8
_U+30EC_U+30A4_U+30E4_U+30FC 1
 62
   179
420
  2234388
370
     9
100
AcDbVertex
100
AcDb2dVertex
 10
107.7164230852584
 20
-136.8708985768933
 30
0.0
  0
SEQEND
  5
87
330
84
100
AcDbEntity
  8
_U+30EC_U+30A4_U+30E4_U+30FC 1
 62
   179
420
  2234388
370
     9
  0
POLYLINE
  5
88
330
1F
100
AcDbEntity
  8
_U+30EC_U+30A4_U+30E4_U+30FC 1
 62
   179
420
  2234388
370
     9
100
AcDb2dPolyline
 66
     1
 10
0.0
 20
0.0
 30
0.0
  0
VERTEX
  5
89
330
88
100
AcDbEntity
  8
_U+30EC_U+30A4_U+30E4_U+30FC 1
 62
   179
420
  2234388
370
     9
100
AcDbVertex
100
AcDb2dVertex
 10
107.7164230852584
 20
-131.6129927448744
 30
0.0
  0
VERTEX
  5
8A
330
88
100
AcDbEntity
  8
_U+30EC_U+30A4_U+30E4_U+30FC 1
 62
   179
420
  2234388
370
     9
100
AcDbVertex
100
AcDb2dVertex
 10
107.7164230852584
 20
-129.9131683008548
 30
0.0
  0
SEQEND
  5
8B
330
88
100
AcDbEntity
  8
_U+30EC_U+30A4_U+30E4_U+30FC 1
 62
   179
420
  2234388
370
     9
  0
POLYLINE
  5
8C
330
1F
100
AcDbEntity
  8
_U+30EC_U+30A4_U+30E4_U+30FC 1
 62
   179
420
  2234388
370
     9
100
AcDb2dPolyline
 66
     1
 10
0.0
 20
0.0
 30
0.0
  0
VERTEX
  5
8D
330
8C
100
AcDbEntity
  8
_U+30EC_U+30A4_U+30E4_U+30FC 1
 62
   179
420
  2234388
370
     9
100
AcDbVertex
100
AcDb2dVertex
 10
106.2563817336183
 20
-131.6129927448744
 30
0.0
  0
VERTEX
  5
8E
330
8C
100
AcDbEntity
  8
_U+30EC_U+30A4_U+30E4_U+30FC 1
 62
   179
420
  2234388
370
     9
100
AcDbVertex
100
AcDb2dVertex
 10
108.716865559735
 20
-131.6129927448744
 30
0.0
  0
SEQEND
  5
8F
330
8C
100
AcDbEntity
  8
_U+30EC_U+30A4_U+30E4_U+30FC 1
 62
   179
420
  2234388
370
     9
  0
POLYLINE
  5
90
330
1F
100
AcDbEntity
  8
_U+30EC_U+30A4_U+30E4_U+30FC 1
 62
   179
420
  2234388
370
     9
100
AcDb2dPolyline
 66
     1
 10
0.0
 20
0.0
 30
0.0
  0
VERTEX
  5
91
330
90
100
AcDbEntity
  8
_U+30EC_U+30A4_U+30E4_U+30FC 1
 62
   179
420
  2234388
370
     9
100
AcDbVertex
100
AcDb2dVertex
 10
106.0021347956602
 20
-130.9129405228274
 30
0.0
  0
VERTEX
  5
92
330
90
100
AcDbEntity
  8
_U+30EC_U+30A4_U+30E4_U+30FC 1
 62
   179
420
  2234388
370
     9
100
AcDbVertex
100
AcDb2dVertex
 10
108.716865559735
 20
-130.9129405228274
 30
0.0
  0
SEQEND
  5
93
330
90
100
AcDbEntity
  8
_U+30EC_U+30A4_U+30E4_U+30FC 1
 62
   179
420
  2234388
370
     9
  0
INSERT
  5
95
330
1F
100
AcDbEntity
  8
_U+30EC_U+30A4_U+30E4_U+30FC 1
100
AcDbBlockReference
  2
block 2
 10
0.0
 20
0.0
 30
0.0
  0
POLYLINE
  5
A5
330
1F
100
AcDbEntity
  8
_U+30EC_U+30A4_U+30E4_U+30FC 1
 62
   179
420
  2234388
370
     9
100
AcDb2dPolyline
 66
     1
 10
0.0
 20
0.0
 30
0.0
  0
VERTEX
  5
A6
330
A5
100
AcDbEntity
  8
_U+30EC_U+30A4_U+30E4_U+30FC 1
 62
   179
420
  2234388
370
     9
100
AcDbVertex
100
AcDb2dVertex
 10
80.71668238519032
 20
-135.6134221883186
 30
0.0
  0
VERTEX
  5
A7
330
A5
100
AcDbEntity
  8
_U+30EC_U+30A4_U+30E4_U+30FC 1
 62
   179
420
  2234388
370
     9
100
AcDbVertex
100
AcDb2dVertex
 10
103.7166666407375
 20
-135.6134221883186
 30
0.0
  0
SEQEND
  5
A8
330
A5
100
AcDbEntity
  8
_U+30EC_U+30A4_U+30E4_U+30FC 1
 62
   179
420
  2234388
370
     9
  0
POLYLINE
  5
A9
330
1F
100
AcDbEntity
  8
_U+30EC_U+30A4_U+30E4_U+30FC 1
 62
   179
420
  2234388
370
     9
100
AcDb2dPolyline
 66
     1
 10
0.0
 20
0.0
 30
0.0
  0
VERTEX
  5
AA
330
A9
100
AcDbEntity
  8
_U+30EC_U+30A4_U+30E4_U+30FC 1
 62
   179
420
  2234388
370
     9
100
AcDbVertex
100
AcDb2dVertex
 10
80.71668238519032
 20
-134.1533807997949
 30
0.0
  0
VERTEX
  5
AB
330
A9
100
AcDbEntity
  8
_U+30EC_U+30A4_U+30E4_U+30FC 1
 62
   179
420
  2234388
370
     9
100
AcDbVertex
100
AcDb2dVertex
 10
80.71668238519032
 20
-136.6131944102912
 30
0.0
  0
SEQEND
  5
AC
330
A9
100
AcDbEntity
  8
_U+30EC_U+30A4_U+30E4_U+30FC 1
 62
   179
420
  2234388
370
     9
  0
POLYLINE
  5
AD
330
1F
100
AcDbEntity
  8
_U+30EC_U+30A4_U+30E4_U+30FC 1
 62
   179
420
  2234388
370
     9
100
AcDb2dPolyline
 66
     1
 10
0.0
 20
0.0
 30
0.0
  0
VERTEX
  5
AE
330
AD
100
AcDbEntity
  8
_U+30EC_U+30A4_U+30E4_U+30FC 1
 62
   179
420
  2234388
370
     9
100
AcDbVertex
100
AcDb2dVertex
 10
103.7166666407375
 20
-134.1533807997949
 30
0.0
  0
VERTEX
  5
AF
330
AD
100
AcDbEntity
  8
_U+30EC_U+30A4_U+30E4_U+30FC 1
 62
   179
420
  2234388
370
     9
100
AcDbVertex
100
AcDb2dVertex
 10
103.7166666407375
 20
-136.6131944102912
 30
0.0
  0
SEQEND
  5
B0
330
AD
100
AcDbEntity
  8
_U+30EC_U+30A4_U+30E4_U+30FC 1
 62
   179
420
  2234388
370
     9
  0
INSERT
  5
B2
330
1F
100
AcDbEntity
  8
_U+30EC_U+30A4_U+30E4_U+30FC 1
100
AcDbBlockReference
  2
block 3
 10
0.0
 20
0.0
 30
0.0
  0
POLYLINE
  5
B9
330
1F
100
AcDbEntity
  8
_U+30EC_U+30A4_U+30E4_U+30FC 1
 62
   179
420
  2234388
370
     9
100
AcDb2dPolyline
 66
     1
 10
0.0
 20
0.0
 30
0.0
  0
VERTEX
  5
BA
330
B9
100
AcDbEntity
  8
_U+30EC_U+30A4_U+30E4_U+30FC 1
 62
   179
420
  2234388
370
     9
100
AcDbVertex
100
AcDb2dVertex
 10
92.71648874571642
 20
-123.0391874692402
 30
0.0
  0
VERTEX
  5
BB
330
B9
100
AcDbEntity
  8
_U+30EC_U+30A4_U+30E4_U+30FC 1
 62
   179
420
  2234388
370
     9
100
AcDbVertex
100
AcDb2dVertex
 10
80.71668238519032
 20
-123.0391874692402
 30
0.0
  0
SEQEND
  5
BC
330
B9
100
AcDbEntity
  8
_U+30EC_U+30A4_U+30E4_U+30FC 1
 62
   179
420
  2234388
370
     9
  0
POLYLINE
  5
BD
330
1F
100
AcDbEntity
  8
_U+30EC_U+30A4_U+30E4_U+30FC 1
 62
   179
420
  2234388
370
     9
100
AcDb2dPolyline
 66
     1
 10
0.0
 20
0.0
 30
0.0
  0
VERTEX
  5
BE
330
BD
100
AcDbEntity
  8
_U+30EC_U+30A4_U+30E4_U+30FC 1
 62
   179
420
  2234388
370
     9
100
AcDbVertex
100
AcDb2dVertex
 10
92.71648874571642
 20
-125.4996713575138
 30
0.0
  0
VERTEX
  5
BF
330
BD
100
AcDbEntity
  8
_U+30EC_U+30A4_U+30E4_U+30FC 1
 62
   179
420
  2234388
370
     9
100
AcDbVertex
100
AcDb2dVertex
 10
92.71648874571642
 20
-122.039415247268
 30
0.0
  0
SEQEND
  5
C0
330
BD
100
AcDbEntity
  8
_U+30EC_U+30A4_U+30E4_U+30FC 1
 62
   179
420
  2234388
370
     9
  0
POLYLINE
  5
C1
330
1F
100
AcDbEntity
  8
_U+30EC_U+30A4_U+30E4_U+30FC 1
 62
   179
420
  2234388
370
     9
100
AcDb2dPolyline
 66
     1
 10
0.0
 20
0.0
 30
0.0
  0
VERTEX
  5
C2
330
C1
100
AcDbEntity
  8
_U+30EC_U+30A4_U+30E4_U+30FC 1
 62
   179
420
  2234388
370
     9
100
AcDbVertex
100
AcDb2dVertex
 10
80.71668238519032
 20
-125.4996713575138
 30
0.0
  0
VERTEX
  5
C3
330
C1
100
AcDbEntity
  8
_U+30EC_U+30A4_U+30E4_U+30FC 1
 62
   179
420
  2234388
370
     9
100
AcDbVertex
100
AcDb2dVertex
 10
80.71668238519032
 20
-122.039415247268
 30
0.0
  0
SEQEND
  5
C4
330
C1
100
AcDbEntity
  8
_U+30EC_U+30A4_U+30E4_U+30FC 1
 62
   179
420
  2234388
370
     9
  0
INSERT
  5
C6
330
1F
100
AcDbEntity
  8
_U+30EC_U+30A4_U+30E4_U+30FC 1
100
AcDbBlockReference
  2
block 4
 10
0.0
 20
0.0
 30
0.0
  0
POLYLINE
  5
CD
330
1F
100
AcDbEntity
  8
_U+30EC_U+30A4_U+30E4_U+30FC 1
 62
   179
420
  2234388
370
     9
100
AcDb2dPolyline
 66
     1
 10
0.0
 20
0.0
 30
0.0
  0
VERTEX
  5
CE
330
CD
100
AcDbEntity
  8
_U+30EC_U+30A4_U+30E4_U+30FC 1
 62
   179
420
  2234388
370
     9
100
AcDbVertex
100
AcDb2dVertex
 10
76.7166058205741
 20
-128.1131196901941
 30
0.0
  0
VERTEX
  5
CF
330
CD
100
AcDbEntity
  8
_U+30EC_U+30A4_U+30E4_U+30FC 1
 62
   179
420
  2234388
370
     9
100
AcDbVertex
100
AcDb2dVertex
 10
76.7166058205741
 20
-130.6132205229025
 30
0.0
  0
SEQEND
  5
D0
330
CD
100
AcDbEntity
  8
_U+30EC_U+30A4_U+30E4_U+30FC 1
 62
   179
420
  2234388
370
     9
  0
POLYLINE
  5
D1
330
1F
100
AcDbEntity
  8
_U+30EC_U+30A4_U+30E4_U+30FC 1
 62
   179
420
  2234388
370
     9
100
AcDb2dPolyline
 66
     1
 10
0.0
 20
0.0
 30
0.0
  0
VERTEX
  5
D2
330
D1
100
AcDbEntity
  8
_U+30EC_U+30A4_U+30E4_U+30FC 1
 62
   179
420
  2234388
370
     9
100
AcDbVertex
100
AcDb2dVertex
 10
78.17661386934476
 20
-127.9952919124455
 30
0.0
  0
VERTEX
  5
D3
330
D1
100
AcDbEntity
  8
_U+30EC_U+30A4_U+30E4_U+30FC 1
 62
   179
420
  2234388
370
     9
100
AcDbVertex
100
AcDb2dVertex
 10
75.7168336238582
 20
-127.9952919124455
 30
0.0
  0
SEQEND
  5
D4
330
D1
100
AcDbEntity
  8
_U+30EC_U+30A4_U+30E4_U+30FC 1
 62
   179
420
  2234388
370
     9
  0
POLYLINE
  5
D5
330
1F
100
AcDbEntity
  8
_U+30EC_U+30A4_U+30E4_U+30FC 1
 62
   179
420
  2234388
370
     9
100
AcDb2dPolyline
 66
     1
 10
0.0
 20
0.0
 30
0.0
  0
VERTEX
  5
D6
330
D5
100
AcDbEntity
  8
_U+30EC_U+30A4_U+30E4_U+30FC 1
 62
   179
420
  2234388
370
     9
100
AcDbVertex
100
AcDb2dVertex
 10
78.54043160737777
 20
-130.6132205229025
 30
0.0
  0
VERTEX
  5
D7
330
D5
100
AcDbEntity
  8
_U+30EC_U+30A4_U+30E4_U+30FC 1
 62
   179
420
  2234388
370
     9
100
AcDbVertex
100
AcDb2dVertex
 10
75.7168336238582
 20
-130.6132205229025
 30
0.0
  0
SEQEND
  5
D8
330
D5
100
AcDbEntity
  8
_U+30EC_U+30A4_U+30E4_U+30FC 1
 62
   179
420
  2234388
370
     9
  0
INSERT
  5
DA
330
1F
100
AcDbEntity
  8
_U+30EC_U+30A4_U+30E4_U+30FC 1
100
AcDbBlockReference
  2
block 5
 10
0.0
 20
0.0
 30
0.0
  0
POLYLINE
  5
E9
330
1F
100
AcDbEntity
  8
_U+30EC_U+30A4_U+30E4_U+30FC 1
 62
   179
420
  2234388
370
     9
100
AcDb2dPolyline
 66
     1
 10
0.0
 20
0.0
 30
0.0
  0
VERTEX
  5
EA
330
E9
100
AcDbEntity
  8
_U+30EC_U+30A4_U+30E4_U+30FC 1
 62
   179
420
  2234388
370
     9
100
AcDbVertex
100
AcDb2dVertex
 10
76.7166058205741
 20
-131.6129927448744
 30
0.0
  0
VERTEX
  5
EB
330
E9
100
AcDbEntity
  8
_U+30EC_U+30A4_U+30E4_U+30FC 1
 62
   179
420
  2234388
370
     9
100
AcDbVertex
100
AcDb2dVertex
 10
76.7166058205741
 20
-135.3833052439318
 30
0.0
  0
SEQEND
  5
EC
330
E9
100
AcDbEntity
  8
_U+30EC_U+30A4_U+30E4_U+30FC 1
 62
   179
420
  2234388
370
     9
  0
POLYLINE
  5
ED
330
1F
100
AcDbEntity
  8
_U+30EC_U+30A4_U+30E4_U+30FC 1
 62
   179
420
  2234388
370
     9
100
AcDb2dPolyline
 66
     1
 10
0.0
 20
0.0
 30
0.0
  0
VERTEX
  5
EE
330
ED
100
AcDbEntity
  8
_U+30EC_U+30A4_U+30E4_U+30FC 1
 62
   179
420
  2234388
370
     9
100
AcDbVertex
100
AcDb2dVertex
 10
76.7166058205741
 20
-124.2249794133881
 30
0.0
  0
VERTEX
  5
EF
330
ED
100
AcDbEntity
  8
_U+30EC_U+30A4_U+30E4_U+30FC 1
 62
   179
420
  2234388
370
     9
100
AcDbVertex
100
AcDb2dVertex
 10
76.7166058205741
 20
-127.9952919124455
 30
0.0
  0
SEQEND
  5
F0
330
ED
100
AcDbEntity
  8
_U+30EC_U+30A4_U+30E4_U+30FC 1
 62
   179
420
  2234388
370
     9
  0
POLYLINE
  5
F1
330
1F
100
AcDbEntity
  8
_U+30EC_U+30A4_U+30E4_U+30FC 1
 62
   179
420
  2234388
370
     9
100
AcDb2dPolyline
 66
     1
 10
0.0
 20
0.0
 30
0.0
  0
VERTEX
  5
F2
330
F1
100
AcDbEntity
  8
_U+30EC_U+30A4_U+30E4_U+30FC 1
 62
   179
420
  2234388
370
     9
100
AcDbVertex
100
AcDb2dVertex
 10
76.7166058205741
 20
-130.6132205229025
 30
0.0
  0
VERTEX
  5
F3
330
F1
100
AcDbEntity
  8
_U+30EC_U+30A4_U+30E4_U+30FC 1
 62
   179
420
  2234388
370
     9
100
AcDbVertex
100
AcDb2dVertex
 10
76.7166058205741
 20
-131.6129927448744
 30
0.0
  0
SEQEND
  5
F4
330
F1
100
AcDbEntity
  8
_U+30EC_U+30A4_U+30E4_U+30FC 1
 62
   179
420
  2234388
370
     9
  0
POLYLINE
  5
F5
330
1F
100
AcDbEntity
  8
_U+30EC_U+30A4_U+30E4_U+30FC 1
 62
   179
420
  2234388
370
     9
100
AcDb2dPolyline
 66
     1
 10
0.0
 20
0.0
 30
0.0
  0
VERTEX
  5
F6
330
F5
100
AcDbEntity
  8
_U+30EC_U+30A4_U+30E4_U+30FC 1
 62
   179
420
  2234388
370
     9
100
AcDbVertex
100
AcDb2dVertex
 10
78.17661386934476
 20
-131.6129927448744
 30
0.0
  0
VERTEX
  5
F7
330
F5
100
AcDbEntity
  8
_U+30EC_U+30A4_U+30E4_U+30FC 1
 62
   179
420
  2234388
370
     9
100
AcDbVertex
100
AcDb2dVertex
 10
75.7168336238582
 20
-131.6129927448744
 30
0.0
  0
SEQEND
  5
F8
330
F5
100
AcDbEntity
  8
_U+30EC_U+30A4_U+30E4_U+30FC 1
 62
   179
420
  2234388
370
     9
  0
INSERT
  5
FA
330
1F
100
AcDbEntity
  8
_U+30EC_U+30A4_U+30E4_U+30FC 1
100
AcDbBlockReference
  2
block 6
 10
0.0
 20
0.0
 30
0.0
  0
POLYLINE
  5
FF
330
1F
100
AcDbEntity
  8
_U+30EC_U+30A4_U+30E4_U+30FC 1
 62
   179
420
  2234388
370
     9
100
AcDb2dPolyline
 66
     1
 10
0.0
 20
0.0
 30
0.0
  0
VERTEX
  5
100
330
FF
100
AcDbEntity
  8
_U+30EC_U+30A4_U+30E4_U+30FC 1
 62
   179
420
  2234388
370
     9
100
AcDbVertex
100
AcDb2dVertex
 10
96.71691808810141
 20
-126.9133577460494
 30
0.0
  0
VERTEX
  5
101
330
FF
100
AcDbEntity
  8
_U+30EC_U+30A4_U+30E4_U+30FC 1
 62
   179
420
  2234388
370
     9
100
AcDbVertex
100
AcDb2dVertex
 10
103.7166666407375
 20
-126.9133577460494
 30
0.0
  0
SEQEND
  5
102
330
FF
100
AcDbEntity
  8
_U+30EC_U+30A4_U+30E4_U+30FC 1
 62
   179
420
  2234388
370
     9
  0
POLYLINE
  5
103
330
1F
100
AcDbEntity
  8
_U+30EC_U+30A4_U+30E4_U+30FC 1
 62
   179
420
  2234388
370
     9
100
AcDb2dPolyline
 66
     1
 10
0.0
 20
0.0
 30
0.0
  0
VERTEX
  5
104
330
103
100
AcDbEntity
  8
_U+30EC_U+30A4_U+30E4_U+30FC 1
 62
   179
420
  2234388
370
     9
100
AcDbVertex
100
AcDb2dVertex
 10
96.71691808810141
 20
-128.0736791346482
 30
0.0
  0
VERTEX
  5
105
330
103
100
AcDbEntity
  8
_U+30EC_U+30A4_U+30E4_U+30FC 1
 62
   179
420
  2234388
370
     9
100
AcDbVertex
100
AcDb2dVertex
 10
96.71691808810141
 20
-125.9135855240771
 30
0.0
  0
SEQEND
  5
106
330
103
100
AcDbEntity
  8
_U+30EC_U+30A4_U+30E4_U+30FC 1
 62
   179
420
  2234388
370
     9
  0
POLYLINE
  5
107
330
1F
100
AcDbEntity
  8
_U+30EC_U+30A4_U+30E4_U+30FC 1
 62
   179
420
  2234388
370
     9
100
AcDb2dPolyline
 66
     1
 10
0.0
 20
0.0
 30
0.0
  0
VERTEX
  5
108
330
107
100
AcDbEntity
  8
_U+30EC_U+30A4_U+30E4_U+30FC 1
 62
   179
420
  2234388
370
     9
100
AcDbVertex
100
AcDb2dVertex
 10
103.7166666407375
 20
-129.0732749677318
 30
0.0
  0
VERTEX
  5
109
330
107
100
AcDbEntity
  8
_U+30EC_U+30A4_U+30E4_U+30FC 1
 62
   179
420
  2234388
370
     9
100
AcDbVertex
100
AcDb2dVertex
 10
103.7166666407375
 20
-125.9135855240771
 30
0.0
  0
SEQEND
  5
10A
330
107
100
AcDbEntity
  8
_U+30EC_U+30A4_U+30E4_U+30FC 1
 62
   179
420
  2234388
370
     9
  0
INSERT
  5
10C
330
1F
100
AcDbEntity
  8
_U+30EC_U+30A4_U+30E4_U+30FC 1
100
AcDbBlockReference
  2
block 7
 10
0.0
 20
0.0
 30
0.0
  0
ENDSEC
  0
SECTION
  2
OBJECTS
  0
DICTIONARY
  5
C
330
0
100
AcDbDictionary
281
     1
  3
ACAD_GROUP
350
D
  3
ACAD_LAYOUT
350
1A
  3
ACAD_MATERIAL
350
3B
  3
ACAD_MLEADERSTYLE
350
112
  3
ACAD_MLINESTYLE
350
17
  3
ACAD_PLOTSETTINGS
350
19
  3
ACAD_PLOTSTYLENAME
350
E
  3
ACAD_TABLESTYLE
350
111
  3
ACAD_VISUALSTYLE
350
2A
  0
SUN
  5
3F
330
29
100
AcDbSun
 90
        1
290
     0
 63
     7
421
 16777215
 40
1.0
291
     1
 91
  2455826
 92
 54000000
292
     0
 70
     2
 71
   256
280
     1
  0
DICTIONARY
  5
D
102
{ACAD_REACTORS
330
C
102
}
330
C
100
AcDbDictionary
281
     1
  0
DICTIONARY
  5
1A
102
{ACAD_REACTORS
330
C
102
}
330
C
100
AcDbDictionary
281
     1
  3
Layout1
350
1E
  3
Layout2
350
26
  3
Model
350
22
  0
DICTIONARY
  5
3B
102
{ACAD_REACTORS
330
C
102
}
330
C
100
AcDbDictionary
281
     1
  3
ByBlock
350
3D
  3
ByLayer
350
3C
  3
Global
350
3E
  0
DICTIONARY
  5
112
102
{ACAD_REACTORS
330
C
102
}
330
C
100
AcDbDictionary
281
     1
  0
DICTIONARY
  5
17
102
{ACAD_REACTORS
330
C
102
}
330
C
100
AcDbDictionary
281
     1
  3
Standard
350
18
  0
DICTIONARY
  5
19
102
{ACAD_REACTORS
330
C
102
}
330
C
100
AcDbDictionary
281
     1
  0
ACDBDICTIONARYWDFLT
  5
E
102
{ACAD_REACTORS
330
C
102
}
330
C
100
AcDbDictionary
281
     1
  3
Normal
350
F
100
AcDbDictionaryWithDefault
340
F
  0
DICTIONARY
  5
111
102
{ACAD_REACTORS
330
C
102
}
330
C
100
AcDbDictionary
281
     1
  0
DICTIONARY
  5
2A
102
{ACAD_REACTORS
330
C
102
}
330
C
100
AcDbDictionary
281
     1
  3
2dWireframe
350
2F
  3
3D Hidden
350
31
  3
3dWireframe
350
30
  3
Basic
350
32
  3
Brighten
350
36
  3
ColorChange
350
3A
  3
Conceptual
350
34
  3
Dim
350
35
  3
Facepattern
350
39
  3
Flat
350
2B
  3
FlatWithEdges
350
2C
  3
Gouraud
350
2D
  3
GouraudWithEdges
350
2E
  3
Linepattern
350
38
  3
Realistic
350
33
  3
Thicken
350
37
  0
LAYOUT
  5
1E
102
{ACAD_REACTORS
330
1A
102
}
330
1A
100
AcDbPlotSettings
  1

  2
none_device
  4

  6

 40
0.0
 41
0.0
 42
0.0
 43
0.0
 44
0.0
 45
0.0
 46
0.0
 47
0.0
 48
0.0
 49
0.0
140
0.0
141
0.0
142
1.0
143
1.0
 70
   688
 72
     0
 73
     0
 74
     5
  7

 75
    16
 76
     0
 77
     2
 78
   300
147
1.0
148
0.0
149
0.0
100
AcDbLayout
  1
Layout1
 70
     1
 71
     1
 10
0.0
 20
0.0
 11
12.0
 21
9.0
 12
0.0
 22
0.0
 32
0.0
 14
1.000000000000000E+20
 24
1.000000000000000E+20
 34
1.000000000000000E+20
 15
-1.000000000000000E+20
 25
-1.000000000000000E+20
 35
-1.000000000000000E+20
146
0.0
 13
0.0
 23
0.0
 33
0.0
 16
1.0
 26
0.0
 36
0.0
 17
0.0
 27
1.0
 37
0.0
 76
     0
330
1B
  0
LAYOUT
  5
26
102
{ACAD_REACTORS
330
1A
102
}
330
1A
100
AcDbPlotSettings
  1

  2
none_device
  4

  6

 40
0.0
 41
0.0
 42
0.0
 43
0.0
 44
0.0
 45
0.0
 46
0.0
 47
0.0
 48
0.0
 49
0.0
140
0.0
141
0.0
142
1.0
143
1.0
 70
   688
 72
     0
 73
     0
 74
     5
  7

 75
    16
 76
     0
 77
     2
 78
   300
147
1.0
148
0.0
149
0.0
100
AcDbLayout
  1
Layout2
 70
     1
 71
     2
 10
0.0
 20
0.0
 11
0.0
 21
0.0
 12
0.0
 22
0.0
 32
0.0
 14
0.0
 24
0.0
 34
0.0
 15
0.0
 25
0.0
 35
0.0
146
0.0
 13
0.0
 23
0.0
 33
0.0
 16
1.0
 26
0.0
 36
0.0
 17
0.0
 27
1.0
 37
0.0
 76
     0
330
23
  0
LAYOUT
  5
22
102
{ACAD_REACTORS
330
1A
102
}
330
1A
100
AcDbPlotSettings
  1

  2
none_device
  4

  6

 40
0.0
 41
0.0
 42
0.0
 43
0.0
 44
0.0
 45
0.0
 46
0.0
 47
0.0
 48
0.0
 49
0.0
140
0.0
141
0.0
142
1.0
143
1.0
 70
  1712
 72
     0
 73
     0
 74
     0
  7

 75
     0
 76
     0
 77
     2
 78
   300
147
1.0
148
0.0
149
0.0
100
AcDbLayout
  1
Model
 70
     1
 71
     0
 10
0.0
 20
0.0
 11
12.0
 21
9.0
 12
0.0
 22
0.0
 32
0.0
 14
1.000000000000000E+20
 24
1.000000000000000E+20
 34
1.000000000000000E+20
 15
-1.000000000000000E+20
 25
-1.000000000000000E+20
 35
-1.000000000000000E+20
146
0.0
 13
0.0
 23
0.0
 33
0.0
 16
1.0
 26
0.0
 36
0.0
 17
0.0
 27
1.0
 37
0.0
 76
     0
330
1F
331
29
  0
MATERIAL
  5
3D
102
{ACAD_REACTORS
330
3B
102
}
330
3B
100
AcDbMaterial
  1
ByBlock
 72
     1
 94
      127
  0
MATERIAL
  5
3C
102
{ACAD_REACTORS
330
3B
102
}
330
3B
100
AcDbMaterial
  1
ByLayer
 72
     1
 94
      127
  0
MATERIAL
  5
3E
102
{ACAD_REACTORS
330
3B
102
}
330
3B
100
AcDbMaterial
  1
Global
 72
     1
 94
      127
  0
MLINESTYLE
  5
18
102
{ACAD_REACTORS
330
17
102
}
330
17
100
AcDbMlineStyle
  2
Standard
 70
     0
  3

 62
   256
 51
90.0
 52
90.0
 71
     2
 49
0.5
 62
   256
  6
BYLAYER
 49
-0.5
 62
   256
  6
BYLAYER
  0
ACDBPLACEHOLDER
  5
F
102
{ACAD_REACTORS
330
E
102
}
330
E
  0
VISUALSTYLE
  5
2F
102
{ACAD_REACTORS
330
2A
102
}
330
2A
100
AcDbVisualStyle
  2
2dWireframe
 70
     4
177
     2
291
     0
 71
     0
176
     1
 72
     2
176
     1
 73
     0
176
     1
 90
        0
176
     1
 40
-0.6
176
     1
 41
-30.0
176
     1
 62
     5
 63
     7
421
 16777215
176
     1
 74
     1
176
     1
 91
        4
176
     1
 64
     7
176
     1
 65
   257
176
     1
 75
     1
176
     1
175
     1
176
     1
 42
1.0
176
     1
 92
        0
176
     1
 66
   257
176
     1
 43
1.0
176
     1
 76
     1
176
     1
 77
     6
176
     1
 78
     2
176
     1
 67
     7
176
     1
 79
     5
176
     1
170
     0
176
     1
171
     0
176
     1
290
     0
176
     1
 93
        1
176
     1
 44
0.0
176
     1
173
     0
176
     1
  0
VISUALSTYLE
  5
31
102
{ACAD_REACTORS
330
2A
102
}
330
2A
100
AcDbVisualStyle
  2
3D Hidden
 70
     6
177
     2
291
     0
 71
     1
176
     1
 72
     2
176
     1
 73
     2
176
     1
 90
        0
176
     1
 40
-0.6
176
     1
 41
-30.0
176
     1
 62
     5
 63
     7
421
 16777215
176
     1
 74
     2
176
     1
 91
        2
176
     1
 64
     7
176
     1
 65
   257
176
     1
 75
     2
176
     1
175
     1
176
     1
 42
40.0
176
     1
 92
        0
176
     1
 66
   257
176
     1
 43
1.0
176
     1
 76
     1
176
     1
 77
     6
176
     1
 78
     2
176
     1
 67
     7
176
     1
 79
     3
176
     1
170
     0
176
     1
171
     0
176
     1
290
     0
176
     1
 93
        1
176
     1
 44
0.0
176
     1
173
     0
176
     1
  0
VISUALSTYLE
  5
30
102
{ACAD_REACTORS
330
2A
102
}
330
2A
100
AcDbVisualStyle
  2
3dWireframe
 70
     5
177
     2
291
     0
 71
     0
176
     1
 72
     2
176
     1
 73
     0
176
     1
 90
        0
176
     1
 40
-0.6
176
     1
 41
-30.0
176
     1
 62
     5
 63
     7
421
 16777215
176
     1
 74
     1
176
     1
 91
        4
176
     1
 64
     7
176
     1
 65
   257
176
     1
 75
     1
176
     1
175
     1
176
     1
 42
1.0
176
     1
 92
        0
176
     1
 66
   257
176
     1
 43
1.0
176
     1
 76
     1
176
     1
 77
     6
176
     1
 78
     2
176
     1
 67
     7
176
     1
 79
     5
176
     1
170
     0
176
     1
171
     0
176
     1
290
     0
176
     1
 93
        1
176
     1
 44
0.0
176
     1
173
     0
176
     1
  0
VISUALSTYLE
  5
32
102
{ACAD_REACTORS
330
2A
102
}
330
2A
100
AcDbVisualStyle
  2
Basic
 70
     7
177
     2
291
     1
 71
     1
176
     1
 72
     0
176
     1
 73
     1
176
     1
 90
        0
176
     1
 40
-0.6
176
     1
 41
-30.0
176
     1
 62
     5
 63
     7
421
 16777215
176
     1
 74
     0
176
     1
 91
        4
176
     1
 64
     7
176
     1
 65
   257
176
     1
 75
     1
176
     1
175
     1
176
     1
 42
1.0
176
     1
 92
        8
176
     1
 66
     7
176
     1
 43
1.0
176
     1
 76
     1
176
     1
 77
     6
176
     1
 78
     2
176
     1
 67
     7
176
     1
 79
     5
176
     1
170
     0
176
     1
171
     0
176
     1
290
     0
176
     1
 93
        1
176
     1
 44
0.0
176
     1
173
     0
176
     1
  0
VISUALSTYLE
  5
36
102
{ACAD_REACTORS
330
2A
102
}
330
2A
100
AcDbVisualStyle
  2
Brighten
 70
    12
177
     2
291
     1
 71
     2
176
     1
 72
     2
176
     1
 73
     0
176
     1
 90
        0
176
     1
 40
-0.6
176
     1
 41
-30.0
176
     1
 62
     5
 63
     7
421
 16777215
176
     1
 74
     1
176
     1
 91
        4
176
     1
 64
     7
176
     1
 65
   257
176
     1
 75
     1
176
     1
175
     1
176
     1
 42
1.0
176
     1
 92
        8
176
     1
 66
     7
176
     1
 43
1.0
176
     1
 76
     1
176
     1
 77
     6
176
     1
 78
     2
176
     1
 67
     7
176
     1
 79
     5
176
     1
170
     0
176
     1
171
     0
176
     1
290
     0
176
     1
 93
        1
176
     1
 44
50.0
176
     1
173
     0
176
     1
  0
VISUALSTYLE
  5
3A
102
{ACAD_REACTORS
330
2A
102
}
330
2A
100
AcDbVisualStyle
  2
ColorChange
 70
    16
177
     2
291
     1
 71
     2
176
     1
 72
     2
176
     1
 73
     3
176
     1
 90
        0
176
     1
 40
-0.6
176
     1
 41
-30.0
176
     1
 62
     5
 63
     8
421
  8421504
176
     1
 74
     1
176
     1
 91
        4
176
     1
 64
     7
176
     1
 65
   257
176
     1
 75
     1
176
     1
175
     1
176
     1
 42
1.0
176
     1
 92
        8
176
     1
 66
     8
424
  8421504
176
     1
 43
1.0
176
     1
 76
     1
176
     1
 77
     6
176
     1
 78
     2
176
     1
 67
     7
176
     1
 79
     5
176
     1
170
     0
176
     1
171
     0
176
     1
290
     0
176
     1
 93
        1
176
     1
 44
0.0
176
     1
173
     0
176
     1
  0
VISUALSTYLE
  5
34
102
{ACAD_REACTORS
330
2A
102
}
330
2A
100
AcDbVisualStyle
  2
Conceptual
 70
     9
177
     2
291
     0
 71
     3
176
     1
 72
     2
176
     1
 73
     0
176
     1
 90
        0
176
     1
 40
-0.6
176
     1
 41
-30.0
176
     1
 62
     5
 63
     7
421
 16777215
176
     1
 74
     2
176
     1
 91
        2
176
     1
 64
     7
176
     1
 65
   257
176
     1
 75
     1
176
     1
175
     1
176
     1
 42
40.0
176
     1
 92
        8
176
     1
 66
     7
176
     1
 43
1.0
176
     1
 76
     1
176
     1
 77
     6
176
     1
 78
     2
176
     1
 67
     7
176
     1
 79
     3
176
     1
170
     0
176
     1
171
     0
176
     1
290
     0
176
     1
 93
        1
176
     1
 44
0.0
176
     1
173
     0
176
     1
  0
VISUALSTYLE
  5
35
102
{ACAD_REACTORS
330
2A
102
}
330
2A
100
AcDbVisualStyle
  2
Dim
 70
    11
177
     2
291
     1
 71
     2
176
     1
 72
     2
176
     1
 73
     0
176
     1
 90
        0
176
     1
 40
-0.6
176
     1
 41
-30.0
176
     1
 62
     5
 63
     7
421
 16777215
176
     1
 74
     1
176
     1
 91
        4
176
     1
 64
     7
176
     1
 65
   257
176
     1
 75
     1
176
     1
175
     1
176
     1
 42
1.0
176
     1
 92
        8
176
     1
 66
     7
176
     1
 43
1.0
176
     1
 76
     1
176
     1
 77
     6
176
     1
 78
     2
176
     1
 67
     7
176
     1
 79
     5
176
     1
170
     0
176
     1
171
     0
176
     1
290
     0
176
     1
 93
        1
176
     1
 44
-50.0
176
     1
173
     0
176
     1
  0
VISUALSTYLE
  5
39
102
{ACAD_REACTORS
330
2A
102
}
330
2A
100
AcDbVisualStyle
  2
Facepattern
 70
    15
177
     2
291
     1
 71
     2
176
     1
 72
     2
176
     1
 73
     0
176
     1
 90
        0
176
     1
 40
-0.6
176
     1
 41
-30.0
176
     1
 62
     5
 63
     7
421
 16777215
176
     1
 74
     1
176
     1
 91
        4
176
     1
 64
     7
176
     1
 65
   257
176
     1
 75
     1
176
     1
175
     1
176
     1
 42
1.0
176
     1
 92
        8
176
     1
 66
     7
176
     1
 43
1.0
176
     1
 76
     1
176
     1
 77
     6
176
     1
 78
     2
176
     1
 67
     7
176
     1
 79
     5
176
     1
170
     0
176
     1
171
     0
176
     1
290
     0
176
     1
 93
        1
176
     1
 44
0.0
176
     1
173
     0
176
     1
  0
VISUALSTYLE
  5
2B
102
{ACAD_REACTORS
330
2A
102
}
330
2A
100
AcDbVisualStyle
  2
Flat
 70
     0
177
     2
291
     1
 71
     2
176
     1
 72
     1
176
     1
 73
     1
176
     1
 90
        2
176
     1
 40
-0.6
176
     1
 41
30.0
176
     1
 62
     5
 63
     7
421
 16777215
176
     1
 74
     0
176
     1
 91
        4
176
     1
 64
     7
176
     1
 65
   257
176
     1
 75
     1
176
     1
175
     1
176
     1
 42
1.0
176
     1
 92
        8
176
     1
 66
     7
176
     1
 43
1.0
176
     1
 76
     1
176
     1
 77
     6
176
     1
 78
     2
176
     1
 67
     7
176
     1
 79
     5
176
     1
170
     0
176
     1
171
     0
176
     1
290
     0
176
     1
 93
       13
176
     1
 44
0.0
176
     1
173
     0
176
     1
  0
VISUALSTYLE
  5
2C
102
{ACAD_REACTORS
330
2A
102
}
330
2A
100
AcDbVisualStyle
  2
FlatWithEdges
 70
     1
177
     2
291
     1
 71
     2
176
     1
 72
     1
176
     1
 73
     1
176
     1
 90
        2
176
     1
 40
-0.6
176
     1
 41
30.0
176
     1
 62
     5
 63
     7
421
 16777215
176
     1
 74
     1
176
     1
 91
        4
176
     1
 64
     7
176
     1
 65
   257
176
     1
 75
     1
176
     1
175
     1
176
     1
 42
1.0
176
     1
 92
        0
176
     1
 66
   257
176
     1
 43
1.0
176
     1
 76
     1
176
     1
 77
     6
176
     1
 78
     2
176
     1
 67
     7
176
     1
 79
     5
176
     1
170
     0
176
     1
171
     0
176
     1
290
     0
176
     1
 93
       13
176
     1
 44
0.0
176
     1
173
     0
176
     1
  0
VISUALSTYLE
  5
2D
102
{ACAD_REACTORS
330
2A
102
}
330
2A
100
AcDbVisualStyle
  2
Gouraud
 70
     2
177
     2
291
     1
 71
     2
176
     1
 72
     2
176
     1
 73
     1
176
     1
 90
        2
176
     1
 40
-0.6
176
     1
 41
30.0
176
     1
 62
     5
 63
     7
421
 16777215
176
     1
 74
     0
176
     1
 91
        4
176
     1
 64
     7
176
     1
 65
   257
176
     1
 75
     1
176
     1
175
     1
176
     1
 42
1.0
176
     1
 92
        0
176
     1
 66
     7
176
     1
 43
1.0
176
     1
 76
     1
176
     1
 77
     6
176
     1
 78
     2
176
     1
 67
     7
176
     1
 79
     5
176
     1
170
     0
176
     1
171
     0
176
     1
290
     0
176
     1
 93
       13
176
     1
 44
0.0
176
     1
173
     0
176
     1
  0
VISUALSTYLE
  5
2E
102
{ACAD_REACTORS
330
2A
102
}
330
2A
100
AcDbVisualStyle
  2
GouraudWithEdges
 70
     3
177
     2
291
     1
 71
     2
176
     1
 72
     2
176
     1
 73
     1
176
     1
 90
        2
176
     1
 40
-0.6
176
     1
 41
30.0
176
     1
 62
     5
 63
     7
421
 16777215
176
     1
 74
     1
176
     1
 91
        4
176
     1
 64
     7
176
     1
 65
   257
176
     1
 75
     1
176
     1
175
     1
176
     1
 42
1.0
176
     1
 92
        0
176
     1
 66
   257
176
     1
 43
1.0
176
     1
 76
     1
176
     1
 77
     6
176
     1
 78
     2
176
     1
 67
     7
176
     1
 79
     5
176
     1
170
     0
176
     1
171
     0
176
     1
290
     0
176
     1
 93
       13
176
     1
 44
0.0
176
     1
173
     0
176
     1
  0
VISUALSTYLE
  5
38
102
{ACAD_REACTORS
330
2A
102
}
330
2A
100
AcDbVisualStyle
  2
Linepattern
 70
    14
177
     2
291
     1
 71
     2
176
     1
 72
     2
176
     1
 73
     0
176
     1
 90
        0
176
     1
 40
-0.6
176
     1
 41
-30.0
176
     1
 62
     5
 63
     7
421
 16777215
176
     1
 74
     1
176
     1
 91
        4
176
     1
 64
     7
176
     1
 65
   257
176
     1
 75
     7
176
     1
175
     7
176
     1
 42
1.0
176
     1
 92
        8
176
     1
 66
     7
176
     1
 43
1.0
176
     1
 76
     1
176
     1
 77
     6
176
     1
 78
     2
176
     1
 67
     7
176
     1
 79
     5
176
     1
170
     0
176
     1
171
     0
176
     1
290
     0
176
     1
 93
        1
176
     1
 44
0.0
176
     1
173
     0
176
     1
  0
VISUALSTYLE
  5
33
102
{ACAD_REACTORS
330
2A
102
}
330
2A
100
AcDbVisualStyle
  2
Realistic
 70
     8
177
     2
291
     0
 71
     2
176
     1
 72
     2
176
     1
 73
     0
176
     1
 90
        0
176
     1
 40
-0.6
176
     1
 41
-30.0
176
     1
 62
     5
 63
     7
421
 16777215
176
     1
 74
     1
176
     1
 91
        0
176
     1
 64
     7
176
     1
 65
   257
176
     1
 75
     1
176
     1
175
     1
176
     1
 42
1.0
176
     1
 92
        8
176
     1
 66
     8
424
  7895160
176
     1
 43
1.0
176
     1
 76
     1
176
     1
 77
     6
176
     1
 78
     2
176
     1
 67
     7
176
     1
 79
     5
176
     1
170
     0
176
     1
171
     0
176
     1
290
     0
176
     1
 93
       13
176
     1
 44
0.0
176
     1
173
     0
176
     1
  0
VISUALSTYLE
  5
37
102
{ACAD_REACTORS
330
2A
102
}
330
2A
100
AcDbVisualStyle
  2
Thicken
 70
    13
177
     2
291
     1
 71
     2
176
     1
 72
     2
176
     1
 73
     0
176
     1
 90
        0
176
     1
 40
-0.6
176
     1
 41
-30.0
176
     1
 62
     5
 63
     7
421
 16777215
176
     1
 74
     1
176
     1
 91
        4
176
     1
 64
     7
176
     1
 65
   257
176
     1
 75
     1
176
     1
175
     1
176
     1
 42
1.0
176
     1
 92
       12
176
     1
 66
     7
176
     1
 43
1.0
176
     1
 76
     1
176
     1
 77
     6
176
     1
 78
     2
176
     1
 67
     7
176
     1
 79
     5
176
     1
170
     0
176
     1
171
     0
176
     1
290
     0
176
     1
 93
        1
176
     1
 44
0.0
176
     1
173
     0
176
     1
  0
ENDSEC
  0
EOF
