  0
SECTION
  2
HEADER
  9
$ACADVER
  1
AC1024
  9
$ACADMAINTVER
 70
     6
  9
$DWGCODEPAGE
  3
UNDEFINED
  9
$INSBASE
 10
0.0
 20
0.0
 30
0.0
  9
$EXTMIN
 10
1.000000000000000E+20
 20
1.000000000000000E+20
 30
1.000000000000000E+20
  9
$EXTMAX
 10
-1.000000000000000E+20
 20
-1.000000000000000E+20
 30
-1.000000000000000E+20
  9
$LIMMIN
 10
0.0
 20
0.0
  9
$LIMMAX
 10
12.0
 20
9.0
  9
$ORTHOMODE
 70
     0
  9
$REGENMODE
 70
     1
  9
$FILLMODE
 70
     1
  9
$QTEXTMODE
 70
     0
  9
$MIRRTEXT
 70
     1
  9
$LTSCALE
 40
1.0
  9
$ATTMODE
 70
     1
  9
$TEXTSIZE
 40
0.2
  9
$TRACEWID
 40
0.05
  9
$TEXTSTYLE
  7
Standard
  9
$CLAYER
  8
0
  9
$CELTYPE
  6
ByLayer
  9
$CECOLOR
 62
   256
  9
$CELTSCALE
 40
1.0
  9
$DISPSILH
 70
     0
  9
$DIMSCALE
 40
1.0
  9
$DIMASZ
 40
0.18
  9
$DIMEXO
 40
0.0625
  9
$DIMDLI
 40
0.38
  9
$DIMRND
 40
0.0
  9
$DIMDLE
 40
0.0
  9
$DIMEXE
 40
0.18
  9
$DIMTP
 40
0.0
  9
$DIMTM
 40
0.0
  9
$DIMTXT
 40
0.18
  9
$DIMCEN
 40
0.09
  9
$DIMTSZ
 40
0.0
  9
$DIMTOL
 70
     0
  9
$DIMLIM
 70
     0
  9
$DIMTIH
 70
     1
  9
$DIMTOH
 70
     1
  9
$DIMSE1
 70
     0
  9
$DIMSE2
 70
     0
  9
$DIMTAD
 70
     0
  9
$DIMZIN
 70
     0
  9
$DIMBLK
  1

  9
$DIMASO
 70
     1
  9
$DIMSHO
 70
     1
  9
$DIMPOST
  1

  9
$DIMAPOST
  1

  9
$DIMALT
 70
     0
  9
$DIMALTD
 70
     2
  9
$DIMALTF
 40
25.4
  9
$DIMLFAC
 40
1.0
  9
$DIMTOFL
 70
     0
  9
$DIMTVP
 40
0.0
  9
$DIMTIX
 70
     0
  9
$DIMSOXD
 70
     0
  9
$DIMSAH
 70
     0
  9
$DIMBLK1
  1

  9
$DIMBLK2
  1

  9
$DIMSTYLE
  2
Standard
  9
$DIMCLRD
 70
     0
  9
$DIMCLRE
 70
     0
  9
$DIMCLRT
 70
     0
  9
$DIMTFAC
 40
1.0
  9
$DIMGAP
 40
0.09
  9
$DIMJUST
 70
     0
  9
$DIMSD1
 70
     0
  9
$DIMSD2
 70
     0
  9
$DIMTOLJ
 70
     1
  9
$DIMTZIN
 70
     0
  9
$DIMALTZ
 70
     0
  9
$DIMALTTZ
 70
     0
  9
$DIMUPT
 70
     0
  9
$DIMDEC
 70
     4
  9
$DIMTDEC
 70
     4
  9
$DIMALTU
 70
     2
  9
$DIMALTTD
 70
     2
  9
$DIMTXSTY
  7
Standard
  9
$DIMAUNIT
 70
     0
  9
$DIMADEC
 70
     0
  9
$DIMALTRND
 40
0.0
  9
$DIMAZIN
 70
     0
  9
$DIMDSEP
 70
    46
  9
$DIMATFIT
 70
     3
  9
$DIMFRAC
 70
     0
  9
$DIMLDRBLK
  1

  9
$DIMLUNIT
 70
     2
  9
$DIMLWD
 70
    -2
  9
$DIMLWE
 70
    -2
  9
$DIMTMOVE
 70
     0
  9
$DIMFXL
 40
1.0
  9
$DIMFXLON
 70
     0
  9
$DIMJOGANG
 40
0.7853981633974483
  9
$DIMTFILL
 70
     0
  9
$DIMTFILLCLR
 70
     0
  9
$DIMARCSYM
 70
     0
  9
$DIMLTYPE
  6

  9
$DIMLTEX1
  6

  9
$DIMLTEX2
  6

  9
$DIMTXTDIRECTION
 70
     0
  9
$LUNITS
 70
     2
  9
$LUPREC
 70
     4
  9
$SKETCHINC
 40
0.1
  9
$FILLETRAD
 40
0.5
  9
$AUNITS
 70
     0
  9
$AUPREC
 70
     0
  9
$MENU
  1
.
  9
$ELEVATION
 40
0.0
  9
$PELEVATION
 40
0.0
  9
$THICKNESS
 40
0.0
  9
$LIMCHECK
 70
     0
  9
$CHAMFERA
 40
0.5
  9
$CHAMFERB
 40
0.5
  9
$CHAMFERC
 40
1.0
  9
$CHAMFERD
 40
0.0
  9
$SKPOLY
 70
     0
  9
$TDCREATE
 40
2457917.594675926
  9
$TDUCREATE
 40
2457917.219675926
  9
$TDUPDATE
 40
2457917.594675926
  9
$TDUUPDATE
 40
2457917.219675926
  9
$TDINDWG
 40
0.0000000116
  9
$TDUSRTIMER
 40
0.0000000116
  9
$USRTIMER
 70
     1
  9
$ANGBASE
 50
0.0
  9
$ANGDIR
 70
     0
  9
$PDMODE
 70
     0
  9
$PDSIZE
 40
0.0
  9
$PLINEWID
 40
0.0
  9
$SPLFRAME
 70
     0
  9
$SPLINETYPE
 70
     6
  9
$SPLINESEGS
 70
     8
  9
$HANDSEED
  5
10D
  9
$SURFTAB1
 70
     6
  9
$SURFTAB2
 70
     6
  9
$SURFTYPE
 70
     6
  9
$SURFU
 70
     6
  9
$SURFV
 70
     6
  9
$UCSBASE
  2

  9
$UCSNAME
  2

  9
$UCSORG
 10
0.0
 20
0.0
 30
0.0
  9
$UCSXDIR
 10
1.0
 20
0.0
 30
0.0
  9
$UCSYDIR
 10
0.0
 20
1.0
 30
0.0
  9
$UCSORTHOREF
  2

  9
$UCSORTHOVIEW
 70
     0
  9
$UCSORGTOP
 10
0.0
 20
0.0
 30
0.0
  9
$UCSORGBOTTOM
 10
0.0
 20
0.0
 30
0.0
  9
$UCSORGLEFT
 10
0.0
 20
0.0
 30
0.0
  9
$UCSORGRIGHT
 10
0.0
 20
0.0
 30
0.0
  9
$UCSORGFRONT
 10
0.0
 20
0.0
 30
0.0
  9
$UCSORGBACK
 10
0.0
 20
0.0
 30
0.0
  9
$PUCSBASE
  2

  9
$PUCSNAME
  2

  9
$PUCSORG
 10
0.0
 20
0.0
 30
0.0
  9
$PUCSXDIR
 10
1.0
 20
0.0
 30
0.0
  9
$PUCSYDIR
 10
0.0
 20
1.0
 30
0.0
  9
$PUCSORTHOREF
  2

  9
$PUCSORTHOVIEW
 70
     0
  9
$PUCSORGTOP
 10
0.0
 20
0.0
 30
0.0
  9
$PUCSORGBOTTOM
 10
0.0
 20
0.0
 30
0.0
  9
$PUCSORGLEFT
 10
0.0
 20
0.0
 30
0.0
  9
$PUCSORGRIGHT
 10
0.0
 20
0.0
 30
0.0
  9
$PUCSORGFRONT
 10
0.0
 20
0.0
 30
0.0
  9
$PUCSORGBACK
 10
0.0
 20
0.0
 30
0.0
  9
$USERI1
 70
     0
  9
$USERI2
 70
     0
  9
$USERI3
 70
     0
  9
$USERI4
 70
     0
  9
$USERI5
 70
     0
  9
$USERR1
 40
0.0
  9
$USERR2
 40
0.0
  9
$USERR3
 40
0.0
  9
$USERR4
 40
0.0
  9
$USERR5
 40
0.0
  9
$WORLDVIEW
 70
     1
  9
$SHADEDGE
 70
     3
  9
$SHADEDIF
 70
    70
  9
$TILEMODE
 70
     1
  9
$MAXACTVP
 70
    64
  9
$PINSBASE
 10
0.0
 20
0.0
 30
0.0
  9
$PLIMCHECK
 70
     0
  9
$PEXTMIN
 10
1.000000000000000E+20
 20
1.000000000000000E+20
 30
1.000000000000000E+20
  9
$PEXTMAX
 10
-1.000000000000000E+20
 20
-1.000000000000000E+20
 30
-1.000000000000000E+20
  9
$PLIMMIN
 10
0.0
 20
0.0
  9
$PLIMMAX
 10
12.0
 20
9.0
  9
$UNITMODE
 70
     0
  9
$VISRETAIN
 70
     1
  9
$PLINEGEN
 70
     0
  9
$PSLTSCALE
 70
     1
  9
$TREEDEPTH
 70
  3020
  9
$CMLSTYLE
  2
Standard
  9
$CMLJUST
 70
     0
  9
$CMLSCALE
 40
1.0
  9
$PROXYGRAPHICS
 70
     1
  9
$MEASUREMENT
 70
     0
  9
$CELWEIGHT
370
    -1
  9
$ENDCAPS
280
     0
  9
$JOINSTYLE
280
     0
  9
$LWDISPLAY
290
     1
  9
$INSUNITS
 70
     1
  9
$HYPERLINKBASE
  1

  9
$STYLESHEET
  1

  9
$XEDIT
290
     1
  9
$CEPSNTYPE
380
     0
  9
$PSTYLEMODE
290
     1
  9
$FINGERPRINTGUID
  2
{185D7A05-6077-76EE-98A0-558C6AA71812}
  9
$VERSIONGUID
  2
{FAEB1C32-E019-11D5-929B-00C0DF256EC4}
  9
$EXTNAMES
290
     1
  9
$PSVPSCALE
 40
0.0
  9
$OLESTARTUP
290
     0
  9
$SORTENTS
280
   127
  9
$INDEXCTL
280
     0
  9
$HIDETEXT
280
     1
  9
$XCLIPFRAME
280
     2
  9
$HALOGAP
280
     0
  9
$OBSCOLOR
 70
   257
  9
$OBSLTYPE
280
     0
  9
$INTERSECTIONDISPLAY
280
     0
  9
$INTERSECTIONCOLOR
 70
   257
  9
$DIMASSOC
280
     2
  9
$PROJECTNAME
  1

  9
$CAMERADISPLAY
290
     0
  9
$LENSLENGTH
 40
50.0
  9
$CAMERAHEIGHT
 40
0.0
  9
$STEPSPERSEC
 40
2.0
  9
$STEPSIZE
 40
6.0
  9
$3DDWFPREC
 40
2.0
  9
$PSOLWIDTH
 40
0.25
  9
$PSOLHEIGHT
 40
4.0
  9
$LOFTANG1
 40
1.570796326794897
  9
$LOFTANG2
 40
1.570796326794897
  9
$LOFTMAG1
 40
0.0
  9
$LOFTMAG2
 40
0.0
  9
$LOFTPARAM
 70
     7
  9
$LOFTNORMALS
280
     1
  9
$LATITUDE
 40
37.795
  9
$LONGITUDE
 40
-122.394
  9
$NORTHDIRECTION
 40
0.0
  9
$TIMEZONE
 70
 -8000
  9
$LIGHTGLYPHDISPLAY
280
     1
  9
$TILEMODELIGHTSYNCH
280
     1
  9
$CMATERIAL
347
3C
  9
$SOLIDHIST
280
     1
  9
$SHOWHIST
280
     1
  9
$DWFFRAME
280
     2
  9
$DGNFRAME
280
     2
  9
$REALWORLDSCALE
290
     1
  9
$INTERFERECOLOR
 62
   256
  9
$CSHADOW
280
     0
  9
$SHADOWPLANELOCATION
 40
0.0
  0
ENDSEC
  0
SECTION
  2
CLASSES
  0
CLASS
  1
ACDBDICTIONARYWDFLT
  2
AcDbDictionaryWithDefault
  3
ObjectDBX Classes
 90
        0
 91
        4
280
     0
281
     0
  0
CLASS
  1
VISUALSTYLE
  2
AcDbVisualStyle
  3
ObjectDBX Classes
 90
     4095
 91
        4
280
     0
281
     0
  0
CLASS
  1
MATERIAL
  2
AcDbMaterial
  3
ObjectDBX Classes
 90
     1153
 91
        4
280
     0
281
     0
  0
CLASS
  1
SUN
  2
AcDbSun
  3
SCENEOE
 90
     1024
 91
        4
280
     0
281
     0
  0
ENDSEC
  0
SECTION
  2
TABLES
  0
TABLE
  2
VPORT
  5
8
330
0
100
AcDbSymbolTable
 70
     1
  0
VPORT
  5
29
330
8
100
AcDbSymbolTableRecord
100
AcDbViewportTableRecord
  2
*Active
 70
     0
 10
0.0
 20
0.0
 11
1.0
 21
1.0
 12
0.0
 22
0.0
 13
0.0
 23
0.0
 14
0.5
 24
0.5
 15
0.5
 25
0.5
 16
0.0
 26
0.0
 36
1.0
 17
91.00082462281999
 27
-128.4993055234307
 37
0.0
 40
256.9986110468615
 41
0.7081814508812795
 42
50.0
 43
0.0
 44
0.0
 50
0.0
 51
0.0
 71
     0
 72
   100
 73
     1
 74
     3
 75
     0
 76
     0
 77
     0
 78
     0
281
     0
 65
     1
110
0.0
120
0.0
130
0.0
111
1.0
121
0.0
131
0.0
112
0.0
122
1.0
132
0.0
 79
     0
146
0.0
 60
     3
 61
     5
292
     1
282
     1
141
0.0
142
0.0
 63
   250
361
3F
  0
ENDTAB
  0
TABLE
  2
LTYPE
  5
5
330
0
100
AcDbSymbolTable
 70
     1
  0
LTYPE
  5
14
330
5
100
AcDbSymbolTableRecord
100
AcDbLinetypeTableRecord
  2
ByBlock
 70
     0
  3

 72
    65
 73
     0
 40
0.0
  0
LTYPE
  5
15
330
5
100
AcDbSymbolTableRecord
100
AcDbLinetypeTableRecord
  2
ByLayer
 70
     0
  3

 72
    65
 73
     0
 40
0.0
  0
LTYPE
  5
16
330
5
100
AcDbSymbolTableRecord
100
AcDbLinetypeTableRecord
  2
Continuous
 70
     0
  3
Solid line
 72
    65
 73
     0
 40
0.0
  0
ENDTAB
  0
TABLE
  2
LAYER
  5
2
330
0
100
AcDbSymbolTable
 70
     2
  0
LAYER
  5
10
330
2
100
AcDbSymbolTableRecord
100
AcDbLayerTableRecord
  2
0
 70
     0
 62
     7
  6
Continuous
370
    -3
390
F
347
3E
  0
LAYER
  5
40
330
2
100
AcDbSymbolTableRecord
100
AcDbLayerTableRecord
  2
_U+30EC_U+30A4_U+30E4_U+30FC 1
 70
     0
 62
     7
  6
Continuous
370
    -3
390
F
347
3E
  0
ENDTAB
  0
TABLE
  2
STYLE
  5
3
330
0
100
AcDbSymbolTable
 70
     1
  0
STYLE
  5
11
330
3
100
AcDbSymbolTableRecord
100
AcDbTextStyleTableRecord
  2
Standard
 70
     0
 40
0.0
 41
1.0
 50
0.0
 71
     0
 42
0.2
  3
txt
  4

  0
ENDTAB
  0
TABLE
  2
VIEW
  5
6
330
0
100
AcDbSymbolTable
 70
     0
  0
ENDTAB
  0
TABLE
  2
UCS
  5
7
330
0
100
AcDbSymbolTable
 70
     0
  0
ENDTAB
  0
TABLE
  2
APPID
  5
9
330
0
100
AcDbSymbolTable
 70
     1
  0
APPID
  5
12
330
9
100
AcDbSymbolTableRecord
100
AcDbRegAppTableRecord
  2
ACAD
 70
     0
  0
ENDTAB
  0
TABLE
  2
DIMSTYLE
  5
A
330
0
100
AcDbSymbolTable
 70
     1
100
AcDbDimStyleTable
  0
DIMSTYLE
105
27
330
A
100
AcDbSymbolTableRecord
100
AcDbDimStyleTableRecord
  2
Standard
 70
     0
178
     0
340
11
  0
ENDTAB
  0
TABLE
  2
BLOCK_RECORD
  5
1
330
0
100
AcDbSymbolTable
 70
     7
  0
BLOCK_RECORD
  5
1F
330
1
100
AcDbSymbolTableRecord
100
AcDbBlockTableRecord
  2
*Model_Space
340
22
 70
     0
280
     1
281
     0
  0
BLOCK_RECORD
  5
1B
330
1
100
AcDbSymbolTableRecord
100
AcDbBlockTableRecord
  2
*Paper_Space
340
1E
 70
     0
280
     1
281
     0
  0
BLOCK_RECORD
  5
23
330
1
100
AcDbSymbolTableRecord
100
AcDbBlockTableRecord
  2
*Paper_Space0
340
26
 70
     0
280
     1
281
     0
  0
BLOCK_RECORD
  5
90
330
1
100
AcDbSymbolTableRecord
100
AcDbBlockTableRecord
  2
block 2
340
0
102
{BLKREFS
331
91
102
}
 70
     0
280
     1
281
     0
  0
BLOCK_RECORD
  5
AD
330
1
100
AcDbSymbolTableRecord
100
AcDbBlockTableRecord
  2
block 3
340
0
102
{BLKREFS
331
AE
102
}
 70
     0
280
     1
281
     0
  0
BLOCK_RECORD
  5
C1
330
1
100
AcDbSymbolTableRecord
100
AcDbBlockTableRecord
  2
block 4
340
0
102
{BLKREFS
331
C2
102
}
 70
     0
280
     1
281
     0
  0
BLOCK_RECORD
  5
D5
330
1
100
AcDbSymbolTableRecord
100
AcDbBlockTableRecord
  2
block 5
340
0
102
{BLKREFS
331
D6
102
}
 70
     0
280
     1
281
     0
  0
BLOCK_RECORD
  5
E7
330
1
100
AcDbSymbolTableRecord
100
AcDbBlockTableRecord
  2
block 6
340
0
102
{BLKREFS
331
E8
102
}
 70
     0
280
     1
281
     0
  0
BLOCK_RECORD
  5
F9
330
1
100
AcDbSymbolTableRecord
100
AcDbBlockTableRecord
  2
block 7
340
0
102
{BLKREFS
331
FA
102
}
 70
     0
280
     1
281
     0
  0
ENDTAB
  0
ENDSEC
  0
SECTION
  2
BLOCKS
  0
BLOCK
  5
20
330
1F
100
AcDbEntity
  8
0
100
AcDbBlockBegin
  2
*Model_Space
 70
     0
 10
0.0
 20
0.0
 30
0.0
  3
*Model_Space
  1

  0
ENDBLK
  5
21
330
1F
100
AcDbEntity
  8
0
100
AcDbBlockEnd
  0
BLOCK
  5
1C
330
1B
100
AcDbEntity
 67
     1
  8
0
100
AcDbBlockBegin
  2
*Paper_Space
 70
     0
 10
0.0
 20
0.0
 30
0.0
  3
*Paper_Space
  1

  0
ENDBLK
  5
1D
330
1B
100
AcDbEntity
 67
     1
  8
0
100
AcDbBlockEnd
  0
BLOCK
  5
24
330
23
100
AcDbEntity
  8
0
100
AcDbBlockBegin
  2
*Paper_Space0
 70
     0
 10
0.0
 20
0.0
 30
0.0
  3
*Paper_Space0
  1

  0
ENDBLK
  5
25
330
23
100
AcDbEntity
  8
0
100
AcDbBlockEnd
  0
BLOCK
  5
92
330
90
100
AcDbEntity
  8
0
100
AcDbBlockBegin
  2
block 2
 70
     0
 10
0.0
 20
0.0
 30
0.0
  3
block 2
  1

  0
SPLINE
  5
94
330
90
100
AcDbEntity
  8
_U+30EC_U+30A4_U+30E4_U+30FC 1
370
     0
100
AcDbSpline
210
0.0
220
0.0
230
1.0
 70
    11
 71
     3
 72
    29
 73
    25
 74
     0
 42
0.0000000001
 43
0.0000000001
 12
1.0
 22
0.0
 32
0.0
 13
1.0
 23
0.0
 33
0.0
 40
0.0
 40
0.0
 40
0.0
 40
0.0
 40
1.0
 40
1.0
 40
1.0
 40
2.0
 40
2.0
 40
2.0
 40
3.0
 40
3.0
 40
3.0
 40
4.0
 40
4.0
 40
4.0
 40
5.0
 40
5.0
 40
5.0
 40
6.0
 40
6.0
 40
6.0
 40
7.0
 40
7.0
 40
7.0
 40
8.0
 40
8.0
 40
8.0
 40
8.0
 10
107.2902641875872
 20
-138.7691351649605
 30
0.0
 10
107.4997259930904
 20
-138.8845458637164
 30
0.0
 10
107.5186740182592
 20
-139.0698920008228
 30
0.0
 10
107.5186740182592
 20
-139.1942599478403
 30
0.0
 10
107.5186740182592
 20
-139.3658257030058
 30
0.0
 10
107.4721652292084
 20
-139.5174099043568
 30
0.0
 10
107.2902641875872
 20
-139.6190402211716
 30
0.0
 10
107.0956162926705
 20
-139.7299722957967
 30
0.0
 10
106.8585937232854
 20
-139.7502983591596
 30
0.0
 10
106.6959852163816
 20
-139.7502983591596
 30
0.0
 10
106.5519802250981
 20
-139.7502983591596
 30
0.0
 10
106.3001437451264
 20
-139.7320393530878
 30
0.0
 10
106.1013617356274
 20
-139.6190402211716
 30
0.0
 10
105.8984456115462
 20
-139.5039740319643
 30
0.0
 10
105.8750189622465
 20
-139.3320637672503
 30
0.0
 10
105.8750189622465
 20
-139.1942599478403
 30
0.0
 10
105.8750189622465
 20
-139.0244167404175
 30
0.0
 10
105.9194606940062
 20
-138.8707654817754
 30
0.0
 10
106.1013617356274
 20
-138.7691351649605
 30
0.0
 10
106.2939425732529
 20
-138.6626817144663
 30
0.0
 10
106.522352403925
 20
-138.6378770269725
 30
0.0
 10
106.6959852163816
 20
-138.6378770269725
 30
0.0
 10
106.8672064619985
 20
-138.6378770269725
 30
0.0
 10
107.0976833499617
 20
-138.6606146571751
 30
0.0
 10
107.2902641875872
 20
-138.7691351649605
 30
0.0
  0
SPLINE
  5
95
330
90
100
AcDbEntity
  8
_U+30EC_U+30A4_U+30E4_U+30FC 1
370
     0
100
AcDbSpline
210
0.0
220
0.0
230
1.0
 70
    11
 71
     3
 72
    17
 73
    13
 74
     0
 42
0.0000000001
 43
0.0000000001
 12
1.0
 22
0.0
 32
0.0
 13
1.0
 23
0.0
 33
0.0
 40
0.0
 40
0.0
 40
0.0
 40
0.0
 40
1.0
 40
1.0
 40
1.0
 40
2.0
 40
2.0
 40
2.0
 40
3.0
 40
3.0
 40
3.0
 40
4.0
 40
4.0
 40
4.0
 40
4.0
 10
106.067599799872
 20
-139.1942599478403
 30
0.0
 10
106.067599799872
 20
-139.4609103383987
 30
0.0
 10
106.351131158308
 20
-139.5105197133863
 30
0.0
 10
106.6959852163816
 20
-139.5105197133863
 30
0.0
 10
107.0153455678642
 20
-139.5105197133863
 30
0.0
 10
107.3240261233426
 20
-139.4722791535
 30
0.0
 10
107.3240261233426
 20
-139.1942599478403
 30
0.0
 10
107.3240261233426
 20
-138.9296766145731
 30
0.0
 10
107.0429063317462
 20
-138.8776556727459
 30
0.0
 10
106.6959852163816
 20
-138.8776556727459
 30
0.0
 10
106.3762803553504
 20
-138.8776556727459
 30
0.0
 10
106.067599799872
 20
-138.9183077994718
 30
0.0
 10
106.067599799872
 20
-139.1942599478403
 30
0.0
  0
HATCH
  5
96
330
90
100
AcDbEntity
  8
_U+30EC_U+30A4_U+30E4_U+30FC 1
 62
   179
420
  2234388
100
AcDbHatch
 10
0.0
 20
0.0
 30
0.0
210
0.0
220
0.0
230
1.0
  2
SOLID
 70
     1
 71
     0
 91
        2
 92
        1
 93
        1
 72
     4
 94
        3
 73
     0
 74
     1
 95
       29
 96
       25
 40
0.0
 40
0.0
 40
0.0
 40
0.0
 40
1.0
 40
1.0
 40
1.0
 40
2.0
 40
2.0
 40
2.0
 40
3.0
 40
3.0
 40
3.0
 40
4.0
 40
4.0
 40
4.0
 40
5.0
 40
5.0
 40
5.0
 40
6.0
 40
6.0
 40
6.0
 40
7.0
 40
7.0
 40
7.0
 40
8.0
 40
8.0
 40
8.0
 40
8.0
 10
107.2902641875872
 20
-138.7691351649605
 10
107.4997259930904
 20
-138.8845458637164
 10
107.5186740182592
 20
-139.0698920008228
 10
107.5186740182592
 20
-139.1942599478403
 10
107.5186740182592
 20
-139.3658257030058
 10
107.4721652292084
 20
-139.5174099043568
 10
107.2902641875872
 20
-139.6190402211716
 10
107.0956162926705
 20
-139.7299722957967
 10
106.8585937232854
 20
-139.7502983591596
 10
106.6959852163816
 20
-139.7502983591596
 10
106.5519802250981
 20
-139.7502983591596
 10
106.3001437451264
 20
-139.7320393530878
 10
106.1013617356274
 20
-139.6190402211716
 10
105.8984456115462
 20
-139.5039740319643
 10
105.8750189622465
 20
-139.3320637672503
 10
105.8750189622465
 20
-139.1942599478403
 10
105.8750189622465
 20
-139.0244167404175
 10
105.9194606940062
 20
-138.8707654817754
 10
106.1013617356274
 20
-138.7691351649605
 10
106.2939425732529
 20
-138.6626817144663
 10
106.522352403925
 20
-138.6378770269725
 10
106.6959852163816
 20
-138.6378770269725
 10
106.8672064619985
 20
-138.6378770269725
 10
107.0976833499617
 20
-138.6606146571751
 10
107.2902641875872
 20
-138.7691351649605
 97
        0
 97
        0
 92
        1
 93
        1
 72
     4
 94
        3
 73
     0
 74
     1
 95
       17
 96
       13
 40
0.0
 40
0.0
 40
0.0
 40
0.0
 40
1.0
 40
1.0
 40
1.0
 40
2.0
 40
2.0
 40
2.0
 40
3.0
 40
3.0
 40
3.0
 40
4.0
 40
4.0
 40
4.0
 40
4.0
 10
106.067599799872
 20
-139.1942599478403
 10
106.067599799872
 20
-139.4609103383987
 10
106.351131158308
 20
-139.5105197133863
 10
106.6959852163816
 20
-139.5105197133863
 10
107.0153455678642
 20
-139.5105197133863
 10
107.3240261233426
 20
-139.4722791535
 10
107.3240261233426
 20
-139.1942599478403
 10
107.3240261233426
 20
-138.9296766145731
 10
107.0429063317462
 20
-138.8776556727459
 10
106.6959852163816
 20
-138.8776556727459
 10
106.3762803553504
 20
-138.8776556727459
 10
106.067599799872
 20
-138.9183077994718
 10
106.067599799872
 20
-139.1942599478403
 97
        0
 97
        0
 75
     2
 76
     1
 98
        0
  0
POLYLINE
  5
97
330
90
100
AcDbEntity
  8
_U+30EC_U+30A4_U+30E4_U+30FC 1
370
     0
100
AcDb2dPolyline
 66
     1
 10
0.0
 20
0.0
 30
0.0
  0
VERTEX
  5
98
330
97
100
AcDbEntity
  8
_U+30EC_U+30A4_U+30E4_U+30FC 1
370
     0
100
AcDbVertex
100
AcDb2dVertex
 10
107.4680311146261
 20
-138.4067111199122
 30
0.0
  0
VERTEX
  5
99
330
97
100
AcDbEntity
  8
_U+30EC_U+30A4_U+30E4_U+30FC 1
370
     0
100
AcDbVertex
100
AcDb2dVertex
 10
107.2161946346543
 20
-138.4067111199122
 30
0.0
  0
VERTEX
  5
9A
330
97
100
AcDbEntity
  8
_U+30EC_U+30A4_U+30E4_U+30FC 1
370
     0
100
AcDbVertex
100
AcDb2dVertex
 10
107.2161946346543
 20
-138.1376491625142
 30
0.0
  0
VERTEX
  5
9B
330
97
100
AcDbEntity
  8
_U+30EC_U+30A4_U+30E4_U+30FC 1
370
     0
100
AcDbVertex
100
AcDb2dVertex
 10
107.4680311146261
 20
-138.1376491625142
 30
0.0
  0
VERTEX
  5
9C
330
97
100
AcDbEntity
  8
_U+30EC_U+30A4_U+30E4_U+30FC 1
370
     0
100
AcDbVertex
100
AcDb2dVertex
 10
107.4680311146261
 20
-138.4067111199122
 30
0.0
  0
SEQEND
  5
9D
330
97
100
AcDbEntity
  8
_U+30EC_U+30A4_U+30E4_U+30FC 1
370
     0
  0
HATCH
  5
9E
330
90
100
AcDbEntity
  8
_U+30EC_U+30A4_U+30E4_U+30FC 1
 62
   179
420
  2234388
100
AcDbHatch
 10
0.0
 20
0.0
 30
0.0
210
0.0
220
0.0
230
1.0
  2
SOLID
 70
     1
 71
     0
 91
        1
 92
        1
 93
        4
 72
     1
 10
107.4680311146261
 20
-138.4067111199122
 11
107.2161946346543
 21
-138.4067111199122
 72
     1
 10
107.2161946346543
 20
-138.4067111199122
 11
107.2161946346543
 21
-138.1376491625142
 72
     1
 10
107.2161946346543
 20
-138.1376491625142
 11
107.4680311146261
 21
-138.1376491625142
 72
     1
 10
107.4680311146261
 20
-138.1376491625142
 11
107.4680311146261
 21
-138.4067111199122
 97
        0
 75
     2
 76
     1
 98
        0
  0
SPLINE
  5
9F
330
90
100
AcDbEntity
  8
_U+30EC_U+30A4_U+30E4_U+30FC 1
370
     0
100
AcDbSpline
210
0.0
220
0.0
230
1.0
 70
    11
 71
     3
 72
    26
 73
    22
 74
     0
 42
0.0000000001
 43
0.0000000001
 12
1.0
 22
0.0
 32
0.0
 13
1.0
 23
0.0
 33
0.0
 40
0.0
 40
0.0
 40
0.0
 40
0.0
 40
1.0
 40
1.0
 40
1.0
 40
2.0
 40
2.0
 40
2.0
 40
3.0
 40
3.0
 40
3.0
 40
4.0
 40
4.0
 40
4.0
 40
5.0
 40
5.0
 40
5.0
 40
6.0
 40
6.0
 40
6.0
 40
7.0
 40
7.0
 40
7.0
 40
7.0
 10
107.4680311146261
 20
-137.445184969979
 30
0.0
 10
107.4680311146261
 20
-137.445184969979
 30
0.0
 10
107.4680311146261
 20
-137.6983994881448
 30
0.0
 10
107.4680311146261
 20
-137.6983994881448
 30
0.0
 10
107.1590060495991
 20
-137.6711832338114
 30
0.0
 10
106.6408636886176
 20
-137.465511033342
 30
0.0
 10
106.1351236713829
 20
-137.0314290022005
 30
0.0
 10
106.1351236713829
 20
-137.0314290022005
 30
0.0
 10
106.1351236713829
 20
-137.9268093188169
 30
0.0
 10
106.1351236713829
 20
-137.9268093188169
 30
0.0
 10
106.1351236713829
 20
-137.9268093188169
 30
0.0
 10
105.9235948085885
 20
-137.9268093188169
 30
0.0
 10
105.9235948085885
 20
-137.9268093188169
 30
0.0
 10
105.9235948085885
 20
-137.9268093188169
 30
0.0
 10
105.9235948085885
 20
-136.7782144840346
 30
0.0
 10
105.9235948085885
 20
-136.7782144840346
 30
0.0
 10
105.9235948085885
 20
-136.7782144840346
 30
0.0
 10
106.1351236713829
 20
-136.7782144840346
 30
0.0
 10
106.1351236713829
 20
-136.7782144840346
 30
0.0
 10
106.4252007112409
 20
-137.1241020707537
 30
0.0
 10
107.0174126251554
 20
-137.4090114673839
 30
0.0
 10
107.4680311146261
 20
-137.445184969979
 30
0.0
  0
HATCH
  5
A0
330
90
100
AcDbEntity
  8
_U+30EC_U+30A4_U+30E4_U+30FC 1
 62
   179
420
  2234388
100
AcDbHatch
 10
0.0
 20
0.0
 30
0.0
210
0.0
220
0.0
230
1.0
  2
SOLID
 70
     1
 71
     0
 91
        1
 92
        1
 93
        1
 72
     4
 94
        3
 73
     0
 74
     1
 95
       26
 96
       22
 40
0.0
 40
0.0
 40
0.0
 40
0.0
 40
1.0
 40
1.0
 40
1.0
 40
2.0
 40
2.0
 40
2.0
 40
3.0
 40
3.0
 40
3.0
 40
4.0
 40
4.0
 40
4.0
 40
5.0
 40
5.0
 40
5.0
 40
6.0
 40
6.0
 40
6.0
 40
7.0
 40
7.0
 40
7.0
 40
7.0
 10
107.4680311146261
 20
-137.445184969979
 10
107.4680311146261
 20
-137.445184969979
 10
107.4680311146261
 20
-137.6983994881448
 10
107.4680311146261
 20
-137.6983994881448
 10
107.1590060495991
 20
-137.6711832338114
 10
106.6408636886176
 20
-137.465511033342
 10
106.1351236713829
 20
-137.0314290022005
 10
106.1351236713829
 20
-137.0314290022005
 10
106.1351236713829
 20
-137.9268093188169
 10
106.1351236713829
 20
-137.9268093188169
 10
106.1351236713829
 20
-137.9268093188169
 10
105.9235948085885
 20
-137.9268093188169
 10
105.9235948085885
 20
-137.9268093188169
 10
105.9235948085885
 20
-137.9268093188169
 10
105.9235948085885
 20
-136.7782144840346
 10
105.9235948085885
 20
-136.7782144840346
 10
105.9235948085885
 20
-136.7782144840346
 10
106.1351236713829
 20
-136.7782144840346
 10
106.1351236713829
 20
-136.7782144840346
 10
106.4252007112409
 20
-137.1241020707537
 10
107.0174126251554
 20
-137.4090114673839
 10
107.4680311146261
 20
-137.445184969979
 97
        0
 97
        0
 75
     2
 76
     1
 98
        0
  0
ENDBLK
  5
93
330
90
100
AcDbEntity
  8
0
100
AcDbBlockEnd
  0
BLOCK
  5
AF
330
AD
100
AcDbEntity
  8
0
100
AcDbBlockBegin
  2
block 3
 70
     0
 10
0.0
 20
0.0
 30
0.0
  3
block 3
  1

  0
SPLINE
  5
B1
330
AD
100
AcDbEntity
  8
_U+30EC_U+30A4_U+30E4_U+30FC 1
370
     0
100
AcDbSpline
210
0.0
220
0.0
230
1.0
 70
    11
 71
     3
 72
    44
 73
    40
 74
     0
 42
0.0000000001
 43
0.0000000001
 12
1.0
 22
0.0
 32
0.0
 13
1.0
 23
0.0
 33
0.0
 40
0.0
 40
0.0
 40
0.0
 40
0.0
 40
1.0
 40
1.0
 40
1.0
 40
2.0
 40
2.0
 40
2.0
 40
3.0
 40
3.0
 40
3.0
 40
4.0
 40
4.0
 40
4.0
 40
5.0
 40
5.0
 40
5.0
 40
6.0
 40
6.0
 40
6.0
 40
7.0
 40
7.0
 40
7.0
 40
8.0
 40
8.0
 40
8.0
 40
9.0
 40
9.0
 40
9.0
 40
10.0
 40
10.0
 40
10.0
 40
11.0
 40
11.0
 40
11.0
 40
12.0
 40
12.0
 40
12.0
 40
13.0
 40
13.0
 40
13.0
 40
13.0
 10
91.73462454303856
 20
-141.2134304117453
 30
0.0
 10
91.50173608823569
 20
-141.3722493136153
 30
0.0
 10
91.40217282871195
 20
-141.4463188665482
 30
0.0
 10
91.35032414165894
 20
-141.5899793482831
 30
0.0
 10
91.35032414165894
 20
-141.5899793482831
 30
0.0
 10
92.18214244657253
 20
-141.5899793482831
 30
0.0
 10
92.18214244657253
 20
-141.5899793482831
 30
0.0
 10
92.18214244657253
 20
-141.5899793482831
 30
0.0
 10
92.18214244657253
 20
-141.7953070392039
 30
0.0
 10
92.18214244657253
 20
-141.7953070392039
 30
0.0
 10
92.18214244657253
 20
-141.7953070392039
 30
0.0
 10
91.08350149632635
 20
-141.7953070392039
 30
0.0
 10
91.08350149632635
 20
-141.7953070392039
 30
0.0
 10
91.11743568685606
 20
-141.437706127835
 30
0.0
 10
91.1875433799809
 20
-141.3595024603198
 30
0.0
 10
91.59888778091972
 20
-141.0611571912972
 30
0.0
 10
91.87242836244856
 20
-140.8623751817983
 30
0.0
 10
91.94270831034765
 20
-140.7945068007389
 30
0.0
 10
91.94270831034765
 20
-140.6570474908774
 30
0.0
 10
91.94270831034765
 20
-140.5385362061848
 30
0.0
 10
91.86588268102659
 20
-140.4076225777453
 30
0.0
 10
91.65538734687783
 20
-140.4076225777453
 30
0.0
 10
91.37736814121816
 20
-140.4076225777453
 30
0.0
 10
91.36841089295652
 20
-140.6380994657085
 30
0.0
 10
91.36393226882569
 20
-140.75454369311
 30
0.0
 10
91.36393226882569
 20
-140.75454369311
 30
0.0
 10
91.1241536230523
 20
-140.75454369311
 30
0.0
 10
91.1241536230523
 20
-140.75454369311
 30
0.0
 10
91.13328312608822
 20
-140.6274196697043
 30
0.0
 10
91.14465194118954
 20
-140.5154540664336
 30
0.0
 10
91.23043481877225
 20
-140.396942781741
 30
0.0
 10
91.34808482959353
 20
-140.2360568225799
 30
0.0
 10
91.54686683909246
 20
-140.2022948868244
 30
0.0
 10
91.67123478610998
 20
-140.2022948868244
 30
0.0
 10
91.96751299784145
 20
-140.2022948868244
 30
0.0
 10
92.18903263754302
 20
-140.3862629857368
 30
0.0
 10
92.18903263754302
 20
-140.6591145481686
 30
0.0
 10
92.18903263754302
 20
-140.8878688883892
 30
0.0
 10
92.0646646905255
 20
-140.9870876383644
 30
0.0
 10
91.73462454303856
 20
-141.2134304117453
 30
0.0
  0
HATCH
  5
B2
330
AD
100
AcDbEntity
  8
_U+30EC_U+30A4_U+30E4_U+30FC 1
 62
   179
420
  2234388
100
AcDbHatch
 10
0.0
 20
0.0
 30
0.0
210
0.0
220
0.0
230
1.0
  2
SOLID
 70
     1
 71
     0
 91
        1
 92
        1
 93
        1
 72
     4
 94
        3
 73
     0
 74
     1
 95
       44
 96
       40
 40
0.0
 40
0.0
 40
0.0
 40
0.0
 40
1.0
 40
1.0
 40
1.0
 40
2.0
 40
2.0
 40
2.0
 40
3.0
 40
3.0
 40
3.0
 40
4.0
 40
4.0
 40
4.0
 40
5.0
 40
5.0
 40
5.0
 40
6.0
 40
6.0
 40
6.0
 40
7.0
 40
7.0
 40
7.0
 40
8.0
 40
8.0
 40
8.0
 40
9.0
 40
9.0
 40
9.0
 40
10.0
 40
10.0
 40
10.0
 40
11.0
 40
11.0
 40
11.0
 40
12.0
 40
12.0
 40
12.0
 40
13.0
 40
13.0
 40
13.0
 40
13.0
 10
91.73462454303856
 20
-141.2134304117453
 10
91.50173608823569
 20
-141.3722493136153
 10
91.40217282871195
 20
-141.4463188665482
 10
91.35032414165894
 20
-141.5899793482831
 10
91.35032414165894
 20
-141.5899793482831
 10
92.18214244657253
 20
-141.5899793482831
 10
92.18214244657253
 20
-141.5899793482831
 10
92.18214244657253
 20
-141.5899793482831
 10
92.18214244657253
 20
-141.7953070392039
 10
92.18214244657253
 20
-141.7953070392039
 10
92.18214244657253
 20
-141.7953070392039
 10
91.08350149632635
 20
-141.7953070392039
 10
91.08350149632635
 20
-141.7953070392039
 10
91.11743568685606
 20
-141.437706127835
 10
91.1875433799809
 20
-141.3595024603198
 10
91.59888778091972
 20
-141.0611571912972
 10
91.87242836244856
 20
-140.8623751817983
 10
91.94270831034765
 20
-140.7945068007389
 10
91.94270831034765
 20
-140.6570474908774
 10
91.94270831034765
 20
-140.5385362061848
 10
91.86588268102659
 20
-140.4076225777453
 10
91.65538734687783
 20
-140.4076225777453
 10
91.37736814121816
 20
-140.4076225777453
 10
91.36841089295652
 20
-140.6380994657085
 10
91.36393226882569
 20
-140.75454369311
 10
91.36393226882569
 20
-140.75454369311
 10
91.1241536230523
 20
-140.75454369311
 10
91.1241536230523
 20
-140.75454369311
 10
91.13328312608822
 20
-140.6274196697043
 10
91.14465194118954
 20
-140.5154540664336
 10
91.23043481877225
 20
-140.396942781741
 10
91.34808482959353
 20
-140.2360568225799
 10
91.54686683909246
 20
-140.2022948868244
 10
91.67123478610998
 20
-140.2022948868244
 10
91.96751299784145
 20
-140.2022948868244
 10
92.18903263754302
 20
-140.3862629857368
 10
92.18903263754302
 20
-140.6591145481686
 10
92.18903263754302
 20
-140.8878688883892
 10
92.0646646905255
 20
-140.9870876383644
 10
91.73462454303856
 20
-141.2134304117453
 97
        0
 97
        0
 75
     2
 76
     1
 98
        0
  0
SPLINE
  5
B3
330
AD
100
AcDbEntity
  8
_U+30EC_U+30A4_U+30E4_U+30FC 1
370
     0
100
AcDbSpline
210
0.0
220
0.0
230
1.0
 70
    11
 71
     3
 72
    62
 73
    58
 74
     0
 42
0.0000000001
 43
0.0000000001
 12
1.0
 22
0.0
 32
0.0
 13
1.0
 23
0.0
 33
0.0
 40
0.0
 40
0.0
 40
0.0
 40
0.0
 40
1.0
 40
1.0
 40
1.0
 40
2.0
 40
2.0
 40
2.0
 40
3.0
 40
3.0
 40
3.0
 40
4.0
 40
4.0
 40
4.0
 40
5.0
 40
5.0
 40
5.0
 40
6.0
 40
6.0
 40
6.0
 40
7.0
 40
7.0
 40
7.0
 40
8.0
 40
8.0
 40
8.0
 40
9.0
 40
9.0
 40
9.0
 40
10.0
 40
10.0
 40
10.0
 40
11.0
 40
11.0
 40
11.0
 40
12.0
 40
12.0
 40
12.0
 40
13.0
 40
13.0
 40
13.0
 40
14.0
 40
14.0
 40
14.0
 40
15.0
 40
15.0
 40
15.0
 40
16.0
 40
16.0
 40
16.0
 40
17.0
 40
17.0
 40
17.0
 40
18.0
 40
18.0
 40
18.0
 40
19.0
 40
19.0
 40
19.0
 40
19.0
 10
92.88390839691792
 20
-141.8459499428371
 30
0.0
 10
92.78227808010304
 20
-141.8459499428371
 30
0.0
 10
92.54938962530015
 20
-141.8249348603771
 30
0.0
 10
92.41571992047247
 20
-141.6388997041736
 30
0.0
 10
92.33682723386025
 20
-141.5265895913545
 30
0.0
 10
92.33234860972942
 20
-141.4273708413793
 30
0.0
 10
92.3278699855986
 20
-141.3426214924421
 30
0.0
 10
92.3278699855986
 20
-141.3426214924421
 30
0.0
 10
92.56282549769263
 20
-141.3426214924421
 30
0.0
 10
92.56282549769263
 20
-141.3426214924421
 30
0.0
 10
92.56523706453231
 20
-141.416691045375
 30
0.0
 10
92.5762613700851
 20
-141.6513020479205
 30
0.0
 10
92.87942977278709
 20
-141.6513020479205
 30
0.0
 10
93.02619084045874
 20
-141.6513020479205
 30
0.0
 10
93.18914385691104
 20
-141.5817111191185
 30
0.0
 10
93.18914385691104
 20
-141.3533012884464
 30
0.0
 10
93.18914385691104
 20
-141.236857061045
 30
0.0
 10
93.1484917301851
 20
-141.1882812147029
 30
0.0
 10
93.11438528488112
 20
-141.1565863362386
 30
0.0
 10
93.0354925982689
 20
-141.0825167833058
 30
0.0
 10
92.91112465125138
 20
-141.0697699300104
 30
0.0
 10
92.85221351845362
 20
-141.0697699300104
 30
0.0
 10
92.83188745509064
 20
-141.0697699300104
 30
0.0
 10
92.79330238565585
 20
-141.0718369873015
 30
0.0
 10
92.76401907403122
 20
-141.0759711018838
 30
0.0
 10
92.76401907403122
 20
-141.0759711018838
 30
0.0
 10
92.76401907403122
 20
-140.8813232069672
 30
0.0
 10
92.76401907403122
 20
-140.8813232069672
 30
0.0
 10
92.80467120075717
 20
-140.8878688883892
 30
0.0
 10
92.84980195161394
 20
-140.8899359456803
 30
0.0
 10
92.85669214258444
 20
-140.8899359456803
 30
0.0
 10
92.92697209048355
 20
-140.8899359456803
 30
0.0
 10
93.13918997237492
 20
-140.8685763536718
 30
0.0
 10
93.13918997237492
 20
-140.6318982938351
 30
0.0
 10
93.13918997237492
 20
-140.4541313667962
 30
0.0
 10
92.99931909567378
 20
-140.3990098390322
 30
0.0
 10
92.88149683007825
 20
-140.3990098390322
 30
0.0
 10
92.59899900028775
 20
-140.3990098390322
 30
0.0
 10
92.59004175202611
 20
-140.6318982938351
 30
0.0
 10
92.58556312789528
 20
-140.7035562799283
 30
0.0
 10
92.58556312789528
 20
-140.7035562799283
 30
0.0
 10
92.36852211232454
 20
-140.7035562799283
 30
0.0
 10
92.36852211232454
 20
-140.7035562799283
 30
0.0
 10
92.3774793605862
 20
-140.5788438233622
 30
0.0
 10
92.40676267221082
 20
-140.2022948868244
 30
0.0
 10
92.89527721201924
 20
-140.2022948868244
 30
0.0
 10
93.13471134824411
 20
-140.2022948868244
 30
0.0
 10
93.3924044905408
 20
-140.3294189102301
 30
0.0
 10
93.3924044905408
 20
-140.6253526124131
 30
0.0
 10
93.3924044905408
 20
-140.8117322781651
 30
0.0
 10
93.29077417372592
 20
-140.8940700602626
 30
0.0
 10
93.18466523278023
 20
-140.9553927599
 30
0.0
 10
93.25012204699998
 20
-140.982953523782
 30
0.0
 10
93.44442543236806
 20
-141.0632242485884
 30
0.0
 10
93.44442543236806
 20
-141.340554435151
 30
0.0
 10
93.44442543236806
 20
-141.6788628118025
 30
0.0
 10
93.18018660864941
 20
-141.8459499428371
 30
0.0
 10
92.88390839691792
 20
-141.8459499428371
 30
0.0
  0
HATCH
  5
B4
330
AD
100
AcDbEntity
  8
_U+30EC_U+30A4_U+30E4_U+30FC 1
 62
   179
420
  2234388
100
AcDbHatch
 10
0.0
 20
0.0
 30
0.0
210
0.0
220
0.0
230
1.0
  2
SOLID
 70
     1
 71
     0
 91
        1
 92
        1
 93
        1
 72
     4
 94
        3
 73
     0
 74
     1
 95
       62
 96
       58
 40
0.0
 40
0.0
 40
0.0
 40
0.0
 40
1.0
 40
1.0
 40
1.0
 40
2.0
 40
2.0
 40
2.0
 40
3.0
 40
3.0
 40
3.0
 40
4.0
 40
4.0
 40
4.0
 40
5.0
 40
5.0
 40
5.0
 40
6.0
 40
6.0
 40
6.0
 40
7.0
 40
7.0
 40
7.0
 40
8.0
 40
8.0
 40
8.0
 40
9.0
 40
9.0
 40
9.0
 40
10.0
 40
10.0
 40
10.0
 40
11.0
 40
11.0
 40
11.0
 40
12.0
 40
12.0
 40
12.0
 40
13.0
 40
13.0
 40
13.0
 40
14.0
 40
14.0
 40
14.0
 40
15.0
 40
15.0
 40
15.0
 40
16.0
 40
16.0
 40
16.0
 40
17.0
 40
17.0
 40
17.0
 40
18.0
 40
18.0
 40
18.0
 40
19.0
 40
19.0
 40
19.0
 40
19.0
 10
92.88390839691792
 20
-141.8459499428371
 10
92.78227808010304
 20
-141.8459499428371
 10
92.54938962530015
 20
-141.8249348603771
 10
92.41571992047247
 20
-141.6388997041736
 10
92.33682723386025
 20
-141.5265895913545
 10
92.33234860972942
 20
-141.4273708413793
 10
92.3278699855986
 20
-141.3426214924421
 10
92.3278699855986
 20
-141.3426214924421
 10
92.56282549769263
 20
-141.3426214924421
 10
92.56282549769263
 20
-141.3426214924421
 10
92.56523706453231
 20
-141.416691045375
 10
92.5762613700851
 20
-141.6513020479205
 10
92.87942977278709
 20
-141.6513020479205
 10
93.02619084045874
 20
-141.6513020479205
 10
93.18914385691104
 20
-141.5817111191185
 10
93.18914385691104
 20
-141.3533012884464
 10
93.18914385691104
 20
-141.236857061045
 10
93.1484917301851
 20
-141.1882812147029
 10
93.11438528488112
 20
-141.1565863362386
 10
93.0354925982689
 20
-141.0825167833058
 10
92.91112465125138
 20
-141.0697699300104
 10
92.85221351845362
 20
-141.0697699300104
 10
92.83188745509064
 20
-141.0697699300104
 10
92.79330238565585
 20
-141.0718369873015
 10
92.76401907403122
 20
-141.0759711018838
 10
92.76401907403122
 20
-141.0759711018838
 10
92.76401907403122
 20
-140.8813232069672
 10
92.76401907403122
 20
-140.8813232069672
 10
92.80467120075717
 20
-140.8878688883892
 10
92.84980195161394
 20
-140.8899359456803
 10
92.85669214258444
 20
-140.8899359456803
 10
92.92697209048355
 20
-140.8899359456803
 10
93.13918997237492
 20
-140.8685763536718
 10
93.13918997237492
 20
-140.6318982938351
 10
93.13918997237492
 20
-140.4541313667962
 10
92.99931909567378
 20
-140.3990098390322
 10
92.88149683007825
 20
-140.3990098390322
 10
92.59899900028775
 20
-140.3990098390322
 10
92.59004175202611
 20
-140.6318982938351
 10
92.58556312789528
 20
-140.7035562799283
 10
92.58556312789528
 20
-140.7035562799283
 10
92.36852211232454
 20
-140.7035562799283
 10
92.36852211232454
 20
-140.7035562799283
 10
92.3774793605862
 20
-140.5788438233622
 10
92.40676267221082
 20
-140.2022948868244
 10
92.89527721201924
 20
-140.2022948868244
 10
93.13471134824411
 20
-140.2022948868244
 10
93.3924044905408
 20
-140.3294189102301
 10
93.3924044905408
 20
-140.6253526124131
 10
93.3924044905408
 20
-140.8117322781651
 10
93.29077417372592
 20
-140.8940700602626
 10
93.18466523278023
 20
-140.9553927599
 10
93.25012204699998
 20
-140.982953523782
 10
93.44442543236806
 20
-141.0632242485884
 10
93.44442543236806
 20
-141.340554435151
 10
93.44442543236806
 20
-141.6788628118025
 10
93.18018660864941
 20
-141.8459499428371
 10
92.88390839691792
 20
-141.8459499428371
 97
        0
 97
        0
 75
     2
 76
     1
 98
        0
  0
ENDBLK
  5
B0
330
AD
100
AcDbEntity
  8
0
100
AcDbBlockEnd
  0
BLOCK
  5
C3
330
C1
100
AcDbEntity
  8
0
100
AcDbBlockBegin
  2
block 4
 70
     0
 10
0.0
 20
0.0
 30
0.0
  3
block 4
  1

  0
SPLINE
  5
C5
330
C1
100
AcDbEntity
  8
_U+30EC_U+30A4_U+30E4_U+30FC 1
370
     0
100
AcDbSpline
210
0.0
220
0.0
230
1.0
 70
    11
 71
     3
 72
    26
 73
    22
 74
     0
 42
0.0000000001
 43
0.0000000001
 12
1.0
 22
0.0
 32
0.0
 13
1.0
 23
0.0
 33
0.0
 40
0.0
 40
0.0
 40
0.0
 40
0.0
 40
1.0
 40
1.0
 40
1.0
 40
2.0
 40
2.0
 40
2.0
 40
3.0
 40
3.0
 40
3.0
 40
4.0
 40
4.0
 40
4.0
 40
5.0
 40
5.0
 40
5.0
 40
6.0
 40
6.0
 40
6.0
 40
7.0
 40
7.0
 40
7.0
 40
7.0
 10
86.08983559045672
 20
-116.3253716072034
 30
0.0
 10
86.08983559045672
 20
-116.3253716072034
 30
0.0
 10
86.08983559045672
 20
-115.2210462494066
 30
0.0
 10
86.08983559045672
 20
-115.2210462494066
 30
0.0
 10
86.08983559045672
 20
-115.2210462494066
 30
0.0
 10
85.73705781276713
 20
-115.2210462494066
 30
0.0
 10
85.73705781276713
 20
-115.2210462494066
 30
0.0
 10
85.73705781276713
 20
-115.2210462494066
 30
0.0
 10
85.73705781276713
 20
-115.0730793983151
 30
0.0
 10
85.73705781276713
 20
-115.0730793983151
 30
0.0
 10
86.09207490252213
 20
-115.0582654877285
 30
0.0
 10
86.14185653228398
 20
-114.8953124712762
 30
0.0
 10
86.17355141074829
 20
-114.7811075559401
 30
0.0
 10
86.17355141074829
 20
-114.7811075559401
 30
0.0
 10
86.32944198145584
 20
-114.7811075559401
 30
0.0
 10
86.32944198145584
 20
-114.7811075559401
 30
0.0
 10
86.32944198145584
 20
-114.7811075559401
 30
0.0
 10
86.32944198145584
 20
-116.3253716072034
 30
0.0
 10
86.32944198145584
 20
-116.3253716072034
 30
0.0
 10
86.32944198145584
 20
-116.3253716072034
 30
0.0
 10
86.08983559045672
 20
-116.3253716072034
 30
0.0
 10
86.08983559045672
 20
-116.3253716072034
 30
0.0
  0
HATCH
  5
C6
330
C1
100
AcDbEntity
  8
_U+30EC_U+30A4_U+30E4_U+30FC 1
 62
   179
420
  2234388
100
AcDbHatch
 10
0.0
 20
0.0
 30
0.0
210
0.0
220
0.0
230
1.0
  2
SOLID
 70
     1
 71
     0
 91
        1
 92
        1
 93
        1
 72
     4
 94
        3
 73
     0
 74
     1
 95
       26
 96
       22
 40
0.0
 40
0.0
 40
0.0
 40
0.0
 40
1.0
 40
1.0
 40
1.0
 40
2.0
 40
2.0
 40
2.0
 40
3.0
 40
3.0
 40
3.0
 40
4.0
 40
4.0
 40
4.0
 40
5.0
 40
5.0
 40
5.0
 40
6.0
 40
6.0
 40
6.0
 40
7.0
 40
7.0
 40
7.0
 40
7.0
 10
86.08983559045672
 20
-116.3253716072034
 10
86.08983559045672
 20
-116.3253716072034
 10
86.08983559045672
 20
-115.2210462494066
 10
86.08983559045672
 20
-115.2210462494066
 10
86.08983559045672
 20
-115.2210462494066
 10
85.73705781276713
 20
-115.2210462494066
 10
85.73705781276713
 20
-115.2210462494066
 10
85.73705781276713
 20
-115.2210462494066
 10
85.73705781276713
 20
-115.0730793983151
 10
85.73705781276713
 20
-115.0730793983151
 10
86.09207490252213
 20
-115.0582654877285
 10
86.14185653228398
 20
-114.8953124712762
 10
86.17355141074829
 20
-114.7811075559401
 10
86.17355141074829
 20
-114.7811075559401
 10
86.32944198145584
 20
-114.7811075559401
 10
86.32944198145584
 20
-114.7811075559401
 10
86.32944198145584
 20
-114.7811075559401
 10
86.32944198145584
 20
-116.3253716072034
 10
86.32944198145584
 20
-116.3253716072034
 10
86.32944198145584
 20
-116.3253716072034
 10
86.08983559045672
 20
-116.3253716072034
 10
86.08983559045672
 20
-116.3253716072034
 97
        0
 97
        0
 75
     2
 76
     1
 98
        0
  0
SPLINE
  5
C7
330
C1
100
AcDbEntity
  8
_U+30EC_U+30A4_U+30E4_U+30FC 1
370
     0
100
AcDbSpline
210
0.0
220
0.0
230
1.0
 70
    11
 71
     3
 72
    44
 73
    40
 74
     0
 42
0.0000000001
 43
0.0000000001
 12
1.0
 22
0.0
 32
0.0
 13
1.0
 23
0.0
 33
0.0
 40
0.0
 40
0.0
 40
0.0
 40
0.0
 40
1.0
 40
1.0
 40
1.0
 40
2.0
 40
2.0
 40
2.0
 40
3.0
 40
3.0
 40
3.0
 40
4.0
 40
4.0
 40
4.0
 40
5.0
 40
5.0
 40
5.0
 40
6.0
 40
6.0
 40
6.0
 40
7.0
 40
7.0
 40
7.0
 40
8.0
 40
8.0
 40
8.0
 40
9.0
 40
9.0
 40
9.0
 40
10.0
 40
10.0
 40
10.0
 40
11.0
 40
11.0
 40
11.0
 40
12.0
 40
12.0
 40
12.0
 40
13.0
 40
13.0
 40
13.0
 40
13.0
 10
87.49905189869816
 20
-115.743667234519
 30
0.0
 10
87.26616344389527
 20
-115.9023138816147
 30
0.0
 10
87.16677243914582
 20
-115.9763834345476
 30
0.0
 10
87.11475149731854
 20
-116.1202161710568
 30
0.0
 10
87.11475149731854
 20
-116.1202161710568
 30
0.0
 10
87.94674205700638
 20
-116.1202161710568
 30
0.0
 10
87.94674205700638
 20
-116.1202161710568
 30
0.0
 10
87.94674205700638
 20
-116.1202161710568
 30
0.0
 10
87.94674205700638
 20
-116.3253716072034
 30
0.0
 10
87.94674205700638
 20
-116.3253716072034
 30
0.0
 10
87.94674205700638
 20
-116.3253716072034
 30
0.0
 10
86.84792885198594
 20
-116.3253716072034
 30
0.0
 10
86.84792885198594
 20
-116.3253716072034
 30
0.0
 10
86.88186304251565
 20
-115.9677706958344
 30
0.0
 10
86.95197073564049
 20
-115.8895670283193
 30
0.0
 10
87.36348739135357
 20
-115.5912217592966
 30
0.0
 10
87.63702797288241
 20
-115.3924397497977
 30
0.0
 10
87.70713566600725
 20
-115.3247436235126
 30
0.0
 10
87.70713566600725
 20
-115.1872843136511
 30
0.0
 10
87.70713566600725
 20
-115.0687730289585
 30
0.0
 10
87.63013778191191
 20
-114.9376871457447
 30
0.0
 10
87.41998695731168
 20
-114.9376871457447
 30
0.0
 10
87.14196775165202
 20
-114.9376871457447
 30
0.0
 10
87.1328382486161
 20
-115.168164033708
 30
0.0
 10
87.12835962448527
 20
-115.2846082611094
 30
0.0
 10
87.12835962448527
 20
-115.2846082611094
 30
0.0
 10
86.88875323348616
 20
-115.2846082611094
 30
0.0
 10
86.88875323348616
 20
-115.2846082611094
 30
0.0
 10
86.8977104817478
 20
-115.157656492478
 30
0.0
 10
86.90907929684913
 20
-115.0455186344331
 30
0.0
 10
86.99486217443184
 20
-114.9270073497405
 30
0.0
 10
87.11251218525312
 20
-114.7662936453536
 30
0.0
 10
87.3114664495263
 20
-114.7323594548239
 30
0.0
 10
87.43583439654383
 20
-114.7323594548239
 30
0.0
 10
87.73194035350105
 20
-114.7323594548239
 30
0.0
 10
87.95345999320261
 20
-114.9164998085105
 30
0.0
 10
87.95345999320261
 20
-115.1893513709422
 30
0.0
 10
87.95345999320261
 20
-115.4177612016143
 30
0.0
 10
87.82926430095935
 20
-115.517324461138
 30
0.0
 10
87.49905189869816
 20
-115.743667234519
 30
0.0
  0
HATCH
  5
C8
330
C1
100
AcDbEntity
  8
_U+30EC_U+30A4_U+30E4_U+30FC 1
 62
   179
420
  2234388
100
AcDbHatch
 10
0.0
 20
0.0
 30
0.0
210
0.0
220
0.0
230
1.0
  2
SOLID
 70
     1
 71
     0
 91
        1
 92
        1
 93
        1
 72
     4
 94
        3
 73
     0
 74
     1
 95
       44
 96
       40
 40
0.0
 40
0.0
 40
0.0
 40
0.0
 40
1.0
 40
1.0
 40
1.0
 40
2.0
 40
2.0
 40
2.0
 40
3.0
 40
3.0
 40
3.0
 40
4.0
 40
4.0
 40
4.0
 40
5.0
 40
5.0
 40
5.0
 40
6.0
 40
6.0
 40
6.0
 40
7.0
 40
7.0
 40
7.0
 40
8.0
 40
8.0
 40
8.0
 40
9.0
 40
9.0
 40
9.0
 40
10.0
 40
10.0
 40
10.0
 40
11.0
 40
11.0
 40
11.0
 40
12.0
 40
12.0
 40
12.0
 40
13.0
 40
13.0
 40
13.0
 40
13.0
 10
87.49905189869816
 20
-115.743667234519
 10
87.26616344389527
 20
-115.9023138816147
 10
87.16677243914582
 20
-115.9763834345476
 10
87.11475149731854
 20
-116.1202161710568
 10
87.11475149731854
 20
-116.1202161710568
 10
87.94674205700638
 20
-116.1202161710568
 10
87.94674205700638
 20
-116.1202161710568
 10
87.94674205700638
 20
-116.1202161710568
 10
87.94674205700638
 20
-116.3253716072034
 10
87.94674205700638
 20
-116.3253716072034
 10
87.94674205700638
 20
-116.3253716072034
 10
86.84792885198594
 20
-116.3253716072034
 10
86.84792885198594
 20
-116.3253716072034
 10
86.88186304251565
 20
-115.9677706958344
 10
86.95197073564049
 20
-115.8895670283193
 10
87.36348739135357
 20
-115.5912217592966
 10
87.63702797288241
 20
-115.3924397497977
 10
87.70713566600725
 20
-115.3247436235126
 10
87.70713566600725
 20
-115.1872843136511
 10
87.70713566600725
 20
-115.0687730289585
 10
87.63013778191191
 20
-114.9376871457447
 10
87.41998695731168
 20
-114.9376871457447
 10
87.14196775165202
 20
-114.9376871457447
 10
87.1328382486161
 20
-115.168164033708
 10
87.12835962448527
 20
-115.2846082611094
 10
87.12835962448527
 20
-115.2846082611094
 10
86.88875323348616
 20
-115.2846082611094
 10
86.88875323348616
 20
-115.2846082611094
 10
86.8977104817478
 20
-115.157656492478
 10
86.90907929684913
 20
-115.0455186344331
 10
86.99486217443184
 20
-114.9270073497405
 10
87.11251218525312
 20
-114.7662936453536
 10
87.3114664495263
 20
-114.7323594548239
 10
87.43583439654383
 20
-114.7323594548239
 10
87.73194035350105
 20
-114.7323594548239
 10
87.95345999320261
 20
-114.9164998085105
 10
87.95345999320261
 20
-115.1893513709422
 10
87.95345999320261
 20
-115.4177612016143
 10
87.82926430095935
 20
-115.517324461138
 10
87.49905189869816
 20
-115.743667234519
 97
        0
 97
        0
 75
     2
 76
     1
 98
        0
  0
ENDBLK
  5
C4
330
C1
100
AcDbEntity
  8
0
100
AcDbBlockEnd
  0
BLOCK
  5
D7
330
D5
100
AcDbEntity
  8
0
100
AcDbBlockBegin
  2
block 5
 70
     0
 10
0.0
 20
0.0
 30
0.0
  3
block 5
  1

  0
SPLINE
  5
D9
330
D5
100
AcDbEntity
  8
_U+30EC_U+30A4_U+30E4_U+30FC 1
370
     0
100
AcDbSpline
210
0.0
220
0.0
230
1.0
 70
    11
 71
     3
 72
    26
 73
    22
 74
     0
 42
0.0000000001
 43
0.0000000001
 12
1.0
 22
0.0
 32
0.0
 13
1.0
 23
0.0
 33
0.0
 40
0.0
 40
0.0
 40
0.0
 40
0.0
 40
1.0
 40
1.0
 40
1.0
 40
2.0
 40
2.0
 40
2.0
 40
3.0
 40
3.0
 40
3.0
 40
4.0
 40
4.0
 40
4.0
 40
5.0
 40
5.0
 40
5.0
 40
6.0
 40
6.0
 40
6.0
 40
7.0
 40
7.0
 40
7.0
 40
7.0
 10
76.11266681039892
 20
-141.4611327771347
 30
0.0
 10
76.11266681039892
 20
-141.4611327771347
 30
0.0
 10
75.00834145260208
 20
-141.4611327771347
 30
0.0
 10
75.00834145260208
 20
-141.4611327771347
 30
0.0
 10
75.00834145260208
 20
-141.4611327771347
 30
0.0
 10
75.00834145260208
 20
-141.8135660452758
 30
0.0
 10
75.00834145260208
 20
-141.8135660452758
 30
0.0
 10
75.00834145260208
 20
-141.8135660452758
 30
0.0
 10
74.8603746015106
 20
-141.8135660452758
 30
0.0
 10
74.8603746015106
 20
-141.8135660452758
 30
0.0
 10
74.84556069092403
 20
-141.458721210295
 30
0.0
 10
74.68260767447171
 20
-141.4091118353074
 30
0.0
 10
74.56840275913568
 20
-141.3774169568431
 30
0.0
 10
74.56840275913568
 20
-141.3774169568431
 30
0.0
 10
74.56840275913568
 20
-141.2213541313613
 30
0.0
 10
74.56840275913568
 20
-141.2213541313613
 30
0.0
 10
74.56840275913568
 20
-141.2213541313613
 30
0.0
 10
76.11266681039892
 20
-141.2213541313613
 30
0.0
 10
76.11266681039892
 20
-141.2213541313613
 30
0.0
 10
76.11266681039892
 20
-141.2213541313613
 30
0.0
 10
76.11266681039892
 20
-141.4611327771347
 30
0.0
 10
76.11266681039892
 20
-141.4611327771347
 30
0.0
  0
HATCH
  5
DA
330
D5
100
AcDbEntity
  8
_U+30EC_U+30A4_U+30E4_U+30FC 1
 62
   179
420
  2234388
100
AcDbHatch
 10
0.0
 20
0.0
 30
0.0
210
0.0
220
0.0
230
1.0
  2
SOLID
 70
     1
 71
     0
 91
        1
 92
        1
 93
        1
 72
     4
 94
        3
 73
     0
 74
     1
 95
       26
 96
       22
 40
0.0
 40
0.0
 40
0.0
 40
0.0
 40
1.0
 40
1.0
 40
1.0
 40
2.0
 40
2.0
 40
2.0
 40
3.0
 40
3.0
 40
3.0
 40
4.0
 40
4.0
 40
4.0
 40
5.0
 40
5.0
 40
5.0
 40
6.0
 40
6.0
 40
6.0
 40
7.0
 40
7.0
 40
7.0
 40
7.0
 10
76.11266681039892
 20
-141.4611327771347
 10
76.11266681039892
 20
-141.4611327771347
 10
75.00834145260208
 20
-141.4611327771347
 10
75.00834145260208
 20
-141.4611327771347
 10
75.00834145260208
 20
-141.4611327771347
 10
75.00834145260208
 20
-141.8135660452758
 10
75.00834145260208
 20
-141.8135660452758
 10
75.00834145260208
 20
-141.8135660452758
 10
74.8603746015106
 20
-141.8135660452758
 10
74.8603746015106
 20
-141.8135660452758
 10
74.84556069092403
 20
-141.458721210295
 10
74.68260767447171
 20
-141.4091118353074
 10
74.56840275913568
 20
-141.3774169568431
 10
74.56840275913568
 20
-141.3774169568431
 10
74.56840275913568
 20
-141.2213541313613
 10
74.56840275913568
 20
-141.2213541313613
 10
74.56840275913568
 20
-141.2213541313613
 10
76.11266681039892
 20
-141.2213541313613
 10
76.11266681039892
 20
-141.2213541313613
 10
76.11266681039892
 20
-141.2213541313613
 10
76.11266681039892
 20
-141.4611327771347
 10
76.11266681039892
 20
-141.4611327771347
 97
        0
 97
        0
 75
     2
 76
     1
 98
        0
  0
ENDBLK
  5
D8
330
D5
100
AcDbEntity
  8
0
100
AcDbBlockEnd
  0
BLOCK
  5
E9
330
E7
100
AcDbEntity
  8
0
100
AcDbBlockBegin
  2
block 6
 70
     0
 10
0.0
 20
0.0
 30
0.0
  3
block 6
  1

  0
SPLINE
  5
EB
330
E7
100
AcDbEntity
  8
_U+30EC_U+30A4_U+30E4_U+30FC 1
370
     0
100
AcDbSpline
210
0.0
220
0.0
230
1.0
 70
    11
 71
     3
 72
    26
 73
    22
 74
     0
 42
0.0000000001
 43
0.0000000001
 12
1.0
 22
0.0
 32
0.0
 13
1.0
 23
0.0
 33
0.0
 40
0.0
 40
0.0
 40
0.0
 40
0.0
 40
1.0
 40
1.0
 40
1.0
 40
2.0
 40
2.0
 40
2.0
 40
3.0
 40
3.0
 40
3.0
 40
4.0
 40
4.0
 40
4.0
 40
5.0
 40
5.0
 40
5.0
 40
6.0
 40
6.0
 40
6.0
 40
7.0
 40
7.0
 40
7.0
 40
7.0
 10
100.159605552217
 20
-133.1053981872098
 30
0.0
 10
100.159605552217
 20
-133.1053981872098
 30
0.0
 10
99.90639103405118
 20
-133.1053981872098
 30
0.0
 10
99.90639103405118
 20
-133.1053981872098
 30
0.0
 10
99.93326277883614
 20
-132.7967176317314
 30
0.0
 10
100.1392794888541
 20
-132.2782307612013
 30
0.0
 10
100.5733615199956
 20
-131.7728352535151
 30
0.0
 10
100.5733615199956
 20
-131.7728352535151
 30
0.0
 10
99.67798120337912
 20
-131.7728352535151
 30
0.0
 10
99.67798120337912
 20
-131.7728352535151
 30
0.0
 10
99.67798120337912
 20
-131.7728352535151
 30
0.0
 10
99.67798120337912
 20
-131.5613063907208
 30
0.0
 10
99.67798120337912
 20
-131.5613063907208
 30
0.0
 10
99.67798120337912
 20
-131.5613063907208
 30
0.0
 10
100.8265760381614
 20
-131.5613063907208
 30
0.0
 10
100.8265760381614
 20
-131.5613063907208
 30
0.0
 10
100.8265760381614
 20
-131.5613063907208
 30
0.0
 10
100.8265760381614
 20
-131.7728352535151
 30
0.0
 10
100.8265760381614
 20
-131.7728352535151
 30
0.0
 10
100.4806884514423
 20
-132.0622232742761
 30
0.0
 10
100.1957790548122
 20
-132.6547796977391
 30
0.0
 10
100.159605552217
 20
-133.1053981872098
 30
0.0
  0
HATCH
  5
EC
330
E7
100
AcDbEntity
  8
_U+30EC_U+30A4_U+30E4_U+30FC 1
 62
   179
420
  2234388
100
AcDbHatch
 10
0.0
 20
0.0
 30
0.0
210
0.0
220
0.0
230
1.0
  2
SOLID
 70
     1
 71
     0
 91
        1
 92
        1
 93
        1
 72
     4
 94
        3
 73
     0
 74
     1
 95
       26
 96
       22
 40
0.0
 40
0.0
 40
0.0
 40
0.0
 40
1.0
 40
1.0
 40
1.0
 40
2.0
 40
2.0
 40
2.0
 40
3.0
 40
3.0
 40
3.0
 40
4.0
 40
4.0
 40
4.0
 40
5.0
 40
5.0
 40
5.0
 40
6.0
 40
6.0
 40
6.0
 40
7.0
 40
7.0
 40
7.0
 40
7.0
 10
100.159605552217
 20
-133.1053981872098
 10
100.159605552217
 20
-133.1053981872098
 10
99.90639103405118
 20
-133.1053981872098
 10
99.90639103405118
 20
-133.1053981872098
 10
99.93326277883614
 20
-132.7967176317314
 10
100.1392794888541
 20
-132.2782307612013
 10
100.5733615199956
 20
-131.7728352535151
 10
100.5733615199956
 20
-131.7728352535151
 10
99.67798120337912
 20
-131.7728352535151
 10
99.67798120337912
 20
-131.7728352535151
 10
99.67798120337912
 20
-131.7728352535151
 10
99.67798120337912
 20
-131.5613063907208
 10
99.67798120337912
 20
-131.5613063907208
 10
99.67798120337912
 20
-131.5613063907208
 10
100.8265760381614
 20
-131.5613063907208
 10
100.8265760381614
 20
-131.5613063907208
 10
100.8265760381614
 20
-131.5613063907208
 10
100.8265760381614
 20
-131.7728352535151
 10
100.8265760381614
 20
-131.7728352535151
 10
100.4806884514423
 20
-132.0622232742761
 10
100.1957790548122
 20
-132.6547796977391
 10
100.159605552217
 20
-133.1053981872098
 97
        0
 97
        0
 75
     2
 76
     1
 98
        0
  0
ENDBLK
  5
EA
330
E7
100
AcDbEntity
  8
0
100
AcDbBlockEnd
  0
BLOCK
  5
FB
330
F9
100
AcDbEntity
  8
0
100
AcDbBlockBegin
  2
block 7
 70
     0
 10
0.0
 20
0.0
 30
0.0
  3
block 7
  1

  0
SPLINE
  5
FD
330
F9
100
AcDbEntity
  8
_U+30EC_U+30A4_U+30E4_U+30FC 1
370
     0
100
AcDbSpline
210
0.0
220
0.0
230
1.0
 70
    11
 71
     3
 72
    26
 73
    22
 74
     0
 42
0.0000000001
 43
0.0000000001
 12
1.0
 22
0.0
 32
0.0
 13
1.0
 23
0.0
 33
0.0
 40
0.0
 40
0.0
 40
0.0
 40
0.0
 40
1.0
 40
1.0
 40
1.0
 40
2.0
 40
2.0
 40
2.0
 40
3.0
 40
3.0
 40
3.0
 40
4.0
 40
4.0
 40
4.0
 40
5.0
 40
5.0
 40
5.0
 40
6.0
 40
6.0
 40
6.0
 40
7.0
 40
7.0
 40
7.0
 40
7.0
 10
76.11301131994745
 20
-131.2753634654451
 30
0.0
 10
76.11301131994745
 20
-131.2753634654451
 30
0.0
 10
75.00868596215061
 20
-131.2753634654451
 30
0.0
 10
75.00868596215061
 20
-131.2753634654451
 30
0.0
 10
75.00868596215061
 20
-131.2753634654451
 30
0.0
 10
75.00868596215061
 20
-131.6281412431346
 30
0.0
 10
75.00868596215061
 20
-131.6281412431346
 30
0.0
 10
75.00868596215061
 20
-131.6281412431346
 30
0.0
 10
74.86071911105913
 20
-131.6281412431346
 30
0.0
 10
74.86071911105913
 20
-131.6281412431346
 30
0.0
 10
74.84590520047256
 20
-131.2732964081539
 30
0.0
 10
74.68295218402024
 20
-131.2236870331663
 30
0.0
 10
74.5687472686842
 20
-131.191992154702
 30
0.0
 10
74.5687472686842
 20
-131.191992154702
 30
0.0
 10
74.5687472686842
 20
-131.0359293292202
 30
0.0
 10
74.5687472686842
 20
-131.0359293292202
 30
0.0
 10
74.5687472686842
 20
-131.0359293292202
 30
0.0
 10
76.11301131994745
 20
-131.0359293292202
 30
0.0
 10
76.11301131994745
 20
-131.0359293292202
 30
0.0
 10
76.11301131994745
 20
-131.0359293292202
 30
0.0
 10
76.11301131994745
 20
-131.2753634654451
 30
0.0
 10
76.11301131994745
 20
-131.2753634654451
 30
0.0
  0
HATCH
  5
FE
330
F9
100
AcDbEntity
  8
_U+30EC_U+30A4_U+30E4_U+30FC 1
 62
   179
420
  2234388
100
AcDbHatch
 10
0.0
 20
0.0
 30
0.0
210
0.0
220
0.0
230
1.0
  2
SOLID
 70
     1
 71
     0
 91
        1
 92
        1
 93
        1
 72
     4
 94
        3
 73
     0
 74
     1
 95
       26
 96
       22
 40
0.0
 40
0.0
 40
0.0
 40
0.0
 40
1.0
 40
1.0
 40
1.0
 40
2.0
 40
2.0
 40
2.0
 40
3.0
 40
3.0
 40
3.0
 40
4.0
 40
4.0
 40
4.0
 40
5.0
 40
5.0
 40
5.0
 40
6.0
 40
6.0
 40
6.0
 40
7.0
 40
7.0
 40
7.0
 40
7.0
 10
76.11301131994745
 20
-131.2753634654451
 10
76.11301131994745
 20
-131.2753634654451
 10
75.00868596215061
 20
-131.2753634654451
 10
75.00868596215061
 20
-131.2753634654451
 10
75.00868596215061
 20
-131.2753634654451
 10
75.00868596215061
 20
-131.6281412431346
 10
75.00868596215061
 20
-131.6281412431346
 10
75.00868596215061
 20
-131.6281412431346
 10
74.86071911105913
 20
-131.6281412431346
 10
74.86071911105913
 20
-131.6281412431346
 10
74.84590520047256
 20
-131.2732964081539
 10
74.68295218402024
 20
-131.2236870331663
 10
74.5687472686842
 20
-131.191992154702
 10
74.5687472686842
 20
-131.191992154702
 10
74.5687472686842
 20
-131.0359293292202
 10
74.5687472686842
 20
-131.0359293292202
 10
74.5687472686842
 20
-131.0359293292202
 10
76.11301131994745
 20
-131.0359293292202
 10
76.11301131994745
 20
-131.0359293292202
 10
76.11301131994745
 20
-131.0359293292202
 10
76.11301131994745
 20
-131.2753634654451
 10
76.11301131994745
 20
-131.2753634654451
 97
        0
 97
        0
 75
     2
 76
     1
 98
        0
  0
SPLINE
  5
FF
330
F9
100
AcDbEntity
  8
_U+30EC_U+30A4_U+30E4_U+30FC 1
370
     0
100
AcDbSpline
210
0.0
220
0.0
230
1.0
 70
    11
 71
     3
 72
    53
 73
    49
 74
     0
 42
0.0000000001
 43
0.0000000001
 12
1.0
 22
0.0
 32
0.0
 13
1.0
 23
0.0
 33
0.0
 40
0.0
 40
0.0
 40
0.0
 40
0.0
 40
1.0
 40
1.0
 40
1.0
 40
2.0
 40
2.0
 40
2.0
 40
3.0
 40
3.0
 40
3.0
 40
4.0
 40
4.0
 40
4.0
 40
5.0
 40
5.0
 40
5.0
 40
6.0
 40
6.0
 40
6.0
 40
7.0
 40
7.0
 40
7.0
 40
8.0
 40
8.0
 40
8.0
 40
9.0
 40
9.0
 40
9.0
 40
10.0
 40
10.0
 40
10.0
 40
11.0
 40
11.0
 40
11.0
 40
12.0
 40
12.0
 40
12.0
 40
13.0
 40
13.0
 40
13.0
 40
14.0
 40
14.0
 40
14.0
 40
15.0
 40
15.0
 40
15.0
 40
16.0
 40
16.0
 40
16.0
 40
16.0
 10
76.16382647835488
 20
-129.9862087348646
 30
0.0
 10
76.16382647835488
 20
-130.0695800456076
 30
0.0
 10
76.1467732557029
 20
-130.1784450629415
 30
0.0
 10
76.0833834987743
 20
-130.2866210611784
 30
0.0
 10
75.97331269802056
 20
-130.4719671982848
 30
0.0
 10
75.8422268148068
 20
-130.4947048284874
 30
0.0
 10
75.73439532611849
 20
-130.5153754013989
 30
0.0
 10
75.73439532611849
 20
-130.5153754013989
 30
0.0
 10
75.73439532611849
 20
-130.2776638129167
 30
0.0
 10
75.73439532611849
 20
-130.2776638129167
 30
0.0
 10
75.9331773356174
 20
-130.2190971896675
 30
0.0
 10
75.96280515679055
 20
-130.0833604275486
 30
0.0
 10
75.96280515679055
 20
-129.9837971680249
 30
0.0
 10
75.96280515679055
 20
-129.8346245335136
 30
0.0
 10
75.86341415204109
 20
-129.6720160266098
 30
0.0
 10
75.63069795201247
 20
-129.6720160266098
 30
0.0
 10
75.37472735745841
 20
-129.6720160266098
 30
0.0
 10
75.3049641738821
 20
-129.8642523546867
 30
0.0
 10
75.3049641738821
 20
-129.9930989258351
 30
0.0
 10
75.3049641738821
 20
-130.0268608615905
 30
0.0
 10
75.3049641738821
 20
-130.1784450629415
 30
0.0
 10
75.4339829998047
 20
-130.2731851887859
 30
0.0
 10
75.4339829998047
 20
-130.2731851887859
 30
0.0
 10
75.41486271986156
 20
-130.460942892732
 30
0.0
 10
75.41486271986156
 20
-130.460942892732
 30
0.0
 10
75.41486271986156
 20
-130.460942892732
 30
0.0
 10
74.5687472686842
 20
-130.3320963215836
 30
0.0
 10
74.5687472686842
 20
-130.3320963215836
 30
0.0
 10
74.5687472686842
 20
-130.3320963215836
 30
0.0
 10
74.5687472686842
 20
-129.5001057618958
 30
0.0
 10
74.5687472686842
 20
-129.5001057618958
 30
0.0
 10
74.5687472686842
 20
-129.5001057618958
 30
0.0
 10
74.76339516360082
 20
-129.5001057618958
 30
0.0
 10
74.76339516360082
 20
-129.5001057618958
 30
0.0
 10
74.76339516360082
 20
-129.5001057618958
 30
0.0
 10
74.76339516360082
 20
-130.15777449003
 30
0.0
 10
74.76339516360082
 20
-130.15777449003
 30
0.0
 10
74.76339516360082
 20
-130.15777449003
 30
0.0
 10
75.1864528891895
 20
-130.2280544379291
 30
0.0
 10
75.1864528891895
 20
-130.2280544379291
 30
0.0
 10
75.15251869865979
 20
-130.1625976237094
 30
0.0
 10
75.11238333625663
 20
-130.074403179287
 30
0.0
 10
75.11238333625663
 20
-129.9476236654298
 30
0.0
 10
75.11238333625663
 20
-129.6761501411921
 30
0.0
 10
75.29859074723439
 20
-129.4232801325747
 30
0.0
 10
75.61157767206933
 20
-129.4232801325747
 30
0.0
 10
75.9290432210351
 20
-129.4232801325747
 30
0.0
 10
76.16382647835488
 20
-129.6627142687996
 30
0.0
 10
76.16382647835488
 20
-129.9862087348646
 30
0.0
  0
HATCH
  5
100
330
F9
100
AcDbEntity
  8
_U+30EC_U+30A4_U+30E4_U+30FC 1
 62
   179
420
  2234388
100
AcDbHatch
 10
0.0
 20
0.0
 30
0.0
210
0.0
220
0.0
230
1.0
  2
SOLID
 70
     1
 71
     0
 91
        1
 92
        1
 93
        1
 72
     4
 94
        3
 73
     0
 74
     1
 95
       53
 96
       49
 40
0.0
 40
0.0
 40
0.0
 40
0.0
 40
1.0
 40
1.0
 40
1.0
 40
2.0
 40
2.0
 40
2.0
 40
3.0
 40
3.0
 40
3.0
 40
4.0
 40
4.0
 40
4.0
 40
5.0
 40
5.0
 40
5.0
 40
6.0
 40
6.0
 40
6.0
 40
7.0
 40
7.0
 40
7.0
 40
8.0
 40
8.0
 40
8.0
 40
9.0
 40
9.0
 40
9.0
 40
10.0
 40
10.0
 40
10.0
 40
11.0
 40
11.0
 40
11.0
 40
12.0
 40
12.0
 40
12.0
 40
13.0
 40
13.0
 40
13.0
 40
14.0
 40
14.0
 40
14.0
 40
15.0
 40
15.0
 40
15.0
 40
16.0
 40
16.0
 40
16.0
 40
16.0
 10
76.16382647835488
 20
-129.9862087348646
 10
76.16382647835488
 20
-130.0695800456076
 10
76.1467732557029
 20
-130.1784450629415
 10
76.0833834987743
 20
-130.2866210611784
 10
75.97331269802056
 20
-130.4719671982848
 10
75.8422268148068
 20
-130.4947048284874
 10
75.73439532611849
 20
-130.5153754013989
 10
75.73439532611849
 20
-130.5153754013989
 10
75.73439532611849
 20
-130.2776638129167
 10
75.73439532611849
 20
-130.2776638129167
 10
75.9331773356174
 20
-130.2190971896675
 10
75.96280515679055
 20
-130.0833604275486
 10
75.96280515679055
 20
-129.9837971680249
 10
75.96280515679055
 20
-129.8346245335136
 10
75.86341415204109
 20
-129.6720160266098
 10
75.63069795201247
 20
-129.6720160266098
 10
75.37472735745841
 20
-129.6720160266098
 10
75.3049641738821
 20
-129.8642523546867
 10
75.3049641738821
 20
-129.9930989258351
 10
75.3049641738821
 20
-130.0268608615905
 10
75.3049641738821
 20
-130.1784450629415
 10
75.4339829998047
 20
-130.2731851887859
 10
75.4339829998047
 20
-130.2731851887859
 10
75.41486271986156
 20
-130.460942892732
 10
75.41486271986156
 20
-130.460942892732
 10
75.41486271986156
 20
-130.460942892732
 10
74.5687472686842
 20
-130.3320963215836
 10
74.5687472686842
 20
-130.3320963215836
 10
74.5687472686842
 20
-130.3320963215836
 10
74.5687472686842
 20
-129.5001057618958
 10
74.5687472686842
 20
-129.5001057618958
 10
74.5687472686842
 20
-129.5001057618958
 10
74.76339516360082
 20
-129.5001057618958
 10
74.76339516360082
 20
-129.5001057618958
 10
74.76339516360082
 20
-129.5001057618958
 10
74.76339516360082
 20
-130.15777449003
 10
74.76339516360082
 20
-130.15777449003
 10
74.76339516360082
 20
-130.15777449003
 10
75.1864528891895
 20
-130.2280544379291
 10
75.1864528891895
 20
-130.2280544379291
 10
75.15251869865979
 20
-130.1625976237094
 10
75.11238333625663
 20
-130.074403179287
 10
75.11238333625663
 20
-129.9476236654298
 10
75.11238333625663
 20
-129.6761501411921
 10
75.29859074723439
 20
-129.4232801325747
 10
75.61157767206933
 20
-129.4232801325747
 10
75.9290432210351
 20
-129.4232801325747
 10
76.16382647835488
 20
-129.6627142687996
 10
76.16382647835488
 20
-129.9862087348646
 97
        0
 97
        0
 75
     2
 76
     1
 98
        0
  0
POLYLINE
  5
101
330
F9
100
AcDbEntity
  8
_U+30EC_U+30A4_U+30E4_U+30FC 1
370
     0
100
AcDb2dPolyline
 66
     1
 10
0.0
 20
0.0
 30
0.0
  0
VERTEX
  5
102
330
101
100
AcDbEntity
  8
_U+30EC_U+30A4_U+30E4_U+30FC 1
370
     0
100
AcDbVertex
100
AcDb2dVertex
 10
76.11301131994745
 20
-129.1779893340249
 30
0.0
  0
VERTEX
  5
103
330
101
100
AcDbEntity
  8
_U+30EC_U+30A4_U+30E4_U+30FC 1
370
     0
100
AcDbVertex
100
AcDb2dVertex
 10
75.86134709474995
 20
-129.1779893340249
 30
0.0
  0
VERTEX
  5
104
330
101
100
AcDbEntity
  8
_U+30EC_U+30A4_U+30E4_U+30FC 1
370
     0
100
AcDbVertex
100
AcDb2dVertex
 10
75.86134709474995
 20
-128.9092718861755
 30
0.0
  0
VERTEX
  5
105
330
101
100
AcDbEntity
  8
_U+30EC_U+30A4_U+30E4_U+30FC 1
370
     0
100
AcDbVertex
100
AcDb2dVertex
 10
76.11301131994745
 20
-128.9092718861755
 30
0.0
  0
VERTEX
  5
106
330
101
100
AcDbEntity
  8
_U+30EC_U+30A4_U+30E4_U+30FC 1
370
     0
100
AcDbVertex
100
AcDb2dVertex
 10
76.11301131994745
 20
-129.1779893340249
 30
0.0
  0
SEQEND
  5
107
330
101
100
AcDbEntity
  8
_U+30EC_U+30A4_U+30E4_U+30FC 1
370
     0
  0
HATCH
  5
108
330
F9
100
AcDbEntity
  8
_U+30EC_U+30A4_U+30E4_U+30FC 1
 62
   179
420
  2234388
100
AcDbHatch
 10
0.0
 20
0.0
 30
0.0
210
0.0
220
0.0
230
1.0
  2
SOLID
 70
     1
 71
     0
 91
        1
 92
        1
 93
        4
 72
     1
 10
76.11301131994745
 20
-129.1779893340249
 11
75.86134709474995
 21
-129.1779893340249
 72
     1
 10
75.86134709474995
 20
-129.1779893340249
 11
75.86134709474995
 21
-128.9092718861755
 72
     1
 10
75.86134709474995
 20
-128.9092718861755
 11
76.11301131994745
 21
-128.9092718861755
 72
     1
 10
76.11301131994745
 20
-128.9092718861755
 11
76.11301131994745
 21
-129.1779893340249
 97
        0
 75
     2
 76
     1
 98
        0
  0
SPLINE
  5
109
330
F9
100
AcDbEntity
  8
_U+30EC_U+30A4_U+30E4_U+30FC 1
370
     0
100
AcDbSpline
210
0.0
220
0.0
230
1.0
 70
    11
 71
     3
 72
    53
 73
    49
 74
     0
 42
0.0000000001
 43
0.0000000001
 12
1.0
 22
0.0
 32
0.0
 13
1.0
 23
0.0
 33
0.0
 40
0.0
 40
0.0
 40
0.0
 40
0.0
 40
1.0
 40
1.0
 40
1.0
 40
2.0
 40
2.0
 40
2.0
 40
3.0
 40
3.0
 40
3.0
 40
4.0
 40
4.0
 40
4.0
 40
5.0
 40
5.0
 40
5.0
 40
6.0
 40
6.0
 40
6.0
 40
7.0
 40
7.0
 40
7.0
 40
8.0
 40
8.0
 40
8.0
 40
9.0
 40
9.0
 40
9.0
 40
10.0
 40
10.0
 40
10.0
 40
11.0
 40
11.0
 40
11.0
 40
12.0
 40
12.0
 40
12.0
 40
13.0
 40
13.0
 40
13.0
 40
14.0
 40
14.0
 40
14.0
 40
15.0
 40
15.0
 40
15.0
 40
16.0
 40
16.0
 40
16.0
 40
16.0
 10
76.16382647835488
 20
-128.1423936311589
 30
0.0
 10
76.16382647835488
 20
-128.2261094514504
 30
0.0
 10
76.1467732557029
 20
-128.3346299592358
 30
0.0
 10
76.0833834987743
 20
-128.4431504670212
 30
0.0
 10
75.97331269802056
 20
-128.6284966041276
 30
0.0
 10
75.8422268148068
 20
-128.6512342343302
 30
0.0
 10
75.73439532611849
 20
-128.6715602976932
 30
0.0
 10
75.73439532611849
 20
-128.6715602976932
 30
0.0
 10
75.73439532611849
 20
-128.4341932187595
 30
0.0
 10
75.73439532611849
 20
-128.4341932187595
 30
0.0
 10
75.9331773356174
 20
-128.3752820859617
 30
0.0
 10
75.96280515679055
 20
-128.2397175786172
 30
0.0
 10
75.96280515679055
 20
-128.1401543190934
 30
0.0
 10
75.96280515679055
 20
-127.9909816845821
 30
0.0
 10
75.86341415204109
 20
-127.8282009229041
 30
0.0
 10
75.63069795201247
 20
-127.8282009229041
 30
0.0
 10
75.37472735745841
 20
-127.8282009229041
 30
0.0
 10
75.3049641738821
 20
-128.020437250981
 30
0.0
 10
75.3049641738821
 20
-128.1492838221293
 30
0.0
 10
75.3049641738821
 20
-128.1832180126591
 30
0.0
 10
75.3049641738821
 20
-128.3346299592358
 30
0.0
 10
75.4339829998047
 20
-128.4295423398544
 30
0.0
 10
75.4339829998047
 20
-128.4295423398544
 30
0.0
 10
75.41486271986156
 20
-128.6173000438006
 30
0.0
 10
75.41486271986156
 20
-128.6173000438006
 30
0.0
 10
75.41486271986156
 20
-128.6173000438006
 30
0.0
 10
74.5687472686842
 20
-128.4882812178779
 30
0.0
 10
74.5687472686842
 20
-128.4882812178779
 30
0.0
 10
74.5687472686842
 20
-128.4882812178779
 30
0.0
 10
74.5687472686842
 20
-127.6562906581901
 30
0.0
 10
74.5687472686842
 20
-127.6562906581901
 30
0.0
 10
74.5687472686842
 20
-127.6562906581901
 30
0.0
 10
74.76339516360082
 20
-127.6562906581901
 30
0.0
 10
74.76339516360082
 20
-127.6562906581901
 30
0.0
 10
74.76339516360082
 20
-127.6562906581901
 30
0.0
 10
74.76339516360082
 20
-128.3143038958728
 30
0.0
 10
74.76339516360082
 20
-128.3143038958728
 30
0.0
 10
74.76339516360082
 20
-128.3143038958728
 30
0.0
 10
75.1864528891895
 20
-128.3844115889977
 30
0.0
 10
75.1864528891895
 20
-128.3844115889977
 30
0.0
 10
75.15251869865979
 20
-128.3187825200037
 30
0.0
 10
75.11238333625663
 20
-128.2305880755812
 30
0.0
 10
75.11238333625663
 20
-128.1039808164983
 30
0.0
 10
75.11238333625663
 20
-127.8326795470349
 30
0.0
 10
75.29859074723439
 20
-127.579465028869
 30
0.0
 10
75.61157767206933
 20
-127.579465028869
 30
0.0
 10
75.9290432210351
 20
-127.579465028869
 30
0.0
 10
76.16382647835488
 20
-127.8192436746424
 30
0.0
 10
76.16382647835488
 20
-128.1423936311589
 30
0.0
  0
HATCH
  5
10A
330
F9
100
AcDbEntity
  8
_U+30EC_U+30A4_U+30E4_U+30FC 1
 62
   179
420
  2234388
100
AcDbHatch
 10
0.0
 20
0.0
 30
0.0
210
0.0
220
0.0
230
1.0
  2
SOLID
 70
     1
 71
     0
 91
        1
 92
        1
 93
        1
 72
     4
 94
        3
 73
     0
 74
     1
 95
       53
 96
       49
 40
0.0
 40
0.0
 40
0.0
 40
0.0
 40
1.0
 40
1.0
 40
1.0
 40
2.0
 40
2.0
 40
2.0
 40
3.0
 40
3.0
 40
3.0
 40
4.0
 40
4.0
 40
4.0
 40
5.0
 40
5.0
 40
5.0
 40
6.0
 40
6.0
 40
6.0
 40
7.0
 40
7.0
 40
7.0
 40
8.0
 40
8.0
 40
8.0
 40
9.0
 40
9.0
 40
9.0
 40
10.0
 40
10.0
 40
10.0
 40
11.0
 40
11.0
 40
11.0
 40
12.0
 40
12.0
 40
12.0
 40
13.0
 40
13.0
 40
13.0
 40
14.0
 40
14.0
 40
14.0
 40
15.0
 40
15.0
 40
15.0
 40
16.0
 40
16.0
 40
16.0
 40
16.0
 10
76.16382647835488
 20
-128.1423936311589
 10
76.16382647835488
 20
-128.2261094514504
 10
76.1467732557029
 20
-128.3346299592358
 10
76.0833834987743
 20
-128.4431504670212
 10
75.97331269802056
 20
-128.6284966041276
 10
75.8422268148068
 20
-128.6512342343302
 10
75.73439532611849
 20
-128.6715602976932
 10
75.73439532611849
 20
-128.6715602976932
 10
75.73439532611849
 20
-128.4341932187595
 10
75.73439532611849
 20
-128.4341932187595
 10
75.9331773356174
 20
-128.3752820859617
 10
75.96280515679055
 20
-128.2397175786172
 10
75.96280515679055
 20
-128.1401543190934
 10
75.96280515679055
 20
-127.9909816845821
 10
75.86341415204109
 20
-127.8282009229041
 10
75.63069795201247
 20
-127.8282009229041
 10
75.37472735745841
 20
-127.8282009229041
 10
75.3049641738821
 20
-128.020437250981
 10
75.3049641738821
 20
-128.1492838221293
 10
75.3049641738821
 20
-128.1832180126591
 10
75.3049641738821
 20
-128.3346299592358
 10
75.4339829998047
 20
-128.4295423398544
 10
75.4339829998047
 20
-128.4295423398544
 10
75.41486271986156
 20
-128.6173000438006
 10
75.41486271986156
 20
-128.6173000438006
 10
75.41486271986156
 20
-128.6173000438006
 10
74.5687472686842
 20
-128.4882812178779
 10
74.5687472686842
 20
-128.4882812178779
 10
74.5687472686842
 20
-128.4882812178779
 10
74.5687472686842
 20
-127.6562906581901
 10
74.5687472686842
 20
-127.6562906581901
 10
74.5687472686842
 20
-127.6562906581901
 10
74.76339516360082
 20
-127.6562906581901
 10
74.76339516360082
 20
-127.6562906581901
 10
74.76339516360082
 20
-127.6562906581901
 10
74.76339516360082
 20
-128.3143038958728
 10
74.76339516360082
 20
-128.3143038958728
 10
74.76339516360082
 20
-128.3143038958728
 10
75.1864528891895
 20
-128.3844115889977
 10
75.1864528891895
 20
-128.3844115889977
 10
75.15251869865979
 20
-128.3187825200037
 10
75.11238333625663
 20
-128.2305880755812
 10
75.11238333625663
 20
-128.1039808164983
 10
75.11238333625663
 20
-127.8326795470349
 10
75.29859074723439
 20
-127.579465028869
 10
75.61157767206933
 20
-127.579465028869
 10
75.9290432210351
 20
-127.579465028869
 10
76.16382647835488
 20
-127.8192436746424
 10
76.16382647835488
 20
-128.1423936311589
 97
        0
 97
        0
 75
     2
 76
     1
 98
        0
  0
ENDBLK
  5
FC
330
F9
100
AcDbEntity
  8
0
100
AcDbBlockEnd
  0
ENDSEC
  0
SECTION
  2
ENTITIES
  0
POLYLINE
  5
41
330
1F
100
AcDbEntity
  8
_U+30EC_U+30A4_U+30E4_U+30FC 1
 62
   179
420
  2234388
370
    25
100
AcDb2dPolyline
 66
     1
 10
0.0
 20
0.0
 30
0.0
  0
VERTEX
  5
42
330
41
100
AcDbEntity
  8
_U+30EC_U+30A4_U+30E4_U+30FC 1
 62
   179
420
  2234388
370
    25
100
AcDbVertex
100
AcDb2dVertex
 10
81.14043904104605
 20
-137.4420810767504
 30
0.0
  0
VERTEX
  5
43
330
41
100
AcDbEntity
  8
_U+30EC_U+30A4_U+30E4_U+30FC 1
 62
   179
420
  2234388
370
    25
100
AcDbVertex
100
AcDb2dVertex
 10
86.27018057684211
 20
-137.4420810767504
 30
0.0
  0
SEQEND
  5
44
330
41
100
AcDbEntity
  8
_U+30EC_U+30A4_U+30E4_U+30FC 1
 62
   179
420
  2234388
370
    25
  0
POLYLINE
  5
45
330
1F
100
AcDbEntity
  8
_U+30EC_U+30A4_U+30E4_U+30FC 1
 62
   179
420
  2234388
370
    25
100
AcDb2dPolyline
 66
     1
 10
0.0
 20
0.0
 30
0.0
  0
VERTEX
  5
46
330
45
100
AcDbEntity
  8
_U+30EC_U+30A4_U+30E4_U+30FC 1
 62
   179
420
  2234388
370
    25
100
AcDbVertex
100
AcDb2dVertex
 10
80.77697210587442
 20
-121.9604988583987
 30
0.0
  0
VERTEX
  5
47
330
45
100
AcDbEntity
  8
_U+30EC_U+30A4_U+30E4_U+30FC 1
 62
   179
420
  2234388
370
    25
100
AcDbVertex
100
AcDb2dVertex
 10
86.27018057684211
 20
-121.9604988583987
 30
0.0
  0
SEQEND
  5
48
330
45
100
AcDbEntity
  8
_U+30EC_U+30A4_U+30E4_U+30FC 1
 62
   179
420
  2234388
370
    25
  0
POLYLINE
  5
49
330
1F
100
AcDbEntity
  8
_U+30EC_U+30A4_U+30E4_U+30FC 1
 62
   179
420
  2234388
370
    25
100
AcDb2dPolyline
 66
     1
 10
0.0
 20
0.0
 30
0.0
  0
VERTEX
  5
4A
330
49
100
AcDbEntity
  8
_U+30EC_U+30A4_U+30E4_U+30FC 1
 62
   179
420
  2234388
370
    25
100
AcDbVertex
100
AcDb2dVertex
 10
81.14043904104605
 20
-120.961432191982
 30
0.0
  0
VERTEX
  5
4B
330
49
100
AcDbEntity
  8
_U+30EC_U+30A4_U+30E4_U+30FC 1
 62
   179
420
  2234388
370
    25
100
AcDbVertex
100
AcDb2dVertex
 10
92.39951792046969
 20
-120.961432191982
 30
0.0
  0
SEQEND
  5
4C
330
49
100
AcDbEntity
  8
_U+30EC_U+30A4_U+30E4_U+30FC 1
 62
   179
420
  2234388
370
    25
  0
POLYLINE
  5
4D
330
1F
100
AcDbEntity
  8
_U+30EC_U+30A4_U+30E4_U+30FC 1
 62
   179
420
  2234388
370
    25
100
AcDb2dPolyline
 66
     1
 10
0.0
 20
0.0
 30
0.0
  0
VERTEX
  5
4E
330
4D
100
AcDbEntity
  8
_U+30EC_U+30A4_U+30E4_U+30FC 1
 62
   179
420
  2234388
370
    25
100
AcDbVertex
100
AcDb2dVertex
 10
80.77697210587442
 20
-138.4411477431674
 30
0.0
  0
VERTEX
  5
4F
330
4D
100
AcDbEntity
  8
_U+30EC_U+30A4_U+30E4_U+30FC 1
 62
   179
420
  2234388
370
    25
100
AcDbVertex
100
AcDb2dVertex
 10
103.7490490198079
 20
-138.4411477431674
 30
0.0
  0
SEQEND
  5
50
330
4D
100
AcDbEntity
  8
_U+30EC_U+30A4_U+30E4_U+30FC 1
 62
   179
420
  2234388
370
    25
  0
POLYLINE
  5
51
330
1F
100
AcDbEntity
  8
_U+30EC_U+30A4_U+30E4_U+30FC 1
 62
   179
420
  2234388
370
    25
100
AcDb2dPolyline
 66
     1
 10
0.0
 20
0.0
 30
0.0
  0
VERTEX
  5
52
330
51
100
AcDbEntity
  8
_U+30EC_U+30A4_U+30E4_U+30FC 1
 62
   179
420
  2234388
370
    25
100
AcDbVertex
100
AcDb2dVertex
 10
97.05798608684663
 20
-137.7418010766754
 30
0.0
  0
VERTEX
  5
53
330
51
100
AcDbEntity
  8
_U+30EC_U+30A4_U+30E4_U+30FC 1
 62
   179
420
  2234388
370
    25
100
AcDbVertex
100
AcDb2dVertex
 10
103.4948020818499
 20
-137.7418010766754
 30
0.0
  0
SEQEND
  5
54
330
51
100
AcDbEntity
  8
_U+30EC_U+30A4_U+30E4_U+30FC 1
 62
   179
420
  2234388
370
    25
  0
POLYLINE
  5
55
330
1F
100
AcDbEntity
  8
_U+30EC_U+30A4_U+30E4_U+30FC 1
 62
   179
420
  2234388
370
    25
100
AcDb2dPolyline
 66
     1
 10
0.0
 20
0.0
 30
0.0
  0
VERTEX
  5
56
330
55
100
AcDbEntity
  8
_U+30EC_U+30A4_U+30E4_U+30FC 1
 62
   179
420
  2234388
370
    25
100
AcDbVertex
100
AcDb2dVertex
 10
92.39951792046969
 20
-120.961432191982
 30
0.0
  0
VERTEX
  5
57
330
55
100
AcDbEntity
  8
_U+30EC_U+30A4_U+30E4_U+30FC 1
 62
   179
420
  2234388
370
    25
100
AcDbVertex
100
AcDb2dVertex
 10
92.76263207787254
 20
-121.9604988583987
 30
0.0
  0
SEQEND
  5
58
330
55
100
AcDbEntity
  8
_U+30EC_U+30A4_U+30E4_U+30FC 1
 62
   179
420
  2234388
370
    25
  0
POLYLINE
  5
59
330
1F
100
AcDbEntity
  8
_U+30EC_U+30A4_U+30E4_U+30FC 1
 62
   179
420
  2234388
370
    25
100
AcDb2dPolyline
 66
     1
 10
0.0
 20
0.0
 30
0.0
  0
VERTEX
  5
5A
330
59
100
AcDbEntity
  8
_U+30EC_U+30A4_U+30E4_U+30FC 1
 62
   179
420
  2234388
370
    25
100
AcDbVertex
100
AcDb2dVertex
 10
103.4948020818499
 20
-137.7418010766754
 30
0.0
  0
VERTEX
  5
5B
330
59
100
AcDbEntity
  8
_U+30EC_U+30A4_U+30E4_U+30FC 1
 62
   179
420
  2234388
370
    25
100
AcDbVertex
100
AcDb2dVertex
 10
103.7490490198079
 20
-138.4411477431674
 30
0.0
  0
SEQEND
  5
5C
330
59
100
AcDbEntity
  8
_U+30EC_U+30A4_U+30E4_U+30FC 1
 62
   179
420
  2234388
370
    25
  0
POLYLINE
  5
5D
330
1F
100
AcDbEntity
  8
_U+30EC_U+30A4_U+30E4_U+30FC 1
 62
   179
420
  2234388
370
    25
100
AcDb2dPolyline
 66
     1
 10
0.0
 20
0.0
 30
0.0
  0
VERTEX
  5
5E
330
5D
100
AcDbEntity
  8
_U+30EC_U+30A4_U+30E4_U+30FC 1
 62
   179
420
  2234388
370
    25
100
AcDbVertex
100
AcDb2dVertex
 10
96.7575580870646
 20
-137.4420810767504
 30
0.0
  0
VERTEX
  5
5F
330
5D
100
AcDbEntity
  8
_U+30EC_U+30A4_U+30E4_U+30FC 1
 62
   179
420
  2234388
370
    25
100
AcDbVertex
100
AcDb2dVertex
 10
97.05798608684663
 20
-137.7418010766754
 30
0.0
  0
SEQEND
  5
60
330
5D
100
AcDbEntity
  8
_U+30EC_U+30A4_U+30E4_U+30FC 1
 62
   179
420
  2234388
370
    25
  0
POLYLINE
  5
61
330
1F
100
AcDbEntity
  8
_U+30EC_U+30A4_U+30E4_U+30FC 1
 62
   179
420
  2234388
370
    25
100
AcDb2dPolyline
 66
     1
 10
0.0
 20
0.0
 30
0.0
  0
VERTEX
  5
62
330
61
100
AcDbEntity
  8
_U+30EC_U+30A4_U+30E4_U+30FC 1
 62
   179
420
  2234388
370
    25
100
AcDbVertex
100
AcDb2dVertex
 10
80.77697210587442
 20
-121.9604988583987
 30
0.0
  0
VERTEX
  5
63
330
61
100
AcDbEntity
  8
_U+30EC_U+30A4_U+30E4_U+30FC 1
 62
   179
420
  2234388
370
    25
100
AcDbVertex
100
AcDb2dVertex
 10
81.14043904104605
 20
-120.961432191982
 30
0.0
  0
SEQEND
  5
64
330
61
100
AcDbEntity
  8
_U+30EC_U+30A4_U+30E4_U+30FC 1
 62
   179
420
  2234388
370
    25
  0
POLYLINE
  5
65
330
1F
100
AcDbEntity
  8
_U+30EC_U+30A4_U+30E4_U+30FC 1
 62
   179
420
  2234388
370
    25
100
AcDb2dPolyline
 66
     1
 10
0.0
 20
0.0
 30
0.0
  0
VERTEX
  5
66
330
65
100
AcDbEntity
  8
_U+30EC_U+30A4_U+30E4_U+30FC 1
 62
   179
420
  2234388
370
    25
100
AcDbVertex
100
AcDb2dVertex
 10
80.77697210587442
 20
-138.4411477431674
 30
0.0
  0
VERTEX
  5
67
330
65
100
AcDbEntity
  8
_U+30EC_U+30A4_U+30E4_U+30FC 1
 62
   179
420
  2234388
370
    25
100
AcDbVertex
100
AcDb2dVertex
 10
81.14043904104605
 20
-137.4420810767504
 30
0.0
  0
SEQEND
  5
68
330
65
100
AcDbEntity
  8
_U+30EC_U+30A4_U+30E4_U+30FC 1
 62
   179
420
  2234388
370
    25
  0
POLYLINE
  5
69
330
1F
100
AcDbEntity
  8
_U+30EC_U+30A4_U+30E4_U+30FC 1
 62
   179
420
  2234388
370
    25
100
AcDb2dPolyline
 66
     1
 10
0.0
 20
0.0
 30
0.0
  0
VERTEX
  5
6A
330
69
100
AcDbEntity
  8
_U+30EC_U+30A4_U+30E4_U+30FC 1
 62
   179
420
  2234388
370
    25
100
AcDbVertex
100
AcDb2dVertex
 10
86.27018057684211
 20
-121.9604988583987
 30
0.0
  0
VERTEX
  5
6B
330
69
100
AcDbEntity
  8
_U+30EC_U+30A4_U+30E4_U+30FC 1
 62
   179
420
  2234388
370
    25
100
AcDbVertex
100
AcDb2dVertex
 10
86.27018057684211
 20
-137.4420810767504
 30
0.0
  0
SEQEND
  5
6C
330
69
100
AcDbEntity
  8
_U+30EC_U+30A4_U+30E4_U+30FC 1
 62
   179
420
  2234388
370
    25
  0
POLYLINE
  5
6D
330
1F
100
AcDbEntity
  8
_U+30EC_U+30A4_U+30E4_U+30FC 1
 62
   179
420
  2234388
370
    25
100
AcDb2dPolyline
 66
     1
 10
0.0
 20
0.0
 30
0.0
  0
VERTEX
  5
6E
330
6D
100
AcDbEntity
  8
_U+30EC_U+30A4_U+30E4_U+30FC 1
 62
   179
420
  2234388
370
    25
100
AcDbVertex
100
AcDb2dVertex
 10
87.26959999578924
 20
-121.9604988583987
 30
0.0
  0
VERTEX
  5
6F
330
6D
100
AcDbEntity
  8
_U+30EC_U+30A4_U+30E4_U+30FC 1
 62
   179
420
  2234388
370
    25
100
AcDbVertex
100
AcDb2dVertex
 10
87.26959999578924
 20
-137.4420810767504
 30
0.0
  0
SEQEND
  5
70
330
6D
100
AcDbEntity
  8
_U+30EC_U+30A4_U+30E4_U+30FC 1
 62
   179
420
  2234388
370
    25
  0
POLYLINE
  5
71
330
1F
100
AcDbEntity
  8
_U+30EC_U+30A4_U+30E4_U+30FC 1
 62
   179
420
  2234388
370
    25
100
AcDb2dPolyline
 66
     1
 10
0.0
 20
0.0
 30
0.0
  0
VERTEX
  5
72
330
71
100
AcDbEntity
  8
_U+30EC_U+30A4_U+30E4_U+30FC 1
 62
   179
420
  2234388
370
    25
100
AcDbVertex
100
AcDb2dVertex
 10
87.26959999578924
 20
-121.9604988583987
 30
0.0
  0
VERTEX
  5
73
330
71
100
AcDbEntity
  8
_U+30EC_U+30A4_U+30E4_U+30FC 1
 62
   179
420
  2234388
370
    25
100
AcDbVertex
100
AcDb2dVertex
 10
92.76263207787254
 20
-121.9604988583987
 30
0.0
  0
SEQEND
  5
74
330
71
100
AcDbEntity
  8
_U+30EC_U+30A4_U+30E4_U+30FC 1
 62
   179
420
  2234388
370
    25
  0
POLYLINE
  5
75
330
1F
100
AcDbEntity
  8
_U+30EC_U+30A4_U+30E4_U+30FC 1
 62
   179
420
  2234388
370
    25
100
AcDb2dPolyline
 66
     1
 10
0.0
 20
0.0
 30
0.0
  0
VERTEX
  5
76
330
75
100
AcDbEntity
  8
_U+30EC_U+30A4_U+30E4_U+30FC 1
 62
   179
420
  2234388
370
    25
100
AcDbVertex
100
AcDb2dVertex
 10
87.26959999578924
 20
-137.4420810767504
 30
0.0
  0
VERTEX
  5
77
330
75
100
AcDbEntity
  8
_U+30EC_U+30A4_U+30E4_U+30FC 1
 62
   179
420
  2234388
370
    25
100
AcDbVertex
100
AcDb2dVertex
 10
96.7575580870646
 20
-137.4420810767504
 30
0.0
  0
SEQEND
  5
78
330
75
100
AcDbEntity
  8
_U+30EC_U+30A4_U+30E4_U+30FC 1
 62
   179
420
  2234388
370
    25
  0
SPLINE
  5
79
330
1F
100
AcDbEntity
  8
_U+30EC_U+30A4_U+30E4_U+30FC 1
 62
   179
420
  2234388
370
     9
100
AcDbSpline
210
0.0
220
0.0
230
1.0
 70
    11
 71
     3
 72
    17
 73
    13
 74
     0
 42
0.0000000001
 43
0.0000000001
 12
1.0
 22
0.0
 32
0.0
 13
1.0
 23
0.0
 33
0.0
 40
0.0
 40
0.0
 40
0.0
 40
0.0
 40
1.0
 40
1.0
 40
1.0
 40
2.0
 40
2.0
 40
2.0
 40
3.0
 40
3.0
 40
3.0
 40
4.0
 40
4.0
 40
4.0
 40
4.0
 10
109.8048321986453
 20
-137.7418010766754
 30
0.0
 10
109.8048321986453
 20
-137.6866971878004
 30
0.0
 10
109.7607349775481
 20
-137.6418944100337
 30
0.0
 10
109.7049255345275
 20
-137.6418944100337
 30
0.0
 10
109.6504919248051
 20
-137.6418944100337
 30
0.0
 10
109.6050188704097
 20
-137.6866971878004
 30
0.0
 10
109.6050188704097
 20
-137.7418010766754
 30
0.0
 10
109.6050188704097
 20
-137.7969402433284
 30
0.0
 10
109.6504919248051
 20
-137.8417077433176
 30
0.0
 10
109.7049255345275
 20
-137.8417077433176
 30
0.0
 10
109.7607349775481
 20
-137.8417077433176
 30
0.0
 10
109.8048321986453
 20
-137.7969402433284
 30
0.0
 10
109.8048321986453
 20
-137.7418010766754
 30
0.0
  0
SPLINE
  5
7A
330
1F
100
AcDbEntity
  8
_U+30EC_U+30A4_U+30E4_U+30FC 1
 62
   179
420
  2234388
370
     9
100
AcDbSpline
210
0.0
220
0.0
230
1.0
 70
    11
 71
     3
 72
    17
 73
    13
 74
     0
 42
0.0000000001
 43
0.0000000001
 12
1.0
 22
0.0
 32
0.0
 13
1.0
 23
0.0
 33
0.0
 40
0.0
 40
0.0
 40
0.0
 40
0.0
 40
1.0
 40
1.0
 40
1.0
 40
2.0
 40
2.0
 40
2.0
 40
3.0
 40
3.0
 40
3.0
 40
4.0
 40
4.0
 40
4.0
 40
4.0
 10
109.8048321986453
 20
-138.4411477431674
 30
0.0
 10
109.8048321986453
 20
-138.3860438542926
 30
0.0
 10
109.7607349775481
 20
-138.3412410765258
 30
0.0
 10
109.7049255345275
 20
-138.3412410765258
 30
0.0
 10
109.6504919248051
 20
-138.3412410765258
 30
0.0
 10
109.6050188704097
 20
-138.3860438542926
 30
0.0
 10
109.6050188704097
 20
-138.4411477431674
 30
0.0
 10
109.6050188704097
 20
-138.4962869098205
 30
0.0
 10
109.6504919248051
 20
-138.5403841320317
 30
0.0
 10
109.7049255345275
 20
-138.5403841320317
 30
0.0
 10
109.7607349775481
 20
-138.5403841320317
 30
0.0
 10
109.8048321986453
 20
-138.4962869098205
 30
0.0
 10
109.8048321986453
 20
-138.4411477431674
 30
0.0
  0
SPLINE
  5
7B
330
1F
100
AcDbEntity
  8
_U+30EC_U+30A4_U+30E4_U+30FC 1
 62
   179
420
  2234388
370
     9
100
AcDbSpline
210
0.0
220
0.0
230
1.0
 70
    11
 71
     3
 72
    17
 73
    13
 74
     0
 42
0.0000000001
 43
0.0000000001
 12
1.0
 22
0.0
 32
0.0
 13
1.0
 23
0.0
 33
0.0
 40
0.0
 40
0.0
 40
0.0
 40
0.0
 40
1.0
 40
1.0
 40
1.0
 40
2.0
 40
2.0
 40
2.0
 40
3.0
 40
3.0
 40
3.0
 40
4.0
 40
4.0
 40
4.0
 40
4.0
 10
103.850331517224
 20
-142.4361091310577
 30
0.0
 10
103.850331517224
 20
-142.3809699644046
 30
0.0
 10
103.8048610851599
 20
-142.3362024644161
 30
0.0
 10
103.7490490198079
 20
-142.3362024644161
 30
0.0
 10
103.6946154100855
 20
-142.3362024644161
 30
0.0
 10
103.6505181889883
 20
-142.3809699644046
 30
0.0
 10
103.6505181889883
 20
-142.4361091310577
 30
0.0
 10
103.6505181889883
 20
-142.4912130199326
 30
0.0
 10
103.6946154100855
 20
-142.5360157976993
 30
0.0
 10
103.7490490198079
 20
-142.5360157976993
 30
0.0
 10
103.8048610851599
 20
-142.5360157976993
 30
0.0
 10
103.850331517224
 20
-142.4912130199326
 30
0.0
 10
103.850331517224
 20
-142.4361091310577
 30
0.0
  0
SPLINE
  5
7C
330
1F
100
AcDbEntity
  8
_U+30EC_U+30A4_U+30E4_U+30FC 1
 62
   179
420
  2234388
370
     9
100
AcDbSpline
210
0.0
220
0.0
230
1.0
 70
    11
 71
     3
 72
    17
 73
    13
 74
     0
 42
0.0000000001
 43
0.0000000001
 12
1.0
 22
0.0
 32
0.0
 13
1.0
 23
0.0
 33
0.0
 40
0.0
 40
0.0
 40
0.0
 40
0.0
 40
1.0
 40
1.0
 40
1.0
 40
2.0
 40
2.0
 40
2.0
 40
3.0
 40
3.0
 40
3.0
 40
4.0
 40
4.0
 40
4.0
 40
4.0
 10
76.8819527608002
 20
-121.9604988583987
 30
0.0
 10
76.8819527608002
 20
-121.9053949695238
 30
0.0
 10
76.83718526194231
 20
-121.860592191757
 30
0.0
 10
76.78169331891358
 20
-121.860592191757
 30
0.0
 10
76.7269422091993
 20
-121.860592191757
 30
0.0
 10
76.68178665479576
 20
-121.9053949695238
 30
0.0
 10
76.68178665479576
 20
-121.9604988583987
 30
0.0
 10
76.68178665479576
 20
-122.0156380250518
 30
0.0
 10
76.7269422091993
 20
-122.0604055250403
 30
0.0
 10
76.78169331891358
 20
-122.0604055250403
 30
0.0
 10
76.83718526194231
 20
-122.0604055250403
 30
0.0
 10
76.8819527608002
 20
-122.0156380250518
 30
0.0
 10
76.8819527608002
 20
-121.9604988583987
 30
0.0
  0
SPLINE
  5
7D
330
1F
100
AcDbEntity
  8
_U+30EC_U+30A4_U+30E4_U+30FC 1
 62
   179
420
  2234388
370
     9
100
AcDbSpline
210
0.0
220
0.0
230
1.0
 70
    11
 71
     3
 72
    17
 73
    13
 74
     0
 42
0.0000000001
 43
0.0000000001
 12
1.0
 22
0.0
 32
0.0
 13
1.0
 23
0.0
 33
0.0
 40
0.0
 40
0.0
 40
0.0
 40
0.0
 40
1.0
 40
1.0
 40
1.0
 40
2.0
 40
2.0
 40
2.0
 40
3.0
 40
3.0
 40
3.0
 40
4.0
 40
4.0
 40
4.0
 40
4.0
 10
76.8819527608002
 20
-137.4420810767504
 30
0.0
 10
76.8819527608002
 20
-137.3869771878755
 30
0.0
 10
76.83718526194231
 20
-137.3421744101088
 30
0.0
 10
76.78169331891358
 20
-137.3421744101088
 30
0.0
 10
76.7269422091993
 20
-137.3421744101088
 30
0.0
 10
76.68178665479576
 20
-137.3869771878755
 30
0.0
 10
76.68178665479576
 20
-137.4420810767504
 30
0.0
 10
76.68178665479576
 20
-137.4972202434035
 30
0.0
 10
76.7269422091993
 20
-137.5419877433921
 30
0.0
 10
76.78169331891358
 20
-137.5419877433921
 30
0.0
 10
76.83718526194231
 20
-137.5419877433921
 30
0.0
 10
76.8819527608002
 20
-137.4972202434035
 30
0.0
 10
76.8819527608002
 20
-137.4420810767504
 30
0.0
  0
SPLINE
  5
7E
330
1F
100
AcDbEntity
  8
_U+30EC_U+30A4_U+30E4_U+30FC 1
 62
   179
420
  2234388
370
     9
100
AcDbSpline
210
0.0
220
0.0
230
1.0
 70
    11
 71
     3
 72
    17
 73
    13
 74
     0
 42
0.0000000001
 43
0.0000000001
 12
1.0
 22
0.0
 32
0.0
 13
1.0
 23
0.0
 33
0.0
 40
0.0
 40
0.0
 40
0.0
 40
0.0
 40
1.0
 40
1.0
 40
1.0
 40
2.0
 40
2.0
 40
2.0
 40
3.0
 40
3.0
 40
3.0
 40
4.0
 40
4.0
 40
4.0
 40
4.0
 10
76.8819527608002
 20
-138.4411477431674
 30
0.0
 10
76.8819527608002
 20
-138.3860438542926
 30
0.0
 10
76.83718526194231
 20
-138.3412410765258
 30
0.0
 10
76.78169331891358
 20
-138.3412410765258
 30
0.0
 10
76.7269422091993
 20
-138.3412410765258
 30
0.0
 10
76.68178665479576
 20
-138.3860438542926
 30
0.0
 10
76.68178665479576
 20
-138.4411477431674
 30
0.0
 10
76.68178665479576
 20
-138.4962869098205
 30
0.0
 10
76.7269422091993
 20
-138.5403841320317
 30
0.0
 10
76.78169331891358
 20
-138.5403841320317
 30
0.0
 10
76.83718526194231
 20
-138.5403841320317
 30
0.0
 10
76.8819527608002
 20
-138.4962869098205
 30
0.0
 10
76.8819527608002
 20
-138.4411477431674
 30
0.0
  0
SPLINE
  5
7F
330
1F
100
AcDbEntity
  8
_U+30EC_U+30A4_U+30E4_U+30FC 1
 62
   179
420
  2234388
370
     9
100
AcDbSpline
210
0.0
220
0.0
230
1.0
 70
    11
 71
     3
 72
    17
 73
    13
 74
     0
 42
0.0000000001
 43
0.0000000001
 12
1.0
 22
0.0
 32
0.0
 13
1.0
 23
0.0
 33
0.0
 40
0.0
 40
0.0
 40
0.0
 40
0.0
 40
1.0
 40
1.0
 40
1.0
 40
2.0
 40
2.0
 40
2.0
 40
3.0
 40
3.0
 40
3.0
 40
4.0
 40
4.0
 40
4.0
 40
4.0
 10
80.87687876999226
 20
-142.4361091310577
 30
0.0
 10
80.87687876999226
 20
-142.3809699644046
 30
0.0
 10
80.8317584933656
 20
-142.3362024644161
 30
0.0
 10
80.77697210587442
 20
-142.3362024644161
 30
0.0
 10
80.72151544062257
 20
-142.3362024644161
 30
0.0
 10
80.67706544175658
 20
-142.3809699644046
 30
0.0
 10
80.67706544175658
 20
-142.4361091310577
 30
0.0
 10
80.67706544175658
 20
-142.4912130199326
 30
0.0
 10
80.72151544062257
 20
-142.5360157976993
 30
0.0
 10
80.77697210587442
 20
-142.5360157976993
 30
0.0
 10
80.8317584933656
 20
-142.5360157976993
 30
0.0
 10
80.87687876999226
 20
-142.4912130199326
 30
0.0
 10
80.87687876999226
 20
-142.4361091310577
 30
0.0
  0
SPLINE
  5
80
330
1F
100
AcDbEntity
  8
_U+30EC_U+30A4_U+30E4_U+30FC 1
 62
   179
420
  2234388
370
     9
100
AcDbSpline
210
0.0
220
0.0
230
1.0
 70
    11
 71
     3
 72
    17
 73
    13
 74
     0
 42
0.0000000001
 43
0.0000000001
 12
1.0
 22
0.0
 32
0.0
 13
1.0
 23
0.0
 33
0.0
 40
0.0
 40
0.0
 40
0.0
 40
0.0
 40
1.0
 40
1.0
 40
1.0
 40
2.0
 40
2.0
 40
2.0
 40
3.0
 40
3.0
 40
3.0
 40
4.0
 40
4.0
 40
4.0
 40
4.0
 10
92.86253874199038
 20
-116.9665060818696
 30
0.0
 10
92.86253874199038
 20
-116.9113669152165
 30
0.0
 10
92.81844152089316
 20
-116.866599415228
 30
0.0
 10
92.76263207787254
 20
-116.866599415228
 30
0.0
 10
92.70819846815014
 20
-116.866599415228
 30
0.0
 10
92.66272775461184
 20
-116.9113669152165
 30
0.0
 10
92.66272775461184
 20
-116.9665060818696
 30
0.0
 10
92.66272775461184
 20
-117.0216099707445
 30
0.0
 10
92.70819846815014
 20
-117.0664127485112
 30
0.0
 10
92.76263207787254
 20
-117.0664127485112
 30
0.0
 10
92.81844152089316
 20
-117.0664127485112
 30
0.0
 10
92.86253874199038
 20
-117.0216099707445
 30
0.0
 10
92.86253874199038
 20
-116.9665060818696
 30
0.0
  0
SPLINE
  5
81
330
1F
100
AcDbEntity
  8
_U+30EC_U+30A4_U+30E4_U+30FC 1
 62
   179
420
  2234388
370
     9
100
AcDbSpline
210
0.0
220
0.0
230
1.0
 70
    11
 71
     3
 72
    17
 73
    13
 74
     0
 42
0.0000000001
 43
0.0000000001
 12
1.0
 22
0.0
 32
0.0
 13
1.0
 23
0.0
 33
0.0
 40
0.0
 40
0.0
 40
0.0
 40
0.0
 40
1.0
 40
1.0
 40
1.0
 40
2.0
 40
2.0
 40
2.0
 40
3.0
 40
3.0
 40
3.0
 40
4.0
 40
4.0
 40
4.0
 40
4.0
 10
80.87687876999226
 20
-116.9665060818696
 30
0.0
 10
80.87687876999226
 20
-116.9113669152165
 30
0.0
 10
80.8317584933656
 20
-116.866599415228
 30
0.0
 10
80.77697210587442
 20
-116.866599415228
 30
0.0
 10
80.72151544062257
 20
-116.866599415228
 30
0.0
 10
80.67706544175658
 20
-116.9113669152165
 30
0.0
 10
80.67706544175658
 20
-116.9665060818696
 30
0.0
 10
80.67706544175658
 20
-117.0216099707445
 30
0.0
 10
80.72151544062257
 20
-117.0664127485112
 30
0.0
 10
80.77697210587442
 20
-117.0664127485112
 30
0.0
 10
80.8317584933656
 20
-117.0664127485112
 30
0.0
 10
80.87687876999226
 20
-117.0216099707445
 30
0.0
 10
80.87687876999226
 20
-116.9665060818696
 30
0.0
  0
SPLINE
  5
82
330
1F
100
AcDbEntity
  8
_U+30EC_U+30A4_U+30E4_U+30FC 1
 62
   179
420
  2234388
370
     9
100
AcDbSpline
210
0.0
220
0.0
230
1.0
 70
    11
 71
     3
 72
    17
 73
    13
 74
     0
 42
0.0000000001
 43
0.0000000001
 12
1.0
 22
0.0
 32
0.0
 13
1.0
 23
0.0
 33
0.0
 40
0.0
 40
0.0
 40
0.0
 40
0.0
 40
1.0
 40
1.0
 40
1.0
 40
2.0
 40
2.0
 40
2.0
 40
3.0
 40
3.0
 40
3.0
 40
4.0
 40
4.0
 40
4.0
 40
4.0
 10
103.850331517224
 20
-133.7461694110078
 30
0.0
 10
103.850331517224
 20
-133.6910655221328
 30
0.0
 10
103.8048610851599
 20
-133.6469682999216
 30
0.0
 10
103.7490490198079
 20
-133.6469682999216
 30
0.0
 10
103.6946154100855
 20
-133.6469682999216
 30
0.0
 10
103.6505181889883
 20
-133.6910655221328
 30
0.0
 10
103.6505181889883
 20
-133.7461694110078
 30
0.0
 10
103.6505181889883
 20
-133.8020141332164
 30
0.0
 10
103.6946154100855
 20
-133.8461113554276
 30
0.0
 10
103.7490490198079
 20
-133.8461113554276
 30
0.0
 10
103.8048610851599
 20
-133.8461113554276
 30
0.0
 10
103.850331517224
 20
-133.8020141332164
 30
0.0
 10
103.850331517224
 20
-133.7461694110078
 30
0.0
  0
SPLINE
  5
83
330
1F
100
AcDbEntity
  8
_U+30EC_U+30A4_U+30E4_U+30FC 1
 62
   179
420
  2234388
370
     9
100
AcDbSpline
210
0.0
220
0.0
230
1.0
 70
    11
 71
     3
 72
    17
 73
    13
 74
     0
 42
0.0000000001
 43
0.0000000001
 12
1.0
 22
0.0
 32
0.0
 13
1.0
 23
0.0
 33
0.0
 40
0.0
 40
0.0
 40
0.0
 40
0.0
 40
1.0
 40
1.0
 40
1.0
 40
2.0
 40
2.0
 40
2.0
 40
3.0
 40
3.0
 40
3.0
 40
4.0
 40
4.0
 40
4.0
 40
4.0
 10
96.85817030671998
 20
-133.7461694110078
 30
0.0
 10
96.85817030671998
 20
-133.6910655221328
 30
0.0
 10
96.81336753008523
 20
-133.6469682999216
 30
0.0
 10
96.7575580870646
 20
-133.6469682999216
 30
0.0
 10
96.7031244773422
 20
-133.6469682999216
 30
0.0
 10
96.65765142294676
 20
-133.6910655221328
 30
0.0
 10
96.65765142294676
 20
-133.7461694110078
 30
0.0
 10
96.65765142294676
 20
-133.8020141332164
 30
0.0
 10
96.7031244773422
 20
-133.8461113554276
 30
0.0
 10
96.7575580870646
 20
-133.8461113554276
 30
0.0
 10
96.81336753008523
 20
-133.8461113554276
 30
0.0
 10
96.85817030671998
 20
-133.8020141332164
 30
0.0
 10
96.85817030671998
 20
-133.7461694110078
 30
0.0
  0
POLYLINE
  5
84
330
1F
100
AcDbEntity
  8
_U+30EC_U+30A4_U+30E4_U+30FC 1
 62
   179
420
  2234388
370
     9
100
AcDb2dPolyline
 66
     1
 10
0.0
 20
0.0
 30
0.0
  0
VERTEX
  5
85
330
84
100
AcDbEntity
  8
_U+30EC_U+30A4_U+30E4_U+30FC 1
 62
   179
420
  2234388
370
     9
100
AcDbVertex
100
AcDb2dVertex
 10
109.7049255345275
 20
-138.4411477431674
 30
0.0
  0
VERTEX
  5
86
330
84
100
AcDbEntity
  8
_U+30EC_U+30A4_U+30E4_U+30FC 1
 62
   179
420
  2234388
370
     9
100
AcDbVertex
100
AcDb2dVertex
 10
109.7049255345275
 20
-136.7434046880363
 30
0.0
  0
SEQEND
  5
87
330
84
100
AcDbEntity
  8
_U+30EC_U+30A4_U+30E4_U+30FC 1
 62
   179
420
  2234388
370
     9
  0
POLYLINE
  5
88
330
1F
100
AcDbEntity
  8
_U+30EC_U+30A4_U+30E4_U+30FC 1
 62
   179
420
  2234388
370
     9
100
AcDb2dPolyline
 66
     1
 10
0.0
 20
0.0
 30
0.0
  0
VERTEX
  5
89
330
88
100
AcDbEntity
  8
_U+30EC_U+30A4_U+30E4_U+30FC 1
 62
   179
420
  2234388
370
     9
100
AcDbVertex
100
AcDb2dVertex
 10
108.2469655717232
 20
-138.4411477431674
 30
0.0
  0
VERTEX
  5
8A
330
88
100
AcDbEntity
  8
_U+30EC_U+30A4_U+30E4_U+30FC 1
 62
   179
420
  2234388
370
     9
100
AcDbVertex
100
AcDb2dVertex
 10
110.7046977312434
 20
-138.4411477431674
 30
0.0
  0
SEQEND
  5
8B
330
88
100
AcDbEntity
  8
_U+30EC_U+30A4_U+30E4_U+30FC 1
 62
   179
420
  2234388
370
     9
  0
POLYLINE
  5
8C
330
1F
100
AcDbEntity
  8
_U+30EC_U+30A4_U+30E4_U+30FC 1
 62
   179
420
  2234388
370
     9
100
AcDb2dPolyline
 66
     1
 10
0.0
 20
0.0
 30
0.0
  0
VERTEX
  5
8D
330
8C
100
AcDbEntity
  8
_U+30EC_U+30A4_U+30E4_U+30FC 1
 62
   179
420
  2234388
370
     9
100
AcDbVertex
100
AcDb2dVertex
 10
107.9927186337651
 20
-137.7418010766754
 30
0.0
  0
VERTEX
  5
8E
330
8C
100
AcDbEntity
  8
_U+30EC_U+30A4_U+30E4_U+30FC 1
 62
   179
420
  2234388
370
     9
100
AcDbVertex
100
AcDb2dVertex
 10
110.7046977312434
 20
-137.7418010766754
 30
0.0
  0
SEQEND
  5
8F
330
8C
100
AcDbEntity
  8
_U+30EC_U+30A4_U+30E4_U+30FC 1
 62
   179
420
  2234388
370
     9
  0
INSERT
  5
91
330
1F
100
AcDbEntity
  8
_U+30EC_U+30A4_U+30E4_U+30FC 1
100
AcDbBlockReference
  2
block 2
 10
0.0
 20
0.0
 30
0.0
  0
POLYLINE
  5
A1
330
1F
100
AcDbEntity
  8
_U+30EC_U+30A4_U+30E4_U+30FC 1
 62
   179
420
  2234388
370
     9
100
AcDb2dPolyline
 66
     1
 10
0.0
 20
0.0
 30
0.0
  0
VERTEX
  5
A2
330
A1
100
AcDbEntity
  8
_U+30EC_U+30A4_U+30E4_U+30FC 1
 62
   179
420
  2234388
370
     9
100
AcDbVertex
100
AcDb2dVertex
 10
80.77697210587442
 20
-142.4361091310577
 30
0.0
  0
VERTEX
  5
A3
330
A1
100
AcDbEntity
  8
_U+30EC_U+30A4_U+30E4_U+30FC 1
 62
   179
420
  2234388
370
     9
100
AcDbVertex
100
AcDb2dVertex
 10
103.7490490198079
 20
-142.4361091310577
 30
0.0
  0
SEQEND
  5
A4
330
A1
100
AcDbEntity
  8
_U+30EC_U+30A4_U+30E4_U+30FC 1
 62
   179
420
  2234388
370
     9
  0
POLYLINE
  5
A5
330
1F
100
AcDbEntity
  8
_U+30EC_U+30A4_U+30E4_U+30FC 1
 62
   179
420
  2234388
370
     9
100
AcDb2dPolyline
 66
     1
 10
0.0
 20
0.0
 30
0.0
  0
VERTEX
  5
A6
330
A5
100
AcDbEntity
  8
_U+30EC_U+30A4_U+30E4_U+30FC 1
 62
   179
420
  2234388
370
     9
100
AcDbVertex
100
AcDb2dVertex
 10
80.77697210587442
 20
-140.9781138536442
 30
0.0
  0
VERTEX
  5
A7
330
A5
100
AcDbEntity
  8
_U+30EC_U+30A4_U+30E4_U+30FC 1
 62
   179
420
  2234388
370
     9
100
AcDbVertex
100
AcDb2dVertex
 10
80.77697210587442
 20
-143.4351757974747
 30
0.0
  0
SEQEND
  5
A8
330
A5
100
AcDbEntity
  8
_U+30EC_U+30A4_U+30E4_U+30FC 1
 62
   179
420
  2234388
370
     9
  0
POLYLINE
  5
A9
330
1F
100
AcDbEntity
  8
_U+30EC_U+30A4_U+30E4_U+30FC 1
 62
   179
420
  2234388
370
     9
100
AcDb2dPolyline
 66
     1
 10
0.0
 20
0.0
 30
0.0
  0
VERTEX
  5
AA
330
A9
100
AcDbEntity
  8
_U+30EC_U+30A4_U+30E4_U+30FC 1
 62
   179
420
  2234388
370
     9
100
AcDbVertex
100
AcDb2dVertex
 10
103.7490490198079
 20
-140.9781138536442
 30
0.0
  0
VERTEX
  5
AB
330
A9
100
AcDbEntity
  8
_U+30EC_U+30A4_U+30E4_U+30FC 1
 62
   179
420
  2234388
370
     9
100
AcDbVertex
100
AcDb2dVertex
 10
103.7490490198079
 20
-143.4351757974747
 30
0.0
  0
SEQEND
  5
AC
330
A9
100
AcDbEntity
  8
_U+30EC_U+30A4_U+30E4_U+30FC 1
 62
   179
420
  2234388
370
     9
  0
INSERT
  5
AE
330
1F
100
AcDbEntity
  8
_U+30EC_U+30A4_U+30E4_U+30FC 1
100
AcDbBlockReference
  2
block 3
 10
0.0
 20
0.0
 30
0.0
  0
POLYLINE
  5
B5
330
1F
100
AcDbEntity
  8
_U+30EC_U+30A4_U+30E4_U+30FC 1
 62
   179
420
  2234388
370
     9
100
AcDb2dPolyline
 66
     1
 10
0.0
 20
0.0
 30
0.0
  0
VERTEX
  5
B6
330
B5
100
AcDbEntity
  8
_U+30EC_U+30A4_U+30E4_U+30FC 1
 62
   179
420
  2234388
370
     9
100
AcDbVertex
100
AcDb2dVertex
 10
92.76263207787254
 20
-116.9665060818696
 30
0.0
  0
VERTEX
  5
B7
330
B5
100
AcDbEntity
  8
_U+30EC_U+30A4_U+30E4_U+30FC 1
 62
   179
420
  2234388
370
     9
100
AcDbVertex
100
AcDb2dVertex
 10
80.77697210587442
 20
-116.9665060818696
 30
0.0
  0
SEQEND
  5
B8
330
B5
100
AcDbEntity
  8
_U+30EC_U+30A4_U+30E4_U+30FC 1
 62
   179
420
  2234388
370
     9
  0
POLYLINE
  5
B9
330
1F
100
AcDbEntity
  8
_U+30EC_U+30A4_U+30E4_U+30FC 1
 62
   179
420
  2234388
370
     9
100
AcDb2dPolyline
 66
     1
 10
0.0
 20
0.0
 30
0.0
  0
VERTEX
  5
BA
330
B9
100
AcDbEntity
  8
_U+30EC_U+30A4_U+30E4_U+30FC 1
 62
   179
420
  2234388
370
     9
100
AcDbVertex
100
AcDb2dVertex
 10
92.76263207787254
 20
-119.4235327479219
 30
0.0
  0
VERTEX
  5
BB
330
B9
100
AcDbEntity
  8
_U+30EC_U+30A4_U+30E4_U+30FC 1
 62
   179
420
  2234388
370
     9
100
AcDbVertex
100
AcDb2dVertex
 10
92.76263207787254
 20
-115.9674394154526
 30
0.0
  0
SEQEND
  5
BC
330
B9
100
AcDbEntity
  8
_U+30EC_U+30A4_U+30E4_U+30FC 1
 62
   179
420
  2234388
370
     9
  0
POLYLINE
  5
BD
330
1F
100
AcDbEntity
  8
_U+30EC_U+30A4_U+30E4_U+30FC 1
 62
   179
420
  2234388
370
     9
100
AcDb2dPolyline
 66
     1
 10
0.0
 20
0.0
 30
0.0
  0
VERTEX
  5
BE
330
BD
100
AcDbEntity
  8
_U+30EC_U+30A4_U+30E4_U+30FC 1
 62
   179
420
  2234388
370
     9
100
AcDbVertex
100
AcDb2dVertex
 10
80.77697210587442
 20
-119.4235327479219
 30
0.0
  0
VERTEX
  5
BF
330
BD
100
AcDbEntity
  8
_U+30EC_U+30A4_U+30E4_U+30FC 1
 62
   179
420
  2234388
370
     9
100
AcDbVertex
100
AcDb2dVertex
 10
80.77697210587442
 20
-115.9674394154526
 30
0.0
  0
SEQEND
  5
C0
330
BD
100
AcDbEntity
  8
_U+30EC_U+30A4_U+30E4_U+30FC 1
 62
   179
420
  2234388
370
     9
  0
INSERT
  5
C2
330
1F
100
AcDbEntity
  8
_U+30EC_U+30A4_U+30E4_U+30FC 1
100
AcDbBlockReference
  2
block 4
 10
0.0
 20
0.0
 30
0.0
  0
POLYLINE
  5
C9
330
1F
100
AcDbEntity
  8
_U+30EC_U+30A4_U+30E4_U+30FC 1
 62
   179
420
  2234388
370
     9
100
AcDb2dPolyline
 66
     1
 10
0.0
 20
0.0
 30
0.0
  0
VERTEX
  5
CA
330
C9
100
AcDbEntity
  8
_U+30EC_U+30A4_U+30E4_U+30FC 1
 62
   179
420
  2234388
370
     9
100
AcDbVertex
100
AcDb2dVertex
 10
76.78169331891358
 20
-138.4411477431674
 30
0.0
  0
VERTEX
  5
CB
330
C9
100
AcDbEntity
  8
_U+30EC_U+30A4_U+30E4_U+30FC 1
 62
   179
420
  2234388
370
     9
100
AcDbVertex
100
AcDb2dVertex
 10
76.78169331891358
 20
-142.2066624644482
 30
0.0
  0
SEQEND
  5
CC
330
C9
100
AcDbEntity
  8
_U+30EC_U+30A4_U+30E4_U+30FC 1
 62
   179
420
  2234388
370
     9
  0
POLYLINE
  5
CD
330
1F
100
AcDbEntity
  8
_U+30EC_U+30A4_U+30E4_U+30FC 1
 62
   179
420
  2234388
370
     9
100
AcDb2dPolyline
 66
     1
 10
0.0
 20
0.0
 30
0.0
  0
VERTEX
  5
CE
330
CD
100
AcDbEntity
  8
_U+30EC_U+30A4_U+30E4_U+30FC 1
 62
   179
420
  2234388
370
     9
100
AcDbVertex
100
AcDb2dVertex
 10
76.78169331891358
 20
-137.4420810767504
 30
0.0
  0
VERTEX
  5
CF
330
CD
100
AcDbEntity
  8
_U+30EC_U+30A4_U+30E4_U+30FC 1
 62
   179
420
  2234388
370
     9
100
AcDbVertex
100
AcDb2dVertex
 10
76.78169331891358
 20
-138.4411477431674
 30
0.0
  0
SEQEND
  5
D0
330
CD
100
AcDbEntity
  8
_U+30EC_U+30A4_U+30E4_U+30FC 1
 62
   179
420
  2234388
370
     9
  0
POLYLINE
  5
D1
330
1F
100
AcDbEntity
  8
_U+30EC_U+30A4_U+30E4_U+30FC 1
 62
   179
420
  2234388
370
     9
100
AcDb2dPolyline
 66
     1
 10
0.0
 20
0.0
 30
0.0
  0
VERTEX
  5
D2
330
D1
100
AcDbEntity
  8
_U+30EC_U+30A4_U+30E4_U+30FC 1
 62
   179
420
  2234388
370
     9
100
AcDbVertex
100
AcDb2dVertex
 10
78.2400060594867
 20
-138.4411477431674
 30
0.0
  0
VERTEX
  5
D3
330
D1
100
AcDbEntity
  8
_U+30EC_U+30A4_U+30E4_U+30FC 1
 62
   179
420
  2234388
370
     9
100
AcDbVertex
100
AcDb2dVertex
 10
75.782979455504
 20
-138.4411477431674
 30
0.0
  0
SEQEND
  5
D4
330
D1
100
AcDbEntity
  8
_U+30EC_U+30A4_U+30E4_U+30FC 1
 62
   179
420
  2234388
370
     9
  0
INSERT
  5
D6
330
1F
100
AcDbEntity
  8
_U+30EC_U+30A4_U+30E4_U+30FC 1
100
AcDbBlockReference
  2
block 5
 10
0.0
 20
0.0
 30
0.0
  0
POLYLINE
  5
DB
330
1F
100
AcDbEntity
  8
_U+30EC_U+30A4_U+30E4_U+30FC 1
 62
   179
420
  2234388
370
     9
100
AcDb2dPolyline
 66
     1
 10
0.0
 20
0.0
 30
0.0
  0
VERTEX
  5
DC
330
DB
100
AcDbEntity
  8
_U+30EC_U+30A4_U+30E4_U+30FC 1
 62
   179
420
  2234388
370
     9
100
AcDbVertex
100
AcDb2dVertex
 10
96.7575580870646
 20
-133.7461694110078
 30
0.0
  0
VERTEX
  5
DD
330
DB
100
AcDbEntity
  8
_U+30EC_U+30A4_U+30E4_U+30FC 1
 62
   179
420
  2234388
370
     9
100
AcDbVertex
100
AcDb2dVertex
 10
103.7490490198079
 20
-133.7461694110078
 30
0.0
  0
SEQEND
  5
DE
330
DB
100
AcDbEntity
  8
_U+30EC_U+30A4_U+30E4_U+30FC 1
 62
   179
420
  2234388
370
     9
  0
POLYLINE
  5
DF
330
1F
100
AcDbEntity
  8
_U+30EC_U+30A4_U+30E4_U+30FC 1
 62
   179
420
  2234388
370
     9
100
AcDb2dPolyline
 66
     1
 10
0.0
 20
0.0
 30
0.0
  0
VERTEX
  5
E0
330
DF
100
AcDbEntity
  8
_U+30EC_U+30A4_U+30E4_U+30FC 1
 62
   179
420
  2234388
370
     9
100
AcDbVertex
100
AcDb2dVertex
 10
96.7575580870646
 20
-134.9051149662737
 30
0.0
  0
VERTEX
  5
E1
330
DF
100
AcDbEntity
  8
_U+30EC_U+30A4_U+30E4_U+30FC 1
 62
   179
420
  2234388
370
     9
100
AcDbVertex
100
AcDb2dVertex
 10
96.7575580870646
 20
-132.7478083001463
 30
0.0
  0
SEQEND
  5
E2
330
DF
100
AcDbEntity
  8
_U+30EC_U+30A4_U+30E4_U+30FC 1
 62
   179
420
  2234388
370
     9
  0
POLYLINE
  5
E3
330
1F
100
AcDbEntity
  8
_U+30EC_U+30A4_U+30E4_U+30FC 1
 62
   179
420
  2234388
370
     9
100
AcDb2dPolyline
 66
     1
 10
0.0
 20
0.0
 30
0.0
  0
VERTEX
  5
E4
330
E3
100
AcDbEntity
  8
_U+30EC_U+30A4_U+30E4_U+30FC 1
 62
   179
420
  2234388
370
     9
100
AcDbVertex
100
AcDb2dVertex
 10
103.7490490198079
 20
-135.9035113549133
 30
0.0
  0
VERTEX
  5
E5
330
E3
100
AcDbEntity
  8
_U+30EC_U+30A4_U+30E4_U+30FC 1
 62
   179
420
  2234388
370
     9
100
AcDbVertex
100
AcDb2dVertex
 10
103.7490490198079
 20
-132.7478083001463
 30
0.0
  0
SEQEND
  5
E6
330
E3
100
AcDbEntity
  8
_U+30EC_U+30A4_U+30E4_U+30FC 1
 62
   179
420
  2234388
370
     9
  0
INSERT
  5
E8
330
1F
100
AcDbEntity
  8
_U+30EC_U+30A4_U+30E4_U+30FC 1
100
AcDbBlockReference
  2
block 6
 10
0.0
 20
0.0
 30
0.0
  0
POLYLINE
  5
ED
330
1F
100
AcDbEntity
  8
_U+30EC_U+30A4_U+30E4_U+30FC 1
 62
   179
420
  2234388
370
     9
100
AcDb2dPolyline
 66
     1
 10
0.0
 20
0.0
 30
0.0
  0
VERTEX
  5
EE
330
ED
100
AcDbEntity
  8
_U+30EC_U+30A4_U+30E4_U+30FC 1
 62
   179
420
  2234388
370
     9
100
AcDbVertex
100
AcDb2dVertex
 10
76.78169331891358
 20
-121.9604988583987
 30
0.0
  0
VERTEX
  5
EF
330
ED
100
AcDbEntity
  8
_U+30EC_U+30A4_U+30E4_U+30FC 1
 62
   179
420
  2234388
370
     9
100
AcDbVertex
100
AcDb2dVertex
 10
76.78169331891358
 20
-137.4420810767504
 30
0.0
  0
SEQEND
  5
F0
330
ED
100
AcDbEntity
  8
_U+30EC_U+30A4_U+30E4_U+30FC 1
 62
   179
420
  2234388
370
     9
  0
POLYLINE
  5
F1
330
1F
100
AcDbEntity
  8
_U+30EC_U+30A4_U+30E4_U+30FC 1
 62
   179
420
  2234388
370
     9
100
AcDb2dPolyline
 66
     1
 10
0.0
 20
0.0
 30
0.0
  0
VERTEX
  5
F2
330
F1
100
AcDbEntity
  8
_U+30EC_U+30A4_U+30E4_U+30FC 1
 62
   179
420
  2234388
370
     9
100
AcDbVertex
100
AcDb2dVertex
 10
78.2400060594867
 20
-121.9604988583987
 30
0.0
  0
VERTEX
  5
F3
330
F1
100
AcDbEntity
  8
_U+30EC_U+30A4_U+30E4_U+30FC 1
 62
   179
420
  2234388
370
     9
100
AcDbVertex
100
AcDb2dVertex
 10
75.782979455504
 20
-121.9604988583987
 30
0.0
  0
SEQEND
  5
F4
330
F1
100
AcDbEntity
  8
_U+30EC_U+30A4_U+30E4_U+30FC 1
 62
   179
420
  2234388
370
     9
  0
POLYLINE
  5
F5
330
1F
100
AcDbEntity
  8
_U+30EC_U+30A4_U+30E4_U+30FC 1
 62
   179
420
  2234388
370
     9
100
AcDb2dPolyline
 66
     1
 10
0.0
 20
0.0
 30
0.0
  0
VERTEX
  5
F6
330
F5
100
AcDbEntity
  8
_U+30EC_U+30A4_U+30E4_U+30FC 1
 62
   179
420
  2234388
370
     9
100
AcDbVertex
100
AcDb2dVertex
 10
78.60382775812693
 20
-137.4420810767504
 30
0.0
  0
VERTEX
  5
F7
330
F5
100
AcDbEntity
  8
_U+30EC_U+30A4_U+30E4_U+30FC 1
 62
   179
420
  2234388
370
     9
100
AcDbVertex
100
AcDb2dVertex
 10
75.782979455504
 20
-137.4420810767504
 30
0.0
  0
SEQEND
  5
F8
330
F5
100
AcDbEntity
  8
_U+30EC_U+30A4_U+30E4_U+30FC 1
 62
   179
420
  2234388
370
     9
  0
INSERT
  5
FA
330
1F
100
AcDbEntity
  8
_U+30EC_U+30A4_U+30E4_U+30FC 1
100
AcDbBlockReference
  2
block 7
 10
0.0
 20
0.0
 30
0.0
  0
ENDSEC
  0
SECTION
  2
OBJECTS
  0
DICTIONARY
  5
C
330
0
100
AcDbDictionary
281
     1
  3
ACAD_GROUP
350
D
  3
ACAD_LAYOUT
350
1A
  3
ACAD_MATERIAL
350
3B
  3
ACAD_MLEADERSTYLE
350
10C
  3
ACAD_MLINESTYLE
350
17
  3
ACAD_PLOTSETTINGS
350
19
  3
ACAD_PLOTSTYLENAME
350
E
  3
ACAD_TABLESTYLE
350
10B
  3
ACAD_VISUALSTYLE
350
2A
  0
SUN
  5
3F
330
29
100
AcDbSun
 90
        1
290
     0
 63
     7
421
 16777215
 40
1.0
291
     1
 91
  2455826
 92
 54000000
292
     0
 70
     2
 71
   256
280
     1
  0
DICTIONARY
  5
D
102
{ACAD_REACTORS
330
C
102
}
330
C
100
AcDbDictionary
281
     1
  0
DICTIONARY
  5
1A
102
{ACAD_REACTORS
330
C
102
}
330
C
100
AcDbDictionary
281
     1
  3
Layout1
350
1E
  3
Layout2
350
26
  3
Model
350
22
  0
DICTIONARY
  5
3B
102
{ACAD_REACTORS
330
C
102
}
330
C
100
AcDbDictionary
281
     1
  3
ByBlock
350
3D
  3
ByLayer
350
3C
  3
Global
350
3E
  0
DICTIONARY
  5
10C
102
{ACAD_REACTORS
330
C
102
}
330
C
100
AcDbDictionary
281
     1
  0
DICTIONARY
  5
17
102
{ACAD_REACTORS
330
C
102
}
330
C
100
AcDbDictionary
281
     1
  3
Standard
350
18
  0
DICTIONARY
  5
19
102
{ACAD_REACTORS
330
C
102
}
330
C
100
AcDbDictionary
281
     1
  0
ACDBDICTIONARYWDFLT
  5
E
102
{ACAD_REACTORS
330
C
102
}
330
C
100
AcDbDictionary
281
     1
  3
Normal
350
F
100
AcDbDictionaryWithDefault
340
F
  0
DICTIONARY
  5
10B
102
{ACAD_REACTORS
330
C
102
}
330
C
100
AcDbDictionary
281
     1
  0
DICTIONARY
  5
2A
102
{ACAD_REACTORS
330
C
102
}
330
C
100
AcDbDictionary
281
     1
  3
2dWireframe
350
2F
  3
3D Hidden
350
31
  3
3dWireframe
350
30
  3
Basic
350
32
  3
Brighten
350
36
  3
ColorChange
350
3A
  3
Conceptual
350
34
  3
Dim
350
35
  3
Facepattern
350
39
  3
Flat
350
2B
  3
FlatWithEdges
350
2C
  3
Gouraud
350
2D
  3
GouraudWithEdges
350
2E
  3
Linepattern
350
38
  3
Realistic
350
33
  3
Thicken
350
37
  0
LAYOUT
  5
1E
102
{ACAD_REACTORS
330
1A
102
}
330
1A
100
AcDbPlotSettings
  1

  2
none_device
  4

  6

 40
0.0
 41
0.0
 42
0.0
 43
0.0
 44
0.0
 45
0.0
 46
0.0
 47
0.0
 48
0.0
 49
0.0
140
0.0
141
0.0
142
1.0
143
1.0
 70
   688
 72
     0
 73
     0
 74
     5
  7

 75
    16
 76
     0
 77
     2
 78
   300
147
1.0
148
0.0
149
0.0
100
AcDbLayout
  1
Layout1
 70
     1
 71
     1
 10
0.0
 20
0.0
 11
12.0
 21
9.0
 12
0.0
 22
0.0
 32
0.0
 14
1.000000000000000E+20
 24
1.000000000000000E+20
 34
1.000000000000000E+20
 15
-1.000000000000000E+20
 25
-1.000000000000000E+20
 35
-1.000000000000000E+20
146
0.0
 13
0.0
 23
0.0
 33
0.0
 16
1.0
 26
0.0
 36
0.0
 17
0.0
 27
1.0
 37
0.0
 76
     0
330
1B
  0
LAYOUT
  5
26
102
{ACAD_REACTORS
330
1A
102
}
330
1A
100
AcDbPlotSettings
  1

  2
none_device
  4

  6

 40
0.0
 41
0.0
 42
0.0
 43
0.0
 44
0.0
 45
0.0
 46
0.0
 47
0.0
 48
0.0
 49
0.0
140
0.0
141
0.0
142
1.0
143
1.0
 70
   688
 72
     0
 73
     0
 74
     5
  7

 75
    16
 76
     0
 77
     2
 78
   300
147
1.0
148
0.0
149
0.0
100
AcDbLayout
  1
Layout2
 70
     1
 71
     2
 10
0.0
 20
0.0
 11
0.0
 21
0.0
 12
0.0
 22
0.0
 32
0.0
 14
0.0
 24
0.0
 34
0.0
 15
0.0
 25
0.0
 35
0.0
146
0.0
 13
0.0
 23
0.0
 33
0.0
 16
1.0
 26
0.0
 36
0.0
 17
0.0
 27
1.0
 37
0.0
 76
     0
330
23
  0
LAYOUT
  5
22
102
{ACAD_REACTORS
330
1A
102
}
330
1A
100
AcDbPlotSettings
  1

  2
none_device
  4

  6

 40
0.0
 41
0.0
 42
0.0
 43
0.0
 44
0.0
 45
0.0
 46
0.0
 47
0.0
 48
0.0
 49
0.0
140
0.0
141
0.0
142
1.0
143
1.0
 70
  1712
 72
     0
 73
     0
 74
     0
  7

 75
     0
 76
     0
 77
     2
 78
   300
147
1.0
148
0.0
149
0.0
100
AcDbLayout
  1
Model
 70
     1
 71
     0
 10
0.0
 20
0.0
 11
12.0
 21
9.0
 12
0.0
 22
0.0
 32
0.0
 14
1.000000000000000E+20
 24
1.000000000000000E+20
 34
1.000000000000000E+20
 15
-1.000000000000000E+20
 25
-1.000000000000000E+20
 35
-1.000000000000000E+20
146
0.0
 13
0.0
 23
0.0
 33
0.0
 16
1.0
 26
0.0
 36
0.0
 17
0.0
 27
1.0
 37
0.0
 76
     0
330
1F
331
29
  0
MATERIAL
  5
3D
102
{ACAD_REACTORS
330
3B
102
}
330
3B
100
AcDbMaterial
  1
ByBlock
 72
     1
 94
      127
  0
MATERIAL
  5
3C
102
{ACAD_REACTORS
330
3B
102
}
330
3B
100
AcDbMaterial
  1
ByLayer
 72
     1
 94
      127
  0
MATERIAL
  5
3E
102
{ACAD_REACTORS
330
3B
102
}
330
3B
100
AcDbMaterial
  1
Global
 72
     1
 94
      127
  0
MLINESTYLE
  5
18
102
{ACAD_REACTORS
330
17
102
}
330
17
100
AcDbMlineStyle
  2
Standard
 70
     0
  3

 62
   256
 51
90.0
 52
90.0
 71
     2
 49
0.5
 62
   256
  6
BYLAYER
 49
-0.5
 62
   256
  6
BYLAYER
  0
ACDBPLACEHOLDER
  5
F
102
{ACAD_REACTORS
330
E
102
}
330
E
  0
VISUALSTYLE
  5
2F
102
{ACAD_REACTORS
330
2A
102
}
330
2A
100
AcDbVisualStyle
  2
2dWireframe
 70
     4
177
     2
291
     0
 71
     0
176
     1
 72
     2
176
     1
 73
     0
176
     1
 90
        0
176
     1
 40
-0.6
176
     1
 41
-30.0
176
     1
 62
     5
 63
     7
421
 16777215
176
     1
 74
     1
176
     1
 91
        4
176
     1
 64
     7
176
     1
 65
   257
176
     1
 75
     1
176
     1
175
     1
176
     1
 42
1.0
176
     1
 92
        0
176
     1
 66
   257
176
     1
 43
1.0
176
     1
 76
     1
176
     1
 77
     6
176
     1
 78
     2
176
     1
 67
     7
176
     1
 79
     5
176
     1
170
     0
176
     1
171
     0
176
     1
290
     0
176
     1
 93
        1
176
     1
 44
0.0
176
     1
173
     0
176
     1
  0
VISUALSTYLE
  5
31
102
{ACAD_REACTORS
330
2A
102
}
330
2A
100
AcDbVisualStyle
  2
3D Hidden
 70
     6
177
     2
291
     0
 71
     1
176
     1
 72
     2
176
     1
 73
     2
176
     1
 90
        0
176
     1
 40
-0.6
176
     1
 41
-30.0
176
     1
 62
     5
 63
     7
421
 16777215
176
     1
 74
     2
176
     1
 91
        2
176
     1
 64
     7
176
     1
 65
   257
176
     1
 75
     2
176
     1
175
     1
176
     1
 42
40.0
176
     1
 92
        0
176
     1
 66
   257
176
     1
 43
1.0
176
     1
 76
     1
176
     1
 77
     6
176
     1
 78
     2
176
     1
 67
     7
176
     1
 79
     3
176
     1
170
     0
176
     1
171
     0
176
     1
290
     0
176
     1
 93
        1
176
     1
 44
0.0
176
     1
173
     0
176
     1
  0
VISUALSTYLE
  5
30
102
{ACAD_REACTORS
330
2A
102
}
330
2A
100
AcDbVisualStyle
  2
3dWireframe
 70
     5
177
     2
291
     0
 71
     0
176
     1
 72
     2
176
     1
 73
     0
176
     1
 90
        0
176
     1
 40
-0.6
176
     1
 41
-30.0
176
     1
 62
     5
 63
     7
421
 16777215
176
     1
 74
     1
176
     1
 91
        4
176
     1
 64
     7
176
     1
 65
   257
176
     1
 75
     1
176
     1
175
     1
176
     1
 42
1.0
176
     1
 92
        0
176
     1
 66
   257
176
     1
 43
1.0
176
     1
 76
     1
176
     1
 77
     6
176
     1
 78
     2
176
     1
 67
     7
176
     1
 79
     5
176
     1
170
     0
176
     1
171
     0
176
     1
290
     0
176
     1
 93
        1
176
     1
 44
0.0
176
     1
173
     0
176
     1
  0
VISUALSTYLE
  5
32
102
{ACAD_REACTORS
330
2A
102
}
330
2A
100
AcDbVisualStyle
  2
Basic
 70
     7
177
     2
291
     1
 71
     1
176
     1
 72
     0
176
     1
 73
     1
176
     1
 90
        0
176
     1
 40
-0.6
176
     1
 41
-30.0
176
     1
 62
     5
 63
     7
421
 16777215
176
     1
 74
     0
176
     1
 91
        4
176
     1
 64
     7
176
     1
 65
   257
176
     1
 75
     1
176
     1
175
     1
176
     1
 42
1.0
176
     1
 92
        8
176
     1
 66
     7
176
     1
 43
1.0
176
     1
 76
     1
176
     1
 77
     6
176
     1
 78
     2
176
     1
 67
     7
176
     1
 79
     5
176
     1
170
     0
176
     1
171
     0
176
     1
290
     0
176
     1
 93
        1
176
     1
 44
0.0
176
     1
173
     0
176
     1
  0
VISUALSTYLE
  5
36
102
{ACAD_REACTORS
330
2A
102
}
330
2A
100
AcDbVisualStyle
  2
Brighten
 70
    12
177
     2
291
     1
 71
     2
176
     1
 72
     2
176
     1
 73
     0
176
     1
 90
        0
176
     1
 40
-0.6
176
     1
 41
-30.0
176
     1
 62
     5
 63
     7
421
 16777215
176
     1
 74
     1
176
     1
 91
        4
176
     1
 64
     7
176
     1
 65
   257
176
     1
 75
     1
176
     1
175
     1
176
     1
 42
1.0
176
     1
 92
        8
176
     1
 66
     7
176
     1
 43
1.0
176
     1
 76
     1
176
     1
 77
     6
176
     1
 78
     2
176
     1
 67
     7
176
     1
 79
     5
176
     1
170
     0
176
     1
171
     0
176
     1
290
     0
176
     1
 93
        1
176
     1
 44
50.0
176
     1
173
     0
176
     1
  0
VISUALSTYLE
  5
3A
102
{ACAD_REACTORS
330
2A
102
}
330
2A
100
AcDbVisualStyle
  2
ColorChange
 70
    16
177
     2
291
     1
 71
     2
176
     1
 72
     2
176
     1
 73
     3
176
     1
 90
        0
176
     1
 40
-0.6
176
     1
 41
-30.0
176
     1
 62
     5
 63
     8
421
  8421504
176
     1
 74
     1
176
     1
 91
        4
176
     1
 64
     7
176
     1
 65
   257
176
     1
 75
     1
176
     1
175
     1
176
     1
 42
1.0
176
     1
 92
        8
176
     1
 66
     8
424
  8421504
176
     1
 43
1.0
176
     1
 76
     1
176
     1
 77
     6
176
     1
 78
     2
176
     1
 67
     7
176
     1
 79
     5
176
     1
170
     0
176
     1
171
     0
176
     1
290
     0
176
     1
 93
        1
176
     1
 44
0.0
176
     1
173
     0
176
     1
  0
VISUALSTYLE
  5
34
102
{ACAD_REACTORS
330
2A
102
}
330
2A
100
AcDbVisualStyle
  2
Conceptual
 70
     9
177
     2
291
     0
 71
     3
176
     1
 72
     2
176
     1
 73
     0
176
     1
 90
        0
176
     1
 40
-0.6
176
     1
 41
-30.0
176
     1
 62
     5
 63
     7
421
 16777215
176
     1
 74
     2
176
     1
 91
        2
176
     1
 64
     7
176
     1
 65
   257
176
     1
 75
     1
176
     1
175
     1
176
     1
 42
40.0
176
     1
 92
        8
176
     1
 66
     7
176
     1
 43
1.0
176
     1
 76
     1
176
     1
 77
     6
176
     1
 78
     2
176
     1
 67
     7
176
     1
 79
     3
176
     1
170
     0
176
     1
171
     0
176
     1
290
     0
176
     1
 93
        1
176
     1
 44
0.0
176
     1
173
     0
176
     1
  0
VISUALSTYLE
  5
35
102
{ACAD_REACTORS
330
2A
102
}
330
2A
100
AcDbVisualStyle
  2
Dim
 70
    11
177
     2
291
     1
 71
     2
176
     1
 72
     2
176
     1
 73
     0
176
     1
 90
        0
176
     1
 40
-0.6
176
     1
 41
-30.0
176
     1
 62
     5
 63
     7
421
 16777215
176
     1
 74
     1
176
     1
 91
        4
176
     1
 64
     7
176
     1
 65
   257
176
     1
 75
     1
176
     1
175
     1
176
     1
 42
1.0
176
     1
 92
        8
176
     1
 66
     7
176
     1
 43
1.0
176
     1
 76
     1
176
     1
 77
     6
176
     1
 78
     2
176
     1
 67
     7
176
     1
 79
     5
176
     1
170
     0
176
     1
171
     0
176
     1
290
     0
176
     1
 93
        1
176
     1
 44
-50.0
176
     1
173
     0
176
     1
  0
VISUALSTYLE
  5
39
102
{ACAD_REACTORS
330
2A
102
}
330
2A
100
AcDbVisualStyle
  2
Facepattern
 70
    15
177
     2
291
     1
 71
     2
176
     1
 72
     2
176
     1
 73
     0
176
     1
 90
        0
176
     1
 40
-0.6
176
     1
 41
-30.0
176
     1
 62
     5
 63
     7
421
 16777215
176
     1
 74
     1
176
     1
 91
        4
176
     1
 64
     7
176
     1
 65
   257
176
     1
 75
     1
176
     1
175
     1
176
     1
 42
1.0
176
     1
 92
        8
176
     1
 66
     7
176
     1
 43
1.0
176
     1
 76
     1
176
     1
 77
     6
176
     1
 78
     2
176
     1
 67
     7
176
     1
 79
     5
176
     1
170
     0
176
     1
171
     0
176
     1
290
     0
176
     1
 93
        1
176
     1
 44
0.0
176
     1
173
     0
176
     1
  0
VISUALSTYLE
  5
2B
102
{ACAD_REACTORS
330
2A
102
}
330
2A
100
AcDbVisualStyle
  2
Flat
 70
     0
177
     2
291
     1
 71
     2
176
     1
 72
     1
176
     1
 73
     1
176
     1
 90
        2
176
     1
 40
-0.6
176
     1
 41
30.0
176
     1
 62
     5
 63
     7
421
 16777215
176
     1
 74
     0
176
     1
 91
        4
176
     1
 64
     7
176
     1
 65
   257
176
     1
 75
     1
176
     1
175
     1
176
     1
 42
1.0
176
     1
 92
        8
176
     1
 66
     7
176
     1
 43
1.0
176
     1
 76
     1
176
     1
 77
     6
176
     1
 78
     2
176
     1
 67
     7
176
     1
 79
     5
176
     1
170
     0
176
     1
171
     0
176
     1
290
     0
176
     1
 93
       13
176
     1
 44
0.0
176
     1
173
     0
176
     1
  0
VISUALSTYLE
  5
2C
102
{ACAD_REACTORS
330
2A
102
}
330
2A
100
AcDbVisualStyle
  2
FlatWithEdges
 70
     1
177
     2
291
     1
 71
     2
176
     1
 72
     1
176
     1
 73
     1
176
     1
 90
        2
176
     1
 40
-0.6
176
     1
 41
30.0
176
     1
 62
     5
 63
     7
421
 16777215
176
     1
 74
     1
176
     1
 91
        4
176
     1
 64
     7
176
     1
 65
   257
176
     1
 75
     1
176
     1
175
     1
176
     1
 42
1.0
176
     1
 92
        0
176
     1
 66
   257
176
     1
 43
1.0
176
     1
 76
     1
176
     1
 77
     6
176
     1
 78
     2
176
     1
 67
     7
176
     1
 79
     5
176
     1
170
     0
176
     1
171
     0
176
     1
290
     0
176
     1
 93
       13
176
     1
 44
0.0
176
     1
173
     0
176
     1
  0
VISUALSTYLE
  5
2D
102
{ACAD_REACTORS
330
2A
102
}
330
2A
100
AcDbVisualStyle
  2
Gouraud
 70
     2
177
     2
291
     1
 71
     2
176
     1
 72
     2
176
     1
 73
     1
176
     1
 90
        2
176
     1
 40
-0.6
176
     1
 41
30.0
176
     1
 62
     5
 63
     7
421
 16777215
176
     1
 74
     0
176
     1
 91
        4
176
     1
 64
     7
176
     1
 65
   257
176
     1
 75
     1
176
     1
175
     1
176
     1
 42
1.0
176
     1
 92
        0
176
     1
 66
     7
176
     1
 43
1.0
176
     1
 76
     1
176
     1
 77
     6
176
     1
 78
     2
176
     1
 67
     7
176
     1
 79
     5
176
     1
170
     0
176
     1
171
     0
176
     1
290
     0
176
     1
 93
       13
176
     1
 44
0.0
176
     1
173
     0
176
     1
  0
VISUALSTYLE
  5
2E
102
{ACAD_REACTORS
330
2A
102
}
330
2A
100
AcDbVisualStyle
  2
GouraudWithEdges
 70
     3
177
     2
291
     1
 71
     2
176
     1
 72
     2
176
     1
 73
     1
176
     1
 90
        2
176
     1
 40
-0.6
176
     1
 41
30.0
176
     1
 62
     5
 63
     7
421
 16777215
176
     1
 74
     1
176
     1
 91
        4
176
     1
 64
     7
176
     1
 65
   257
176
     1
 75
     1
176
     1
175
     1
176
     1
 42
1.0
176
     1
 92
        0
176
     1
 66
   257
176
     1
 43
1.0
176
     1
 76
     1
176
     1
 77
     6
176
     1
 78
     2
176
     1
 67
     7
176
     1
 79
     5
176
     1
170
     0
176
     1
171
     0
176
     1
290
     0
176
     1
 93
       13
176
     1
 44
0.0
176
     1
173
     0
176
     1
  0
VISUALSTYLE
  5
38
102
{ACAD_REACTORS
330
2A
102
}
330
2A
100
AcDbVisualStyle
  2
Linepattern
 70
    14
177
     2
291
     1
 71
     2
176
     1
 72
     2
176
     1
 73
     0
176
     1
 90
        0
176
     1
 40
-0.6
176
     1
 41
-30.0
176
     1
 62
     5
 63
     7
421
 16777215
176
     1
 74
     1
176
     1
 91
        4
176
     1
 64
     7
176
     1
 65
   257
176
     1
 75
     7
176
     1
175
     7
176
     1
 42
1.0
176
     1
 92
        8
176
     1
 66
     7
176
     1
 43
1.0
176
     1
 76
     1
176
     1
 77
     6
176
     1
 78
     2
176
     1
 67
     7
176
     1
 79
     5
176
     1
170
     0
176
     1
171
     0
176
     1
290
     0
176
     1
 93
        1
176
     1
 44
0.0
176
     1
173
     0
176
     1
  0
VISUALSTYLE
  5
33
102
{ACAD_REACTORS
330
2A
102
}
330
2A
100
AcDbVisualStyle
  2
Realistic
 70
     8
177
     2
291
     0
 71
     2
176
     1
 72
     2
176
     1
 73
     0
176
     1
 90
        0
176
     1
 40
-0.6
176
     1
 41
-30.0
176
     1
 62
     5
 63
     7
421
 16777215
176
     1
 74
     1
176
     1
 91
        0
176
     1
 64
     7
176
     1
 65
   257
176
     1
 75
     1
176
     1
175
     1
176
     1
 42
1.0
176
     1
 92
        8
176
     1
 66
     8
424
  7895160
176
     1
 43
1.0
176
     1
 76
     1
176
     1
 77
     6
176
     1
 78
     2
176
     1
 67
     7
176
     1
 79
     5
176
     1
170
     0
176
     1
171
     0
176
     1
290
     0
176
     1
 93
       13
176
     1
 44
0.0
176
     1
173
     0
176
     1
  0
VISUALSTYLE
  5
37
102
{ACAD_REACTORS
330
2A
102
}
330
2A
100
AcDbVisualStyle
  2
Thicken
 70
    13
177
     2
291
     1
 71
     2
176
     1
 72
     2
176
     1
 73
     0
176
     1
 90
        0
176
     1
 40
-0.6
176
     1
 41
-30.0
176
     1
 62
     5
 63
     7
421
 16777215
176
     1
 74
     1
176
     1
 91
        4
176
     1
 64
     7
176
     1
 65
   257
176
     1
 75
     1
176
     1
175
     1
176
     1
 42
1.0
176
     1
 92
       12
176
     1
 66
     7
176
     1
 43
1.0
176
     1
 76
     1
176
     1
 77
     6
176
     1
 78
     2
176
     1
 67
     7
176
     1
 79
     5
176
     1
170
     0
176
     1
171
     0
176
     1
290
     0
176
     1
 93
        1
176
     1
 44
0.0
176
     1
173
     0
176
     1
  0
ENDSEC
  0
EOF
