  0
SECTION
  2
HEADER
  9
$ACADVER
  1
AC1024
  9
$ACADMAINTVER
 70
     6
  9
$DWGCODEPAGE
  3
UNDEFINED
  9
$INSBASE
 10
0.0
 20
0.0
 30
0.0
  9
$EXTMIN
 10
1.000000000000000E+20
 20
1.000000000000000E+20
 30
1.000000000000000E+20
  9
$EXTMAX
 10
-1.000000000000000E+20
 20
-1.000000000000000E+20
 30
-1.000000000000000E+20
  9
$LIMMIN
 10
0.0
 20
0.0
  9
$LIMMAX
 10
12.0
 20
9.0
  9
$ORTHOMODE
 70
     0
  9
$REGENMODE
 70
     1
  9
$FILLMODE
 70
     1
  9
$QTEXTMODE
 70
     0
  9
$MIRRTEXT
 70
     1
  9
$LTSCALE
 40
1.0
  9
$ATTMODE
 70
     1
  9
$TEXTSIZE
 40
0.2
  9
$TRACEWID
 40
0.05
  9
$TEXTSTYLE
  7
Standard
  9
$CLAYER
  8
0
  9
$CELTYPE
  6
ByLayer
  9
$CECOLOR
 62
   256
  9
$CELTSCALE
 40
1.0
  9
$DISPSILH
 70
     0
  9
$DIMSCALE
 40
1.0
  9
$DIMASZ
 40
0.18
  9
$DIMEXO
 40
0.0625
  9
$DIMDLI
 40
0.38
  9
$DIMRND
 40
0.0
  9
$DIMDLE
 40
0.0
  9
$DIMEXE
 40
0.18
  9
$DIMTP
 40
0.0
  9
$DIMTM
 40
0.0
  9
$DIMTXT
 40
0.18
  9
$DIMCEN
 40
0.09
  9
$DIMTSZ
 40
0.0
  9
$DIMTOL
 70
     0
  9
$DIMLIM
 70
     0
  9
$DIMTIH
 70
     1
  9
$DIMTOH
 70
     1
  9
$DIMSE1
 70
     0
  9
$DIMSE2
 70
     0
  9
$DIMTAD
 70
     0
  9
$DIMZIN
 70
     0
  9
$DIMBLK
  1

  9
$DIMASO
 70
     1
  9
$DIMSHO
 70
     1
  9
$DIMPOST
  1

  9
$DIMAPOST
  1

  9
$DIMALT
 70
     0
  9
$DIMALTD
 70
     2
  9
$DIMALTF
 40
25.4
  9
$DIMLFAC
 40
1.0
  9
$DIMTOFL
 70
     0
  9
$DIMTVP
 40
0.0
  9
$DIMTIX
 70
     0
  9
$DIMSOXD
 70
     0
  9
$DIMSAH
 70
     0
  9
$DIMBLK1
  1

  9
$DIMBLK2
  1

  9
$DIMSTYLE
  2
Standard
  9
$DIMCLRD
 70
     0
  9
$DIMCLRE
 70
     0
  9
$DIMCLRT
 70
     0
  9
$DIMTFAC
 40
1.0
  9
$DIMGAP
 40
0.09
  9
$DIMJUST
 70
     0
  9
$DIMSD1
 70
     0
  9
$DIMSD2
 70
     0
  9
$DIMTOLJ
 70
     1
  9
$DIMTZIN
 70
     0
  9
$DIMALTZ
 70
     0
  9
$DIMALTTZ
 70
     0
  9
$DIMUPT
 70
     0
  9
$DIMDEC
 70
     4
  9
$DIMTDEC
 70
     4
  9
$DIMALTU
 70
     2
  9
$DIMALTTD
 70
     2
  9
$DIMTXSTY
  7
Standard
  9
$DIMAUNIT
 70
     0
  9
$DIMADEC
 70
     0
  9
$DIMALTRND
 40
0.0
  9
$DIMAZIN
 70
     0
  9
$DIMDSEP
 70
    46
  9
$DIMATFIT
 70
     3
  9
$DIMFRAC
 70
     0
  9
$DIMLDRBLK
  1

  9
$DIMLUNIT
 70
     2
  9
$DIMLWD
 70
    -2
  9
$DIMLWE
 70
    -2
  9
$DIMTMOVE
 70
     0
  9
$DIMFXL
 40
1.0
  9
$DIMFXLON
 70
     0
  9
$DIMJOGANG
 40
0.7853981633974483
  9
$DIMTFILL
 70
     0
  9
$DIMTFILLCLR
 70
     0
  9
$DIMARCSYM
 70
     0
  9
$DIMLTYPE
  6

  9
$DIMLTEX1
  6

  9
$DIMLTEX2
  6

  9
$DIMTXTDIRECTION
 70
     0
  9
$LUNITS
 70
     2
  9
$LUPREC
 70
     4
  9
$SKETCHINC
 40
0.1
  9
$FILLETRAD
 40
0.5
  9
$AUNITS
 70
     0
  9
$AUPREC
 70
     0
  9
$MENU
  1
.
  9
$ELEVATION
 40
0.0
  9
$PELEVATION
 40
0.0
  9
$THICKNESS
 40
0.0
  9
$LIMCHECK
 70
     0
  9
$CHAMFERA
 40
0.5
  9
$CHAMFERB
 40
0.5
  9
$CHAMFERC
 40
1.0
  9
$CHAMFERD
 40
0.0
  9
$SKPOLY
 70
     0
  9
$TDCREATE
 40
2457917.594641192
  9
$TDUCREATE
 40
2457917.219641204
  9
$TDUPDATE
 40
2457917.594641192
  9
$TDUUPDATE
 40
2457917.219641204
  9
$TDINDWG
 40
0.0000000116
  9
$TDUSRTIMER
 40
0.0000000116
  9
$USRTIMER
 70
     1
  9
$ANGBASE
 50
0.0
  9
$ANGDIR
 70
     0
  9
$PDMODE
 70
     0
  9
$PDSIZE
 40
0.0
  9
$PLINEWID
 40
0.0
  9
$SPLFRAME
 70
     0
  9
$SPLINETYPE
 70
     6
  9
$SPLINESEGS
 70
     8
  9
$HANDSEED
  5
108
  9
$SURFTAB1
 70
     6
  9
$SURFTAB2
 70
     6
  9
$SURFTYPE
 70
     6
  9
$SURFU
 70
     6
  9
$SURFV
 70
     6
  9
$UCSBASE
  2

  9
$UCSNAME
  2

  9
$UCSORG
 10
0.0
 20
0.0
 30
0.0
  9
$UCSXDIR
 10
1.0
 20
0.0
 30
0.0
  9
$UCSYDIR
 10
0.0
 20
1.0
 30
0.0
  9
$UCSORTHOREF
  2

  9
$UCSORTHOVIEW
 70
     0
  9
$UCSORGTOP
 10
0.0
 20
0.0
 30
0.0
  9
$UCSORGBOTTOM
 10
0.0
 20
0.0
 30
0.0
  9
$UCSORGLEFT
 10
0.0
 20
0.0
 30
0.0
  9
$UCSORGRIGHT
 10
0.0
 20
0.0
 30
0.0
  9
$UCSORGFRONT
 10
0.0
 20
0.0
 30
0.0
  9
$UCSORGBACK
 10
0.0
 20
0.0
 30
0.0
  9
$PUCSBASE
  2

  9
$PUCSNAME
  2

  9
$PUCSORG
 10
0.0
 20
0.0
 30
0.0
  9
$PUCSXDIR
 10
1.0
 20
0.0
 30
0.0
  9
$PUCSYDIR
 10
0.0
 20
1.0
 30
0.0
  9
$PUCSORTHOREF
  2

  9
$PUCSORTHOVIEW
 70
     0
  9
$PUCSORGTOP
 10
0.0
 20
0.0
 30
0.0
  9
$PUCSORGBOTTOM
 10
0.0
 20
0.0
 30
0.0
  9
$PUCSORGLEFT
 10
0.0
 20
0.0
 30
0.0
  9
$PUCSORGRIGHT
 10
0.0
 20
0.0
 30
0.0
  9
$PUCSORGFRONT
 10
0.0
 20
0.0
 30
0.0
  9
$PUCSORGBACK
 10
0.0
 20
0.0
 30
0.0
  9
$USERI1
 70
     0
  9
$USERI2
 70
     0
  9
$USERI3
 70
     0
  9
$USERI4
 70
     0
  9
$USERI5
 70
     0
  9
$USERR1
 40
0.0
  9
$USERR2
 40
0.0
  9
$USERR3
 40
0.0
  9
$USERR4
 40
0.0
  9
$USERR5
 40
0.0
  9
$WORLDVIEW
 70
     1
  9
$SHADEDGE
 70
     3
  9
$SHADEDIF
 70
    70
  9
$TILEMODE
 70
     1
  9
$MAXACTVP
 70
    64
  9
$PINSBASE
 10
0.0
 20
0.0
 30
0.0
  9
$PLIMCHECK
 70
     0
  9
$PEXTMIN
 10
1.000000000000000E+20
 20
1.000000000000000E+20
 30
1.000000000000000E+20
  9
$PEXTMAX
 10
-1.000000000000000E+20
 20
-1.000000000000000E+20
 30
-1.000000000000000E+20
  9
$PLIMMIN
 10
0.0
 20
0.0
  9
$PLIMMAX
 10
12.0
 20
9.0
  9
$UNITMODE
 70
     0
  9
$VISRETAIN
 70
     1
  9
$PLINEGEN
 70
     0
  9
$PSLTSCALE
 70
     1
  9
$TREEDEPTH
 70
  3020
  9
$CMLSTYLE
  2
Standard
  9
$CMLJUST
 70
     0
  9
$CMLSCALE
 40
1.0
  9
$PROXYGRAPHICS
 70
     1
  9
$MEASUREMENT
 70
     0
  9
$CELWEIGHT
370
    -1
  9
$ENDCAPS
280
     0
  9
$JOINSTYLE
280
     0
  9
$LWDISPLAY
290
     1
  9
$INSUNITS
 70
     1
  9
$HYPERLINKBASE
  1

  9
$STYLESHEET
  1

  9
$XEDIT
290
     1
  9
$CEPSNTYPE
380
     0
  9
$PSTYLEMODE
290
     1
  9
$FINGERPRINTGUID
  2
{D811EE7E-61E0-C153-AA96-2A186001A166}
  9
$VERSIONGUID
  2
{FAEB1C32-E019-11D5-929B-00C0DF256EC4}
  9
$EXTNAMES
290
     1
  9
$PSVPSCALE
 40
0.0
  9
$OLESTARTUP
290
     0
  9
$SORTENTS
280
   127
  9
$INDEXCTL
280
     0
  9
$HIDETEXT
280
     1
  9
$XCLIPFRAME
280
     2
  9
$HALOGAP
280
     0
  9
$OBSCOLOR
 70
   257
  9
$OBSLTYPE
280
     0
  9
$INTERSECTIONDISPLAY
280
     0
  9
$INTERSECTIONCOLOR
 70
   257
  9
$DIMASSOC
280
     2
  9
$PROJECTNAME
  1

  9
$CAMERADISPLAY
290
     0
  9
$LENSLENGTH
 40
50.0
  9
$CAMERAHEIGHT
 40
0.0
  9
$STEPSPERSEC
 40
2.0
  9
$STEPSIZE
 40
6.0
  9
$3DDWFPREC
 40
2.0
  9
$PSOLWIDTH
 40
0.25
  9
$PSOLHEIGHT
 40
4.0
  9
$LOFTANG1
 40
1.570796326794897
  9
$LOFTANG2
 40
1.570796326794897
  9
$LOFTMAG1
 40
0.0
  9
$LOFTMAG2
 40
0.0
  9
$LOFTPARAM
 70
     7
  9
$LOFTNORMALS
280
     1
  9
$LATITUDE
 40
37.795
  9
$LONGITUDE
 40
-122.394
  9
$NORTHDIRECTION
 40
0.0
  9
$TIMEZONE
 70
 -8000
  9
$LIGHTGLYPHDISPLAY
280
     1
  9
$TILEMODELIGHTSYNCH
280
     1
  9
$CMATERIAL
347
3C
  9
$SOLIDHIST
280
     1
  9
$SHOWHIST
280
     1
  9
$DWFFRAME
280
     2
  9
$DGNFRAME
280
     2
  9
$REALWORLDSCALE
290
     1
  9
$INTERFERECOLOR
 62
   256
  9
$CSHADOW
280
     0
  9
$SHADOWPLANELOCATION
 40
0.0
  0
ENDSEC
  0
SECTION
  2
CLASSES
  0
CLASS
  1
ACDBDICTIONARYWDFLT
  2
AcDbDictionaryWithDefault
  3
ObjectDBX Classes
 90
        0
 91
        4
280
     0
281
     0
  0
CLASS
  1
VISUALSTYLE
  2
AcDbVisualStyle
  3
ObjectDBX Classes
 90
     4095
 91
        4
280
     0
281
     0
  0
CLASS
  1
MATERIAL
  2
AcDbMaterial
  3
ObjectDBX Classes
 90
     1153
 91
        4
280
     0
281
     0
  0
CLASS
  1
SUN
  2
AcDbSun
  3
SCENEOE
 90
     1024
 91
        4
280
     0
281
     0
  0
ENDSEC
  0
SECTION
  2
TABLES
  0
TABLE
  2
VPORT
  5
8
330
0
100
AcDbSymbolTable
 70
     1
  0
VPORT
  5
29
330
8
100
AcDbSymbolTableRecord
100
AcDbViewportTableRecord
  2
*Active
 70
     0
 10
0.0
 20
0.0
 11
1.0
 21
1.0
 12
0.0
 22
0.0
 13
0.0
 23
0.0
 14
0.5
 24
0.5
 15
0.5
 25
0.5
 16
0.0
 26
0.0
 36
1.0
 17
91.00082462281999
 27
-128.4993055234307
 37
0.0
 40
256.9986110468615
 41
0.7081814508812795
 42
50.0
 43
0.0
 44
0.0
 50
0.0
 51
0.0
 71
     0
 72
   100
 73
     1
 74
     3
 75
     0
 76
     0
 77
     0
 78
     0
281
     0
 65
     1
110
0.0
120
0.0
130
0.0
111
1.0
121
0.0
131
0.0
112
0.0
122
1.0
132
0.0
 79
     0
146
0.0
 60
     3
 61
     5
292
     1
282
     1
141
0.0
142
0.0
 63
   250
361
3F
  0
ENDTAB
  0
TABLE
  2
LTYPE
  5
5
330
0
100
AcDbSymbolTable
 70
     1
  0
LTYPE
  5
14
330
5
100
AcDbSymbolTableRecord
100
AcDbLinetypeTableRecord
  2
ByBlock
 70
     0
  3

 72
    65
 73
     0
 40
0.0
  0
LTYPE
  5
15
330
5
100
AcDbSymbolTableRecord
100
AcDbLinetypeTableRecord
  2
ByLayer
 70
     0
  3

 72
    65
 73
     0
 40
0.0
  0
LTYPE
  5
16
330
5
100
AcDbSymbolTableRecord
100
AcDbLinetypeTableRecord
  2
Continuous
 70
     0
  3
Solid line
 72
    65
 73
     0
 40
0.0
  0
ENDTAB
  0
TABLE
  2
LAYER
  5
2
330
0
100
AcDbSymbolTable
 70
     2
  0
LAYER
  5
10
330
2
100
AcDbSymbolTableRecord
100
AcDbLayerTableRecord
  2
0
 70
     0
 62
     7
  6
Continuous
370
    -3
390
F
347
3E
  0
LAYER
  5
40
330
2
100
AcDbSymbolTableRecord
100
AcDbLayerTableRecord
  2
_U+30EC_U+30A4_U+30E4_U+30FC 1
 70
     0
 62
     7
  6
Continuous
370
    -3
390
F
347
3E
  0
ENDTAB
  0
TABLE
  2
STYLE
  5
3
330
0
100
AcDbSymbolTable
 70
     1
  0
STYLE
  5
11
330
3
100
AcDbSymbolTableRecord
100
AcDbTextStyleTableRecord
  2
Standard
 70
     0
 40
0.0
 41
1.0
 50
0.0
 71
     0
 42
0.2
  3
txt
  4

  0
ENDTAB
  0
TABLE
  2
VIEW
  5
6
330
0
100
AcDbSymbolTable
 70
     0
  0
ENDTAB
  0
TABLE
  2
UCS
  5
7
330
0
100
AcDbSymbolTable
 70
     0
  0
ENDTAB
  0
TABLE
  2
APPID
  5
9
330
0
100
AcDbSymbolTable
 70
     1
  0
APPID
  5
12
330
9
100
AcDbSymbolTableRecord
100
AcDbRegAppTableRecord
  2
ACAD
 70
     0
  0
ENDTAB
  0
TABLE
  2
DIMSTYLE
  5
A
330
0
100
AcDbSymbolTable
 70
     1
100
AcDbDimStyleTable
  0
DIMSTYLE
105
27
330
A
100
AcDbSymbolTableRecord
100
AcDbDimStyleTableRecord
  2
Standard
 70
     0
178
     0
340
11
  0
ENDTAB
  0
TABLE
  2
BLOCK_RECORD
  5
1
330
0
100
AcDbSymbolTable
 70
     7
  0
BLOCK_RECORD
  5
1F
330
1
100
AcDbSymbolTableRecord
100
AcDbBlockTableRecord
  2
*Model_Space
340
22
 70
     0
280
     1
281
     0
  0
BLOCK_RECORD
  5
1B
330
1
100
AcDbSymbolTableRecord
100
AcDbBlockTableRecord
  2
*Paper_Space
340
1E
 70
     0
280
     1
281
     0
  0
BLOCK_RECORD
  5
23
330
1
100
AcDbSymbolTableRecord
100
AcDbBlockTableRecord
  2
*Paper_Space0
340
26
 70
     0
280
     1
281
     0
  0
BLOCK_RECORD
  5
94
330
1
100
AcDbSymbolTableRecord
100
AcDbBlockTableRecord
  2
block 2
340
0
102
{BLKREFS
331
95
102
}
 70
     0
280
     1
281
     0
  0
BLOCK_RECORD
  5
B1
330
1
100
AcDbSymbolTableRecord
100
AcDbBlockTableRecord
  2
block 3
340
0
102
{BLKREFS
331
B2
102
}
 70
     0
280
     1
281
     0
  0
BLOCK_RECORD
  5
C5
330
1
100
AcDbSymbolTableRecord
100
AcDbBlockTableRecord
  2
block 4
340
0
102
{BLKREFS
331
C6
102
}
 70
     0
280
     1
281
     0
  0
BLOCK_RECORD
  5
D9
330
1
100
AcDbSymbolTableRecord
100
AcDbBlockTableRecord
  2
block 5
340
0
102
{BLKREFS
331
DA
102
}
 70
     0
280
     1
281
     0
  0
BLOCK_RECORD
  5
EB
330
1
100
AcDbSymbolTableRecord
100
AcDbBlockTableRecord
  2
block 6
340
0
102
{BLKREFS
331
EC
102
}
 70
     0
280
     1
281
     0
  0
BLOCK_RECORD
  5
FD
330
1
100
AcDbSymbolTableRecord
100
AcDbBlockTableRecord
  2
block 7
340
0
102
{BLKREFS
331
FE
102
}
 70
     0
280
     1
281
     0
  0
ENDTAB
  0
ENDSEC
  0
SECTION
  2
BLOCKS
  0
BLOCK
  5
20
330
1F
100
AcDbEntity
  8
0
100
AcDbBlockBegin
  2
*Model_Space
 70
     0
 10
0.0
 20
0.0
 30
0.0
  3
*Model_Space
  1

  0
ENDBLK
  5
21
330
1F
100
AcDbEntity
  8
0
100
AcDbBlockEnd
  0
BLOCK
  5
1C
330
1B
100
AcDbEntity
 67
     1
  8
0
100
AcDbBlockBegin
  2
*Paper_Space
 70
     0
 10
0.0
 20
0.0
 30
0.0
  3
*Paper_Space
  1

  0
ENDBLK
  5
1D
330
1B
100
AcDbEntity
 67
     1
  8
0
100
AcDbBlockEnd
  0
BLOCK
  5
24
330
23
100
AcDbEntity
  8
0
100
AcDbBlockBegin
  2
*Paper_Space0
 70
     0
 10
0.0
 20
0.0
 30
0.0
  3
*Paper_Space0
  1

  0
ENDBLK
  5
25
330
23
100
AcDbEntity
  8
0
100
AcDbBlockEnd
  0
BLOCK
  5
96
330
94
100
AcDbEntity
  8
0
100
AcDbBlockBegin
  2
block 2
 70
     0
 10
0.0
 20
0.0
 30
0.0
  3
block 2
  1

  0
SPLINE
  5
98
330
94
100
AcDbEntity
  8
_U+30EC_U+30A4_U+30E4_U+30FC 1
370
     0
100
AcDbSpline
210
0.0
220
0.0
230
1.0
 70
    11
 71
     3
 72
    29
 73
    25
 74
     0
 42
0.0000000001
 43
0.0000000001
 12
1.0
 22
0.0
 32
0.0
 13
1.0
 23
0.0
 33
0.0
 40
0.0
 40
0.0
 40
0.0
 40
0.0
 40
1.0
 40
1.0
 40
1.0
 40
2.0
 40
2.0
 40
2.0
 40
3.0
 40
3.0
 40
3.0
 40
4.0
 40
4.0
 40
4.0
 40
5.0
 40
5.0
 40
5.0
 40
6.0
 40
6.0
 40
6.0
 40
7.0
 40
7.0
 40
7.0
 40
8.0
 40
8.0
 40
8.0
 40
8.0
 10
105.8550374084321
 20
-135.3874294366393
 30
0.0
 10
106.0644992139353
 20
-135.5028401353951
 30
0.0
 10
106.0834472391041
 20
-135.6881862725016
 30
0.0
 10
106.0834472391041
 20
-135.8125542195191
 30
0.0
 10
106.0834472391041
 20
-135.9841199746845
 30
0.0
 10
106.0369384500533
 20
-136.1357041760355
 30
0.0
 10
105.8550374084321
 20
-136.2373344928504
 30
0.0
 10
105.6603895135155
 20
-136.3482665674754
 30
0.0
 10
105.4237114536788
 20
-136.3685926308384
 30
0.0
 10
105.2607584372265
 20
-136.3685926308384
 30
0.0
 10
105.116753445943
 20
-136.3685926308384
 30
0.0
 10
104.8649169659713
 20
-136.3506781343151
 30
0.0
 10
104.6661349564724
 20
-136.2373344928504
 30
0.0
 10
104.4632188323911
 20
-136.122268303643
 30
0.0
 10
104.4397921830914
 20
-135.9503580389291
 30
0.0
 10
104.4397921830914
 20
-135.8125542195191
 30
0.0
 10
104.4397921830914
 20
-135.6427110120963
 30
0.0
 10
104.4842339148512
 20
-135.4890597534541
 30
0.0
 10
104.6661349564724
 20
-135.3874294366393
 30
0.0
 10
104.8587157940978
 20
-135.2809759861451
 30
0.0
 10
105.0871256247699
 20
-135.2561712986513
 30
0.0
 10
105.2607584372265
 20
-135.2561712986513
 30
0.0
 10
105.4319796828434
 20
-135.2561712986513
 30
0.0
 10
105.6624565708066
 20
-135.2789089288539
 30
0.0
 10
105.8550374084321
 20
-135.3874294366393
 30
0.0
  0
SPLINE
  5
99
330
94
100
AcDbEntity
  8
_U+30EC_U+30A4_U+30E4_U+30FC 1
370
     0
100
AcDbSpline
210
0.0
220
0.0
230
1.0
 70
    11
 71
     3
 72
    17
 73
    13
 74
     0
 42
0.0000000001
 43
0.0000000001
 12
1.0
 22
0.0
 32
0.0
 13
1.0
 23
0.0
 33
0.0
 40
0.0
 40
0.0
 40
0.0
 40
0.0
 40
1.0
 40
1.0
 40
1.0
 40
2.0
 40
2.0
 40
2.0
 40
3.0
 40
3.0
 40
3.0
 40
4.0
 40
4.0
 40
4.0
 40
4.0
 10
104.6323730207169
 20
-135.8125542195191
 30
0.0
 10
104.6323730207169
 20
-136.0792046100774
 30
0.0
 10
104.915904379153
 20
-136.128813985065
 30
0.0
 10
105.2607584372265
 20
-136.128813985065
 30
0.0
 10
105.5801187887091
 20
-136.128813985065
 30
0.0
 10
105.8887993441875
 20
-136.0905734251787
 30
0.0
 10
105.8887993441875
 20
-135.8125542195191
 30
0.0
 10
105.8887993441875
 20
-135.5479708862519
 30
0.0
 10
105.6076795525911
 20
-135.4959499444246
 30
0.0
 10
105.2607584372265
 20
-135.4959499444246
 30
0.0
 10
104.9410535761953
 20
-135.4959499444246
 30
0.0
 10
104.6323730207169
 20
-135.5366020711506
 30
0.0
 10
104.6323730207169
 20
-135.8125542195191
 30
0.0
  0
HATCH
  5
9A
330
94
100
AcDbEntity
  8
_U+30EC_U+30A4_U+30E4_U+30FC 1
 62
   179
420
  2234388
100
AcDbHatch
 10
0.0
 20
0.0
 30
0.0
210
0.0
220
0.0
230
1.0
  2
SOLID
 70
     1
 71
     0
 91
        2
 92
        1
 93
        1
 72
     4
 94
        3
 73
     0
 74
     1
 95
       29
 96
       25
 40
0.0
 40
0.0
 40
0.0
 40
0.0
 40
1.0
 40
1.0
 40
1.0
 40
2.0
 40
2.0
 40
2.0
 40
3.0
 40
3.0
 40
3.0
 40
4.0
 40
4.0
 40
4.0
 40
5.0
 40
5.0
 40
5.0
 40
6.0
 40
6.0
 40
6.0
 40
7.0
 40
7.0
 40
7.0
 40
8.0
 40
8.0
 40
8.0
 40
8.0
 10
105.8550374084321
 20
-135.3874294366393
 10
106.0644992139353
 20
-135.5028401353951
 10
106.0834472391041
 20
-135.6881862725016
 10
106.0834472391041
 20
-135.8125542195191
 10
106.0834472391041
 20
-135.9841199746845
 10
106.0369384500533
 20
-136.1357041760355
 10
105.8550374084321
 20
-136.2373344928504
 10
105.6603895135155
 20
-136.3482665674754
 10
105.4237114536788
 20
-136.3685926308384
 10
105.2607584372265
 20
-136.3685926308384
 10
105.116753445943
 20
-136.3685926308384
 10
104.8649169659713
 20
-136.3506781343151
 10
104.6661349564724
 20
-136.2373344928504
 10
104.4632188323911
 20
-136.122268303643
 10
104.4397921830914
 20
-135.9503580389291
 10
104.4397921830914
 20
-135.8125542195191
 10
104.4397921830914
 20
-135.6427110120963
 10
104.4842339148512
 20
-135.4890597534541
 10
104.6661349564724
 20
-135.3874294366393
 10
104.8587157940978
 20
-135.2809759861451
 10
105.0871256247699
 20
-135.2561712986513
 10
105.2607584372265
 20
-135.2561712986513
 10
105.4319796828434
 20
-135.2561712986513
 10
105.6624565708066
 20
-135.2789089288539
 10
105.8550374084321
 20
-135.3874294366393
 97
        0
 97
        0
 92
        1
 93
        1
 72
     4
 94
        3
 73
     0
 74
     1
 95
       17
 96
       13
 40
0.0
 40
0.0
 40
0.0
 40
0.0
 40
1.0
 40
1.0
 40
1.0
 40
2.0
 40
2.0
 40
2.0
 40
3.0
 40
3.0
 40
3.0
 40
4.0
 40
4.0
 40
4.0
 40
4.0
 10
104.6323730207169
 20
-135.8125542195191
 10
104.6323730207169
 20
-136.0792046100774
 10
104.915904379153
 20
-136.128813985065
 10
105.2607584372265
 20
-136.128813985065
 10
105.5801187887091
 20
-136.128813985065
 10
105.8887993441875
 20
-136.0905734251787
 10
105.8887993441875
 20
-135.8125542195191
 10
105.8887993441875
 20
-135.5479708862519
 10
105.6076795525911
 20
-135.4959499444246
 10
105.2607584372265
 20
-135.4959499444246
 10
104.9410535761953
 20
-135.4959499444246
 10
104.6323730207169
 20
-135.5366020711506
 10
104.6323730207169
 20
-135.8125542195191
 97
        0
 97
        0
 75
     2
 76
     1
 98
        0
  0
POLYLINE
  5
9B
330
94
100
AcDbEntity
  8
_U+30EC_U+30A4_U+30E4_U+30FC 1
370
     0
100
AcDb2dPolyline
 66
     1
 10
0.0
 20
0.0
 30
0.0
  0
VERTEX
  5
9C
330
9B
100
AcDbEntity
  8
_U+30EC_U+30A4_U+30E4_U+30FC 1
370
     0
100
AcDbVertex
100
AcDb2dVertex
 10
106.032804335471
 20
-135.025005391591
 30
0.0
  0
VERTEX
  5
9D
330
9B
100
AcDbEntity
  8
_U+30EC_U+30A4_U+30E4_U+30FC 1
370
     0
100
AcDbVertex
100
AcDb2dVertex
 10
105.7809678554992
 20
-135.025005391591
 30
0.0
  0
VERTEX
  5
9E
330
9B
100
AcDbEntity
  8
_U+30EC_U+30A4_U+30E4_U+30FC 1
370
     0
100
AcDbVertex
100
AcDb2dVertex
 10
105.7809678554992
 20
-134.755943434193
 30
0.0
  0
VERTEX
  5
9F
330
9B
100
AcDbEntity
  8
_U+30EC_U+30A4_U+30E4_U+30FC 1
370
     0
100
AcDbVertex
100
AcDb2dVertex
 10
106.032804335471
 20
-134.755943434193
 30
0.0
  0
VERTEX
  5
A0
330
9B
100
AcDbEntity
  8
_U+30EC_U+30A4_U+30E4_U+30FC 1
370
     0
100
AcDbVertex
100
AcDb2dVertex
 10
106.032804335471
 20
-135.025005391591
 30
0.0
  0
SEQEND
  5
A1
330
9B
100
AcDbEntity
  8
_U+30EC_U+30A4_U+30E4_U+30FC 1
370
     0
  0
HATCH
  5
A2
330
94
100
AcDbEntity
  8
_U+30EC_U+30A4_U+30E4_U+30FC 1
 62
   179
420
  2234388
100
AcDbHatch
 10
0.0
 20
0.0
 30
0.0
210
0.0
220
0.0
230
1.0
  2
SOLID
 70
     1
 71
     0
 91
        1
 92
        1
 93
        4
 72
     1
 10
106.032804335471
 20
-135.025005391591
 11
105.7809678554992
 21
-135.025005391591
 72
     1
 10
105.7809678554992
 20
-135.025005391591
 11
105.7809678554992
 21
-134.755943434193
 72
     1
 10
105.7809678554992
 20
-134.755943434193
 11
106.032804335471
 21
-134.755943434193
 72
     1
 10
106.032804335471
 20
-134.755943434193
 11
106.032804335471
 21
-135.025005391591
 97
        0
 75
     2
 76
     1
 98
        0
  0
SPLINE
  5
A3
330
94
100
AcDbEntity
  8
_U+30EC_U+30A4_U+30E4_U+30FC 1
370
     0
100
AcDbSpline
210
0.0
220
0.0
230
1.0
 70
    11
 71
     3
 72
    26
 73
    22
 74
     0
 42
0.0000000001
 43
0.0000000001
 12
1.0
 22
0.0
 32
0.0
 13
1.0
 23
0.0
 33
0.0
 40
0.0
 40
0.0
 40
0.0
 40
0.0
 40
1.0
 40
1.0
 40
1.0
 40
2.0
 40
2.0
 40
2.0
 40
3.0
 40
3.0
 40
3.0
 40
4.0
 40
4.0
 40
4.0
 40
5.0
 40
5.0
 40
5.0
 40
6.0
 40
6.0
 40
6.0
 40
7.0
 40
7.0
 40
7.0
 40
7.0
 10
106.032804335471
 20
-134.0634792416577
 30
0.0
 10
106.032804335471
 20
-134.0634792416577
 30
0.0
 10
106.032804335471
 20
-134.3166937598236
 30
0.0
 10
106.032804335471
 20
-134.3166937598236
 30
0.0
 10
105.7237792704441
 20
-134.2898220150387
 30
0.0
 10
105.2056369094625
 20
-134.0838053050207
 30
0.0
 10
104.6998968922278
 20
-133.6497232738792
 30
0.0
 10
104.6998968922278
 20
-133.6497232738792
 30
0.0
 10
104.6998968922278
 20
-134.5451035904957
 30
0.0
 10
104.6998968922278
 20
-134.5451035904957
 30
0.0
 10
104.6998968922278
 20
-134.5451035904957
 30
0.0
 10
104.4883680294335
 20
-134.5451035904957
 30
0.0
 10
104.4883680294335
 20
-134.5451035904957
 30
0.0
 10
104.4883680294335
 20
-134.5451035904957
 30
0.0
 10
104.4883680294335
 20
-133.3965087557134
 30
0.0
 10
104.4883680294335
 20
-133.3965087557134
 30
0.0
 10
104.4883680294335
 20
-133.3965087557134
 30
0.0
 10
104.6998968922278
 20
-133.3965087557134
 30
0.0
 10
104.6998968922278
 20
-133.3965087557134
 30
0.0
 10
104.9899739320858
 20
-133.7423963424325
 30
0.0
 10
105.5821858460003
 20
-134.0273057390626
 30
0.0
 10
106.032804335471
 20
-134.0634792416577
 30
0.0
  0
HATCH
  5
A4
330
94
100
AcDbEntity
  8
_U+30EC_U+30A4_U+30E4_U+30FC 1
 62
   179
420
  2234388
100
AcDbHatch
 10
0.0
 20
0.0
 30
0.0
210
0.0
220
0.0
230
1.0
  2
SOLID
 70
     1
 71
     0
 91
        1
 92
        1
 93
        1
 72
     4
 94
        3
 73
     0
 74
     1
 95
       26
 96
       22
 40
0.0
 40
0.0
 40
0.0
 40
0.0
 40
1.0
 40
1.0
 40
1.0
 40
2.0
 40
2.0
 40
2.0
 40
3.0
 40
3.0
 40
3.0
 40
4.0
 40
4.0
 40
4.0
 40
5.0
 40
5.0
 40
5.0
 40
6.0
 40
6.0
 40
6.0
 40
7.0
 40
7.0
 40
7.0
 40
7.0
 10
106.032804335471
 20
-134.0634792416577
 10
106.032804335471
 20
-134.0634792416577
 10
106.032804335471
 20
-134.3166937598236
 10
106.032804335471
 20
-134.3166937598236
 10
105.7237792704441
 20
-134.2898220150387
 10
105.2056369094625
 20
-134.0838053050207
 10
104.6998968922278
 20
-133.6497232738792
 10
104.6998968922278
 20
-133.6497232738792
 10
104.6998968922278
 20
-134.5451035904957
 10
104.6998968922278
 20
-134.5451035904957
 10
104.6998968922278
 20
-134.5451035904957
 10
104.4883680294335
 20
-134.5451035904957
 10
104.4883680294335
 20
-134.5451035904957
 10
104.4883680294335
 20
-134.5451035904957
 10
104.4883680294335
 20
-133.3965087557134
 10
104.4883680294335
 20
-133.3965087557134
 10
104.4883680294335
 20
-133.3965087557134
 10
104.6998968922278
 20
-133.3965087557134
 10
104.6998968922278
 20
-133.3965087557134
 10
104.9899739320858
 20
-133.7423963424325
 10
105.5821858460003
 20
-134.0273057390626
 10
106.032804335471
 20
-134.0634792416577
 97
        0
 97
        0
 75
     2
 76
     1
 98
        0
  0
ENDBLK
  5
97
330
94
100
AcDbEntity
  8
0
100
AcDbBlockEnd
  0
BLOCK
  5
B3
330
B1
100
AcDbEntity
  8
0
100
AcDbBlockBegin
  2
block 3
 70
     0
 10
0.0
 20
0.0
 30
0.0
  3
block 3
  1

  0
SPLINE
  5
B5
330
B1
100
AcDbEntity
  8
_U+30EC_U+30A4_U+30E4_U+30FC 1
370
     0
100
AcDbSpline
210
0.0
220
0.0
230
1.0
 70
    11
 71
     3
 72
    44
 73
    40
 74
     0
 42
0.0000000001
 43
0.0000000001
 12
1.0
 22
0.0
 32
0.0
 13
1.0
 23
0.0
 33
0.0
 40
0.0
 40
0.0
 40
0.0
 40
0.0
 40
1.0
 40
1.0
 40
1.0
 40
2.0
 40
2.0
 40
2.0
 40
3.0
 40
3.0
 40
3.0
 40
4.0
 40
4.0
 40
4.0
 40
5.0
 40
5.0
 40
5.0
 40
6.0
 40
6.0
 40
6.0
 40
7.0
 40
7.0
 40
7.0
 40
8.0
 40
8.0
 40
8.0
 40
9.0
 40
9.0
 40
9.0
 40
10.0
 40
10.0
 40
10.0
 40
11.0
 40
11.0
 40
11.0
 40
12.0
 40
12.0
 40
12.0
 40
13.0
 40
13.0
 40
13.0
 40
13.0
 10
91.69224986857
 20
-138.0346408075052
 30
0.0
 10
91.45936141376711
 20
-138.1934597093752
 30
0.0
 10
91.35979815424339
 20
-138.2675292623081
 30
0.0
 10
91.30777721241611
 20
-138.411189744043
 30
0.0
 10
91.30777721241611
 20
-138.411189744043
 30
0.0
 10
92.14011228165248
 20
-138.411189744043
 30
0.0
 10
92.14011228165248
 20
-138.411189744043
 30
0.0
 10
92.14011228165248
 20
-138.411189744043
 30
0.0
 10
92.14011228165248
 20
-138.6165174349639
 30
0.0
 10
92.14011228165248
 20
-138.6165174349639
 30
0.0
 10
92.14011228165248
 20
-138.6165174349639
 30
0.0
 10
91.04112682185777
 20
-138.6165174349639
 30
0.0
 10
91.04112682185777
 20
-138.6165174349639
 30
0.0
 10
91.07523326716175
 20
-138.258916523595
 30
0.0
 10
91.14516870551232
 20
-138.1807128560798
 30
0.0
 10
91.55651310645115
 20
-137.8823675870572
 30
0.0
 10
91.83005368798
 20
-137.6835855775583
 30
0.0
 10
91.9003336358791
 20
-137.6157171964988
 30
0.0
 10
91.9003336358791
 20
-137.4782578866374
 30
0.0
 10
91.9003336358791
 20
-137.3597466019448
 30
0.0
 10
91.82350800655801
 20
-137.2288329735053
 30
0.0
 10
91.61301267240925
 20
-137.2288329735053
 30
0.0
 10
91.3349934667496
 20
-137.2288329735053
 30
0.0
 10
91.32603621848794
 20
-137.4593098614685
 30
0.0
 10
91.32155759435712
 20
-137.57575408887
 30
0.0
 10
91.32155759435712
 20
-137.57575408887
 30
0.0
 10
91.08177894858373
 20
-137.57575408887
 30
0.0
 10
91.08177894858373
 20
-137.57575408887
 30
0.0
 10
91.09073619684537
 20
-137.4486300654642
 30
0.0
 10
91.1021050119467
 20
-137.3366644621936
 30
0.0
 10
91.18823239907795
 20
-137.218153177501
 30
0.0
 10
91.30571015512497
 20
-137.0572672183399
 30
0.0
 10
91.50449216462388
 20
-137.0235052825844
 30
0.0
 10
91.6288601116414
 20
-137.0235052825844
 30
0.0
 10
91.92513832337289
 20
-137.0235052825844
 30
0.0
 10
92.14665796307445
 20
-137.2074733814968
 30
0.0
 10
92.14665796307445
 20
-137.4803249439285
 30
0.0
 10
92.14665796307445
 20
-137.7090792841491
 30
0.0
 10
92.02229001605693
 20
-137.8082980341243
 30
0.0
 10
91.69224986857
 20
-138.0346408075052
 30
0.0
  0
HATCH
  5
B6
330
B1
100
AcDbEntity
  8
_U+30EC_U+30A4_U+30E4_U+30FC 1
 62
   179
420
  2234388
100
AcDbHatch
 10
0.0
 20
0.0
 30
0.0
210
0.0
220
0.0
230
1.0
  2
SOLID
 70
     1
 71
     0
 91
        1
 92
        1
 93
        1
 72
     4
 94
        3
 73
     0
 74
     1
 95
       44
 96
       40
 40
0.0
 40
0.0
 40
0.0
 40
0.0
 40
1.0
 40
1.0
 40
1.0
 40
2.0
 40
2.0
 40
2.0
 40
3.0
 40
3.0
 40
3.0
 40
4.0
 40
4.0
 40
4.0
 40
5.0
 40
5.0
 40
5.0
 40
6.0
 40
6.0
 40
6.0
 40
7.0
 40
7.0
 40
7.0
 40
8.0
 40
8.0
 40
8.0
 40
9.0
 40
9.0
 40
9.0
 40
10.0
 40
10.0
 40
10.0
 40
11.0
 40
11.0
 40
11.0
 40
12.0
 40
12.0
 40
12.0
 40
13.0
 40
13.0
 40
13.0
 40
13.0
 10
91.69224986857
 20
-138.0346408075052
 10
91.45936141376711
 20
-138.1934597093752
 10
91.35979815424339
 20
-138.2675292623081
 10
91.30777721241611
 20
-138.411189744043
 10
91.30777721241611
 20
-138.411189744043
 10
92.14011228165248
 20
-138.411189744043
 10
92.14011228165248
 20
-138.411189744043
 10
92.14011228165248
 20
-138.411189744043
 10
92.14011228165248
 20
-138.6165174349639
 10
92.14011228165248
 20
-138.6165174349639
 10
92.14011228165248
 20
-138.6165174349639
 10
91.04112682185777
 20
-138.6165174349639
 10
91.04112682185777
 20
-138.6165174349639
 10
91.07523326716175
 20
-138.258916523595
 10
91.14516870551232
 20
-138.1807128560798
 10
91.55651310645115
 20
-137.8823675870572
 10
91.83005368798
 20
-137.6835855775583
 10
91.9003336358791
 20
-137.6157171964988
 10
91.9003336358791
 20
-137.4782578866374
 10
91.9003336358791
 20
-137.3597466019448
 10
91.82350800655801
 20
-137.2288329735053
 10
91.61301267240925
 20
-137.2288329735053
 10
91.3349934667496
 20
-137.2288329735053
 10
91.32603621848794
 20
-137.4593098614685
 10
91.32155759435712
 20
-137.57575408887
 10
91.32155759435712
 20
-137.57575408887
 10
91.08177894858373
 20
-137.57575408887
 10
91.08177894858373
 20
-137.57575408887
 10
91.09073619684537
 20
-137.4486300654642
 10
91.1021050119467
 20
-137.3366644621936
 10
91.18823239907795
 20
-137.218153177501
 10
91.30571015512497
 20
-137.0572672183399
 10
91.50449216462388
 20
-137.0235052825844
 10
91.6288601116414
 20
-137.0235052825844
 10
91.92513832337289
 20
-137.0235052825844
 10
92.14665796307445
 20
-137.2074733814968
 10
92.14665796307445
 20
-137.4803249439285
 10
92.14665796307445
 20
-137.7090792841491
 10
92.02229001605693
 20
-137.8082980341243
 10
91.69224986857
 20
-138.0346408075052
 97
        0
 97
        0
 75
     2
 76
     1
 98
        0
  0
SPLINE
  5
B7
330
B1
100
AcDbEntity
  8
_U+30EC_U+30A4_U+30E4_U+30FC 1
370
     0
100
AcDbSpline
210
0.0
220
0.0
230
1.0
 70
    11
 71
     3
 72
    62
 73
    58
 74
     0
 42
0.0000000001
 43
0.0000000001
 12
1.0
 22
0.0
 32
0.0
 13
1.0
 23
0.0
 33
0.0
 40
0.0
 40
0.0
 40
0.0
 40
0.0
 40
1.0
 40
1.0
 40
1.0
 40
2.0
 40
2.0
 40
2.0
 40
3.0
 40
3.0
 40
3.0
 40
4.0
 40
4.0
 40
4.0
 40
5.0
 40
5.0
 40
5.0
 40
6.0
 40
6.0
 40
6.0
 40
7.0
 40
7.0
 40
7.0
 40
8.0
 40
8.0
 40
8.0
 40
9.0
 40
9.0
 40
9.0
 40
10.0
 40
10.0
 40
10.0
 40
11.0
 40
11.0
 40
11.0
 40
12.0
 40
12.0
 40
12.0
 40
13.0
 40
13.0
 40
13.0
 40
14.0
 40
14.0
 40
14.0
 40
15.0
 40
15.0
 40
15.0
 40
16.0
 40
16.0
 40
16.0
 40
17.0
 40
17.0
 40
17.0
 40
18.0
 40
18.0
 40
18.0
 40
19.0
 40
19.0
 40
19.0
 40
19.0
 10
92.84153372244934
 20
-138.6671603385971
 30
0.0
 10
92.73990340563448
 20
-138.6671603385971
 30
0.0
 10
92.50701495083159
 20
-138.6461452561371
 30
0.0
 10
92.37368975555242
 20
-138.4601100999336
 30
0.0
 10
92.29445255939167
 20
-138.3477999871145
 30
0.0
 10
92.28997393526085
 20
-138.2485812371393
 30
0.0
 10
92.28549531113002
 20
-138.1638318882021
 30
0.0
 10
92.28549531113002
 20
-138.1638318882021
 30
0.0
 10
92.52045082322405
 20
-138.1638318882021
 30
0.0
 10
92.52045082322405
 20
-138.1638318882021
 30
0.0
 10
92.52286239006374
 20
-138.237901441135
 30
0.0
 10
92.53423120516506
 20
-138.4725124436805
 30
0.0
 10
92.83705509831852
 20
-138.4725124436805
 30
0.0
 10
92.98416067553869
 20
-138.4725124436805
 30
0.0
 10
93.14676918244248
 20
-138.4029215148784
 30
0.0
 10
93.14676918244248
 20
-138.1745116842064
 30
0.0
 10
93.14676918244248
 20
-138.0580674568049
 30
0.0
 10
93.10611705571652
 20
-138.0094916104629
 30
0.0
 10
93.07235511996109
 20
-137.9777967319986
 30
0.0
 10
92.99311792380034
 20
-137.9037271790658
 30
0.0
 10
92.86874997678282
 20
-137.8909803257703
 30
0.0
 10
92.80983884398505
 20
-137.8909803257703
 30
0.0
 10
92.78951278062208
 20
-137.8909803257703
 30
0.0
 10
92.7512722207358
 20
-137.8930473830615
 30
0.0
 10
92.72164439956265
 20
-137.8971814976438
 30
0.0
 10
92.72164439956265
 20
-137.8971814976438
 30
0.0
 10
92.72164439956265
 20
-137.7025336027272
 30
0.0
 10
92.72164439956265
 20
-137.7025336027272
 30
0.0
 10
92.7622965262886
 20
-137.7090792841491
 30
0.0
 10
92.80777178669389
 20
-137.7111463414403
 30
0.0
 10
92.81431746811587
 20
-137.7111463414403
 30
0.0
 10
92.88459741601497
 20
-137.7111463414403
 30
0.0
 10
93.09715980745489
 20
-137.6897867494317
 30
0.0
 10
93.09715980745489
 20
-137.4531086895951
 30
0.0
 10
93.09715980745489
 20
-137.2753417625562
 30
0.0
 10
92.95694442120521
 20
-137.2202202347922
 30
0.0
 10
92.8394666651582
 20
-137.2202202347922
 30
0.0
 10
92.55662432581919
 20
-137.2202202347922
 30
0.0
 10
92.54766707755753
 20
-137.4531086895951
 30
0.0
 10
92.54318845342671
 20
-137.5247666756883
 30
0.0
 10
92.54318845342671
 20
-137.5247666756883
 30
0.0
 10
92.32614743785597
 20
-137.5247666756883
 30
0.0
 10
92.32614743785597
 20
-137.5247666756883
 30
0.0
 10
92.33510468611762
 20
-137.4000542191222
 30
0.0
 10
92.36438799774224
 20
-137.0235052825844
 30
0.0
 10
92.85290253755066
 20
-137.0235052825844
 30
0.0
 10
93.09268118332406
 20
-137.0235052825844
 30
0.0
 10
93.35037432562075
 20
-137.1506293059901
 30
0.0
 10
93.35037432562075
 20
-137.4465630081731
 30
0.0
 10
93.35037432562075
 20
-137.6329426739251
 30
0.0
 10
93.24839949925735
 20
-137.7152804560226
 30
0.0
 10
93.14229055831166
 20
-137.77660315566
 30
0.0
 10
93.2077473725314
 20
-137.804163919542
 30
0.0
 10
93.40239526744801
 20
-137.8844346443483
 30
0.0
 10
93.40239526744801
 20
-138.161764830911
 30
0.0
 10
93.40239526744801
 20
-138.5000732075625
 30
0.0
 10
93.13781193418083
 20
-138.6671603385971
 30
0.0
 10
92.84153372244934
 20
-138.6671603385971
 30
0.0
  0
HATCH
  5
B8
330
B1
100
AcDbEntity
  8
_U+30EC_U+30A4_U+30E4_U+30FC 1
 62
   179
420
  2234388
100
AcDbHatch
 10
0.0
 20
0.0
 30
0.0
210
0.0
220
0.0
230
1.0
  2
SOLID
 70
     1
 71
     0
 91
        1
 92
        1
 93
        1
 72
     4
 94
        3
 73
     0
 74
     1
 95
       62
 96
       58
 40
0.0
 40
0.0
 40
0.0
 40
0.0
 40
1.0
 40
1.0
 40
1.0
 40
2.0
 40
2.0
 40
2.0
 40
3.0
 40
3.0
 40
3.0
 40
4.0
 40
4.0
 40
4.0
 40
5.0
 40
5.0
 40
5.0
 40
6.0
 40
6.0
 40
6.0
 40
7.0
 40
7.0
 40
7.0
 40
8.0
 40
8.0
 40
8.0
 40
9.0
 40
9.0
 40
9.0
 40
10.0
 40
10.0
 40
10.0
 40
11.0
 40
11.0
 40
11.0
 40
12.0
 40
12.0
 40
12.0
 40
13.0
 40
13.0
 40
13.0
 40
14.0
 40
14.0
 40
14.0
 40
15.0
 40
15.0
 40
15.0
 40
16.0
 40
16.0
 40
16.0
 40
17.0
 40
17.0
 40
17.0
 40
18.0
 40
18.0
 40
18.0
 40
19.0
 40
19.0
 40
19.0
 40
19.0
 10
92.84153372244934
 20
-138.6671603385971
 10
92.73990340563448
 20
-138.6671603385971
 10
92.50701495083159
 20
-138.6461452561371
 10
92.37368975555242
 20
-138.4601100999336
 10
92.29445255939167
 20
-138.3477999871145
 10
92.28997393526085
 20
-138.2485812371393
 10
92.28549531113002
 20
-138.1638318882021
 10
92.28549531113002
 20
-138.1638318882021
 10
92.52045082322405
 20
-138.1638318882021
 10
92.52045082322405
 20
-138.1638318882021
 10
92.52286239006374
 20
-138.237901441135
 10
92.53423120516506
 20
-138.4725124436805
 10
92.83705509831852
 20
-138.4725124436805
 10
92.98416067553869
 20
-138.4725124436805
 10
93.14676918244248
 20
-138.4029215148784
 10
93.14676918244248
 20
-138.1745116842064
 10
93.14676918244248
 20
-138.0580674568049
 10
93.10611705571652
 20
-138.0094916104629
 10
93.07235511996109
 20
-137.9777967319986
 10
92.99311792380034
 20
-137.9037271790658
 10
92.86874997678282
 20
-137.8909803257703
 10
92.80983884398505
 20
-137.8909803257703
 10
92.78951278062208
 20
-137.8909803257703
 10
92.7512722207358
 20
-137.8930473830615
 10
92.72164439956265
 20
-137.8971814976438
 10
92.72164439956265
 20
-137.8971814976438
 10
92.72164439956265
 20
-137.7025336027272
 10
92.72164439956265
 20
-137.7025336027272
 10
92.7622965262886
 20
-137.7090792841491
 10
92.80777178669389
 20
-137.7111463414403
 10
92.81431746811587
 20
-137.7111463414403
 10
92.88459741601497
 20
-137.7111463414403
 10
93.09715980745489
 20
-137.6897867494317
 10
93.09715980745489
 20
-137.4531086895951
 10
93.09715980745489
 20
-137.2753417625562
 10
92.95694442120521
 20
-137.2202202347922
 10
92.8394666651582
 20
-137.2202202347922
 10
92.55662432581919
 20
-137.2202202347922
 10
92.54766707755753
 20
-137.4531086895951
 10
92.54318845342671
 20
-137.5247666756883
 10
92.54318845342671
 20
-137.5247666756883
 10
92.32614743785597
 20
-137.5247666756883
 10
92.32614743785597
 20
-137.5247666756883
 10
92.33510468611762
 20
-137.4000542191222
 10
92.36438799774224
 20
-137.0235052825844
 10
92.85290253755066
 20
-137.0235052825844
 10
93.09268118332406
 20
-137.0235052825844
 10
93.35037432562075
 20
-137.1506293059901
 10
93.35037432562075
 20
-137.4465630081731
 10
93.35037432562075
 20
-137.6329426739251
 10
93.24839949925735
 20
-137.7152804560226
 10
93.14229055831166
 20
-137.77660315566
 10
93.2077473725314
 20
-137.804163919542
 10
93.40239526744801
 20
-137.8844346443483
 10
93.40239526744801
 20
-138.161764830911
 10
93.40239526744801
 20
-138.5000732075625
 10
93.13781193418083
 20
-138.6671603385971
 10
92.84153372244934
 20
-138.6671603385971
 97
        0
 97
        0
 75
     2
 76
     1
 98
        0
  0
ENDBLK
  5
B4
330
B1
100
AcDbEntity
  8
0
100
AcDbBlockEnd
  0
BLOCK
  5
C7
330
C5
100
AcDbEntity
  8
0
100
AcDbBlockBegin
  2
block 4
 70
     0
 10
0.0
 20
0.0
 30
0.0
  3
block 4
  1

  0
SPLINE
  5
C9
330
C5
100
AcDbEntity
  8
_U+30EC_U+30A4_U+30E4_U+30FC 1
370
     0
100
AcDbSpline
210
0.0
220
0.0
230
1.0
 70
    11
 71
     3
 72
    26
 73
    22
 74
     0
 42
0.0000000001
 43
0.0000000001
 12
1.0
 22
0.0
 32
0.0
 13
1.0
 23
0.0
 33
0.0
 40
0.0
 40
0.0
 40
0.0
 40
0.0
 40
1.0
 40
1.0
 40
1.0
 40
2.0
 40
2.0
 40
2.0
 40
3.0
 40
3.0
 40
3.0
 40
4.0
 40
4.0
 40
4.0
 40
5.0
 40
5.0
 40
5.0
 40
6.0
 40
6.0
 40
6.0
 40
7.0
 40
7.0
 40
7.0
 40
7.0
 10
86.04091523456617
 20
-118.6167046144431
 30
0.0
 10
86.04091523456617
 20
-118.6167046144431
 30
0.0
 10
86.04091523456617
 20
-117.5123792566462
 30
0.0
 10
86.04091523456617
 20
-117.5123792566462
 30
0.0
 10
86.04091523456617
 20
-117.5123792566462
 30
0.0
 10
85.6884819664251
 20
-117.5123792566462
 30
0.0
 10
85.6884819664251
 20
-117.5123792566462
 30
0.0
 10
85.6884819664251
 20
-117.5123792566462
 30
0.0
 10
85.6884819664251
 20
-117.3644124055547
 30
0.0
 10
85.6884819664251
 20
-117.3644124055547
 30
0.0
 10
86.04332680140584
 20
-117.3495984949682
 30
0.0
 10
86.09293617639344
 20
-117.1866454785158
 30
0.0
 10
86.12463105485773
 20
-117.0724405631798
 30
0.0
 10
86.12463105485773
 20
-117.0724405631798
 30
0.0
 10
86.28069388033956
 20
-117.0724405631798
 30
0.0
 10
86.28069388033956
 20
-117.0724405631798
 30
0.0
 10
86.28069388033956
 20
-117.0724405631798
 30
0.0
 10
86.28069388033956
 20
-118.6167046144431
 30
0.0
 10
86.28069388033956
 20
-118.6167046144431
 30
0.0
 10
86.28069388033956
 20
-118.6167046144431
 30
0.0
 10
86.04091523456617
 20
-118.6167046144431
 30
0.0
 10
86.04091523456617
 20
-118.6167046144431
 30
0.0
  0
HATCH
  5
CA
330
C5
100
AcDbEntity
  8
_U+30EC_U+30A4_U+30E4_U+30FC 1
 62
   179
420
  2234388
100
AcDbHatch
 10
0.0
 20
0.0
 30
0.0
210
0.0
220
0.0
230
1.0
  2
SOLID
 70
     1
 71
     0
 91
        1
 92
        1
 93
        1
 72
     4
 94
        3
 73
     0
 74
     1
 95
       26
 96
       22
 40
0.0
 40
0.0
 40
0.0
 40
0.0
 40
1.0
 40
1.0
 40
1.0
 40
2.0
 40
2.0
 40
2.0
 40
3.0
 40
3.0
 40
3.0
 40
4.0
 40
4.0
 40
4.0
 40
5.0
 40
5.0
 40
5.0
 40
6.0
 40
6.0
 40
6.0
 40
7.0
 40
7.0
 40
7.0
 40
7.0
 10
86.04091523456617
 20
-118.6167046144431
 10
86.04091523456617
 20
-118.6167046144431
 10
86.04091523456617
 20
-117.5123792566462
 10
86.04091523456617
 20
-117.5123792566462
 10
86.04091523456617
 20
-117.5123792566462
 10
85.6884819664251
 20
-117.5123792566462
 10
85.6884819664251
 20
-117.5123792566462
 10
85.6884819664251
 20
-117.5123792566462
 10
85.6884819664251
 20
-117.3644124055547
 10
85.6884819664251
 20
-117.3644124055547
 10
86.04332680140584
 20
-117.3495984949682
 10
86.09293617639344
 20
-117.1866454785158
 10
86.12463105485773
 20
-117.0724405631798
 10
86.12463105485773
 20
-117.0724405631798
 10
86.28069388033956
 20
-117.0724405631798
 10
86.28069388033956
 20
-117.0724405631798
 10
86.28069388033956
 20
-117.0724405631798
 10
86.28069388033956
 20
-118.6167046144431
 10
86.28069388033956
 20
-118.6167046144431
 10
86.28069388033956
 20
-118.6167046144431
 10
86.04091523456617
 20
-118.6167046144431
 10
86.04091523456617
 20
-118.6167046144431
 97
        0
 97
        0
 75
     2
 76
     1
 98
        0
  0
SPLINE
  5
CB
330
C5
100
AcDbEntity
  8
_U+30EC_U+30A4_U+30E4_U+30FC 1
370
     0
100
AcDbSpline
210
0.0
220
0.0
230
1.0
 70
    11
 71
     3
 72
    44
 73
    40
 74
     0
 42
0.0000000001
 43
0.0000000001
 12
1.0
 22
0.0
 32
0.0
 13
1.0
 23
0.0
 33
0.0
 40
0.0
 40
0.0
 40
0.0
 40
0.0
 40
1.0
 40
1.0
 40
1.0
 40
2.0
 40
2.0
 40
2.0
 40
3.0
 40
3.0
 40
3.0
 40
4.0
 40
4.0
 40
4.0
 40
5.0
 40
5.0
 40
5.0
 40
6.0
 40
6.0
 40
6.0
 40
7.0
 40
7.0
 40
7.0
 40
8.0
 40
8.0
 40
8.0
 40
9.0
 40
9.0
 40
9.0
 40
10.0
 40
10.0
 40
10.0
 40
11.0
 40
11.0
 40
11.0
 40
12.0
 40
12.0
 40
12.0
 40
13.0
 40
13.0
 40
13.0
 40
13.0
 10
87.45030379758187
 20
-118.0348279869844
 30
0.0
 10
87.21741534277898
 20
-118.1936468888544
 30
0.0
 10
87.11785208325526
 20
-118.2677164417872
 30
0.0
 10
87.06617565097652
 20
-118.4113769235222
 30
0.0
 10
87.06617565097652
 20
-118.4113769235222
 30
0.0
 10
87.89782170111583
 20
-118.4113769235222
 30
0.0
 10
87.89782170111583
 20
-118.4113769235222
 30
0.0
 10
87.89782170111583
 20
-118.4113769235222
 30
0.0
 10
87.89782170111583
 20
-118.6167046144431
 30
0.0
 10
87.89782170111583
 20
-118.6167046144431
 30
0.0
 10
87.89782170111583
 20
-118.6167046144431
 30
0.0
 10
86.79918075086965
 20
-118.6167046144431
 30
0.0
 10
86.79918075086965
 20
-118.6167046144431
 30
0.0
 10
86.83328719617363
 20
-118.2591037030741
 30
0.0
 10
86.9032226345242
 20
-118.1809000355589
 30
0.0
 10
87.31456703546303
 20
-117.8825547665363
 30
0.0
 10
87.58810761699186
 20
-117.6837727570374
 30
0.0
 10
87.65838756489096
 20
-117.6160766307522
 30
0.0
 10
87.65838756489096
 20
-117.4786173208908
 30
0.0
 10
87.65838756489096
 20
-117.3601060361982
 30
0.0
 10
87.5815619355699
 20
-117.2290201529844
 30
0.0
 10
87.37106660142112
 20
-117.2290201529844
 30
0.0
 10
87.09304739576146
 20
-117.2290201529844
 30
0.0
 10
87.08409014749981
 20
-117.4594970409476
 30
0.0
 10
87.079611523369
 20
-117.5759412683491
 30
0.0
 10
87.079611523369
 20
-117.5759412683491
 30
0.0
 10
86.8398328775956
 20
-117.5759412683491
 30
0.0
 10
86.8398328775956
 20
-117.5759412683491
 30
0.0
 10
86.84913463540578
 20
-117.4489894997176
 30
0.0
 10
86.86015894095857
 20
-117.3368516416727
 30
0.0
 10
86.94628632808983
 20
-117.2183403569801
 30
0.0
 10
87.06376408413684
 20
-117.0576266525932
 30
0.0
 10
87.26254609363576
 20
-117.0236924620635
 30
0.0
 10
87.38691404065328
 20
-117.0236924620635
 30
0.0
 10
87.68319225238476
 20
-117.0236924620635
 30
0.0
 10
87.90471189208633
 20
-117.2078328157501
 30
0.0
 10
87.90471189208633
 20
-117.4806843781819
 30
0.0
 10
87.90471189208633
 20
-117.709094208854
 30
0.0
 10
87.78034394506881
 20
-117.8086574683777
 30
0.0
 10
87.45030379758187
 20
-118.0348279869844
 30
0.0
  0
HATCH
  5
CC
330
C5
100
AcDbEntity
  8
_U+30EC_U+30A4_U+30E4_U+30FC 1
 62
   179
420
  2234388
100
AcDbHatch
 10
0.0
 20
0.0
 30
0.0
210
0.0
220
0.0
230
1.0
  2
SOLID
 70
     1
 71
     0
 91
        1
 92
        1
 93
        1
 72
     4
 94
        3
 73
     0
 74
     1
 95
       44
 96
       40
 40
0.0
 40
0.0
 40
0.0
 40
0.0
 40
1.0
 40
1.0
 40
1.0
 40
2.0
 40
2.0
 40
2.0
 40
3.0
 40
3.0
 40
3.0
 40
4.0
 40
4.0
 40
4.0
 40
5.0
 40
5.0
 40
5.0
 40
6.0
 40
6.0
 40
6.0
 40
7.0
 40
7.0
 40
7.0
 40
8.0
 40
8.0
 40
8.0
 40
9.0
 40
9.0
 40
9.0
 40
10.0
 40
10.0
 40
10.0
 40
11.0
 40
11.0
 40
11.0
 40
12.0
 40
12.0
 40
12.0
 40
13.0
 40
13.0
 40
13.0
 40
13.0
 10
87.45030379758187
 20
-118.0348279869844
 10
87.21741534277898
 20
-118.1936468888544
 10
87.11785208325526
 20
-118.2677164417872
 10
87.06617565097652
 20
-118.4113769235222
 10
87.06617565097652
 20
-118.4113769235222
 10
87.89782170111583
 20
-118.4113769235222
 10
87.89782170111583
 20
-118.4113769235222
 10
87.89782170111583
 20
-118.4113769235222
 10
87.89782170111583
 20
-118.6167046144431
 10
87.89782170111583
 20
-118.6167046144431
 10
87.89782170111583
 20
-118.6167046144431
 10
86.79918075086965
 20
-118.6167046144431
 10
86.79918075086965
 20
-118.6167046144431
 10
86.83328719617363
 20
-118.2591037030741
 10
86.9032226345242
 20
-118.1809000355589
 10
87.31456703546303
 20
-117.8825547665363
 10
87.58810761699186
 20
-117.6837727570374
 10
87.65838756489096
 20
-117.6160766307522
 10
87.65838756489096
 20
-117.4786173208908
 10
87.65838756489096
 20
-117.3601060361982
 10
87.5815619355699
 20
-117.2290201529844
 10
87.37106660142112
 20
-117.2290201529844
 10
87.09304739576146
 20
-117.2290201529844
 10
87.08409014749981
 20
-117.4594970409476
 10
87.079611523369
 20
-117.5759412683491
 10
87.079611523369
 20
-117.5759412683491
 10
86.8398328775956
 20
-117.5759412683491
 10
86.8398328775956
 20
-117.5759412683491
 10
86.84913463540578
 20
-117.4489894997176
 10
86.86015894095857
 20
-117.3368516416727
 10
86.94628632808983
 20
-117.2183403569801
 10
87.06376408413684
 20
-117.0576266525932
 10
87.26254609363576
 20
-117.0236924620635
 10
87.38691404065328
 20
-117.0236924620635
 10
87.68319225238476
 20
-117.0236924620635
 10
87.90471189208633
 20
-117.2078328157501
 10
87.90471189208633
 20
-117.4806843781819
 10
87.90471189208633
 20
-117.709094208854
 10
87.78034394506881
 20
-117.8086574683777
 10
87.45030379758187
 20
-118.0348279869844
 97
        0
 97
        0
 75
     2
 76
     1
 98
        0
  0
ENDBLK
  5
C8
330
C5
100
AcDbEntity
  8
0
100
AcDbBlockEnd
  0
BLOCK
  5
DB
330
D9
100
AcDbEntity
  8
0
100
AcDbBlockBegin
  2
block 5
 70
     0
 10
0.0
 20
0.0
 30
0.0
  3
block 5
  1

  0
SPLINE
  5
DD
330
D9
100
AcDbEntity
  8
_U+30EC_U+30A4_U+30E4_U+30FC 1
370
     0
100
AcDbSpline
210
0.0
220
0.0
230
1.0
 70
    11
 71
     3
 72
    26
 73
    22
 74
     0
 42
0.0000000001
 43
0.0000000001
 12
1.0
 22
0.0
 32
0.0
 13
1.0
 23
0.0
 33
0.0
 40
0.0
 40
0.0
 40
0.0
 40
0.0
 40
1.0
 40
1.0
 40
1.0
 40
2.0
 40
2.0
 40
2.0
 40
3.0
 40
3.0
 40
3.0
 40
4.0
 40
4.0
 40
4.0
 40
5.0
 40
5.0
 40
5.0
 40
6.0
 40
6.0
 40
6.0
 40
7.0
 40
7.0
 40
7.0
 40
7.0
 10
76.12093503956352
 20
-138.2220540019028
 30
0.0
 10
76.12093503956352
 20
-138.2220540019028
 30
0.0
 10
75.01660968176668
 20
-138.2220540019028
 30
0.0
 10
75.01660968176668
 20
-138.2220540019028
 30
0.0
 10
75.01660968176668
 20
-138.2220540019028
 30
0.0
 10
75.01660968176668
 20
-138.5744872700439
 30
0.0
 10
75.01660968176668
 20
-138.5744872700439
 30
0.0
 10
75.01660968176668
 20
-138.5744872700439
 30
0.0
 10
74.86847057590094
 20
-138.5744872700439
 30
0.0
 10
74.86847057590094
 20
-138.5744872700439
 30
0.0
 10
74.85382892008863
 20
-138.2196424350632
 30
0.0
 10
74.69087590363631
 20
-138.1700330600756
 30
0.0
 10
74.57667098830028
 20
-138.1383381816113
 30
0.0
 10
74.57667098830028
 20
-138.1383381816113
 30
0.0
 10
74.57667098830028
 20
-137.9822753561294
 30
0.0
 10
74.57667098830028
 20
-137.9822753561294
 30
0.0
 10
74.57667098830028
 20
-137.9822753561294
 30
0.0
 10
76.12093503956352
 20
-137.9822753561294
 30
0.0
 10
76.12093503956352
 20
-137.9822753561294
 30
0.0
 10
76.12093503956352
 20
-137.9822753561294
 30
0.0
 10
76.12093503956352
 20
-138.2220540019028
 30
0.0
 10
76.12093503956352
 20
-138.2220540019028
 30
0.0
  0
HATCH
  5
DE
330
D9
100
AcDbEntity
  8
_U+30EC_U+30A4_U+30E4_U+30FC 1
 62
   179
420
  2234388
100
AcDbHatch
 10
0.0
 20
0.0
 30
0.0
210
0.0
220
0.0
230
1.0
  2
SOLID
 70
     1
 71
     0
 91
        1
 92
        1
 93
        1
 72
     4
 94
        3
 73
     0
 74
     1
 95
       26
 96
       22
 40
0.0
 40
0.0
 40
0.0
 40
0.0
 40
1.0
 40
1.0
 40
1.0
 40
2.0
 40
2.0
 40
2.0
 40
3.0
 40
3.0
 40
3.0
 40
4.0
 40
4.0
 40
4.0
 40
5.0
 40
5.0
 40
5.0
 40
6.0
 40
6.0
 40
6.0
 40
7.0
 40
7.0
 40
7.0
 40
7.0
 10
76.12093503956352
 20
-138.2220540019028
 10
76.12093503956352
 20
-138.2220540019028
 10
75.01660968176668
 20
-138.2220540019028
 10
75.01660968176668
 20
-138.2220540019028
 10
75.01660968176668
 20
-138.2220540019028
 10
75.01660968176668
 20
-138.5744872700439
 10
75.01660968176668
 20
-138.5744872700439
 10
75.01660968176668
 20
-138.5744872700439
 10
74.86847057590094
 20
-138.5744872700439
 10
74.86847057590094
 20
-138.5744872700439
 10
74.85382892008863
 20
-138.2196424350632
 10
74.69087590363631
 20
-138.1700330600756
 10
74.57667098830028
 20
-138.1383381816113
 10
74.57667098830028
 20
-138.1383381816113
 10
74.57667098830028
 20
-137.9822753561294
 10
74.57667098830028
 20
-137.9822753561294
 10
74.57667098830028
 20
-137.9822753561294
 10
76.12093503956352
 20
-137.9822753561294
 10
76.12093503956352
 20
-137.9822753561294
 10
76.12093503956352
 20
-137.9822753561294
 10
76.12093503956352
 20
-138.2220540019028
 10
76.12093503956352
 20
-138.2220540019028
 97
        0
 97
        0
 75
     2
 76
     1
 98
        0
  0
ENDBLK
  5
DC
330
D9
100
AcDbEntity
  8
0
100
AcDbBlockEnd
  0
BLOCK
  5
ED
330
EB
100
AcDbEntity
  8
0
100
AcDbBlockBegin
  2
block 6
 70
     0
 10
0.0
 20
0.0
 30
0.0
  3
block 6
  1

  0
SPLINE
  5
EF
330
EB
100
AcDbEntity
  8
_U+30EC_U+30A4_U+30E4_U+30FC 1
370
     0
100
AcDbSpline
210
0.0
220
0.0
230
1.0
 70
    11
 71
     3
 72
    26
 73
    22
 74
     0
 42
0.0000000001
 43
0.0000000001
 12
1.0
 22
0.0
 32
0.0
 13
1.0
 23
0.0
 33
0.0
 40
0.0
 40
0.0
 40
0.0
 40
0.0
 40
1.0
 40
1.0
 40
1.0
 40
2.0
 40
2.0
 40
2.0
 40
3.0
 40
3.0
 40
3.0
 40
4.0
 40
4.0
 40
4.0
 40
5.0
 40
5.0
 40
5.0
 40
6.0
 40
6.0
 40
6.0
 40
7.0
 40
7.0
 40
7.0
 40
7.0
 10
100.1651177049934
 20
-129.916273296514
 30
0.0
 10
100.1651177049934
 20
-129.916273296514
 30
0.0
 10
99.91190318682759
 20
-129.916273296514
 30
0.0
 10
99.91190318682759
 20
-129.916273296514
 30
0.0
 10
99.93877493161253
 20
-129.6072482314871
 30
0.0
 10
100.1447916416305
 20
-129.0891058705055
 30
0.0
 10
100.5788736727719
 20
-128.5835381080451
 30
0.0
 10
100.5788736727719
 20
-128.5835381080451
 30
0.0
 10
99.68349335615552
 20
-128.5835381080451
 30
0.0
 10
99.68349335615552
 20
-128.5835381080451
 30
0.0
 10
99.68349335615552
 20
-128.5835381080451
 30
0.0
 10
99.68349335615552
 20
-128.3720092452508
 30
0.0
 10
99.68349335615552
 20
-128.3720092452508
 30
0.0
 10
99.68349335615552
 20
-128.3720092452508
 30
0.0
 10
100.8320881909378
 20
-128.3720092452508
 30
0.0
 10
100.8320881909378
 20
-128.3720092452508
 30
0.0
 10
100.8320881909378
 20
-128.3720092452508
 30
0.0
 10
100.8320881909378
 20
-128.5835381080451
 30
0.0
 10
100.8320881909378
 20
-128.5835381080451
 30
0.0
 10
100.4862006042187
 20
-128.8734428931289
 30
0.0
 10
100.2012912075886
 20
-129.4656548070433
 30
0.0
 10
100.1651177049934
 20
-129.916273296514
 30
0.0
  0
HATCH
  5
F0
330
EB
100
AcDbEntity
  8
_U+30EC_U+30A4_U+30E4_U+30FC 1
 62
   179
420
  2234388
100
AcDbHatch
 10
0.0
 20
0.0
 30
0.0
210
0.0
220
0.0
230
1.0
  2
SOLID
 70
     1
 71
     0
 91
        1
 92
        1
 93
        1
 72
     4
 94
        3
 73
     0
 74
     1
 95
       26
 96
       22
 40
0.0
 40
0.0
 40
0.0
 40
0.0
 40
1.0
 40
1.0
 40
1.0
 40
2.0
 40
2.0
 40
2.0
 40
3.0
 40
3.0
 40
3.0
 40
4.0
 40
4.0
 40
4.0
 40
5.0
 40
5.0
 40
5.0
 40
6.0
 40
6.0
 40
6.0
 40
7.0
 40
7.0
 40
7.0
 40
7.0
 10
100.1651177049934
 20
-129.916273296514
 10
100.1651177049934
 20
-129.916273296514
 10
99.91190318682759
 20
-129.916273296514
 10
99.91190318682759
 20
-129.916273296514
 10
99.93877493161253
 20
-129.6072482314871
 10
100.1447916416305
 20
-129.0891058705055
 10
100.5788736727719
 20
-128.5835381080451
 10
100.5788736727719
 20
-128.5835381080451
 10
99.68349335615552
 20
-128.5835381080451
 10
99.68349335615552
 20
-128.5835381080451
 10
99.68349335615552
 20
-128.5835381080451
 10
99.68349335615552
 20
-128.3720092452508
 10
99.68349335615552
 20
-128.3720092452508
 10
99.68349335615552
 20
-128.3720092452508
 10
100.8320881909378
 20
-128.3720092452508
 10
100.8320881909378
 20
-128.3720092452508
 10
100.8320881909378
 20
-128.3720092452508
 10
100.8320881909378
 20
-128.5835381080451
 10
100.8320881909378
 20
-128.5835381080451
 10
100.4862006042187
 20
-128.8734428931289
 10
100.2012912075886
 20
-129.4656548070433
 10
100.1651177049934
 20
-129.916273296514
 97
        0
 97
        0
 75
     2
 76
     1
 98
        0
  0
ENDBLK
  5
EE
330
EB
100
AcDbEntity
  8
0
100
AcDbBlockEnd
  0
BLOCK
  5
FF
330
FD
100
AcDbEntity
  8
0
100
AcDbBlockBegin
  2
block 7
 70
     0
 10
0.0
 20
0.0
 30
0.0
  3
block 7
  1

  0
SPLINE
  5
101
330
FD
100
AcDbEntity
  8
_U+30EC_U+30A4_U+30E4_U+30FC 1
370
     0
100
AcDbSpline
210
0.0
220
0.0
230
1.0
 70
    11
 71
     3
 72
    26
 73
    22
 74
     0
 42
0.0000000001
 43
0.0000000001
 12
1.0
 22
0.0
 32
0.0
 13
1.0
 23
0.0
 33
0.0
 40
0.0
 40
0.0
 40
0.0
 40
0.0
 40
1.0
 40
1.0
 40
1.0
 40
2.0
 40
2.0
 40
2.0
 40
3.0
 40
3.0
 40
3.0
 40
4.0
 40
4.0
 40
4.0
 40
5.0
 40
5.0
 40
5.0
 40
6.0
 40
6.0
 40
6.0
 40
7.0
 40
7.0
 40
7.0
 40
7.0
 10
76.12024602046647
 20
-129.888712532632
 30
0.0
 10
76.12024602046647
 20
-129.888712532632
 30
0.0
 10
75.01592066266963
 20
-129.888712532632
 30
0.0
 10
75.01592066266963
 20
-129.888712532632
 30
0.0
 10
75.01592066266963
 20
-129.888712532632
 30
0.0
 10
75.01592066266963
 20
-130.241145800773
 30
0.0
 10
75.01592066266963
 20
-130.241145800773
 30
0.0
 10
75.01592066266963
 20
-130.241145800773
 30
0.0
 10
74.86778155680389
 20
-130.241145800773
 30
0.0
 10
74.86778155680389
 20
-130.241145800773
 30
0.0
 10
74.85313990099158
 20
-129.8863009657923
 30
0.0
 10
74.69018688453926
 20
-129.8366915908047
 30
0.0
 10
74.57598196920323
 20
-129.8049967123404
 30
0.0
 10
74.57598196920323
 20
-129.8049967123404
 30
0.0
 10
74.57598196920323
 20
-129.6489338868586
 30
0.0
 10
74.57598196920323
 20
-129.6489338868586
 30
0.0
 10
74.57598196920323
 20
-129.6489338868586
 30
0.0
 10
76.12024602046647
 20
-129.6489338868586
 30
0.0
 10
76.12024602046647
 20
-129.6489338868586
 30
0.0
 10
76.12024602046647
 20
-129.6489338868586
 30
0.0
 10
76.12024602046647
 20
-129.888712532632
 30
0.0
 10
76.12024602046647
 20
-129.888712532632
 30
0.0
  0
HATCH
  5
102
330
FD
100
AcDbEntity
  8
_U+30EC_U+30A4_U+30E4_U+30FC 1
 62
   179
420
  2234388
100
AcDbHatch
 10
0.0
 20
0.0
 30
0.0
210
0.0
220
0.0
230
1.0
  2
SOLID
 70
     1
 71
     0
 91
        1
 92
        1
 93
        1
 72
     4
 94
        3
 73
     0
 74
     1
 95
       26
 96
       22
 40
0.0
 40
0.0
 40
0.0
 40
0.0
 40
1.0
 40
1.0
 40
1.0
 40
2.0
 40
2.0
 40
2.0
 40
3.0
 40
3.0
 40
3.0
 40
4.0
 40
4.0
 40
4.0
 40
5.0
 40
5.0
 40
5.0
 40
6.0
 40
6.0
 40
6.0
 40
7.0
 40
7.0
 40
7.0
 40
7.0
 10
76.12024602046647
 20
-129.888712532632
 10
76.12024602046647
 20
-129.888712532632
 10
75.01592066266963
 20
-129.888712532632
 10
75.01592066266963
 20
-129.888712532632
 10
75.01592066266963
 20
-129.888712532632
 10
75.01592066266963
 20
-130.241145800773
 10
75.01592066266963
 20
-130.241145800773
 10
75.01592066266963
 20
-130.241145800773
 10
74.86778155680389
 20
-130.241145800773
 10
74.86778155680389
 20
-130.241145800773
 10
74.85313990099158
 20
-129.8863009657923
 10
74.69018688453926
 20
-129.8366915908047
 10
74.57598196920323
 20
-129.8049967123404
 10
74.57598196920323
 20
-129.8049967123404
 10
74.57598196920323
 20
-129.6489338868586
 10
74.57598196920323
 20
-129.6489338868586
 10
74.57598196920323
 20
-129.6489338868586
 10
76.12024602046647
 20
-129.6489338868586
 10
76.12024602046647
 20
-129.6489338868586
 10
76.12024602046647
 20
-129.6489338868586
 10
76.12024602046647
 20
-129.888712532632
 10
76.12024602046647
 20
-129.888712532632
 97
        0
 97
        0
 75
     2
 76
     1
 98
        0
  0
SPLINE
  5
103
330
FD
100
AcDbEntity
  8
_U+30EC_U+30A4_U+30E4_U+30FC 1
370
     0
100
AcDbSpline
210
0.0
220
0.0
230
1.0
 70
    11
 71
     3
 72
    29
 73
    25
 74
     0
 42
0.0000000001
 43
0.0000000001
 12
1.0
 22
0.0
 32
0.0
 13
1.0
 23
0.0
 33
0.0
 40
0.0
 40
0.0
 40
0.0
 40
0.0
 40
1.0
 40
1.0
 40
1.0
 40
2.0
 40
2.0
 40
2.0
 40
3.0
 40
3.0
 40
3.0
 40
4.0
 40
4.0
 40
4.0
 40
5.0
 40
5.0
 40
5.0
 40
6.0
 40
6.0
 40
6.0
 40
7.0
 40
7.0
 40
7.0
 40
8.0
 40
8.0
 40
8.0
 40
8.0
 10
75.94247909342758
 20
-128.1537624462602
 30
0.0
 10
76.15194089893077
 20
-128.2691731450161
 30
0.0
 10
76.1710611788739
 20
-128.4545192821225
 30
0.0
 10
76.1710611788739
 20
-128.57888722914
 30
0.0
 10
76.1710611788739
 20
-128.7504529843054
 30
0.0
 10
76.12455238982304
 20
-128.9020371856564
 30
0.0
 10
75.94247909342758
 20
-129.0036675024713
 30
0.0
 10
75.74800345328522
 20
-129.1145995770964
 30
0.0
 10
75.51098088390003
 20
-129.1349256404593
 30
0.0
 10
75.34802786744771
 20
-129.1349256404593
 30
0.0
 10
75.20419513093854
 20
-129.1349256404593
 30
0.0
 10
74.95253090574104
 20
-129.1166666343875
 30
0.0
 10
74.75357664146786
 20
-129.0036675024713
 30
0.0
 10
74.55048826261238
 20
-128.888601313264
 30
0.0
 10
74.52723386808694
 20
-128.71669104855
 30
0.0
 10
74.52723386808694
 20
-128.57888722914
 30
0.0
 10
74.52723386808694
 20
-128.4090440217172
 30
0.0
 10
74.57167559984667
 20
-128.255392763075
 30
0.0
 10
74.75357664146786
 20
-128.1537624462602
 30
0.0
 10
74.94615747909333
 20
-128.0473089957659
 30
0.0
 10
75.1745673097654
 20
-128.0225043082721
 30
0.0
 10
75.34802786744771
 20
-128.0225043082721
 30
0.0
 10
75.5194213678389
 20
-128.0225043082721
 30
0.0
 10
75.75007051057638
 20
-128.0452419384748
 30
0.0
 10
75.94247909342758
 20
-128.1537624462602
 30
0.0
  0
SPLINE
  5
104
330
FD
100
AcDbEntity
  8
_U+30EC_U+30A4_U+30E4_U+30FC 1
370
     0
100
AcDbSpline
210
0.0
220
0.0
230
1.0
 70
    11
 71
     3
 72
    17
 73
    13
 74
     0
 42
0.0000000001
 43
0.0000000001
 12
1.0
 22
0.0
 32
0.0
 13
1.0
 23
0.0
 33
0.0
 40
0.0
 40
0.0
 40
0.0
 40
0.0
 40
1.0
 40
1.0
 40
1.0
 40
2.0
 40
2.0
 40
2.0
 40
3.0
 40
3.0
 40
3.0
 40
4.0
 40
4.0
 40
4.0
 40
4.0
 10
74.71981470571241
 20
-128.57888722914
 30
0.0
 10
74.71981470571241
 20
-128.8455376196983
 30
0.0
 10
75.0031738093742
 20
-128.8951469946859
 30
0.0
 10
75.34802786744771
 20
-128.8951469946859
 30
0.0
 10
75.66756047370464
 20
-128.8951469946859
 30
0.0
 10
75.97641328395729
 20
-128.8569064347997
 30
0.0
 10
75.97641328395729
 20
-128.57888722914
 30
0.0
 10
75.97641328395729
 20
-128.3143038958728
 30
0.0
 10
75.69494898281238
 20
-128.2622829540456
 30
0.0
 10
75.34802786744771
 20
-128.2622829540456
 30
0.0
 10
75.02866751596505
 20
-128.2622829540456
 30
0.0
 10
74.71981470571241
 20
-128.3029350807715
 30
0.0
 10
74.71981470571241
 20
-128.57888722914
 30
0.0
  0
HATCH
  5
105
330
FD
100
AcDbEntity
  8
_U+30EC_U+30A4_U+30E4_U+30FC 1
 62
   179
420
  2234388
100
AcDbHatch
 10
0.0
 20
0.0
 30
0.0
210
0.0
220
0.0
230
1.0
  2
SOLID
 70
     1
 71
     0
 91
        2
 92
        1
 93
        1
 72
     4
 94
        3
 73
     0
 74
     1
 95
       29
 96
       25
 40
0.0
 40
0.0
 40
0.0
 40
0.0
 40
1.0
 40
1.0
 40
1.0
 40
2.0
 40
2.0
 40
2.0
 40
3.0
 40
3.0
 40
3.0
 40
4.0
 40
4.0
 40
4.0
 40
5.0
 40
5.0
 40
5.0
 40
6.0
 40
6.0
 40
6.0
 40
7.0
 40
7.0
 40
7.0
 40
8.0
 40
8.0
 40
8.0
 40
8.0
 10
75.94247909342758
 20
-128.1537624462602
 10
76.15194089893077
 20
-128.2691731450161
 10
76.1710611788739
 20
-128.4545192821225
 10
76.1710611788739
 20
-128.57888722914
 10
76.1710611788739
 20
-128.7504529843054
 10
76.12455238982304
 20
-128.9020371856564
 10
75.94247909342758
 20
-129.0036675024713
 10
75.74800345328522
 20
-129.1145995770964
 10
75.51098088390003
 20
-129.1349256404593
 10
75.34802786744771
 20
-129.1349256404593
 10
75.20419513093854
 20
-129.1349256404593
 10
74.95253090574104
 20
-129.1166666343875
 10
74.75357664146786
 20
-129.0036675024713
 10
74.55048826261238
 20
-128.888601313264
 10
74.52723386808694
 20
-128.71669104855
 10
74.52723386808694
 20
-128.57888722914
 10
74.52723386808694
 20
-128.4090440217172
 10
74.57167559984667
 20
-128.255392763075
 10
74.75357664146786
 20
-128.1537624462602
 10
74.94615747909333
 20
-128.0473089957659
 10
75.1745673097654
 20
-128.0225043082721
 10
75.34802786744771
 20
-128.0225043082721
 10
75.5194213678389
 20
-128.0225043082721
 10
75.75007051057638
 20
-128.0452419384748
 10
75.94247909342758
 20
-128.1537624462602
 97
        0
 97
        0
 92
        1
 93
        1
 72
     4
 94
        3
 73
     0
 74
     1
 95
       17
 96
       13
 40
0.0
 40
0.0
 40
0.0
 40
0.0
 40
1.0
 40
1.0
 40
1.0
 40
2.0
 40
2.0
 40
2.0
 40
3.0
 40
3.0
 40
3.0
 40
4.0
 40
4.0
 40
4.0
 40
4.0
 10
74.71981470571241
 20
-128.57888722914
 10
74.71981470571241
 20
-128.8455376196983
 10
75.0031738093742
 20
-128.8951469946859
 10
75.34802786744771
 20
-128.8951469946859
 10
75.66756047370464
 20
-128.8951469946859
 10
75.97641328395729
 20
-128.8569064347997
 10
75.97641328395729
 20
-128.57888722914
 10
75.97641328395729
 20
-128.3143038958728
 10
75.69494898281238
 20
-128.2622829540456
 10
75.34802786744771
 20
-128.2622829540456
 10
75.02866751596505
 20
-128.2622829540456
 10
74.71981470571241
 20
-128.3029350807715
 10
74.71981470571241
 20
-128.57888722914
 97
        0
 97
        0
 75
     2
 76
     1
 98
        0
  0
ENDBLK
  5
100
330
FD
100
AcDbEntity
  8
0
100
AcDbBlockEnd
  0
ENDSEC
  0
SECTION
  2
ENTITIES
  0
POLYLINE
  5
41
330
1F
100
AcDbEntity
  8
_U+30EC_U+30A4_U+30E4_U+30FC 1
 62
   179
420
  2234388
370
    25
100
AcDb2dPolyline
 66
     1
 10
0.0
 20
0.0
 30
0.0
  0
VERTEX
  5
42
330
41
100
AcDbEntity
  8
_U+30EC_U+30A4_U+30E4_U+30FC 1
 62
   179
420
  2234388
370
    25
100
AcDbVertex
100
AcDb2dVertex
 10
81.08152515366018
 20
-134.2122946886689
 30
0.0
  0
VERTEX
  5
43
330
41
100
AcDbEntity
  8
_U+30EC_U+30A4_U+30E4_U+30FC 1
 62
   179
420
  2234388
370
    25
100
AcDbVertex
100
AcDb2dVertex
 10
86.21747775622332
 20
-134.2122946886689
 30
0.0
  0
SEQEND
  5
44
330
41
100
AcDbEntity
  8
_U+30EC_U+30A4_U+30E4_U+30FC 1
 62
   179
420
  2234388
370
    25
  0
POLYLINE
  5
45
330
1F
100
AcDbEntity
  8
_U+30EC_U+30A4_U+30E4_U+30FC 1
 62
   179
420
  2234388
370
    25
100
AcDb2dPolyline
 66
     1
 10
0.0
 20
0.0
 30
0.0
  0
VERTEX
  5
46
330
45
100
AcDbEntity
  8
_U+30EC_U+30A4_U+30E4_U+30FC 1
 62
   179
420
  2234388
370
    25
100
AcDbVertex
100
AcDb2dVertex
 10
80.71703516295909
 20
-124.2125616356136
 30
0.0
  0
VERTEX
  5
47
330
45
100
AcDbEntity
  8
_U+30EC_U+30A4_U+30E4_U+30FC 1
 62
   179
420
  2234388
370
    25
100
AcDbVertex
100
AcDb2dVertex
 10
86.21747775622332
 20
-124.2125616356136
 30
0.0
  0
SEQEND
  5
48
330
45
100
AcDbEntity
  8
_U+30EC_U+30A4_U+30E4_U+30FC 1
 62
   179
420
  2234388
370
    25
  0
POLYLINE
  5
49
330
1F
100
AcDbEntity
  8
_U+30EC_U+30A4_U+30E4_U+30FC 1
 62
   179
420
  2234388
370
    25
100
AcDb2dPolyline
 66
     1
 10
0.0
 20
0.0
 30
0.0
  0
VERTEX
  5
4A
330
49
100
AcDbEntity
  8
_U+30EC_U+30A4_U+30E4_U+30FC 1
 62
   179
420
  2234388
370
    25
100
AcDbVertex
100
AcDb2dVertex
 10
81.08152515366018
 20
-123.2124719136415
 30
0.0
  0
VERTEX
  5
4B
330
49
100
AcDbEntity
  8
_U+30EC_U+30A4_U+30E4_U+30FC 1
 62
   179
420
  2234388
370
    25
100
AcDbVertex
100
AcDb2dVertex
 10
92.35337458831357
 20
-123.2124719136415
 30
0.0
  0
SEQEND
  5
4C
330
49
100
AcDbEntity
  8
_U+30EC_U+30A4_U+30E4_U+30FC 1
 62
   179
420
  2234388
370
    25
  0
POLYLINE
  5
4D
330
1F
100
AcDbEntity
  8
_U+30EC_U+30A4_U+30E4_U+30FC 1
 62
   179
420
  2234388
370
    25
100
AcDb2dPolyline
 66
     1
 10
0.0
 20
0.0
 30
0.0
  0
VERTEX
  5
4E
330
4D
100
AcDbEntity
  8
_U+30EC_U+30A4_U+30E4_U+30FC 1
 62
   179
420
  2234388
370
    25
100
AcDbVertex
100
AcDb2dVertex
 10
80.71703516295909
 20
-135.2124196884192
 30
0.0
  0
VERTEX
  5
4F
330
4D
100
AcDbEntity
  8
_U+30EC_U+30A4_U+30E4_U+30FC 1
 62
   179
420
  2234388
370
    25
100
AcDbVertex
100
AcDb2dVertex
 10
103.717372196293
 20
-135.2124196884192
 30
0.0
  0
SEQEND
  5
50
330
4D
100
AcDbEntity
  8
_U+30EC_U+30A4_U+30E4_U+30FC 1
 62
   179
420
  2234388
370
    25
  0
POLYLINE
  5
51
330
1F
100
AcDbEntity
  8
_U+30EC_U+30A4_U+30E4_U+30FC 1
 62
   179
420
  2234388
370
    25
100
AcDb2dPolyline
 66
     1
 10
0.0
 20
0.0
 30
0.0
  0
VERTEX
  5
52
330
51
100
AcDbEntity
  8
_U+30EC_U+30A4_U+30E4_U+30FC 1
 62
   179
420
  2234388
370
    25
100
AcDbVertex
100
AcDb2dVertex
 10
97.01734363599248
 20
-134.5123674663722
 30
0.0
  0
VERTEX
  5
53
330
51
100
AcDbEntity
  8
_U+30EC_U+30A4_U+30E4_U+30FC 1
 62
   179
420
  2234388
370
    25
100
AcDbVertex
100
AcDb2dVertex
 10
103.4624170826761
 20
-134.5123674663722
 30
0.0
  0
SEQEND
  5
54
330
51
100
AcDbEntity
  8
_U+30EC_U+30A4_U+30E4_U+30FC 1
 62
   179
420
  2234388
370
    25
  0
POLYLINE
  5
55
330
1F
100
AcDbEntity
  8
_U+30EC_U+30A4_U+30E4_U+30FC 1
 62
   179
420
  2234388
370
    25
100
AcDb2dPolyline
 66
     1
 10
0.0
 20
0.0
 30
0.0
  0
VERTEX
  5
56
330
55
100
AcDbEntity
  8
_U+30EC_U+30A4_U+30E4_U+30FC 1
 62
   179
420
  2234388
370
    25
100
AcDbVertex
100
AcDb2dVertex
 10
92.35337458831357
 20
-123.2124719136415
 30
0.0
  0
VERTEX
  5
57
330
55
100
AcDbEntity
  8
_U+30EC_U+30A4_U+30E4_U+30FC 1
 62
   179
420
  2234388
370
    25
100
AcDbVertex
100
AcDb2dVertex
 10
92.7171590234771
 20
-124.2125616356136
 30
0.0
  0
SEQEND
  5
58
330
55
100
AcDbEntity
  8
_U+30EC_U+30A4_U+30E4_U+30FC 1
 62
   179
420
  2234388
370
    25
  0
POLYLINE
  5
59
330
1F
100
AcDbEntity
  8
_U+30EC_U+30A4_U+30E4_U+30FC 1
 62
   179
420
  2234388
370
    25
100
AcDb2dPolyline
 66
     1
 10
0.0
 20
0.0
 30
0.0
  0
VERTEX
  5
5A
330
59
100
AcDbEntity
  8
_U+30EC_U+30A4_U+30E4_U+30FC 1
 62
   179
420
  2234388
370
    25
100
AcDbVertex
100
AcDb2dVertex
 10
103.4624170826761
 20
-134.5123674663722
 30
0.0
  0
VERTEX
  5
5B
330
59
100
AcDbEntity
  8
_U+30EC_U+30A4_U+30E4_U+30FC 1
 62
   179
420
  2234388
370
    25
100
AcDbVertex
100
AcDb2dVertex
 10
103.717372196293
 20
-135.2124196884192
 30
0.0
  0
SEQEND
  5
5C
330
59
100
AcDbEntity
  8
_U+30EC_U+30A4_U+30E4_U+30FC 1
 62
   179
420
  2234388
370
    25
  0
POLYLINE
  5
5D
330
1F
100
AcDbEntity
  8
_U+30EC_U+30A4_U+30E4_U+30FC 1
 62
   179
420
  2234388
370
    25
100
AcDb2dPolyline
 66
     1
 10
0.0
 20
0.0
 30
0.0
  0
VERTEX
  5
5E
330
5D
100
AcDbEntity
  8
_U+30EC_U+30A4_U+30E4_U+30FC 1
 62
   179
420
  2234388
370
    25
100
AcDbVertex
100
AcDb2dVertex
 10
96.71762364363896
 20
-134.2122946886689
 30
0.0
  0
VERTEX
  5
5F
330
5D
100
AcDbEntity
  8
_U+30EC_U+30A4_U+30E4_U+30FC 1
 62
   179
420
  2234388
370
    25
100
AcDbVertex
100
AcDb2dVertex
 10
97.01734363599248
 20
-134.5123674663722
 30
0.0
  0
SEQEND
  5
60
330
5D
100
AcDbEntity
  8
_U+30EC_U+30A4_U+30E4_U+30FC 1
 62
   179
420
  2234388
370
    25
  0
POLYLINE
  5
61
330
1F
100
AcDbEntity
  8
_U+30EC_U+30A4_U+30E4_U+30FC 1
 62
   179
420
  2234388
370
    25
100
AcDb2dPolyline
 66
     1
 10
0.0
 20
0.0
 30
0.0
  0
VERTEX
  5
62
330
61
100
AcDbEntity
  8
_U+30EC_U+30A4_U+30E4_U+30FC 1
 62
   179
420
  2234388
370
    25
100
AcDbVertex
100
AcDb2dVertex
 10
80.71703516295909
 20
-124.2125616356136
 30
0.0
  0
VERTEX
  5
63
330
61
100
AcDbEntity
  8
_U+30EC_U+30A4_U+30E4_U+30FC 1
 62
   179
420
  2234388
370
    25
100
AcDbVertex
100
AcDb2dVertex
 10
81.08152515366018
 20
-123.2124719136415
 30
0.0
  0
SEQEND
  5
64
330
61
100
AcDbEntity
  8
_U+30EC_U+30A4_U+30E4_U+30FC 1
 62
   179
420
  2234388
370
    25
  0
POLYLINE
  5
65
330
1F
100
AcDbEntity
  8
_U+30EC_U+30A4_U+30E4_U+30FC 1
 62
   179
420
  2234388
370
    25
100
AcDb2dPolyline
 66
     1
 10
0.0
 20
0.0
 30
0.0
  0
VERTEX
  5
66
330
65
100
AcDbEntity
  8
_U+30EC_U+30A4_U+30E4_U+30FC 1
 62
   179
420
  2234388
370
    25
100
AcDbVertex
100
AcDb2dVertex
 10
80.71703516295909
 20
-135.2124196884192
 30
0.0
  0
VERTEX
  5
67
330
65
100
AcDbEntity
  8
_U+30EC_U+30A4_U+30E4_U+30FC 1
 62
   179
420
  2234388
370
    25
100
AcDbVertex
100
AcDb2dVertex
 10
81.08152515366018
 20
-134.2122946886689
 30
0.0
  0
SEQEND
  5
68
330
65
100
AcDbEntity
  8
_U+30EC_U+30A4_U+30E4_U+30FC 1
 62
   179
420
  2234388
370
    25
  0
POLYLINE
  5
69
330
1F
100
AcDbEntity
  8
_U+30EC_U+30A4_U+30E4_U+30FC 1
 62
   179
420
  2234388
370
    25
100
AcDb2dPolyline
 66
     1
 10
0.0
 20
0.0
 30
0.0
  0
VERTEX
  5
6A
330
69
100
AcDbEntity
  8
_U+30EC_U+30A4_U+30E4_U+30FC 1
 62
   179
420
  2234388
370
    25
100
AcDbVertex
100
AcDb2dVertex
 10
86.21747775622332
 20
-124.2125616356136
 30
0.0
  0
VERTEX
  5
6B
330
69
100
AcDbEntity
  8
_U+30EC_U+30A4_U+30E4_U+30FC 1
 62
   179
420
  2234388
370
    25
100
AcDbVertex
100
AcDb2dVertex
 10
86.21747775622332
 20
-134.2122946886689
 30
0.0
  0
SEQEND
  5
6C
330
69
100
AcDbEntity
  8
_U+30EC_U+30A4_U+30E4_U+30FC 1
 62
   179
420
  2234388
370
    25
  0
POLYLINE
  5
6D
330
1F
100
AcDbEntity
  8
_U+30EC_U+30A4_U+30E4_U+30FC 1
 62
   179
420
  2234388
370
    25
100
AcDb2dPolyline
 66
     1
 10
0.0
 20
0.0
 30
0.0
  0
VERTEX
  5
6E
330
6D
100
AcDbEntity
  8
_U+30EC_U+30A4_U+30E4_U+30FC 1
 62
   179
420
  2234388
370
    25
100
AcDbVertex
100
AcDb2dVertex
 10
87.21724997819554
 20
-124.2125616356136
 30
0.0
  0
VERTEX
  5
6F
330
6D
100
AcDbEntity
  8
_U+30EC_U+30A4_U+30E4_U+30FC 1
 62
   179
420
  2234388
370
    25
100
AcDbVertex
100
AcDb2dVertex
 10
87.21724997819554
 20
-134.2122946886689
 30
0.0
  0
SEQEND
  5
70
330
6D
100
AcDbEntity
  8
_U+30EC_U+30A4_U+30E4_U+30FC 1
 62
   179
420
  2234388
370
    25
  0
POLYLINE
  5
71
330
1F
100
AcDbEntity
  8
_U+30EC_U+30A4_U+30E4_U+30FC 1
 62
   179
420
  2234388
370
    25
100
AcDb2dPolyline
 66
     1
 10
0.0
 20
0.0
 30
0.0
  0
VERTEX
  5
72
330
71
100
AcDbEntity
  8
_U+30EC_U+30A4_U+30E4_U+30FC 1
 62
   179
420
  2234388
370
    25
100
AcDbVertex
100
AcDb2dVertex
 10
87.21724997819554
 20
-124.2125616356136
 30
0.0
  0
VERTEX
  5
73
330
71
100
AcDbEntity
  8
_U+30EC_U+30A4_U+30E4_U+30FC 1
 62
   179
420
  2234388
370
    25
100
AcDbVertex
100
AcDb2dVertex
 10
92.7171590234771
 20
-124.2125616356136
 30
0.0
  0
SEQEND
  5
74
330
71
100
AcDbEntity
  8
_U+30EC_U+30A4_U+30E4_U+30FC 1
 62
   179
420
  2234388
370
    25
  0
POLYLINE
  5
75
330
1F
100
AcDbEntity
  8
_U+30EC_U+30A4_U+30E4_U+30FC 1
 62
   179
420
  2234388
370
    25
100
AcDb2dPolyline
 66
     1
 10
0.0
 20
0.0
 30
0.0
  0
VERTEX
  5
76
330
75
100
AcDbEntity
  8
_U+30EC_U+30A4_U+30E4_U+30FC 1
 62
   179
420
  2234388
370
    25
100
AcDbVertex
100
AcDb2dVertex
 10
87.21724997819554
 20
-134.2122946886689
 30
0.0
  0
VERTEX
  5
77
330
75
100
AcDbEntity
  8
_U+30EC_U+30A4_U+30E4_U+30FC 1
 62
   179
420
  2234388
370
    25
100
AcDbVertex
100
AcDb2dVertex
 10
96.71762364363896
 20
-134.2122946886689
 30
0.0
  0
SEQEND
  5
78
330
75
100
AcDbEntity
  8
_U+30EC_U+30A4_U+30E4_U+30FC 1
 62
   179
420
  2234388
370
    25
  0
SPLINE
  5
79
330
1F
100
AcDbEntity
  8
_U+30EC_U+30A4_U+30E4_U+30FC 1
 62
   179
420
  2234388
370
     9
100
AcDbSpline
210
0.0
220
0.0
230
1.0
 70
    11
 71
     3
 72
    17
 73
    13
 74
     0
 42
0.0000000001
 43
0.0000000001
 12
1.0
 22
0.0
 32
0.0
 13
1.0
 23
0.0
 33
0.0
 40
0.0
 40
0.0
 40
0.0
 40
0.0
 40
1.0
 40
1.0
 40
1.0
 40
2.0
 40
2.0
 40
2.0
 40
3.0
 40
3.0
 40
3.0
 40
4.0
 40
4.0
 40
4.0
 40
4.0
 10
107.8170027508234
 20
-134.5123674663722
 30
0.0
 10
107.8170027508234
 20
-134.4572635774966
 30
0.0
 10
107.7722325282791
 20
-134.4124607997299
 30
0.0
 10
107.7170933630191
 20
-134.4124607997299
 30
0.0
 10
107.661989475536
 20
-134.4124607997299
 30
0.0
 10
107.6171866989013
 20
-134.4572635774966
 30
0.0
 10
107.6171866989013
 20
-134.5123674663722
 30
0.0
 10
107.6171866989013
 20
-134.5678241330249
 30
0.0
 10
107.661989475536
 20
-134.6126269107916
 30
0.0
 10
107.7170933630191
 20
-134.6126269107916
 30
0.0
 10
107.7722325282791
 20
-134.6126269107916
 30
0.0
 10
107.8170027508234
 20
-134.5678241330249
 30
0.0
 10
107.8170027508234
 20
-134.5123674663722
 30
0.0
  0
SPLINE
  5
7A
330
1F
100
AcDbEntity
  8
_U+30EC_U+30A4_U+30E4_U+30FC 1
 62
   179
420
  2234388
370
     9
100
AcDbSpline
210
0.0
220
0.0
230
1.0
 70
    11
 71
     3
 72
    17
 73
    13
 74
     0
 42
0.0000000001
 43
0.0000000001
 12
1.0
 22
0.0
 32
0.0
 13
1.0
 23
0.0
 33
0.0
 40
0.0
 40
0.0
 40
0.0
 40
0.0
 40
1.0
 40
1.0
 40
1.0
 40
2.0
 40
2.0
 40
2.0
 40
3.0
 40
3.0
 40
3.0
 40
4.0
 40
4.0
 40
4.0
 40
4.0
 10
107.8170027508234
 20
-135.2124196884192
 30
0.0
 10
107.8170027508234
 20
-135.1572805217661
 30
0.0
 10
107.7722325282791
 20
-135.1125130217775
 30
0.0
 10
107.7170933630191
 20
-135.1125130217775
 30
0.0
 10
107.661989475536
 20
-135.1125130217775
 30
0.0
 10
107.6171866989013
 20
-135.1572805217661
 30
0.0
 10
107.6171866989013
 20
-135.2124196884192
 30
0.0
 10
107.6171866989013
 20
-135.2675235772941
 30
0.0
 10
107.661989475536
 20
-135.3123263550608
 30
0.0
 10
107.7170933630191
 20
-135.3123263550608
 30
0.0
 10
107.7722325282791
 20
-135.3123263550608
 30
0.0
 10
107.8170027508234
 20
-135.2675235772941
 30
0.0
 10
107.8170027508234
 20
-135.2124196884192
 30
0.0
  0
SPLINE
  5
7B
330
1F
100
AcDbEntity
  8
_U+30EC_U+30A4_U+30E4_U+30FC 1
 62
   179
420
  2234388
370
     9
100
AcDbSpline
210
0.0
220
0.0
230
1.0
 70
    11
 71
     3
 72
    17
 73
    13
 74
     0
 42
0.0000000001
 43
0.0000000001
 12
1.0
 22
0.0
 32
0.0
 13
1.0
 23
0.0
 33
0.0
 40
0.0
 40
0.0
 40
0.0
 40
0.0
 40
1.0
 40
1.0
 40
1.0
 40
2.0
 40
2.0
 40
2.0
 40
3.0
 40
3.0
 40
3.0
 40
4.0
 40
4.0
 40
4.0
 40
4.0
 10
103.8172762402895
 20
-139.2125316318638
 30
0.0
 10
103.8172762402895
 20
-139.1573924652107
 30
0.0
 10
103.7724734636547
 20
-139.1126249652216
 30
0.0
 10
103.717372196293
 20
-139.1126249652216
 30
0.0
 10
103.6622304109117
 20
-139.1126249652216
 30
0.0
 10
103.6174629120538
 20
-139.1573924652107
 30
0.0
 10
103.6174629120538
 20
-139.2125316318638
 30
0.0
 10
103.6174629120538
 20
-139.2676355207387
 30
0.0
 10
103.6622304109117
 20
-139.3124382985055
 30
0.0
 10
103.717372196293
 20
-139.3124382985055
 30
0.0
 10
103.7724734636547
 20
-139.3124382985055
 30
0.0
 10
103.8172762402895
 20
-139.2676355207387
 30
0.0
 10
103.8172762402895
 20
-139.2125316318638
 30
0.0
  0
SPLINE
  5
7C
330
1F
100
AcDbEntity
  8
_U+30EC_U+30A4_U+30E4_U+30FC 1
 62
   179
420
  2234388
370
     9
100
AcDbSpline
210
0.0
220
0.0
230
1.0
 70
    11
 71
     3
 72
    17
 73
    13
 74
     0
 42
0.0000000001
 43
0.0000000001
 12
1.0
 22
0.0
 32
0.0
 13
1.0
 23
0.0
 33
0.0
 40
0.0
 40
0.0
 40
0.0
 40
0.0
 40
1.0
 40
1.0
 40
1.0
 40
2.0
 40
2.0
 40
2.0
 40
3.0
 40
3.0
 40
3.0
 40
4.0
 40
4.0
 40
4.0
 40
4.0
 10
76.81718276245262
 20
-124.2125616356136
 30
0.0
 10
76.81718276245262
 20
-124.1574577467384
 30
0.0
 10
76.77241526359474
 20
-124.112654968972
 30
0.0
 10
76.71727609833478
 20
-124.112654968972
 30
0.0
 10
76.66217221085171
 20
-124.112654968972
 30
0.0
 10
76.61736943421695
 20
-124.1574577467384
 30
0.0
 10
76.61736943421695
 20
-124.2125616356136
 30
0.0
 10
76.61736943421695
 20
-124.2677008022664
 30
0.0
 10
76.66217221085171
 20
-124.3124683022553
 30
0.0
 10
76.71727609833478
 20
-124.3124683022553
 30
0.0
 10
76.77241526359474
 20
-124.3124683022553
 30
0.0
 10
76.81718276245262
 20
-124.2677008022664
 30
0.0
 10
76.81718276245262
 20
-124.2125616356136
 30
0.0
  0
SPLINE
  5
7D
330
1F
100
AcDbEntity
  8
_U+30EC_U+30A4_U+30E4_U+30FC 1
 62
   179
420
  2234388
370
     9
100
AcDbSpline
210
0.0
220
0.0
230
1.0
 70
    11
 71
     3
 72
    17
 73
    13
 74
     0
 42
0.0000000001
 43
0.0000000001
 12
1.0
 22
0.0
 32
0.0
 13
1.0
 23
0.0
 33
0.0
 40
0.0
 40
0.0
 40
0.0
 40
0.0
 40
1.0
 40
1.0
 40
1.0
 40
2.0
 40
2.0
 40
2.0
 40
3.0
 40
3.0
 40
3.0
 40
4.0
 40
4.0
 40
4.0
 40
4.0
 10
76.81718276245262
 20
-134.2122946886689
 30
0.0
 10
76.81718276245262
 20
-134.157190799794
 30
0.0
 10
76.77241526359474
 20
-134.1123880220272
 30
0.0
 10
76.71727609833478
 20
-134.1123880220272
 30
0.0
 10
76.66217221085171
 20
-134.1123880220272
 30
0.0
 10
76.61736943421695
 20
-134.157190799794
 30
0.0
 10
76.61736943421695
 20
-134.2122946886689
 30
0.0
 10
76.61736943421695
 20
-134.2677866330997
 30
0.0
 10
76.66217221085171
 20
-134.3125541330883
 30
0.0
 10
76.71727609833478
 20
-134.3125541330883
 30
0.0
 10
76.77241526359474
 20
-134.3125541330883
 30
0.0
 10
76.81718276245262
 20
-134.2677866330997
 30
0.0
 10
76.81718276245262
 20
-134.2122946886689
 30
0.0
  0
SPLINE
  5
7E
330
1F
100
AcDbEntity
  8
_U+30EC_U+30A4_U+30E4_U+30FC 1
 62
   179
420
  2234388
370
     9
100
AcDbSpline
210
0.0
220
0.0
230
1.0
 70
    11
 71
     3
 72
    17
 73
    13
 74
     0
 42
0.0000000001
 43
0.0000000001
 12
1.0
 22
0.0
 32
0.0
 13
1.0
 23
0.0
 33
0.0
 40
0.0
 40
0.0
 40
0.0
 40
0.0
 40
1.0
 40
1.0
 40
1.0
 40
2.0
 40
2.0
 40
2.0
 40
3.0
 40
3.0
 40
3.0
 40
4.0
 40
4.0
 40
4.0
 40
4.0
 10
76.81718276245262
 20
-135.2124196884192
 30
0.0
 10
76.81718276245262
 20
-135.1572805217661
 30
0.0
 10
76.77241526359474
 20
-135.1125130217775
 30
0.0
 10
76.71727609833478
 20
-135.1125130217775
 30
0.0
 10
76.66217221085171
 20
-135.1125130217775
 30
0.0
 10
76.61736943421695
 20
-135.1572805217661
 30
0.0
 10
76.61736943421695
 20
-135.2124196884192
 30
0.0
 10
76.61736943421695
 20
-135.2675235772941
 30
0.0
 10
76.66217221085171
 20
-135.3123263550608
 30
0.0
 10
76.71727609833478
 20
-135.3123263550608
 30
0.0
 10
76.77241526359474
 20
-135.3123263550608
 30
0.0
 10
76.81718276245262
 20
-135.2675235772941
 30
0.0
 10
76.81718276245262
 20
-135.2124196884192
 30
0.0
  0
SPLINE
  5
7F
330
1F
100
AcDbEntity
  8
_U+30EC_U+30A4_U+30E4_U+30FC 1
 62
   179
420
  2234388
370
     9
100
AcDbSpline
210
0.0
220
0.0
230
1.0
 70
    11
 71
     3
 72
    17
 73
    13
 74
     0
 42
0.0000000001
 43
0.0000000001
 12
1.0
 22
0.0
 32
0.0
 13
1.0
 23
0.0
 33
0.0
 40
0.0
 40
0.0
 40
0.0
 40
0.0
 40
1.0
 40
1.0
 40
1.0
 40
2.0
 40
2.0
 40
2.0
 40
3.0
 40
3.0
 40
3.0
 40
4.0
 40
4.0
 40
4.0
 40
4.0
 10
80.81694182707693
 20
-139.2125316318638
 30
0.0
 10
80.81694182707693
 20
-139.1573924652107
 30
0.0
 10
80.77213905044216
 20
-139.1126249652216
 30
0.0
 10
80.71703516295909
 20
-139.1126249652216
 30
0.0
 10
80.66189599769915
 20
-139.1126249652216
 30
0.0
 10
80.61713053540119
 20
-139.1573924652107
 30
0.0
 10
80.61713053540119
 20
-139.2125316318638
 30
0.0
 10
80.61713053540119
 20
-139.2676355207387
 30
0.0
 10
80.66189599769915
 20
-139.3124382985055
 30
0.0
 10
80.71703516295909
 20
-139.3124382985055
 30
0.0
 10
80.77213905044216
 20
-139.3124382985055
 30
0.0
 10
80.81694182707693
 20
-139.2676355207387
 30
0.0
 10
80.81694182707693
 20
-139.2125316318638
 30
0.0
  0
SPLINE
  5
80
330
1F
100
AcDbEntity
  8
_U+30EC_U+30A4_U+30E4_U+30FC 1
 62
   179
420
  2234388
370
     9
100
AcDbSpline
210
0.0
220
0.0
230
1.0
 70
    11
 71
     3
 72
    17
 73
    13
 74
     0
 42
0.0000000001
 43
0.0000000001
 12
1.0
 22
0.0
 32
0.0
 13
1.0
 23
0.0
 33
0.0
 40
0.0
 40
0.0
 40
0.0
 40
0.0
 40
1.0
 40
1.0
 40
1.0
 40
2.0
 40
2.0
 40
2.0
 40
3.0
 40
3.0
 40
3.0
 40
4.0
 40
4.0
 40
4.0
 40
4.0
 10
92.81706568759493
 20
-119.2123599701968
 30
0.0
 10
92.81706568759493
 20
-119.1572560813219
 30
0.0
 10
92.77229818873705
 20
-119.1124533035552
 30
0.0
 10
92.7171590234771
 20
-119.1124533035552
 30
0.0
 10
92.66205513599402
 20
-119.1124533035552
 30
0.0
 10
92.61725235935926
 20
-119.1572560813219
 30
0.0
 10
92.61725235935926
 20
-119.2123599701968
 30
0.0
 10
92.61725235935926
 20
-119.2674991368499
 30
0.0
 10
92.66205513599402
 20
-119.3122666368385
 30
0.0
 10
92.7171590234771
 20
-119.3122666368385
 30
0.0
 10
92.77229818873705
 20
-119.3122666368385
 30
0.0
 10
92.81706568759493
 20
-119.2674991368499
 30
0.0
 10
92.81706568759493
 20
-119.2123599701968
 30
0.0
  0
SPLINE
  5
81
330
1F
100
AcDbEntity
  8
_U+30EC_U+30A4_U+30E4_U+30FC 1
 62
   179
420
  2234388
370
     9
100
AcDbSpline
210
0.0
220
0.0
230
1.0
 70
    11
 71
     3
 72
    17
 73
    13
 74
     0
 42
0.0000000001
 43
0.0000000001
 12
1.0
 22
0.0
 32
0.0
 13
1.0
 23
0.0
 33
0.0
 40
0.0
 40
0.0
 40
0.0
 40
0.0
 40
1.0
 40
1.0
 40
1.0
 40
2.0
 40
2.0
 40
2.0
 40
3.0
 40
3.0
 40
3.0
 40
4.0
 40
4.0
 40
4.0
 40
4.0
 10
80.81694182707693
 20
-119.2123599701968
 30
0.0
 10
80.81694182707693
 20
-119.1572560813219
 30
0.0
 10
80.77213905044216
 20
-119.1124533035552
 30
0.0
 10
80.71703516295909
 20
-119.1124533035552
 30
0.0
 10
80.66189599769915
 20
-119.1124533035552
 30
0.0
 10
80.61713053540119
 20
-119.1572560813219
 30
0.0
 10
80.61713053540119
 20
-119.2123599701968
 30
0.0
 10
80.61713053540119
 20
-119.2674991368499
 30
0.0
 10
80.66189599769915
 20
-119.3122666368385
 30
0.0
 10
80.71703516295909
 20
-119.3122666368385
 30
0.0
 10
80.77213905044216
 20
-119.3122666368385
 30
0.0
 10
80.81694182707693
 20
-119.2674991368499
 30
0.0
 10
80.81694182707693
 20
-119.2123599701968
 30
0.0
  0
SPLINE
  5
82
330
1F
100
AcDbEntity
  8
_U+30EC_U+30A4_U+30E4_U+30FC 1
 62
   179
420
  2234388
370
     9
100
AcDbSpline
210
0.0
220
0.0
230
1.0
 70
    11
 71
     3
 72
    17
 73
    13
 74
     0
 42
0.0000000001
 43
0.0000000001
 12
1.0
 22
0.0
 32
0.0
 13
1.0
 23
0.0
 33
0.0
 40
0.0
 40
0.0
 40
0.0
 40
0.0
 40
1.0
 40
1.0
 40
1.0
 40
2.0
 40
2.0
 40
2.0
 40
3.0
 40
3.0
 40
3.0
 40
4.0
 40
4.0
 40
4.0
 40
4.0
 10
103.8172762402895
 20
-130.5122908007051
 30
0.0
 10
103.8172762402895
 20
-130.4571516340526
 30
0.0
 10
103.7724734636547
 20
-130.4123841340634
 30
0.0
 10
103.717372196293
 20
-130.4123841340634
 30
0.0
 10
103.6622304109117
 20
-130.4123841340634
 30
0.0
 10
103.6174629120538
 20
-130.4571516340526
 30
0.0
 10
103.6174629120538
 20
-130.5122908007051
 30
0.0
 10
103.6174629120538
 20
-130.5677474673584
 30
0.0
 10
103.6622304109117
 20
-130.612514967347
 30
0.0
 10
103.717372196293
 20
-130.612514967347
 30
0.0
 10
103.7724734636547
 20
-130.612514967347
 30
0.0
 10
103.8172762402895
 20
-130.5677474673584
 30
0.0
 10
103.8172762402895
 20
-130.5122908007051
 30
0.0
  0
SPLINE
  5
83
330
1F
100
AcDbEntity
  8
_U+30EC_U+30A4_U+30E4_U+30FC 1
 62
   179
420
  2234388
370
     9
100
AcDbSpline
210
0.0
220
0.0
230
1.0
 70
    11
 71
     3
 72
    17
 73
    13
 74
     0
 42
0.0000000001
 43
0.0000000001
 12
1.0
 22
0.0
 32
0.0
 13
1.0
 23
0.0
 33
0.0
 40
0.0
 40
0.0
 40
0.0
 40
0.0
 40
1.0
 40
1.0
 40
1.0
 40
2.0
 40
2.0
 40
2.0
 40
3.0
 40
3.0
 40
3.0
 40
4.0
 40
4.0
 40
4.0
 40
4.0
 10
96.8175303077568
 20
-130.5122908007051
 30
0.0
 10
96.8175303077568
 20
-130.4571516340526
 30
0.0
 10
96.77272753112203
 20
-130.4123841340634
 30
0.0
 10
96.71762364363896
 20
-130.4123841340634
 30
0.0
 10
96.66181664250136
 20
-130.4123841340634
 30
0.0
 10
96.61701386473464
 20
-130.4571516340526
 30
0.0
 10
96.61701386473464
 20
-130.5122908007051
 30
0.0
 10
96.61701386473464
 20
-130.5677474673584
 30
0.0
 10
96.66181664250136
 20
-130.612514967347
 30
0.0
 10
96.71762364363896
 20
-130.612514967347
 30
0.0
 10
96.77272753112203
 20
-130.612514967347
 30
0.0
 10
96.8175303077568
 20
-130.5677474673584
 30
0.0
 10
96.8175303077568
 20
-130.5122908007051
 30
0.0
  0
POLYLINE
  5
84
330
1F
100
AcDbEntity
  8
_U+30EC_U+30A4_U+30E4_U+30FC 1
 62
   179
420
  2234388
370
     9
100
AcDb2dPolyline
 66
     1
 10
0.0
 20
0.0
 30
0.0
  0
VERTEX
  5
85
330
84
100
AcDbEntity
  8
_U+30EC_U+30A4_U+30E4_U+30FC 1
 62
   179
420
  2234388
370
     9
100
AcDbVertex
100
AcDb2dVertex
 10
107.7170933630191
 20
-135.2124196884192
 30
0.0
  0
VERTEX
  5
86
330
84
100
AcDbEntity
  8
_U+30EC_U+30A4_U+30E4_U+30FC 1
 62
   179
420
  2234388
370
     9
100
AcDbVertex
100
AcDb2dVertex
 10
107.7170933630191
 20
-140.4703255204381
 30
0.0
  0
SEQEND
  5
87
330
84
100
AcDbEntity
  8
_U+30EC_U+30A4_U+30E4_U+30FC 1
 62
   179
420
  2234388
370
     9
  0
POLYLINE
  5
88
330
1F
100
AcDbEntity
  8
_U+30EC_U+30A4_U+30E4_U+30FC 1
 62
   179
420
  2234388
370
     9
100
AcDb2dPolyline
 66
     1
 10
0.0
 20
0.0
 30
0.0
  0
VERTEX
  5
89
330
88
100
AcDbEntity
  8
_U+30EC_U+30A4_U+30E4_U+30FC 1
 62
   179
420
  2234388
370
     9
100
AcDbVertex
100
AcDb2dVertex
 10
107.7170933630191
 20
-135.2124196884192
 30
0.0
  0
VERTEX
  5
8A
330
88
100
AcDbEntity
  8
_U+30EC_U+30A4_U+30E4_U+30FC 1
 62
   179
420
  2234388
370
     9
100
AcDbVertex
100
AcDb2dVertex
 10
107.7170933630191
 20
-133.5125952443996
 30
0.0
  0
SEQEND
  5
8B
330
88
100
AcDbEntity
  8
_U+30EC_U+30A4_U+30E4_U+30FC 1
 62
   179
420
  2234388
370
     9
  0
POLYLINE
  5
8C
330
1F
100
AcDbEntity
  8
_U+30EC_U+30A4_U+30E4_U+30FC 1
 62
   179
420
  2234388
370
     9
100
AcDb2dPolyline
 66
     1
 10
0.0
 20
0.0
 30
0.0
  0
VERTEX
  5
8D
330
8C
100
AcDbEntity
  8
_U+30EC_U+30A4_U+30E4_U+30FC 1
 62
   179
420
  2234388
370
     9
100
AcDbVertex
100
AcDb2dVertex
 10
106.2570872891559
 20
-135.2124196884192
 30
0.0
  0
VERTEX
  5
8E
330
8C
100
AcDbEntity
  8
_U+30EC_U+30A4_U+30E4_U+30FC 1
 62
   179
420
  2234388
370
     9
100
AcDbVertex
100
AcDb2dVertex
 10
108.7175711152726
 20
-135.2124196884192
 30
0.0
  0
SEQEND
  5
8F
330
8C
100
AcDbEntity
  8
_U+30EC_U+30A4_U+30E4_U+30FC 1
 62
   179
420
  2234388
370
     9
  0
POLYLINE
  5
90
330
1F
100
AcDbEntity
  8
_U+30EC_U+30A4_U+30E4_U+30FC 1
 62
   179
420
  2234388
370
     9
100
AcDb2dPolyline
 66
     1
 10
0.0
 20
0.0
 30
0.0
  0
VERTEX
  5
91
330
90
100
AcDbEntity
  8
_U+30EC_U+30A4_U+30E4_U+30FC 1
 62
   179
420
  2234388
370
     9
100
AcDbVertex
100
AcDb2dVertex
 10
106.0028403511978
 20
-134.5123674663722
 30
0.0
  0
VERTEX
  5
92
330
90
100
AcDbEntity
  8
_U+30EC_U+30A4_U+30E4_U+30FC 1
 62
   179
420
  2234388
370
     9
100
AcDbVertex
100
AcDb2dVertex
 10
108.7175711152726
 20
-134.5123674663722
 30
0.0
  0
SEQEND
  5
93
330
90
100
AcDbEntity
  8
_U+30EC_U+30A4_U+30E4_U+30FC 1
 62
   179
420
  2234388
370
     9
  0
INSERT
  5
95
330
1F
100
AcDbEntity
  8
_U+30EC_U+30A4_U+30E4_U+30FC 1
100
AcDbBlockReference
  2
block 2
 10
0.0
 20
0.0
 30
0.0
  0
POLYLINE
  5
A5
330
1F
100
AcDbEntity
  8
_U+30EC_U+30A4_U+30E4_U+30FC 1
 62
   179
420
  2234388
370
     9
100
AcDb2dPolyline
 66
     1
 10
0.0
 20
0.0
 30
0.0
  0
VERTEX
  5
A6
330
A5
100
AcDbEntity
  8
_U+30EC_U+30A4_U+30E4_U+30FC 1
 62
   179
420
  2234388
370
     9
100
AcDbVertex
100
AcDb2dVertex
 10
80.71703516295909
 20
-139.2125316318638
 30
0.0
  0
VERTEX
  5
A7
330
A5
100
AcDbEntity
  8
_U+30EC_U+30A4_U+30E4_U+30FC 1
 62
   179
420
  2234388
370
     9
100
AcDbVertex
100
AcDb2dVertex
 10
103.717372196293
 20
-139.2125316318638
 30
0.0
  0
SEQEND
  5
A8
330
A5
100
AcDbEntity
  8
_U+30EC_U+30A4_U+30E4_U+30FC 1
 62
   179
420
  2234388
370
     9
  0
POLYLINE
  5
A9
330
1F
100
AcDbEntity
  8
_U+30EC_U+30A4_U+30E4_U+30FC 1
 62
   179
420
  2234388
370
     9
100
AcDb2dPolyline
 66
     1
 10
0.0
 20
0.0
 30
0.0
  0
VERTEX
  5
AA
330
A9
100
AcDbEntity
  8
_U+30EC_U+30A4_U+30E4_U+30FC 1
 62
   179
420
  2234388
370
     9
100
AcDbVertex
100
AcDb2dVertex
 10
80.71703516295909
 20
-137.7524902433395
 30
0.0
  0
VERTEX
  5
AB
330
A9
100
AcDbEntity
  8
_U+30EC_U+30A4_U+30E4_U+30FC 1
 62
   179
420
  2234388
370
     9
100
AcDbVertex
100
AcDb2dVertex
 10
80.71703516295909
 20
-140.212621353836
 30
0.0
  0
SEQEND
  5
AC
330
A9
100
AcDbEntity
  8
_U+30EC_U+30A4_U+30E4_U+30FC 1
 62
   179
420
  2234388
370
     9
  0
POLYLINE
  5
AD
330
1F
100
AcDbEntity
  8
_U+30EC_U+30A4_U+30E4_U+30FC 1
 62
   179
420
  2234388
370
     9
100
AcDb2dPolyline
 66
     1
 10
0.0
 20
0.0
 30
0.0
  0
VERTEX
  5
AE
330
AD
100
AcDbEntity
  8
_U+30EC_U+30A4_U+30E4_U+30FC 1
 62
   179
420
  2234388
370
     9
100
AcDbVertex
100
AcDb2dVertex
 10
103.717372196293
 20
-137.7524902433395
 30
0.0
  0
VERTEX
  5
AF
330
AD
100
AcDbEntity
  8
_U+30EC_U+30A4_U+30E4_U+30FC 1
 62
   179
420
  2234388
370
     9
100
AcDbVertex
100
AcDb2dVertex
 10
103.717372196293
 20
-140.212621353836
 30
0.0
  0
SEQEND
  5
B0
330
AD
100
AcDbEntity
  8
_U+30EC_U+30A4_U+30E4_U+30FC 1
 62
   179
420
  2234388
370
     9
  0
INSERT
  5
B2
330
1F
100
AcDbEntity
  8
_U+30EC_U+30A4_U+30E4_U+30FC 1
100
AcDbBlockReference
  2
block 3
 10
0.0
 20
0.0
 30
0.0
  0
POLYLINE
  5
B9
330
1F
100
AcDbEntity
  8
_U+30EC_U+30A4_U+30E4_U+30FC 1
 62
   179
420
  2234388
370
     9
100
AcDb2dPolyline
 66
     1
 10
0.0
 20
0.0
 30
0.0
  0
VERTEX
  5
BA
330
B9
100
AcDbEntity
  8
_U+30EC_U+30A4_U+30E4_U+30FC 1
 62
   179
420
  2234388
370
     9
100
AcDbVertex
100
AcDb2dVertex
 10
92.7171590234771
 20
-119.2123599701968
 30
0.0
  0
VERTEX
  5
BB
330
B9
100
AcDbEntity
  8
_U+30EC_U+30A4_U+30E4_U+30FC 1
 62
   179
420
  2234388
370
     9
100
AcDbVertex
100
AcDb2dVertex
 10
80.71703516295909
 20
-119.2123599701968
 30
0.0
  0
SEQEND
  5
BC
330
B9
100
AcDbEntity
  8
_U+30EC_U+30A4_U+30E4_U+30FC 1
 62
   179
420
  2234388
370
     9
  0
POLYLINE
  5
BD
330
1F
100
AcDbEntity
  8
_U+30EC_U+30A4_U+30E4_U+30FC 1
 62
   179
420
  2234388
370
     9
100
AcDb2dPolyline
 66
     1
 10
0.0
 20
0.0
 30
0.0
  0
VERTEX
  5
BE
330
BD
100
AcDbEntity
  8
_U+30EC_U+30A4_U+30E4_U+30FC 1
 62
   179
420
  2234388
370
     9
100
AcDbVertex
100
AcDb2dVertex
 10
92.7171590234771
 20
-121.672491080693
 30
0.0
  0
VERTEX
  5
BF
330
BD
100
AcDbEntity
  8
_U+30EC_U+30A4_U+30E4_U+30FC 1
 62
   179
420
  2234388
370
     9
100
AcDbVertex
100
AcDb2dVertex
 10
92.7171590234771
 20
-118.2125877482246
 30
0.0
  0
SEQEND
  5
C0
330
BD
100
AcDbEntity
  8
_U+30EC_U+30A4_U+30E4_U+30FC 1
 62
   179
420
  2234388
370
     9
  0
POLYLINE
  5
C1
330
1F
100
AcDbEntity
  8
_U+30EC_U+30A4_U+30E4_U+30FC 1
 62
   179
420
  2234388
370
     9
100
AcDb2dPolyline
 66
     1
 10
0.0
 20
0.0
 30
0.0
  0
VERTEX
  5
C2
330
C1
100
AcDbEntity
  8
_U+30EC_U+30A4_U+30E4_U+30FC 1
 62
   179
420
  2234388
370
     9
100
AcDbVertex
100
AcDb2dVertex
 10
80.71703516295909
 20
-121.672491080693
 30
0.0
  0
VERTEX
  5
C3
330
C1
100
AcDbEntity
  8
_U+30EC_U+30A4_U+30E4_U+30FC 1
 62
   179
420
  2234388
370
     9
100
AcDbVertex
100
AcDb2dVertex
 10
80.71703516295909
 20
-118.2125877482246
 30
0.0
  0
SEQEND
  5
C4
330
C1
100
AcDbEntity
  8
_U+30EC_U+30A4_U+30E4_U+30FC 1
 62
   179
420
  2234388
370
     9
  0
INSERT
  5
C6
330
1F
100
AcDbEntity
  8
_U+30EC_U+30A4_U+30E4_U+30FC 1
100
AcDbBlockReference
  2
block 4
 10
0.0
 20
0.0
 30
0.0
  0
POLYLINE
  5
CD
330
1F
100
AcDbEntity
  8
_U+30EC_U+30A4_U+30E4_U+30FC 1
 62
   179
420
  2234388
370
     9
100
AcDb2dPolyline
 66
     1
 10
0.0
 20
0.0
 30
0.0
  0
VERTEX
  5
CE
330
CD
100
AcDbEntity
  8
_U+30EC_U+30A4_U+30E4_U+30FC 1
 62
   179
420
  2234388
370
     9
100
AcDbVertex
100
AcDb2dVertex
 10
76.71727609833478
 20
-135.2124196884192
 30
0.0
  0
VERTEX
  5
CF
330
CD
100
AcDbEntity
  8
_U+30EC_U+30A4_U+30E4_U+30FC 1
 62
   179
420
  2234388
370
     9
100
AcDbVertex
100
AcDb2dVertex
 10
76.71727609833478
 20
-138.9827321874766
 30
0.0
  0
SEQEND
  5
D0
330
CD
100
AcDbEntity
  8
_U+30EC_U+30A4_U+30E4_U+30FC 1
 62
   179
420
  2234388
370
     9
  0
POLYLINE
  5
D1
330
1F
100
AcDbEntity
  8
_U+30EC_U+30A4_U+30E4_U+30FC 1
 62
   179
420
  2234388
370
     9
100
AcDb2dPolyline
 66
     1
 10
0.0
 20
0.0
 30
0.0
  0
VERTEX
  5
D2
330
D1
100
AcDbEntity
  8
_U+30EC_U+30A4_U+30E4_U+30FC 1
 62
   179
420
  2234388
370
     9
100
AcDbVertex
100
AcDb2dVertex
 10
76.71727609833478
 20
-134.2122946886689
 30
0.0
  0
VERTEX
  5
D3
330
D1
100
AcDbEntity
  8
_U+30EC_U+30A4_U+30E4_U+30FC 1
 62
   179
420
  2234388
370
     9
100
AcDbVertex
100
AcDb2dVertex
 10
76.71727609833478
 20
-135.2124196884192
 30
0.0
  0
SEQEND
  5
D4
330
D1
100
AcDbEntity
  8
_U+30EC_U+30A4_U+30E4_U+30FC 1
 62
   179
420
  2234388
370
     9
  0
POLYLINE
  5
D5
330
1F
100
AcDbEntity
  8
_U+30EC_U+30A4_U+30E4_U+30FC 1
 62
   179
420
  2234388
370
     9
100
AcDb2dPolyline
 66
     1
 10
0.0
 20
0.0
 30
0.0
  0
VERTEX
  5
D6
330
D5
100
AcDbEntity
  8
_U+30EC_U+30A4_U+30E4_U+30FC 1
 62
   179
420
  2234388
370
     9
100
AcDbVertex
100
AcDb2dVertex
 10
78.17731942489996
 20
-135.2124196884192
 30
0.0
  0
VERTEX
  5
D7
330
D5
100
AcDbEntity
  8
_U+30EC_U+30A4_U+30E4_U+30FC 1
 62
   179
420
  2234388
370
     9
100
AcDbVertex
100
AcDb2dVertex
 10
75.71750390161887
 20
-135.2124196884192
 30
0.0
  0
SEQEND
  5
D8
330
D5
100
AcDbEntity
  8
_U+30EC_U+30A4_U+30E4_U+30FC 1
 62
   179
420
  2234388
370
     9
  0
INSERT
  5
DA
330
1F
100
AcDbEntity
  8
_U+30EC_U+30A4_U+30E4_U+30FC 1
100
AcDbBlockReference
  2
block 5
 10
0.0
 20
0.0
 30
0.0
  0
POLYLINE
  5
DF
330
1F
100
AcDbEntity
  8
_U+30EC_U+30A4_U+30E4_U+30FC 1
 62
   179
420
  2234388
370
     9
100
AcDb2dPolyline
 66
     1
 10
0.0
 20
0.0
 30
0.0
  0
VERTEX
  5
E0
330
DF
100
AcDbEntity
  8
_U+30EC_U+30A4_U+30E4_U+30FC 1
 62
   179
420
  2234388
370
     9
100
AcDbVertex
100
AcDb2dVertex
 10
96.71762364363896
 20
-130.5122908007051
 30
0.0
  0
VERTEX
  5
E1
330
DF
100
AcDbEntity
  8
_U+30EC_U+30A4_U+30E4_U+30FC 1
 62
   179
420
  2234388
370
     9
100
AcDbVertex
100
AcDb2dVertex
 10
103.717372196293
 20
-130.5122908007051
 30
0.0
  0
SEQEND
  5
E2
330
DF
100
AcDbEntity
  8
_U+30EC_U+30A4_U+30E4_U+30FC 1
 62
   179
420
  2234388
370
     9
  0
POLYLINE
  5
E3
330
1F
100
AcDbEntity
  8
_U+30EC_U+30A4_U+30E4_U+30FC 1
 62
   179
420
  2234388
370
     9
100
AcDb2dPolyline
 66
     1
 10
0.0
 20
0.0
 30
0.0
  0
VERTEX
  5
E4
330
E3
100
AcDbEntity
  8
_U+30EC_U+30A4_U+30E4_U+30FC 1
 62
   179
420
  2234388
370
     9
100
AcDbVertex
100
AcDb2dVertex
 10
96.71762364363896
 20
-131.6725769115263
 30
0.0
  0
VERTEX
  5
E5
330
E3
100
AcDbEntity
  8
_U+30EC_U+30A4_U+30E4_U+30FC 1
 62
   179
420
  2234388
370
     9
100
AcDbVertex
100
AcDb2dVertex
 10
96.71762364363896
 20
-129.5125185787332
 30
0.0
  0
SEQEND
  5
E6
330
E3
100
AcDbEntity
  8
_U+30EC_U+30A4_U+30E4_U+30FC 1
 62
   179
420
  2234388
370
     9
  0
POLYLINE
  5
E7
330
1F
100
AcDbEntity
  8
_U+30EC_U+30A4_U+30E4_U+30FC 1
 62
   179
420
  2234388
370
     9
100
AcDb2dPolyline
 66
     1
 10
0.0
 20
0.0
 30
0.0
  0
VERTEX
  5
E8
330
E7
100
AcDbEntity
  8
_U+30EC_U+30A4_U+30E4_U+30FC 1
 62
   179
420
  2234388
370
     9
100
AcDbVertex
100
AcDb2dVertex
 10
103.717372196293
 20
-132.6723491334989
 30
0.0
  0
VERTEX
  5
E9
330
E7
100
AcDbEntity
  8
_U+30EC_U+30A4_U+30E4_U+30FC 1
 62
   179
420
  2234388
370
     9
100
AcDbVertex
100
AcDb2dVertex
 10
103.717372196293
 20
-129.5125185787332
 30
0.0
  0
SEQEND
  5
EA
330
E7
100
AcDbEntity
  8
_U+30EC_U+30A4_U+30E4_U+30FC 1
 62
   179
420
  2234388
370
     9
  0
INSERT
  5
EC
330
1F
100
AcDbEntity
  8
_U+30EC_U+30A4_U+30E4_U+30FC 1
100
AcDbBlockReference
  2
block 6
 10
0.0
 20
0.0
 30
0.0
  0
POLYLINE
  5
F1
330
1F
100
AcDbEntity
  8
_U+30EC_U+30A4_U+30E4_U+30FC 1
 62
   179
420
  2234388
370
     9
100
AcDb2dPolyline
 66
     1
 10
0.0
 20
0.0
 30
0.0
  0
VERTEX
  5
F2
330
F1
100
AcDbEntity
  8
_U+30EC_U+30A4_U+30E4_U+30FC 1
 62
   179
420
  2234388
370
     9
100
AcDbVertex
100
AcDb2dVertex
 10
76.71727609833478
 20
-124.2125616356136
 30
0.0
  0
VERTEX
  5
F3
330
F1
100
AcDbEntity
  8
_U+30EC_U+30A4_U+30E4_U+30FC 1
 62
   179
420
  2234388
370
     9
100
AcDbVertex
100
AcDb2dVertex
 10
76.71727609833478
 20
-134.2122946886689
 30
0.0
  0
SEQEND
  5
F4
330
F1
100
AcDbEntity
  8
_U+30EC_U+30A4_U+30E4_U+30FC 1
 62
   179
420
  2234388
370
     9
  0
POLYLINE
  5
F5
330
1F
100
AcDbEntity
  8
_U+30EC_U+30A4_U+30E4_U+30FC 1
 62
   179
420
  2234388
370
     9
100
AcDb2dPolyline
 66
     1
 10
0.0
 20
0.0
 30
0.0
  0
VERTEX
  5
F6
330
F5
100
AcDbEntity
  8
_U+30EC_U+30A4_U+30E4_U+30FC 1
 62
   179
420
  2234388
370
     9
100
AcDbVertex
100
AcDb2dVertex
 10
78.17731942489996
 20
-124.2125616356136
 30
0.0
  0
VERTEX
  5
F7
330
F5
100
AcDbEntity
  8
_U+30EC_U+30A4_U+30E4_U+30FC 1
 62
   179
420
  2234388
370
     9
100
AcDbVertex
100
AcDb2dVertex
 10
75.71750390161887
 20
-124.2125616356136
 30
0.0
  0
SEQEND
  5
F8
330
F5
100
AcDbEntity
  8
_U+30EC_U+30A4_U+30E4_U+30FC 1
 62
   179
420
  2234388
370
     9
  0
POLYLINE
  5
F9
330
1F
100
AcDbEntity
  8
_U+30EC_U+30A4_U+30E4_U+30FC 1
 62
   179
420
  2234388
370
     9
100
AcDb2dPolyline
 66
     1
 10
0.0
 20
0.0
 30
0.0
  0
VERTEX
  5
FA
330
F9
100
AcDbEntity
  8
_U+30EC_U+30A4_U+30E4_U+30FC 1
 62
   179
420
  2234388
370
     9
100
AcDbVertex
100
AcDb2dVertex
 10
78.54110188513845
 20
-134.2122946886689
 30
0.0
  0
VERTEX
  5
FB
330
F9
100
AcDbEntity
  8
_U+30EC_U+30A4_U+30E4_U+30FC 1
 62
   179
420
  2234388
370
     9
100
AcDbVertex
100
AcDb2dVertex
 10
75.71750390161887
 20
-134.2122946886689
 30
0.0
  0
SEQEND
  5
FC
330
F9
100
AcDbEntity
  8
_U+30EC_U+30A4_U+30E4_U+30FC 1
 62
   179
420
  2234388
370
     9
  0
INSERT
  5
FE
330
1F
100
AcDbEntity
  8
_U+30EC_U+30A4_U+30E4_U+30FC 1
100
AcDbBlockReference
  2
block 7
 10
0.0
 20
0.0
 30
0.0
  0
ENDSEC
  0
SECTION
  2
OBJECTS
  0
DICTIONARY
  5
C
330
0
100
AcDbDictionary
281
     1
  3
ACAD_GROUP
350
D
  3
ACAD_LAYOUT
350
1A
  3
ACAD_MATERIAL
350
3B
  3
ACAD_MLEADERSTYLE
350
107
  3
ACAD_MLINESTYLE
350
17
  3
ACAD_PLOTSETTINGS
350
19
  3
ACAD_PLOTSTYLENAME
350
E
  3
ACAD_TABLESTYLE
350
106
  3
ACAD_VISUALSTYLE
350
2A
  0
SUN
  5
3F
330
29
100
AcDbSun
 90
        1
290
     0
 63
     7
421
 16777215
 40
1.0
291
     1
 91
  2455826
 92
 54000000
292
     0
 70
     2
 71
   256
280
     1
  0
DICTIONARY
  5
D
102
{ACAD_REACTORS
330
C
102
}
330
C
100
AcDbDictionary
281
     1
  0
DICTIONARY
  5
1A
102
{ACAD_REACTORS
330
C
102
}
330
C
100
AcDbDictionary
281
     1
  3
Layout1
350
1E
  3
Layout2
350
26
  3
Model
350
22
  0
DICTIONARY
  5
3B
102
{ACAD_REACTORS
330
C
102
}
330
C
100
AcDbDictionary
281
     1
  3
ByBlock
350
3D
  3
ByLayer
350
3C
  3
Global
350
3E
  0
DICTIONARY
  5
107
102
{ACAD_REACTORS
330
C
102
}
330
C
100
AcDbDictionary
281
     1
  0
DICTIONARY
  5
17
102
{ACAD_REACTORS
330
C
102
}
330
C
100
AcDbDictionary
281
     1
  3
Standard
350
18
  0
DICTIONARY
  5
19
102
{ACAD_REACTORS
330
C
102
}
330
C
100
AcDbDictionary
281
     1
  0
ACDBDICTIONARYWDFLT
  5
E
102
{ACAD_REACTORS
330
C
102
}
330
C
100
AcDbDictionary
281
     1
  3
Normal
350
F
100
AcDbDictionaryWithDefault
340
F
  0
DICTIONARY
  5
106
102
{ACAD_REACTORS
330
C
102
}
330
C
100
AcDbDictionary
281
     1
  0
DICTIONARY
  5
2A
102
{ACAD_REACTORS
330
C
102
}
330
C
100
AcDbDictionary
281
     1
  3
2dWireframe
350
2F
  3
3D Hidden
350
31
  3
3dWireframe
350
30
  3
Basic
350
32
  3
Brighten
350
36
  3
ColorChange
350
3A
  3
Conceptual
350
34
  3
Dim
350
35
  3
Facepattern
350
39
  3
Flat
350
2B
  3
FlatWithEdges
350
2C
  3
Gouraud
350
2D
  3
GouraudWithEdges
350
2E
  3
Linepattern
350
38
  3
Realistic
350
33
  3
Thicken
350
37
  0
LAYOUT
  5
1E
102
{ACAD_REACTORS
330
1A
102
}
330
1A
100
AcDbPlotSettings
  1

  2
none_device
  4

  6

 40
0.0
 41
0.0
 42
0.0
 43
0.0
 44
0.0
 45
0.0
 46
0.0
 47
0.0
 48
0.0
 49
0.0
140
0.0
141
0.0
142
1.0
143
1.0
 70
   688
 72
     0
 73
     0
 74
     5
  7

 75
    16
 76
     0
 77
     2
 78
   300
147
1.0
148
0.0
149
0.0
100
AcDbLayout
  1
Layout1
 70
     1
 71
     1
 10
0.0
 20
0.0
 11
12.0
 21
9.0
 12
0.0
 22
0.0
 32
0.0
 14
1.000000000000000E+20
 24
1.000000000000000E+20
 34
1.000000000000000E+20
 15
-1.000000000000000E+20
 25
-1.000000000000000E+20
 35
-1.000000000000000E+20
146
0.0
 13
0.0
 23
0.0
 33
0.0
 16
1.0
 26
0.0
 36
0.0
 17
0.0
 27
1.0
 37
0.0
 76
     0
330
1B
  0
LAYOUT
  5
26
102
{ACAD_REACTORS
330
1A
102
}
330
1A
100
AcDbPlotSettings
  1

  2
none_device
  4

  6

 40
0.0
 41
0.0
 42
0.0
 43
0.0
 44
0.0
 45
0.0
 46
0.0
 47
0.0
 48
0.0
 49
0.0
140
0.0
141
0.0
142
1.0
143
1.0
 70
   688
 72
     0
 73
     0
 74
     5
  7

 75
    16
 76
     0
 77
     2
 78
   300
147
1.0
148
0.0
149
0.0
100
AcDbLayout
  1
Layout2
 70
     1
 71
     2
 10
0.0
 20
0.0
 11
0.0
 21
0.0
 12
0.0
 22
0.0
 32
0.0
 14
0.0
 24
0.0
 34
0.0
 15
0.0
 25
0.0
 35
0.0
146
0.0
 13
0.0
 23
0.0
 33
0.0
 16
1.0
 26
0.0
 36
0.0
 17
0.0
 27
1.0
 37
0.0
 76
     0
330
23
  0
LAYOUT
  5
22
102
{ACAD_REACTORS
330
1A
102
}
330
1A
100
AcDbPlotSettings
  1

  2
none_device
  4

  6

 40
0.0
 41
0.0
 42
0.0
 43
0.0
 44
0.0
 45
0.0
 46
0.0
 47
0.0
 48
0.0
 49
0.0
140
0.0
141
0.0
142
1.0
143
1.0
 70
  1712
 72
     0
 73
     0
 74
     0
  7

 75
     0
 76
     0
 77
     2
 78
   300
147
1.0
148
0.0
149
0.0
100
AcDbLayout
  1
Model
 70
     1
 71
     0
 10
0.0
 20
0.0
 11
12.0
 21
9.0
 12
0.0
 22
0.0
 32
0.0
 14
1.000000000000000E+20
 24
1.000000000000000E+20
 34
1.000000000000000E+20
 15
-1.000000000000000E+20
 25
-1.000000000000000E+20
 35
-1.000000000000000E+20
146
0.0
 13
0.0
 23
0.0
 33
0.0
 16
1.0
 26
0.0
 36
0.0
 17
0.0
 27
1.0
 37
0.0
 76
     0
330
1F
331
29
  0
MATERIAL
  5
3D
102
{ACAD_REACTORS
330
3B
102
}
330
3B
100
AcDbMaterial
  1
ByBlock
 72
     1
 94
      127
  0
MATERIAL
  5
3C
102
{ACAD_REACTORS
330
3B
102
}
330
3B
100
AcDbMaterial
  1
ByLayer
 72
     1
 94
      127
  0
MATERIAL
  5
3E
102
{ACAD_REACTORS
330
3B
102
}
330
3B
100
AcDbMaterial
  1
Global
 72
     1
 94
      127
  0
MLINESTYLE
  5
18
102
{ACAD_REACTORS
330
17
102
}
330
17
100
AcDbMlineStyle
  2
Standard
 70
     0
  3

 62
   256
 51
90.0
 52
90.0
 71
     2
 49
0.5
 62
   256
  6
BYLAYER
 49
-0.5
 62
   256
  6
BYLAYER
  0
ACDBPLACEHOLDER
  5
F
102
{ACAD_REACTORS
330
E
102
}
330
E
  0
VISUALSTYLE
  5
2F
102
{ACAD_REACTORS
330
2A
102
}
330
2A
100
AcDbVisualStyle
  2
2dWireframe
 70
     4
177
     2
291
     0
 71
     0
176
     1
 72
     2
176
     1
 73
     0
176
     1
 90
        0
176
     1
 40
-0.6
176
     1
 41
-30.0
176
     1
 62
     5
 63
     7
421
 16777215
176
     1
 74
     1
176
     1
 91
        4
176
     1
 64
     7
176
     1
 65
   257
176
     1
 75
     1
176
     1
175
     1
176
     1
 42
1.0
176
     1
 92
        0
176
     1
 66
   257
176
     1
 43
1.0
176
     1
 76
     1
176
     1
 77
     6
176
     1
 78
     2
176
     1
 67
     7
176
     1
 79
     5
176
     1
170
     0
176
     1
171
     0
176
     1
290
     0
176
     1
 93
        1
176
     1
 44
0.0
176
     1
173
     0
176
     1
  0
VISUALSTYLE
  5
31
102
{ACAD_REACTORS
330
2A
102
}
330
2A
100
AcDbVisualStyle
  2
3D Hidden
 70
     6
177
     2
291
     0
 71
     1
176
     1
 72
     2
176
     1
 73
     2
176
     1
 90
        0
176
     1
 40
-0.6
176
     1
 41
-30.0
176
     1
 62
     5
 63
     7
421
 16777215
176
     1
 74
     2
176
     1
 91
        2
176
     1
 64
     7
176
     1
 65
   257
176
     1
 75
     2
176
     1
175
     1
176
     1
 42
40.0
176
     1
 92
        0
176
     1
 66
   257
176
     1
 43
1.0
176
     1
 76
     1
176
     1
 77
     6
176
     1
 78
     2
176
     1
 67
     7
176
     1
 79
     3
176
     1
170
     0
176
     1
171
     0
176
     1
290
     0
176
     1
 93
        1
176
     1
 44
0.0
176
     1
173
     0
176
     1
  0
VISUALSTYLE
  5
30
102
{ACAD_REACTORS
330
2A
102
}
330
2A
100
AcDbVisualStyle
  2
3dWireframe
 70
     5
177
     2
291
     0
 71
     0
176
     1
 72
     2
176
     1
 73
     0
176
     1
 90
        0
176
     1
 40
-0.6
176
     1
 41
-30.0
176
     1
 62
     5
 63
     7
421
 16777215
176
     1
 74
     1
176
     1
 91
        4
176
     1
 64
     7
176
     1
 65
   257
176
     1
 75
     1
176
     1
175
     1
176
     1
 42
1.0
176
     1
 92
        0
176
     1
 66
   257
176
     1
 43
1.0
176
     1
 76
     1
176
     1
 77
     6
176
     1
 78
     2
176
     1
 67
     7
176
     1
 79
     5
176
     1
170
     0
176
     1
171
     0
176
     1
290
     0
176
     1
 93
        1
176
     1
 44
0.0
176
     1
173
     0
176
     1
  0
VISUALSTYLE
  5
32
102
{ACAD_REACTORS
330
2A
102
}
330
2A
100
AcDbVisualStyle
  2
Basic
 70
     7
177
     2
291
     1
 71
     1
176
     1
 72
     0
176
     1
 73
     1
176
     1
 90
        0
176
     1
 40
-0.6
176
     1
 41
-30.0
176
     1
 62
     5
 63
     7
421
 16777215
176
     1
 74
     0
176
     1
 91
        4
176
     1
 64
     7
176
     1
 65
   257
176
     1
 75
     1
176
     1
175
     1
176
     1
 42
1.0
176
     1
 92
        8
176
     1
 66
     7
176
     1
 43
1.0
176
     1
 76
     1
176
     1
 77
     6
176
     1
 78
     2
176
     1
 67
     7
176
     1
 79
     5
176
     1
170
     0
176
     1
171
     0
176
     1
290
     0
176
     1
 93
        1
176
     1
 44
0.0
176
     1
173
     0
176
     1
  0
VISUALSTYLE
  5
36
102
{ACAD_REACTORS
330
2A
102
}
330
2A
100
AcDbVisualStyle
  2
Brighten
 70
    12
177
     2
291
     1
 71
     2
176
     1
 72
     2
176
     1
 73
     0
176
     1
 90
        0
176
     1
 40
-0.6
176
     1
 41
-30.0
176
     1
 62
     5
 63
     7
421
 16777215
176
     1
 74
     1
176
     1
 91
        4
176
     1
 64
     7
176
     1
 65
   257
176
     1
 75
     1
176
     1
175
     1
176
     1
 42
1.0
176
     1
 92
        8
176
     1
 66
     7
176
     1
 43
1.0
176
     1
 76
     1
176
     1
 77
     6
176
     1
 78
     2
176
     1
 67
     7
176
     1
 79
     5
176
     1
170
     0
176
     1
171
     0
176
     1
290
     0
176
     1
 93
        1
176
     1
 44
50.0
176
     1
173
     0
176
     1
  0
VISUALSTYLE
  5
3A
102
{ACAD_REACTORS
330
2A
102
}
330
2A
100
AcDbVisualStyle
  2
ColorChange
 70
    16
177
     2
291
     1
 71
     2
176
     1
 72
     2
176
     1
 73
     3
176
     1
 90
        0
176
     1
 40
-0.6
176
     1
 41
-30.0
176
     1
 62
     5
 63
     8
421
  8421504
176
     1
 74
     1
176
     1
 91
        4
176
     1
 64
     7
176
     1
 65
   257
176
     1
 75
     1
176
     1
175
     1
176
     1
 42
1.0
176
     1
 92
        8
176
     1
 66
     8
424
  8421504
176
     1
 43
1.0
176
     1
 76
     1
176
     1
 77
     6
176
     1
 78
     2
176
     1
 67
     7
176
     1
 79
     5
176
     1
170
     0
176
     1
171
     0
176
     1
290
     0
176
     1
 93
        1
176
     1
 44
0.0
176
     1
173
     0
176
     1
  0
VISUALSTYLE
  5
34
102
{ACAD_REACTORS
330
2A
102
}
330
2A
100
AcDbVisualStyle
  2
Conceptual
 70
     9
177
     2
291
     0
 71
     3
176
     1
 72
     2
176
     1
 73
     0
176
     1
 90
        0
176
     1
 40
-0.6
176
     1
 41
-30.0
176
     1
 62
     5
 63
     7
421
 16777215
176
     1
 74
     2
176
     1
 91
        2
176
     1
 64
     7
176
     1
 65
   257
176
     1
 75
     1
176
     1
175
     1
176
     1
 42
40.0
176
     1
 92
        8
176
     1
 66
     7
176
     1
 43
1.0
176
     1
 76
     1
176
     1
 77
     6
176
     1
 78
     2
176
     1
 67
     7
176
     1
 79
     3
176
     1
170
     0
176
     1
171
     0
176
     1
290
     0
176
     1
 93
        1
176
     1
 44
0.0
176
     1
173
     0
176
     1
  0
VISUALSTYLE
  5
35
102
{ACAD_REACTORS
330
2A
102
}
330
2A
100
AcDbVisualStyle
  2
Dim
 70
    11
177
     2
291
     1
 71
     2
176
     1
 72
     2
176
     1
 73
     0
176
     1
 90
        0
176
     1
 40
-0.6
176
     1
 41
-30.0
176
     1
 62
     5
 63
     7
421
 16777215
176
     1
 74
     1
176
     1
 91
        4
176
     1
 64
     7
176
     1
 65
   257
176
     1
 75
     1
176
     1
175
     1
176
     1
 42
1.0
176
     1
 92
        8
176
     1
 66
     7
176
     1
 43
1.0
176
     1
 76
     1
176
     1
 77
     6
176
     1
 78
     2
176
     1
 67
     7
176
     1
 79
     5
176
     1
170
     0
176
     1
171
     0
176
     1
290
     0
176
     1
 93
        1
176
     1
 44
-50.0
176
     1
173
     0
176
     1
  0
VISUALSTYLE
  5
39
102
{ACAD_REACTORS
330
2A
102
}
330
2A
100
AcDbVisualStyle
  2
Facepattern
 70
    15
177
     2
291
     1
 71
     2
176
     1
 72
     2
176
     1
 73
     0
176
     1
 90
        0
176
     1
 40
-0.6
176
     1
 41
-30.0
176
     1
 62
     5
 63
     7
421
 16777215
176
     1
 74
     1
176
     1
 91
        4
176
     1
 64
     7
176
     1
 65
   257
176
     1
 75
     1
176
     1
175
     1
176
     1
 42
1.0
176
     1
 92
        8
176
     1
 66
     7
176
     1
 43
1.0
176
     1
 76
     1
176
     1
 77
     6
176
     1
 78
     2
176
     1
 67
     7
176
     1
 79
     5
176
     1
170
     0
176
     1
171
     0
176
     1
290
     0
176
     1
 93
        1
176
     1
 44
0.0
176
     1
173
     0
176
     1
  0
VISUALSTYLE
  5
2B
102
{ACAD_REACTORS
330
2A
102
}
330
2A
100
AcDbVisualStyle
  2
Flat
 70
     0
177
     2
291
     1
 71
     2
176
     1
 72
     1
176
     1
 73
     1
176
     1
 90
        2
176
     1
 40
-0.6
176
     1
 41
30.0
176
     1
 62
     5
 63
     7
421
 16777215
176
     1
 74
     0
176
     1
 91
        4
176
     1
 64
     7
176
     1
 65
   257
176
     1
 75
     1
176
     1
175
     1
176
     1
 42
1.0
176
     1
 92
        8
176
     1
 66
     7
176
     1
 43
1.0
176
     1
 76
     1
176
     1
 77
     6
176
     1
 78
     2
176
     1
 67
     7
176
     1
 79
     5
176
     1
170
     0
176
     1
171
     0
176
     1
290
     0
176
     1
 93
       13
176
     1
 44
0.0
176
     1
173
     0
176
     1
  0
VISUALSTYLE
  5
2C
102
{ACAD_REACTORS
330
2A
102
}
330
2A
100
AcDbVisualStyle
  2
FlatWithEdges
 70
     1
177
     2
291
     1
 71
     2
176
     1
 72
     1
176
     1
 73
     1
176
     1
 90
        2
176
     1
 40
-0.6
176
     1
 41
30.0
176
     1
 62
     5
 63
     7
421
 16777215
176
     1
 74
     1
176
     1
 91
        4
176
     1
 64
     7
176
     1
 65
   257
176
     1
 75
     1
176
     1
175
     1
176
     1
 42
1.0
176
     1
 92
        0
176
     1
 66
   257
176
     1
 43
1.0
176
     1
 76
     1
176
     1
 77
     6
176
     1
 78
     2
176
     1
 67
     7
176
     1
 79
     5
176
     1
170
     0
176
     1
171
     0
176
     1
290
     0
176
     1
 93
       13
176
     1
 44
0.0
176
     1
173
     0
176
     1
  0
VISUALSTYLE
  5
2D
102
{ACAD_REACTORS
330
2A
102
}
330
2A
100
AcDbVisualStyle
  2
Gouraud
 70
     2
177
     2
291
     1
 71
     2
176
     1
 72
     2
176
     1
 73
     1
176
     1
 90
        2
176
     1
 40
-0.6
176
     1
 41
30.0
176
     1
 62
     5
 63
     7
421
 16777215
176
     1
 74
     0
176
     1
 91
        4
176
     1
 64
     7
176
     1
 65
   257
176
     1
 75
     1
176
     1
175
     1
176
     1
 42
1.0
176
     1
 92
        0
176
     1
 66
     7
176
     1
 43
1.0
176
     1
 76
     1
176
     1
 77
     6
176
     1
 78
     2
176
     1
 67
     7
176
     1
 79
     5
176
     1
170
     0
176
     1
171
     0
176
     1
290
     0
176
     1
 93
       13
176
     1
 44
0.0
176
     1
173
     0
176
     1
  0
VISUALSTYLE
  5
2E
102
{ACAD_REACTORS
330
2A
102
}
330
2A
100
AcDbVisualStyle
  2
GouraudWithEdges
 70
     3
177
     2
291
     1
 71
     2
176
     1
 72
     2
176
     1
 73
     1
176
     1
 90
        2
176
     1
 40
-0.6
176
     1
 41
30.0
176
     1
 62
     5
 63
     7
421
 16777215
176
     1
 74
     1
176
     1
 91
        4
176
     1
 64
     7
176
     1
 65
   257
176
     1
 75
     1
176
     1
175
     1
176
     1
 42
1.0
176
     1
 92
        0
176
     1
 66
   257
176
     1
 43
1.0
176
     1
 76
     1
176
     1
 77
     6
176
     1
 78
     2
176
     1
 67
     7
176
     1
 79
     5
176
     1
170
     0
176
     1
171
     0
176
     1
290
     0
176
     1
 93
       13
176
     1
 44
0.0
176
     1
173
     0
176
     1
  0
VISUALSTYLE
  5
38
102
{ACAD_REACTORS
330
2A
102
}
330
2A
100
AcDbVisualStyle
  2
Linepattern
 70
    14
177
     2
291
     1
 71
     2
176
     1
 72
     2
176
     1
 73
     0
176
     1
 90
        0
176
     1
 40
-0.6
176
     1
 41
-30.0
176
     1
 62
     5
 63
     7
421
 16777215
176
     1
 74
     1
176
     1
 91
        4
176
     1
 64
     7
176
     1
 65
   257
176
     1
 75
     7
176
     1
175
     7
176
     1
 42
1.0
176
     1
 92
        8
176
     1
 66
     7
176
     1
 43
1.0
176
     1
 76
     1
176
     1
 77
     6
176
     1
 78
     2
176
     1
 67
     7
176
     1
 79
     5
176
     1
170
     0
176
     1
171
     0
176
     1
290
     0
176
     1
 93
        1
176
     1
 44
0.0
176
     1
173
     0
176
     1
  0
VISUALSTYLE
  5
33
102
{ACAD_REACTORS
330
2A
102
}
330
2A
100
AcDbVisualStyle
  2
Realistic
 70
     8
177
     2
291
     0
 71
     2
176
     1
 72
     2
176
     1
 73
     0
176
     1
 90
        0
176
     1
 40
-0.6
176
     1
 41
-30.0
176
     1
 62
     5
 63
     7
421
 16777215
176
     1
 74
     1
176
     1
 91
        0
176
     1
 64
     7
176
     1
 65
   257
176
     1
 75
     1
176
     1
175
     1
176
     1
 42
1.0
176
     1
 92
        8
176
     1
 66
     8
424
  7895160
176
     1
 43
1.0
176
     1
 76
     1
176
     1
 77
     6
176
     1
 78
     2
176
     1
 67
     7
176
     1
 79
     5
176
     1
170
     0
176
     1
171
     0
176
     1
290
     0
176
     1
 93
       13
176
     1
 44
0.0
176
     1
173
     0
176
     1
  0
VISUALSTYLE
  5
37
102
{ACAD_REACTORS
330
2A
102
}
330
2A
100
AcDbVisualStyle
  2
Thicken
 70
    13
177
     2
291
     1
 71
     2
176
     1
 72
     2
176
     1
 73
     0
176
     1
 90
        0
176
     1
 40
-0.6
176
     1
 41
-30.0
176
     1
 62
     5
 63
     7
421
 16777215
176
     1
 74
     1
176
     1
 91
        4
176
     1
 64
     7
176
     1
 65
   257
176
     1
 75
     1
176
     1
175
     1
176
     1
 42
1.0
176
     1
 92
       12
176
     1
 66
     7
176
     1
 43
1.0
176
     1
 76
     1
176
     1
 77
     6
176
     1
 78
     2
176
     1
 67
     7
176
     1
 79
     5
176
     1
170
     0
176
     1
171
     0
176
     1
290
     0
176
     1
 93
        1
176
     1
 44
0.0
176
     1
173
     0
176
     1
  0
ENDSEC
  0
EOF
