  0
SECTION
  2
HEADER
  9
$ACADVER
  1
AC1024
  9
$ACADMAINTVER
 70
     6
  9
$DWGCODEPAGE
  3
UNDEFINED
  9
$INSBASE
 10
0.0
 20
0.0
 30
0.0
  9
$EXTMIN
 10
1.000000000000000E+20
 20
1.000000000000000E+20
 30
1.000000000000000E+20
  9
$EXTMAX
 10
-1.000000000000000E+20
 20
-1.000000000000000E+20
 30
-1.000000000000000E+20
  9
$LIMMIN
 10
0.0
 20
0.0
  9
$LIMMAX
 10
12.0
 20
9.0
  9
$ORTHOMODE
 70
     0
  9
$REGENMODE
 70
     1
  9
$FILLMODE
 70
     1
  9
$QTEXTMODE
 70
     0
  9
$MIRRTEXT
 70
     1
  9
$LTSCALE
 40
1.0
  9
$ATTMODE
 70
     1
  9
$TEXTSIZE
 40
0.2
  9
$TRACEWID
 40
0.05
  9
$TEXTSTYLE
  7
Standard
  9
$CLAYER
  8
0
  9
$CELTYPE
  6
ByLayer
  9
$CECOLOR
 62
   256
  9
$CELTSCALE
 40
1.0
  9
$DISPSILH
 70
     0
  9
$DIMSCALE
 40
1.0
  9
$DIMASZ
 40
0.18
  9
$DIMEXO
 40
0.0625
  9
$DIMDLI
 40
0.38
  9
$DIMRND
 40
0.0
  9
$DIMDLE
 40
0.0
  9
$DIMEXE
 40
0.18
  9
$DIMTP
 40
0.0
  9
$DIMTM
 40
0.0
  9
$DIMTXT
 40
0.18
  9
$DIMCEN
 40
0.09
  9
$DIMTSZ
 40
0.0
  9
$DIMTOL
 70
     0
  9
$DIMLIM
 70
     0
  9
$DIMTIH
 70
     1
  9
$DIMTOH
 70
     1
  9
$DIMSE1
 70
     0
  9
$DIMSE2
 70
     0
  9
$DIMTAD
 70
     0
  9
$DIMZIN
 70
     0
  9
$DIMBLK
  1

  9
$DIMASO
 70
     1
  9
$DIMSHO
 70
     1
  9
$DIMPOST
  1

  9
$DIMAPOST
  1

  9
$DIMALT
 70
     0
  9
$DIMALTD
 70
     2
  9
$DIMALTF
 40
25.4
  9
$DIMLFAC
 40
1.0
  9
$DIMTOFL
 70
     0
  9
$DIMTVP
 40
0.0
  9
$DIMTIX
 70
     0
  9
$DIMSOXD
 70
     0
  9
$DIMSAH
 70
     0
  9
$DIMBLK1
  1

  9
$DIMBLK2
  1

  9
$DIMSTYLE
  2
Standard
  9
$DIMCLRD
 70
     0
  9
$DIMCLRE
 70
     0
  9
$DIMCLRT
 70
     0
  9
$DIMTFAC
 40
1.0
  9
$DIMGAP
 40
0.09
  9
$DIMJUST
 70
     0
  9
$DIMSD1
 70
     0
  9
$DIMSD2
 70
     0
  9
$DIMTOLJ
 70
     1
  9
$DIMTZIN
 70
     0
  9
$DIMALTZ
 70
     0
  9
$DIMALTTZ
 70
     0
  9
$DIMUPT
 70
     0
  9
$DIMDEC
 70
     4
  9
$DIMTDEC
 70
     4
  9
$DIMALTU
 70
     2
  9
$DIMALTTD
 70
     2
  9
$DIMTXSTY
  7
Standard
  9
$DIMAUNIT
 70
     0
  9
$DIMADEC
 70
     0
  9
$DIMALTRND
 40
0.0
  9
$DIMAZIN
 70
     0
  9
$DIMDSEP
 70
    46
  9
$DIMATFIT
 70
     3
  9
$DIMFRAC
 70
     0
  9
$DIMLDRBLK
  1

  9
$DIMLUNIT
 70
     2
  9
$DIMLWD
 70
    -2
  9
$DIMLWE
 70
    -2
  9
$DIMTMOVE
 70
     0
  9
$DIMFXL
 40
1.0
  9
$DIMFXLON
 70
     0
  9
$DIMJOGANG
 40
0.7853981633974483
  9
$DIMTFILL
 70
     0
  9
$DIMTFILLCLR
 70
     0
  9
$DIMARCSYM
 70
     0
  9
$DIMLTYPE
  6

  9
$DIMLTEX1
  6

  9
$DIMLTEX2
  6

  9
$DIMTXTDIRECTION
 70
     0
  9
$LUNITS
 70
     2
  9
$LUPREC
 70
     4
  9
$SKETCHINC
 40
0.1
  9
$FILLETRAD
 40
0.5
  9
$AUNITS
 70
     0
  9
$AUPREC
 70
     0
  9
$MENU
  1
.
  9
$ELEVATION
 40
0.0
  9
$PELEVATION
 40
0.0
  9
$THICKNESS
 40
0.0
  9
$LIMCHECK
 70
     0
  9
$CHAMFERA
 40
0.5
  9
$CHAMFERB
 40
0.5
  9
$CHAMFERC
 40
1.0
  9
$CHAMFERD
 40
0.0
  9
$SKPOLY
 70
     0
  9
$TDCREATE
 40
2457917.594594907
  9
$TDUCREATE
 40
2457917.219594907
  9
$TDUPDATE
 40
2457917.594594907
  9
$TDUUPDATE
 40
2457917.219594907
  9
$TDINDWG
 40
0.0000000116
  9
$TDUSRTIMER
 40
0.0000000116
  9
$USRTIMER
 70
     1
  9
$ANGBASE
 50
0.0
  9
$ANGDIR
 70
     0
  9
$PDMODE
 70
     0
  9
$PDSIZE
 40
0.0
  9
$PLINEWID
 40
0.0
  9
$SPLFRAME
 70
     0
  9
$SPLINETYPE
 70
     6
  9
$SPLINESEGS
 70
     8
  9
$HANDSEED
  5
110
  9
$SURFTAB1
 70
     6
  9
$SURFTAB2
 70
     6
  9
$SURFTYPE
 70
     6
  9
$SURFU
 70
     6
  9
$SURFV
 70
     6
  9
$UCSBASE
  2

  9
$UCSNAME
  2

  9
$UCSORG
 10
0.0
 20
0.0
 30
0.0
  9
$UCSXDIR
 10
1.0
 20
0.0
 30
0.0
  9
$UCSYDIR
 10
0.0
 20
1.0
 30
0.0
  9
$UCSORTHOREF
  2

  9
$UCSORTHOVIEW
 70
     0
  9
$UCSORGTOP
 10
0.0
 20
0.0
 30
0.0
  9
$UCSORGBOTTOM
 10
0.0
 20
0.0
 30
0.0
  9
$UCSORGLEFT
 10
0.0
 20
0.0
 30
0.0
  9
$UCSORGRIGHT
 10
0.0
 20
0.0
 30
0.0
  9
$UCSORGFRONT
 10
0.0
 20
0.0
 30
0.0
  9
$UCSORGBACK
 10
0.0
 20
0.0
 30
0.0
  9
$PUCSBASE
  2

  9
$PUCSNAME
  2

  9
$PUCSORG
 10
0.0
 20
0.0
 30
0.0
  9
$PUCSXDIR
 10
1.0
 20
0.0
 30
0.0
  9
$PUCSYDIR
 10
0.0
 20
1.0
 30
0.0
  9
$PUCSORTHOREF
  2

  9
$PUCSORTHOVIEW
 70
     0
  9
$PUCSORGTOP
 10
0.0
 20
0.0
 30
0.0
  9
$PUCSORGBOTTOM
 10
0.0
 20
0.0
 30
0.0
  9
$PUCSORGLEFT
 10
0.0
 20
0.0
 30
0.0
  9
$PUCSORGRIGHT
 10
0.0
 20
0.0
 30
0.0
  9
$PUCSORGFRONT
 10
0.0
 20
0.0
 30
0.0
  9
$PUCSORGBACK
 10
0.0
 20
0.0
 30
0.0
  9
$USERI1
 70
     0
  9
$USERI2
 70
     0
  9
$USERI3
 70
     0
  9
$USERI4
 70
     0
  9
$USERI5
 70
     0
  9
$USERR1
 40
0.0
  9
$USERR2
 40
0.0
  9
$USERR3
 40
0.0
  9
$USERR4
 40
0.0
  9
$USERR5
 40
0.0
  9
$WORLDVIEW
 70
     1
  9
$SHADEDGE
 70
     3
  9
$SHADEDIF
 70
    70
  9
$TILEMODE
 70
     1
  9
$MAXACTVP
 70
    64
  9
$PINSBASE
 10
0.0
 20
0.0
 30
0.0
  9
$PLIMCHECK
 70
     0
  9
$PEXTMIN
 10
1.000000000000000E+20
 20
1.000000000000000E+20
 30
1.000000000000000E+20
  9
$PEXTMAX
 10
-1.000000000000000E+20
 20
-1.000000000000000E+20
 30
-1.000000000000000E+20
  9
$PLIMMIN
 10
0.0
 20
0.0
  9
$PLIMMAX
 10
12.0
 20
9.0
  9
$UNITMODE
 70
     0
  9
$VISRETAIN
 70
     1
  9
$PLINEGEN
 70
     0
  9
$PSLTSCALE
 70
     1
  9
$TREEDEPTH
 70
  3020
  9
$CMLSTYLE
  2
Standard
  9
$CMLJUST
 70
     0
  9
$CMLSCALE
 40
1.0
  9
$PROXYGRAPHICS
 70
     1
  9
$MEASUREMENT
 70
     0
  9
$CELWEIGHT
370
    -1
  9
$ENDCAPS
280
     0
  9
$JOINSTYLE
280
     0
  9
$LWDISPLAY
290
     1
  9
$INSUNITS
 70
     1
  9
$HYPERLINKBASE
  1

  9
$STYLESHEET
  1

  9
$XEDIT
290
     1
  9
$CEPSNTYPE
380
     0
  9
$PSTYLEMODE
290
     1
  9
$FINGERPRINTGUID
  2
{EC453AD2-29E7-7DC0-F2B0-46623E452B46}
  9
$VERSIONGUID
  2
{FAEB1C32-E019-11D5-929B-00C0DF256EC4}
  9
$EXTNAMES
290
     1
  9
$PSVPSCALE
 40
0.0
  9
$OLESTARTUP
290
     0
  9
$SORTENTS
280
   127
  9
$INDEXCTL
280
     0
  9
$HIDETEXT
280
     1
  9
$XCLIPFRAME
280
     2
  9
$HALOGAP
280
     0
  9
$OBSCOLOR
 70
   257
  9
$OBSLTYPE
280
     0
  9
$INTERSECTIONDISPLAY
280
     0
  9
$INTERSECTIONCOLOR
 70
   257
  9
$DIMASSOC
280
     2
  9
$PROJECTNAME
  1

  9
$CAMERADISPLAY
290
     0
  9
$LENSLENGTH
 40
50.0
  9
$CAMERAHEIGHT
 40
0.0
  9
$STEPSPERSEC
 40
2.0
  9
$STEPSIZE
 40
6.0
  9
$3DDWFPREC
 40
2.0
  9
$PSOLWIDTH
 40
0.25
  9
$PSOLHEIGHT
 40
4.0
  9
$LOFTANG1
 40
1.570796326794897
  9
$LOFTANG2
 40
1.570796326794897
  9
$LOFTMAG1
 40
0.0
  9
$LOFTMAG2
 40
0.0
  9
$LOFTPARAM
 70
     7
  9
$LOFTNORMALS
280
     1
  9
$LATITUDE
 40
37.795
  9
$LONGITUDE
 40
-122.394
  9
$NORTHDIRECTION
 40
0.0
  9
$TIMEZONE
 70
 -8000
  9
$LIGHTGLYPHDISPLAY
280
     1
  9
$TILEMODELIGHTSYNCH
280
     1
  9
$CMATERIAL
347
3C
  9
$SOLIDHIST
280
     1
  9
$SHOWHIST
280
     1
  9
$DWFFRAME
280
     2
  9
$DGNFRAME
280
     2
  9
$REALWORLDSCALE
290
     1
  9
$INTERFERECOLOR
 62
   256
  9
$CSHADOW
280
     0
  9
$SHADOWPLANELOCATION
 40
0.0
  0
ENDSEC
  0
SECTION
  2
CLASSES
  0
CLASS
  1
ACDBDICTIONARYWDFLT
  2
AcDbDictionaryWithDefault
  3
ObjectDBX Classes
 90
        0
 91
        4
280
     0
281
     0
  0
CLASS
  1
VISUALSTYLE
  2
AcDbVisualStyle
  3
ObjectDBX Classes
 90
     4095
 91
        4
280
     0
281
     0
  0
CLASS
  1
MATERIAL
  2
AcDbMaterial
  3
ObjectDBX Classes
 90
     1153
 91
        4
280
     0
281
     0
  0
CLASS
  1
SUN
  2
AcDbSun
  3
SCENEOE
 90
     1024
 91
        4
280
     0
281
     0
  0
ENDSEC
  0
SECTION
  2
TABLES
  0
TABLE
  2
VPORT
  5
8
330
0
100
AcDbSymbolTable
 70
     1
  0
VPORT
  5
29
330
8
100
AcDbSymbolTableRecord
100
AcDbViewportTableRecord
  2
*Active
 70
     0
 10
0.0
 20
0.0
 11
1.0
 21
1.0
 12
0.0
 22
0.0
 13
0.0
 23
0.0
 14
0.5
 24
0.5
 15
0.5
 25
0.5
 16
0.0
 26
0.0
 36
1.0
 17
91.00082462281999
 27
-128.4993055234307
 37
0.0
 40
256.9986110468615
 41
0.7081814508812795
 42
50.0
 43
0.0
 44
0.0
 50
0.0
 51
0.0
 71
     0
 72
   100
 73
     1
 74
     3
 75
     0
 76
     0
 77
     0
 78
     0
281
     0
 65
     1
110
0.0
120
0.0
130
0.0
111
1.0
121
0.0
131
0.0
112
0.0
122
1.0
132
0.0
 79
     0
146
0.0
 60
     3
 61
     5
292
     1
282
     1
141
0.0
142
0.0
 63
   250
361
3F
  0
ENDTAB
  0
TABLE
  2
LTYPE
  5
5
330
0
100
AcDbSymbolTable
 70
     1
  0
LTYPE
  5
14
330
5
100
AcDbSymbolTableRecord
100
AcDbLinetypeTableRecord
  2
ByBlock
 70
     0
  3

 72
    65
 73
     0
 40
0.0
  0
LTYPE
  5
15
330
5
100
AcDbSymbolTableRecord
100
AcDbLinetypeTableRecord
  2
ByLayer
 70
     0
  3

 72
    65
 73
     0
 40
0.0
  0
LTYPE
  5
16
330
5
100
AcDbSymbolTableRecord
100
AcDbLinetypeTableRecord
  2
Continuous
 70
     0
  3
Solid line
 72
    65
 73
     0
 40
0.0
  0
ENDTAB
  0
TABLE
  2
LAYER
  5
2
330
0
100
AcDbSymbolTable
 70
     2
  0
LAYER
  5
10
330
2
100
AcDbSymbolTableRecord
100
AcDbLayerTableRecord
  2
0
 70
     0
 62
     7
  6
Continuous
370
    -3
390
F
347
3E
  0
LAYER
  5
40
330
2
100
AcDbSymbolTableRecord
100
AcDbLayerTableRecord
  2
_U+30EC_U+30A4_U+30E4_U+30FC 1
 70
     0
 62
     7
  6
Continuous
370
    -3
390
F
347
3E
  0
ENDTAB
  0
TABLE
  2
STYLE
  5
3
330
0
100
AcDbSymbolTable
 70
     1
  0
STYLE
  5
11
330
3
100
AcDbSymbolTableRecord
100
AcDbTextStyleTableRecord
  2
Standard
 70
     0
 40
0.0
 41
1.0
 50
0.0
 71
     0
 42
0.2
  3
txt
  4

  0
ENDTAB
  0
TABLE
  2
VIEW
  5
6
330
0
100
AcDbSymbolTable
 70
     0
  0
ENDTAB
  0
TABLE
  2
UCS
  5
7
330
0
100
AcDbSymbolTable
 70
     0
  0
ENDTAB
  0
TABLE
  2
APPID
  5
9
330
0
100
AcDbSymbolTable
 70
     1
  0
APPID
  5
12
330
9
100
AcDbSymbolTableRecord
100
AcDbRegAppTableRecord
  2
ACAD
 70
     0
  0
ENDTAB
  0
TABLE
  2
DIMSTYLE
  5
A
330
0
100
AcDbSymbolTable
 70
     1
100
AcDbDimStyleTable
  0
DIMSTYLE
105
27
330
A
100
AcDbSymbolTableRecord
100
AcDbDimStyleTableRecord
  2
Standard
 70
     0
178
     0
340
11
  0
ENDTAB
  0
TABLE
  2
BLOCK_RECORD
  5
1
330
0
100
AcDbSymbolTable
 70
     7
  0
BLOCK_RECORD
  5
1F
330
1
100
AcDbSymbolTableRecord
100
AcDbBlockTableRecord
  2
*Model_Space
340
22
 70
     0
280
     1
281
     0
  0
BLOCK_RECORD
  5
1B
330
1
100
AcDbSymbolTableRecord
100
AcDbBlockTableRecord
  2
*Paper_Space
340
1E
 70
     0
280
     1
281
     0
  0
BLOCK_RECORD
  5
23
330
1
100
AcDbSymbolTableRecord
100
AcDbBlockTableRecord
  2
*Paper_Space0
340
26
 70
     0
280
     1
281
     0
  0
BLOCK_RECORD
  5
94
330
1
100
AcDbSymbolTableRecord
100
AcDbBlockTableRecord
  2
block 2
340
0
102
{BLKREFS
331
95
102
}
 70
     0
280
     1
281
     0
  0
BLOCK_RECORD
  5
B1
330
1
100
AcDbSymbolTableRecord
100
AcDbBlockTableRecord
  2
block 3
340
0
102
{BLKREFS
331
B2
102
}
 70
     0
280
     1
281
     0
  0
BLOCK_RECORD
  5
C5
330
1
100
AcDbSymbolTableRecord
100
AcDbBlockTableRecord
  2
block 4
340
0
102
{BLKREFS
331
C6
102
}
 70
     0
280
     1
281
     0
  0
BLOCK_RECORD
  5
D9
330
1
100
AcDbSymbolTableRecord
100
AcDbBlockTableRecord
  2
block 5
340
0
102
{BLKREFS
331
DA
102
}
 70
     0
280
     1
281
     0
  0
BLOCK_RECORD
  5
EB
330
1
100
AcDbSymbolTableRecord
100
AcDbBlockTableRecord
  2
block 6
340
0
102
{BLKREFS
331
EC
102
}
 70
     0
280
     1
281
     0
  0
BLOCK_RECORD
  5
FD
330
1
100
AcDbSymbolTableRecord
100
AcDbBlockTableRecord
  2
block 7
340
0
102
{BLKREFS
331
FE
102
}
 70
     0
280
     1
281
     0
  0
ENDTAB
  0
ENDSEC
  0
SECTION
  2
BLOCKS
  0
BLOCK
  5
20
330
1F
100
AcDbEntity
  8
0
100
AcDbBlockBegin
  2
*Model_Space
 70
     0
 10
0.0
 20
0.0
 30
0.0
  3
*Model_Space
  1

  0
ENDBLK
  5
21
330
1F
100
AcDbEntity
  8
0
100
AcDbBlockEnd
  0
BLOCK
  5
1C
330
1B
100
AcDbEntity
 67
     1
  8
0
100
AcDbBlockBegin
  2
*Paper_Space
 70
     0
 10
0.0
 20
0.0
 30
0.0
  3
*Paper_Space
  1

  0
ENDBLK
  5
1D
330
1B
100
AcDbEntity
 67
     1
  8
0
100
AcDbBlockEnd
  0
BLOCK
  5
24
330
23
100
AcDbEntity
  8
0
100
AcDbBlockBegin
  2
*Paper_Space0
 70
     0
 10
0.0
 20
0.0
 30
0.0
  3
*Paper_Space0
  1

  0
ENDBLK
  5
25
330
23
100
AcDbEntity
  8
0
100
AcDbBlockEnd
  0
BLOCK
  5
96
330
94
100
AcDbEntity
  8
0
100
AcDbBlockBegin
  2
block 2
 70
     0
 10
0.0
 20
0.0
 30
0.0
  3
block 2
  1

  0
SPLINE
  5
98
330
94
100
AcDbEntity
  8
_U+30EC_U+30A4_U+30E4_U+30FC 1
370
     0
100
AcDbSpline
210
0.0
220
0.0
230
1.0
 70
    11
 71
     3
 72
    29
 73
    25
 74
     0
 42
0.0000000001
 43
0.0000000001
 12
1.0
 22
0.0
 32
0.0
 13
1.0
 23
0.0
 33
0.0
 40
0.0
 40
0.0
 40
0.0
 40
0.0
 40
1.0
 40
1.0
 40
1.0
 40
2.0
 40
2.0
 40
2.0
 40
3.0
 40
3.0
 40
3.0
 40
4.0
 40
4.0
 40
4.0
 40
5.0
 40
5.0
 40
5.0
 40
6.0
 40
6.0
 40
6.0
 40
7.0
 40
7.0
 40
7.0
 40
8.0
 40
8.0
 40
8.0
 40
8.0
 10
105.6262830682115
 20
-133.6676377704025
 30
0.0
 10
105.8357448737147
 20
-133.7830484691584
 30
0.0
 10
105.8546928988836
 20
-133.9683946062649
 30
0.0
 10
105.8546928988836
 20
-134.0927625532824
 30
0.0
 10
105.8546928988836
 20
-134.2643283084478
 30
0.0
 10
105.8081841098327
 20
-134.4159125097988
 30
0.0
 10
105.6262830682115
 20
-134.5175428266137
 30
0.0
 10
105.4316351732949
 20
-134.6284749012387
 30
0.0
 10
105.1949571134582
 20
-134.6488009646017
 30
0.0
 10
105.0320040970059
 20
-134.6488009646017
 30
0.0
 10
104.8879991057224
 20
-134.6488009646017
 30
0.0
 10
104.6361626257507
 20
-134.6308864680784
 30
0.0
 10
104.4373806162518
 20
-134.5175428266137
 30
0.0
 10
104.2344644921706
 20
-134.4024766374063
 30
0.0
 10
104.2110378428709
 20
-134.2305663726924
 30
0.0
 10
104.2110378428709
 20
-134.0927625532824
 30
0.0
 10
104.2110378428709
 20
-133.9229193458596
 30
0.0
 10
104.2554795746306
 20
-133.7692680872174
 30
0.0
 10
104.4373806162518
 20
-133.6676377704025
 30
0.0
 10
104.6299614538772
 20
-133.5611843199083
 30
0.0
 10
104.8583712845493
 20
-133.5363796324145
 30
0.0
 10
105.0320040970059
 20
-133.5363796324145
 30
0.0
 10
105.2032253426228
 20
-133.5363796324145
 30
0.0
 10
105.433702230586
 20
-133.5591172626172
 30
0.0
 10
105.6262830682115
 20
-133.6676377704025
 30
0.0
  0
SPLINE
  5
99
330
94
100
AcDbEntity
  8
_U+30EC_U+30A4_U+30E4_U+30FC 1
370
     0
100
AcDbSpline
210
0.0
220
0.0
230
1.0
 70
    11
 71
     3
 72
    17
 73
    13
 74
     0
 42
0.0000000001
 43
0.0000000001
 12
1.0
 22
0.0
 32
0.0
 13
1.0
 23
0.0
 33
0.0
 40
0.0
 40
0.0
 40
0.0
 40
0.0
 40
1.0
 40
1.0
 40
1.0
 40
2.0
 40
2.0
 40
2.0
 40
3.0
 40
3.0
 40
3.0
 40
4.0
 40
4.0
 40
4.0
 40
4.0
 10
104.4036186804963
 20
-134.0927625532824
 30
0.0
 10
104.4036186804963
 20
-134.3594129438407
 30
0.0
 10
104.6871500389324
 20
-134.4090223188283
 30
0.0
 10
105.0320040970059
 20
-134.4090223188283
 30
0.0
 10
105.3513644484886
 20
-134.4090223188283
 30
0.0
 10
105.6600450039669
 20
-134.370781758942
 30
0.0
 10
105.6600450039669
 20
-134.0927625532824
 30
0.0
 10
105.6600450039669
 20
-133.8281792200152
 30
0.0
 10
105.3789252123705
 20
-133.7761582781879
 30
0.0
 10
105.0320040970059
 20
-133.7761582781879
 30
0.0
 10
104.7122992359747
 20
-133.7761582781879
 30
0.0
 10
104.4036186804963
 20
-133.8168104049139
 30
0.0
 10
104.4036186804963
 20
-134.0927625532824
 30
0.0
  0
HATCH
  5
9A
330
94
100
AcDbEntity
  8
_U+30EC_U+30A4_U+30E4_U+30FC 1
 62
   179
420
  2234388
100
AcDbHatch
 10
0.0
 20
0.0
 30
0.0
210
0.0
220
0.0
230
1.0
  2
SOLID
 70
     1
 71
     0
 91
        2
 92
        1
 93
        1
 72
     4
 94
        3
 73
     0
 74
     1
 95
       29
 96
       25
 40
0.0
 40
0.0
 40
0.0
 40
0.0
 40
1.0
 40
1.0
 40
1.0
 40
2.0
 40
2.0
 40
2.0
 40
3.0
 40
3.0
 40
3.0
 40
4.0
 40
4.0
 40
4.0
 40
5.0
 40
5.0
 40
5.0
 40
6.0
 40
6.0
 40
6.0
 40
7.0
 40
7.0
 40
7.0
 40
8.0
 40
8.0
 40
8.0
 40
8.0
 10
105.6262830682115
 20
-133.6676377704025
 10
105.8357448737147
 20
-133.7830484691584
 10
105.8546928988836
 20
-133.9683946062649
 10
105.8546928988836
 20
-134.0927625532824
 10
105.8546928988836
 20
-134.2643283084478
 10
105.8081841098327
 20
-134.4159125097988
 10
105.6262830682115
 20
-134.5175428266137
 10
105.4316351732949
 20
-134.6284749012387
 10
105.1949571134582
 20
-134.6488009646017
 10
105.0320040970059
 20
-134.6488009646017
 10
104.8879991057224
 20
-134.6488009646017
 10
104.6361626257507
 20
-134.6308864680784
 10
104.4373806162518
 20
-134.5175428266137
 10
104.2344644921706
 20
-134.4024766374063
 10
104.2110378428709
 20
-134.2305663726924
 10
104.2110378428709
 20
-134.0927625532824
 10
104.2110378428709
 20
-133.9229193458596
 10
104.2554795746306
 20
-133.7692680872174
 10
104.4373806162518
 20
-133.6676377704025
 10
104.6299614538772
 20
-133.5611843199083
 10
104.8583712845493
 20
-133.5363796324145
 10
105.0320040970059
 20
-133.5363796324145
 10
105.2032253426228
 20
-133.5363796324145
 10
105.433702230586
 20
-133.5591172626172
 10
105.6262830682115
 20
-133.6676377704025
 97
        0
 97
        0
 92
        1
 93
        1
 72
     4
 94
        3
 73
     0
 74
     1
 95
       17
 96
       13
 40
0.0
 40
0.0
 40
0.0
 40
0.0
 40
1.0
 40
1.0
 40
1.0
 40
2.0
 40
2.0
 40
2.0
 40
3.0
 40
3.0
 40
3.0
 40
4.0
 40
4.0
 40
4.0
 40
4.0
 10
104.4036186804963
 20
-134.0927625532824
 10
104.4036186804963
 20
-134.3594129438407
 10
104.6871500389324
 20
-134.4090223188283
 10
105.0320040970059
 20
-134.4090223188283
 10
105.3513644484886
 20
-134.4090223188283
 10
105.6600450039669
 20
-134.370781758942
 10
105.6600450039669
 20
-134.0927625532824
 10
105.6600450039669
 20
-133.8281792200152
 10
105.3789252123705
 20
-133.7761582781879
 10
105.0320040970059
 20
-133.7761582781879
 10
104.7122992359747
 20
-133.7761582781879
 10
104.4036186804963
 20
-133.8168104049139
 10
104.4036186804963
 20
-134.0927625532824
 97
        0
 97
        0
 75
     2
 76
     1
 98
        0
  0
POLYLINE
  5
9B
330
94
100
AcDbEntity
  8
_U+30EC_U+30A4_U+30E4_U+30FC 1
370
     0
100
AcDb2dPolyline
 66
     1
 10
0.0
 20
0.0
 30
0.0
  0
VERTEX
  5
9C
330
9B
100
AcDbEntity
  8
_U+30EC_U+30A4_U+30E4_U+30FC 1
370
     0
100
AcDbVertex
100
AcDb2dVertex
 10
105.8040499952504
 20
-133.3052137253543
 30
0.0
  0
VERTEX
  5
9D
330
9B
100
AcDbEntity
  8
_U+30EC_U+30A4_U+30E4_U+30FC 1
370
     0
100
AcDbVertex
100
AcDb2dVertex
 10
105.5522135152786
 20
-133.3052137253543
 30
0.0
  0
VERTEX
  5
9E
330
9B
100
AcDbEntity
  8
_U+30EC_U+30A4_U+30E4_U+30FC 1
370
     0
100
AcDbVertex
100
AcDb2dVertex
 10
105.5522135152786
 20
-133.0361517679563
 30
0.0
  0
VERTEX
  5
9F
330
9B
100
AcDbEntity
  8
_U+30EC_U+30A4_U+30E4_U+30FC 1
370
     0
100
AcDbVertex
100
AcDb2dVertex
 10
105.8040499952504
 20
-133.0361517679563
 30
0.0
  0
VERTEX
  5
A0
330
9B
100
AcDbEntity
  8
_U+30EC_U+30A4_U+30E4_U+30FC 1
370
     0
100
AcDbVertex
100
AcDb2dVertex
 10
105.8040499952504
 20
-133.3052137253543
 30
0.0
  0
SEQEND
  5
A1
330
9B
100
AcDbEntity
  8
_U+30EC_U+30A4_U+30E4_U+30FC 1
370
     0
  0
HATCH
  5
A2
330
94
100
AcDbEntity
  8
_U+30EC_U+30A4_U+30E4_U+30FC 1
 62
   179
420
  2234388
100
AcDbHatch
 10
0.0
 20
0.0
 30
0.0
210
0.0
220
0.0
230
1.0
  2
SOLID
 70
     1
 71
     0
 91
        1
 92
        1
 93
        4
 72
     1
 10
105.8040499952504
 20
-133.3052137253543
 11
105.5522135152786
 21
-133.3052137253543
 72
     1
 10
105.5522135152786
 20
-133.3052137253543
 11
105.5522135152786
 21
-133.0361517679563
 72
     1
 10
105.5522135152786
 20
-133.0361517679563
 11
105.8040499952504
 21
-133.0361517679563
 72
     1
 10
105.8040499952504
 20
-133.0361517679563
 11
105.8040499952504
 21
-133.3052137253543
 97
        0
 75
     2
 76
     1
 98
        0
  0
SPLINE
  5
A3
330
94
100
AcDbEntity
  8
_U+30EC_U+30A4_U+30E4_U+30FC 1
370
     0
100
AcDbSpline
210
0.0
220
0.0
230
1.0
 70
    11
 71
     3
 72
    26
 73
    22
 74
     0
 42
0.0000000001
 43
0.0000000001
 12
1.0
 22
0.0
 32
0.0
 13
1.0
 23
0.0
 33
0.0
 40
0.0
 40
0.0
 40
0.0
 40
0.0
 40
1.0
 40
1.0
 40
1.0
 40
2.0
 40
2.0
 40
2.0
 40
3.0
 40
3.0
 40
3.0
 40
4.0
 40
4.0
 40
4.0
 40
5.0
 40
5.0
 40
5.0
 40
6.0
 40
6.0
 40
6.0
 40
7.0
 40
7.0
 40
7.0
 40
7.0
 10
105.8040499952504
 20
-132.343687575421
 30
0.0
 10
105.8040499952504
 20
-132.343687575421
 30
0.0
 10
105.8040499952504
 20
-132.5969020935869
 30
0.0
 10
105.8040499952504
 20
-132.5969020935869
 30
0.0
 10
105.4950249302235
 20
-132.5700303488019
 30
0.0
 10
104.9768825692419
 20
-132.364013638784
 30
0.0
 10
104.4711425520072
 20
-131.9299316076425
 30
0.0
 10
104.4711425520072
 20
-131.9299316076425
 30
0.0
 10
104.4711425520072
 20
-132.825311924259
 30
0.0
 10
104.4711425520072
 20
-132.825311924259
 30
0.0
 10
104.4711425520072
 20
-132.825311924259
 30
0.0
 10
104.2596136892129
 20
-132.825311924259
 30
0.0
 10
104.2596136892129
 20
-132.825311924259
 30
0.0
 10
104.2596136892129
 20
-132.825311924259
 30
0.0
 10
104.2596136892129
 20
-131.6767170894767
 30
0.0
 10
104.2596136892129
 20
-131.6767170894767
 30
0.0
 10
104.2596136892129
 20
-131.6767170894767
 30
0.0
 10
104.4711425520072
 20
-131.6767170894767
 30
0.0
 10
104.4711425520072
 20
-131.6767170894767
 30
0.0
 10
104.7612195918653
 20
-132.0226046761958
 30
0.0
 10
105.3534315057797
 20
-132.3075140728259
 30
0.0
 10
105.8040499952504
 20
-132.343687575421
 30
0.0
  0
HATCH
  5
A4
330
94
100
AcDbEntity
  8
_U+30EC_U+30A4_U+30E4_U+30FC 1
 62
   179
420
  2234388
100
AcDbHatch
 10
0.0
 20
0.0
 30
0.0
210
0.0
220
0.0
230
1.0
  2
SOLID
 70
     1
 71
     0
 91
        1
 92
        1
 93
        1
 72
     4
 94
        3
 73
     0
 74
     1
 95
       26
 96
       22
 40
0.0
 40
0.0
 40
0.0
 40
0.0
 40
1.0
 40
1.0
 40
1.0
 40
2.0
 40
2.0
 40
2.0
 40
3.0
 40
3.0
 40
3.0
 40
4.0
 40
4.0
 40
4.0
 40
5.0
 40
5.0
 40
5.0
 40
6.0
 40
6.0
 40
6.0
 40
7.0
 40
7.0
 40
7.0
 40
7.0
 10
105.8040499952504
 20
-132.343687575421
 10
105.8040499952504
 20
-132.343687575421
 10
105.8040499952504
 20
-132.5969020935869
 10
105.8040499952504
 20
-132.5969020935869
 10
105.4950249302235
 20
-132.5700303488019
 10
104.9768825692419
 20
-132.364013638784
 10
104.4711425520072
 20
-131.9299316076425
 10
104.4711425520072
 20
-131.9299316076425
 10
104.4711425520072
 20
-132.825311924259
 10
104.4711425520072
 20
-132.825311924259
 10
104.4711425520072
 20
-132.825311924259
 10
104.2596136892129
 20
-132.825311924259
 10
104.2596136892129
 20
-132.825311924259
 10
104.2596136892129
 20
-132.825311924259
 10
104.2596136892129
 20
-131.6767170894767
 10
104.2596136892129
 20
-131.6767170894767
 10
104.2596136892129
 20
-131.6767170894767
 10
104.4711425520072
 20
-131.6767170894767
 10
104.4711425520072
 20
-131.6767170894767
 10
104.7612195918653
 20
-132.0226046761958
 10
105.3534315057797
 20
-132.3075140728259
 10
105.8040499952504
 20
-132.343687575421
 97
        0
 97
        0
 75
     2
 76
     1
 98
        0
  0
ENDBLK
  5
97
330
94
100
AcDbEntity
  8
0
100
AcDbBlockEnd
  0
BLOCK
  5
B3
330
B1
100
AcDbEntity
  8
0
100
AcDbBlockBegin
  2
block 3
 70
     0
 10
0.0
 20
0.0
 30
0.0
  3
block 3
  1

  0
SPLINE
  5
B5
330
B1
100
AcDbEntity
  8
_U+30EC_U+30A4_U+30E4_U+30FC 1
370
     0
100
AcDbSpline
210
0.0
220
0.0
230
1.0
 70
    11
 71
     3
 72
    44
 73
    40
 74
     0
 42
0.0000000001
 43
0.0000000001
 12
1.0
 22
0.0
 32
0.0
 13
1.0
 23
0.0
 33
0.0
 40
0.0
 40
0.0
 40
0.0
 40
0.0
 40
1.0
 40
1.0
 40
1.0
 40
2.0
 40
2.0
 40
2.0
 40
3.0
 40
3.0
 40
3.0
 40
4.0
 40
4.0
 40
4.0
 40
5.0
 40
5.0
 40
5.0
 40
6.0
 40
6.0
 40
6.0
 40
7.0
 40
7.0
 40
7.0
 40
8.0
 40
8.0
 40
8.0
 40
9.0
 40
9.0
 40
9.0
 40
10.0
 40
10.0
 40
10.0
 40
11.0
 40
11.0
 40
11.0
 40
12.0
 40
12.0
 40
12.0
 40
13.0
 40
13.0
 40
13.0
 40
13.0
 10
91.75736217324122
 20
-136.3148491412685
 30
0.0
 10
91.52447371843833
 20
-136.4736680431385
 30
0.0
 10
91.42491045891461
 20
-136.5477375960714
 30
0.0
 10
91.37288951708734
 20
-136.6913980778063
 30
0.0
 10
91.37288951708734
 20
-136.6913980778063
 30
0.0
 10
92.2052245863237
 20
-136.6913980778063
 30
0.0
 10
92.2052245863237
 20
-136.6913980778063
 30
0.0
 10
92.2052245863237
 20
-136.6913980778063
 30
0.0
 10
92.2052245863237
 20
-136.8967257687272
 30
0.0
 10
92.2052245863237
 20
-136.8967257687272
 30
0.0
 10
92.2052245863237
 20
-136.8967257687272
 30
0.0
 10
91.106239126529
 20
-136.8967257687272
 30
0.0
 10
91.106239126529
 20
-136.8967257687272
 30
0.0
 10
91.14034557183297
 20
-136.5391248573583
 30
0.0
 10
91.21028101018355
 20
-136.4609211898431
 30
0.0
 10
91.62162541112238
 20
-136.1625759208205
 30
0.0
 10
91.89516599265121
 20
-135.9637939113215
 30
0.0
 10
91.96544594055031
 20
-135.8959255302621
 30
0.0
 10
91.96544594055031
 20
-135.7584662204007
 30
0.0
 10
91.96544594055031
 20
-135.6399549357081
 30
0.0
 10
91.88862031122923
 20
-135.5090413072686
 30
0.0
 10
91.67812497708047
 20
-135.5090413072686
 30
0.0
 10
91.40010577142081
 20
-135.5090413072686
 30
0.0
 10
91.39114852315916
 20
-135.7395181952318
 30
0.0
 10
91.38666989902833
 20
-135.8559624226332
 30
0.0
 10
91.38666989902833
 20
-135.8559624226332
 30
0.0
 10
91.14689125325495
 20
-135.8559624226332
 30
0.0
 10
91.14689125325495
 20
-135.8559624226332
 30
0.0
 10
91.1558485015166
 20
-135.7288383992275
 30
0.0
 10
91.16721731661792
 20
-135.6168727959569
 30
0.0
 10
91.25334470374916
 20
-135.4983615112643
 30
0.0
 10
91.37082245979619
 20
-135.3374755521031
 30
0.0
 10
91.5696044692951
 20
-135.3037136163477
 30
0.0
 10
91.69397241631262
 20
-135.3037136163477
 30
0.0
 10
91.99025062804411
 20
-135.3037136163477
 30
0.0
 10
92.21177026774568
 20
-135.48768171526
 30
0.0
 10
92.21177026774568
 20
-135.7605332776918
 30
0.0
 10
92.21177026774568
 20
-135.9892876179124
 30
0.0
 10
92.08740232072816
 20
-136.0885063678876
 30
0.0
 10
91.75736217324122
 20
-136.3148491412685
 30
0.0
  0
HATCH
  5
B6
330
B1
100
AcDbEntity
  8
_U+30EC_U+30A4_U+30E4_U+30FC 1
 62
   179
420
  2234388
100
AcDbHatch
 10
0.0
 20
0.0
 30
0.0
210
0.0
220
0.0
230
1.0
  2
SOLID
 70
     1
 71
     0
 91
        1
 92
        1
 93
        1
 72
     4
 94
        3
 73
     0
 74
     1
 95
       44
 96
       40
 40
0.0
 40
0.0
 40
0.0
 40
0.0
 40
1.0
 40
1.0
 40
1.0
 40
2.0
 40
2.0
 40
2.0
 40
3.0
 40
3.0
 40
3.0
 40
4.0
 40
4.0
 40
4.0
 40
5.0
 40
5.0
 40
5.0
 40
6.0
 40
6.0
 40
6.0
 40
7.0
 40
7.0
 40
7.0
 40
8.0
 40
8.0
 40
8.0
 40
9.0
 40
9.0
 40
9.0
 40
10.0
 40
10.0
 40
10.0
 40
11.0
 40
11.0
 40
11.0
 40
12.0
 40
12.0
 40
12.0
 40
13.0
 40
13.0
 40
13.0
 40
13.0
 10
91.75736217324122
 20
-136.3148491412685
 10
91.52447371843833
 20
-136.4736680431385
 10
91.42491045891461
 20
-136.5477375960714
 10
91.37288951708734
 20
-136.6913980778063
 10
91.37288951708734
 20
-136.6913980778063
 10
92.2052245863237
 20
-136.6913980778063
 10
92.2052245863237
 20
-136.6913980778063
 10
92.2052245863237
 20
-136.6913980778063
 10
92.2052245863237
 20
-136.8967257687272
 10
92.2052245863237
 20
-136.8967257687272
 10
92.2052245863237
 20
-136.8967257687272
 10
91.106239126529
 20
-136.8967257687272
 10
91.106239126529
 20
-136.8967257687272
 10
91.14034557183297
 20
-136.5391248573583
 10
91.21028101018355
 20
-136.4609211898431
 10
91.62162541112238
 20
-136.1625759208205
 10
91.89516599265121
 20
-135.9637939113215
 10
91.96544594055031
 20
-135.8959255302621
 10
91.96544594055031
 20
-135.7584662204007
 10
91.96544594055031
 20
-135.6399549357081
 10
91.88862031122923
 20
-135.5090413072686
 10
91.67812497708047
 20
-135.5090413072686
 10
91.40010577142081
 20
-135.5090413072686
 10
91.39114852315916
 20
-135.7395181952318
 10
91.38666989902833
 20
-135.8559624226332
 10
91.38666989902833
 20
-135.8559624226332
 10
91.14689125325495
 20
-135.8559624226332
 10
91.14689125325495
 20
-135.8559624226332
 10
91.1558485015166
 20
-135.7288383992275
 10
91.16721731661792
 20
-135.6168727959569
 10
91.25334470374916
 20
-135.4983615112643
 10
91.37082245979619
 20
-135.3374755521031
 10
91.5696044692951
 20
-135.3037136163477
 10
91.69397241631262
 20
-135.3037136163477
 10
91.99025062804411
 20
-135.3037136163477
 10
92.21177026774568
 20
-135.48768171526
 10
92.21177026774568
 20
-135.7605332776918
 10
92.21177026774568
 20
-135.9892876179124
 10
92.08740232072816
 20
-136.0885063678876
 10
91.75736217324122
 20
-136.3148491412685
 97
        0
 97
        0
 75
     2
 76
     1
 98
        0
  0
SPLINE
  5
B7
330
B1
100
AcDbEntity
  8
_U+30EC_U+30A4_U+30E4_U+30FC 1
370
     0
100
AcDbSpline
210
0.0
220
0.0
230
1.0
 70
    11
 71
     3
 72
    62
 73
    58
 74
     0
 42
0.0000000001
 43
0.0000000001
 12
1.0
 22
0.0
 32
0.0
 13
1.0
 23
0.0
 33
0.0
 40
0.0
 40
0.0
 40
0.0
 40
0.0
 40
1.0
 40
1.0
 40
1.0
 40
2.0
 40
2.0
 40
2.0
 40
3.0
 40
3.0
 40
3.0
 40
4.0
 40
4.0
 40
4.0
 40
5.0
 40
5.0
 40
5.0
 40
6.0
 40
6.0
 40
6.0
 40
7.0
 40
7.0
 40
7.0
 40
8.0
 40
8.0
 40
8.0
 40
9.0
 40
9.0
 40
9.0
 40
10.0
 40
10.0
 40
10.0
 40
11.0
 40
11.0
 40
11.0
 40
12.0
 40
12.0
 40
12.0
 40
13.0
 40
13.0
 40
13.0
 40
14.0
 40
14.0
 40
14.0
 40
15.0
 40
15.0
 40
15.0
 40
16.0
 40
16.0
 40
16.0
 40
17.0
 40
17.0
 40
17.0
 40
18.0
 40
18.0
 40
18.0
 40
19.0
 40
19.0
 40
19.0
 40
19.0
 10
92.90664602712056
 20
-136.9473686723604
 30
0.0
 10
92.8050157103057
 20
-136.9473686723604
 30
0.0
 10
92.5721272555028
 20
-136.9263535899004
 30
0.0
 10
92.43880206022364
 20
-136.7403184336969
 30
0.0
 10
92.35956486406289
 20
-136.6280083208777
 30
0.0
 10
92.35508623993206
 20
-136.5287895709025
 30
0.0
 10
92.35060761580124
 20
-136.4440402219654
 30
0.0
 10
92.35060761580124
 20
-136.4440402219654
 30
0.0
 10
92.58556312789528
 20
-136.4440402219654
 30
0.0
 10
92.58556312789528
 20
-136.4440402219654
 30
0.0
 10
92.58797469473495
 20
-136.5181097748982
 30
0.0
 10
92.59934350983627
 20
-136.7527207774438
 30
0.0
 10
92.90216740298975
 20
-136.7527207774438
 30
0.0
 10
93.0492729802099
 20
-136.7527207774438
 30
0.0
 10
93.2118814871137
 20
-136.6831298486417
 30
0.0
 10
93.2118814871137
 20
-136.4547200179697
 30
0.0
 10
93.2118814871137
 20
-136.3382757905682
 30
0.0
 10
93.17122936038776
 20
-136.2896999442262
 30
0.0
 10
93.1374674246323
 20
-136.2580050657619
 30
0.0
 10
93.05823022847156
 20
-136.183935512829
 30
0.0
 10
92.93386228145404
 20
-136.1711886595336
 30
0.0
 10
92.87495114865627
 20
-136.1711886595336
 30
0.0
 10
92.85462508529329
 20
-136.1711886595336
 30
0.0
 10
92.81638452540702
 20
-136.1732557168247
 30
0.0
 10
92.78675670423387
 20
-136.1773898314071
 30
0.0
 10
92.78675670423387
 20
-136.1773898314071
 30
0.0
 10
92.78675670423387
 20
-135.9827419364904
 30
0.0
 10
92.78675670423387
 20
-135.9827419364904
 30
0.0
 10
92.82740883095983
 20
-135.9892876179124
 30
0.0
 10
92.87288409136512
 20
-135.9913546752036
 30
0.0
 10
92.87942977278709
 20
-135.9913546752036
 30
0.0
 10
92.94970972068619
 20
-135.9913546752036
 30
0.0
 10
93.1622721121261
 20
-135.969995083195
 30
0.0
 10
93.1622721121261
 20
-135.7333170233584
 30
0.0
 10
93.1622721121261
 20
-135.5555500963195
 30
0.0
 10
93.02205672587644
 20
-135.5004285685555
 30
0.0
 10
92.90457896982942
 20
-135.5004285685555
 30
0.0
 10
92.6217366304904
 20
-135.5004285685555
 30
0.0
 10
92.61277938222875
 20
-135.7333170233584
 30
0.0
 10
92.60830075809793
 20
-135.8049750094515
 30
0.0
 10
92.60830075809793
 20
-135.8049750094515
 30
0.0
 10
92.39125974252718
 20
-135.8049750094515
 30
0.0
 10
92.39125974252718
 20
-135.8049750094515
 30
0.0
 10
92.40021699078883
 20
-135.6802625528855
 30
0.0
 10
92.42950030241346
 20
-135.3037136163477
 30
0.0
 10
92.9180148422219
 20
-135.3037136163477
 30
0.0
 10
93.15779348799528
 20
-135.3037136163477
 30
0.0
 10
93.41548663029197
 20
-135.4308376397534
 30
0.0
 10
93.41548663029197
 20
-135.7267713419364
 30
0.0
 10
93.41548663029197
 20
-135.9131510076884
 30
0.0
 10
93.31351180392858
 20
-135.9954887897859
 30
0.0
 10
93.20740286298287
 20
-136.0568114894233
 30
0.0
 10
93.27285967720262
 20
-136.0843722533053
 30
0.0
 10
93.46750757211923
 20
-136.1646429781116
 30
0.0
 10
93.46750757211923
 20
-136.4419731646742
 30
0.0
 10
93.46750757211923
 20
-136.7802815413258
 30
0.0
 10
93.20292423885205
 20
-136.9473686723604
 30
0.0
 10
92.90664602712056
 20
-136.9473686723604
 30
0.0
  0
HATCH
  5
B8
330
B1
100
AcDbEntity
  8
_U+30EC_U+30A4_U+30E4_U+30FC 1
 62
   179
420
  2234388
100
AcDbHatch
 10
0.0
 20
0.0
 30
0.0
210
0.0
220
0.0
230
1.0
  2
SOLID
 70
     1
 71
     0
 91
        1
 92
        1
 93
        1
 72
     4
 94
        3
 73
     0
 74
     1
 95
       62
 96
       58
 40
0.0
 40
0.0
 40
0.0
 40
0.0
 40
1.0
 40
1.0
 40
1.0
 40
2.0
 40
2.0
 40
2.0
 40
3.0
 40
3.0
 40
3.0
 40
4.0
 40
4.0
 40
4.0
 40
5.0
 40
5.0
 40
5.0
 40
6.0
 40
6.0
 40
6.0
 40
7.0
 40
7.0
 40
7.0
 40
8.0
 40
8.0
 40
8.0
 40
9.0
 40
9.0
 40
9.0
 40
10.0
 40
10.0
 40
10.0
 40
11.0
 40
11.0
 40
11.0
 40
12.0
 40
12.0
 40
12.0
 40
13.0
 40
13.0
 40
13.0
 40
14.0
 40
14.0
 40
14.0
 40
15.0
 40
15.0
 40
15.0
 40
16.0
 40
16.0
 40
16.0
 40
17.0
 40
17.0
 40
17.0
 40
18.0
 40
18.0
 40
18.0
 40
19.0
 40
19.0
 40
19.0
 40
19.0
 10
92.90664602712056
 20
-136.9473686723604
 10
92.8050157103057
 20
-136.9473686723604
 10
92.5721272555028
 20
-136.9263535899004
 10
92.43880206022364
 20
-136.7403184336969
 10
92.35956486406289
 20
-136.6280083208777
 10
92.35508623993206
 20
-136.5287895709025
 10
92.35060761580124
 20
-136.4440402219654
 10
92.35060761580124
 20
-136.4440402219654
 10
92.58556312789528
 20
-136.4440402219654
 10
92.58556312789528
 20
-136.4440402219654
 10
92.58797469473495
 20
-136.5181097748982
 10
92.59934350983627
 20
-136.7527207774438
 10
92.90216740298975
 20
-136.7527207774438
 10
93.0492729802099
 20
-136.7527207774438
 10
93.2118814871137
 20
-136.6831298486417
 10
93.2118814871137
 20
-136.4547200179697
 10
93.2118814871137
 20
-136.3382757905682
 10
93.17122936038776
 20
-136.2896999442262
 10
93.1374674246323
 20
-136.2580050657619
 10
93.05823022847156
 20
-136.183935512829
 10
92.93386228145404
 20
-136.1711886595336
 10
92.87495114865627
 20
-136.1711886595336
 10
92.85462508529329
 20
-136.1711886595336
 10
92.81638452540702
 20
-136.1732557168247
 10
92.78675670423387
 20
-136.1773898314071
 10
92.78675670423387
 20
-136.1773898314071
 10
92.78675670423387
 20
-135.9827419364904
 10
92.78675670423387
 20
-135.9827419364904
 10
92.82740883095983
 20
-135.9892876179124
 10
92.87288409136512
 20
-135.9913546752036
 10
92.87942977278709
 20
-135.9913546752036
 10
92.94970972068619
 20
-135.9913546752036
 10
93.1622721121261
 20
-135.969995083195
 10
93.1622721121261
 20
-135.7333170233584
 10
93.1622721121261
 20
-135.5555500963195
 10
93.02205672587644
 20
-135.5004285685555
 10
92.90457896982942
 20
-135.5004285685555
 10
92.6217366304904
 20
-135.5004285685555
 10
92.61277938222875
 20
-135.7333170233584
 10
92.60830075809793
 20
-135.8049750094515
 10
92.60830075809793
 20
-135.8049750094515
 10
92.39125974252718
 20
-135.8049750094515
 10
92.39125974252718
 20
-135.8049750094515
 10
92.40021699078883
 20
-135.6802625528855
 10
92.42950030241346
 20
-135.3037136163477
 10
92.9180148422219
 20
-135.3037136163477
 10
93.15779348799528
 20
-135.3037136163477
 10
93.41548663029197
 20
-135.4308376397534
 10
93.41548663029197
 20
-135.7267713419364
 10
93.41548663029197
 20
-135.9131510076884
 10
93.31351180392858
 20
-135.9954887897859
 10
93.20740286298287
 20
-136.0568114894233
 10
93.27285967720262
 20
-136.0843722533053
 10
93.46750757211923
 20
-136.1646429781116
 10
93.46750757211923
 20
-136.4419731646742
 10
93.46750757211923
 20
-136.7802815413258
 10
93.20292423885205
 20
-136.9473686723604
 10
92.90664602712056
 20
-136.9473686723604
 97
        0
 97
        0
 75
     2
 76
     1
 98
        0
  0
ENDBLK
  5
B4
330
B1
100
AcDbEntity
  8
0
100
AcDbBlockEnd
  0
BLOCK
  5
C7
330
C5
100
AcDbEntity
  8
0
100
AcDbBlockBegin
  2
block 4
 70
     0
 10
0.0
 20
0.0
 30
0.0
  3
block 4
  1

  0
SPLINE
  5
C9
330
C5
100
AcDbEntity
  8
_U+30EC_U+30A4_U+30E4_U+30FC 1
370
     0
100
AcDbSpline
210
0.0
220
0.0
230
1.0
 70
    11
 71
     3
 72
    26
 73
    22
 74
     0
 42
0.0000000001
 43
0.0000000001
 12
1.0
 22
0.0
 32
0.0
 13
1.0
 23
0.0
 33
0.0
 40
0.0
 40
0.0
 40
0.0
 40
0.0
 40
1.0
 40
1.0
 40
1.0
 40
2.0
 40
2.0
 40
2.0
 40
3.0
 40
3.0
 40
3.0
 40
4.0
 40
4.0
 40
4.0
 40
5.0
 40
5.0
 40
5.0
 40
6.0
 40
6.0
 40
6.0
 40
7.0
 40
7.0
 40
7.0
 40
7.0
 10
86.10602753923739
 20
-120.3969577064459
 30
0.0
 10
86.10602753923739
 20
-120.3969577064459
 30
0.0
 10
86.10602753923739
 20
-119.2928046034233
 30
0.0
 10
86.10602753923739
 20
-119.2928046034233
 30
0.0
 10
86.10602753923739
 20
-119.2928046034233
 30
0.0
 10
85.75359427109633
 20
-119.2928046034233
 30
0.0
 10
85.75359427109633
 20
-119.2928046034233
 30
0.0
 10
85.75359427109633
 20
-119.2928046034233
 30
0.0
 10
85.75359427109633
 20
-119.1446654975576
 30
0.0
 10
85.75359427109633
 20
-119.1446654975576
 30
0.0
 10
86.10843910607706
 20
-119.129851586971
 30
0.0
 10
86.15804848106465
 20
-118.9668985705187
 30
0.0
 10
86.18974335952896
 20
-118.8525214004084
 30
0.0
 10
86.18974335952896
 20
-118.8525214004084
 30
0.0
 10
86.34580618501077
 20
-118.8525214004084
 30
0.0
 10
86.34580618501077
 20
-118.8525214004084
 30
0.0
 10
86.34580618501077
 20
-118.8525214004084
 30
0.0
 10
86.34580618501077
 20
-120.3969577064459
 30
0.0
 10
86.34580618501077
 20
-120.3969577064459
 30
0.0
 10
86.34580618501077
 20
-120.3969577064459
 30
0.0
 10
86.10602753923739
 20
-120.3969577064459
 30
0.0
 10
86.10602753923739
 20
-120.3969577064459
 30
0.0
  0
HATCH
  5
CA
330
C5
100
AcDbEntity
  8
_U+30EC_U+30A4_U+30E4_U+30FC 1
 62
   179
420
  2234388
100
AcDbHatch
 10
0.0
 20
0.0
 30
0.0
210
0.0
220
0.0
230
1.0
  2
SOLID
 70
     1
 71
     0
 91
        1
 92
        1
 93
        1
 72
     4
 94
        3
 73
     0
 74
     1
 95
       26
 96
       22
 40
0.0
 40
0.0
 40
0.0
 40
0.0
 40
1.0
 40
1.0
 40
1.0
 40
2.0
 40
2.0
 40
2.0
 40
3.0
 40
3.0
 40
3.0
 40
4.0
 40
4.0
 40
4.0
 40
5.0
 40
5.0
 40
5.0
 40
6.0
 40
6.0
 40
6.0
 40
7.0
 40
7.0
 40
7.0
 40
7.0
 10
86.10602753923739
 20
-120.3969577064459
 10
86.10602753923739
 20
-120.3969577064459
 10
86.10602753923739
 20
-119.2928046034233
 10
86.10602753923739
 20
-119.2928046034233
 10
86.10602753923739
 20
-119.2928046034233
 10
85.75359427109633
 20
-119.2928046034233
 10
85.75359427109633
 20
-119.2928046034233
 10
85.75359427109633
 20
-119.2928046034233
 10
85.75359427109633
 20
-119.1446654975576
 10
85.75359427109633
 20
-119.1446654975576
 10
86.10843910607706
 20
-119.129851586971
 10
86.15804848106465
 20
-118.9668985705187
 10
86.18974335952896
 20
-118.8525214004084
 10
86.18974335952896
 20
-118.8525214004084
 10
86.34580618501077
 20
-118.8525214004084
 10
86.34580618501077
 20
-118.8525214004084
 10
86.34580618501077
 20
-118.8525214004084
 10
86.34580618501077
 20
-120.3969577064459
 10
86.34580618501077
 20
-120.3969577064459
 10
86.34580618501077
 20
-120.3969577064459
 10
86.10602753923739
 20
-120.3969577064459
 10
86.10602753923739
 20
-120.3969577064459
 97
        0
 97
        0
 75
     2
 76
     1
 98
        0
  0
SPLINE
  5
CB
330
C5
100
AcDbEntity
  8
_U+30EC_U+30A4_U+30E4_U+30FC 1
370
     0
100
AcDbSpline
210
0.0
220
0.0
230
1.0
 70
    11
 71
     3
 72
    44
 73
    40
 74
     0
 42
0.0000000001
 43
0.0000000001
 12
1.0
 22
0.0
 32
0.0
 13
1.0
 23
0.0
 33
0.0
 40
0.0
 40
0.0
 40
0.0
 40
0.0
 40
1.0
 40
1.0
 40
1.0
 40
2.0
 40
2.0
 40
2.0
 40
3.0
 40
3.0
 40
3.0
 40
4.0
 40
4.0
 40
4.0
 40
5.0
 40
5.0
 40
5.0
 40
6.0
 40
6.0
 40
6.0
 40
7.0
 40
7.0
 40
7.0
 40
8.0
 40
8.0
 40
8.0
 40
9.0
 40
9.0
 40
9.0
 40
10.0
 40
10.0
 40
10.0
 40
11.0
 40
11.0
 40
11.0
 40
12.0
 40
12.0
 40
12.0
 40
13.0
 40
13.0
 40
13.0
 40
13.0
 10
87.5154161022531
 20
-119.8150810789872
 30
0.0
 10
87.28252764745021
 20
-119.9738999808572
 30
0.0
 10
87.18296438792649
 20
-120.0479695337901
 30
0.0
 10
87.13128795564774
 20
-120.191630015525
 30
0.0
 10
87.13128795564774
 20
-120.191630015525
 30
0.0
 10
87.96293400578705
 20
-120.191630015525
 30
0.0
 10
87.96293400578705
 20
-120.191630015525
 30
0.0
 10
87.96293400578705
 20
-120.191630015525
 30
0.0
 10
87.96293400578705
 20
-120.3969577064459
 30
0.0
 10
87.96293400578705
 20
-120.3969577064459
 30
0.0
 10
87.96293400578705
 20
-120.3969577064459
 30
0.0
 10
86.86429305554087
 20
-120.3969577064459
 30
0.0
 10
86.86429305554087
 20
-120.3969577064459
 30
0.0
 10
86.89839950084485
 20
-120.039356795077
 30
0.0
 10
86.96833493919542
 20
-119.9611531275618
 30
0.0
 10
87.37967934013425
 20
-119.6628078585392
 30
0.0
 10
87.6532199216631
 20
-119.4640258490403
 30
0.0
 10
87.72349986956219
 20
-119.3961574679808
 30
0.0
 10
87.72349986956219
 20
-119.2586981581194
 30
0.0
 10
87.72349986956219
 20
-119.1401868734268
 30
0.0
 10
87.64667424024111
 20
-119.0092732449873
 30
0.0
 10
87.43617890609235
 20
-119.0092732449873
 30
0.0
 10
87.15815970043269
 20
-119.0092732449873
 30
0.0
 10
87.14920245217104
 20
-119.2397501329505
 30
0.0
 10
87.14472382804021
 20
-119.3561943603519
 30
0.0
 10
87.14472382804021
 20
-119.3561943603519
 30
0.0
 10
86.90494518226683
 20
-119.3561943603519
 30
0.0
 10
86.90494518226683
 20
-119.3561943603519
 30
0.0
 10
86.91424694007699
 20
-119.2290703369462
 30
0.0
 10
86.9252712456298
 20
-119.1171047336756
 30
0.0
 10
87.01139863276104
 20
-118.998593448983
 30
0.0
 10
87.12887638880807
 20
-118.8377074898218
 30
0.0
 10
87.32765839830698
 20
-118.8039455540664
 30
0.0
 10
87.4520263453245
 20
-118.8039455540664
 30
0.0
 10
87.74830455705599
 20
-118.8039455540664
 30
0.0
 10
87.96982419675754
 20
-118.9879136529787
 30
0.0
 10
87.96982419675754
 20
-119.2607652154105
 30
0.0
 10
87.96982419675754
 20
-119.4895195556311
 30
0.0
 10
87.84545624974002
 20
-119.5887383056063
 30
0.0
 10
87.5154161022531
 20
-119.8150810789872
 30
0.0
  0
HATCH
  5
CC
330
C5
100
AcDbEntity
  8
_U+30EC_U+30A4_U+30E4_U+30FC 1
 62
   179
420
  2234388
100
AcDbHatch
 10
0.0
 20
0.0
 30
0.0
210
0.0
220
0.0
230
1.0
  2
SOLID
 70
     1
 71
     0
 91
        1
 92
        1
 93
        1
 72
     4
 94
        3
 73
     0
 74
     1
 95
       44
 96
       40
 40
0.0
 40
0.0
 40
0.0
 40
0.0
 40
1.0
 40
1.0
 40
1.0
 40
2.0
 40
2.0
 40
2.0
 40
3.0
 40
3.0
 40
3.0
 40
4.0
 40
4.0
 40
4.0
 40
5.0
 40
5.0
 40
5.0
 40
6.0
 40
6.0
 40
6.0
 40
7.0
 40
7.0
 40
7.0
 40
8.0
 40
8.0
 40
8.0
 40
9.0
 40
9.0
 40
9.0
 40
10.0
 40
10.0
 40
10.0
 40
11.0
 40
11.0
 40
11.0
 40
12.0
 40
12.0
 40
12.0
 40
13.0
 40
13.0
 40
13.0
 40
13.0
 10
87.5154161022531
 20
-119.8150810789872
 10
87.28252764745021
 20
-119.9738999808572
 10
87.18296438792649
 20
-120.0479695337901
 10
87.13128795564774
 20
-120.191630015525
 10
87.13128795564774
 20
-120.191630015525
 10
87.96293400578705
 20
-120.191630015525
 10
87.96293400578705
 20
-120.191630015525
 10
87.96293400578705
 20
-120.191630015525
 10
87.96293400578705
 20
-120.3969577064459
 10
87.96293400578705
 20
-120.3969577064459
 10
87.96293400578705
 20
-120.3969577064459
 10
86.86429305554087
 20
-120.3969577064459
 10
86.86429305554087
 20
-120.3969577064459
 10
86.89839950084485
 20
-120.039356795077
 10
86.96833493919542
 20
-119.9611531275618
 10
87.37967934013425
 20
-119.6628078585392
 10
87.6532199216631
 20
-119.4640258490403
 10
87.72349986956219
 20
-119.3961574679808
 10
87.72349986956219
 20
-119.2586981581194
 10
87.72349986956219
 20
-119.1401868734268
 10
87.64667424024111
 20
-119.0092732449873
 10
87.43617890609235
 20
-119.0092732449873
 10
87.15815970043269
 20
-119.0092732449873
 10
87.14920245217104
 20
-119.2397501329505
 10
87.14472382804021
 20
-119.3561943603519
 10
87.14472382804021
 20
-119.3561943603519
 10
86.90494518226683
 20
-119.3561943603519
 10
86.90494518226683
 20
-119.3561943603519
 10
86.91424694007699
 20
-119.2290703369462
 10
86.9252712456298
 20
-119.1171047336756
 10
87.01139863276104
 20
-118.998593448983
 10
87.12887638880807
 20
-118.8377074898218
 10
87.32765839830698
 20
-118.8039455540664
 10
87.4520263453245
 20
-118.8039455540664
 10
87.74830455705599
 20
-118.8039455540664
 10
87.96982419675754
 20
-118.9879136529787
 10
87.96982419675754
 20
-119.2607652154105
 10
87.96982419675754
 20
-119.4895195556311
 10
87.84545624974002
 20
-119.5887383056063
 10
87.5154161022531
 20
-119.8150810789872
 97
        0
 97
        0
 75
     2
 76
     1
 98
        0
  0
ENDBLK
  5
C8
330
C5
100
AcDbEntity
  8
0
100
AcDbBlockEnd
  0
BLOCK
  5
DB
330
D9
100
AcDbEntity
  8
0
100
AcDbBlockBegin
  2
block 5
 70
     0
 10
0.0
 20
0.0
 30
0.0
  3
block 5
  1

  0
SPLINE
  5
DD
330
D9
100
AcDbEntity
  8
_U+30EC_U+30A4_U+30E4_U+30FC 1
370
     0
100
AcDbSpline
210
0.0
220
0.0
230
1.0
 70
    11
 71
     3
 72
    26
 73
    22
 74
     0
 42
0.0000000001
 43
0.0000000001
 12
1.0
 22
0.0
 32
0.0
 13
1.0
 23
0.0
 33
0.0
 40
0.0
 40
0.0
 40
0.0
 40
0.0
 40
1.0
 40
1.0
 40
1.0
 40
2.0
 40
2.0
 40
2.0
 40
3.0
 40
3.0
 40
3.0
 40
4.0
 40
4.0
 40
4.0
 40
5.0
 40
5.0
 40
5.0
 40
6.0
 40
6.0
 40
6.0
 40
7.0
 40
7.0
 40
7.0
 40
7.0
 10
76.18553057991195
 20
-136.5026068452146
 30
0.0
 10
76.18553057991195
 20
-136.5026068452146
 30
0.0
 10
75.08120522211512
 20
-136.5026068452146
 30
0.0
 10
75.08120522211512
 20
-136.5026068452146
 30
0.0
 10
75.08120522211512
 20
-136.5026068452146
 30
0.0
 10
75.08120522211512
 20
-136.8550401133557
 30
0.0
 10
75.08120522211512
 20
-136.8550401133557
 30
0.0
 10
75.08120522211512
 20
-136.8550401133557
 30
0.0
 10
74.93323837102363
 20
-136.8550401133557
 30
0.0
 10
74.93323837102363
 20
-136.8550401133557
 30
0.0
 10
74.91842446043707
 20
-136.5001952783749
 30
0.0
 10
74.75547144398475
 20
-136.4505859033873
 30
0.0
 10
74.64126652864871
 20
-136.4188910249231
 30
0.0
 10
74.64126652864871
 20
-136.4188910249231
 30
0.0
 10
74.64126652864871
 20
-136.2628281994412
 30
0.0
 10
74.64126652864871
 20
-136.2628281994412
 30
0.0
 10
74.64126652864871
 20
-136.2628281994412
 30
0.0
 10
76.18553057991195
 20
-136.2628281994412
 30
0.0
 10
76.18553057991195
 20
-136.2628281994412
 30
0.0
 10
76.18553057991195
 20
-136.2628281994412
 30
0.0
 10
76.18553057991195
 20
-136.5026068452146
 30
0.0
 10
76.18553057991195
 20
-136.5026068452146
 30
0.0
  0
HATCH
  5
DE
330
D9
100
AcDbEntity
  8
_U+30EC_U+30A4_U+30E4_U+30FC 1
 62
   179
420
  2234388
100
AcDbHatch
 10
0.0
 20
0.0
 30
0.0
210
0.0
220
0.0
230
1.0
  2
SOLID
 70
     1
 71
     0
 91
        1
 92
        1
 93
        1
 72
     4
 94
        3
 73
     0
 74
     1
 95
       26
 96
       22
 40
0.0
 40
0.0
 40
0.0
 40
0.0
 40
1.0
 40
1.0
 40
1.0
 40
2.0
 40
2.0
 40
2.0
 40
3.0
 40
3.0
 40
3.0
 40
4.0
 40
4.0
 40
4.0
 40
5.0
 40
5.0
 40
5.0
 40
6.0
 40
6.0
 40
6.0
 40
7.0
 40
7.0
 40
7.0
 40
7.0
 10
76.18553057991195
 20
-136.5026068452146
 10
76.18553057991195
 20
-136.5026068452146
 10
75.08120522211512
 20
-136.5026068452146
 10
75.08120522211512
 20
-136.5026068452146
 10
75.08120522211512
 20
-136.5026068452146
 10
75.08120522211512
 20
-136.8550401133557
 10
75.08120522211512
 20
-136.8550401133557
 10
75.08120522211512
 20
-136.8550401133557
 10
74.93323837102363
 20
-136.8550401133557
 10
74.93323837102363
 20
-136.8550401133557
 10
74.91842446043707
 20
-136.5001952783749
 10
74.75547144398475
 20
-136.4505859033873
 10
74.64126652864871
 20
-136.4188910249231
 10
74.64126652864871
 20
-136.4188910249231
 10
74.64126652864871
 20
-136.2628281994412
 10
74.64126652864871
 20
-136.2628281994412
 10
74.64126652864871
 20
-136.2628281994412
 10
76.18553057991195
 20
-136.2628281994412
 10
76.18553057991195
 20
-136.2628281994412
 10
76.18553057991195
 20
-136.2628281994412
 10
76.18553057991195
 20
-136.5026068452146
 10
76.18553057991195
 20
-136.5026068452146
 97
        0
 97
        0
 75
     2
 76
     1
 98
        0
  0
ENDBLK
  5
DC
330
D9
100
AcDbEntity
  8
0
100
AcDbBlockEnd
  0
BLOCK
  5
ED
330
EB
100
AcDbEntity
  8
0
100
AcDbBlockBegin
  2
block 6
 70
     0
 10
0.0
 20
0.0
 30
0.0
  3
block 6
  1

  0
SPLINE
  5
EF
330
EB
100
AcDbEntity
  8
_U+30EC_U+30A4_U+30E4_U+30FC 1
370
     0
100
AcDbSpline
210
0.0
220
0.0
230
1.0
 70
    11
 71
     3
 72
    26
 73
    22
 74
     0
 42
0.0000000001
 43
0.0000000001
 12
1.0
 22
0.0
 32
0.0
 13
1.0
 23
0.0
 33
0.0
 40
0.0
 40
0.0
 40
0.0
 40
0.0
 40
1.0
 40
1.0
 40
1.0
 40
2.0
 40
2.0
 40
2.0
 40
3.0
 40
3.0
 40
3.0
 40
4.0
 40
4.0
 40
4.0
 40
5.0
 40
5.0
 40
5.0
 40
6.0
 40
6.0
 40
6.0
 40
7.0
 40
7.0
 40
7.0
 40
7.0
 10
100.2298855001161
 20
-128.1968261398258
 30
0.0
 10
100.2298855001161
 20
-128.1968261398258
 30
0.0
 10
99.97667098195028
 20
-128.1968261398258
 30
0.0
 10
99.97667098195028
 20
-128.1968261398258
 30
0.0
 10
100.0035427267352
 20
-127.8879733295732
 30
0.0
 10
100.2095594367532
 20
-127.3696587138173
 30
0.0
 10
100.6436414678947
 20
-126.8640909513569
 30
0.0
 10
100.6436414678947
 20
-126.8640909513569
 30
0.0
 10
99.74826115127821
 20
-126.8640909513569
 30
0.0
 10
99.74826115127821
 20
-126.8640909513569
 30
0.0
 10
99.74826115127821
 20
-126.8640909513569
 30
0.0
 10
99.74826115127821
 20
-126.6525620885626
 30
0.0
 10
99.74826115127821
 20
-126.6525620885626
 30
0.0
 10
99.74826115127821
 20
-126.6525620885626
 30
0.0
 10
100.8968559860605
 20
-126.6525620885626
 30
0.0
 10
100.8968559860605
 20
-126.6525620885626
 30
0.0
 10
100.8968559860605
 20
-126.6525620885626
 30
0.0
 10
100.8968559860605
 20
-126.8640909513569
 30
0.0
 10
100.8968559860605
 20
-126.8640909513569
 30
0.0
 10
100.5509683993414
 20
-127.1538234816664
 30
0.0
 10
100.2660590027113
 20
-127.7462076503551
 30
0.0
 10
100.2298855001161
 20
-128.1968261398258
 30
0.0
  0
HATCH
  5
F0
330
EB
100
AcDbEntity
  8
_U+30EC_U+30A4_U+30E4_U+30FC 1
 62
   179
420
  2234388
100
AcDbHatch
 10
0.0
 20
0.0
 30
0.0
210
0.0
220
0.0
230
1.0
  2
SOLID
 70
     1
 71
     0
 91
        1
 92
        1
 93
        1
 72
     4
 94
        3
 73
     0
 74
     1
 95
       26
 96
       22
 40
0.0
 40
0.0
 40
0.0
 40
0.0
 40
1.0
 40
1.0
 40
1.0
 40
2.0
 40
2.0
 40
2.0
 40
3.0
 40
3.0
 40
3.0
 40
4.0
 40
4.0
 40
4.0
 40
5.0
 40
5.0
 40
5.0
 40
6.0
 40
6.0
 40
6.0
 40
7.0
 40
7.0
 40
7.0
 40
7.0
 10
100.2298855001161
 20
-128.1968261398258
 10
100.2298855001161
 20
-128.1968261398258
 10
99.97667098195028
 20
-128.1968261398258
 10
99.97667098195028
 20
-128.1968261398258
 10
100.0035427267352
 20
-127.8879733295732
 10
100.2095594367532
 20
-127.3696587138173
 10
100.6436414678947
 20
-126.8640909513569
 10
100.6436414678947
 20
-126.8640909513569
 10
99.74826115127821
 20
-126.8640909513569
 10
99.74826115127821
 20
-126.8640909513569
 10
99.74826115127821
 20
-126.8640909513569
 10
99.74826115127821
 20
-126.6525620885626
 10
99.74826115127821
 20
-126.6525620885626
 10
99.74826115127821
 20
-126.6525620885626
 10
100.8968559860605
 20
-126.6525620885626
 10
100.8968559860605
 20
-126.6525620885626
 10
100.8968559860605
 20
-126.6525620885626
 10
100.8968559860605
 20
-126.8640909513569
 10
100.8968559860605
 20
-126.8640909513569
 10
100.5509683993414
 20
-127.1538234816664
 10
100.2660590027113
 20
-127.7462076503551
 10
100.2298855001161
 20
-128.1968261398258
 97
        0
 97
        0
 75
     2
 76
     1
 98
        0
  0
ENDBLK
  5
EE
330
EB
100
AcDbEntity
  8
0
100
AcDbBlockEnd
  0
BLOCK
  5
FF
330
FD
100
AcDbEntity
  8
0
100
AcDbBlockBegin
  2
block 7
 70
     0
 10
0.0
 20
0.0
 30
0.0
  3
block 7
  1

  0
SPLINE
  5
101
330
FD
100
AcDbEntity
  8
_U+30EC_U+30A4_U+30E4_U+30FC 1
370
     0
100
AcDbSpline
210
0.0
220
0.0
230
1.0
 70
    11
 71
     3
 72
    32
 73
    28
 74
     0
 42
0.0000000001
 43
0.0000000001
 12
1.0
 22
0.0
 32
0.0
 13
1.0
 23
0.0
 33
0.0
 40
0.0
 40
0.0
 40
0.0
 40
0.0
 40
1.0
 40
1.0
 40
1.0
 40
2.0
 40
2.0
 40
2.0
 40
3.0
 40
3.0
 40
3.0
 40
4.0
 40
4.0
 40
4.0
 40
5.0
 40
5.0
 40
5.0
 40
6.0
 40
6.0
 40
6.0
 40
7.0
 40
7.0
 40
7.0
 40
8.0
 40
8.0
 40
8.0
 40
9.0
 40
9.0
 40
9.0
 40
9.0
 10
76.23651799309366
 20
-130.0130804796495
 30
0.0
 10
76.23651799309366
 20
-130.5649847763865
 30
0.0
 10
75.68220212951695
 20
-130.5739420246482
 30
0.0
 10
75.46860620943146
 20
-130.5739420246482
 30
0.0
 10
75.23795706669398
 20
-130.5739420246482
 30
0.0
 10
74.59062362501554
 20
-130.5536159612852
 30
0.0
 10
74.59062362501554
 20
-129.9724283529236
 30
0.0
 10
74.59062362501554
 20
-129.7870822158171
 30
0.0
 10
74.66038680859185
 20
-129.5249104493896
 30
0.0
 10
74.99249401336994
 20
-129.4842583226637
 30
0.0
 10
74.99249401336994
 20
-129.4842583226637
 30
0.0
 10
74.99249401336994
 20
-129.7126681533357
 30
0.0
 10
74.99249401336994
 20
-129.7126681533357
 30
0.0
 10
74.93547768308905
 20
-129.7236924588885
 30
0.0
 10
74.78733857722331
 20
-129.7577989041925
 30
0.0
 10
74.78733857722331
 20
-129.9748399197632
 30
0.0
 10
74.78733857722331
 20
-130.2869655707269
 30
0.0
 10
75.11531166741909
 20
-130.329684754744
 30
0.0
 10
75.32046710356572
 20
-130.343465136685
 30
0.0
 10
75.24226343605055
 20
-130.2439018771612
 30
0.0
 10
75.18300779370425
 20
-130.171554871971
 30
0.0
 10
75.18300779370425
 20
-129.9772514866029
 30
0.0
 10
75.18300779370425
 20
-129.785015158526
 30
0.0
 10
75.29083928239257
 20
-129.461520692461
 30
0.0
 10
75.69701604010352
 20
-129.461520692461
 30
0.0
 10
76.01637639158619
 20
-129.461520692461
 30
0.0
 10
76.23651799309366
 20
-129.6740830839009
 30
0.0
 10
76.23651799309366
 20
-130.0130804796495
 30
0.0
  0
SPLINE
  5
102
330
FD
100
AcDbEntity
  8
_U+30EC_U+30A4_U+30E4_U+30FC 1
370
     0
100
AcDbSpline
210
0.0
220
0.0
230
1.0
 70
    11
 71
     3
 72
    17
 73
    13
 74
     0
 42
0.0000000001
 43
0.0000000001
 12
1.0
 22
0.0
 32
0.0
 13
1.0
 23
0.0
 33
0.0
 40
0.0
 40
0.0
 40
0.0
 40
0.0
 40
1.0
 40
1.0
 40
1.0
 40
2.0
 40
2.0
 40
2.0
 40
3.0
 40
3.0
 40
3.0
 40
4.0
 40
4.0
 40
4.0
 40
4.0
 10
75.37765568862086
 20
-129.9951659831262
 30
0.0
 10
75.37765568862086
 20
-130.2755967556255
 30
0.0
 10
75.5891845514152
 20
-130.3162488823515
 30
0.0
 10
75.70545652404239
 20
-130.3162488823515
 30
0.0
 10
75.88098413901587
 20
-130.3162488823515
 30
0.0
 10
76.04393715546819
 20
-130.2146185655366
 30
0.0
 10
76.04393715546819
 20
-130.0179036133289
 30
0.0
 10
76.04393715546819
 20
-129.8890570421805
 30
0.0
 10
75.98468151312188
 20
-129.7012993382344
 30
0.0
 10
75.69908309739468
 20
-129.7012993382344
 30
0.0
 10
75.47480738130491
 20
-129.7012993382344
 30
0.0
 10
75.37765568862086
 20
-129.8504719727457
 30
0.0
 10
75.37765568862086
 20
-129.9951659831262
 30
0.0
  0
HATCH
  5
103
330
FD
100
AcDbEntity
  8
_U+30EC_U+30A4_U+30E4_U+30FC 1
 62
   179
420
  2234388
100
AcDbHatch
 10
0.0
 20
0.0
 30
0.0
210
0.0
220
0.0
230
1.0
  2
SOLID
 70
     1
 71
     0
 91
        2
 92
        1
 93
        1
 72
     4
 94
        3
 73
     0
 74
     1
 95
       32
 96
       28
 40
0.0
 40
0.0
 40
0.0
 40
0.0
 40
1.0
 40
1.0
 40
1.0
 40
2.0
 40
2.0
 40
2.0
 40
3.0
 40
3.0
 40
3.0
 40
4.0
 40
4.0
 40
4.0
 40
5.0
 40
5.0
 40
5.0
 40
6.0
 40
6.0
 40
6.0
 40
7.0
 40
7.0
 40
7.0
 40
8.0
 40
8.0
 40
8.0
 40
9.0
 40
9.0
 40
9.0
 40
9.0
 10
76.23651799309366
 20
-130.0130804796495
 10
76.23651799309366
 20
-130.5649847763865
 10
75.68220212951695
 20
-130.5739420246482
 10
75.46860620943146
 20
-130.5739420246482
 10
75.23795706669398
 20
-130.5739420246482
 10
74.59062362501554
 20
-130.5536159612852
 10
74.59062362501554
 20
-129.9724283529236
 10
74.59062362501554
 20
-129.7870822158171
 10
74.66038680859185
 20
-129.5249104493896
 10
74.99249401336994
 20
-129.4842583226637
 10
74.99249401336994
 20
-129.4842583226637
 10
74.99249401336994
 20
-129.7126681533357
 10
74.99249401336994
 20
-129.7126681533357
 10
74.93547768308905
 20
-129.7236924588885
 10
74.78733857722331
 20
-129.7577989041925
 10
74.78733857722331
 20
-129.9748399197632
 10
74.78733857722331
 20
-130.2869655707269
 10
75.11531166741909
 20
-130.329684754744
 10
75.32046710356572
 20
-130.343465136685
 10
75.24226343605055
 20
-130.2439018771612
 10
75.18300779370425
 20
-130.171554871971
 10
75.18300779370425
 20
-129.9772514866029
 10
75.18300779370425
 20
-129.785015158526
 10
75.29083928239257
 20
-129.461520692461
 10
75.69701604010352
 20
-129.461520692461
 10
76.01637639158619
 20
-129.461520692461
 10
76.23651799309366
 20
-129.6740830839009
 10
76.23651799309366
 20
-130.0130804796495
 97
        0
 97
        0
 92
        1
 93
        1
 72
     4
 94
        3
 73
     0
 74
     1
 95
       17
 96
       13
 40
0.0
 40
0.0
 40
0.0
 40
0.0
 40
1.0
 40
1.0
 40
1.0
 40
2.0
 40
2.0
 40
2.0
 40
3.0
 40
3.0
 40
3.0
 40
4.0
 40
4.0
 40
4.0
 40
4.0
 10
75.37765568862086
 20
-129.9951659831262
 10
75.37765568862086
 20
-130.2755967556255
 10
75.5891845514152
 20
-130.3162488823515
 10
75.70545652404239
 20
-130.3162488823515
 10
75.88098413901587
 20
-130.3162488823515
 10
76.04393715546819
 20
-130.2146185655366
 10
76.04393715546819
 20
-130.0179036133289
 10
76.04393715546819
 20
-129.8890570421805
 10
75.98468151312188
 20
-129.7012993382344
 10
75.69908309739468
 20
-129.7012993382344
 10
75.47480738130491
 20
-129.7012993382344
 10
75.37765568862086
 20
-129.8504719727457
 10
75.37765568862086
 20
-129.9951659831262
 97
        0
 97
        0
 75
     2
 76
     1
 98
        0
  0
POLYLINE
  5
104
330
FD
100
AcDbEntity
  8
_U+30EC_U+30A4_U+30E4_U+30FC 1
370
     0
100
AcDb2dPolyline
 66
     1
 10
0.0
 20
0.0
 30
0.0
  0
VERTEX
  5
105
330
104
100
AcDbEntity
  8
_U+30EC_U+30A4_U+30E4_U+30FC 1
370
     0
100
AcDbVertex
100
AcDb2dVertex
 10
76.18570283468621
 20
-129.2303547854007
 30
0.0
  0
VERTEX
  5
106
330
104
100
AcDbEntity
  8
_U+30EC_U+30A4_U+30E4_U+30FC 1
370
     0
100
AcDbVertex
100
AcDb2dVertex
 10
75.93403860948871
 20
-129.2303547854007
 30
0.0
  0
VERTEX
  5
107
330
104
100
AcDbEntity
  8
_U+30EC_U+30A4_U+30E4_U+30FC 1
370
     0
100
AcDbVertex
100
AcDb2dVertex
 10
75.93403860948871
 20
-128.9612928280027
 30
0.0
  0
VERTEX
  5
108
330
104
100
AcDbEntity
  8
_U+30EC_U+30A4_U+30E4_U+30FC 1
370
     0
100
AcDbVertex
100
AcDb2dVertex
 10
76.18570283468621
 20
-128.9612928280027
 30
0.0
  0
VERTEX
  5
109
330
104
100
AcDbEntity
  8
_U+30EC_U+30A4_U+30E4_U+30FC 1
370
     0
100
AcDbVertex
100
AcDb2dVertex
 10
76.18570283468621
 20
-129.2303547854007
 30
0.0
  0
SEQEND
  5
10A
330
104
100
AcDbEntity
  8
_U+30EC_U+30A4_U+30E4_U+30FC 1
370
     0
  0
HATCH
  5
10B
330
FD
100
AcDbEntity
  8
_U+30EC_U+30A4_U+30E4_U+30FC 1
 62
   179
420
  2234388
100
AcDbHatch
 10
0.0
 20
0.0
 30
0.0
210
0.0
220
0.0
230
1.0
  2
SOLID
 70
     1
 71
     0
 91
        1
 92
        1
 93
        4
 72
     1
 10
76.18570283468621
 20
-129.2303547854007
 11
75.93403860948871
 21
-129.2303547854007
 72
     1
 10
75.93403860948871
 20
-129.2303547854007
 11
75.93403860948871
 21
-128.9612928280027
 72
     1
 10
75.93403860948871
 20
-128.9612928280027
 11
76.18570283468621
 21
-128.9612928280027
 72
     1
 10
76.18570283468621
 20
-128.9612928280027
 11
76.18570283468621
 21
-129.2303547854007
 97
        0
 75
     2
 76
     1
 98
        0
  0
SPLINE
  5
10C
330
FD
100
AcDbEntity
  8
_U+30EC_U+30A4_U+30E4_U+30FC 1
370
     0
100
AcDbSpline
210
0.0
220
0.0
230
1.0
 70
    11
 71
     3
 72
    53
 73
    49
 74
     0
 42
0.0000000001
 43
0.0000000001
 12
1.0
 22
0.0
 32
0.0
 13
1.0
 23
0.0
 33
0.0
 40
0.0
 40
0.0
 40
0.0
 40
0.0
 40
1.0
 40
1.0
 40
1.0
 40
2.0
 40
2.0
 40
2.0
 40
3.0
 40
3.0
 40
3.0
 40
4.0
 40
4.0
 40
4.0
 40
5.0
 40
5.0
 40
5.0
 40
6.0
 40
6.0
 40
6.0
 40
7.0
 40
7.0
 40
7.0
 40
8.0
 40
8.0
 40
8.0
 40
9.0
 40
9.0
 40
9.0
 40
10.0
 40
10.0
 40
10.0
 40
11.0
 40
11.0
 40
11.0
 40
12.0
 40
12.0
 40
12.0
 40
13.0
 40
13.0
 40
13.0
 40
14.0
 40
14.0
 40
14.0
 40
15.0
 40
15.0
 40
15.0
 40
16.0
 40
16.0
 40
16.0
 40
16.0
 10
76.23651799309366
 20
-128.1945868277604
 30
0.0
 10
76.23651799309366
 20
-128.2783026480519
 30
0.0
 10
76.21963702521593
 20
-128.3864786462888
 30
0.0
 10
76.15607501351307
 20
-128.4953436636227
 30
0.0
 10
76.04600421275934
 20
-128.6806898007291
 30
0.0
 10
75.91491832954559
 20
-128.7030829213833
 30
0.0
 10
75.80708684085727
 20
-128.7234089847462
 30
0.0
 10
75.80708684085727
 20
-128.7234089847462
 30
0.0
 10
75.80708684085727
 20
-128.4860419058125
 30
0.0
 10
75.80708684085727
 20
-128.4860419058125
 30
0.0
 10
76.00586885035618
 20
-128.4274752825633
 30
0.0
 10
76.03549667152933
 20
-128.2917385204444
 30
0.0
 10
76.03549667152933
 20
-128.1921752609207
 30
0.0
 10
76.03549667152933
 20
-128.0430026264094
 30
0.0
 10
75.93610566677987
 20
-127.8800496099571
 30
0.0
 10
75.70338946675123
 20
-127.8800496099571
 30
0.0
 10
75.44741887219718
 20
-127.8800496099571
 30
0.0
 10
75.37765568862086
 20
-128.072285938034
 30
0.0
 10
75.37765568862086
 20
-128.2011325091824
 30
0.0
 10
75.37765568862086
 20
-128.2352389544863
 30
0.0
 10
75.37765568862086
 20
-128.3864786462888
 30
0.0
 10
75.50667451454348
 20
-128.4815632816817
 30
0.0
 10
75.50667451454348
 20
-128.4815632816817
 30
0.0
 10
75.48755423460034
 20
-128.6693209856278
 30
0.0
 10
75.48755423460034
 20
-128.6693209856278
 30
0.0
 10
75.48755423460034
 20
-128.6693209856278
 30
0.0
 10
74.64143878342297
 20
-128.5404744144795
 30
0.0
 10
74.64143878342297
 20
-128.5404744144795
 30
0.0
 10
74.64143878342297
 20
-128.5404744144795
 30
0.0
 10
74.64143878342297
 20
-127.7084838547916
 30
0.0
 10
74.64143878342297
 20
-127.7084838547916
 30
0.0
 10
74.64143878342297
 20
-127.7084838547916
 30
0.0
 10
74.8360866783396
 20
-127.7084838547916
 30
0.0
 10
74.8360866783396
 20
-127.7084838547916
 30
0.0
 10
74.8360866783396
 20
-127.7084838547916
 30
0.0
 10
74.8360866783396
 20
-128.3661525829258
 30
0.0
 10
74.8360866783396
 20
-128.3661525829258
 30
0.0
 10
74.8360866783396
 20
-128.3661525829258
 30
0.0
 10
75.25914440392827
 20
-128.4364325308249
 30
0.0
 10
75.25914440392827
 20
-128.4364325308249
 30
0.0
 10
75.22521021339857
 20
-128.3709757166052
 30
0.0
 10
75.1850748509954
 20
-128.2827812721828
 30
0.0
 10
75.1850748509954
 20
-128.1560017583256
 30
0.0
 10
75.1850748509954
 20
-127.8848727436364
 30
0.0
 10
75.37128226197315
 20
-127.6316582254706
 30
0.0
 10
75.68426918680811
 20
-127.6316582254706
 30
0.0
 10
76.00173473577388
 20
-127.6316582254706
 30
0.0
 10
76.23651799309366
 20
-127.8710923616954
 30
0.0
 10
76.23651799309366
 20
-128.1945868277604
 30
0.0
  0
HATCH
  5
10D
330
FD
100
AcDbEntity
  8
_U+30EC_U+30A4_U+30E4_U+30FC 1
 62
   179
420
  2234388
100
AcDbHatch
 10
0.0
 20
0.0
 30
0.0
210
0.0
220
0.0
230
1.0
  2
SOLID
 70
     1
 71
     0
 91
        1
 92
        1
 93
        1
 72
     4
 94
        3
 73
     0
 74
     1
 95
       53
 96
       49
 40
0.0
 40
0.0
 40
0.0
 40
0.0
 40
1.0
 40
1.0
 40
1.0
 40
2.0
 40
2.0
 40
2.0
 40
3.0
 40
3.0
 40
3.0
 40
4.0
 40
4.0
 40
4.0
 40
5.0
 40
5.0
 40
5.0
 40
6.0
 40
6.0
 40
6.0
 40
7.0
 40
7.0
 40
7.0
 40
8.0
 40
8.0
 40
8.0
 40
9.0
 40
9.0
 40
9.0
 40
10.0
 40
10.0
 40
10.0
 40
11.0
 40
11.0
 40
11.0
 40
12.0
 40
12.0
 40
12.0
 40
13.0
 40
13.0
 40
13.0
 40
14.0
 40
14.0
 40
14.0
 40
15.0
 40
15.0
 40
15.0
 40
16.0
 40
16.0
 40
16.0
 40
16.0
 10
76.23651799309366
 20
-128.1945868277604
 10
76.23651799309366
 20
-128.2783026480519
 10
76.21963702521593
 20
-128.3864786462888
 10
76.15607501351307
 20
-128.4953436636227
 10
76.04600421275934
 20
-128.6806898007291
 10
75.91491832954559
 20
-128.7030829213833
 10
75.80708684085727
 20
-128.7234089847462
 10
75.80708684085727
 20
-128.7234089847462
 10
75.80708684085727
 20
-128.4860419058125
 10
75.80708684085727
 20
-128.4860419058125
 10
76.00586885035618
 20
-128.4274752825633
 10
76.03549667152933
 20
-128.2917385204444
 10
76.03549667152933
 20
-128.1921752609207
 10
76.03549667152933
 20
-128.0430026264094
 10
75.93610566677987
 20
-127.8800496099571
 10
75.70338946675123
 20
-127.8800496099571
 10
75.44741887219718
 20
-127.8800496099571
 10
75.37765568862086
 20
-128.072285938034
 10
75.37765568862086
 20
-128.2011325091824
 10
75.37765568862086
 20
-128.2352389544863
 10
75.37765568862086
 20
-128.3864786462888
 10
75.50667451454348
 20
-128.4815632816817
 10
75.50667451454348
 20
-128.4815632816817
 10
75.48755423460034
 20
-128.6693209856278
 10
75.48755423460034
 20
-128.6693209856278
 10
75.48755423460034
 20
-128.6693209856278
 10
74.64143878342297
 20
-128.5404744144795
 10
74.64143878342297
 20
-128.5404744144795
 10
74.64143878342297
 20
-128.5404744144795
 10
74.64143878342297
 20
-127.7084838547916
 10
74.64143878342297
 20
-127.7084838547916
 10
74.64143878342297
 20
-127.7084838547916
 10
74.8360866783396
 20
-127.7084838547916
 10
74.8360866783396
 20
-127.7084838547916
 10
74.8360866783396
 20
-127.7084838547916
 10
74.8360866783396
 20
-128.3661525829258
 10
74.8360866783396
 20
-128.3661525829258
 10
74.8360866783396
 20
-128.3661525829258
 10
75.25914440392827
 20
-128.4364325308249
 10
75.25914440392827
 20
-128.4364325308249
 10
75.22521021339857
 20
-128.3709757166052
 10
75.1850748509954
 20
-128.2827812721828
 10
75.1850748509954
 20
-128.1560017583256
 10
75.1850748509954
 20
-127.8848727436364
 10
75.37128226197315
 20
-127.6316582254706
 10
75.68426918680811
 20
-127.6316582254706
 10
76.00173473577388
 20
-127.6316582254706
 10
76.23651799309366
 20
-127.8710923616954
 10
76.23651799309366
 20
-128.1945868277604
 97
        0
 97
        0
 75
     2
 76
     1
 98
        0
  0
ENDBLK
  5
100
330
FD
100
AcDbEntity
  8
0
100
AcDbBlockEnd
  0
ENDSEC
  0
SECTION
  2
ENTITIES
  0
POLYLINE
  5
41
330
1F
100
AcDbEntity
  8
_U+30EC_U+30A4_U+30E4_U+30FC 1
 62
   179
420
  2234388
370
    25
100
AcDb2dPolyline
 66
     1
 10
0.0
 20
0.0
 30
0.0
  0
VERTEX
  5
42
330
41
100
AcDbEntity
  8
_U+30EC_U+30A4_U+30E4_U+30FC 1
 62
   179
420
  2234388
370
    25
100
AcDbVertex
100
AcDb2dVertex
 10
81.14611876312337
 20
-132.4928558002099
 30
0.0
  0
VERTEX
  5
43
330
41
100
AcDbEntity
  8
_U+30EC_U+30A4_U+30E4_U+30FC 1
 62
   179
420
  2234388
370
    25
100
AcDbVertex
100
AcDb2dVertex
 10
86.28206918764992
 20
-132.4928558002099
 30
0.0
  0
SEQEND
  5
44
330
41
100
AcDbEntity
  8
_U+30EC_U+30A4_U+30E4_U+30FC 1
 62
   179
420
  2234388
370
    25
  0
POLYLINE
  5
45
330
1F
100
AcDbEntity
  8
_U+30EC_U+30A4_U+30E4_U+30FC 1
 62
   179
420
  2234388
370
    25
100
AcDb2dPolyline
 66
     1
 10
0.0
 20
0.0
 30
0.0
  0
VERTEX
  5
46
330
45
100
AcDbEntity
  8
_U+30EC_U+30A4_U+30E4_U+30FC 1
 62
   179
420
  2234388
370
    25
100
AcDbVertex
100
AcDb2dVertex
 10
80.78198155019106
 20
-125.992995801835
 30
0.0
  0
VERTEX
  5
47
330
45
100
AcDbEntity
  8
_U+30EC_U+30A4_U+30E4_U+30FC 1
 62
   179
420
  2234388
370
    25
100
AcDbVertex
100
AcDb2dVertex
 10
86.28206918764992
 20
-125.992995801835
 30
0.0
  0
SEQEND
  5
48
330
45
100
AcDbEntity
  8
_U+30EC_U+30A4_U+30E4_U+30FC 1
 62
   179
420
  2234388
370
    25
  0
POLYLINE
  5
49
330
1F
100
AcDbEntity
  8
_U+30EC_U+30A4_U+30E4_U+30FC 1
 62
   179
420
  2234388
370
    25
100
AcDb2dPolyline
 66
     1
 10
0.0
 20
0.0
 30
0.0
  0
VERTEX
  5
4A
330
49
100
AcDbEntity
  8
_U+30EC_U+30A4_U+30E4_U+30FC 1
 62
   179
420
  2234388
370
    25
100
AcDbVertex
100
AcDb2dVertex
 10
81.14611876312337
 20
-124.992870802085
 30
0.0
  0
VERTEX
  5
4B
330
49
100
AcDbEntity
  8
_U+30EC_U+30A4_U+30E4_U+30FC 1
 62
   179
420
  2234388
370
    25
100
AcDbVertex
100
AcDb2dVertex
 10
92.41779180889237
 20
-124.992870802085
 30
0.0
  0
SEQEND
  5
4C
330
49
100
AcDbEntity
  8
_U+30EC_U+30A4_U+30E4_U+30FC 1
 62
   179
420
  2234388
370
    25
  0
POLYLINE
  5
4D
330
1F
100
AcDbEntity
  8
_U+30EC_U+30A4_U+30E4_U+30FC 1
 62
   179
420
  2234388
370
    25
100
AcDb2dPolyline
 66
     1
 10
0.0
 20
0.0
 30
0.0
  0
VERTEX
  5
4E
330
4D
100
AcDbEntity
  8
_U+30EC_U+30A4_U+30E4_U+30FC 1
 62
   179
420
  2234388
370
    25
100
AcDbVertex
100
AcDb2dVertex
 10
80.78198155019106
 20
-133.4929807999602
 30
0.0
  0
VERTEX
  5
4F
330
4D
100
AcDbEntity
  8
_U+30EC_U+30A4_U+30E4_U+30FC 1
 62
   179
420
  2234388
370
    25
100
AcDbVertex
100
AcDb2dVertex
 10
103.7821042967424
 20
-133.4929807999602
 30
0.0
  0
SEQEND
  5
50
330
4D
100
AcDbEntity
  8
_U+30EC_U+30A4_U+30E4_U+30FC 1
 62
   179
420
  2234388
370
    25
  0
POLYLINE
  5
51
330
1F
100
AcDbEntity
  8
_U+30EC_U+30A4_U+30E4_U+30FC 1
 62
   179
420
  2234388
370
    25
100
AcDb2dPolyline
 66
     1
 10
0.0
 20
0.0
 30
0.0
  0
VERTEX
  5
52
330
51
100
AcDbEntity
  8
_U+30EC_U+30A4_U+30E4_U+30FC 1
 62
   179
420
  2234388
370
    25
100
AcDbVertex
100
AcDb2dVertex
 10
97.08176085657128
 20
-132.7929285779126
 30
0.0
  0
VERTEX
  5
53
330
51
100
AcDbEntity
  8
_U+30EC_U+30A4_U+30E4_U+30FC 1
 62
   179
420
  2234388
370
    25
100
AcDbVertex
100
AcDb2dVertex
 10
103.5271870810236
 20
-132.7929285779126
 30
0.0
  0
SEQEND
  5
54
330
51
100
AcDbEntity
  8
_U+30EC_U+30A4_U+30E4_U+30FC 1
 62
   179
420
  2234388
370
    25
  0
POLYLINE
  5
55
330
1F
100
AcDbEntity
  8
_U+30EC_U+30A4_U+30E4_U+30FC 1
 62
   179
420
  2234388
370
    25
100
AcDb2dPolyline
 66
     1
 10
0.0
 20
0.0
 30
0.0
  0
VERTEX
  5
56
330
55
100
AcDbEntity
  8
_U+30EC_U+30A4_U+30E4_U+30FC 1
 62
   179
420
  2234388
370
    25
100
AcDbVertex
100
AcDb2dVertex
 10
92.41779180889237
 20
-124.992870802085
 30
0.0
  0
VERTEX
  5
57
330
55
100
AcDbEntity
  8
_U+30EC_U+30A4_U+30E4_U+30FC 1
 62
   179
420
  2234388
370
    25
100
AcDbVertex
100
AcDb2dVertex
 10
92.78192902182468
 20
-125.992995801835
 30
0.0
  0
SEQEND
  5
58
330
55
100
AcDbEntity
  8
_U+30EC_U+30A4_U+30E4_U+30FC 1
 62
   179
420
  2234388
370
    25
  0
POLYLINE
  5
59
330
1F
100
AcDbEntity
  8
_U+30EC_U+30A4_U+30E4_U+30FC 1
 62
   179
420
  2234388
370
    25
100
AcDb2dPolyline
 66
     1
 10
0.0
 20
0.0
 30
0.0
  0
VERTEX
  5
5A
330
59
100
AcDbEntity
  8
_U+30EC_U+30A4_U+30E4_U+30FC 1
 62
   179
420
  2234388
370
    25
100
AcDbVertex
100
AcDb2dVertex
 10
103.5271870810236
 20
-132.7929285779126
 30
0.0
  0
VERTEX
  5
5B
330
59
100
AcDbEntity
  8
_U+30EC_U+30A4_U+30E4_U+30FC 1
 62
   179
420
  2234388
370
    25
100
AcDbVertex
100
AcDb2dVertex
 10
103.7821042967424
 20
-133.4929807999602
 30
0.0
  0
SEQEND
  5
5C
330
59
100
AcDbEntity
  8
_U+30EC_U+30A4_U+30E4_U+30FC 1
 62
   179
420
  2234388
370
    25
  0
POLYLINE
  5
5D
330
1F
100
AcDbEntity
  8
_U+30EC_U+30A4_U+30E4_U+30FC 1
 62
   179
420
  2234388
370
    25
100
AcDb2dPolyline
 66
     1
 10
0.0
 20
0.0
 30
0.0
  0
VERTEX
  5
5E
330
5D
100
AcDbEntity
  8
_U+30EC_U+30A4_U+30E4_U+30FC 1
 62
   179
420
  2234388
370
    25
100
AcDbVertex
100
AcDb2dVertex
 10
96.78204086421776
 20
-132.4928558002099
 30
0.0
  0
VERTEX
  5
5F
330
5D
100
AcDbEntity
  8
_U+30EC_U+30A4_U+30E4_U+30FC 1
 62
   179
420
  2234388
370
    25
100
AcDbVertex
100
AcDb2dVertex
 10
97.08176085657128
 20
-132.7929285779126
 30
0.0
  0
SEQEND
  5
60
330
5D
100
AcDbEntity
  8
_U+30EC_U+30A4_U+30E4_U+30FC 1
 62
   179
420
  2234388
370
    25
  0
POLYLINE
  5
61
330
1F
100
AcDbEntity
  8
_U+30EC_U+30A4_U+30E4_U+30FC 1
 62
   179
420
  2234388
370
    25
100
AcDb2dPolyline
 66
     1
 10
0.0
 20
0.0
 30
0.0
  0
VERTEX
  5
62
330
61
100
AcDbEntity
  8
_U+30EC_U+30A4_U+30E4_U+30FC 1
 62
   179
420
  2234388
370
    25
100
AcDbVertex
100
AcDb2dVertex
 10
80.78198155019106
 20
-125.992995801835
 30
0.0
  0
VERTEX
  5
63
330
61
100
AcDbEntity
  8
_U+30EC_U+30A4_U+30E4_U+30FC 1
 62
   179
420
  2234388
370
    25
100
AcDbVertex
100
AcDb2dVertex
 10
81.14611876312337
 20
-124.992870802085
 30
0.0
  0
SEQEND
  5
64
330
61
100
AcDbEntity
  8
_U+30EC_U+30A4_U+30E4_U+30FC 1
 62
   179
420
  2234388
370
    25
  0
POLYLINE
  5
65
330
1F
100
AcDbEntity
  8
_U+30EC_U+30A4_U+30E4_U+30FC 1
 62
   179
420
  2234388
370
    25
100
AcDb2dPolyline
 66
     1
 10
0.0
 20
0.0
 30
0.0
  0
VERTEX
  5
66
330
65
100
AcDbEntity
  8
_U+30EC_U+30A4_U+30E4_U+30FC 1
 62
   179
420
  2234388
370
    25
100
AcDbVertex
100
AcDb2dVertex
 10
80.78198155019106
 20
-133.4929807999602
 30
0.0
  0
VERTEX
  5
67
330
65
100
AcDbEntity
  8
_U+30EC_U+30A4_U+30E4_U+30FC 1
 62
   179
420
  2234388
370
    25
100
AcDbVertex
100
AcDb2dVertex
 10
81.14611876312337
 20
-132.4928558002099
 30
0.0
  0
SEQEND
  5
68
330
65
100
AcDbEntity
  8
_U+30EC_U+30A4_U+30E4_U+30FC 1
 62
   179
420
  2234388
370
    25
  0
POLYLINE
  5
69
330
1F
100
AcDbEntity
  8
_U+30EC_U+30A4_U+30E4_U+30FC 1
 62
   179
420
  2234388
370
    25
100
AcDb2dPolyline
 66
     1
 10
0.0
 20
0.0
 30
0.0
  0
VERTEX
  5
6A
330
69
100
AcDbEntity
  8
_U+30EC_U+30A4_U+30E4_U+30FC 1
 62
   179
420
  2234388
370
    25
100
AcDbVertex
100
AcDb2dVertex
 10
86.28206918764992
 20
-125.992995801835
 30
0.0
  0
VERTEX
  5
6B
330
69
100
AcDbEntity
  8
_U+30EC_U+30A4_U+30E4_U+30FC 1
 62
   179
420
  2234388
370
    25
100
AcDbVertex
100
AcDb2dVertex
 10
86.28206918764992
 20
-132.4928558002099
 30
0.0
  0
SEQEND
  5
6C
330
69
100
AcDbEntity
  8
_U+30EC_U+30A4_U+30E4_U+30FC 1
 62
   179
420
  2234388
370
    25
  0
POLYLINE
  5
6D
330
1F
100
AcDbEntity
  8
_U+30EC_U+30A4_U+30E4_U+30FC 1
 62
   179
420
  2234388
370
    25
100
AcDb2dPolyline
 66
     1
 10
0.0
 20
0.0
 30
0.0
  0
VERTEX
  5
6E
330
6D
100
AcDbEntity
  8
_U+30EC_U+30A4_U+30E4_U+30FC 1
 62
   179
420
  2234388
370
    25
100
AcDbVertex
100
AcDb2dVertex
 10
87.28184138436582
 20
-125.992995801835
 30
0.0
  0
VERTEX
  5
6F
330
6D
100
AcDbEntity
  8
_U+30EC_U+30A4_U+30E4_U+30FC 1
 62
   179
420
  2234388
370
    25
100
AcDbVertex
100
AcDb2dVertex
 10
87.28184138436582
 20
-132.4928558002099
 30
0.0
  0
SEQEND
  5
70
330
6D
100
AcDbEntity
  8
_U+30EC_U+30A4_U+30E4_U+30FC 1
 62
   179
420
  2234388
370
    25
  0
POLYLINE
  5
71
330
1F
100
AcDbEntity
  8
_U+30EC_U+30A4_U+30E4_U+30FC 1
 62
   179
420
  2234388
370
    25
100
AcDb2dPolyline
 66
     1
 10
0.0
 20
0.0
 30
0.0
  0
VERTEX
  5
72
330
71
100
AcDbEntity
  8
_U+30EC_U+30A4_U+30E4_U+30FC 1
 62
   179
420
  2234388
370
    25
100
AcDbVertex
100
AcDb2dVertex
 10
87.28184138436582
 20
-125.992995801835
 30
0.0
  0
VERTEX
  5
73
330
71
100
AcDbEntity
  8
_U+30EC_U+30A4_U+30E4_U+30FC 1
 62
   179
420
  2234388
370
    25
100
AcDbVertex
100
AcDb2dVertex
 10
92.78192902182468
 20
-125.992995801835
 30
0.0
  0
SEQEND
  5
74
330
71
100
AcDbEntity
  8
_U+30EC_U+30A4_U+30E4_U+30FC 1
 62
   179
420
  2234388
370
    25
  0
POLYLINE
  5
75
330
1F
100
AcDbEntity
  8
_U+30EC_U+30A4_U+30E4_U+30FC 1
 62
   179
420
  2234388
370
    25
100
AcDb2dPolyline
 66
     1
 10
0.0
 20
0.0
 30
0.0
  0
VERTEX
  5
76
330
75
100
AcDbEntity
  8
_U+30EC_U+30A4_U+30E4_U+30FC 1
 62
   179
420
  2234388
370
    25
100
AcDbVertex
100
AcDb2dVertex
 10
87.28184138436582
 20
-132.4928558002099
 30
0.0
  0
VERTEX
  5
77
330
75
100
AcDbEntity
  8
_U+30EC_U+30A4_U+30E4_U+30FC 1
 62
   179
420
  2234388
370
    25
100
AcDbVertex
100
AcDb2dVertex
 10
96.78204086421776
 20
-132.4928558002099
 30
0.0
  0
SEQEND
  5
78
330
75
100
AcDbEntity
  8
_U+30EC_U+30A4_U+30E4_U+30FC 1
 62
   179
420
  2234388
370
    25
  0
SPLINE
  5
79
330
1F
100
AcDbEntity
  8
_U+30EC_U+30A4_U+30E4_U+30FC 1
 62
   179
420
  2234388
370
     9
100
AcDbSpline
210
0.0
220
0.0
230
1.0
 70
    11
 71
     3
 72
    17
 73
    13
 74
     0
 42
0.0000000001
 43
0.0000000001
 12
1.0
 22
0.0
 32
0.0
 13
1.0
 23
0.0
 33
0.0
 40
0.0
 40
0.0
 40
0.0
 40
0.0
 40
1.0
 40
1.0
 40
1.0
 40
2.0
 40
2.0
 40
2.0
 40
3.0
 40
3.0
 40
3.0
 40
4.0
 40
4.0
 40
4.0
 40
4.0
 10
107.8817700254845
 20
-132.7929285779126
 30
0.0
 10
107.8817700254845
 20
-132.7377894112602
 30
0.0
 10
107.8370025266266
 20
-132.693021911271
 30
0.0
 10
107.7818633613667
 20
-132.693021911271
 30
0.0
 10
107.7267594738836
 20
-132.693021911271
 30
0.0
 10
107.6819566972489
 20
-132.7377894112602
 30
0.0
 10
107.6819566972489
 20
-132.7929285779126
 30
0.0
 10
107.6819566972489
 20
-132.8483852445659
 30
0.0
 10
107.7267594738836
 20
-132.893188022332
 30
0.0
 10
107.7818633613667
 20
-132.893188022332
 30
0.0
 10
107.8370025266266
 20
-132.893188022332
 30
0.0
 10
107.8817700254845
 20
-132.8483852445659
 30
0.0
 10
107.8817700254845
 20
-132.7929285779126
 30
0.0
  0
SPLINE
  5
7A
330
1F
100
AcDbEntity
  8
_U+30EC_U+30A4_U+30E4_U+30FC 1
 62
   179
420
  2234388
370
     9
100
AcDbSpline
210
0.0
220
0.0
230
1.0
 70
    11
 71
     3
 72
    17
 73
    13
 74
     0
 42
0.0000000001
 43
0.0000000001
 12
1.0
 22
0.0
 32
0.0
 13
1.0
 23
0.0
 33
0.0
 40
0.0
 40
0.0
 40
0.0
 40
0.0
 40
1.0
 40
1.0
 40
1.0
 40
2.0
 40
2.0
 40
2.0
 40
3.0
 40
3.0
 40
3.0
 40
4.0
 40
4.0
 40
4.0
 40
4.0
 10
107.8817700254845
 20
-133.4929807999602
 30
0.0
 10
107.8817700254845
 20
-133.4378416333071
 30
0.0
 10
107.8370025266266
 20
-133.3930741333186
 30
0.0
 10
107.7818633613667
 20
-133.3930741333186
 30
0.0
 10
107.7267594738836
 20
-133.3930741333186
 30
0.0
 10
107.6819566972489
 20
-133.4378416333071
 30
0.0
 10
107.6819566972489
 20
-133.4929807999602
 30
0.0
 10
107.6819566972489
 20
-133.5480846888351
 30
0.0
 10
107.7267594738836
 20
-133.5928874666019
 30
0.0
 10
107.7818633613667
 20
-133.5928874666019
 30
0.0
 10
107.8370025266266
 20
-133.5928874666019
 30
0.0
 10
107.8817700254845
 20
-133.5480846888351
 30
0.0
 10
107.8817700254845
 20
-133.4929807999602
 30
0.0
  0
SPLINE
  5
7B
330
1F
100
AcDbEntity
  8
_U+30EC_U+30A4_U+30E4_U+30FC 1
 62
   179
420
  2234388
370
     9
100
AcDbSpline
210
0.0
220
0.0
230
1.0
 70
    11
 71
     3
 72
    17
 73
    13
 74
     0
 42
0.0000000001
 43
0.0000000001
 12
1.0
 22
0.0
 32
0.0
 13
1.0
 23
0.0
 33
0.0
 40
0.0
 40
0.0
 40
0.0
 40
0.0
 40
1.0
 40
1.0
 40
1.0
 40
2.0
 40
2.0
 40
2.0
 40
3.0
 40
3.0
 40
3.0
 40
4.0
 40
4.0
 40
4.0
 40
4.0
 10
103.8820462386371
 20
-137.4930574656267
 30
0.0
 10
103.8820462386371
 20
-137.4379535767518
 30
0.0
 10
103.8372434620023
 20
-137.3931507989851
 30
0.0
 10
103.7821042967424
 20
-137.3931507989851
 30
0.0
 10
103.7262948537218
 20
-137.3931507989851
 30
0.0
 10
103.6821976326246
 20
-137.4379535767518
 30
0.0
 10
103.6821976326246
 20
-137.4930574656267
 30
0.0
 10
103.6821976326246
 20
-137.5481966322798
 30
0.0
 10
103.7262948537218
 20
-137.5929641322683
 30
0.0
 10
103.7821042967424
 20
-137.5929641322683
 30
0.0
 10
103.8372434620023
 20
-137.5929641322683
 30
0.0
 10
103.8820462386371
 20
-137.5481966322798
 30
0.0
 10
103.8820462386371
 20
-137.4930574656267
 30
0.0
  0
SPLINE
  5
7C
330
1F
100
AcDbEntity
  8
_U+30EC_U+30A4_U+30E4_U+30FC 1
 62
   179
420
  2234388
370
     9
100
AcDbSpline
210
0.0
220
0.0
230
1.0
 70
    11
 71
     3
 72
    17
 73
    13
 74
     0
 42
0.0000000001
 43
0.0000000001
 12
1.0
 22
0.0
 32
0.0
 13
1.0
 23
0.0
 33
0.0
 40
0.0
 40
0.0
 40
0.0
 40
0.0
 40
1.0
 40
1.0
 40
1.0
 40
2.0
 40
2.0
 40
2.0
 40
3.0
 40
3.0
 40
3.0
 40
4.0
 40
4.0
 40
4.0
 40
4.0
 10
76.8817763719158
 20
-125.992995801835
 30
0.0
 10
76.8817763719158
 20
-125.93789191296
 30
0.0
 10
76.83700887305793
 20
-125.8930891351933
 30
0.0
 10
76.78186970779798
 20
-125.8930891351933
 30
0.0
 10
76.72676582031491
 20
-125.8930891351933
 30
0.0
 10
76.68196304368014
 20
-125.93789191296
 30
0.0
 10
76.68196304368014
 20
-125.992995801835
 30
0.0
 10
76.68196304368014
 20
-126.048452468488
 30
0.0
 10
76.72676582031491
 20
-126.0932552462544
 30
0.0
 10
76.78186970779798
 20
-126.0932552462544
 30
0.0
 10
76.83700887305793
 20
-126.0932552462544
 30
0.0
 10
76.8817763719158
 20
-126.048452468488
 30
0.0
 10
76.8817763719158
 20
-125.992995801835
 30
0.0
  0
SPLINE
  5
7D
330
1F
100
AcDbEntity
  8
_U+30EC_U+30A4_U+30E4_U+30FC 1
 62
   179
420
  2234388
370
     9
100
AcDbSpline
210
0.0
220
0.0
230
1.0
 70
    11
 71
     3
 72
    17
 73
    13
 74
     0
 42
0.0000000001
 43
0.0000000001
 12
1.0
 22
0.0
 32
0.0
 13
1.0
 23
0.0
 33
0.0
 40
0.0
 40
0.0
 40
0.0
 40
0.0
 40
1.0
 40
1.0
 40
1.0
 40
2.0
 40
2.0
 40
2.0
 40
3.0
 40
3.0
 40
3.0
 40
4.0
 40
4.0
 40
4.0
 40
4.0
 10
76.8817763719158
 20
-132.4928558002099
 30
0.0
 10
76.8817763719158
 20
-132.437751911335
 30
0.0
 10
76.83700887305793
 20
-132.3929491335683
 30
0.0
 10
76.78186970779798
 20
-132.3929491335683
 30
0.0
 10
76.72676582031491
 20
-132.3929491335683
 30
0.0
 10
76.68196304368014
 20
-132.437751911335
 30
0.0
 10
76.68196304368014
 20
-132.4928558002099
 30
0.0
 10
76.68196304368014
 20
-132.5483124668632
 30
0.0
 10
76.72676582031491
 20
-132.5931152446293
 30
0.0
 10
76.78186970779798
 20
-132.5931152446293
 30
0.0
 10
76.83700887305793
 20
-132.5931152446293
 30
0.0
 10
76.8817763719158
 20
-132.5483124668632
 30
0.0
 10
76.8817763719158
 20
-132.4928558002099
 30
0.0
  0
SPLINE
  5
7E
330
1F
100
AcDbEntity
  8
_U+30EC_U+30A4_U+30E4_U+30FC 1
 62
   179
420
  2234388
370
     9
100
AcDbSpline
210
0.0
220
0.0
230
1.0
 70
    11
 71
     3
 72
    17
 73
    13
 74
     0
 42
0.0000000001
 43
0.0000000001
 12
1.0
 22
0.0
 32
0.0
 13
1.0
 23
0.0
 33
0.0
 40
0.0
 40
0.0
 40
0.0
 40
0.0
 40
1.0
 40
1.0
 40
1.0
 40
2.0
 40
2.0
 40
2.0
 40
3.0
 40
3.0
 40
3.0
 40
4.0
 40
4.0
 40
4.0
 40
4.0
 10
76.8817763719158
 20
-133.4929807999602
 30
0.0
 10
76.8817763719158
 20
-133.4378416333071
 30
0.0
 10
76.83700887305793
 20
-133.3930741333186
 30
0.0
 10
76.78186970779798
 20
-133.3930741333186
 30
0.0
 10
76.72676582031491
 20
-133.3930741333186
 30
0.0
 10
76.68196304368014
 20
-133.4378416333071
 30
0.0
 10
76.68196304368014
 20
-133.4929807999602
 30
0.0
 10
76.68196304368014
 20
-133.5480846888351
 30
0.0
 10
76.72676582031491
 20
-133.5928874666019
 30
0.0
 10
76.78186970779798
 20
-133.5928874666019
 30
0.0
 10
76.83700887305793
 20
-133.5928874666019
 30
0.0
 10
76.8817763719158
 20
-133.5480846888351
 30
0.0
 10
76.8817763719158
 20
-133.4929807999602
 30
0.0
  0
SPLINE
  5
7F
330
1F
100
AcDbEntity
  8
_U+30EC_U+30A4_U+30E4_U+30FC 1
 62
   179
420
  2234388
370
     9
100
AcDbSpline
210
0.0
220
0.0
230
1.0
 70
    11
 71
     3
 72
    17
 73
    13
 74
     0
 42
0.0000000001
 43
0.0000000001
 12
1.0
 22
0.0
 32
0.0
 13
1.0
 23
0.0
 33
0.0
 40
0.0
 40
0.0
 40
0.0
 40
0.0
 40
1.0
 40
1.0
 40
1.0
 40
2.0
 40
2.0
 40
2.0
 40
3.0
 40
3.0
 40
3.0
 40
4.0
 40
4.0
 40
4.0
 40
4.0
 10
80.8818882143089
 20
-137.4930574656267
 30
0.0
 10
80.8818882143089
 20
-137.4379535767518
 30
0.0
 10
80.83708543767413
 20
-137.3931507989851
 30
0.0
 10
80.78198155019106
 20
-137.3931507989851
 30
0.0
 10
80.72652488493921
 20
-137.3931507989851
 30
0.0
 10
80.68172210830446
 20
-137.4379535767518
 30
0.0
 10
80.68172210830446
 20
-137.4930574656267
 30
0.0
 10
80.68172210830446
 20
-137.5481966322798
 30
0.0
 10
80.72652488493921
 20
-137.5929641322683
 30
0.0
 10
80.78198155019106
 20
-137.5929641322683
 30
0.0
 10
80.83708543767413
 20
-137.5929641322683
 30
0.0
 10
80.8818882143089
 20
-137.5481966322798
 30
0.0
 10
80.8818882143089
 20
-137.4930574656267
 30
0.0
  0
SPLINE
  5
80
330
1F
100
AcDbEntity
  8
_U+30EC_U+30A4_U+30E4_U+30FC 1
 62
   179
420
  2234388
370
     9
100
AcDbSpline
210
0.0
220
0.0
230
1.0
 70
    11
 71
     3
 72
    17
 73
    13
 74
     0
 42
0.0000000001
 43
0.0000000001
 12
1.0
 22
0.0
 32
0.0
 13
1.0
 23
0.0
 33
0.0
 40
0.0
 40
0.0
 40
0.0
 40
0.0
 40
1.0
 40
1.0
 40
1.0
 40
2.0
 40
2.0
 40
2.0
 40
3.0
 40
3.0
 40
3.0
 40
4.0
 40
4.0
 40
4.0
 40
4.0
 10
92.88183568594252
 20
-120.9931469141963
 30
0.0
 10
92.88183568594252
 20
-120.9380077475432
 30
0.0
 10
92.83706818708463
 20
-120.8932402475546
 30
0.0
 10
92.78192902182468
 20
-120.8932402475546
 30
0.0
 10
92.72647235657283
 20
-120.8932402475546
 30
0.0
 10
92.68166957993806
 20
-120.9380077475432
 30
0.0
 10
92.68166957993806
 20
-120.9931469141963
 30
0.0
 10
92.68166957993806
 20
-121.0482508030712
 30
0.0
 10
92.72647235657283
 20
-121.0930535808379
 30
0.0
 10
92.78192902182468
 20
-121.0930535808379
 30
0.0
 10
92.83706818708463
 20
-121.0930535808379
 30
0.0
 10
92.88183568594252
 20
-121.0482508030712
 30
0.0
 10
92.88183568594252
 20
-120.9931469141963
 30
0.0
  0
SPLINE
  5
81
330
1F
100
AcDbEntity
  8
_U+30EC_U+30A4_U+30E4_U+30FC 1
 62
   179
420
  2234388
370
     9
100
AcDbSpline
210
0.0
220
0.0
230
1.0
 70
    11
 71
     3
 72
    17
 73
    13
 74
     0
 42
0.0000000001
 43
0.0000000001
 12
1.0
 22
0.0
 32
0.0
 13
1.0
 23
0.0
 33
0.0
 40
0.0
 40
0.0
 40
0.0
 40
0.0
 40
1.0
 40
1.0
 40
1.0
 40
2.0
 40
2.0
 40
2.0
 40
3.0
 40
3.0
 40
3.0
 40
4.0
 40
4.0
 40
4.0
 40
4.0
 10
80.8818882143089
 20
-120.9931469141963
 30
0.0
 10
80.8818882143089
 20
-120.9380077475432
 30
0.0
 10
80.83708543767413
 20
-120.8932402475546
 30
0.0
 10
80.78198155019106
 20
-120.8932402475546
 30
0.0
 10
80.72652488493921
 20
-120.8932402475546
 30
0.0
 10
80.68172210830446
 20
-120.9380077475432
 30
0.0
 10
80.68172210830446
 20
-120.9931469141963
 30
0.0
 10
80.68172210830446
 20
-121.0482508030712
 30
0.0
 10
80.72652488493921
 20
-121.0930535808379
 30
0.0
 10
80.78198155019106
 20
-121.0930535808379
 30
0.0
 10
80.83708543767413
 20
-121.0930535808379
 30
0.0
 10
80.8818882143089
 20
-121.0482508030712
 30
0.0
 10
80.8818882143089
 20
-120.9931469141963
 30
0.0
  0
SPLINE
  5
82
330
1F
100
AcDbEntity
  8
_U+30EC_U+30A4_U+30E4_U+30FC 1
 62
   179
420
  2234388
370
     9
100
AcDbSpline
210
0.0
220
0.0
230
1.0
 70
    11
 71
     3
 72
    17
 73
    13
 74
     0
 42
0.0000000001
 43
0.0000000001
 12
1.0
 22
0.0
 32
0.0
 13
1.0
 23
0.0
 33
0.0
 40
0.0
 40
0.0
 40
0.0
 40
0.0
 40
1.0
 40
1.0
 40
1.0
 40
2.0
 40
2.0
 40
2.0
 40
3.0
 40
3.0
 40
3.0
 40
4.0
 40
4.0
 40
4.0
 40
4.0
 10
103.8820462386371
 20
-128.7928166344686
 30
0.0
 10
103.8820462386371
 20
-128.7377127455933
 30
0.0
 10
103.8372434620023
 20
-128.6929099678269
 30
0.0
 10
103.7821042967424
 20
-128.6929099678269
 30
0.0
 10
103.7262948537218
 20
-128.6929099678269
 30
0.0
 10
103.6821976326246
 20
-128.7377127455933
 30
0.0
 10
103.6821976326246
 20
-128.7928166344686
 30
0.0
 10
103.6821976326246
 20
-128.8483085788988
 30
0.0
 10
103.7262948537218
 20
-128.893076078888
 30
0.0
 10
103.7821042967424
 20
-128.893076078888
 30
0.0
 10
103.8372434620023
 20
-128.893076078888
 30
0.0
 10
103.8820462386371
 20
-128.8483085788988
 30
0.0
 10
103.8820462386371
 20
-128.7928166344686
 30
0.0
  0
SPLINE
  5
83
330
1F
100
AcDbEntity
  8
_U+30EC_U+30A4_U+30E4_U+30FC 1
 62
   179
420
  2234388
370
     9
100
AcDbSpline
210
0.0
220
0.0
230
1.0
 70
    11
 71
     3
 72
    17
 73
    13
 74
     0
 42
0.0000000001
 43
0.0000000001
 12
1.0
 22
0.0
 32
0.0
 13
1.0
 23
0.0
 33
0.0
 40
0.0
 40
0.0
 40
0.0
 40
0.0
 40
1.0
 40
1.0
 40
1.0
 40
2.0
 40
2.0
 40
2.0
 40
3.0
 40
3.0
 40
3.0
 40
4.0
 40
4.0
 40
4.0
 40
4.0
 10
96.88194997577959
 20
-128.7928166344686
 30
0.0
 10
96.88194997577959
 20
-128.7377127455933
 30
0.0
 10
96.83714719801287
 20
-128.6929099678269
 30
0.0
 10
96.78204086421776
 20
-128.6929099678269
 30
0.0
 10
96.72654892118904
 20
-128.6929099678269
 30
0.0
 10
96.68178142233116
 20
-128.7377127455933
 30
0.0
 10
96.68178142233116
 20
-128.7928166344686
 30
0.0
 10
96.68178142233116
 20
-128.8483085788988
 30
0.0
 10
96.72654892118904
 20
-128.893076078888
 30
0.0
 10
96.78204086421776
 20
-128.893076078888
 30
0.0
 10
96.83714719801287
 20
-128.893076078888
 30
0.0
 10
96.88194997577959
 20
-128.8483085788988
 30
0.0
 10
96.88194997577959
 20
-128.7928166344686
 30
0.0
  0
POLYLINE
  5
84
330
1F
100
AcDbEntity
  8
_U+30EC_U+30A4_U+30E4_U+30FC 1
 62
   179
420
  2234388
370
     9
100
AcDb2dPolyline
 66
     1
 10
0.0
 20
0.0
 30
0.0
  0
VERTEX
  5
85
330
84
100
AcDbEntity
  8
_U+30EC_U+30A4_U+30E4_U+30FC 1
 62
   179
420
  2234388
370
     9
100
AcDbVertex
100
AcDb2dVertex
 10
107.7818633613667
 20
-133.4929807999602
 30
0.0
  0
VERTEX
  5
86
330
84
100
AcDbEntity
  8
_U+30EC_U+30A4_U+30E4_U+30FC 1
 62
   179
420
  2234388
370
     9
100
AcDbVertex
100
AcDb2dVertex
 10
107.7818633613667
 20
-138.7508866319791
 30
0.0
  0
SEQEND
  5
87
330
84
100
AcDbEntity
  8
_U+30EC_U+30A4_U+30E4_U+30FC 1
 62
   179
420
  2234388
370
     9
  0
POLYLINE
  5
88
330
1F
100
AcDbEntity
  8
_U+30EC_U+30A4_U+30E4_U+30FC 1
 62
   179
420
  2234388
370
     9
100
AcDb2dPolyline
 66
     1
 10
0.0
 20
0.0
 30
0.0
  0
VERTEX
  5
89
330
88
100
AcDbEntity
  8
_U+30EC_U+30A4_U+30E4_U+30FC 1
 62
   179
420
  2234388
370
     9
100
AcDbVertex
100
AcDb2dVertex
 10
107.7818633613667
 20
-133.4929807999602
 30
0.0
  0
VERTEX
  5
8A
330
88
100
AcDbEntity
  8
_U+30EC_U+30A4_U+30E4_U+30FC 1
 62
   179
420
  2234388
370
     9
100
AcDbVertex
100
AcDb2dVertex
 10
107.7818633613667
 20
-131.7931563559407
 30
0.0
  0
SEQEND
  5
8B
330
88
100
AcDbEntity
  8
_U+30EC_U+30A4_U+30E4_U+30FC 1
 62
   179
420
  2234388
370
     9
  0
POLYLINE
  5
8C
330
1F
100
AcDbEntity
  8
_U+30EC_U+30A4_U+30E4_U+30FC 1
 62
   179
420
  2234388
370
     9
100
AcDb2dPolyline
 66
     1
 10
0.0
 20
0.0
 30
0.0
  0
VERTEX
  5
8D
330
8C
100
AcDbEntity
  8
_U+30EC_U+30A4_U+30E4_U+30FC 1
 62
   179
420
  2234388
370
     9
100
AcDbVertex
100
AcDb2dVertex
 10
106.3218572875034
 20
-133.4929807999602
 30
0.0
  0
VERTEX
  5
8E
330
8C
100
AcDbEntity
  8
_U+30EC_U+30A4_U+30E4_U+30FC 1
 62
   179
420
  2234388
370
     9
100
AcDbVertex
100
AcDb2dVertex
 10
108.7816355580826
 20
-133.4929807999602
 30
0.0
  0
SEQEND
  5
8F
330
8C
100
AcDbEntity
  8
_U+30EC_U+30A4_U+30E4_U+30FC 1
 62
   179
420
  2234388
370
     9
  0
POLYLINE
  5
90
330
1F
100
AcDbEntity
  8
_U+30EC_U+30A4_U+30E4_U+30FC 1
 62
   179
420
  2234388
370
     9
100
AcDb2dPolyline
 66
     1
 10
0.0
 20
0.0
 30
0.0
  0
VERTEX
  5
91
330
90
100
AcDbEntity
  8
_U+30EC_U+30A4_U+30E4_U+30FC 1
 62
   179
420
  2234388
370
     9
100
AcDbVertex
100
AcDb2dVertex
 10
106.0676103495454
 20
-132.7929285779126
 30
0.0
  0
VERTEX
  5
92
330
90
100
AcDbEntity
  8
_U+30EC_U+30A4_U+30E4_U+30FC 1
 62
   179
420
  2234388
370
     9
100
AcDbVertex
100
AcDb2dVertex
 10
108.7816355580826
 20
-132.7929285779126
 30
0.0
  0
SEQEND
  5
93
330
90
100
AcDbEntity
  8
_U+30EC_U+30A4_U+30E4_U+30FC 1
 62
   179
420
  2234388
370
     9
  0
INSERT
  5
95
330
1F
100
AcDbEntity
  8
_U+30EC_U+30A4_U+30E4_U+30FC 1
100
AcDbBlockReference
  2
block 2
 10
0.0
 20
0.0
 30
0.0
  0
POLYLINE
  5
A5
330
1F
100
AcDbEntity
  8
_U+30EC_U+30A4_U+30E4_U+30FC 1
 62
   179
420
  2234388
370
     9
100
AcDb2dPolyline
 66
     1
 10
0.0
 20
0.0
 30
0.0
  0
VERTEX
  5
A6
330
A5
100
AcDbEntity
  8
_U+30EC_U+30A4_U+30E4_U+30FC 1
 62
   179
420
  2234388
370
     9
100
AcDbVertex
100
AcDb2dVertex
 10
80.78198155019106
 20
-137.4930574656267
 30
0.0
  0
VERTEX
  5
A7
330
A5
100
AcDbEntity
  8
_U+30EC_U+30A4_U+30E4_U+30FC 1
 62
   179
420
  2234388
370
     9
100
AcDbVertex
100
AcDb2dVertex
 10
103.7821042967424
 20
-137.4930574656267
 30
0.0
  0
SEQEND
  5
A8
330
A5
100
AcDbEntity
  8
_U+30EC_U+30A4_U+30E4_U+30FC 1
 62
   179
420
  2234388
370
     9
  0
POLYLINE
  5
A9
330
1F
100
AcDbEntity
  8
_U+30EC_U+30A4_U+30E4_U+30FC 1
 62
   179
420
  2234388
370
     9
100
AcDb2dPolyline
 66
     1
 10
0.0
 20
0.0
 30
0.0
  0
VERTEX
  5
AA
330
A9
100
AcDbEntity
  8
_U+30EC_U+30A4_U+30E4_U+30FC 1
 62
   179
420
  2234388
370
     9
100
AcDbVertex
100
AcDb2dVertex
 10
80.78198155019106
 20
-136.0330513548805
 30
0.0
  0
VERTEX
  5
AB
330
A9
100
AcDbEntity
  8
_U+30EC_U+30A4_U+30E4_U+30FC 1
 62
   179
420
  2234388
370
     9
100
AcDbVertex
100
AcDb2dVertex
 10
80.78198155019106
 20
-138.493182465377
 30
0.0
  0
SEQEND
  5
AC
330
A9
100
AcDbEntity
  8
_U+30EC_U+30A4_U+30E4_U+30FC 1
 62
   179
420
  2234388
370
     9
  0
POLYLINE
  5
AD
330
1F
100
AcDbEntity
  8
_U+30EC_U+30A4_U+30E4_U+30FC 1
 62
   179
420
  2234388
370
     9
100
AcDb2dPolyline
 66
     1
 10
0.0
 20
0.0
 30
0.0
  0
VERTEX
  5
AE
330
AD
100
AcDbEntity
  8
_U+30EC_U+30A4_U+30E4_U+30FC 1
 62
   179
420
  2234388
370
     9
100
AcDbVertex
100
AcDb2dVertex
 10
103.7821042967424
 20
-136.0330513548805
 30
0.0
  0
VERTEX
  5
AF
330
AD
100
AcDbEntity
  8
_U+30EC_U+30A4_U+30E4_U+30FC 1
 62
   179
420
  2234388
370
     9
100
AcDbVertex
100
AcDb2dVertex
 10
103.7821042967424
 20
-138.493182465377
 30
0.0
  0
SEQEND
  5
B0
330
AD
100
AcDbEntity
  8
_U+30EC_U+30A4_U+30E4_U+30FC 1
 62
   179
420
  2234388
370
     9
  0
INSERT
  5
B2
330
1F
100
AcDbEntity
  8
_U+30EC_U+30A4_U+30E4_U+30FC 1
100
AcDbBlockReference
  2
block 3
 10
0.0
 20
0.0
 30
0.0
  0
POLYLINE
  5
B9
330
1F
100
AcDbEntity
  8
_U+30EC_U+30A4_U+30E4_U+30FC 1
 62
   179
420
  2234388
370
     9
100
AcDb2dPolyline
 66
     1
 10
0.0
 20
0.0
 30
0.0
  0
VERTEX
  5
BA
330
B9
100
AcDbEntity
  8
_U+30EC_U+30A4_U+30E4_U+30FC 1
 62
   179
420
  2234388
370
     9
100
AcDbVertex
100
AcDb2dVertex
 10
92.78192902182468
 20
-120.9931469141963
 30
0.0
  0
VERTEX
  5
BB
330
B9
100
AcDbEntity
  8
_U+30EC_U+30A4_U+30E4_U+30FC 1
 62
   179
420
  2234388
370
     9
100
AcDbVertex
100
AcDb2dVertex
 10
80.78198155019106
 20
-120.9931469141963
 30
0.0
  0
SEQEND
  5
BC
330
B9
100
AcDbEntity
  8
_U+30EC_U+30A4_U+30E4_U+30FC 1
 62
   179
420
  2234388
370
     9
  0
POLYLINE
  5
BD
330
1F
100
AcDbEntity
  8
_U+30EC_U+30A4_U+30E4_U+30FC 1
 62
   179
420
  2234388
370
     9
100
AcDb2dPolyline
 66
     1
 10
0.0
 20
0.0
 30
0.0
  0
VERTEX
  5
BE
330
BD
100
AcDbEntity
  8
_U+30EC_U+30A4_U+30E4_U+30FC 1
 62
   179
420
  2234388
370
     9
100
AcDbVertex
100
AcDb2dVertex
 10
92.78192902182468
 20
-123.4529252469147
 30
0.0
  0
VERTEX
  5
BF
330
BD
100
AcDbEntity
  8
_U+30EC_U+30A4_U+30E4_U+30FC 1
 62
   179
420
  2234388
370
     9
100
AcDbVertex
100
AcDb2dVertex
 10
92.78192902182468
 20
-119.9930219144463
 30
0.0
  0
SEQEND
  5
C0
330
BD
100
AcDbEntity
  8
_U+30EC_U+30A4_U+30E4_U+30FC 1
 62
   179
420
  2234388
370
     9
  0
POLYLINE
  5
C1
330
1F
100
AcDbEntity
  8
_U+30EC_U+30A4_U+30E4_U+30FC 1
 62
   179
420
  2234388
370
     9
100
AcDb2dPolyline
 66
     1
 10
0.0
 20
0.0
 30
0.0
  0
VERTEX
  5
C2
330
C1
100
AcDbEntity
  8
_U+30EC_U+30A4_U+30E4_U+30FC 1
 62
   179
420
  2234388
370
     9
100
AcDbVertex
100
AcDb2dVertex
 10
80.78198155019106
 20
-123.4529252469147
 30
0.0
  0
VERTEX
  5
C3
330
C1
100
AcDbEntity
  8
_U+30EC_U+30A4_U+30E4_U+30FC 1
 62
   179
420
  2234388
370
     9
100
AcDbVertex
100
AcDb2dVertex
 10
80.78198155019106
 20
-119.9930219144463
 30
0.0
  0
SEQEND
  5
C4
330
C1
100
AcDbEntity
  8
_U+30EC_U+30A4_U+30E4_U+30FC 1
 62
   179
420
  2234388
370
     9
  0
INSERT
  5
C6
330
1F
100
AcDbEntity
  8
_U+30EC_U+30A4_U+30E4_U+30FC 1
100
AcDbBlockReference
  2
block 4
 10
0.0
 20
0.0
 30
0.0
  0
POLYLINE
  5
CD
330
1F
100
AcDbEntity
  8
_U+30EC_U+30A4_U+30E4_U+30FC 1
 62
   179
420
  2234388
370
     9
100
AcDb2dPolyline
 66
     1
 10
0.0
 20
0.0
 30
0.0
  0
VERTEX
  5
CE
330
CD
100
AcDbEntity
  8
_U+30EC_U+30A4_U+30E4_U+30FC 1
 62
   179
420
  2234388
370
     9
100
AcDbVertex
100
AcDb2dVertex
 10
76.78186970779798
 20
-133.4929807999602
 30
0.0
  0
VERTEX
  5
CF
330
CD
100
AcDbEntity
  8
_U+30EC_U+30A4_U+30E4_U+30FC 1
 62
   179
420
  2234388
370
     9
100
AcDbVertex
100
AcDb2dVertex
 10
76.78186970779798
 20
-137.2632932990176
 30
0.0
  0
SEQEND
  5
D0
330
CD
100
AcDbEntity
  8
_U+30EC_U+30A4_U+30E4_U+30FC 1
 62
   179
420
  2234388
370
     9
  0
POLYLINE
  5
D1
330
1F
100
AcDbEntity
  8
_U+30EC_U+30A4_U+30E4_U+30FC 1
 62
   179
420
  2234388
370
     9
100
AcDb2dPolyline
 66
     1
 10
0.0
 20
0.0
 30
0.0
  0
VERTEX
  5
D2
330
D1
100
AcDbEntity
  8
_U+30EC_U+30A4_U+30E4_U+30FC 1
 62
   179
420
  2234388
370
     9
100
AcDbVertex
100
AcDb2dVertex
 10
76.78186970779798
 20
-132.4928558002099
 30
0.0
  0
VERTEX
  5
D3
330
D1
100
AcDbEntity
  8
_U+30EC_U+30A4_U+30E4_U+30FC 1
 62
   179
420
  2234388
370
     9
100
AcDbVertex
100
AcDb2dVertex
 10
76.78186970779798
 20
-133.4929807999602
 30
0.0
  0
SEQEND
  5
D4
330
D1
100
AcDbEntity
  8
_U+30EC_U+30A4_U+30E4_U+30FC 1
 62
   179
420
  2234388
370
     9
  0
POLYLINE
  5
D5
330
1F
100
AcDbEntity
  8
_U+30EC_U+30A4_U+30E4_U+30FC 1
 62
   179
420
  2234388
370
     9
100
AcDb2dPolyline
 66
     1
 10
0.0
 20
0.0
 30
0.0
  0
VERTEX
  5
D6
330
D5
100
AcDbEntity
  8
_U+30EC_U+30A4_U+30E4_U+30FC 1
 62
   179
420
  2234388
370
     9
100
AcDbVertex
100
AcDb2dVertex
 10
78.24191105943811
 20
-133.4929807999602
 30
0.0
  0
VERTEX
  5
D7
330
D5
100
AcDbEntity
  8
_U+30EC_U+30A4_U+30E4_U+30FC 1
 62
   179
420
  2234388
370
     9
100
AcDbVertex
100
AcDb2dVertex
 10
75.78209751108207
 20
-133.4929807999602
 30
0.0
  0
SEQEND
  5
D8
330
D5
100
AcDbEntity
  8
_U+30EC_U+30A4_U+30E4_U+30FC 1
 62
   179
420
  2234388
370
     9
  0
INSERT
  5
DA
330
1F
100
AcDbEntity
  8
_U+30EC_U+30A4_U+30E4_U+30FC 1
100
AcDbBlockReference
  2
block 5
 10
0.0
 20
0.0
 30
0.0
  0
POLYLINE
  5
DF
330
1F
100
AcDbEntity
  8
_U+30EC_U+30A4_U+30E4_U+30FC 1
 62
   179
420
  2234388
370
     9
100
AcDb2dPolyline
 66
     1
 10
0.0
 20
0.0
 30
0.0
  0
VERTEX
  5
E0
330
DF
100
AcDbEntity
  8
_U+30EC_U+30A4_U+30E4_U+30FC 1
 62
   179
420
  2234388
370
     9
100
AcDbVertex
100
AcDb2dVertex
 10
96.78204086421776
 20
-128.7928166344686
 30
0.0
  0
VERTEX
  5
E1
330
DF
100
AcDbEntity
  8
_U+30EC_U+30A4_U+30E4_U+30FC 1
 62
   179
420
  2234388
370
     9
100
AcDbVertex
100
AcDb2dVertex
 10
103.7821042967424
 20
-128.7928166344686
 30
0.0
  0
SEQEND
  5
E2
330
DF
100
AcDbEntity
  8
_U+30EC_U+30A4_U+30E4_U+30FC 1
 62
   179
420
  2234388
370
     9
  0
POLYLINE
  5
E3
330
1F
100
AcDbEntity
  8
_U+30EC_U+30A4_U+30E4_U+30FC 1
 62
   179
420
  2234388
370
     9
100
AcDb2dPolyline
 66
     1
 10
0.0
 20
0.0
 30
0.0
  0
VERTEX
  5
E4
330
E3
100
AcDbEntity
  8
_U+30EC_U+30A4_U+30E4_U+30FC 1
 62
   179
420
  2234388
370
     9
100
AcDbVertex
100
AcDb2dVertex
 10
96.78204086421776
 20
-129.9531380230674
 30
0.0
  0
VERTEX
  5
E5
330
E3
100
AcDbEntity
  8
_U+30EC_U+30A4_U+30E4_U+30FC 1
 62
   179
420
  2234388
370
     9
100
AcDbVertex
100
AcDb2dVertex
 10
96.78204086421776
 20
-127.793044412496
 30
0.0
  0
SEQEND
  5
E6
330
E3
100
AcDbEntity
  8
_U+30EC_U+30A4_U+30E4_U+30FC 1
 62
   179
420
  2234388
370
     9
  0
POLYLINE
  5
E7
330
1F
100
AcDbEntity
  8
_U+30EC_U+30A4_U+30E4_U+30FC 1
 62
   179
420
  2234388
370
     9
100
AcDb2dPolyline
 66
     1
 10
0.0
 20
0.0
 30
0.0
  0
VERTEX
  5
E8
330
E7
100
AcDbEntity
  8
_U+30EC_U+30A4_U+30E4_U+30FC 1
 62
   179
420
  2234388
370
     9
100
AcDbVertex
100
AcDb2dVertex
 10
103.7821042967424
 20
-130.9529102450393
 30
0.0
  0
VERTEX
  5
E9
330
E7
100
AcDbEntity
  8
_U+30EC_U+30A4_U+30E4_U+30FC 1
 62
   179
420
  2234388
370
     9
100
AcDbVertex
100
AcDb2dVertex
 10
103.7821042967424
 20
-127.793044412496
 30
0.0
  0
SEQEND
  5
EA
330
E7
100
AcDbEntity
  8
_U+30EC_U+30A4_U+30E4_U+30FC 1
 62
   179
420
  2234388
370
     9
  0
INSERT
  5
EC
330
1F
100
AcDbEntity
  8
_U+30EC_U+30A4_U+30E4_U+30FC 1
100
AcDbBlockReference
  2
block 6
 10
0.0
 20
0.0
 30
0.0
  0
POLYLINE
  5
F1
330
1F
100
AcDbEntity
  8
_U+30EC_U+30A4_U+30E4_U+30FC 1
 62
   179
420
  2234388
370
     9
100
AcDb2dPolyline
 66
     1
 10
0.0
 20
0.0
 30
0.0
  0
VERTEX
  5
F2
330
F1
100
AcDbEntity
  8
_U+30EC_U+30A4_U+30E4_U+30FC 1
 62
   179
420
  2234388
370
     9
100
AcDbVertex
100
AcDb2dVertex
 10
76.78186970779798
 20
-125.992995801835
 30
0.0
  0
VERTEX
  5
F3
330
F1
100
AcDbEntity
  8
_U+30EC_U+30A4_U+30E4_U+30FC 1
 62
   179
420
  2234388
370
     9
100
AcDbVertex
100
AcDb2dVertex
 10
76.78186970779798
 20
-132.4928558002099
 30
0.0
  0
SEQEND
  5
F4
330
F1
100
AcDbEntity
  8
_U+30EC_U+30A4_U+30E4_U+30FC 1
 62
   179
420
  2234388
370
     9
  0
POLYLINE
  5
F5
330
1F
100
AcDbEntity
  8
_U+30EC_U+30A4_U+30E4_U+30FC 1
 62
   179
420
  2234388
370
     9
100
AcDb2dPolyline
 66
     1
 10
0.0
 20
0.0
 30
0.0
  0
VERTEX
  5
F6
330
F5
100
AcDbEntity
  8
_U+30EC_U+30A4_U+30E4_U+30FC 1
 62
   179
420
  2234388
370
     9
100
AcDbVertex
100
AcDb2dVertex
 10
78.24191105943811
 20
-125.992995801835
 30
0.0
  0
VERTEX
  5
F7
330
F5
100
AcDbEntity
  8
_U+30EC_U+30A4_U+30E4_U+30FC 1
 62
   179
420
  2234388
370
     9
100
AcDbVertex
100
AcDb2dVertex
 10
75.78209751108207
 20
-125.992995801835
 30
0.0
  0
SEQEND
  5
F8
330
F5
100
AcDbEntity
  8
_U+30EC_U+30A4_U+30E4_U+30FC 1
 62
   179
420
  2234388
370
     9
  0
POLYLINE
  5
F9
330
1F
100
AcDbEntity
  8
_U+30EC_U+30A4_U+30E4_U+30FC 1
 62
   179
420
  2234388
370
     9
100
AcDb2dPolyline
 66
     1
 10
0.0
 20
0.0
 30
0.0
  0
VERTEX
  5
FA
330
F9
100
AcDbEntity
  8
_U+30EC_U+30A4_U+30E4_U+30FC 1
 62
   179
420
  2234388
370
     9
100
AcDbVertex
100
AcDb2dVertex
 10
78.60569549460163
 20
-132.4928558002099
 30
0.0
  0
VERTEX
  5
FB
330
F9
100
AcDbEntity
  8
_U+30EC_U+30A4_U+30E4_U+30FC 1
 62
   179
420
  2234388
370
     9
100
AcDbVertex
100
AcDb2dVertex
 10
75.78209751108207
 20
-132.4928558002099
 30
0.0
  0
SEQEND
  5
FC
330
F9
100
AcDbEntity
  8
_U+30EC_U+30A4_U+30E4_U+30FC 1
 62
   179
420
  2234388
370
     9
  0
INSERT
  5
FE
330
1F
100
AcDbEntity
  8
_U+30EC_U+30A4_U+30E4_U+30FC 1
100
AcDbBlockReference
  2
block 7
 10
0.0
 20
0.0
 30
0.0
  0
ENDSEC
  0
SECTION
  2
OBJECTS
  0
DICTIONARY
  5
C
330
0
100
AcDbDictionary
281
     1
  3
ACAD_GROUP
350
D
  3
ACAD_LAYOUT
350
1A
  3
ACAD_MATERIAL
350
3B
  3
ACAD_MLEADERSTYLE
350
10F
  3
ACAD_MLINESTYLE
350
17
  3
ACAD_PLOTSETTINGS
350
19
  3
ACAD_PLOTSTYLENAME
350
E
  3
ACAD_TABLESTYLE
350
10E
  3
ACAD_VISUALSTYLE
350
2A
  0
SUN
  5
3F
330
29
100
AcDbSun
 90
        1
290
     0
 63
     7
421
 16777215
 40
1.0
291
     1
 91
  2455826
 92
 54000000
292
     0
 70
     2
 71
   256
280
     1
  0
DICTIONARY
  5
D
102
{ACAD_REACTORS
330
C
102
}
330
C
100
AcDbDictionary
281
     1
  0
DICTIONARY
  5
1A
102
{ACAD_REACTORS
330
C
102
}
330
C
100
AcDbDictionary
281
     1
  3
Layout1
350
1E
  3
Layout2
350
26
  3
Model
350
22
  0
DICTIONARY
  5
3B
102
{ACAD_REACTORS
330
C
102
}
330
C
100
AcDbDictionary
281
     1
  3
ByBlock
350
3D
  3
ByLayer
350
3C
  3
Global
350
3E
  0
DICTIONARY
  5
10F
102
{ACAD_REACTORS
330
C
102
}
330
C
100
AcDbDictionary
281
     1
  0
DICTIONARY
  5
17
102
{ACAD_REACTORS
330
C
102
}
330
C
100
AcDbDictionary
281
     1
  3
Standard
350
18
  0
DICTIONARY
  5
19
102
{ACAD_REACTORS
330
C
102
}
330
C
100
AcDbDictionary
281
     1
  0
ACDBDICTIONARYWDFLT
  5
E
102
{ACAD_REACTORS
330
C
102
}
330
C
100
AcDbDictionary
281
     1
  3
Normal
350
F
100
AcDbDictionaryWithDefault
340
F
  0
DICTIONARY
  5
10E
102
{ACAD_REACTORS
330
C
102
}
330
C
100
AcDbDictionary
281
     1
  0
DICTIONARY
  5
2A
102
{ACAD_REACTORS
330
C
102
}
330
C
100
AcDbDictionary
281
     1
  3
2dWireframe
350
2F
  3
3D Hidden
350
31
  3
3dWireframe
350
30
  3
Basic
350
32
  3
Brighten
350
36
  3
ColorChange
350
3A
  3
Conceptual
350
34
  3
Dim
350
35
  3
Facepattern
350
39
  3
Flat
350
2B
  3
FlatWithEdges
350
2C
  3
Gouraud
350
2D
  3
GouraudWithEdges
350
2E
  3
Linepattern
350
38
  3
Realistic
350
33
  3
Thicken
350
37
  0
LAYOUT
  5
1E
102
{ACAD_REACTORS
330
1A
102
}
330
1A
100
AcDbPlotSettings
  1

  2
none_device
  4

  6

 40
0.0
 41
0.0
 42
0.0
 43
0.0
 44
0.0
 45
0.0
 46
0.0
 47
0.0
 48
0.0
 49
0.0
140
0.0
141
0.0
142
1.0
143
1.0
 70
   688
 72
     0
 73
     0
 74
     5
  7

 75
    16
 76
     0
 77
     2
 78
   300
147
1.0
148
0.0
149
0.0
100
AcDbLayout
  1
Layout1
 70
     1
 71
     1
 10
0.0
 20
0.0
 11
12.0
 21
9.0
 12
0.0
 22
0.0
 32
0.0
 14
1.000000000000000E+20
 24
1.000000000000000E+20
 34
1.000000000000000E+20
 15
-1.000000000000000E+20
 25
-1.000000000000000E+20
 35
-1.000000000000000E+20
146
0.0
 13
0.0
 23
0.0
 33
0.0
 16
1.0
 26
0.0
 36
0.0
 17
0.0
 27
1.0
 37
0.0
 76
     0
330
1B
  0
LAYOUT
  5
26
102
{ACAD_REACTORS
330
1A
102
}
330
1A
100
AcDbPlotSettings
  1

  2
none_device
  4

  6

 40
0.0
 41
0.0
 42
0.0
 43
0.0
 44
0.0
 45
0.0
 46
0.0
 47
0.0
 48
0.0
 49
0.0
140
0.0
141
0.0
142
1.0
143
1.0
 70
   688
 72
     0
 73
     0
 74
     5
  7

 75
    16
 76
     0
 77
     2
 78
   300
147
1.0
148
0.0
149
0.0
100
AcDbLayout
  1
Layout2
 70
     1
 71
     2
 10
0.0
 20
0.0
 11
0.0
 21
0.0
 12
0.0
 22
0.0
 32
0.0
 14
0.0
 24
0.0
 34
0.0
 15
0.0
 25
0.0
 35
0.0
146
0.0
 13
0.0
 23
0.0
 33
0.0
 16
1.0
 26
0.0
 36
0.0
 17
0.0
 27
1.0
 37
0.0
 76
     0
330
23
  0
LAYOUT
  5
22
102
{ACAD_REACTORS
330
1A
102
}
330
1A
100
AcDbPlotSettings
  1

  2
none_device
  4

  6

 40
0.0
 41
0.0
 42
0.0
 43
0.0
 44
0.0
 45
0.0
 46
0.0
 47
0.0
 48
0.0
 49
0.0
140
0.0
141
0.0
142
1.0
143
1.0
 70
  1712
 72
     0
 73
     0
 74
     0
  7

 75
     0
 76
     0
 77
     2
 78
   300
147
1.0
148
0.0
149
0.0
100
AcDbLayout
  1
Model
 70
     1
 71
     0
 10
0.0
 20
0.0
 11
12.0
 21
9.0
 12
0.0
 22
0.0
 32
0.0
 14
1.000000000000000E+20
 24
1.000000000000000E+20
 34
1.000000000000000E+20
 15
-1.000000000000000E+20
 25
-1.000000000000000E+20
 35
-1.000000000000000E+20
146
0.0
 13
0.0
 23
0.0
 33
0.0
 16
1.0
 26
0.0
 36
0.0
 17
0.0
 27
1.0
 37
0.0
 76
     0
330
1F
331
29
  0
MATERIAL
  5
3D
102
{ACAD_REACTORS
330
3B
102
}
330
3B
100
AcDbMaterial
  1
ByBlock
 72
     1
 94
      127
  0
MATERIAL
  5
3C
102
{ACAD_REACTORS
330
3B
102
}
330
3B
100
AcDbMaterial
  1
ByLayer
 72
     1
 94
      127
  0
MATERIAL
  5
3E
102
{ACAD_REACTORS
330
3B
102
}
330
3B
100
AcDbMaterial
  1
Global
 72
     1
 94
      127
  0
MLINESTYLE
  5
18
102
{ACAD_REACTORS
330
17
102
}
330
17
100
AcDbMlineStyle
  2
Standard
 70
     0
  3

 62
   256
 51
90.0
 52
90.0
 71
     2
 49
0.5
 62
   256
  6
BYLAYER
 49
-0.5
 62
   256
  6
BYLAYER
  0
ACDBPLACEHOLDER
  5
F
102
{ACAD_REACTORS
330
E
102
}
330
E
  0
VISUALSTYLE
  5
2F
102
{ACAD_REACTORS
330
2A
102
}
330
2A
100
AcDbVisualStyle
  2
2dWireframe
 70
     4
177
     2
291
     0
 71
     0
176
     1
 72
     2
176
     1
 73
     0
176
     1
 90
        0
176
     1
 40
-0.6
176
     1
 41
-30.0
176
     1
 62
     5
 63
     7
421
 16777215
176
     1
 74
     1
176
     1
 91
        4
176
     1
 64
     7
176
     1
 65
   257
176
     1
 75
     1
176
     1
175
     1
176
     1
 42
1.0
176
     1
 92
        0
176
     1
 66
   257
176
     1
 43
1.0
176
     1
 76
     1
176
     1
 77
     6
176
     1
 78
     2
176
     1
 67
     7
176
     1
 79
     5
176
     1
170
     0
176
     1
171
     0
176
     1
290
     0
176
     1
 93
        1
176
     1
 44
0.0
176
     1
173
     0
176
     1
  0
VISUALSTYLE
  5
31
102
{ACAD_REACTORS
330
2A
102
}
330
2A
100
AcDbVisualStyle
  2
3D Hidden
 70
     6
177
     2
291
     0
 71
     1
176
     1
 72
     2
176
     1
 73
     2
176
     1
 90
        0
176
     1
 40
-0.6
176
     1
 41
-30.0
176
     1
 62
     5
 63
     7
421
 16777215
176
     1
 74
     2
176
     1
 91
        2
176
     1
 64
     7
176
     1
 65
   257
176
     1
 75
     2
176
     1
175
     1
176
     1
 42
40.0
176
     1
 92
        0
176
     1
 66
   257
176
     1
 43
1.0
176
     1
 76
     1
176
     1
 77
     6
176
     1
 78
     2
176
     1
 67
     7
176
     1
 79
     3
176
     1
170
     0
176
     1
171
     0
176
     1
290
     0
176
     1
 93
        1
176
     1
 44
0.0
176
     1
173
     0
176
     1
  0
VISUALSTYLE
  5
30
102
{ACAD_REACTORS
330
2A
102
}
330
2A
100
AcDbVisualStyle
  2
3dWireframe
 70
     5
177
     2
291
     0
 71
     0
176
     1
 72
     2
176
     1
 73
     0
176
     1
 90
        0
176
     1
 40
-0.6
176
     1
 41
-30.0
176
     1
 62
     5
 63
     7
421
 16777215
176
     1
 74
     1
176
     1
 91
        4
176
     1
 64
     7
176
     1
 65
   257
176
     1
 75
     1
176
     1
175
     1
176
     1
 42
1.0
176
     1
 92
        0
176
     1
 66
   257
176
     1
 43
1.0
176
     1
 76
     1
176
     1
 77
     6
176
     1
 78
     2
176
     1
 67
     7
176
     1
 79
     5
176
     1
170
     0
176
     1
171
     0
176
     1
290
     0
176
     1
 93
        1
176
     1
 44
0.0
176
     1
173
     0
176
     1
  0
VISUALSTYLE
  5
32
102
{ACAD_REACTORS
330
2A
102
}
330
2A
100
AcDbVisualStyle
  2
Basic
 70
     7
177
     2
291
     1
 71
     1
176
     1
 72
     0
176
     1
 73
     1
176
     1
 90
        0
176
     1
 40
-0.6
176
     1
 41
-30.0
176
     1
 62
     5
 63
     7
421
 16777215
176
     1
 74
     0
176
     1
 91
        4
176
     1
 64
     7
176
     1
 65
   257
176
     1
 75
     1
176
     1
175
     1
176
     1
 42
1.0
176
     1
 92
        8
176
     1
 66
     7
176
     1
 43
1.0
176
     1
 76
     1
176
     1
 77
     6
176
     1
 78
     2
176
     1
 67
     7
176
     1
 79
     5
176
     1
170
     0
176
     1
171
     0
176
     1
290
     0
176
     1
 93
        1
176
     1
 44
0.0
176
     1
173
     0
176
     1
  0
VISUALSTYLE
  5
36
102
{ACAD_REACTORS
330
2A
102
}
330
2A
100
AcDbVisualStyle
  2
Brighten
 70
    12
177
     2
291
     1
 71
     2
176
     1
 72
     2
176
     1
 73
     0
176
     1
 90
        0
176
     1
 40
-0.6
176
     1
 41
-30.0
176
     1
 62
     5
 63
     7
421
 16777215
176
     1
 74
     1
176
     1
 91
        4
176
     1
 64
     7
176
     1
 65
   257
176
     1
 75
     1
176
     1
175
     1
176
     1
 42
1.0
176
     1
 92
        8
176
     1
 66
     7
176
     1
 43
1.0
176
     1
 76
     1
176
     1
 77
     6
176
     1
 78
     2
176
     1
 67
     7
176
     1
 79
     5
176
     1
170
     0
176
     1
171
     0
176
     1
290
     0
176
     1
 93
        1
176
     1
 44
50.0
176
     1
173
     0
176
     1
  0
VISUALSTYLE
  5
3A
102
{ACAD_REACTORS
330
2A
102
}
330
2A
100
AcDbVisualStyle
  2
ColorChange
 70
    16
177
     2
291
     1
 71
     2
176
     1
 72
     2
176
     1
 73
     3
176
     1
 90
        0
176
     1
 40
-0.6
176
     1
 41
-30.0
176
     1
 62
     5
 63
     8
421
  8421504
176
     1
 74
     1
176
     1
 91
        4
176
     1
 64
     7
176
     1
 65
   257
176
     1
 75
     1
176
     1
175
     1
176
     1
 42
1.0
176
     1
 92
        8
176
     1
 66
     8
424
  8421504
176
     1
 43
1.0
176
     1
 76
     1
176
     1
 77
     6
176
     1
 78
     2
176
     1
 67
     7
176
     1
 79
     5
176
     1
170
     0
176
     1
171
     0
176
     1
290
     0
176
     1
 93
        1
176
     1
 44
0.0
176
     1
173
     0
176
     1
  0
VISUALSTYLE
  5
34
102
{ACAD_REACTORS
330
2A
102
}
330
2A
100
AcDbVisualStyle
  2
Conceptual
 70
     9
177
     2
291
     0
 71
     3
176
     1
 72
     2
176
     1
 73
     0
176
     1
 90
        0
176
     1
 40
-0.6
176
     1
 41
-30.0
176
     1
 62
     5
 63
     7
421
 16777215
176
     1
 74
     2
176
     1
 91
        2
176
     1
 64
     7
176
     1
 65
   257
176
     1
 75
     1
176
     1
175
     1
176
     1
 42
40.0
176
     1
 92
        8
176
     1
 66
     7
176
     1
 43
1.0
176
     1
 76
     1
176
     1
 77
     6
176
     1
 78
     2
176
     1
 67
     7
176
     1
 79
     3
176
     1
170
     0
176
     1
171
     0
176
     1
290
     0
176
     1
 93
        1
176
     1
 44
0.0
176
     1
173
     0
176
     1
  0
VISUALSTYLE
  5
35
102
{ACAD_REACTORS
330
2A
102
}
330
2A
100
AcDbVisualStyle
  2
Dim
 70
    11
177
     2
291
     1
 71
     2
176
     1
 72
     2
176
     1
 73
     0
176
     1
 90
        0
176
     1
 40
-0.6
176
     1
 41
-30.0
176
     1
 62
     5
 63
     7
421
 16777215
176
     1
 74
     1
176
     1
 91
        4
176
     1
 64
     7
176
     1
 65
   257
176
     1
 75
     1
176
     1
175
     1
176
     1
 42
1.0
176
     1
 92
        8
176
     1
 66
     7
176
     1
 43
1.0
176
     1
 76
     1
176
     1
 77
     6
176
     1
 78
     2
176
     1
 67
     7
176
     1
 79
     5
176
     1
170
     0
176
     1
171
     0
176
     1
290
     0
176
     1
 93
        1
176
     1
 44
-50.0
176
     1
173
     0
176
     1
  0
VISUALSTYLE
  5
39
102
{ACAD_REACTORS
330
2A
102
}
330
2A
100
AcDbVisualStyle
  2
Facepattern
 70
    15
177
     2
291
     1
 71
     2
176
     1
 72
     2
176
     1
 73
     0
176
     1
 90
        0
176
     1
 40
-0.6
176
     1
 41
-30.0
176
     1
 62
     5
 63
     7
421
 16777215
176
     1
 74
     1
176
     1
 91
        4
176
     1
 64
     7
176
     1
 65
   257
176
     1
 75
     1
176
     1
175
     1
176
     1
 42
1.0
176
     1
 92
        8
176
     1
 66
     7
176
     1
 43
1.0
176
     1
 76
     1
176
     1
 77
     6
176
     1
 78
     2
176
     1
 67
     7
176
     1
 79
     5
176
     1
170
     0
176
     1
171
     0
176
     1
290
     0
176
     1
 93
        1
176
     1
 44
0.0
176
     1
173
     0
176
     1
  0
VISUALSTYLE
  5
2B
102
{ACAD_REACTORS
330
2A
102
}
330
2A
100
AcDbVisualStyle
  2
Flat
 70
     0
177
     2
291
     1
 71
     2
176
     1
 72
     1
176
     1
 73
     1
176
     1
 90
        2
176
     1
 40
-0.6
176
     1
 41
30.0
176
     1
 62
     5
 63
     7
421
 16777215
176
     1
 74
     0
176
     1
 91
        4
176
     1
 64
     7
176
     1
 65
   257
176
     1
 75
     1
176
     1
175
     1
176
     1
 42
1.0
176
     1
 92
        8
176
     1
 66
     7
176
     1
 43
1.0
176
     1
 76
     1
176
     1
 77
     6
176
     1
 78
     2
176
     1
 67
     7
176
     1
 79
     5
176
     1
170
     0
176
     1
171
     0
176
     1
290
     0
176
     1
 93
       13
176
     1
 44
0.0
176
     1
173
     0
176
     1
  0
VISUALSTYLE
  5
2C
102
{ACAD_REACTORS
330
2A
102
}
330
2A
100
AcDbVisualStyle
  2
FlatWithEdges
 70
     1
177
     2
291
     1
 71
     2
176
     1
 72
     1
176
     1
 73
     1
176
     1
 90
        2
176
     1
 40
-0.6
176
     1
 41
30.0
176
     1
 62
     5
 63
     7
421
 16777215
176
     1
 74
     1
176
     1
 91
        4
176
     1
 64
     7
176
     1
 65
   257
176
     1
 75
     1
176
     1
175
     1
176
     1
 42
1.0
176
     1
 92
        0
176
     1
 66
   257
176
     1
 43
1.0
176
     1
 76
     1
176
     1
 77
     6
176
     1
 78
     2
176
     1
 67
     7
176
     1
 79
     5
176
     1
170
     0
176
     1
171
     0
176
     1
290
     0
176
     1
 93
       13
176
     1
 44
0.0
176
     1
173
     0
176
     1
  0
VISUALSTYLE
  5
2D
102
{ACAD_REACTORS
330
2A
102
}
330
2A
100
AcDbVisualStyle
  2
Gouraud
 70
     2
177
     2
291
     1
 71
     2
176
     1
 72
     2
176
     1
 73
     1
176
     1
 90
        2
176
     1
 40
-0.6
176
     1
 41
30.0
176
     1
 62
     5
 63
     7
421
 16777215
176
     1
 74
     0
176
     1
 91
        4
176
     1
 64
     7
176
     1
 65
   257
176
     1
 75
     1
176
     1
175
     1
176
     1
 42
1.0
176
     1
 92
        0
176
     1
 66
     7
176
     1
 43
1.0
176
     1
 76
     1
176
     1
 77
     6
176
     1
 78
     2
176
     1
 67
     7
176
     1
 79
     5
176
     1
170
     0
176
     1
171
     0
176
     1
290
     0
176
     1
 93
       13
176
     1
 44
0.0
176
     1
173
     0
176
     1
  0
VISUALSTYLE
  5
2E
102
{ACAD_REACTORS
330
2A
102
}
330
2A
100
AcDbVisualStyle
  2
GouraudWithEdges
 70
     3
177
     2
291
     1
 71
     2
176
     1
 72
     2
176
     1
 73
     1
176
     1
 90
        2
176
     1
 40
-0.6
176
     1
 41
30.0
176
     1
 62
     5
 63
     7
421
 16777215
176
     1
 74
     1
176
     1
 91
        4
176
     1
 64
     7
176
     1
 65
   257
176
     1
 75
     1
176
     1
175
     1
176
     1
 42
1.0
176
     1
 92
        0
176
     1
 66
   257
176
     1
 43
1.0
176
     1
 76
     1
176
     1
 77
     6
176
     1
 78
     2
176
     1
 67
     7
176
     1
 79
     5
176
     1
170
     0
176
     1
171
     0
176
     1
290
     0
176
     1
 93
       13
176
     1
 44
0.0
176
     1
173
     0
176
     1
  0
VISUALSTYLE
  5
38
102
{ACAD_REACTORS
330
2A
102
}
330
2A
100
AcDbVisualStyle
  2
Linepattern
 70
    14
177
     2
291
     1
 71
     2
176
     1
 72
     2
176
     1
 73
     0
176
     1
 90
        0
176
     1
 40
-0.6
176
     1
 41
-30.0
176
     1
 62
     5
 63
     7
421
 16777215
176
     1
 74
     1
176
     1
 91
        4
176
     1
 64
     7
176
     1
 65
   257
176
     1
 75
     7
176
     1
175
     7
176
     1
 42
1.0
176
     1
 92
        8
176
     1
 66
     7
176
     1
 43
1.0
176
     1
 76
     1
176
     1
 77
     6
176
     1
 78
     2
176
     1
 67
     7
176
     1
 79
     5
176
     1
170
     0
176
     1
171
     0
176
     1
290
     0
176
     1
 93
        1
176
     1
 44
0.0
176
     1
173
     0
176
     1
  0
VISUALSTYLE
  5
33
102
{ACAD_REACTORS
330
2A
102
}
330
2A
100
AcDbVisualStyle
  2
Realistic
 70
     8
177
     2
291
     0
 71
     2
176
     1
 72
     2
176
     1
 73
     0
176
     1
 90
        0
176
     1
 40
-0.6
176
     1
 41
-30.0
176
     1
 62
     5
 63
     7
421
 16777215
176
     1
 74
     1
176
     1
 91
        0
176
     1
 64
     7
176
     1
 65
   257
176
     1
 75
     1
176
     1
175
     1
176
     1
 42
1.0
176
     1
 92
        8
176
     1
 66
     8
424
  7895160
176
     1
 43
1.0
176
     1
 76
     1
176
     1
 77
     6
176
     1
 78
     2
176
     1
 67
     7
176
     1
 79
     5
176
     1
170
     0
176
     1
171
     0
176
     1
290
     0
176
     1
 93
       13
176
     1
 44
0.0
176
     1
173
     0
176
     1
  0
VISUALSTYLE
  5
37
102
{ACAD_REACTORS
330
2A
102
}
330
2A
100
AcDbVisualStyle
  2
Thicken
 70
    13
177
     2
291
     1
 71
     2
176
     1
 72
     2
176
     1
 73
     0
176
     1
 90
        0
176
     1
 40
-0.6
176
     1
 41
-30.0
176
     1
 62
     5
 63
     7
421
 16777215
176
     1
 74
     1
176
     1
 91
        4
176
     1
 64
     7
176
     1
 65
   257
176
     1
 75
     1
176
     1
175
     1
176
     1
 42
1.0
176
     1
 92
       12
176
     1
 66
     7
176
     1
 43
1.0
176
     1
 76
     1
176
     1
 77
     6
176
     1
 78
     2
176
     1
 67
     7
176
     1
 79
     5
176
     1
170
     0
176
     1
171
     0
176
     1
290
     0
176
     1
 93
        1
176
     1
 44
0.0
176
     1
173
     0
176
     1
  0
ENDSEC
  0
EOF
