  0
SECTION
  2
HEADER
  9
$ACADVER
  1
AC1024
  9
$ACADMAINTVER
 70
     6
  9
$DWGCODEPAGE
  3
UNDEFINED
  9
$INSBASE
 10
0.0
 20
0.0
 30
0.0
  9
$EXTMIN
 10
1.000000000000000E+20
 20
1.000000000000000E+20
 30
1.000000000000000E+20
  9
$EXTMAX
 10
-1.000000000000000E+20
 20
-1.000000000000000E+20
 30
-1.000000000000000E+20
  9
$LIMMIN
 10
0.0
 20
0.0
  9
$LIMMAX
 10
12.0
 20
9.0
  9
$ORTHOMODE
 70
     0
  9
$REGENMODE
 70
     1
  9
$FILLMODE
 70
     1
  9
$QTEXTMODE
 70
     0
  9
$MIRRTEXT
 70
     1
  9
$LTSCALE
 40
1.0
  9
$ATTMODE
 70
     1
  9
$TEXTSIZE
 40
0.2
  9
$TRACEWID
 40
0.05
  9
$TEXTSTYLE
  7
Standard
  9
$CLAYER
  8
0
  9
$CELTYPE
  6
ByLayer
  9
$CECOLOR
 62
   256
  9
$CELTSCALE
 40
1.0
  9
$DISPSILH
 70
     0
  9
$DIMSCALE
 40
1.0
  9
$DIMASZ
 40
0.18
  9
$DIMEXO
 40
0.0625
  9
$DIMDLI
 40
0.38
  9
$DIMRND
 40
0.0
  9
$DIMDLE
 40
0.0
  9
$DIMEXE
 40
0.18
  9
$DIMTP
 40
0.0
  9
$DIMTM
 40
0.0
  9
$DIMTXT
 40
0.18
  9
$DIMCEN
 40
0.09
  9
$DIMTSZ
 40
0.0
  9
$DIMTOL
 70
     0
  9
$DIMLIM
 70
     0
  9
$DIMTIH
 70
     1
  9
$DIMTOH
 70
     1
  9
$DIMSE1
 70
     0
  9
$DIMSE2
 70
     0
  9
$DIMTAD
 70
     0
  9
$DIMZIN
 70
     0
  9
$DIMBLK
  1

  9
$DIMASO
 70
     1
  9
$DIMSHO
 70
     1
  9
$DIMPOST
  1

  9
$DIMAPOST
  1

  9
$DIMALT
 70
     0
  9
$DIMALTD
 70
     2
  9
$DIMALTF
 40
25.4
  9
$DIMLFAC
 40
1.0
  9
$DIMTOFL
 70
     0
  9
$DIMTVP
 40
0.0
  9
$DIMTIX
 70
     0
  9
$DIMSOXD
 70
     0
  9
$DIMSAH
 70
     0
  9
$DIMBLK1
  1

  9
$DIMBLK2
  1

  9
$DIMSTYLE
  2
Standard
  9
$DIMCLRD
 70
     0
  9
$DIMCLRE
 70
     0
  9
$DIMCLRT
 70
     0
  9
$DIMTFAC
 40
1.0
  9
$DIMGAP
 40
0.09
  9
$DIMJUST
 70
     0
  9
$DIMSD1
 70
     0
  9
$DIMSD2
 70
     0
  9
$DIMTOLJ
 70
     1
  9
$DIMTZIN
 70
     0
  9
$DIMALTZ
 70
     0
  9
$DIMALTTZ
 70
     0
  9
$DIMUPT
 70
     0
  9
$DIMDEC
 70
     4
  9
$DIMTDEC
 70
     4
  9
$DIMALTU
 70
     2
  9
$DIMALTTD
 70
     2
  9
$DIMTXSTY
  7
Standard
  9
$DIMAUNIT
 70
     0
  9
$DIMADEC
 70
     0
  9
$DIMALTRND
 40
0.0
  9
$DIMAZIN
 70
     0
  9
$DIMDSEP
 70
    46
  9
$DIMATFIT
 70
     3
  9
$DIMFRAC
 70
     0
  9
$DIMLDRBLK
  1

  9
$DIMLUNIT
 70
     2
  9
$DIMLWD
 70
    -2
  9
$DIMLWE
 70
    -2
  9
$DIMTMOVE
 70
     0
  9
$DIMFXL
 40
1.0
  9
$DIMFXLON
 70
     0
  9
$DIMJOGANG
 40
0.7853981633974483
  9
$DIMTFILL
 70
     0
  9
$DIMTFILLCLR
 70
     0
  9
$DIMARCSYM
 70
     0
  9
$DIMLTYPE
  6

  9
$DIMLTEX1
  6

  9
$DIMLTEX2
  6

  9
$DIMTXTDIRECTION
 70
     0
  9
$LUNITS
 70
     2
  9
$LUPREC
 70
     4
  9
$SKETCHINC
 40
0.1
  9
$FILLETRAD
 40
0.5
  9
$AUNITS
 70
     0
  9
$AUPREC
 70
     0
  9
$MENU
  1
.
  9
$ELEVATION
 40
0.0
  9
$PELEVATION
 40
0.0
  9
$THICKNESS
 40
0.0
  9
$LIMCHECK
 70
     0
  9
$CHAMFERA
 40
0.5
  9
$CHAMFERB
 40
0.5
  9
$CHAMFERC
 40
1.0
  9
$CHAMFERD
 40
0.0
  9
$SKPOLY
 70
     0
  9
$TDCREATE
 40
2457917.594571759
  9
$TDUCREATE
 40
2457917.219571759
  9
$TDUPDATE
 40
2457917.594571759
  9
$TDUUPDATE
 40
2457917.219571759
  9
$TDINDWG
 40
0.0000000116
  9
$TDUSRTIMER
 40
0.0000000116
  9
$USRTIMER
 70
     1
  9
$ANGBASE
 50
0.0
  9
$ANGDIR
 70
     0
  9
$PDMODE
 70
     0
  9
$PDSIZE
 40
0.0
  9
$PLINEWID
 40
0.0
  9
$SPLFRAME
 70
     0
  9
$SPLINETYPE
 70
     6
  9
$SPLINESEGS
 70
     8
  9
$HANDSEED
  5
10F
  9
$SURFTAB1
 70
     6
  9
$SURFTAB2
 70
     6
  9
$SURFTYPE
 70
     6
  9
$SURFU
 70
     6
  9
$SURFV
 70
     6
  9
$UCSBASE
  2

  9
$UCSNAME
  2

  9
$UCSORG
 10
0.0
 20
0.0
 30
0.0
  9
$UCSXDIR
 10
1.0
 20
0.0
 30
0.0
  9
$UCSYDIR
 10
0.0
 20
1.0
 30
0.0
  9
$UCSORTHOREF
  2

  9
$UCSORTHOVIEW
 70
     0
  9
$UCSORGTOP
 10
0.0
 20
0.0
 30
0.0
  9
$UCSORGBOTTOM
 10
0.0
 20
0.0
 30
0.0
  9
$UCSORGLEFT
 10
0.0
 20
0.0
 30
0.0
  9
$UCSORGRIGHT
 10
0.0
 20
0.0
 30
0.0
  9
$UCSORGFRONT
 10
0.0
 20
0.0
 30
0.0
  9
$UCSORGBACK
 10
0.0
 20
0.0
 30
0.0
  9
$PUCSBASE
  2

  9
$PUCSNAME
  2

  9
$PUCSORG
 10
0.0
 20
0.0
 30
0.0
  9
$PUCSXDIR
 10
1.0
 20
0.0
 30
0.0
  9
$PUCSYDIR
 10
0.0
 20
1.0
 30
0.0
  9
$PUCSORTHOREF
  2

  9
$PUCSORTHOVIEW
 70
     0
  9
$PUCSORGTOP
 10
0.0
 20
0.0
 30
0.0
  9
$PUCSORGBOTTOM
 10
0.0
 20
0.0
 30
0.0
  9
$PUCSORGLEFT
 10
0.0
 20
0.0
 30
0.0
  9
$PUCSORGRIGHT
 10
0.0
 20
0.0
 30
0.0
  9
$PUCSORGFRONT
 10
0.0
 20
0.0
 30
0.0
  9
$PUCSORGBACK
 10
0.0
 20
0.0
 30
0.0
  9
$USERI1
 70
     0
  9
$USERI2
 70
     0
  9
$USERI3
 70
     0
  9
$USERI4
 70
     0
  9
$USERI5
 70
     0
  9
$USERR1
 40
0.0
  9
$USERR2
 40
0.0
  9
$USERR3
 40
0.0
  9
$USERR4
 40
0.0
  9
$USERR5
 40
0.0
  9
$WORLDVIEW
 70
     1
  9
$SHADEDGE
 70
     3
  9
$SHADEDIF
 70
    70
  9
$TILEMODE
 70
     1
  9
$MAXACTVP
 70
    64
  9
$PINSBASE
 10
0.0
 20
0.0
 30
0.0
  9
$PLIMCHECK
 70
     0
  9
$PEXTMIN
 10
1.000000000000000E+20
 20
1.000000000000000E+20
 30
1.000000000000000E+20
  9
$PEXTMAX
 10
-1.000000000000000E+20
 20
-1.000000000000000E+20
 30
-1.000000000000000E+20
  9
$PLIMMIN
 10
0.0
 20
0.0
  9
$PLIMMAX
 10
12.0
 20
9.0
  9
$UNITMODE
 70
     0
  9
$VISRETAIN
 70
     1
  9
$PLINEGEN
 70
     0
  9
$PSLTSCALE
 70
     1
  9
$TREEDEPTH
 70
  3020
  9
$CMLSTYLE
  2
Standard
  9
$CMLJUST
 70
     0
  9
$CMLSCALE
 40
1.0
  9
$PROXYGRAPHICS
 70
     1
  9
$MEASUREMENT
 70
     0
  9
$CELWEIGHT
370
    -1
  9
$ENDCAPS
280
     0
  9
$JOINSTYLE
280
     0
  9
$LWDISPLAY
290
     1
  9
$INSUNITS
 70
     1
  9
$HYPERLINKBASE
  1

  9
$STYLESHEET
  1

  9
$XEDIT
290
     1
  9
$CEPSNTYPE
380
     0
  9
$PSTYLEMODE
290
     1
  9
$FINGERPRINTGUID
  2
{DA811CD8-4274-EFD6-123F-96A42A6D887A}
  9
$VERSIONGUID
  2
{FAEB1C32-E019-11D5-929B-00C0DF256EC4}
  9
$EXTNAMES
290
     1
  9
$PSVPSCALE
 40
0.0
  9
$OLESTARTUP
290
     0
  9
$SORTENTS
280
   127
  9
$INDEXCTL
280
     0
  9
$HIDETEXT
280
     1
  9
$XCLIPFRAME
280
     2
  9
$HALOGAP
280
     0
  9
$OBSCOLOR
 70
   257
  9
$OBSLTYPE
280
     0
  9
$INTERSECTIONDISPLAY
280
     0
  9
$INTERSECTIONCOLOR
 70
   257
  9
$DIMASSOC
280
     2
  9
$PROJECTNAME
  1

  9
$CAMERADISPLAY
290
     0
  9
$LENSLENGTH
 40
50.0
  9
$CAMERAHEIGHT
 40
0.0
  9
$STEPSPERSEC
 40
2.0
  9
$STEPSIZE
 40
6.0
  9
$3DDWFPREC
 40
2.0
  9
$PSOLWIDTH
 40
0.25
  9
$PSOLHEIGHT
 40
4.0
  9
$LOFTANG1
 40
1.570796326794897
  9
$LOFTANG2
 40
1.570796326794897
  9
$LOFTMAG1
 40
0.0
  9
$LOFTMAG2
 40
0.0
  9
$LOFTPARAM
 70
     7
  9
$LOFTNORMALS
280
     1
  9
$LATITUDE
 40
37.795
  9
$LONGITUDE
 40
-122.394
  9
$NORTHDIRECTION
 40
0.0
  9
$TIMEZONE
 70
 -8000
  9
$LIGHTGLYPHDISPLAY
280
     1
  9
$TILEMODELIGHTSYNCH
280
     1
  9
$CMATERIAL
347
3C
  9
$SOLIDHIST
280
     1
  9
$SHOWHIST
280
     1
  9
$DWFFRAME
280
     2
  9
$DGNFRAME
280
     2
  9
$REALWORLDSCALE
290
     1
  9
$INTERFERECOLOR
 62
   256
  9
$CSHADOW
280
     0
  9
$SHADOWPLANELOCATION
 40
0.0
  0
ENDSEC
  0
SECTION
  2
CLASSES
  0
CLASS
  1
ACDBDICTIONARYWDFLT
  2
AcDbDictionaryWithDefault
  3
ObjectDBX Classes
 90
        0
 91
        4
280
     0
281
     0
  0
CLASS
  1
VISUALSTYLE
  2
AcDbVisualStyle
  3
ObjectDBX Classes
 90
     4095
 91
        4
280
     0
281
     0
  0
CLASS
  1
MATERIAL
  2
AcDbMaterial
  3
ObjectDBX Classes
 90
     1153
 91
        4
280
     0
281
     0
  0
CLASS
  1
SUN
  2
AcDbSun
  3
SCENEOE
 90
     1024
 91
        4
280
     0
281
     0
  0
ENDSEC
  0
SECTION
  2
TABLES
  0
TABLE
  2
VPORT
  5
8
330
0
100
AcDbSymbolTable
 70
     1
  0
VPORT
  5
29
330
8
100
AcDbSymbolTableRecord
100
AcDbViewportTableRecord
  2
*Active
 70
     0
 10
0.0
 20
0.0
 11
1.0
 21
1.0
 12
0.0
 22
0.0
 13
0.0
 23
0.0
 14
0.5
 24
0.5
 15
0.5
 25
0.5
 16
0.0
 26
0.0
 36
1.0
 17
91.00082462281999
 27
-128.4993055234307
 37
0.0
 40
256.9986110468615
 41
0.7081814508812795
 42
50.0
 43
0.0
 44
0.0
 50
0.0
 51
0.0
 71
     0
 72
   100
 73
     1
 74
     3
 75
     0
 76
     0
 77
     0
 78
     0
281
     0
 65
     1
110
0.0
120
0.0
130
0.0
111
1.0
121
0.0
131
0.0
112
0.0
122
1.0
132
0.0
 79
     0
146
0.0
 60
     3
 61
     5
292
     1
282
     1
141
0.0
142
0.0
 63
   250
361
3F
  0
ENDTAB
  0
TABLE
  2
LTYPE
  5
5
330
0
100
AcDbSymbolTable
 70
     1
  0
LTYPE
  5
14
330
5
100
AcDbSymbolTableRecord
100
AcDbLinetypeTableRecord
  2
ByBlock
 70
     0
  3

 72
    65
 73
     0
 40
0.0
  0
LTYPE
  5
15
330
5
100
AcDbSymbolTableRecord
100
AcDbLinetypeTableRecord
  2
ByLayer
 70
     0
  3

 72
    65
 73
     0
 40
0.0
  0
LTYPE
  5
16
330
5
100
AcDbSymbolTableRecord
100
AcDbLinetypeTableRecord
  2
Continuous
 70
     0
  3
Solid line
 72
    65
 73
     0
 40
0.0
  0
ENDTAB
  0
TABLE
  2
LAYER
  5
2
330
0
100
AcDbSymbolTable
 70
     2
  0
LAYER
  5
10
330
2
100
AcDbSymbolTableRecord
100
AcDbLayerTableRecord
  2
0
 70
     0
 62
     7
  6
Continuous
370
    -3
390
F
347
3E
  0
LAYER
  5
40
330
2
100
AcDbSymbolTableRecord
100
AcDbLayerTableRecord
  2
_U+30EC_U+30A4_U+30E4_U+30FC 1
 70
     0
 62
     7
  6
Continuous
370
    -3
390
F
347
3E
  0
ENDTAB
  0
TABLE
  2
STYLE
  5
3
330
0
100
AcDbSymbolTable
 70
     1
  0
STYLE
  5
11
330
3
100
AcDbSymbolTableRecord
100
AcDbTextStyleTableRecord
  2
Standard
 70
     0
 40
0.0
 41
1.0
 50
0.0
 71
     0
 42
0.2
  3
txt
  4

  0
ENDTAB
  0
TABLE
  2
VIEW
  5
6
330
0
100
AcDbSymbolTable
 70
     0
  0
ENDTAB
  0
TABLE
  2
UCS
  5
7
330
0
100
AcDbSymbolTable
 70
     0
  0
ENDTAB
  0
TABLE
  2
APPID
  5
9
330
0
100
AcDbSymbolTable
 70
     1
  0
APPID
  5
12
330
9
100
AcDbSymbolTableRecord
100
AcDbRegAppTableRecord
  2
ACAD
 70
     0
  0
ENDTAB
  0
TABLE
  2
DIMSTYLE
  5
A
330
0
100
AcDbSymbolTable
 70
     1
100
AcDbDimStyleTable
  0
DIMSTYLE
105
27
330
A
100
AcDbSymbolTableRecord
100
AcDbDimStyleTableRecord
  2
Standard
 70
     0
178
     0
340
11
  0
ENDTAB
  0
TABLE
  2
BLOCK_RECORD
  5
1
330
0
100
AcDbSymbolTable
 70
     7
  0
BLOCK_RECORD
  5
1F
330
1
100
AcDbSymbolTableRecord
100
AcDbBlockTableRecord
  2
*Model_Space
340
22
 70
     0
280
     1
281
     0
  0
BLOCK_RECORD
  5
1B
330
1
100
AcDbSymbolTableRecord
100
AcDbBlockTableRecord
  2
*Paper_Space
340
1E
 70
     0
280
     1
281
     0
  0
BLOCK_RECORD
  5
23
330
1
100
AcDbSymbolTableRecord
100
AcDbBlockTableRecord
  2
*Paper_Space0
340
26
 70
     0
280
     1
281
     0
  0
BLOCK_RECORD
  5
94
330
1
100
AcDbSymbolTableRecord
100
AcDbBlockTableRecord
  2
block 2
340
0
102
{BLKREFS
331
95
102
}
 70
     0
280
     1
281
     0
  0
BLOCK_RECORD
  5
B1
330
1
100
AcDbSymbolTableRecord
100
AcDbBlockTableRecord
  2
block 3
340
0
102
{BLKREFS
331
B2
102
}
 70
     0
280
     1
281
     0
  0
BLOCK_RECORD
  5
C5
330
1
100
AcDbSymbolTableRecord
100
AcDbBlockTableRecord
  2
block 4
340
0
102
{BLKREFS
331
C6
102
}
 70
     0
280
     1
281
     0
  0
BLOCK_RECORD
  5
D9
330
1
100
AcDbSymbolTableRecord
100
AcDbBlockTableRecord
  2
block 5
340
0
102
{BLKREFS
331
DA
102
}
 70
     0
280
     1
281
     0
  0
BLOCK_RECORD
  5
EB
330
1
100
AcDbSymbolTableRecord
100
AcDbBlockTableRecord
  2
block 6
340
0
102
{BLKREFS
331
EC
102
}
 70
     0
280
     1
281
     0
  0
BLOCK_RECORD
  5
FD
330
1
100
AcDbSymbolTableRecord
100
AcDbBlockTableRecord
  2
block 7
340
0
102
{BLKREFS
331
FE
102
}
 70
     0
280
     1
281
     0
  0
ENDTAB
  0
ENDSEC
  0
SECTION
  2
BLOCKS
  0
BLOCK
  5
20
330
1F
100
AcDbEntity
  8
0
100
AcDbBlockBegin
  2
*Model_Space
 70
     0
 10
0.0
 20
0.0
 30
0.0
  3
*Model_Space
  1

  0
ENDBLK
  5
21
330
1F
100
AcDbEntity
  8
0
100
AcDbBlockEnd
  0
BLOCK
  5
1C
330
1B
100
AcDbEntity
 67
     1
  8
0
100
AcDbBlockBegin
  2
*Paper_Space
 70
     0
 10
0.0
 20
0.0
 30
0.0
  3
*Paper_Space
  1

  0
ENDBLK
  5
1D
330
1B
100
AcDbEntity
 67
     1
  8
0
100
AcDbBlockEnd
  0
BLOCK
  5
24
330
23
100
AcDbEntity
  8
0
100
AcDbBlockBegin
  2
*Paper_Space0
 70
     0
 10
0.0
 20
0.0
 30
0.0
  3
*Paper_Space0
  1

  0
ENDBLK
  5
25
330
23
100
AcDbEntity
  8
0
100
AcDbBlockEnd
  0
BLOCK
  5
96
330
94
100
AcDbEntity
  8
0
100
AcDbBlockBegin
  2
block 2
 70
     0
 10
0.0
 20
0.0
 30
0.0
  3
block 2
  1

  0
SPLINE
  5
98
330
94
100
AcDbEntity
  8
_U+30EC_U+30A4_U+30E4_U+30FC 1
370
     0
100
AcDbSpline
210
0.0
220
0.0
230
1.0
 70
    11
 71
     3
 72
    29
 73
    25
 74
     0
 42
0.0000000001
 43
0.0000000001
 12
1.0
 22
0.0
 32
0.0
 13
1.0
 23
0.0
 33
0.0
 40
0.0
 40
0.0
 40
0.0
 40
0.0
 40
1.0
 40
1.0
 40
1.0
 40
2.0
 40
2.0
 40
2.0
 40
3.0
 40
3.0
 40
3.0
 40
4.0
 40
4.0
 40
4.0
 40
5.0
 40
5.0
 40
5.0
 40
6.0
 40
6.0
 40
6.0
 40
7.0
 40
7.0
 40
7.0
 40
8.0
 40
8.0
 40
8.0
 40
8.0
 10
105.6517767748023
 20
-133.0647460604838
 30
0.0
 10
105.8612385803055
 20
-133.1801567592397
 30
0.0
 10
105.8801866054744
 20
-133.3655028963461
 30
0.0
 10
105.8801866054744
 20
-133.4898708433637
 30
0.0
 10
105.8801866054744
 20
-133.6614365985291
 30
0.0
 10
105.8336778164235
 20
-133.8130207998801
 30
0.0
 10
105.6517767748023
 20
-133.914651116695
 30
0.0
 10
105.4571288798857
 20
-134.02558319132
 30
0.0
 10
105.2204508200491
 20
-134.045909254683
 30
0.0
 10
105.0574978035967
 20
-134.045909254683
 30
0.0
 10
104.9134928123133
 20
-134.045909254683
 30
0.0
 10
104.6616563323415
 20
-134.0279947581597
 30
0.0
 10
104.4628743228426
 20
-133.914651116695
 30
0.0
 10
104.2599581987614
 20
-133.7995849274876
 30
0.0
 10
104.2365315494617
 20
-133.6276746627736
 30
0.0
 10
104.2365315494617
 20
-133.4898708433637
 30
0.0
 10
104.2365315494617
 20
-133.3200276359408
 30
0.0
 10
104.2809732812214
 20
-133.1663763772987
 30
0.0
 10
104.4628743228426
 20
-133.0647460604838
 30
0.0
 10
104.6554551604681
 20
-132.9582926099896
 30
0.0
 10
104.8838649911401
 20
-132.9334879224958
 30
0.0
 10
105.0574978035967
 20
-132.9334879224958
 30
0.0
 10
105.2287190492137
 20
-132.9334879224958
 30
0.0
 10
105.4591959371769
 20
-132.9562255526984
 30
0.0
 10
105.6517767748023
 20
-133.0647460604838
 30
0.0
  0
SPLINE
  5
99
330
94
100
AcDbEntity
  8
_U+30EC_U+30A4_U+30E4_U+30FC 1
370
     0
100
AcDbSpline
210
0.0
220
0.0
230
1.0
 70
    11
 71
     3
 72
    17
 73
    13
 74
     0
 42
0.0000000001
 43
0.0000000001
 12
1.0
 22
0.0
 32
0.0
 13
1.0
 23
0.0
 33
0.0
 40
0.0
 40
0.0
 40
0.0
 40
0.0
 40
1.0
 40
1.0
 40
1.0
 40
2.0
 40
2.0
 40
2.0
 40
3.0
 40
3.0
 40
3.0
 40
4.0
 40
4.0
 40
4.0
 40
4.0
 10
104.4291123870872
 20
-133.4898708433637
 30
0.0
 10
104.4291123870872
 20
-133.756521233922
 30
0.0
 10
104.7126437455232
 20
-133.8061306089096
 30
0.0
 10
105.0574978035967
 20
-133.8061306089096
 30
0.0
 10
105.3768581550794
 20
-133.8061306089096
 30
0.0
 10
105.6855387105578
 20
-133.7678900490233
 30
0.0
 10
105.6855387105578
 20
-133.4898708433637
 30
0.0
 10
105.6855387105578
 20
-133.2252875100965
 30
0.0
 10
105.4044189189614
 20
-133.1732665682692
 30
0.0
 10
105.0574978035967
 20
-133.1732665682692
 30
0.0
 10
104.7377929425656
 20
-133.1732665682692
 30
0.0
 10
104.4291123870872
 20
-133.2139186949951
 30
0.0
 10
104.4291123870872
 20
-133.4898708433637
 30
0.0
  0
HATCH
  5
9A
330
94
100
AcDbEntity
  8
_U+30EC_U+30A4_U+30E4_U+30FC 1
 62
   179
420
  2234388
100
AcDbHatch
 10
0.0
 20
0.0
 30
0.0
210
0.0
220
0.0
230
1.0
  2
SOLID
 70
     1
 71
     0
 91
        2
 92
        1
 93
        1
 72
     4
 94
        3
 73
     0
 74
     1
 95
       29
 96
       25
 40
0.0
 40
0.0
 40
0.0
 40
0.0
 40
1.0
 40
1.0
 40
1.0
 40
2.0
 40
2.0
 40
2.0
 40
3.0
 40
3.0
 40
3.0
 40
4.0
 40
4.0
 40
4.0
 40
5.0
 40
5.0
 40
5.0
 40
6.0
 40
6.0
 40
6.0
 40
7.0
 40
7.0
 40
7.0
 40
8.0
 40
8.0
 40
8.0
 40
8.0
 10
105.6517767748023
 20
-133.0647460604838
 10
105.8612385803055
 20
-133.1801567592397
 10
105.8801866054744
 20
-133.3655028963461
 10
105.8801866054744
 20
-133.4898708433637
 10
105.8801866054744
 20
-133.6614365985291
 10
105.8336778164235
 20
-133.8130207998801
 10
105.6517767748023
 20
-133.914651116695
 10
105.4571288798857
 20
-134.02558319132
 10
105.2204508200491
 20
-134.045909254683
 10
105.0574978035967
 20
-134.045909254683
 10
104.9134928123133
 20
-134.045909254683
 10
104.6616563323415
 20
-134.0279947581597
 10
104.4628743228426
 20
-133.914651116695
 10
104.2599581987614
 20
-133.7995849274876
 10
104.2365315494617
 20
-133.6276746627736
 10
104.2365315494617
 20
-133.4898708433637
 10
104.2365315494617
 20
-133.3200276359408
 10
104.2809732812214
 20
-133.1663763772987
 10
104.4628743228426
 20
-133.0647460604838
 10
104.6554551604681
 20
-132.9582926099896
 10
104.8838649911401
 20
-132.9334879224958
 10
105.0574978035967
 20
-132.9334879224958
 10
105.2287190492137
 20
-132.9334879224958
 10
105.4591959371769
 20
-132.9562255526984
 10
105.6517767748023
 20
-133.0647460604838
 97
        0
 97
        0
 92
        1
 93
        1
 72
     4
 94
        3
 73
     0
 74
     1
 95
       17
 96
       13
 40
0.0
 40
0.0
 40
0.0
 40
0.0
 40
1.0
 40
1.0
 40
1.0
 40
2.0
 40
2.0
 40
2.0
 40
3.0
 40
3.0
 40
3.0
 40
4.0
 40
4.0
 40
4.0
 40
4.0
 10
104.4291123870872
 20
-133.4898708433637
 10
104.4291123870872
 20
-133.756521233922
 10
104.7126437455232
 20
-133.8061306089096
 10
105.0574978035967
 20
-133.8061306089096
 10
105.3768581550794
 20
-133.8061306089096
 10
105.6855387105578
 20
-133.7678900490233
 10
105.6855387105578
 20
-133.4898708433637
 10
105.6855387105578
 20
-133.2252875100965
 10
105.4044189189614
 20
-133.1732665682692
 10
105.0574978035967
 20
-133.1732665682692
 10
104.7377929425656
 20
-133.1732665682692
 10
104.4291123870872
 20
-133.2139186949951
 10
104.4291123870872
 20
-133.4898708433637
 97
        0
 97
        0
 75
     2
 76
     1
 98
        0
  0
POLYLINE
  5
9B
330
94
100
AcDbEntity
  8
_U+30EC_U+30A4_U+30E4_U+30FC 1
370
     0
100
AcDb2dPolyline
 66
     1
 10
0.0
 20
0.0
 30
0.0
  0
VERTEX
  5
9C
330
9B
100
AcDbEntity
  8
_U+30EC_U+30A4_U+30E4_U+30FC 1
370
     0
100
AcDbVertex
100
AcDb2dVertex
 10
105.8295437018412
 20
-132.7023220154355
 30
0.0
  0
VERTEX
  5
9D
330
9B
100
AcDbEntity
  8
_U+30EC_U+30A4_U+30E4_U+30FC 1
370
     0
100
AcDbVertex
100
AcDb2dVertex
 10
105.5777072218695
 20
-132.7023220154355
 30
0.0
  0
VERTEX
  5
9E
330
9B
100
AcDbEntity
  8
_U+30EC_U+30A4_U+30E4_U+30FC 1
370
     0
100
AcDbVertex
100
AcDb2dVertex
 10
105.5777072218695
 20
-132.4332600580375
 30
0.0
  0
VERTEX
  5
9F
330
9B
100
AcDbEntity
  8
_U+30EC_U+30A4_U+30E4_U+30FC 1
370
     0
100
AcDbVertex
100
AcDb2dVertex
 10
105.8295437018412
 20
-132.4332600580375
 30
0.0
  0
VERTEX
  5
A0
330
9B
100
AcDbEntity
  8
_U+30EC_U+30A4_U+30E4_U+30FC 1
370
     0
100
AcDbVertex
100
AcDb2dVertex
 10
105.8295437018412
 20
-132.7023220154355
 30
0.0
  0
SEQEND
  5
A1
330
9B
100
AcDbEntity
  8
_U+30EC_U+30A4_U+30E4_U+30FC 1
370
     0
  0
HATCH
  5
A2
330
94
100
AcDbEntity
  8
_U+30EC_U+30A4_U+30E4_U+30FC 1
 62
   179
420
  2234388
100
AcDbHatch
 10
0.0
 20
0.0
 30
0.0
210
0.0
220
0.0
230
1.0
  2
SOLID
 70
     1
 71
     0
 91
        1
 92
        1
 93
        4
 72
     1
 10
105.8295437018412
 20
-132.7023220154355
 11
105.5777072218695
 21
-132.7023220154355
 72
     1
 10
105.5777072218695
 20
-132.7023220154355
 11
105.5777072218695
 21
-132.4332600580375
 72
     1
 10
105.5777072218695
 20
-132.4332600580375
 11
105.8295437018412
 21
-132.4332600580375
 72
     1
 10
105.8295437018412
 20
-132.4332600580375
 11
105.8295437018412
 21
-132.7023220154355
 97
        0
 75
     2
 76
     1
 98
        0
  0
SPLINE
  5
A3
330
94
100
AcDbEntity
  8
_U+30EC_U+30A4_U+30E4_U+30FC 1
370
     0
100
AcDbSpline
210
0.0
220
0.0
230
1.0
 70
    11
 71
     3
 72
    26
 73
    22
 74
     0
 42
0.0000000001
 43
0.0000000001
 12
1.0
 22
0.0
 32
0.0
 13
1.0
 23
0.0
 33
0.0
 40
0.0
 40
0.0
 40
0.0
 40
0.0
 40
1.0
 40
1.0
 40
1.0
 40
2.0
 40
2.0
 40
2.0
 40
3.0
 40
3.0
 40
3.0
 40
4.0
 40
4.0
 40
4.0
 40
5.0
 40
5.0
 40
5.0
 40
6.0
 40
6.0
 40
6.0
 40
7.0
 40
7.0
 40
7.0
 40
7.0
 10
105.8295437018412
 20
-131.7407958655023
 30
0.0
 10
105.8295437018412
 20
-131.7407958655023
 30
0.0
 10
105.8295437018412
 20
-131.9940103836682
 30
0.0
 10
105.8295437018412
 20
-131.9940103836682
 30
0.0
 10
105.5205186368143
 20
-131.9671386388832
 30
0.0
 10
105.0023762758327
 20
-131.7611219288653
 30
0.0
 10
104.4966362585981
 20
-131.3270398977238
 30
0.0
 10
104.4966362585981
 20
-131.3270398977238
 30
0.0
 10
104.4966362585981
 20
-132.2224202143402
 30
0.0
 10
104.4966362585981
 20
-132.2224202143402
 30
0.0
 10
104.4966362585981
 20
-132.2224202143402
 30
0.0
 10
104.2851073958037
 20
-132.2224202143402
 30
0.0
 10
104.2851073958037
 20
-132.2224202143402
 30
0.0
 10
104.2851073958037
 20
-132.2224202143402
 30
0.0
 10
104.2851073958037
 20
-131.0738253795579
 30
0.0
 10
104.2851073958037
 20
-131.0738253795579
 30
0.0
 10
104.2851073958037
 20
-131.0738253795579
 30
0.0
 10
104.4966362585981
 20
-131.0738253795579
 30
0.0
 10
104.4966362585981
 20
-131.0738253795579
 30
0.0
 10
104.7867132984561
 20
-131.419712966277
 30
0.0
 10
105.3789252123705
 20
-131.7046223629072
 30
0.0
 10
105.8295437018412
 20
-131.7407958655023
 30
0.0
  0
HATCH
  5
A4
330
94
100
AcDbEntity
  8
_U+30EC_U+30A4_U+30E4_U+30FC 1
 62
   179
420
  2234388
100
AcDbHatch
 10
0.0
 20
0.0
 30
0.0
210
0.0
220
0.0
230
1.0
  2
SOLID
 70
     1
 71
     0
 91
        1
 92
        1
 93
        1
 72
     4
 94
        3
 73
     0
 74
     1
 95
       26
 96
       22
 40
0.0
 40
0.0
 40
0.0
 40
0.0
 40
1.0
 40
1.0
 40
1.0
 40
2.0
 40
2.0
 40
2.0
 40
3.0
 40
3.0
 40
3.0
 40
4.0
 40
4.0
 40
4.0
 40
5.0
 40
5.0
 40
5.0
 40
6.0
 40
6.0
 40
6.0
 40
7.0
 40
7.0
 40
7.0
 40
7.0
 10
105.8295437018412
 20
-131.7407958655023
 10
105.8295437018412
 20
-131.7407958655023
 10
105.8295437018412
 20
-131.9940103836682
 10
105.8295437018412
 20
-131.9940103836682
 10
105.5205186368143
 20
-131.9671386388832
 10
105.0023762758327
 20
-131.7611219288653
 10
104.4966362585981
 20
-131.3270398977238
 10
104.4966362585981
 20
-131.3270398977238
 10
104.4966362585981
 20
-132.2224202143402
 10
104.4966362585981
 20
-132.2224202143402
 10
104.4966362585981
 20
-132.2224202143402
 10
104.2851073958037
 20
-132.2224202143402
 10
104.2851073958037
 20
-132.2224202143402
 10
104.2851073958037
 20
-132.2224202143402
 10
104.2851073958037
 20
-131.0738253795579
 10
104.2851073958037
 20
-131.0738253795579
 10
104.2851073958037
 20
-131.0738253795579
 10
104.4966362585981
 20
-131.0738253795579
 10
104.4966362585981
 20
-131.0738253795579
 10
104.7867132984561
 20
-131.419712966277
 10
105.3789252123705
 20
-131.7046223629072
 10
105.8295437018412
 20
-131.7407958655023
 97
        0
 97
        0
 75
     2
 76
     1
 98
        0
  0
ENDBLK
  5
97
330
94
100
AcDbEntity
  8
0
100
AcDbBlockEnd
  0
BLOCK
  5
B3
330
B1
100
AcDbEntity
  8
0
100
AcDbBlockBegin
  2
block 3
 70
     0
 10
0.0
 20
0.0
 30
0.0
  3
block 3
  1

  0
SPLINE
  5
B5
330
B1
100
AcDbEntity
  8
_U+30EC_U+30A4_U+30E4_U+30FC 1
370
     0
100
AcDbSpline
210
0.0
220
0.0
230
1.0
 70
    11
 71
     3
 72
    44
 73
    40
 74
     0
 42
0.0000000001
 43
0.0000000001
 12
1.0
 22
0.0
 32
0.0
 13
1.0
 23
0.0
 33
0.0
 40
0.0
 40
0.0
 40
0.0
 40
0.0
 40
1.0
 40
1.0
 40
1.0
 40
2.0
 40
2.0
 40
2.0
 40
3.0
 40
3.0
 40
3.0
 40
4.0
 40
4.0
 40
4.0
 40
5.0
 40
5.0
 40
5.0
 40
6.0
 40
6.0
 40
6.0
 40
7.0
 40
7.0
 40
7.0
 40
8.0
 40
8.0
 40
8.0
 40
9.0
 40
9.0
 40
9.0
 40
10.0
 40
10.0
 40
10.0
 40
11.0
 40
11.0
 40
11.0
 40
12.0
 40
12.0
 40
12.0
 40
13.0
 40
13.0
 40
13.0
 40
13.0
 10
91.69224986857
 20
-135.6092935858894
 30
0.0
 10
91.45936141376711
 20
-135.7681124877594
 30
0.0
 10
91.35979815424339
 20
-135.8421820406923
 30
0.0
 10
91.30777721241611
 20
-135.9858425224272
 30
0.0
 10
91.30777721241611
 20
-135.9858425224272
 30
0.0
 10
92.14011228165248
 20
-135.9858425224272
 30
0.0
 10
92.14011228165248
 20
-135.9858425224272
 30
0.0
 10
92.14011228165248
 20
-135.9858425224272
 30
0.0
 10
92.14011228165248
 20
-136.191170213348
 30
0.0
 10
92.14011228165248
 20
-136.191170213348
 30
0.0
 10
92.14011228165248
 20
-136.191170213348
 30
0.0
 10
91.04112682185777
 20
-136.191170213348
 30
0.0
 10
91.04112682185777
 20
-136.191170213348
 30
0.0
 10
91.07523326716175
 20
-135.8335693019791
 30
0.0
 10
91.14516870551232
 20
-135.7553656344639
 30
0.0
 10
91.55651310645115
 20
-135.4570203654413
 30
0.0
 10
91.83005368798
 20
-135.2582383559424
 30
0.0
 10
91.9003336358791
 20
-135.190369974883
 30
0.0
 10
91.9003336358791
 20
-135.0529106650215
 30
0.0
 10
91.9003336358791
 20
-134.9343993803289
 30
0.0
 10
91.82350800655801
 20
-134.8034857518894
 30
0.0
 10
91.61301267240925
 20
-134.8034857518894
 30
0.0
 10
91.3349934667496
 20
-134.8034857518894
 30
0.0
 10
91.32603621848794
 20
-135.0339626398526
 30
0.0
 10
91.32155759435712
 20
-135.1504068672541
 30
0.0
 10
91.32155759435712
 20
-135.1504068672541
 30
0.0
 10
91.08177894858373
 20
-135.1504068672541
 30
0.0
 10
91.08177894858373
 20
-135.1504068672541
 30
0.0
 10
91.09073619684537
 20
-135.0232828438484
 30
0.0
 10
91.1021050119467
 20
-134.9113172405777
 30
0.0
 10
91.18823239907795
 20
-134.7928059558851
 30
0.0
 10
91.30571015512497
 20
-134.631919996724
 30
0.0
 10
91.50449216462388
 20
-134.5981580609685
 30
0.0
 10
91.6288601116414
 20
-134.5981580609685
 30
0.0
 10
91.92513832337289
 20
-134.5981580609685
 30
0.0
 10
92.14665796307445
 20
-134.7821261598809
 30
0.0
 10
92.14665796307445
 20
-135.0549777223127
 30
0.0
 10
92.14665796307445
 20
-135.2837320625332
 30
0.0
 10
92.02229001605693
 20
-135.3829508125084
 30
0.0
 10
91.69224986857
 20
-135.6092935858894
 30
0.0
  0
HATCH
  5
B6
330
B1
100
AcDbEntity
  8
_U+30EC_U+30A4_U+30E4_U+30FC 1
 62
   179
420
  2234388
100
AcDbHatch
 10
0.0
 20
0.0
 30
0.0
210
0.0
220
0.0
230
1.0
  2
SOLID
 70
     1
 71
     0
 91
        1
 92
        1
 93
        1
 72
     4
 94
        3
 73
     0
 74
     1
 95
       44
 96
       40
 40
0.0
 40
0.0
 40
0.0
 40
0.0
 40
1.0
 40
1.0
 40
1.0
 40
2.0
 40
2.0
 40
2.0
 40
3.0
 40
3.0
 40
3.0
 40
4.0
 40
4.0
 40
4.0
 40
5.0
 40
5.0
 40
5.0
 40
6.0
 40
6.0
 40
6.0
 40
7.0
 40
7.0
 40
7.0
 40
8.0
 40
8.0
 40
8.0
 40
9.0
 40
9.0
 40
9.0
 40
10.0
 40
10.0
 40
10.0
 40
11.0
 40
11.0
 40
11.0
 40
12.0
 40
12.0
 40
12.0
 40
13.0
 40
13.0
 40
13.0
 40
13.0
 10
91.69224986857
 20
-135.6092935858894
 10
91.45936141376711
 20
-135.7681124877594
 10
91.35979815424339
 20
-135.8421820406923
 10
91.30777721241611
 20
-135.9858425224272
 10
91.30777721241611
 20
-135.9858425224272
 10
92.14011228165248
 20
-135.9858425224272
 10
92.14011228165248
 20
-135.9858425224272
 10
92.14011228165248
 20
-135.9858425224272
 10
92.14011228165248
 20
-136.191170213348
 10
92.14011228165248
 20
-136.191170213348
 10
92.14011228165248
 20
-136.191170213348
 10
91.04112682185777
 20
-136.191170213348
 10
91.04112682185777
 20
-136.191170213348
 10
91.07523326716175
 20
-135.8335693019791
 10
91.14516870551232
 20
-135.7553656344639
 10
91.55651310645115
 20
-135.4570203654413
 10
91.83005368798
 20
-135.2582383559424
 10
91.9003336358791
 20
-135.190369974883
 10
91.9003336358791
 20
-135.0529106650215
 10
91.9003336358791
 20
-134.9343993803289
 10
91.82350800655801
 20
-134.8034857518894
 10
91.61301267240925
 20
-134.8034857518894
 10
91.3349934667496
 20
-134.8034857518894
 10
91.32603621848794
 20
-135.0339626398526
 10
91.32155759435712
 20
-135.1504068672541
 10
91.32155759435712
 20
-135.1504068672541
 10
91.08177894858373
 20
-135.1504068672541
 10
91.08177894858373
 20
-135.1504068672541
 10
91.09073619684537
 20
-135.0232828438484
 10
91.1021050119467
 20
-134.9113172405777
 10
91.18823239907795
 20
-134.7928059558851
 10
91.30571015512497
 20
-134.631919996724
 10
91.50449216462388
 20
-134.5981580609685
 10
91.6288601116414
 20
-134.5981580609685
 10
91.92513832337289
 20
-134.5981580609685
 10
92.14665796307445
 20
-134.7821261598809
 10
92.14665796307445
 20
-135.0549777223127
 10
92.14665796307445
 20
-135.2837320625332
 10
92.02229001605693
 20
-135.3829508125084
 10
91.69224986857
 20
-135.6092935858894
 97
        0
 97
        0
 75
     2
 76
     1
 98
        0
  0
SPLINE
  5
B7
330
B1
100
AcDbEntity
  8
_U+30EC_U+30A4_U+30E4_U+30FC 1
370
     0
100
AcDbSpline
210
0.0
220
0.0
230
1.0
 70
    11
 71
     3
 72
    62
 73
    58
 74
     0
 42
0.0000000001
 43
0.0000000001
 12
1.0
 22
0.0
 32
0.0
 13
1.0
 23
0.0
 33
0.0
 40
0.0
 40
0.0
 40
0.0
 40
0.0
 40
1.0
 40
1.0
 40
1.0
 40
2.0
 40
2.0
 40
2.0
 40
3.0
 40
3.0
 40
3.0
 40
4.0
 40
4.0
 40
4.0
 40
5.0
 40
5.0
 40
5.0
 40
6.0
 40
6.0
 40
6.0
 40
7.0
 40
7.0
 40
7.0
 40
8.0
 40
8.0
 40
8.0
 40
9.0
 40
9.0
 40
9.0
 40
10.0
 40
10.0
 40
10.0
 40
11.0
 40
11.0
 40
11.0
 40
12.0
 40
12.0
 40
12.0
 40
13.0
 40
13.0
 40
13.0
 40
14.0
 40
14.0
 40
14.0
 40
15.0
 40
15.0
 40
15.0
 40
16.0
 40
16.0
 40
16.0
 40
17.0
 40
17.0
 40
17.0
 40
18.0
 40
18.0
 40
18.0
 40
19.0
 40
19.0
 40
19.0
 40
19.0
 10
92.84153372244934
 20
-136.2418131169812
 30
0.0
 10
92.73990340563448
 20
-136.2418131169812
 30
0.0
 10
92.50701495083159
 20
-136.2207980345212
 30
0.0
 10
92.37368975555242
 20
-136.0347628783177
 30
0.0
 10
92.29445255939167
 20
-135.9224527654985
 30
0.0
 10
92.28997393526085
 20
-135.8232340155234
 30
0.0
 10
92.28549531113002
 20
-135.7384846665862
 30
0.0
 10
92.28549531113002
 20
-135.7384846665862
 30
0.0
 10
92.52045082322405
 20
-135.7384846665862
 30
0.0
 10
92.52045082322405
 20
-135.7384846665862
 30
0.0
 10
92.52286239006374
 20
-135.8125542195191
 30
0.0
 10
92.53423120516506
 20
-136.0471652220646
 30
0.0
 10
92.83705509831852
 20
-136.0471652220646
 30
0.0
 10
92.98416067553869
 20
-136.0471652220646
 30
0.0
 10
93.14676918244248
 20
-135.9775742932626
 30
0.0
 10
93.14676918244248
 20
-135.7491644625905
 30
0.0
 10
93.14676918244248
 20
-135.6327202351891
 30
0.0
 10
93.10611705571652
 20
-135.584144388847
 30
0.0
 10
93.07235511996109
 20
-135.5524495103827
 30
0.0
 10
92.99311792380034
 20
-135.4783799574498
 30
0.0
 10
92.86874997678282
 20
-135.4656331041544
 30
0.0
 10
92.80983884398505
 20
-135.4656331041544
 30
0.0
 10
92.78951278062208
 20
-135.4656331041544
 30
0.0
 10
92.7512722207358
 20
-135.4677001614456
 30
0.0
 10
92.72164439956265
 20
-135.4718342760279
 30
0.0
 10
92.72164439956265
 20
-135.4718342760279
 30
0.0
 10
92.72164439956265
 20
-135.2771863811113
 30
0.0
 10
92.72164439956265
 20
-135.2771863811113
 30
0.0
 10
92.7622965262886
 20
-135.2837320625332
 30
0.0
 10
92.80777178669389
 20
-135.2857991198244
 30
0.0
 10
92.81431746811587
 20
-135.2857991198244
 30
0.0
 10
92.88459741601497
 20
-135.2857991198244
 30
0.0
 10
93.09715980745489
 20
-135.2644395278159
 30
0.0
 10
93.09715980745489
 20
-135.0277614679792
 30
0.0
 10
93.09715980745489
 20
-134.8499945409403
 30
0.0
 10
92.95694442120521
 20
-134.7948730131763
 30
0.0
 10
92.8394666651582
 20
-134.7948730131763
 30
0.0
 10
92.55662432581919
 20
-134.7948730131763
 30
0.0
 10
92.54766707755753
 20
-135.0277614679792
 30
0.0
 10
92.54318845342671
 20
-135.0994194540724
 30
0.0
 10
92.54318845342671
 20
-135.0994194540724
 30
0.0
 10
92.32614743785597
 20
-135.0994194540724
 30
0.0
 10
92.32614743785597
 20
-135.0994194540724
 30
0.0
 10
92.33510468611762
 20
-134.9747069975063
 30
0.0
 10
92.36438799774224
 20
-134.5981580609685
 30
0.0
 10
92.85290253755066
 20
-134.5981580609685
 30
0.0
 10
93.09268118332406
 20
-134.5981580609685
 30
0.0
 10
93.35037432562075
 20
-134.7252820843742
 30
0.0
 10
93.35037432562075
 20
-135.0212157865572
 30
0.0
 10
93.35037432562075
 20
-135.2075954523092
 30
0.0
 10
93.24839949925735
 20
-135.2899332344067
 30
0.0
 10
93.14229055831166
 20
-135.3512559340441
 30
0.0
 10
93.2077473725314
 20
-135.3788166979261
 30
0.0
 10
93.40239526744801
 20
-135.4590874227325
 30
0.0
 10
93.40239526744801
 20
-135.7364176092951
 30
0.0
 10
93.40239526744801
 20
-136.0747259859466
 30
0.0
 10
93.13781193418083
 20
-136.2418131169812
 30
0.0
 10
92.84153372244934
 20
-136.2418131169812
 30
0.0
  0
HATCH
  5
B8
330
B1
100
AcDbEntity
  8
_U+30EC_U+30A4_U+30E4_U+30FC 1
 62
   179
420
  2234388
100
AcDbHatch
 10
0.0
 20
0.0
 30
0.0
210
0.0
220
0.0
230
1.0
  2
SOLID
 70
     1
 71
     0
 91
        1
 92
        1
 93
        1
 72
     4
 94
        3
 73
     0
 74
     1
 95
       62
 96
       58
 40
0.0
 40
0.0
 40
0.0
 40
0.0
 40
1.0
 40
1.0
 40
1.0
 40
2.0
 40
2.0
 40
2.0
 40
3.0
 40
3.0
 40
3.0
 40
4.0
 40
4.0
 40
4.0
 40
5.0
 40
5.0
 40
5.0
 40
6.0
 40
6.0
 40
6.0
 40
7.0
 40
7.0
 40
7.0
 40
8.0
 40
8.0
 40
8.0
 40
9.0
 40
9.0
 40
9.0
 40
10.0
 40
10.0
 40
10.0
 40
11.0
 40
11.0
 40
11.0
 40
12.0
 40
12.0
 40
12.0
 40
13.0
 40
13.0
 40
13.0
 40
14.0
 40
14.0
 40
14.0
 40
15.0
 40
15.0
 40
15.0
 40
16.0
 40
16.0
 40
16.0
 40
17.0
 40
17.0
 40
17.0
 40
18.0
 40
18.0
 40
18.0
 40
19.0
 40
19.0
 40
19.0
 40
19.0
 10
92.84153372244934
 20
-136.2418131169812
 10
92.73990340563448
 20
-136.2418131169812
 10
92.50701495083159
 20
-136.2207980345212
 10
92.37368975555242
 20
-136.0347628783177
 10
92.29445255939167
 20
-135.9224527654985
 10
92.28997393526085
 20
-135.8232340155234
 10
92.28549531113002
 20
-135.7384846665862
 10
92.28549531113002
 20
-135.7384846665862
 10
92.52045082322405
 20
-135.7384846665862
 10
92.52045082322405
 20
-135.7384846665862
 10
92.52286239006374
 20
-135.8125542195191
 10
92.53423120516506
 20
-136.0471652220646
 10
92.83705509831852
 20
-136.0471652220646
 10
92.98416067553869
 20
-136.0471652220646
 10
93.14676918244248
 20
-135.9775742932626
 10
93.14676918244248
 20
-135.7491644625905
 10
93.14676918244248
 20
-135.6327202351891
 10
93.10611705571652
 20
-135.584144388847
 10
93.07235511996109
 20
-135.5524495103827
 10
92.99311792380034
 20
-135.4783799574498
 10
92.86874997678282
 20
-135.4656331041544
 10
92.80983884398505
 20
-135.4656331041544
 10
92.78951278062208
 20
-135.4656331041544
 10
92.7512722207358
 20
-135.4677001614456
 10
92.72164439956265
 20
-135.4718342760279
 10
92.72164439956265
 20
-135.4718342760279
 10
92.72164439956265
 20
-135.2771863811113
 10
92.72164439956265
 20
-135.2771863811113
 10
92.7622965262886
 20
-135.2837320625332
 10
92.80777178669389
 20
-135.2857991198244
 10
92.81431746811587
 20
-135.2857991198244
 10
92.88459741601497
 20
-135.2857991198244
 10
93.09715980745489
 20
-135.2644395278159
 10
93.09715980745489
 20
-135.0277614679792
 10
93.09715980745489
 20
-134.8499945409403
 10
92.95694442120521
 20
-134.7948730131763
 10
92.8394666651582
 20
-134.7948730131763
 10
92.55662432581919
 20
-134.7948730131763
 10
92.54766707755753
 20
-135.0277614679792
 10
92.54318845342671
 20
-135.0994194540724
 10
92.54318845342671
 20
-135.0994194540724
 10
92.32614743785597
 20
-135.0994194540724
 10
92.32614743785597
 20
-135.0994194540724
 10
92.33510468611762
 20
-134.9747069975063
 10
92.36438799774224
 20
-134.5981580609685
 10
92.85290253755066
 20
-134.5981580609685
 10
93.09268118332406
 20
-134.5981580609685
 10
93.35037432562075
 20
-134.7252820843742
 10
93.35037432562075
 20
-135.0212157865572
 10
93.35037432562075
 20
-135.2075954523092
 10
93.24839949925735
 20
-135.2899332344067
 10
93.14229055831166
 20
-135.3512559340441
 10
93.2077473725314
 20
-135.3788166979261
 10
93.40239526744801
 20
-135.4590874227325
 10
93.40239526744801
 20
-135.7364176092951
 10
93.40239526744801
 20
-136.0747259859466
 10
93.13781193418083
 20
-136.2418131169812
 10
92.84153372244934
 20
-136.2418131169812
 97
        0
 97
        0
 75
     2
 76
     1
 98
        0
  0
ENDBLK
  5
B4
330
B1
100
AcDbEntity
  8
0
100
AcDbBlockEnd
  0
BLOCK
  5
C7
330
C5
100
AcDbEntity
  8
0
100
AcDbBlockBegin
  2
block 4
 70
     0
 10
0.0
 20
0.0
 30
0.0
  3
block 4
  1

  0
SPLINE
  5
C9
330
C5
100
AcDbEntity
  8
_U+30EC_U+30A4_U+30E4_U+30FC 1
370
     0
100
AcDbSpline
210
0.0
220
0.0
230
1.0
 70
    11
 71
     3
 72
    26
 73
    22
 74
     0
 42
0.0000000001
 43
0.0000000001
 12
1.0
 22
0.0
 32
0.0
 13
1.0
 23
0.0
 33
0.0
 40
0.0
 40
0.0
 40
0.0
 40
0.0
 40
1.0
 40
1.0
 40
1.0
 40
2.0
 40
2.0
 40
2.0
 40
3.0
 40
3.0
 40
3.0
 40
4.0
 40
4.0
 40
4.0
 40
5.0
 40
5.0
 40
5.0
 40
6.0
 40
6.0
 40
6.0
 40
7.0
 40
7.0
 40
7.0
 40
7.0
 10
86.04091523456617
 20
-120.6913411156605
 30
0.0
 10
86.04091523456617
 20
-120.6913411156605
 30
0.0
 10
86.04091523456617
 20
-119.5871880126379
 30
0.0
 10
86.04091523456617
 20
-119.5871880126379
 30
0.0
 10
86.04091523456617
 20
-119.5871880126379
 30
0.0
 10
85.6884819664251
 20
-119.5871880126379
 30
0.0
 10
85.6884819664251
 20
-119.5871880126379
 30
0.0
 10
85.6884819664251
 20
-119.5871880126379
 30
0.0
 10
85.6884819664251
 20
-119.4390489067722
 30
0.0
 10
85.6884819664251
 20
-119.4390489067722
 30
0.0
 10
86.04332680140584
 20
-119.4242349961856
 30
0.0
 10
86.09293617639344
 20
-119.2612819797333
 30
0.0
 10
86.12463105485773
 20
-119.146904809623
 30
0.0
 10
86.12463105485773
 20
-119.146904809623
 30
0.0
 10
86.28069388033956
 20
-119.146904809623
 30
0.0
 10
86.28069388033956
 20
-119.146904809623
 30
0.0
 10
86.28069388033956
 20
-119.146904809623
 30
0.0
 10
86.28069388033956
 20
-120.6913411156605
 30
0.0
 10
86.28069388033956
 20
-120.6913411156605
 30
0.0
 10
86.28069388033956
 20
-120.6913411156605
 30
0.0
 10
86.04091523456617
 20
-120.6913411156605
 30
0.0
 10
86.04091523456617
 20
-120.6913411156605
 30
0.0
  0
HATCH
  5
CA
330
C5
100
AcDbEntity
  8
_U+30EC_U+30A4_U+30E4_U+30FC 1
 62
   179
420
  2234388
100
AcDbHatch
 10
0.0
 20
0.0
 30
0.0
210
0.0
220
0.0
230
1.0
  2
SOLID
 70
     1
 71
     0
 91
        1
 92
        1
 93
        1
 72
     4
 94
        3
 73
     0
 74
     1
 95
       26
 96
       22
 40
0.0
 40
0.0
 40
0.0
 40
0.0
 40
1.0
 40
1.0
 40
1.0
 40
2.0
 40
2.0
 40
2.0
 40
3.0
 40
3.0
 40
3.0
 40
4.0
 40
4.0
 40
4.0
 40
5.0
 40
5.0
 40
5.0
 40
6.0
 40
6.0
 40
6.0
 40
7.0
 40
7.0
 40
7.0
 40
7.0
 10
86.04091523456617
 20
-120.6913411156605
 10
86.04091523456617
 20
-120.6913411156605
 10
86.04091523456617
 20
-119.5871880126379
 10
86.04091523456617
 20
-119.5871880126379
 10
86.04091523456617
 20
-119.5871880126379
 10
85.6884819664251
 20
-119.5871880126379
 10
85.6884819664251
 20
-119.5871880126379
 10
85.6884819664251
 20
-119.5871880126379
 10
85.6884819664251
 20
-119.4390489067722
 10
85.6884819664251
 20
-119.4390489067722
 10
86.04332680140584
 20
-119.4242349961856
 10
86.09293617639344
 20
-119.2612819797333
 10
86.12463105485773
 20
-119.146904809623
 10
86.12463105485773
 20
-119.146904809623
 10
86.28069388033956
 20
-119.146904809623
 10
86.28069388033956
 20
-119.146904809623
 10
86.28069388033956
 20
-119.146904809623
 10
86.28069388033956
 20
-120.6913411156605
 10
86.28069388033956
 20
-120.6913411156605
 10
86.28069388033956
 20
-120.6913411156605
 10
86.04091523456617
 20
-120.6913411156605
 10
86.04091523456617
 20
-120.6913411156605
 97
        0
 97
        0
 75
     2
 76
     1
 98
        0
  0
SPLINE
  5
CB
330
C5
100
AcDbEntity
  8
_U+30EC_U+30A4_U+30E4_U+30FC 1
370
     0
100
AcDbSpline
210
0.0
220
0.0
230
1.0
 70
    11
 71
     3
 72
    44
 73
    40
 74
     0
 42
0.0000000001
 43
0.0000000001
 12
1.0
 22
0.0
 32
0.0
 13
1.0
 23
0.0
 33
0.0
 40
0.0
 40
0.0
 40
0.0
 40
0.0
 40
1.0
 40
1.0
 40
1.0
 40
2.0
 40
2.0
 40
2.0
 40
3.0
 40
3.0
 40
3.0
 40
4.0
 40
4.0
 40
4.0
 40
5.0
 40
5.0
 40
5.0
 40
6.0
 40
6.0
 40
6.0
 40
7.0
 40
7.0
 40
7.0
 40
8.0
 40
8.0
 40
8.0
 40
9.0
 40
9.0
 40
9.0
 40
10.0
 40
10.0
 40
10.0
 40
11.0
 40
11.0
 40
11.0
 40
12.0
 40
12.0
 40
12.0
 40
13.0
 40
13.0
 40
13.0
 40
13.0
 10
87.45030379758187
 20
-120.1094644882018
 30
0.0
 10
87.21741534277898
 20
-120.2682833900718
 30
0.0
 10
87.11785208325526
 20
-120.3423529430047
 30
0.0
 10
87.06617565097652
 20
-120.4860134247396
 30
0.0
 10
87.06617565097652
 20
-120.4860134247396
 30
0.0
 10
87.89782170111583
 20
-120.4860134247396
 30
0.0
 10
87.89782170111583
 20
-120.4860134247396
 30
0.0
 10
87.89782170111583
 20
-120.4860134247396
 30
0.0
 10
87.89782170111583
 20
-120.6913411156605
 30
0.0
 10
87.89782170111583
 20
-120.6913411156605
 30
0.0
 10
87.89782170111583
 20
-120.6913411156605
 30
0.0
 10
86.79918075086965
 20
-120.6913411156605
 30
0.0
 10
86.79918075086965
 20
-120.6913411156605
 30
0.0
 10
86.83328719617363
 20
-120.3337402042916
 30
0.0
 10
86.9032226345242
 20
-120.2555365367764
 30
0.0
 10
87.31456703546303
 20
-119.9571912677538
 30
0.0
 10
87.58810761699186
 20
-119.7584092582548
 30
0.0
 10
87.65838756489096
 20
-119.6905408771954
 30
0.0
 10
87.65838756489096
 20
-119.553081567334
 30
0.0
 10
87.65838756489096
 20
-119.4345702826414
 30
0.0
 10
87.5815619355699
 20
-119.3036566542019
 30
0.0
 10
87.37106660142112
 20
-119.3036566542019
 30
0.0
 10
87.09304739576146
 20
-119.3036566542019
 30
0.0
 10
87.08409014749981
 20
-119.5341335421651
 30
0.0
 10
87.079611523369
 20
-119.6505777695665
 30
0.0
 10
87.079611523369
 20
-119.6505777695665
 30
0.0
 10
86.8398328775956
 20
-119.6505777695665
 30
0.0
 10
86.8398328775956
 20
-119.6505777695665
 30
0.0
 10
86.84913463540578
 20
-119.5234537461608
 30
0.0
 10
86.86015894095857
 20
-119.4114881428902
 30
0.0
 10
86.94628632808983
 20
-119.2929768581976
 30
0.0
 10
87.06376408413684
 20
-119.1320908990364
 30
0.0
 10
87.26254609363576
 20
-119.098328963281
 30
0.0
 10
87.38691404065328
 20
-119.098328963281
 30
0.0
 10
87.68319225238476
 20
-119.098328963281
 30
0.0
 10
87.90471189208633
 20
-119.2822970621933
 30
0.0
 10
87.90471189208633
 20
-119.5551486246251
 30
0.0
 10
87.90471189208633
 20
-119.7839029648457
 30
0.0
 10
87.78034394506881
 20
-119.8831217148209
 30
0.0
 10
87.45030379758187
 20
-120.1094644882018
 30
0.0
  0
HATCH
  5
CC
330
C5
100
AcDbEntity
  8
_U+30EC_U+30A4_U+30E4_U+30FC 1
 62
   179
420
  2234388
100
AcDbHatch
 10
0.0
 20
0.0
 30
0.0
210
0.0
220
0.0
230
1.0
  2
SOLID
 70
     1
 71
     0
 91
        1
 92
        1
 93
        1
 72
     4
 94
        3
 73
     0
 74
     1
 95
       44
 96
       40
 40
0.0
 40
0.0
 40
0.0
 40
0.0
 40
1.0
 40
1.0
 40
1.0
 40
2.0
 40
2.0
 40
2.0
 40
3.0
 40
3.0
 40
3.0
 40
4.0
 40
4.0
 40
4.0
 40
5.0
 40
5.0
 40
5.0
 40
6.0
 40
6.0
 40
6.0
 40
7.0
 40
7.0
 40
7.0
 40
8.0
 40
8.0
 40
8.0
 40
9.0
 40
9.0
 40
9.0
 40
10.0
 40
10.0
 40
10.0
 40
11.0
 40
11.0
 40
11.0
 40
12.0
 40
12.0
 40
12.0
 40
13.0
 40
13.0
 40
13.0
 40
13.0
 10
87.45030379758187
 20
-120.1094644882018
 10
87.21741534277898
 20
-120.2682833900718
 10
87.11785208325526
 20
-120.3423529430047
 10
87.06617565097652
 20
-120.4860134247396
 10
87.06617565097652
 20
-120.4860134247396
 10
87.89782170111583
 20
-120.4860134247396
 10
87.89782170111583
 20
-120.4860134247396
 10
87.89782170111583
 20
-120.4860134247396
 10
87.89782170111583
 20
-120.6913411156605
 10
87.89782170111583
 20
-120.6913411156605
 10
87.89782170111583
 20
-120.6913411156605
 10
86.79918075086965
 20
-120.6913411156605
 10
86.79918075086965
 20
-120.6913411156605
 10
86.83328719617363
 20
-120.3337402042916
 10
86.9032226345242
 20
-120.2555365367764
 10
87.31456703546303
 20
-119.9571912677538
 10
87.58810761699186
 20
-119.7584092582548
 10
87.65838756489096
 20
-119.6905408771954
 10
87.65838756489096
 20
-119.553081567334
 10
87.65838756489096
 20
-119.4345702826414
 10
87.5815619355699
 20
-119.3036566542019
 10
87.37106660142112
 20
-119.3036566542019
 10
87.09304739576146
 20
-119.3036566542019
 10
87.08409014749981
 20
-119.5341335421651
 10
87.079611523369
 20
-119.6505777695665
 10
87.079611523369
 20
-119.6505777695665
 10
86.8398328775956
 20
-119.6505777695665
 10
86.8398328775956
 20
-119.6505777695665
 10
86.84913463540578
 20
-119.5234537461608
 10
86.86015894095857
 20
-119.4114881428902
 10
86.94628632808983
 20
-119.2929768581976
 10
87.06376408413684
 20
-119.1320908990364
 10
87.26254609363576
 20
-119.098328963281
 10
87.38691404065328
 20
-119.098328963281
 10
87.68319225238476
 20
-119.098328963281
 10
87.90471189208633
 20
-119.2822970621933
 10
87.90471189208633
 20
-119.5551486246251
 10
87.90471189208633
 20
-119.7839029648457
 10
87.78034394506881
 20
-119.8831217148209
 10
87.45030379758187
 20
-120.1094644882018
 97
        0
 97
        0
 75
     2
 76
     1
 98
        0
  0
ENDBLK
  5
C8
330
C5
100
AcDbEntity
  8
0
100
AcDbBlockEnd
  0
BLOCK
  5
DB
330
D9
100
AcDbEntity
  8
0
100
AcDbBlockBegin
  2
block 5
 70
     0
 10
0.0
 20
0.0
 30
0.0
  3
block 5
  1

  0
SPLINE
  5
DD
330
D9
100
AcDbEntity
  8
_U+30EC_U+30A4_U+30E4_U+30FC 1
370
     0
100
AcDbSpline
210
0.0
220
0.0
230
1.0
 70
    11
 71
     3
 72
    26
 73
    22
 74
     0
 42
0.0000000001
 43
0.0000000001
 12
1.0
 22
0.0
 32
0.0
 13
1.0
 23
0.0
 33
0.0
 40
0.0
 40
0.0
 40
0.0
 40
0.0
 40
1.0
 40
1.0
 40
1.0
 40
2.0
 40
2.0
 40
2.0
 40
3.0
 40
3.0
 40
3.0
 40
4.0
 40
4.0
 40
4.0
 40
5.0
 40
5.0
 40
5.0
 40
6.0
 40
6.0
 40
6.0
 40
7.0
 40
7.0
 40
7.0
 40
7.0
 10
76.12041827524074
 20
-135.7970512898355
 30
0.0
 10
76.12041827524074
 20
-135.7970512898355
 30
0.0
 10
75.0160929174439
 20
-135.7970512898355
 30
0.0
 10
75.0160929174439
 20
-135.7970512898355
 30
0.0
 10
75.0160929174439
 20
-135.7970512898355
 30
0.0
 10
75.0160929174439
 20
-136.1494845579765
 30
0.0
 10
75.0160929174439
 20
-136.1494845579765
 30
0.0
 10
75.0160929174439
 20
-136.1494845579765
 30
0.0
 10
74.86812606635242
 20
-136.1494845579765
 30
0.0
 10
74.86812606635242
 20
-136.1494845579765
 30
0.0
 10
74.85331215576585
 20
-135.7946397229958
 30
0.0
 10
74.69035913931353
 20
-135.7450303480082
 30
0.0
 10
74.5761542239775
 20
-135.7133354695439
 30
0.0
 10
74.5761542239775
 20
-135.7133354695439
 30
0.0
 10
74.5761542239775
 20
-135.5572726440621
 30
0.0
 10
74.5761542239775
 20
-135.5572726440621
 30
0.0
 10
74.5761542239775
 20
-135.5572726440621
 30
0.0
 10
76.12041827524074
 20
-135.5572726440621
 30
0.0
 10
76.12041827524074
 20
-135.5572726440621
 30
0.0
 10
76.12041827524074
 20
-135.5572726440621
 30
0.0
 10
76.12041827524074
 20
-135.7970512898355
 30
0.0
 10
76.12041827524074
 20
-135.7970512898355
 30
0.0
  0
HATCH
  5
DE
330
D9
100
AcDbEntity
  8
_U+30EC_U+30A4_U+30E4_U+30FC 1
 62
   179
420
  2234388
100
AcDbHatch
 10
0.0
 20
0.0
 30
0.0
210
0.0
220
0.0
230
1.0
  2
SOLID
 70
     1
 71
     0
 91
        1
 92
        1
 93
        1
 72
     4
 94
        3
 73
     0
 74
     1
 95
       26
 96
       22
 40
0.0
 40
0.0
 40
0.0
 40
0.0
 40
1.0
 40
1.0
 40
1.0
 40
2.0
 40
2.0
 40
2.0
 40
3.0
 40
3.0
 40
3.0
 40
4.0
 40
4.0
 40
4.0
 40
5.0
 40
5.0
 40
5.0
 40
6.0
 40
6.0
 40
6.0
 40
7.0
 40
7.0
 40
7.0
 40
7.0
 10
76.12041827524074
 20
-135.7970512898355
 10
76.12041827524074
 20
-135.7970512898355
 10
75.0160929174439
 20
-135.7970512898355
 10
75.0160929174439
 20
-135.7970512898355
 10
75.0160929174439
 20
-135.7970512898355
 10
75.0160929174439
 20
-136.1494845579765
 10
75.0160929174439
 20
-136.1494845579765
 10
75.0160929174439
 20
-136.1494845579765
 10
74.86812606635242
 20
-136.1494845579765
 10
74.86812606635242
 20
-136.1494845579765
 10
74.85331215576585
 20
-135.7946397229958
 10
74.69035913931353
 20
-135.7450303480082
 10
74.5761542239775
 20
-135.7133354695439
 10
74.5761542239775
 20
-135.7133354695439
 10
74.5761542239775
 20
-135.5572726440621
 10
74.5761542239775
 20
-135.5572726440621
 10
74.5761542239775
 20
-135.5572726440621
 10
76.12041827524074
 20
-135.5572726440621
 10
76.12041827524074
 20
-135.5572726440621
 10
76.12041827524074
 20
-135.5572726440621
 10
76.12041827524074
 20
-135.7970512898355
 10
76.12041827524074
 20
-135.7970512898355
 97
        0
 97
        0
 75
     2
 76
     1
 98
        0
  0
ENDBLK
  5
DC
330
D9
100
AcDbEntity
  8
0
100
AcDbBlockEnd
  0
BLOCK
  5
ED
330
EB
100
AcDbEntity
  8
0
100
AcDbBlockBegin
  2
block 6
 70
     0
 10
0.0
 20
0.0
 30
0.0
  3
block 6
  1

  0
SPLINE
  5
EF
330
EB
100
AcDbEntity
  8
_U+30EC_U+30A4_U+30E4_U+30FC 1
370
     0
100
AcDbSpline
210
0.0
220
0.0
230
1.0
 70
    11
 71
     3
 72
    26
 73
    22
 74
     0
 42
0.0000000001
 43
0.0000000001
 12
1.0
 22
0.0
 32
0.0
 13
1.0
 23
0.0
 33
0.0
 40
0.0
 40
0.0
 40
0.0
 40
0.0
 40
1.0
 40
1.0
 40
1.0
 40
2.0
 40
2.0
 40
2.0
 40
3.0
 40
3.0
 40
3.0
 40
4.0
 40
4.0
 40
4.0
 40
5.0
 40
5.0
 40
5.0
 40
6.0
 40
6.0
 40
6.0
 40
7.0
 40
7.0
 40
7.0
 40
7.0
 10
100.1647731954449
 20
-127.4910983296724
 30
0.0
 10
100.1647731954449
 20
-127.4910983296724
 30
0.0
 10
99.91155867727906
 20
-127.4910983296724
 30
0.0
 10
99.91155867727906
 20
-127.4910983296724
 30
0.0
 10
99.93877493161253
 20
-127.1822455194197
 30
0.0
 10
100.144447132082
 20
-126.6639309036639
 30
0.0
 10
100.5785291632234
 20
-126.1583631412035
 30
0.0
 10
100.5785291632234
 20
-126.1583631412035
 30
0.0
 10
99.683148846607
 20
-126.1583631412035
 30
0.0
 10
99.683148846607
 20
-126.1583631412035
 30
0.0
 10
99.683148846607
 20
-126.1583631412035
 30
0.0
 10
99.683148846607
 20
-125.9468342784091
 30
0.0
 10
99.683148846607
 20
-125.9468342784091
 30
0.0
 10
99.683148846607
 20
-125.9468342784091
 30
0.0
 10
100.8317436813893
 20
-125.9468342784091
 30
0.0
 10
100.8317436813893
 20
-125.9468342784091
 30
0.0
 10
100.8317436813893
 20
-125.9468342784091
 30
0.0
 10
100.8317436813893
 20
-126.1583631412035
 30
0.0
 10
100.8317436813893
 20
-126.1583631412035
 30
0.0
 10
100.4858560946702
 20
-126.448095671513
 30
0.0
 10
100.20094669804
 20
-127.0404798402017
 30
0.0
 10
100.1647731954449
 20
-127.4910983296724
 30
0.0
  0
HATCH
  5
F0
330
EB
100
AcDbEntity
  8
_U+30EC_U+30A4_U+30E4_U+30FC 1
 62
   179
420
  2234388
100
AcDbHatch
 10
0.0
 20
0.0
 30
0.0
210
0.0
220
0.0
230
1.0
  2
SOLID
 70
     1
 71
     0
 91
        1
 92
        1
 93
        1
 72
     4
 94
        3
 73
     0
 74
     1
 95
       26
 96
       22
 40
0.0
 40
0.0
 40
0.0
 40
0.0
 40
1.0
 40
1.0
 40
1.0
 40
2.0
 40
2.0
 40
2.0
 40
3.0
 40
3.0
 40
3.0
 40
4.0
 40
4.0
 40
4.0
 40
5.0
 40
5.0
 40
5.0
 40
6.0
 40
6.0
 40
6.0
 40
7.0
 40
7.0
 40
7.0
 40
7.0
 10
100.1647731954449
 20
-127.4910983296724
 10
100.1647731954449
 20
-127.4910983296724
 10
99.91155867727906
 20
-127.4910983296724
 10
99.91155867727906
 20
-127.4910983296724
 10
99.93877493161253
 20
-127.1822455194197
 10
100.144447132082
 20
-126.6639309036639
 10
100.5785291632234
 20
-126.1583631412035
 10
100.5785291632234
 20
-126.1583631412035
 10
99.683148846607
 20
-126.1583631412035
 10
99.683148846607
 20
-126.1583631412035
 10
99.683148846607
 20
-126.1583631412035
 10
99.683148846607
 20
-125.9468342784091
 10
99.683148846607
 20
-125.9468342784091
 10
99.683148846607
 20
-125.9468342784091
 10
100.8317436813893
 20
-125.9468342784091
 10
100.8317436813893
 20
-125.9468342784091
 10
100.8317436813893
 20
-125.9468342784091
 10
100.8317436813893
 20
-126.1583631412035
 10
100.8317436813893
 20
-126.1583631412035
 10
100.4858560946702
 20
-126.448095671513
 10
100.20094669804
 20
-127.0404798402017
 10
100.1647731954449
 20
-127.4910983296724
 97
        0
 97
        0
 75
     2
 76
     1
 98
        0
  0
ENDBLK
  5
EE
330
EB
100
AcDbEntity
  8
0
100
AcDbBlockEnd
  0
BLOCK
  5
FF
330
FD
100
AcDbEntity
  8
0
100
AcDbBlockBegin
  2
block 7
 70
     0
 10
0.0
 20
0.0
 30
0.0
  3
block 7
  1

  0
SPLINE
  5
101
330
FD
100
AcDbEntity
  8
_U+30EC_U+30A4_U+30E4_U+30FC 1
370
     0
100
AcDbSpline
210
0.0
220
0.0
230
1.0
 70
    11
 71
     3
 72
    53
 73
    49
 74
     0
 42
0.0000000001
 43
0.0000000001
 12
1.0
 22
0.0
 32
0.0
 13
1.0
 23
0.0
 33
0.0
 40
0.0
 40
0.0
 40
0.0
 40
0.0
 40
1.0
 40
1.0
 40
1.0
 40
2.0
 40
2.0
 40
2.0
 40
3.0
 40
3.0
 40
3.0
 40
4.0
 40
4.0
 40
4.0
 40
5.0
 40
5.0
 40
5.0
 40
6.0
 40
6.0
 40
6.0
 40
7.0
 40
7.0
 40
7.0
 40
8.0
 40
8.0
 40
8.0
 40
9.0
 40
9.0
 40
9.0
 40
10.0
 40
10.0
 40
10.0
 40
11.0
 40
11.0
 40
11.0
 40
12.0
 40
12.0
 40
12.0
 40
13.0
 40
13.0
 40
13.0
 40
14.0
 40
14.0
 40
14.0
 40
15.0
 40
15.0
 40
15.0
 40
16.0
 40
16.0
 40
16.0
 40
16.0
 10
76.1710611788739
 20
-129.8325574762224
 30
0.0
 10
76.1710611788739
 20
-129.9159287869655
 30
0.0
 10
76.15418021099617
 20
-130.0247938042993
 30
0.0
 10
76.09061819929332
 20
-130.1329698025362
 30
0.0
 10
75.98054739853958
 20
-130.3186604491912
 30
0.0
 10
75.84946151532583
 20
-130.3410535698453
 30
0.0
 10
75.74163002663751
 20
-130.3613796332083
 30
0.0
 10
75.74163002663751
 20
-130.3613796332083
 30
0.0
 10
75.74163002663751
 20
-130.1240125542746
 30
0.0
 10
75.74163002663751
 20
-130.1240125542746
 30
0.0
 10
75.94041203613642
 20
-130.0654459310253
 30
0.0
 10
75.97003985730957
 20
-129.9297091689065
 30
0.0
 10
75.97003985730957
 20
-129.8301459093827
 30
0.0
 10
75.97003985730957
 20
-129.6809732748714
 30
0.0
 10
75.87064885256012
 20
-129.5183647679676
 30
0.0
 10
75.63793265253149
 20
-129.5183647679676
 30
0.0
 10
75.38196205797743
 20
-129.5183647679676
 30
0.0
 10
75.31219887440112
 20
-129.7102565864961
 30
0.0
 10
75.31219887440112
 20
-129.8391031576444
 30
0.0
 10
75.31219887440112
 20
-129.8732096029484
 30
0.0
 10
75.31219887440112
 20
-130.0247938042993
 30
0.0
 10
75.44121770032373
 20
-130.1195339301437
 30
0.0
 10
75.44121770032373
 20
-130.1195339301437
 30
0.0
 10
75.4220974203806
 20
-130.3072916340898
 30
0.0
 10
75.4220974203806
 20
-130.3072916340898
 30
0.0
 10
75.4220974203806
 20
-130.3072916340898
 30
0.0
 10
74.57598196920323
 20
-130.1784450629415
 30
0.0
 10
74.57598196920323
 20
-130.1784450629415
 30
0.0
 10
74.57598196920323
 20
-130.1784450629415
 30
0.0
 10
74.57598196920323
 20
-129.3464545032537
 30
0.0
 10
74.57598196920323
 20
-129.3464545032537
 30
0.0
 10
74.57598196920323
 20
-129.3464545032537
 30
0.0
 10
74.77062986411984
 20
-129.3464545032537
 30
0.0
 10
74.77062986411984
 20
-129.3464545032537
 30
0.0
 10
74.77062986411984
 20
-129.3464545032537
 30
0.0
 10
74.77062986411984
 20
-130.0041232313879
 30
0.0
 10
74.77062986411984
 20
-130.0041232313879
 30
0.0
 10
74.77062986411984
 20
-130.0041232313879
 30
0.0
 10
75.19368758970853
 20
-130.074403179287
 30
0.0
 10
75.19368758970853
 20
-130.074403179287
 30
0.0
 10
75.15975339917881
 20
-130.0089463650672
 30
0.0
 10
75.11961803677565
 20
-129.9207519206448
 30
0.0
 10
75.11961803677565
 20
-129.7939724067876
 30
0.0
 10
75.11961803677565
 20
-129.5228433920985
 30
0.0
 10
75.3058254477534
 20
-129.2696288739326
 30
0.0
 10
75.61881237258835
 20
-129.2696288739326
 30
0.0
 10
75.93627792155412
 20
-129.2696288739326
 30
0.0
 10
76.1710611788739
 20
-129.5090630101575
 30
0.0
 10
76.1710611788739
 20
-129.8325574762224
 30
0.0
  0
HATCH
  5
102
330
FD
100
AcDbEntity
  8
_U+30EC_U+30A4_U+30E4_U+30FC 1
 62
   179
420
  2234388
100
AcDbHatch
 10
0.0
 20
0.0
 30
0.0
210
0.0
220
0.0
230
1.0
  2
SOLID
 70
     1
 71
     0
 91
        1
 92
        1
 93
        1
 72
     4
 94
        3
 73
     0
 74
     1
 95
       53
 96
       49
 40
0.0
 40
0.0
 40
0.0
 40
0.0
 40
1.0
 40
1.0
 40
1.0
 40
2.0
 40
2.0
 40
2.0
 40
3.0
 40
3.0
 40
3.0
 40
4.0
 40
4.0
 40
4.0
 40
5.0
 40
5.0
 40
5.0
 40
6.0
 40
6.0
 40
6.0
 40
7.0
 40
7.0
 40
7.0
 40
8.0
 40
8.0
 40
8.0
 40
9.0
 40
9.0
 40
9.0
 40
10.0
 40
10.0
 40
10.0
 40
11.0
 40
11.0
 40
11.0
 40
12.0
 40
12.0
 40
12.0
 40
13.0
 40
13.0
 40
13.0
 40
14.0
 40
14.0
 40
14.0
 40
15.0
 40
15.0
 40
15.0
 40
16.0
 40
16.0
 40
16.0
 40
16.0
 10
76.1710611788739
 20
-129.8325574762224
 10
76.1710611788739
 20
-129.9159287869655
 10
76.15418021099617
 20
-130.0247938042993
 10
76.09061819929332
 20
-130.1329698025362
 10
75.98054739853958
 20
-130.3186604491912
 10
75.84946151532583
 20
-130.3410535698453
 10
75.74163002663751
 20
-130.3613796332083
 10
75.74163002663751
 20
-130.3613796332083
 10
75.74163002663751
 20
-130.1240125542746
 10
75.74163002663751
 20
-130.1240125542746
 10
75.94041203613642
 20
-130.0654459310253
 10
75.97003985730957
 20
-129.9297091689065
 10
75.97003985730957
 20
-129.8301459093827
 10
75.97003985730957
 20
-129.6809732748714
 10
75.87064885256012
 20
-129.5183647679676
 10
75.63793265253149
 20
-129.5183647679676
 10
75.38196205797743
 20
-129.5183647679676
 10
75.31219887440112
 20
-129.7102565864961
 10
75.31219887440112
 20
-129.8391031576444
 10
75.31219887440112
 20
-129.8732096029484
 10
75.31219887440112
 20
-130.0247938042993
 10
75.44121770032373
 20
-130.1195339301437
 10
75.44121770032373
 20
-130.1195339301437
 10
75.4220974203806
 20
-130.3072916340898
 10
75.4220974203806
 20
-130.3072916340898
 10
75.4220974203806
 20
-130.3072916340898
 10
74.57598196920323
 20
-130.1784450629415
 10
74.57598196920323
 20
-130.1784450629415
 10
74.57598196920323
 20
-130.1784450629415
 10
74.57598196920323
 20
-129.3464545032537
 10
74.57598196920323
 20
-129.3464545032537
 10
74.57598196920323
 20
-129.3464545032537
 10
74.77062986411984
 20
-129.3464545032537
 10
74.77062986411984
 20
-129.3464545032537
 10
74.77062986411984
 20
-129.3464545032537
 10
74.77062986411984
 20
-130.0041232313879
 10
74.77062986411984
 20
-130.0041232313879
 10
74.77062986411984
 20
-130.0041232313879
 10
75.19368758970853
 20
-130.074403179287
 10
75.19368758970853
 20
-130.074403179287
 10
75.15975339917881
 20
-130.0089463650672
 10
75.11961803677565
 20
-129.9207519206448
 10
75.11961803677565
 20
-129.7939724067876
 10
75.11961803677565
 20
-129.5228433920985
 10
75.3058254477534
 20
-129.2696288739326
 10
75.61881237258835
 20
-129.2696288739326
 10
75.93627792155412
 20
-129.2696288739326
 10
76.1710611788739
 20
-129.5090630101575
 10
76.1710611788739
 20
-129.8325574762224
 97
        0
 97
        0
 75
     2
 76
     1
 98
        0
  0
POLYLINE
  5
103
330
FD
100
AcDbEntity
  8
_U+30EC_U+30A4_U+30E4_U+30FC 1
370
     0
100
AcDb2dPolyline
 66
     1
 10
0.0
 20
0.0
 30
0.0
  0
VERTEX
  5
104
330
103
100
AcDbEntity
  8
_U+30EC_U+30A4_U+30E4_U+30FC 1
370
     0
100
AcDbVertex
100
AcDb2dVertex
 10
76.12024602046647
 20
-129.0246825849313
 30
0.0
  0
VERTEX
  5
105
330
103
100
AcDbEntity
  8
_U+30EC_U+30A4_U+30E4_U+30FC 1
370
     0
100
AcDbVertex
100
AcDb2dVertex
 10
75.86858179526897
 20
-129.0246825849313
 30
0.0
  0
VERTEX
  5
106
330
103
100
AcDbEntity
  8
_U+30EC_U+30A4_U+30E4_U+30FC 1
370
     0
100
AcDbVertex
100
AcDb2dVertex
 10
75.86858179526897
 20
-128.7556206275333
 30
0.0
  0
VERTEX
  5
107
330
103
100
AcDbEntity
  8
_U+30EC_U+30A4_U+30E4_U+30FC 1
370
     0
100
AcDbVertex
100
AcDb2dVertex
 10
76.12024602046647
 20
-128.7556206275333
 30
0.0
  0
VERTEX
  5
108
330
103
100
AcDbEntity
  8
_U+30EC_U+30A4_U+30E4_U+30FC 1
370
     0
100
AcDbVertex
100
AcDb2dVertex
 10
76.12024602046647
 20
-129.0246825849313
 30
0.0
  0
SEQEND
  5
109
330
103
100
AcDbEntity
  8
_U+30EC_U+30A4_U+30E4_U+30FC 1
370
     0
  0
HATCH
  5
10A
330
FD
100
AcDbEntity
  8
_U+30EC_U+30A4_U+30E4_U+30FC 1
 62
   179
420
  2234388
100
AcDbHatch
 10
0.0
 20
0.0
 30
0.0
210
0.0
220
0.0
230
1.0
  2
SOLID
 70
     1
 71
     0
 91
        1
 92
        1
 93
        4
 72
     1
 10
76.12024602046647
 20
-129.0246825849313
 11
75.86858179526897
 21
-129.0246825849313
 72
     1
 10
75.86858179526897
 20
-129.0246825849313
 11
75.86858179526897
 21
-128.7556206275333
 72
     1
 10
75.86858179526897
 20
-128.7556206275333
 11
76.12024602046647
 21
-128.7556206275333
 72
     1
 10
76.12024602046647
 20
-128.7556206275333
 11
76.12024602046647
 21
-129.0246825849313
 97
        0
 75
     2
 76
     1
 98
        0
  0
SPLINE
  5
10B
330
FD
100
AcDbEntity
  8
_U+30EC_U+30A4_U+30E4_U+30FC 1
370
     0
100
AcDbSpline
210
0.0
220
0.0
230
1.0
 70
    11
 71
     3
 72
    53
 73
    49
 74
     0
 42
0.0000000001
 43
0.0000000001
 12
1.0
 22
0.0
 32
0.0
 13
1.0
 23
0.0
 33
0.0
 40
0.0
 40
0.0
 40
0.0
 40
0.0
 40
1.0
 40
1.0
 40
1.0
 40
2.0
 40
2.0
 40
2.0
 40
3.0
 40
3.0
 40
3.0
 40
4.0
 40
4.0
 40
4.0
 40
5.0
 40
5.0
 40
5.0
 40
6.0
 40
6.0
 40
6.0
 40
7.0
 40
7.0
 40
7.0
 40
8.0
 40
8.0
 40
8.0
 40
9.0
 40
9.0
 40
9.0
 40
10.0
 40
10.0
 40
10.0
 40
11.0
 40
11.0
 40
11.0
 40
12.0
 40
12.0
 40
12.0
 40
13.0
 40
13.0
 40
13.0
 40
14.0
 40
14.0
 40
14.0
 40
15.0
 40
15.0
 40
15.0
 40
16.0
 40
16.0
 40
16.0
 40
16.0
 10
76.1710611788739
 20
-127.9887423725167
 30
0.0
 10
76.1710611788739
 20
-128.0721136832597
 30
0.0
 10
76.15418021099617
 20
-128.1809787005936
 30
0.0
 10
76.09061819929332
 20
-128.2891546988305
 30
0.0
 10
75.98054739853958
 20
-128.4748453454854
 30
0.0
 10
75.84946151532583
 20
-128.4972384661396
 30
0.0
 10
75.74163002663751
 20
-128.5175645295026
 30
0.0
 10
75.74163002663751
 20
-128.5175645295026
 30
0.0
 10
75.74163002663751
 20
-128.2801974505688
 30
0.0
 10
75.74163002663751
 20
-128.2801974505688
 30
0.0
 10
75.94041203613642
 20
-128.2216308273196
 30
0.0
 10
75.97003985730957
 20
-128.0858940652008
 30
0.0
 10
75.97003985730957
 20
-127.986330805677
 30
0.0
 10
75.97003985730957
 20
-127.8371581711657
 30
0.0
 10
75.87064885256012
 20
-127.6745496642619
 30
0.0
 10
75.63793265253149
 20
-127.6745496642619
 30
0.0
 10
75.38196205797743
 20
-127.6745496642619
 30
0.0
 10
75.31219887440112
 20
-127.8664414827903
 30
0.0
 10
75.31219887440112
 20
-127.9952880539387
 30
0.0
 10
75.31219887440112
 20
-128.0293944992427
 30
0.0
 10
75.31219887440112
 20
-128.1809787005936
 30
0.0
 10
75.44121770032373
 20
-128.275718826438
 30
0.0
 10
75.44121770032373
 20
-128.275718826438
 30
0.0
 10
75.4220974203806
 20
-128.4634765303841
 30
0.0
 10
75.4220974203806
 20
-128.4634765303841
 30
0.0
 10
75.4220974203806
 20
-128.4634765303841
 30
0.0
 10
74.57598196920323
 20
-128.3346299592358
 30
0.0
 10
74.57598196920323
 20
-128.3346299592358
 30
0.0
 10
74.57598196920323
 20
-128.3346299592358
 30
0.0
 10
74.57598196920323
 20
-127.502639399548
 30
0.0
 10
74.57598196920323
 20
-127.502639399548
 30
0.0
 10
74.57598196920323
 20
-127.502639399548
 30
0.0
 10
74.77062986411984
 20
-127.502639399548
 30
0.0
 10
74.77062986411984
 20
-127.502639399548
 30
0.0
 10
74.77062986411984
 20
-127.502639399548
 30
0.0
 10
74.77062986411984
 20
-128.1603081276822
 30
0.0
 10
74.77062986411984
 20
-128.1603081276822
 30
0.0
 10
74.77062986411984
 20
-128.1603081276822
 30
0.0
 10
75.19368758970853
 20
-128.2305880755812
 30
0.0
 10
75.19368758970853
 20
-128.2305880755812
 30
0.0
 10
75.15975339917881
 20
-128.1651312613615
 30
0.0
 10
75.11961803677565
 20
-128.0769368169391
 30
0.0
 10
75.11961803677565
 20
-127.9501573030819
 30
0.0
 10
75.11961803677565
 20
-127.6790282883927
 30
0.0
 10
75.3058254477534
 20
-127.4258137702269
 30
0.0
 10
75.61881237258835
 20
-127.4258137702269
 30
0.0
 10
75.93627792155412
 20
-127.4258137702269
 30
0.0
 10
76.1710611788739
 20
-127.6652479064518
 30
0.0
 10
76.1710611788739
 20
-127.9887423725167
 30
0.0
  0
HATCH
  5
10C
330
FD
100
AcDbEntity
  8
_U+30EC_U+30A4_U+30E4_U+30FC 1
 62
   179
420
  2234388
100
AcDbHatch
 10
0.0
 20
0.0
 30
0.0
210
0.0
220
0.0
230
1.0
  2
SOLID
 70
     1
 71
     0
 91
        1
 92
        1
 93
        1
 72
     4
 94
        3
 73
     0
 74
     1
 95
       53
 96
       49
 40
0.0
 40
0.0
 40
0.0
 40
0.0
 40
1.0
 40
1.0
 40
1.0
 40
2.0
 40
2.0
 40
2.0
 40
3.0
 40
3.0
 40
3.0
 40
4.0
 40
4.0
 40
4.0
 40
5.0
 40
5.0
 40
5.0
 40
6.0
 40
6.0
 40
6.0
 40
7.0
 40
7.0
 40
7.0
 40
8.0
 40
8.0
 40
8.0
 40
9.0
 40
9.0
 40
9.0
 40
10.0
 40
10.0
 40
10.0
 40
11.0
 40
11.0
 40
11.0
 40
12.0
 40
12.0
 40
12.0
 40
13.0
 40
13.0
 40
13.0
 40
14.0
 40
14.0
 40
14.0
 40
15.0
 40
15.0
 40
15.0
 40
16.0
 40
16.0
 40
16.0
 40
16.0
 10
76.1710611788739
 20
-127.9887423725167
 10
76.1710611788739
 20
-128.0721136832597
 10
76.15418021099617
 20
-128.1809787005936
 10
76.09061819929332
 20
-128.2891546988305
 10
75.98054739853958
 20
-128.4748453454854
 10
75.84946151532583
 20
-128.4972384661396
 10
75.74163002663751
 20
-128.5175645295026
 10
75.74163002663751
 20
-128.5175645295026
 10
75.74163002663751
 20
-128.2801974505688
 10
75.74163002663751
 20
-128.2801974505688
 10
75.94041203613642
 20
-128.2216308273196
 10
75.97003985730957
 20
-128.0858940652008
 10
75.97003985730957
 20
-127.986330805677
 10
75.97003985730957
 20
-127.8371581711657
 10
75.87064885256012
 20
-127.6745496642619
 10
75.63793265253149
 20
-127.6745496642619
 10
75.38196205797743
 20
-127.6745496642619
 10
75.31219887440112
 20
-127.8664414827903
 10
75.31219887440112
 20
-127.9952880539387
 10
75.31219887440112
 20
-128.0293944992427
 10
75.31219887440112
 20
-128.1809787005936
 10
75.44121770032373
 20
-128.275718826438
 10
75.44121770032373
 20
-128.275718826438
 10
75.4220974203806
 20
-128.4634765303841
 10
75.4220974203806
 20
-128.4634765303841
 10
75.4220974203806
 20
-128.4634765303841
 10
74.57598196920323
 20
-128.3346299592358
 10
74.57598196920323
 20
-128.3346299592358
 10
74.57598196920323
 20
-128.3346299592358
 10
74.57598196920323
 20
-127.502639399548
 10
74.57598196920323
 20
-127.502639399548
 10
74.57598196920323
 20
-127.502639399548
 10
74.77062986411984
 20
-127.502639399548
 10
74.77062986411984
 20
-127.502639399548
 10
74.77062986411984
 20
-127.502639399548
 10
74.77062986411984
 20
-128.1603081276822
 10
74.77062986411984
 20
-128.1603081276822
 10
74.77062986411984
 20
-128.1603081276822
 10
75.19368758970853
 20
-128.2305880755812
 10
75.19368758970853
 20
-128.2305880755812
 10
75.15975339917881
 20
-128.1651312613615
 10
75.11961803677565
 20
-128.0769368169391
 10
75.11961803677565
 20
-127.9501573030819
 10
75.11961803677565
 20
-127.6790282883927
 10
75.3058254477534
 20
-127.4258137702269
 10
75.61881237258835
 20
-127.4258137702269
 10
75.93627792155412
 20
-127.4258137702269
 10
76.1710611788739
 20
-127.6652479064518
 10
76.1710611788739
 20
-127.9887423725167
 97
        0
 97
        0
 75
     2
 76
     1
 98
        0
  0
ENDBLK
  5
100
330
FD
100
AcDbEntity
  8
0
100
AcDbBlockEnd
  0
ENDSEC
  0
SECTION
  2
ENTITIES
  0
POLYLINE
  5
41
330
1F
100
AcDbEntity
  8
_U+30EC_U+30A4_U+30E4_U+30FC 1
 62
   179
420
  2234388
370
    25
100
AcDb2dPolyline
 66
     1
 10
0.0
 20
0.0
 30
0.0
  0
VERTEX
  5
42
330
41
100
AcDbEntity
  8
_U+30EC_U+30A4_U+30E4_U+30FC 1
 62
   179
420
  2234388
370
    25
100
AcDbVertex
100
AcDb2dVertex
 10
81.08099598700701
 20
-131.7873002448308
 30
0.0
  0
VERTEX
  5
43
330
41
100
AcDbEntity
  8
_U+30EC_U+30A4_U+30E4_U+30FC 1
 62
   179
420
  2234388
370
    25
100
AcDbVertex
100
AcDb2dVertex
 10
86.21729918930234
 20
-131.7873002448308
 30
0.0
  0
SEQEND
  5
44
330
41
100
AcDbEntity
  8
_U+30EC_U+30A4_U+30E4_U+30FC 1
 62
   179
420
  2234388
370
    25
  0
POLYLINE
  5
45
330
1F
100
AcDbEntity
  8
_U+30EC_U+30A4_U+30E4_U+30FC 1
 62
   179
420
  2234388
370
    25
100
AcDb2dPolyline
 66
     1
 10
0.0
 20
0.0
 30
0.0
  0
VERTEX
  5
46
330
45
100
AcDbEntity
  8
_U+30EC_U+30A4_U+30E4_U+30FC 1
 62
   179
420
  2234388
370
    25
100
AcDbVertex
100
AcDb2dVertex
 10
80.71685877407471
 20
-126.2873888573169
 30
0.0
  0
VERTEX
  5
47
330
45
100
AcDbEntity
  8
_U+30EC_U+30A4_U+30E4_U+30FC 1
 62
   179
420
  2234388
370
    25
100
AcDbVertex
100
AcDb2dVertex
 10
86.21729918930234
 20
-126.2873888573169
 30
0.0
  0
SEQEND
  5
48
330
45
100
AcDbEntity
  8
_U+30EC_U+30A4_U+30E4_U+30FC 1
 62
   179
420
  2234388
370
    25
  0
POLYLINE
  5
49
330
1F
100
AcDbEntity
  8
_U+30EC_U+30A4_U+30E4_U+30FC 1
 62
   179
420
  2234388
370
    25
100
AcDb2dPolyline
 66
     1
 10
0.0
 20
0.0
 30
0.0
  0
VERTEX
  5
4A
330
49
100
AcDbEntity
  8
_U+30EC_U+30A4_U+30E4_U+30FC 1
 62
   179
420
  2234388
370
    25
100
AcDbVertex
100
AcDb2dVertex
 10
81.08099598700701
 20
-125.2872638575672
 30
0.0
  0
VERTEX
  5
4B
330
49
100
AcDbEntity
  8
_U+30EC_U+30A4_U+30E4_U+30FC 1
 62
   179
420
  2234388
370
    25
100
AcDbVertex
100
AcDb2dVertex
 10
92.352669032776
 20
-125.2872638575672
 30
0.0
  0
SEQEND
  5
4C
330
49
100
AcDbEntity
  8
_U+30EC_U+30A4_U+30E4_U+30FC 1
 62
   179
420
  2234388
370
    25
  0
POLYLINE
  5
4D
330
1F
100
AcDbEntity
  8
_U+30EC_U+30A4_U+30E4_U+30FC 1
 62
   179
420
  2234388
370
    25
100
AcDb2dPolyline
 66
     1
 10
0.0
 20
0.0
 30
0.0
  0
VERTEX
  5
4E
330
4D
100
AcDbEntity
  8
_U+30EC_U+30A4_U+30E4_U+30FC 1
 62
   179
420
  2234388
370
    25
100
AcDbVertex
100
AcDb2dVertex
 10
80.71685877407471
 20
-132.7870724668033
 30
0.0
  0
VERTEX
  5
4F
330
4D
100
AcDbEntity
  8
_U+30EC_U+30A4_U+30E4_U+30FC 1
 62
   179
420
  2234388
370
    25
100
AcDbVertex
100
AcDb2dVertex
 10
103.7166666407375
 20
-132.7870724668033
 30
0.0
  0
SEQEND
  5
50
330
4D
100
AcDbEntity
  8
_U+30EC_U+30A4_U+30E4_U+30FC 1
 62
   179
420
  2234388
370
    25
  0
POLYLINE
  5
51
330
1F
100
AcDbEntity
  8
_U+30EC_U+30A4_U+30E4_U+30FC 1
 62
   179
420
  2234388
370
    25
100
AcDb2dPolyline
 66
     1
 10
0.0
 20
0.0
 30
0.0
  0
VERTEX
  5
52
330
51
100
AcDbEntity
  8
_U+30EC_U+30A4_U+30E4_U+30FC 1
 62
   179
420
  2234388
370
    25
100
AcDbVertex
100
AcDb2dVertex
 10
97.01663808045491
 20
-132.0870202447563
 30
0.0
  0
VERTEX
  5
53
330
51
100
AcDbEntity
  8
_U+30EC_U+30A4_U+30E4_U+30FC 1
 62
   179
420
  2234388
370
    25
100
AcDbVertex
100
AcDb2dVertex
 10
103.4624170826761
 20
-132.0870202447563
 30
0.0
  0
SEQEND
  5
54
330
51
100
AcDbEntity
  8
_U+30EC_U+30A4_U+30E4_U+30FC 1
 62
   179
420
  2234388
370
    25
  0
POLYLINE
  5
55
330
1F
100
AcDbEntity
  8
_U+30EC_U+30A4_U+30E4_U+30FC 1
 62
   179
420
  2234388
370
    25
100
AcDb2dPolyline
 66
     1
 10
0.0
 20
0.0
 30
0.0
  0
VERTEX
  5
56
330
55
100
AcDbEntity
  8
_U+30EC_U+30A4_U+30E4_U+30FC 1
 62
   179
420
  2234388
370
    25
100
AcDbVertex
100
AcDb2dVertex
 10
92.352669032776
 20
-125.2872638575672
 30
0.0
  0
VERTEX
  5
57
330
55
100
AcDbEntity
  8
_U+30EC_U+30A4_U+30E4_U+30FC 1
 62
   179
420
  2234388
370
    25
100
AcDbVertex
100
AcDb2dVertex
 10
92.7171590234771
 20
-126.2873888573169
 30
0.0
  0
SEQEND
  5
58
330
55
100
AcDbEntity
  8
_U+30EC_U+30A4_U+30E4_U+30FC 1
 62
   179
420
  2234388
370
    25
  0
POLYLINE
  5
59
330
1F
100
AcDbEntity
  8
_U+30EC_U+30A4_U+30E4_U+30FC 1
 62
   179
420
  2234388
370
    25
100
AcDb2dPolyline
 66
     1
 10
0.0
 20
0.0
 30
0.0
  0
VERTEX
  5
5A
330
59
100
AcDbEntity
  8
_U+30EC_U+30A4_U+30E4_U+30FC 1
 62
   179
420
  2234388
370
    25
100
AcDbVertex
100
AcDb2dVertex
 10
103.4624170826761
 20
-132.0870202447563
 30
0.0
  0
VERTEX
  5
5B
330
59
100
AcDbEntity
  8
_U+30EC_U+30A4_U+30E4_U+30FC 1
 62
   179
420
  2234388
370
    25
100
AcDbVertex
100
AcDb2dVertex
 10
103.7166666407375
 20
-132.7870724668033
 30
0.0
  0
SEQEND
  5
5C
330
59
100
AcDbEntity
  8
_U+30EC_U+30A4_U+30E4_U+30FC 1
 62
   179
420
  2234388
370
    25
  0
POLYLINE
  5
5D
330
1F
100
AcDbEntity
  8
_U+30EC_U+30A4_U+30E4_U+30FC 1
 62
   179
420
  2234388
370
    25
100
AcDb2dPolyline
 66
     1
 10
0.0
 20
0.0
 30
0.0
  0
VERTEX
  5
5E
330
5D
100
AcDbEntity
  8
_U+30EC_U+30A4_U+30E4_U+30FC 1
 62
   179
420
  2234388
370
    25
100
AcDbVertex
100
AcDb2dVertex
 10
96.71691808810141
 20
-131.7873002448308
 30
0.0
  0
VERTEX
  5
5F
330
5D
100
AcDbEntity
  8
_U+30EC_U+30A4_U+30E4_U+30FC 1
 62
   179
420
  2234388
370
    25
100
AcDbVertex
100
AcDb2dVertex
 10
97.01663808045491
 20
-132.0870202447563
 30
0.0
  0
SEQEND
  5
60
330
5D
100
AcDbEntity
  8
_U+30EC_U+30A4_U+30E4_U+30FC 1
 62
   179
420
  2234388
370
    25
  0
POLYLINE
  5
61
330
1F
100
AcDbEntity
  8
_U+30EC_U+30A4_U+30E4_U+30FC 1
 62
   179
420
  2234388
370
    25
100
AcDb2dPolyline
 66
     1
 10
0.0
 20
0.0
 30
0.0
  0
VERTEX
  5
62
330
61
100
AcDbEntity
  8
_U+30EC_U+30A4_U+30E4_U+30FC 1
 62
   179
420
  2234388
370
    25
100
AcDbVertex
100
AcDb2dVertex
 10
80.71685877407471
 20
-126.2873888573169
 30
0.0
  0
VERTEX
  5
63
330
61
100
AcDbEntity
  8
_U+30EC_U+30A4_U+30E4_U+30FC 1
 62
   179
420
  2234388
370
    25
100
AcDbVertex
100
AcDb2dVertex
 10
81.08099598700701
 20
-125.2872638575672
 30
0.0
  0
SEQEND
  5
64
330
61
100
AcDbEntity
  8
_U+30EC_U+30A4_U+30E4_U+30FC 1
 62
   179
420
  2234388
370
    25
  0
POLYLINE
  5
65
330
1F
100
AcDbEntity
  8
_U+30EC_U+30A4_U+30E4_U+30FC 1
 62
   179
420
  2234388
370
    25
100
AcDb2dPolyline
 66
     1
 10
0.0
 20
0.0
 30
0.0
  0
VERTEX
  5
66
330
65
100
AcDbEntity
  8
_U+30EC_U+30A4_U+30E4_U+30FC 1
 62
   179
420
  2234388
370
    25
100
AcDbVertex
100
AcDb2dVertex
 10
80.71685877407471
 20
-132.7870724668033
 30
0.0
  0
VERTEX
  5
67
330
65
100
AcDbEntity
  8
_U+30EC_U+30A4_U+30E4_U+30FC 1
 62
   179
420
  2234388
370
    25
100
AcDbVertex
100
AcDb2dVertex
 10
81.08099598700701
 20
-131.7873002448308
 30
0.0
  0
SEQEND
  5
68
330
65
100
AcDbEntity
  8
_U+30EC_U+30A4_U+30E4_U+30FC 1
 62
   179
420
  2234388
370
    25
  0
POLYLINE
  5
69
330
1F
100
AcDbEntity
  8
_U+30EC_U+30A4_U+30E4_U+30FC 1
 62
   179
420
  2234388
370
    25
100
AcDb2dPolyline
 66
     1
 10
0.0
 20
0.0
 30
0.0
  0
VERTEX
  5
6A
330
69
100
AcDbEntity
  8
_U+30EC_U+30A4_U+30E4_U+30FC 1
 62
   179
420
  2234388
370
    25
100
AcDbVertex
100
AcDb2dVertex
 10
86.21729918930234
 20
-126.2873888573169
 30
0.0
  0
VERTEX
  5
6B
330
69
100
AcDbEntity
  8
_U+30EC_U+30A4_U+30E4_U+30FC 1
 62
   179
420
  2234388
370
    25
100
AcDbVertex
100
AcDb2dVertex
 10
86.21729918930234
 20
-131.7873002448308
 30
0.0
  0
SEQEND
  5
6C
330
69
100
AcDbEntity
  8
_U+30EC_U+30A4_U+30E4_U+30FC 1
 62
   179
420
  2234388
370
    25
  0
POLYLINE
  5
6D
330
1F
100
AcDbEntity
  8
_U+30EC_U+30A4_U+30E4_U+30FC 1
 62
   179
420
  2234388
370
    25
100
AcDb2dPolyline
 66
     1
 10
0.0
 20
0.0
 30
0.0
  0
VERTEX
  5
6E
330
6D
100
AcDbEntity
  8
_U+30EC_U+30A4_U+30E4_U+30FC 1
 62
   179
420
  2234388
370
    25
100
AcDbVertex
100
AcDb2dVertex
 10
87.21707138601825
 20
-126.2873888573169
 30
0.0
  0
VERTEX
  5
6F
330
6D
100
AcDbEntity
  8
_U+30EC_U+30A4_U+30E4_U+30FC 1
 62
   179
420
  2234388
370
    25
100
AcDbVertex
100
AcDb2dVertex
 10
87.21707138601825
 20
-131.7873002448308
 30
0.0
  0
SEQEND
  5
70
330
6D
100
AcDbEntity
  8
_U+30EC_U+30A4_U+30E4_U+30FC 1
 62
   179
420
  2234388
370
    25
  0
POLYLINE
  5
71
330
1F
100
AcDbEntity
  8
_U+30EC_U+30A4_U+30E4_U+30FC 1
 62
   179
420
  2234388
370
    25
100
AcDb2dPolyline
 66
     1
 10
0.0
 20
0.0
 30
0.0
  0
VERTEX
  5
72
330
71
100
AcDbEntity
  8
_U+30EC_U+30A4_U+30E4_U+30FC 1
 62
   179
420
  2234388
370
    25
100
AcDbVertex
100
AcDb2dVertex
 10
87.21707138601825
 20
-126.2873888573169
 30
0.0
  0
VERTEX
  5
73
330
71
100
AcDbEntity
  8
_U+30EC_U+30A4_U+30E4_U+30FC 1
 62
   179
420
  2234388
370
    25
100
AcDbVertex
100
AcDb2dVertex
 10
92.7171590234771
 20
-126.2873888573169
 30
0.0
  0
SEQEND
  5
74
330
71
100
AcDbEntity
  8
_U+30EC_U+30A4_U+30E4_U+30FC 1
 62
   179
420
  2234388
370
    25
  0
POLYLINE
  5
75
330
1F
100
AcDbEntity
  8
_U+30EC_U+30A4_U+30E4_U+30FC 1
 62
   179
420
  2234388
370
    25
100
AcDb2dPolyline
 66
     1
 10
0.0
 20
0.0
 30
0.0
  0
VERTEX
  5
76
330
75
100
AcDbEntity
  8
_U+30EC_U+30A4_U+30E4_U+30FC 1
 62
   179
420
  2234388
370
    25
100
AcDbVertex
100
AcDb2dVertex
 10
87.21707138601825
 20
-131.7873002448308
 30
0.0
  0
VERTEX
  5
77
330
75
100
AcDbEntity
  8
_U+30EC_U+30A4_U+30E4_U+30FC 1
 62
   179
420
  2234388
370
    25
100
AcDbVertex
100
AcDb2dVertex
 10
96.71691808810141
 20
-131.7873002448308
 30
0.0
  0
SEQEND
  5
78
330
75
100
AcDbEntity
  8
_U+30EC_U+30A4_U+30E4_U+30FC 1
 62
   179
420
  2234388
370
    25
  0
SPLINE
  5
79
330
1F
100
AcDbEntity
  8
_U+30EC_U+30A4_U+30E4_U+30FC 1
 62
   179
420
  2234388
370
     9
100
AcDbSpline
210
0.0
220
0.0
230
1.0
 70
    11
 71
     3
 72
    17
 73
    13
 74
     0
 42
0.0000000001
 43
0.0000000001
 12
1.0
 22
0.0
 32
0.0
 13
1.0
 23
0.0
 33
0.0
 40
0.0
 40
0.0
 40
0.0
 40
0.0
 40
1.0
 40
1.0
 40
1.0
 40
2.0
 40
2.0
 40
2.0
 40
3.0
 40
3.0
 40
3.0
 40
4.0
 40
4.0
 40
4.0
 40
4.0
 10
107.8173555286012
 20
-132.0870202447563
 30
0.0
 10
107.8173555286012
 20
-132.0319163558808
 30
0.0
 10
107.7725853060478
 20
-131.987113578114
 30
0.0
 10
107.7174461407879
 20
-131.987113578114
 30
0.0
 10
107.6623422533048
 20
-131.987113578114
 30
0.0
 10
107.6175394766701
 20
-132.0319163558808
 30
0.0
 10
107.6175394766701
 20
-132.0870202447563
 30
0.0
 10
107.6175394766701
 20
-132.1428296891868
 30
0.0
 10
107.6623422533048
 20
-132.1876324669528
 30
0.0
 10
107.7174461407879
 20
-132.1876324669528
 30
0.0
 10
107.7725853060478
 20
-132.1876324669528
 30
0.0
 10
107.8173555286012
 20
-132.1428296891868
 30
0.0
 10
107.8173555286012
 20
-132.0870202447563
 30
0.0
  0
SPLINE
  5
7A
330
1F
100
AcDbEntity
  8
_U+30EC_U+30A4_U+30E4_U+30FC 1
 62
   179
420
  2234388
370
     9
100
AcDbSpline
210
0.0
220
0.0
230
1.0
 70
    11
 71
     3
 72
    17
 73
    13
 74
     0
 42
0.0000000001
 43
0.0000000001
 12
1.0
 22
0.0
 32
0.0
 13
1.0
 23
0.0
 33
0.0
 40
0.0
 40
0.0
 40
0.0
 40
0.0
 40
1.0
 40
1.0
 40
1.0
 40
2.0
 40
2.0
 40
2.0
 40
3.0
 40
3.0
 40
3.0
 40
4.0
 40
4.0
 40
4.0
 40
4.0
 10
107.8173555286012
 20
-132.7870724668033
 30
0.0
 10
107.8173555286012
 20
-132.7319333001502
 30
0.0
 10
107.7725853060478
 20
-132.6871658001617
 30
0.0
 10
107.7174461407879
 20
-132.6871658001617
 30
0.0
 10
107.6623422533048
 20
-132.6871658001617
 30
0.0
 10
107.6175394766701
 20
-132.7319333001502
 30
0.0
 10
107.6175394766701
 20
-132.7870724668033
 30
0.0
 10
107.6175394766701
 20
-132.8421763556782
 30
0.0
 10
107.6623422533048
 20
-132.8869791334449
 30
0.0
 10
107.7174461407879
 20
-132.8869791334449
 30
0.0
 10
107.7725853060478
 20
-132.8869791334449
 30
0.0
 10
107.8173555286012
 20
-132.8421763556782
 30
0.0
 10
107.8173555286012
 20
-132.7870724668033
 30
0.0
  0
SPLINE
  5
7B
330
1F
100
AcDbEntity
  8
_U+30EC_U+30A4_U+30E4_U+30FC 1
 62
   179
420
  2234388
370
     9
100
AcDbSpline
210
0.0
220
0.0
230
1.0
 70
    11
 71
     3
 72
    17
 73
    13
 74
     0
 42
0.0000000001
 43
0.0000000001
 12
1.0
 22
0.0
 32
0.0
 13
1.0
 23
0.0
 33
0.0
 40
0.0
 40
0.0
 40
0.0
 40
0.0
 40
1.0
 40
1.0
 40
1.0
 40
2.0
 40
2.0
 40
2.0
 40
3.0
 40
3.0
 40
3.0
 40
4.0
 40
4.0
 40
4.0
 40
4.0
 10
103.8172762402895
 20
-136.7875019102475
 30
0.0
 10
103.8172762402895
 20
-136.7323980213726
 30
0.0
 10
103.7724734636547
 20
-136.6875952436059
 30
0.0
 10
103.7166666407375
 20
-136.6875952436059
 30
0.0
 10
103.6615601331511
 20
-136.6875952436059
 30
0.0
 10
103.6167573565163
 20
-136.7323980213726
 30
0.0
 10
103.6167573565163
 20
-136.7875019102475
 30
0.0
 10
103.6167573565163
 20
-136.8426410769006
 30
0.0
 10
103.6615601331511
 20
-136.8874085768892
 30
0.0
 10
103.7166666407375
 20
-136.8874085768892
 30
0.0
 10
103.7724734636547
 20
-136.8874085768892
 30
0.0
 10
103.8172762402895
 20
-136.8426410769006
 30
0.0
 10
103.8172762402895
 20
-136.7875019102475
 30
0.0
  0
SPLINE
  5
7C
330
1F
100
AcDbEntity
  8
_U+30EC_U+30A4_U+30E4_U+30FC 1
 62
   179
420
  2234388
370
     9
100
AcDbSpline
210
0.0
220
0.0
230
1.0
 70
    11
 71
     3
 72
    17
 73
    13
 74
     0
 42
0.0000000001
 43
0.0000000001
 12
1.0
 22
0.0
 32
0.0
 13
1.0
 23
0.0
 33
0.0
 40
0.0
 40
0.0
 40
0.0
 40
0.0
 40
1.0
 40
1.0
 40
1.0
 40
2.0
 40
2.0
 40
2.0
 40
3.0
 40
3.0
 40
3.0
 40
4.0
 40
4.0
 40
4.0
 40
4.0
 10
76.81700831412901
 20
-126.2873888573169
 30
0.0
 10
76.81700831412901
 20
-126.2322496906641
 30
0.0
 10
76.77223887471034
 20
-126.1874821906753
 30
0.0
 10
76.7170997094504
 20
-126.1874821906753
 30
0.0
 10
76.66199582196732
 20
-126.1874821906753
 30
0.0
 10
76.61719304533256
 20
-126.2322496906641
 30
0.0
 10
76.61719304533256
 20
-126.2873888573169
 30
0.0
 10
76.61719304533256
 20
-126.3424927461921
 30
0.0
 10
76.66199582196732
 20
-126.3872955239589
 30
0.0
 10
76.7170997094504
 20
-126.3872955239589
 30
0.0
 10
76.77223887471034
 20
-126.3872955239589
 30
0.0
 10
76.81700831412901
 20
-126.3424927461921
 30
0.0
 10
76.81700831412901
 20
-126.2873888573169
 30
0.0
  0
SPLINE
  5
7D
330
1F
100
AcDbEntity
  8
_U+30EC_U+30A4_U+30E4_U+30FC 1
 62
   179
420
  2234388
370
     9
100
AcDbSpline
210
0.0
220
0.0
230
1.0
 70
    11
 71
     3
 72
    17
 73
    13
 74
     0
 42
0.0000000001
 43
0.0000000001
 12
1.0
 22
0.0
 32
0.0
 13
1.0
 23
0.0
 33
0.0
 40
0.0
 40
0.0
 40
0.0
 40
0.0
 40
1.0
 40
1.0
 40
1.0
 40
2.0
 40
2.0
 40
2.0
 40
3.0
 40
3.0
 40
3.0
 40
4.0
 40
4.0
 40
4.0
 40
4.0
 10
76.81700831412901
 20
-131.7873002448308
 30
0.0
 10
76.81700831412901
 20
-131.7321963559558
 30
0.0
 10
76.77223887471034
 20
-131.6873935781891
 30
0.0
 10
76.7170997094504
 20
-131.6873935781891
 30
0.0
 10
76.66199582196732
 20
-131.6873935781891
 30
0.0
 10
76.61719304533256
 20
-131.7321963559558
 30
0.0
 10
76.61719304533256
 20
-131.7873002448308
 30
0.0
 10
76.61719304533256
 20
-131.8424394114838
 30
0.0
 10
76.66199582196732
 20
-131.8872069114724
 30
0.0
 10
76.7170997094504
 20
-131.8872069114724
 30
0.0
 10
76.77223887471034
 20
-131.8872069114724
 30
0.0
 10
76.81700831412901
 20
-131.8424394114838
 30
0.0
 10
76.81700831412901
 20
-131.7873002448308
 30
0.0
  0
SPLINE
  5
7E
330
1F
100
AcDbEntity
  8
_U+30EC_U+30A4_U+30E4_U+30FC 1
 62
   179
420
  2234388
370
     9
100
AcDbSpline
210
0.0
220
0.0
230
1.0
 70
    11
 71
     3
 72
    17
 73
    13
 74
     0
 42
0.0000000001
 43
0.0000000001
 12
1.0
 22
0.0
 32
0.0
 13
1.0
 23
0.0
 33
0.0
 40
0.0
 40
0.0
 40
0.0
 40
0.0
 40
1.0
 40
1.0
 40
1.0
 40
2.0
 40
2.0
 40
2.0
 40
3.0
 40
3.0
 40
3.0
 40
4.0
 40
4.0
 40
4.0
 40
4.0
 10
76.81700831412901
 20
-132.7870724668033
 30
0.0
 10
76.81700831412901
 20
-132.7319333001502
 30
0.0
 10
76.77223887471034
 20
-132.6871658001617
 30
0.0
 10
76.7170997094504
 20
-132.6871658001617
 30
0.0
 10
76.66199582196732
 20
-132.6871658001617
 30
0.0
 10
76.61719304533256
 20
-132.7319333001502
 30
0.0
 10
76.61719304533256
 20
-132.7870724668033
 30
0.0
 10
76.61719304533256
 20
-132.8421763556782
 30
0.0
 10
76.66199582196732
 20
-132.8869791334449
 30
0.0
 10
76.7170997094504
 20
-132.8869791334449
 30
0.0
 10
76.77223887471034
 20
-132.8869791334449
 30
0.0
 10
76.81700831412901
 20
-132.8421763556782
 30
0.0
 10
76.81700831412901
 20
-132.7870724668033
 30
0.0
  0
SPLINE
  5
7F
330
1F
100
AcDbEntity
  8
_U+30EC_U+30A4_U+30E4_U+30FC 1
 62
   179
420
  2234388
370
     9
100
AcDbSpline
210
0.0
220
0.0
230
1.0
 70
    11
 71
     3
 72
    17
 73
    13
 74
     0
 42
0.0000000001
 43
0.0000000001
 12
1.0
 22
0.0
 32
0.0
 13
1.0
 23
0.0
 33
0.0
 40
0.0
 40
0.0
 40
0.0
 40
0.0
 40
1.0
 40
1.0
 40
1.0
 40
2.0
 40
2.0
 40
2.0
 40
3.0
 40
3.0
 40
3.0
 40
4.0
 40
4.0
 40
4.0
 40
4.0
 10
80.81676543819255
 20
-136.7875019102475
 30
0.0
 10
80.81676543819255
 20
-136.7323980213726
 30
0.0
 10
80.77199997980702
 20
-136.6875952436059
 30
0.0
 10
80.71685877407471
 20
-136.6875952436059
 30
0.0
 10
80.66175488659164
 20
-136.6875952436059
 30
0.0
 10
80.61695210995687
 20
-136.7323980213726
 30
0.0
 10
80.61695210995687
 20
-136.7875019102475
 30
0.0
 10
80.61695210995687
 20
-136.8426410769006
 30
0.0
 10
80.66175488659164
 20
-136.8874085768892
 30
0.0
 10
80.71685877407471
 20
-136.8874085768892
 30
0.0
 10
80.77199997980702
 20
-136.8874085768892
 30
0.0
 10
80.81676543819255
 20
-136.8426410769006
 30
0.0
 10
80.81676543819255
 20
-136.7875019102475
 30
0.0
  0
SPLINE
  5
80
330
1F
100
AcDbEntity
  8
_U+30EC_U+30A4_U+30E4_U+30FC 1
 62
   179
420
  2234388
370
     9
100
AcDbSpline
210
0.0
220
0.0
230
1.0
 70
    11
 71
     3
 72
    17
 73
    13
 74
     0
 42
0.0000000001
 43
0.0000000001
 12
1.0
 22
0.0
 32
0.0
 13
1.0
 23
0.0
 33
0.0
 40
0.0
 40
0.0
 40
0.0
 40
0.0
 40
1.0
 40
1.0
 40
1.0
 40
2.0
 40
2.0
 40
2.0
 40
3.0
 40
3.0
 40
3.0
 40
4.0
 40
4.0
 40
4.0
 40
4.0
 10
92.81706568759493
 20
-121.2871871919004
 30
0.0
 10
92.81706568759493
 20
-121.2320480252477
 30
0.0
 10
92.77229818873705
 20
-121.1872452474809
 30
0.0
 10
92.7171590234771
 20
-121.1872452474809
 30
0.0
 10
92.66134958045647
 20
-121.1872452474809
 30
0.0
 10
92.61658208159858
 20
-121.2320480252477
 30
0.0
 10
92.61658208159858
 20
-121.2871871919004
 30
0.0
 10
92.61658208159858
 20
-121.3422910807757
 30
0.0
 10
92.66134958045647
 20
-121.3870938585421
 30
0.0
 10
92.7171590234771
 20
-121.3870938585421
 30
0.0
 10
92.77229818873705
 20
-121.3870938585421
 30
0.0
 10
92.81706568759493
 20
-121.3422910807757
 30
0.0
 10
92.81706568759493
 20
-121.2871871919004
 30
0.0
  0
SPLINE
  5
81
330
1F
100
AcDbEntity
  8
_U+30EC_U+30A4_U+30E4_U+30FC 1
 62
   179
420
  2234388
370
     9
100
AcDbSpline
210
0.0
220
0.0
230
1.0
 70
    11
 71
     3
 72
    17
 73
    13
 74
     0
 42
0.0000000001
 43
0.0000000001
 12
1.0
 22
0.0
 32
0.0
 13
1.0
 23
0.0
 33
0.0
 40
0.0
 40
0.0
 40
0.0
 40
0.0
 40
1.0
 40
1.0
 40
1.0
 40
2.0
 40
2.0
 40
2.0
 40
3.0
 40
3.0
 40
3.0
 40
4.0
 40
4.0
 40
4.0
 40
4.0
 10
80.81676543819255
 20
-121.2871871919004
 30
0.0
 10
80.81676543819255
 20
-121.2320480252477
 30
0.0
 10
80.77199997980702
 20
-121.1872452474809
 30
0.0
 10
80.71685877407471
 20
-121.1872452474809
 30
0.0
 10
80.66175488659164
 20
-121.1872452474809
 30
0.0
 10
80.61695210995687
 20
-121.2320480252477
 30
0.0
 10
80.61695210995687
 20
-121.2871871919004
 30
0.0
 10
80.61695210995687
 20
-121.3422910807757
 30
0.0
 10
80.66175488659164
 20
-121.3870938585421
 30
0.0
 10
80.71685877407471
 20
-121.3870938585421
 30
0.0
 10
80.77199997980702
 20
-121.3870938585421
 30
0.0
 10
80.81676543819255
 20
-121.3422910807757
 30
0.0
 10
80.81676543819255
 20
-121.2871871919004
 30
0.0
  0
SPLINE
  5
82
330
1F
100
AcDbEntity
  8
_U+30EC_U+30A4_U+30E4_U+30FC 1
 62
   179
420
  2234388
370
     9
100
AcDbSpline
210
0.0
220
0.0
230
1.0
 70
    11
 71
     3
 72
    17
 73
    13
 74
     0
 42
0.0000000001
 43
0.0000000001
 12
1.0
 22
0.0
 32
0.0
 13
1.0
 23
0.0
 33
0.0
 40
0.0
 40
0.0
 40
0.0
 40
0.0
 40
1.0
 40
1.0
 40
1.0
 40
2.0
 40
2.0
 40
2.0
 40
3.0
 40
3.0
 40
3.0
 40
4.0
 40
4.0
 40
4.0
 40
4.0
 10
103.8172762402895
 20
-128.0870846902005
 30
0.0
 10
103.8172762402895
 20
-128.0319808013253
 30
0.0
 10
103.7724734636547
 20
-127.9871780235589
 30
0.0
 10
103.7166666407375
 20
-127.9871780235589
 30
0.0
 10
103.6615601331511
 20
-127.9871780235589
 30
0.0
 10
103.6167573565163
 20
-128.0319808013253
 30
0.0
 10
103.6167573565163
 20
-128.0870846902005
 30
0.0
 10
103.6167573565163
 20
-128.1425766346311
 30
0.0
 10
103.6615601331511
 20
-128.1873441346199
 30
0.0
 10
103.7166666407375
 20
-128.1873441346199
 30
0.0
 10
103.7724734636547
 20
-128.1873441346199
 30
0.0
 10
103.8172762402895
 20
-128.1425766346311
 30
0.0
 10
103.8172762402895
 20
-128.0870846902005
 30
0.0
  0
SPLINE
  5
83
330
1F
100
AcDbEntity
  8
_U+30EC_U+30A4_U+30E4_U+30FC 1
 62
   179
420
  2234388
370
     9
100
AcDbSpline
210
0.0
220
0.0
230
1.0
 70
    11
 71
     3
 72
    17
 73
    13
 74
     0
 42
0.0000000001
 43
0.0000000001
 12
1.0
 22
0.0
 32
0.0
 13
1.0
 23
0.0
 33
0.0
 40
0.0
 40
0.0
 40
0.0
 40
0.0
 40
1.0
 40
1.0
 40
1.0
 40
2.0
 40
2.0
 40
2.0
 40
3.0
 40
3.0
 40
3.0
 40
4.0
 40
4.0
 40
4.0
 40
4.0
 10
96.81682475221925
 20
-128.0870846902005
 30
0.0
 10
96.81682475221925
 20
-128.0319808013253
 30
0.0
 10
96.77205725336135
 20
-127.9871780235589
 30
0.0
 10
96.71691808810141
 20
-127.9871780235589
 30
0.0
 10
96.66181664250136
 20
-127.9871780235589
 30
0.0
 10
96.61701386473464
 20
-128.0319808013253
 30
0.0
 10
96.61701386473464
 20
-128.0870846902005
 30
0.0
 10
96.61701386473464
 20
-128.1425766346311
 30
0.0
 10
96.66181664250136
 20
-128.1873441346199
 30
0.0
 10
96.71691808810141
 20
-128.1873441346199
 30
0.0
 10
96.77205725336135
 20
-128.1873441346199
 30
0.0
 10
96.81682475221925
 20
-128.1425766346311
 30
0.0
 10
96.81682475221925
 20
-128.0870846902005
 30
0.0
  0
POLYLINE
  5
84
330
1F
100
AcDbEntity
  8
_U+30EC_U+30A4_U+30E4_U+30FC 1
 62
   179
420
  2234388
370
     9
100
AcDb2dPolyline
 66
     1
 10
0.0
 20
0.0
 30
0.0
  0
VERTEX
  5
85
330
84
100
AcDbEntity
  8
_U+30EC_U+30A4_U+30E4_U+30FC 1
 62
   179
420
  2234388
370
     9
100
AcDbVertex
100
AcDb2dVertex
 10
107.7174461407879
 20
-132.7870724668033
 30
0.0
  0
VERTEX
  5
86
330
84
100
AcDbEntity
  8
_U+30EC_U+30A4_U+30E4_U+30FC 1
 62
   179
420
  2234388
370
     9
100
AcDbVertex
100
AcDb2dVertex
 10
107.7174461407879
 20
-138.0449782988222
 30
0.0
  0
SEQEND
  5
87
330
84
100
AcDbEntity
  8
_U+30EC_U+30A4_U+30E4_U+30FC 1
 62
   179
420
  2234388
370
     9
  0
POLYLINE
  5
88
330
1F
100
AcDbEntity
  8
_U+30EC_U+30A4_U+30E4_U+30FC 1
 62
   179
420
  2234388
370
     9
100
AcDb2dPolyline
 66
     1
 10
0.0
 20
0.0
 30
0.0
  0
VERTEX
  5
89
330
88
100
AcDbEntity
  8
_U+30EC_U+30A4_U+30E4_U+30FC 1
 62
   179
420
  2234388
370
     9
100
AcDbVertex
100
AcDb2dVertex
 10
107.7174461407879
 20
-132.7870724668033
 30
0.0
  0
VERTEX
  5
8A
330
88
100
AcDbEntity
  8
_U+30EC_U+30A4_U+30E4_U+30FC 1
 62
   179
420
  2234388
370
     9
100
AcDbVertex
100
AcDb2dVertex
 10
107.7174461407879
 20
-131.0872480227838
 30
0.0
  0
SEQEND
  5
8B
330
88
100
AcDbEntity
  8
_U+30EC_U+30A4_U+30E4_U+30FC 1
 62
   179
420
  2234388
370
     9
  0
POLYLINE
  5
8C
330
1F
100
AcDbEntity
  8
_U+30EC_U+30A4_U+30E4_U+30FC 1
 62
   179
420
  2234388
370
     9
100
AcDb2dPolyline
 66
     1
 10
0.0
 20
0.0
 30
0.0
  0
VERTEX
  5
8D
330
8C
100
AcDbEntity
  8
_U+30EC_U+30A4_U+30E4_U+30FC 1
 62
   179
420
  2234388
370
     9
100
AcDbVertex
100
AcDb2dVertex
 10
106.2574047891478
 20
-132.7870724668033
 30
0.0
  0
VERTEX
  5
8E
330
8C
100
AcDbEntity
  8
_U+30EC_U+30A4_U+30E4_U+30FC 1
 62
   179
420
  2234388
370
     9
100
AcDbVertex
100
AcDb2dVertex
 10
108.7172183375038
 20
-132.7870724668033
 30
0.0
  0
SEQEND
  5
8F
330
8C
100
AcDbEntity
  8
_U+30EC_U+30A4_U+30E4_U+30FC 1
 62
   179
420
  2234388
370
     9
  0
POLYLINE
  5
90
330
1F
100
AcDbEntity
  8
_U+30EC_U+30A4_U+30E4_U+30FC 1
 62
   179
420
  2234388
370
     9
100
AcDb2dPolyline
 66
     1
 10
0.0
 20
0.0
 30
0.0
  0
VERTEX
  5
91
330
90
100
AcDbEntity
  8
_U+30EC_U+30A4_U+30E4_U+30FC 1
 62
   179
420
  2234388
370
     9
100
AcDbVertex
100
AcDb2dVertex
 10
106.002487573429
 20
-132.0870202447563
 30
0.0
  0
VERTEX
  5
92
330
90
100
AcDbEntity
  8
_U+30EC_U+30A4_U+30E4_U+30FC 1
 62
   179
420
  2234388
370
     9
100
AcDbVertex
100
AcDb2dVertex
 10
108.7172183375038
 20
-132.0870202447563
 30
0.0
  0
SEQEND
  5
93
330
90
100
AcDbEntity
  8
_U+30EC_U+30A4_U+30E4_U+30FC 1
 62
   179
420
  2234388
370
     9
  0
INSERT
  5
95
330
1F
100
AcDbEntity
  8
_U+30EC_U+30A4_U+30E4_U+30FC 1
100
AcDbBlockReference
  2
block 2
 10
0.0
 20
0.0
 30
0.0
  0
POLYLINE
  5
A5
330
1F
100
AcDbEntity
  8
_U+30EC_U+30A4_U+30E4_U+30FC 1
 62
   179
420
  2234388
370
     9
100
AcDb2dPolyline
 66
     1
 10
0.0
 20
0.0
 30
0.0
  0
VERTEX
  5
A6
330
A5
100
AcDbEntity
  8
_U+30EC_U+30A4_U+30E4_U+30FC 1
 62
   179
420
  2234388
370
     9
100
AcDbVertex
100
AcDb2dVertex
 10
80.71685877407471
 20
-136.7875019102475
 30
0.0
  0
VERTEX
  5
A7
330
A5
100
AcDbEntity
  8
_U+30EC_U+30A4_U+30E4_U+30FC 1
 62
   179
420
  2234388
370
     9
100
AcDbVertex
100
AcDb2dVertex
 10
103.7166666407375
 20
-136.7875019102475
 30
0.0
  0
SEQEND
  5
A8
330
A5
100
AcDbEntity
  8
_U+30EC_U+30A4_U+30E4_U+30FC 1
 62
   179
420
  2234388
370
     9
  0
POLYLINE
  5
A9
330
1F
100
AcDbEntity
  8
_U+30EC_U+30A4_U+30E4_U+30FC 1
 62
   179
420
  2234388
370
     9
100
AcDb2dPolyline
 66
     1
 10
0.0
 20
0.0
 30
0.0
  0
VERTEX
  5
AA
330
A9
100
AcDbEntity
  8
_U+30EC_U+30A4_U+30E4_U+30FC 1
 62
   179
420
  2234388
370
     9
100
AcDbVertex
100
AcDb2dVertex
 10
80.71685877407471
 20
-135.3274957995013
 30
0.0
  0
VERTEX
  5
AB
330
A9
100
AcDbEntity
  8
_U+30EC_U+30A4_U+30E4_U+30FC 1
 62
   179
420
  2234388
370
     9
100
AcDbVertex
100
AcDb2dVertex
 10
80.71685877407471
 20
-137.7872741322201
 30
0.0
  0
SEQEND
  5
AC
330
A9
100
AcDbEntity
  8
_U+30EC_U+30A4_U+30E4_U+30FC 1
 62
   179
420
  2234388
370
     9
  0
POLYLINE
  5
AD
330
1F
100
AcDbEntity
  8
_U+30EC_U+30A4_U+30E4_U+30FC 1
 62
   179
420
  2234388
370
     9
100
AcDb2dPolyline
 66
     1
 10
0.0
 20
0.0
 30
0.0
  0
VERTEX
  5
AE
330
AD
100
AcDbEntity
  8
_U+30EC_U+30A4_U+30E4_U+30FC 1
 62
   179
420
  2234388
370
     9
100
AcDbVertex
100
AcDb2dVertex
 10
103.7166666407375
 20
-135.3274957995013
 30
0.0
  0
VERTEX
  5
AF
330
AD
100
AcDbEntity
  8
_U+30EC_U+30A4_U+30E4_U+30FC 1
 62
   179
420
  2234388
370
     9
100
AcDbVertex
100
AcDb2dVertex
 10
103.7166666407375
 20
-137.7872741322201
 30
0.0
  0
SEQEND
  5
B0
330
AD
100
AcDbEntity
  8
_U+30EC_U+30A4_U+30E4_U+30FC 1
 62
   179
420
  2234388
370
     9
  0
INSERT
  5
B2
330
1F
100
AcDbEntity
  8
_U+30EC_U+30A4_U+30E4_U+30FC 1
100
AcDbBlockReference
  2
block 3
 10
0.0
 20
0.0
 30
0.0
  0
POLYLINE
  5
B9
330
1F
100
AcDbEntity
  8
_U+30EC_U+30A4_U+30E4_U+30FC 1
 62
   179
420
  2234388
370
     9
100
AcDb2dPolyline
 66
     1
 10
0.0
 20
0.0
 30
0.0
  0
VERTEX
  5
BA
330
B9
100
AcDbEntity
  8
_U+30EC_U+30A4_U+30E4_U+30FC 1
 62
   179
420
  2234388
370
     9
100
AcDbVertex
100
AcDb2dVertex
 10
92.7171590234771
 20
-121.2871871919004
 30
0.0
  0
VERTEX
  5
BB
330
B9
100
AcDbEntity
  8
_U+30EC_U+30A4_U+30E4_U+30FC 1
 62
   179
420
  2234388
370
     9
100
AcDbVertex
100
AcDb2dVertex
 10
80.71685877407471
 20
-121.2871871919004
 30
0.0
  0
SEQEND
  5
BC
330
B9
100
AcDbEntity
  8
_U+30EC_U+30A4_U+30E4_U+30FC 1
 62
   179
420
  2234388
370
     9
  0
POLYLINE
  5
BD
330
1F
100
AcDbEntity
  8
_U+30EC_U+30A4_U+30E4_U+30FC 1
 62
   179
420
  2234388
370
     9
100
AcDb2dPolyline
 66
     1
 10
0.0
 20
0.0
 30
0.0
  0
VERTEX
  5
BE
330
BD
100
AcDbEntity
  8
_U+30EC_U+30A4_U+30E4_U+30FC 1
 62
   179
420
  2234388
370
     9
100
AcDbVertex
100
AcDb2dVertex
 10
92.7171590234771
 20
-123.7473183023966
 30
0.0
  0
VERTEX
  5
BF
330
BD
100
AcDbEntity
  8
_U+30EC_U+30A4_U+30E4_U+30FC 1
 62
   179
420
  2234388
370
     9
100
AcDbVertex
100
AcDb2dVertex
 10
92.7171590234771
 20
-120.2874149699282
 30
0.0
  0
SEQEND
  5
C0
330
BD
100
AcDbEntity
  8
_U+30EC_U+30A4_U+30E4_U+30FC 1
 62
   179
420
  2234388
370
     9
  0
POLYLINE
  5
C1
330
1F
100
AcDbEntity
  8
_U+30EC_U+30A4_U+30E4_U+30FC 1
 62
   179
420
  2234388
370
     9
100
AcDb2dPolyline
 66
     1
 10
0.0
 20
0.0
 30
0.0
  0
VERTEX
  5
C2
330
C1
100
AcDbEntity
  8
_U+30EC_U+30A4_U+30E4_U+30FC 1
 62
   179
420
  2234388
370
     9
100
AcDbVertex
100
AcDb2dVertex
 10
80.71685877407471
 20
-123.7473183023966
 30
0.0
  0
VERTEX
  5
C3
330
C1
100
AcDbEntity
  8
_U+30EC_U+30A4_U+30E4_U+30FC 1
 62
   179
420
  2234388
370
     9
100
AcDbVertex
100
AcDb2dVertex
 10
80.71685877407471
 20
-120.2874149699282
 30
0.0
  0
SEQEND
  5
C4
330
C1
100
AcDbEntity
  8
_U+30EC_U+30A4_U+30E4_U+30FC 1
 62
   179
420
  2234388
370
     9
  0
INSERT
  5
C6
330
1F
100
AcDbEntity
  8
_U+30EC_U+30A4_U+30E4_U+30FC 1
100
AcDbBlockReference
  2
block 4
 10
0.0
 20
0.0
 30
0.0
  0
POLYLINE
  5
CD
330
1F
100
AcDbEntity
  8
_U+30EC_U+30A4_U+30E4_U+30FC 1
 62
   179
420
  2234388
370
     9
100
AcDb2dPolyline
 66
     1
 10
0.0
 20
0.0
 30
0.0
  0
VERTEX
  5
CE
330
CD
100
AcDbEntity
  8
_U+30EC_U+30A4_U+30E4_U+30FC 1
 62
   179
420
  2234388
370
     9
100
AcDbVertex
100
AcDb2dVertex
 10
76.7170997094504
 20
-132.7870724668033
 30
0.0
  0
VERTEX
  5
CF
330
CD
100
AcDbEntity
  8
_U+30EC_U+30A4_U+30E4_U+30FC 1
 62
   179
420
  2234388
370
     9
100
AcDbVertex
100
AcDb2dVertex
 10
76.7170997094504
 20
-136.5573849658607
 30
0.0
  0
SEQEND
  5
D0
330
CD
100
AcDbEntity
  8
_U+30EC_U+30A4_U+30E4_U+30FC 1
 62
   179
420
  2234388
370
     9
  0
POLYLINE
  5
D1
330
1F
100
AcDbEntity
  8
_U+30EC_U+30A4_U+30E4_U+30FC 1
 62
   179
420
  2234388
370
     9
100
AcDb2dPolyline
 66
     1
 10
0.0
 20
0.0
 30
0.0
  0
VERTEX
  5
D2
330
D1
100
AcDbEntity
  8
_U+30EC_U+30A4_U+30E4_U+30FC 1
 62
   179
420
  2234388
370
     9
100
AcDbVertex
100
AcDb2dVertex
 10
76.7170997094504
 20
-131.7873002448308
 30
0.0
  0
VERTEX
  5
D3
330
D1
100
AcDbEntity
  8
_U+30EC_U+30A4_U+30E4_U+30FC 1
 62
   179
420
  2234388
370
     9
100
AcDbVertex
100
AcDb2dVertex
 10
76.7170997094504
 20
-132.7870724668033
 30
0.0
  0
SEQEND
  5
D4
330
D1
100
AcDbEntity
  8
_U+30EC_U+30A4_U+30E4_U+30FC 1
 62
   179
420
  2234388
370
     9
  0
POLYLINE
  5
D5
330
1F
100
AcDbEntity
  8
_U+30EC_U+30A4_U+30E4_U+30FC 1
 62
   179
420
  2234388
370
     9
100
AcDb2dPolyline
 66
     1
 10
0.0
 20
0.0
 30
0.0
  0
VERTEX
  5
D6
330
D5
100
AcDbEntity
  8
_U+30EC_U+30A4_U+30E4_U+30FC 1
 62
   179
420
  2234388
370
     9
100
AcDbVertex
100
AcDb2dVertex
 10
78.17714106109052
 20
-132.7870724668033
 30
0.0
  0
VERTEX
  5
D7
330
D5
100
AcDbEntity
  8
_U+30EC_U+30A4_U+30E4_U+30FC 1
 62
   179
420
  2234388
370
     9
100
AcDbVertex
100
AcDb2dVertex
 10
75.71701001274259
 20
-132.7870724668033
 30
0.0
  0
SEQEND
  5
D8
330
D5
100
AcDbEntity
  8
_U+30EC_U+30A4_U+30E4_U+30FC 1
 62
   179
420
  2234388
370
     9
  0
INSERT
  5
DA
330
1F
100
AcDbEntity
  8
_U+30EC_U+30A4_U+30E4_U+30FC 1
100
AcDbBlockReference
  2
block 5
 10
0.0
 20
0.0
 30
0.0
  0
POLYLINE
  5
DF
330
1F
100
AcDbEntity
  8
_U+30EC_U+30A4_U+30E4_U+30FC 1
 62
   179
420
  2234388
370
     9
100
AcDb2dPolyline
 66
     1
 10
0.0
 20
0.0
 30
0.0
  0
VERTEX
  5
E0
330
DF
100
AcDbEntity
  8
_U+30EC_U+30A4_U+30E4_U+30FC 1
 62
   179
420
  2234388
370
     9
100
AcDbVertex
100
AcDb2dVertex
 10
96.71691808810141
 20
-128.0870846902005
 30
0.0
  0
VERTEX
  5
E1
330
DF
100
AcDbEntity
  8
_U+30EC_U+30A4_U+30E4_U+30FC 1
 62
   179
420
  2234388
370
     9
100
AcDbVertex
100
AcDb2dVertex
 10
103.7166666407375
 20
-128.0870846902005
 30
0.0
  0
SEQEND
  5
E2
330
DF
100
AcDbEntity
  8
_U+30EC_U+30A4_U+30E4_U+30FC 1
 62
   179
420
  2234388
370
     9
  0
POLYLINE
  5
E3
330
1F
100
AcDbEntity
  8
_U+30EC_U+30A4_U+30E4_U+30FC 1
 62
   179
420
  2234388
370
     9
100
AcDb2dPolyline
 66
     1
 10
0.0
 20
0.0
 30
0.0
  0
VERTEX
  5
E4
330
E3
100
AcDbEntity
  8
_U+30EC_U+30A4_U+30E4_U+30FC 1
 62
   179
420
  2234388
370
     9
100
AcDbVertex
100
AcDb2dVertex
 10
96.71691808810141
 20
-129.2475824676882
 30
0.0
  0
VERTEX
  5
E5
330
E3
100
AcDbEntity
  8
_U+30EC_U+30A4_U+30E4_U+30FC 1
 62
   179
420
  2234388
370
     9
100
AcDbVertex
100
AcDb2dVertex
 10
96.71691808810141
 20
-127.0873477460058
 30
0.0
  0
SEQEND
  5
E6
330
E3
100
AcDbEntity
  8
_U+30EC_U+30A4_U+30E4_U+30FC 1
 62
   179
420
  2234388
370
     9
  0
POLYLINE
  5
E7
330
1F
100
AcDbEntity
  8
_U+30EC_U+30A4_U+30E4_U+30FC 1
 62
   179
420
  2234388
370
     9
100
AcDb2dPolyline
 66
     1
 10
0.0
 20
0.0
 30
0.0
  0
VERTEX
  5
E8
330
E7
100
AcDbEntity
  8
_U+30EC_U+30A4_U+30E4_U+30FC 1
 62
   179
420
  2234388
370
     9
100
AcDbVertex
100
AcDb2dVertex
 10
103.7166666407375
 20
-130.2473546896601
 30
0.0
  0
VERTEX
  5
E9
330
E7
100
AcDbEntity
  8
_U+30EC_U+30A4_U+30E4_U+30FC 1
 62
   179
420
  2234388
370
     9
100
AcDbVertex
100
AcDb2dVertex
 10
103.7166666407375
 20
-127.0873477460058
 30
0.0
  0
SEQEND
  5
EA
330
E7
100
AcDbEntity
  8
_U+30EC_U+30A4_U+30E4_U+30FC 1
 62
   179
420
  2234388
370
     9
  0
INSERT
  5
EC
330
1F
100
AcDbEntity
  8
_U+30EC_U+30A4_U+30E4_U+30FC 1
100
AcDbBlockReference
  2
block 6
 10
0.0
 20
0.0
 30
0.0
  0
POLYLINE
  5
F1
330
1F
100
AcDbEntity
  8
_U+30EC_U+30A4_U+30E4_U+30FC 1
 62
   179
420
  2234388
370
     9
100
AcDb2dPolyline
 66
     1
 10
0.0
 20
0.0
 30
0.0
  0
VERTEX
  5
F2
330
F1
100
AcDbEntity
  8
_U+30EC_U+30A4_U+30E4_U+30FC 1
 62
   179
420
  2234388
370
     9
100
AcDbVertex
100
AcDb2dVertex
 10
76.7170997094504
 20
-126.2873888573169
 30
0.0
  0
VERTEX
  5
F3
330
F1
100
AcDbEntity
  8
_U+30EC_U+30A4_U+30E4_U+30FC 1
 62
   179
420
  2234388
370
     9
100
AcDbVertex
100
AcDb2dVertex
 10
76.7170997094504
 20
-131.7873002448308
 30
0.0
  0
SEQEND
  5
F4
330
F1
100
AcDbEntity
  8
_U+30EC_U+30A4_U+30E4_U+30FC 1
 62
   179
420
  2234388
370
     9
  0
POLYLINE
  5
F5
330
1F
100
AcDbEntity
  8
_U+30EC_U+30A4_U+30E4_U+30FC 1
 62
   179
420
  2234388
370
     9
100
AcDb2dPolyline
 66
     1
 10
0.0
 20
0.0
 30
0.0
  0
VERTEX
  5
F6
330
F5
100
AcDbEntity
  8
_U+30EC_U+30A4_U+30E4_U+30FC 1
 62
   179
420
  2234388
370
     9
100
AcDbVertex
100
AcDb2dVertex
 10
78.17714106109052
 20
-126.2873888573169
 30
0.0
  0
VERTEX
  5
F7
330
F5
100
AcDbEntity
  8
_U+30EC_U+30A4_U+30E4_U+30FC 1
 62
   179
420
  2234388
370
     9
100
AcDbVertex
100
AcDb2dVertex
 10
75.71701001274259
 20
-126.2873888573169
 30
0.0
  0
SEQEND
  5
F8
330
F5
100
AcDbEntity
  8
_U+30EC_U+30A4_U+30E4_U+30FC 1
 62
   179
420
  2234388
370
     9
  0
POLYLINE
  5
F9
330
1F
100
AcDbEntity
  8
_U+30EC_U+30A4_U+30E4_U+30FC 1
 62
   179
420
  2234388
370
     9
100
AcDb2dPolyline
 66
     1
 10
0.0
 20
0.0
 30
0.0
  0
VERTEX
  5
FA
330
F9
100
AcDbEntity
  8
_U+30EC_U+30A4_U+30E4_U+30FC 1
 62
   179
420
  2234388
370
     9
100
AcDbVertex
100
AcDb2dVertex
 10
78.54092549625406
 20
-131.7873002448308
 30
0.0
  0
VERTEX
  5
FB
330
F9
100
AcDbEntity
  8
_U+30EC_U+30A4_U+30E4_U+30FC 1
 62
   179
420
  2234388
370
     9
100
AcDbVertex
100
AcDb2dVertex
 10
75.71701001274259
 20
-131.7873002448308
 30
0.0
  0
SEQEND
  5
FC
330
F9
100
AcDbEntity
  8
_U+30EC_U+30A4_U+30E4_U+30FC 1
 62
   179
420
  2234388
370
     9
  0
INSERT
  5
FE
330
1F
100
AcDbEntity
  8
_U+30EC_U+30A4_U+30E4_U+30FC 1
100
AcDbBlockReference
  2
block 7
 10
0.0
 20
0.0
 30
0.0
  0
ENDSEC
  0
SECTION
  2
OBJECTS
  0
DICTIONARY
  5
C
330
0
100
AcDbDictionary
281
     1
  3
ACAD_GROUP
350
D
  3
ACAD_LAYOUT
350
1A
  3
ACAD_MATERIAL
350
3B
  3
ACAD_MLEADERSTYLE
350
10E
  3
ACAD_MLINESTYLE
350
17
  3
ACAD_PLOTSETTINGS
350
19
  3
ACAD_PLOTSTYLENAME
350
E
  3
ACAD_TABLESTYLE
350
10D
  3
ACAD_VISUALSTYLE
350
2A
  0
SUN
  5
3F
330
29
100
AcDbSun
 90
        1
290
     0
 63
     7
421
 16777215
 40
1.0
291
     1
 91
  2455826
 92
 54000000
292
     0
 70
     2
 71
   256
280
     1
  0
DICTIONARY
  5
D
102
{ACAD_REACTORS
330
C
102
}
330
C
100
AcDbDictionary
281
     1
  0
DICTIONARY
  5
1A
102
{ACAD_REACTORS
330
C
102
}
330
C
100
AcDbDictionary
281
     1
  3
Layout1
350
1E
  3
Layout2
350
26
  3
Model
350
22
  0
DICTIONARY
  5
3B
102
{ACAD_REACTORS
330
C
102
}
330
C
100
AcDbDictionary
281
     1
  3
ByBlock
350
3D
  3
ByLayer
350
3C
  3
Global
350
3E
  0
DICTIONARY
  5
10E
102
{ACAD_REACTORS
330
C
102
}
330
C
100
AcDbDictionary
281
     1
  0
DICTIONARY
  5
17
102
{ACAD_REACTORS
330
C
102
}
330
C
100
AcDbDictionary
281
     1
  3
Standard
350
18
  0
DICTIONARY
  5
19
102
{ACAD_REACTORS
330
C
102
}
330
C
100
AcDbDictionary
281
     1
  0
ACDBDICTIONARYWDFLT
  5
E
102
{ACAD_REACTORS
330
C
102
}
330
C
100
AcDbDictionary
281
     1
  3
Normal
350
F
100
AcDbDictionaryWithDefault
340
F
  0
DICTIONARY
  5
10D
102
{ACAD_REACTORS
330
C
102
}
330
C
100
AcDbDictionary
281
     1
  0
DICTIONARY
  5
2A
102
{ACAD_REACTORS
330
C
102
}
330
C
100
AcDbDictionary
281
     1
  3
2dWireframe
350
2F
  3
3D Hidden
350
31
  3
3dWireframe
350
30
  3
Basic
350
32
  3
Brighten
350
36
  3
ColorChange
350
3A
  3
Conceptual
350
34
  3
Dim
350
35
  3
Facepattern
350
39
  3
Flat
350
2B
  3
FlatWithEdges
350
2C
  3
Gouraud
350
2D
  3
GouraudWithEdges
350
2E
  3
Linepattern
350
38
  3
Realistic
350
33
  3
Thicken
350
37
  0
LAYOUT
  5
1E
102
{ACAD_REACTORS
330
1A
102
}
330
1A
100
AcDbPlotSettings
  1

  2
none_device
  4

  6

 40
0.0
 41
0.0
 42
0.0
 43
0.0
 44
0.0
 45
0.0
 46
0.0
 47
0.0
 48
0.0
 49
0.0
140
0.0
141
0.0
142
1.0
143
1.0
 70
   688
 72
     0
 73
     0
 74
     5
  7

 75
    16
 76
     0
 77
     2
 78
   300
147
1.0
148
0.0
149
0.0
100
AcDbLayout
  1
Layout1
 70
     1
 71
     1
 10
0.0
 20
0.0
 11
12.0
 21
9.0
 12
0.0
 22
0.0
 32
0.0
 14
1.000000000000000E+20
 24
1.000000000000000E+20
 34
1.000000000000000E+20
 15
-1.000000000000000E+20
 25
-1.000000000000000E+20
 35
-1.000000000000000E+20
146
0.0
 13
0.0
 23
0.0
 33
0.0
 16
1.0
 26
0.0
 36
0.0
 17
0.0
 27
1.0
 37
0.0
 76
     0
330
1B
  0
LAYOUT
  5
26
102
{ACAD_REACTORS
330
1A
102
}
330
1A
100
AcDbPlotSettings
  1

  2
none_device
  4

  6

 40
0.0
 41
0.0
 42
0.0
 43
0.0
 44
0.0
 45
0.0
 46
0.0
 47
0.0
 48
0.0
 49
0.0
140
0.0
141
0.0
142
1.0
143
1.0
 70
   688
 72
     0
 73
     0
 74
     5
  7

 75
    16
 76
     0
 77
     2
 78
   300
147
1.0
148
0.0
149
0.0
100
AcDbLayout
  1
Layout2
 70
     1
 71
     2
 10
0.0
 20
0.0
 11
0.0
 21
0.0
 12
0.0
 22
0.0
 32
0.0
 14
0.0
 24
0.0
 34
0.0
 15
0.0
 25
0.0
 35
0.0
146
0.0
 13
0.0
 23
0.0
 33
0.0
 16
1.0
 26
0.0
 36
0.0
 17
0.0
 27
1.0
 37
0.0
 76
     0
330
23
  0
LAYOUT
  5
22
102
{ACAD_REACTORS
330
1A
102
}
330
1A
100
AcDbPlotSettings
  1

  2
none_device
  4

  6

 40
0.0
 41
0.0
 42
0.0
 43
0.0
 44
0.0
 45
0.0
 46
0.0
 47
0.0
 48
0.0
 49
0.0
140
0.0
141
0.0
142
1.0
143
1.0
 70
  1712
 72
     0
 73
     0
 74
     0
  7

 75
     0
 76
     0
 77
     2
 78
   300
147
1.0
148
0.0
149
0.0
100
AcDbLayout
  1
Model
 70
     1
 71
     0
 10
0.0
 20
0.0
 11
12.0
 21
9.0
 12
0.0
 22
0.0
 32
0.0
 14
1.000000000000000E+20
 24
1.000000000000000E+20
 34
1.000000000000000E+20
 15
-1.000000000000000E+20
 25
-1.000000000000000E+20
 35
-1.000000000000000E+20
146
0.0
 13
0.0
 23
0.0
 33
0.0
 16
1.0
 26
0.0
 36
0.0
 17
0.0
 27
1.0
 37
0.0
 76
     0
330
1F
331
29
  0
MATERIAL
  5
3D
102
{ACAD_REACTORS
330
3B
102
}
330
3B
100
AcDbMaterial
  1
ByBlock
 72
     1
 94
      127
  0
MATERIAL
  5
3C
102
{ACAD_REACTORS
330
3B
102
}
330
3B
100
AcDbMaterial
  1
ByLayer
 72
     1
 94
      127
  0
MATERIAL
  5
3E
102
{ACAD_REACTORS
330
3B
102
}
330
3B
100
AcDbMaterial
  1
Global
 72
     1
 94
      127
  0
MLINESTYLE
  5
18
102
{ACAD_REACTORS
330
17
102
}
330
17
100
AcDbMlineStyle
  2
Standard
 70
     0
  3

 62
   256
 51
90.0
 52
90.0
 71
     2
 49
0.5
 62
   256
  6
BYLAYER
 49
-0.5
 62
   256
  6
BYLAYER
  0
ACDBPLACEHOLDER
  5
F
102
{ACAD_REACTORS
330
E
102
}
330
E
  0
VISUALSTYLE
  5
2F
102
{ACAD_REACTORS
330
2A
102
}
330
2A
100
AcDbVisualStyle
  2
2dWireframe
 70
     4
177
     2
291
     0
 71
     0
176
     1
 72
     2
176
     1
 73
     0
176
     1
 90
        0
176
     1
 40
-0.6
176
     1
 41
-30.0
176
     1
 62
     5
 63
     7
421
 16777215
176
     1
 74
     1
176
     1
 91
        4
176
     1
 64
     7
176
     1
 65
   257
176
     1
 75
     1
176
     1
175
     1
176
     1
 42
1.0
176
     1
 92
        0
176
     1
 66
   257
176
     1
 43
1.0
176
     1
 76
     1
176
     1
 77
     6
176
     1
 78
     2
176
     1
 67
     7
176
     1
 79
     5
176
     1
170
     0
176
     1
171
     0
176
     1
290
     0
176
     1
 93
        1
176
     1
 44
0.0
176
     1
173
     0
176
     1
  0
VISUALSTYLE
  5
31
102
{ACAD_REACTORS
330
2A
102
}
330
2A
100
AcDbVisualStyle
  2
3D Hidden
 70
     6
177
     2
291
     0
 71
     1
176
     1
 72
     2
176
     1
 73
     2
176
     1
 90
        0
176
     1
 40
-0.6
176
     1
 41
-30.0
176
     1
 62
     5
 63
     7
421
 16777215
176
     1
 74
     2
176
     1
 91
        2
176
     1
 64
     7
176
     1
 65
   257
176
     1
 75
     2
176
     1
175
     1
176
     1
 42
40.0
176
     1
 92
        0
176
     1
 66
   257
176
     1
 43
1.0
176
     1
 76
     1
176
     1
 77
     6
176
     1
 78
     2
176
     1
 67
     7
176
     1
 79
     3
176
     1
170
     0
176
     1
171
     0
176
     1
290
     0
176
     1
 93
        1
176
     1
 44
0.0
176
     1
173
     0
176
     1
  0
VISUALSTYLE
  5
30
102
{ACAD_REACTORS
330
2A
102
}
330
2A
100
AcDbVisualStyle
  2
3dWireframe
 70
     5
177
     2
291
     0
 71
     0
176
     1
 72
     2
176
     1
 73
     0
176
     1
 90
        0
176
     1
 40
-0.6
176
     1
 41
-30.0
176
     1
 62
     5
 63
     7
421
 16777215
176
     1
 74
     1
176
     1
 91
        4
176
     1
 64
     7
176
     1
 65
   257
176
     1
 75
     1
176
     1
175
     1
176
     1
 42
1.0
176
     1
 92
        0
176
     1
 66
   257
176
     1
 43
1.0
176
     1
 76
     1
176
     1
 77
     6
176
     1
 78
     2
176
     1
 67
     7
176
     1
 79
     5
176
     1
170
     0
176
     1
171
     0
176
     1
290
     0
176
     1
 93
        1
176
     1
 44
0.0
176
     1
173
     0
176
     1
  0
VISUALSTYLE
  5
32
102
{ACAD_REACTORS
330
2A
102
}
330
2A
100
AcDbVisualStyle
  2
Basic
 70
     7
177
     2
291
     1
 71
     1
176
     1
 72
     0
176
     1
 73
     1
176
     1
 90
        0
176
     1
 40
-0.6
176
     1
 41
-30.0
176
     1
 62
     5
 63
     7
421
 16777215
176
     1
 74
     0
176
     1
 91
        4
176
     1
 64
     7
176
     1
 65
   257
176
     1
 75
     1
176
     1
175
     1
176
     1
 42
1.0
176
     1
 92
        8
176
     1
 66
     7
176
     1
 43
1.0
176
     1
 76
     1
176
     1
 77
     6
176
     1
 78
     2
176
     1
 67
     7
176
     1
 79
     5
176
     1
170
     0
176
     1
171
     0
176
     1
290
     0
176
     1
 93
        1
176
     1
 44
0.0
176
     1
173
     0
176
     1
  0
VISUALSTYLE
  5
36
102
{ACAD_REACTORS
330
2A
102
}
330
2A
100
AcDbVisualStyle
  2
Brighten
 70
    12
177
     2
291
     1
 71
     2
176
     1
 72
     2
176
     1
 73
     0
176
     1
 90
        0
176
     1
 40
-0.6
176
     1
 41
-30.0
176
     1
 62
     5
 63
     7
421
 16777215
176
     1
 74
     1
176
     1
 91
        4
176
     1
 64
     7
176
     1
 65
   257
176
     1
 75
     1
176
     1
175
     1
176
     1
 42
1.0
176
     1
 92
        8
176
     1
 66
     7
176
     1
 43
1.0
176
     1
 76
     1
176
     1
 77
     6
176
     1
 78
     2
176
     1
 67
     7
176
     1
 79
     5
176
     1
170
     0
176
     1
171
     0
176
     1
290
     0
176
     1
 93
        1
176
     1
 44
50.0
176
     1
173
     0
176
     1
  0
VISUALSTYLE
  5
3A
102
{ACAD_REACTORS
330
2A
102
}
330
2A
100
AcDbVisualStyle
  2
ColorChange
 70
    16
177
     2
291
     1
 71
     2
176
     1
 72
     2
176
     1
 73
     3
176
     1
 90
        0
176
     1
 40
-0.6
176
     1
 41
-30.0
176
     1
 62
     5
 63
     8
421
  8421504
176
     1
 74
     1
176
     1
 91
        4
176
     1
 64
     7
176
     1
 65
   257
176
     1
 75
     1
176
     1
175
     1
176
     1
 42
1.0
176
     1
 92
        8
176
     1
 66
     8
424
  8421504
176
     1
 43
1.0
176
     1
 76
     1
176
     1
 77
     6
176
     1
 78
     2
176
     1
 67
     7
176
     1
 79
     5
176
     1
170
     0
176
     1
171
     0
176
     1
290
     0
176
     1
 93
        1
176
     1
 44
0.0
176
     1
173
     0
176
     1
  0
VISUALSTYLE
  5
34
102
{ACAD_REACTORS
330
2A
102
}
330
2A
100
AcDbVisualStyle
  2
Conceptual
 70
     9
177
     2
291
     0
 71
     3
176
     1
 72
     2
176
     1
 73
     0
176
     1
 90
        0
176
     1
 40
-0.6
176
     1
 41
-30.0
176
     1
 62
     5
 63
     7
421
 16777215
176
     1
 74
     2
176
     1
 91
        2
176
     1
 64
     7
176
     1
 65
   257
176
     1
 75
     1
176
     1
175
     1
176
     1
 42
40.0
176
     1
 92
        8
176
     1
 66
     7
176
     1
 43
1.0
176
     1
 76
     1
176
     1
 77
     6
176
     1
 78
     2
176
     1
 67
     7
176
     1
 79
     3
176
     1
170
     0
176
     1
171
     0
176
     1
290
     0
176
     1
 93
        1
176
     1
 44
0.0
176
     1
173
     0
176
     1
  0
VISUALSTYLE
  5
35
102
{ACAD_REACTORS
330
2A
102
}
330
2A
100
AcDbVisualStyle
  2
Dim
 70
    11
177
     2
291
     1
 71
     2
176
     1
 72
     2
176
     1
 73
     0
176
     1
 90
        0
176
     1
 40
-0.6
176
     1
 41
-30.0
176
     1
 62
     5
 63
     7
421
 16777215
176
     1
 74
     1
176
     1
 91
        4
176
     1
 64
     7
176
     1
 65
   257
176
     1
 75
     1
176
     1
175
     1
176
     1
 42
1.0
176
     1
 92
        8
176
     1
 66
     7
176
     1
 43
1.0
176
     1
 76
     1
176
     1
 77
     6
176
     1
 78
     2
176
     1
 67
     7
176
     1
 79
     5
176
     1
170
     0
176
     1
171
     0
176
     1
290
     0
176
     1
 93
        1
176
     1
 44
-50.0
176
     1
173
     0
176
     1
  0
VISUALSTYLE
  5
39
102
{ACAD_REACTORS
330
2A
102
}
330
2A
100
AcDbVisualStyle
  2
Facepattern
 70
    15
177
     2
291
     1
 71
     2
176
     1
 72
     2
176
     1
 73
     0
176
     1
 90
        0
176
     1
 40
-0.6
176
     1
 41
-30.0
176
     1
 62
     5
 63
     7
421
 16777215
176
     1
 74
     1
176
     1
 91
        4
176
     1
 64
     7
176
     1
 65
   257
176
     1
 75
     1
176
     1
175
     1
176
     1
 42
1.0
176
     1
 92
        8
176
     1
 66
     7
176
     1
 43
1.0
176
     1
 76
     1
176
     1
 77
     6
176
     1
 78
     2
176
     1
 67
     7
176
     1
 79
     5
176
     1
170
     0
176
     1
171
     0
176
     1
290
     0
176
     1
 93
        1
176
     1
 44
0.0
176
     1
173
     0
176
     1
  0
VISUALSTYLE
  5
2B
102
{ACAD_REACTORS
330
2A
102
}
330
2A
100
AcDbVisualStyle
  2
Flat
 70
     0
177
     2
291
     1
 71
     2
176
     1
 72
     1
176
     1
 73
     1
176
     1
 90
        2
176
     1
 40
-0.6
176
     1
 41
30.0
176
     1
 62
     5
 63
     7
421
 16777215
176
     1
 74
     0
176
     1
 91
        4
176
     1
 64
     7
176
     1
 65
   257
176
     1
 75
     1
176
     1
175
     1
176
     1
 42
1.0
176
     1
 92
        8
176
     1
 66
     7
176
     1
 43
1.0
176
     1
 76
     1
176
     1
 77
     6
176
     1
 78
     2
176
     1
 67
     7
176
     1
 79
     5
176
     1
170
     0
176
     1
171
     0
176
     1
290
     0
176
     1
 93
       13
176
     1
 44
0.0
176
     1
173
     0
176
     1
  0
VISUALSTYLE
  5
2C
102
{ACAD_REACTORS
330
2A
102
}
330
2A
100
AcDbVisualStyle
  2
FlatWithEdges
 70
     1
177
     2
291
     1
 71
     2
176
     1
 72
     1
176
     1
 73
     1
176
     1
 90
        2
176
     1
 40
-0.6
176
     1
 41
30.0
176
     1
 62
     5
 63
     7
421
 16777215
176
     1
 74
     1
176
     1
 91
        4
176
     1
 64
     7
176
     1
 65
   257
176
     1
 75
     1
176
     1
175
     1
176
     1
 42
1.0
176
     1
 92
        0
176
     1
 66
   257
176
     1
 43
1.0
176
     1
 76
     1
176
     1
 77
     6
176
     1
 78
     2
176
     1
 67
     7
176
     1
 79
     5
176
     1
170
     0
176
     1
171
     0
176
     1
290
     0
176
     1
 93
       13
176
     1
 44
0.0
176
     1
173
     0
176
     1
  0
VISUALSTYLE
  5
2D
102
{ACAD_REACTORS
330
2A
102
}
330
2A
100
AcDbVisualStyle
  2
Gouraud
 70
     2
177
     2
291
     1
 71
     2
176
     1
 72
     2
176
     1
 73
     1
176
     1
 90
        2
176
     1
 40
-0.6
176
     1
 41
30.0
176
     1
 62
     5
 63
     7
421
 16777215
176
     1
 74
     0
176
     1
 91
        4
176
     1
 64
     7
176
     1
 65
   257
176
     1
 75
     1
176
     1
175
     1
176
     1
 42
1.0
176
     1
 92
        0
176
     1
 66
     7
176
     1
 43
1.0
176
     1
 76
     1
176
     1
 77
     6
176
     1
 78
     2
176
     1
 67
     7
176
     1
 79
     5
176
     1
170
     0
176
     1
171
     0
176
     1
290
     0
176
     1
 93
       13
176
     1
 44
0.0
176
     1
173
     0
176
     1
  0
VISUALSTYLE
  5
2E
102
{ACAD_REACTORS
330
2A
102
}
330
2A
100
AcDbVisualStyle
  2
GouraudWithEdges
 70
     3
177
     2
291
     1
 71
     2
176
     1
 72
     2
176
     1
 73
     1
176
     1
 90
        2
176
     1
 40
-0.6
176
     1
 41
30.0
176
     1
 62
     5
 63
     7
421
 16777215
176
     1
 74
     1
176
     1
 91
        4
176
     1
 64
     7
176
     1
 65
   257
176
     1
 75
     1
176
     1
175
     1
176
     1
 42
1.0
176
     1
 92
        0
176
     1
 66
   257
176
     1
 43
1.0
176
     1
 76
     1
176
     1
 77
     6
176
     1
 78
     2
176
     1
 67
     7
176
     1
 79
     5
176
     1
170
     0
176
     1
171
     0
176
     1
290
     0
176
     1
 93
       13
176
     1
 44
0.0
176
     1
173
     0
176
     1
  0
VISUALSTYLE
  5
38
102
{ACAD_REACTORS
330
2A
102
}
330
2A
100
AcDbVisualStyle
  2
Linepattern
 70
    14
177
     2
291
     1
 71
     2
176
     1
 72
     2
176
     1
 73
     0
176
     1
 90
        0
176
     1
 40
-0.6
176
     1
 41
-30.0
176
     1
 62
     5
 63
     7
421
 16777215
176
     1
 74
     1
176
     1
 91
        4
176
     1
 64
     7
176
     1
 65
   257
176
     1
 75
     7
176
     1
175
     7
176
     1
 42
1.0
176
     1
 92
        8
176
     1
 66
     7
176
     1
 43
1.0
176
     1
 76
     1
176
     1
 77
     6
176
     1
 78
     2
176
     1
 67
     7
176
     1
 79
     5
176
     1
170
     0
176
     1
171
     0
176
     1
290
     0
176
     1
 93
        1
176
     1
 44
0.0
176
     1
173
     0
176
     1
  0
VISUALSTYLE
  5
33
102
{ACAD_REACTORS
330
2A
102
}
330
2A
100
AcDbVisualStyle
  2
Realistic
 70
     8
177
     2
291
     0
 71
     2
176
     1
 72
     2
176
     1
 73
     0
176
     1
 90
        0
176
     1
 40
-0.6
176
     1
 41
-30.0
176
     1
 62
     5
 63
     7
421
 16777215
176
     1
 74
     1
176
     1
 91
        0
176
     1
 64
     7
176
     1
 65
   257
176
     1
 75
     1
176
     1
175
     1
176
     1
 42
1.0
176
     1
 92
        8
176
     1
 66
     8
424
  7895160
176
     1
 43
1.0
176
     1
 76
     1
176
     1
 77
     6
176
     1
 78
     2
176
     1
 67
     7
176
     1
 79
     5
176
     1
170
     0
176
     1
171
     0
176
     1
290
     0
176
     1
 93
       13
176
     1
 44
0.0
176
     1
173
     0
176
     1
  0
VISUALSTYLE
  5
37
102
{ACAD_REACTORS
330
2A
102
}
330
2A
100
AcDbVisualStyle
  2
Thicken
 70
    13
177
     2
291
     1
 71
     2
176
     1
 72
     2
176
     1
 73
     0
176
     1
 90
        0
176
     1
 40
-0.6
176
     1
 41
-30.0
176
     1
 62
     5
 63
     7
421
 16777215
176
     1
 74
     1
176
     1
 91
        4
176
     1
 64
     7
176
     1
 65
   257
176
     1
 75
     1
176
     1
175
     1
176
     1
 42
1.0
176
     1
 92
       12
176
     1
 66
     7
176
     1
 43
1.0
176
     1
 76
     1
176
     1
 77
     6
176
     1
 78
     2
176
     1
 67
     7
176
     1
 79
     5
176
     1
170
     0
176
     1
171
     0
176
     1
290
     0
176
     1
 93
        1
176
     1
 44
0.0
176
     1
173
     0
176
     1
  0
ENDSEC
  0
EOF
