  0
SECTION
  2
HEADER
  9
$ACADVER
  1
AC1024
  9
$ACADMAINTVER
 70
     6
  9
$DWGCODEPAGE
  3
UNDEFINED
  9
$INSBASE
 10
0.0
 20
0.0
 30
0.0
  9
$EXTMIN
 10
1.000000000000000E+20
 20
1.000000000000000E+20
 30
1.000000000000000E+20
  9
$EXTMAX
 10
-1.000000000000000E+20
 20
-1.000000000000000E+20
 30
-1.000000000000000E+20
  9
$LIMMIN
 10
0.0
 20
0.0
  9
$LIMMAX
 10
12.0
 20
9.0
  9
$ORTHOMODE
 70
     0
  9
$REGENMODE
 70
     1
  9
$FILLMODE
 70
     1
  9
$QTEXTMODE
 70
     0
  9
$MIRRTEXT
 70
     1
  9
$LTSCALE
 40
1.0
  9
$ATTMODE
 70
     1
  9
$TEXTSIZE
 40
0.2
  9
$TRACEWID
 40
0.05
  9
$TEXTSTYLE
  7
Standard
  9
$CLAYER
  8
0
  9
$CELTYPE
  6
ByLayer
  9
$CECOLOR
 62
   256
  9
$CELTSCALE
 40
1.0
  9
$DISPSILH
 70
     0
  9
$DIMSCALE
 40
1.0
  9
$DIMASZ
 40
0.18
  9
$DIMEXO
 40
0.0625
  9
$DIMDLI
 40
0.38
  9
$DIMRND
 40
0.0
  9
$DIMDLE
 40
0.0
  9
$DIMEXE
 40
0.18
  9
$DIMTP
 40
0.0
  9
$DIMTM
 40
0.0
  9
$DIMTXT
 40
0.18
  9
$DIMCEN
 40
0.09
  9
$DIMTSZ
 40
0.0
  9
$DIMTOL
 70
     0
  9
$DIMLIM
 70
     0
  9
$DIMTIH
 70
     1
  9
$DIMTOH
 70
     1
  9
$DIMSE1
 70
     0
  9
$DIMSE2
 70
     0
  9
$DIMTAD
 70
     0
  9
$DIMZIN
 70
     0
  9
$DIMBLK
  1

  9
$DIMASO
 70
     1
  9
$DIMSHO
 70
     1
  9
$DIMPOST
  1

  9
$DIMAPOST
  1

  9
$DIMALT
 70
     0
  9
$DIMALTD
 70
     2
  9
$DIMALTF
 40
25.4
  9
$DIMLFAC
 40
1.0
  9
$DIMTOFL
 70
     0
  9
$DIMTVP
 40
0.0
  9
$DIMTIX
 70
     0
  9
$DIMSOXD
 70
     0
  9
$DIMSAH
 70
     0
  9
$DIMBLK1
  1

  9
$DIMBLK2
  1

  9
$DIMSTYLE
  2
Standard
  9
$DIMCLRD
 70
     0
  9
$DIMCLRE
 70
     0
  9
$DIMCLRT
 70
     0
  9
$DIMTFAC
 40
1.0
  9
$DIMGAP
 40
0.09
  9
$DIMJUST
 70
     0
  9
$DIMSD1
 70
     0
  9
$DIMSD2
 70
     0
  9
$DIMTOLJ
 70
     1
  9
$DIMTZIN
 70
     0
  9
$DIMALTZ
 70
     0
  9
$DIMALTTZ
 70
     0
  9
$DIMUPT
 70
     0
  9
$DIMDEC
 70
     4
  9
$DIMTDEC
 70
     4
  9
$DIMALTU
 70
     2
  9
$DIMALTTD
 70
     2
  9
$DIMTXSTY
  7
Standard
  9
$DIMAUNIT
 70
     0
  9
$DIMADEC
 70
     0
  9
$DIMALTRND
 40
0.0
  9
$DIMAZIN
 70
     0
  9
$DIMDSEP
 70
    46
  9
$DIMATFIT
 70
     3
  9
$DIMFRAC
 70
     0
  9
$DIMLDRBLK
  1

  9
$DIMLUNIT
 70
     2
  9
$DIMLWD
 70
    -2
  9
$DIMLWE
 70
    -2
  9
$DIMTMOVE
 70
     0
  9
$DIMFXL
 40
1.0
  9
$DIMFXLON
 70
     0
  9
$DIMJOGANG
 40
0.7853981633974483
  9
$DIMTFILL
 70
     0
  9
$DIMTFILLCLR
 70
     0
  9
$DIMARCSYM
 70
     0
  9
$DIMLTYPE
  6

  9
$DIMLTEX1
  6

  9
$DIMLTEX2
  6

  9
$DIMTXTDIRECTION
 70
     0
  9
$LUNITS
 70
     2
  9
$LUPREC
 70
     4
  9
$SKETCHINC
 40
0.1
  9
$FILLETRAD
 40
0.5
  9
$AUNITS
 70
     0
  9
$AUPREC
 70
     0
  9
$MENU
  1
.
  9
$ELEVATION
 40
0.0
  9
$PELEVATION
 40
0.0
  9
$THICKNESS
 40
0.0
  9
$LIMCHECK
 70
     0
  9
$CHAMFERA
 40
0.5
  9
$CHAMFERB
 40
0.5
  9
$CHAMFERC
 40
1.0
  9
$CHAMFERD
 40
0.0
  9
$SKPOLY
 70
     0
  9
$TDCREATE
 40
2457917.594479155
  9
$TDUCREATE
 40
2457917.219479166
  9
$TDUPDATE
 40
2457917.594502315
  9
$TDUUPDATE
 40
2457917.219502315
  9
$TDINDWG
 40
0.0000000116
  9
$TDUSRTIMER
 40
0.0000000116
  9
$USRTIMER
 70
     1
  9
$ANGBASE
 50
0.0
  9
$ANGDIR
 70
     0
  9
$PDMODE
 70
     0
  9
$PDSIZE
 40
0.0
  9
$PLINEWID
 40
0.0
  9
$SPLFRAME
 70
     0
  9
$SPLINETYPE
 70
     6
  9
$SPLINESEGS
 70
     8
  9
$HANDSEED
  5
107
  9
$SURFTAB1
 70
     6
  9
$SURFTAB2
 70
     6
  9
$SURFTYPE
 70
     6
  9
$SURFU
 70
     6
  9
$SURFV
 70
     6
  9
$UCSBASE
  2

  9
$UCSNAME
  2

  9
$UCSORG
 10
0.0
 20
0.0
 30
0.0
  9
$UCSXDIR
 10
1.0
 20
0.0
 30
0.0
  9
$UCSYDIR
 10
0.0
 20
1.0
 30
0.0
  9
$UCSORTHOREF
  2

  9
$UCSORTHOVIEW
 70
     0
  9
$UCSORGTOP
 10
0.0
 20
0.0
 30
0.0
  9
$UCSORGBOTTOM
 10
0.0
 20
0.0
 30
0.0
  9
$UCSORGLEFT
 10
0.0
 20
0.0
 30
0.0
  9
$UCSORGRIGHT
 10
0.0
 20
0.0
 30
0.0
  9
$UCSORGFRONT
 10
0.0
 20
0.0
 30
0.0
  9
$UCSORGBACK
 10
0.0
 20
0.0
 30
0.0
  9
$PUCSBASE
  2

  9
$PUCSNAME
  2

  9
$PUCSORG
 10
0.0
 20
0.0
 30
0.0
  9
$PUCSXDIR
 10
1.0
 20
0.0
 30
0.0
  9
$PUCSYDIR
 10
0.0
 20
1.0
 30
0.0
  9
$PUCSORTHOREF
  2

  9
$PUCSORTHOVIEW
 70
     0
  9
$PUCSORGTOP
 10
0.0
 20
0.0
 30
0.0
  9
$PUCSORGBOTTOM
 10
0.0
 20
0.0
 30
0.0
  9
$PUCSORGLEFT
 10
0.0
 20
0.0
 30
0.0
  9
$PUCSORGRIGHT
 10
0.0
 20
0.0
 30
0.0
  9
$PUCSORGFRONT
 10
0.0
 20
0.0
 30
0.0
  9
$PUCSORGBACK
 10
0.0
 20
0.0
 30
0.0
  9
$USERI1
 70
     0
  9
$USERI2
 70
     0
  9
$USERI3
 70
     0
  9
$USERI4
 70
     0
  9
$USERI5
 70
     0
  9
$USERR1
 40
0.0
  9
$USERR2
 40
0.0
  9
$USERR3
 40
0.0
  9
$USERR4
 40
0.0
  9
$USERR5
 40
0.0
  9
$WORLDVIEW
 70
     1
  9
$SHADEDGE
 70
     3
  9
$SHADEDIF
 70
    70
  9
$TILEMODE
 70
     1
  9
$MAXACTVP
 70
    64
  9
$PINSBASE
 10
0.0
 20
0.0
 30
0.0
  9
$PLIMCHECK
 70
     0
  9
$PEXTMIN
 10
1.000000000000000E+20
 20
1.000000000000000E+20
 30
1.000000000000000E+20
  9
$PEXTMAX
 10
-1.000000000000000E+20
 20
-1.000000000000000E+20
 30
-1.000000000000000E+20
  9
$PLIMMIN
 10
0.0
 20
0.0
  9
$PLIMMAX
 10
12.0
 20
9.0
  9
$UNITMODE
 70
     0
  9
$VISRETAIN
 70
     1
  9
$PLINEGEN
 70
     0
  9
$PSLTSCALE
 70
     1
  9
$TREEDEPTH
 70
  3020
  9
$CMLSTYLE
  2
Standard
  9
$CMLJUST
 70
     0
  9
$CMLSCALE
 40
1.0
  9
$PROXYGRAPHICS
 70
     1
  9
$MEASUREMENT
 70
     0
  9
$CELWEIGHT
370
    -1
  9
$ENDCAPS
280
     0
  9
$JOINSTYLE
280
     0
  9
$LWDISPLAY
290
     1
  9
$INSUNITS
 70
     1
  9
$HYPERLINKBASE
  1

  9
$STYLESHEET
  1

  9
$XEDIT
290
     1
  9
$CEPSNTYPE
380
     0
  9
$PSTYLEMODE
290
     1
  9
$FINGERPRINTGUID
  2
{E973EDA4-6D45-E0C7-3F6C-E5F850359F1C}
  9
$VERSIONGUID
  2
{FAEB1C32-E019-11D5-929B-00C0DF256EC4}
  9
$EXTNAMES
290
     1
  9
$PSVPSCALE
 40
0.0
  9
$OLESTARTUP
290
     0
  9
$SORTENTS
280
   127
  9
$INDEXCTL
280
     0
  9
$HIDETEXT
280
     1
  9
$XCLIPFRAME
280
     2
  9
$HALOGAP
280
     0
  9
$OBSCOLOR
 70
   257
  9
$OBSLTYPE
280
     0
  9
$INTERSECTIONDISPLAY
280
     0
  9
$INTERSECTIONCOLOR
 70
   257
  9
$DIMASSOC
280
     2
  9
$PROJECTNAME
  1

  9
$CAMERADISPLAY
290
     0
  9
$LENSLENGTH
 40
50.0
  9
$CAMERAHEIGHT
 40
0.0
  9
$STEPSPERSEC
 40
2.0
  9
$STEPSIZE
 40
6.0
  9
$3DDWFPREC
 40
2.0
  9
$PSOLWIDTH
 40
0.25
  9
$PSOLHEIGHT
 40
4.0
  9
$LOFTANG1
 40
1.570796326794897
  9
$LOFTANG2
 40
1.570796326794897
  9
$LOFTMAG1
 40
0.0
  9
$LOFTMAG2
 40
0.0
  9
$LOFTPARAM
 70
     7
  9
$LOFTNORMALS
280
     1
  9
$LATITUDE
 40
37.795
  9
$LONGITUDE
 40
-122.394
  9
$NORTHDIRECTION
 40
0.0
  9
$TIMEZONE
 70
 -8000
  9
$LIGHTGLYPHDISPLAY
280
     1
  9
$TILEMODELIGHTSYNCH
280
     1
  9
$CMATERIAL
347
3C
  9
$SOLIDHIST
280
     1
  9
$SHOWHIST
280
     1
  9
$DWFFRAME
280
     2
  9
$DGNFRAME
280
     2
  9
$REALWORLDSCALE
290
     1
  9
$INTERFERECOLOR
 62
   256
  9
$CSHADOW
280
     0
  9
$SHADOWPLANELOCATION
 40
0.0
  0
ENDSEC
  0
SECTION
  2
CLASSES
  0
CLASS
  1
ACDBDICTIONARYWDFLT
  2
AcDbDictionaryWithDefault
  3
ObjectDBX Classes
 90
        0
 91
        4
280
     0
281
     0
  0
CLASS
  1
VISUALSTYLE
  2
AcDbVisualStyle
  3
ObjectDBX Classes
 90
     4095
 91
        4
280
     0
281
     0
  0
CLASS
  1
MATERIAL
  2
AcDbMaterial
  3
ObjectDBX Classes
 90
     1153
 91
        4
280
     0
281
     0
  0
CLASS
  1
SUN
  2
AcDbSun
  3
SCENEOE
 90
     1024
 91
        4
280
     0
281
     0
  0
ENDSEC
  0
SECTION
  2
TABLES
  0
TABLE
  2
VPORT
  5
8
330
0
100
AcDbSymbolTable
 70
     1
  0
VPORT
  5
29
330
8
100
AcDbSymbolTableRecord
100
AcDbViewportTableRecord
  2
*Active
 70
     0
 10
0.0
 20
0.0
 11
1.0
 21
1.0
 12
0.0
 22
0.0
 13
0.0
 23
0.0
 14
0.5
 24
0.5
 15
0.5
 25
0.5
 16
0.0
 26
0.0
 36
1.0
 17
91.00082462281999
 27
-128.4993055234307
 37
0.0
 40
256.9986110468615
 41
0.7081814508812795
 42
50.0
 43
0.0
 44
0.0
 50
0.0
 51
0.0
 71
     0
 72
   100
 73
     1
 74
     3
 75
     0
 76
     0
 77
     0
 78
     0
281
     0
 65
     1
110
0.0
120
0.0
130
0.0
111
1.0
121
0.0
131
0.0
112
0.0
122
1.0
132
0.0
 79
     0
146
0.0
 60
     3
 61
     5
292
     1
282
     1
141
0.0
142
0.0
 63
   250
361
3F
  0
ENDTAB
  0
TABLE
  2
LTYPE
  5
5
330
0
100
AcDbSymbolTable
 70
     1
  0
LTYPE
  5
14
330
5
100
AcDbSymbolTableRecord
100
AcDbLinetypeTableRecord
  2
ByBlock
 70
     0
  3

 72
    65
 73
     0
 40
0.0
  0
LTYPE
  5
15
330
5
100
AcDbSymbolTableRecord
100
AcDbLinetypeTableRecord
  2
ByLayer
 70
     0
  3

 72
    65
 73
     0
 40
0.0
  0
LTYPE
  5
16
330
5
100
AcDbSymbolTableRecord
100
AcDbLinetypeTableRecord
  2
Continuous
 70
     0
  3
Solid line
 72
    65
 73
     0
 40
0.0
  0
ENDTAB
  0
TABLE
  2
LAYER
  5
2
330
0
100
AcDbSymbolTable
 70
     2
  0
LAYER
  5
10
330
2
100
AcDbSymbolTableRecord
100
AcDbLayerTableRecord
  2
0
 70
     0
 62
     7
  6
Continuous
370
    -3
390
F
347
3E
  0
LAYER
  5
40
330
2
100
AcDbSymbolTableRecord
100
AcDbLayerTableRecord
  2
_U+30EC_U+30A4_U+30E4_U+30FC 1
 70
     0
 62
     7
  6
Continuous
370
    -3
390
F
347
3E
  0
ENDTAB
  0
TABLE
  2
STYLE
  5
3
330
0
100
AcDbSymbolTable
 70
     1
  0
STYLE
  5
11
330
3
100
AcDbSymbolTableRecord
100
AcDbTextStyleTableRecord
  2
Standard
 70
     0
 40
0.0
 41
1.0
 50
0.0
 71
     0
 42
0.2
  3
txt
  4

  0
ENDTAB
  0
TABLE
  2
VIEW
  5
6
330
0
100
AcDbSymbolTable
 70
     0
  0
ENDTAB
  0
TABLE
  2
UCS
  5
7
330
0
100
AcDbSymbolTable
 70
     0
  0
ENDTAB
  0
TABLE
  2
APPID
  5
9
330
0
100
AcDbSymbolTable
 70
     1
  0
APPID
  5
12
330
9
100
AcDbSymbolTableRecord
100
AcDbRegAppTableRecord
  2
ACAD
 70
     0
  0
ENDTAB
  0
TABLE
  2
DIMSTYLE
  5
A
330
0
100
AcDbSymbolTable
 70
     1
100
AcDbDimStyleTable
  0
DIMSTYLE
105
27
330
A
100
AcDbSymbolTableRecord
100
AcDbDimStyleTableRecord
  2
Standard
 70
     0
178
     0
340
11
  0
ENDTAB
  0
TABLE
  2
BLOCK_RECORD
  5
1
330
0
100
AcDbSymbolTable
 70
     8
  0
BLOCK_RECORD
  5
1F
330
1
100
AcDbSymbolTableRecord
100
AcDbBlockTableRecord
  2
*Model_Space
340
22
 70
     0
280
     1
281
     0
  0
BLOCK_RECORD
  5
1B
330
1
100
AcDbSymbolTableRecord
100
AcDbBlockTableRecord
  2
*Paper_Space
340
1E
 70
     0
280
     1
281
     0
  0
BLOCK_RECORD
  5
23
330
1
100
AcDbSymbolTableRecord
100
AcDbBlockTableRecord
  2
*Paper_Space0
340
26
 70
     0
280
     1
281
     0
  0
BLOCK_RECORD
  5
41
330
1
100
AcDbSymbolTableRecord
100
AcDbBlockTableRecord
  2
block 2
340
0
102
{BLKREFS
331
42
102
}
 70
     0
280
     1
281
     0
  0
BLOCK_RECORD
  5
89
330
1
100
AcDbSymbolTableRecord
100
AcDbBlockTableRecord
  2
block 3
340
0
102
{BLKREFS
331
8A
102
}
 70
     0
280
     1
281
     0
  0
BLOCK_RECORD
  5
9E
330
1
100
AcDbSymbolTableRecord
100
AcDbBlockTableRecord
  2
block 4
340
0
102
{BLKREFS
331
9F
102
}
 70
     0
280
     1
281
     0
  0
BLOCK_RECORD
  5
C1
330
1
100
AcDbSymbolTableRecord
100
AcDbBlockTableRecord
  2
block 5
340
0
102
{BLKREFS
331
C2
102
}
 70
     0
280
     1
281
     0
  0
BLOCK_RECORD
  5
D3
330
1
100
AcDbSymbolTableRecord
100
AcDbBlockTableRecord
  2
block 6
340
0
102
{BLKREFS
331
D4
102
}
 70
     0
280
     1
281
     0
  0
BLOCK_RECORD
  5
E8
330
1
100
AcDbSymbolTableRecord
100
AcDbBlockTableRecord
  2
block 7
340
0
102
{BLKREFS
331
E9
102
}
 70
     0
280
     1
281
     0
  0
BLOCK_RECORD
  5
FD
330
1
100
AcDbSymbolTableRecord
100
AcDbBlockTableRecord
  2
block 8
340
0
102
{BLKREFS
331
FE
102
}
 70
     0
280
     1
281
     0
  0
ENDTAB
  0
ENDSEC
  0
SECTION
  2
BLOCKS
  0
BLOCK
  5
20
330
1F
100
AcDbEntity
  8
0
100
AcDbBlockBegin
  2
*Model_Space
 70
     0
 10
0.0
 20
0.0
 30
0.0
  3
*Model_Space
  1

  0
ENDBLK
  5
21
330
1F
100
AcDbEntity
  8
0
100
AcDbBlockEnd
  0
BLOCK
  5
1C
330
1B
100
AcDbEntity
 67
     1
  8
0
100
AcDbBlockBegin
  2
*Paper_Space
 70
     0
 10
0.0
 20
0.0
 30
0.0
  3
*Paper_Space
  1

  0
ENDBLK
  5
1D
330
1B
100
AcDbEntity
 67
     1
  8
0
100
AcDbBlockEnd
  0
BLOCK
  5
24
330
23
100
AcDbEntity
  8
0
100
AcDbBlockBegin
  2
*Paper_Space0
 70
     0
 10
0.0
 20
0.0
 30
0.0
  3
*Paper_Space0
  1

  0
ENDBLK
  5
25
330
23
100
AcDbEntity
  8
0
100
AcDbBlockEnd
  0
BLOCK
  5
43
330
41
100
AcDbEntity
  8
0
100
AcDbBlockBegin
  2
block 2
 70
     0
 10
0.0
 20
0.0
 30
0.0
  3
block 2
  1

  0
SPLINE
  5
45
330
41
100
AcDbEntity
  8
_U+30EC_U+30A4_U+30E4_U+30FC 1
370
     0
100
AcDbSpline
210
0.0
220
0.0
230
1.0
 70
    11
 71
     3
 72
    77
 73
    73
 74
     0
 42
0.0000000001
 43
0.0000000001
 12
1.0
 22
0.0
 32
0.0
 13
1.0
 23
0.0
 33
0.0
 40
0.0
 40
0.0
 40
0.0
 40
0.0
 40
1.0
 40
1.0
 40
1.0
 40
2.0
 40
2.0
 40
2.0
 40
3.0
 40
3.0
 40
3.0
 40
4.0
 40
4.0
 40
4.0
 40
5.0
 40
5.0
 40
5.0
 40
6.0
 40
6.0
 40
6.0
 40
7.0
 40
7.0
 40
7.0
 40
8.0
 40
8.0
 40
8.0
 40
9.0
 40
9.0
 40
9.0
 40
10.0
 40
10.0
 40
10.0
 40
11.0
 40
11.0
 40
11.0
 40
12.0
 40
12.0
 40
12.0
 40
13.0
 40
13.0
 40
13.0
 40
14.0
 40
14.0
 40
14.0
 40
15.0
 40
15.0
 40
15.0
 40
16.0
 40
16.0
 40
16.0
 40
17.0
 40
17.0
 40
17.0
 40
18.0
 40
18.0
 40
18.0
 40
19.0
 40
19.0
 40
19.0
 40
20.0
 40
20.0
 40
20.0
 40
21.0
 40
21.0
 40
21.0
 40
22.0
 40
22.0
 40
22.0
 40
23.0
 40
23.0
 40
23.0
 40
24.0
 40
24.0
 40
24.0
 40
24.0
 10
102.8884476528748
 20
-124.8251249687937
 30
0.0
 10
102.8884476528748
 20
-124.8251249687937
 30
0.0
 10
98.10806194149926
 20
-124.8251249687937
 30
0.0
 10
98.10806194149926
 20
-124.8251249687937
 30
0.0
 10
98.1056277748947
 20
-124.8251249687937
 30
0.0
 10
98.10322888606701
 20
-124.8265008021266
 30
0.0
 10
98.10082999723932
 20
-124.8266771910155
 30
0.0
 10
98.09151666414358
 20
-124.8271710799043
 30
0.0
 10
98.0832616643542
 20
-124.8296052465705
 30
0.0
 10
98.07430110902725
 20
-124.8320041354588
 30
0.0
 10
98.06601083146096
 20
-124.8342266354583
 30
0.0
 10
98.0574055310414
 20
-124.8363080243467
 30
0.0
 10
98.0494655541053
 20
-124.8402591354567
 30
0.0
 10
98.04741944304638
 20
-124.8414585799008
 30
0.0
 10
98.04466777644991
 20
-124.8414585799008
 30
0.0
 10
98.04191610985345
 20
-124.8428696910115
 30
0.0
 10
98.04191610985345
 20
-124.8428696910115
 30
0.0
 10
97.55338945565013
 20
-125.1251624687186
 30
0.0
 10
97.55338945565013
 20
-125.1251624687186
 30
0.0
 10
97.55338945565013
 20
-125.1251624687186
 30
0.0
 10
79.58860491396997
 20
-125.1251624687186
 30
0.0
 10
79.58860491396997
 20
-125.1251624687186
 30
0.0
 10
79.51554463805611
 20
-125.1251624687186
 30
0.0
 10
79.45631325067835
 20
-125.1844291353706
 30
0.0
 10
79.45631325067835
 20
-125.2574541353522
 30
0.0
 10
79.45631325067835
 20
-125.2836655242346
 30
0.0
 10
79.46594408376598
 20
-125.3067371908956
 30
0.0
 10
79.47920852787202
 20
-125.327409968668
 30
0.0
 10
79.46594408376598
 20
-125.3480827464407
 30
0.0
 10
79.45631325067835
 20
-125.3711544131018
 30
0.0
 10
79.45631325067835
 20
-125.3973305242064
 30
0.0
 10
79.45631325067835
 20
-125.3973305242064
 30
0.0
 10
79.45631325067835
 20
-137.5781827433831
 30
0.0
 10
79.45631325067835
 20
-137.5781827433831
 30
0.0
 10
79.45631325067835
 20
-137.6512077433649
 30
0.0
 10
79.51554463805611
 20
-137.7104744100167
 30
0.0
 10
79.58860491396997
 20
-137.7104744100167
 30
0.0
 10
79.58860491396997
 20
-137.7104744100167
 30
0.0
 10
98.4435888773837
 20
-137.7104744100167
 30
0.0
 10
98.4435888773837
 20
-137.7104744100167
 30
0.0
 10
98.3791716568049
 20
-138.1262935765795
 30
0.0
 10
98.02191361036375
 20
-138.4463335764994
 30
0.0
 10
97.58852612142039
 20
-138.4463335764994
 30
0.0
 10
97.5561411222466
 20
-138.4463335764994
 30
0.0
 10
97.52721334520683
 20
-138.4594216320515
 30
0.0
 10
97.50378890136
 20
-138.4790713542691
 30
0.0
 10
97.48103473527384
 20
-138.4594216320515
 30
0.0
 10
97.45210695823407
 20
-138.4463335764994
 30
0.0
 10
97.41901640352272
 20
-138.4463335764994
 30
0.0
 10
97.41901640352272
 20
-138.4463335764994
 30
0.0
 10
79.58860491396997
 20
-138.4463335764994
 30
0.0
 10
79.58860491396997
 20
-138.4463335764994
 30
0.0
 10
79.11023825950745
 20
-138.4463335764994
 30
0.0
 10
78.72112438054569
 20
-138.0566905210414
 30
0.0
 10
78.72112438054569
 20
-137.5781827433831
 30
0.0
 10
78.72112438054569
 20
-137.5781827433831
 30
0.0
 10
78.72112438054569
 20
-120.7574913586994
 30
0.0
 10
78.72112438054569
 20
-120.7574913586994
 30
0.0
 10
78.72112438054569
 20
-120.3242802476966
 30
0.0
 10
79.0409879834964
 20
-119.9673396922305
 30
0.0
 10
79.45631325067835
 20
-119.9030988589132
 30
0.0
 10
79.45631325067835
 20
-119.9030988589132
 30
0.0
 10
79.45631325067835
 20
-124.25736441338
 30
0.0
 10
79.45631325067835
 20
-124.25736441338
 30
0.0
 10
79.45631325067835
 20
-124.3303894133619
 30
0.0
 10
79.51554463805611
 20
-124.3896560800136
 30
0.0
 10
79.58860491396997
 20
-124.3896560800136
 30
0.0
 10
79.58860491396997
 20
-124.3896560800136
 30
0.0
 10
103.4389926388292
 20
-124.3896560800136
 30
0.0
 10
103.4389926388292
 20
-124.3896560800136
 30
0.0
 10
103.3790583074884
 20
-124.6387171910625
 30
0.0
 10
103.1558179238314
 20
-124.8251249687937
 30
0.0
 10
102.8884476528748
 20
-124.8251249687937
 30
0.0
  0
ENDBLK
  5
44
330
41
100
AcDbEntity
  8
0
100
AcDbBlockEnd
  0
BLOCK
  5
8B
330
89
100
AcDbEntity
  8
0
100
AcDbBlockBegin
  2
block 3
 70
     0
 10
0.0
 20
0.0
 30
0.0
  3
block 3
  1

  0
SPLINE
  5
8D
330
89
100
AcDbEntity
  8
_U+30EC_U+30A4_U+30E4_U+30FC 1
370
     0
100
AcDbSpline
210
0.0
220
0.0
230
1.0
 70
    11
 71
     3
 72
    26
 73
    22
 74
     0
 42
0.0000000001
 43
0.0000000001
 12
1.0
 22
0.0
 32
0.0
 13
1.0
 23
0.0
 33
0.0
 40
0.0
 40
0.0
 40
0.0
 40
0.0
 40
1.0
 40
1.0
 40
1.0
 40
2.0
 40
2.0
 40
2.0
 40
3.0
 40
3.0
 40
3.0
 40
4.0
 40
4.0
 40
4.0
 40
5.0
 40
5.0
 40
5.0
 40
6.0
 40
6.0
 40
6.0
 40
7.0
 40
7.0
 40
7.0
 40
7.0
 10
71.09522974568105
 20
-141.4315049559616
 30
0.0
 10
71.09522974568105
 20
-141.4315049559616
 30
0.0
 10
71.09522974568105
 20
-140.327351852939
 30
0.0
 10
71.09522974568105
 20
-140.327351852939
 30
0.0
 10
71.09522974568105
 20
-140.327351852939
 30
0.0
 10
70.74245196799147
 20
-140.327351852939
 30
0.0
 10
70.74245196799147
 20
-140.327351852939
 30
0.0
 10
70.74245196799147
 20
-140.327351852939
 30
0.0
 10
70.74245196799147
 20
-140.1792127470733
 30
0.0
 10
70.74245196799147
 20
-140.1792127470733
 30
0.0
 10
71.09746905774647
 20
-140.1643988364867
 30
0.0
 10
71.14725068750833
 20
-140.0014458200344
 30
0.0
 10
71.17877331119837
 20
-139.8870686499241
 30
0.0
 10
71.17877331119837
 20
-139.8870686499241
 30
0.0
 10
71.33483613668018
 20
-139.8870686499241
 30
0.0
 10
71.33483613668018
 20
-139.8870686499241
 30
0.0
 10
71.33483613668018
 20
-139.8870686499241
 30
0.0
 10
71.33483613668018
 20
-141.4315049559616
 30
0.0
 10
71.33483613668018
 20
-141.4315049559616
 30
0.0
 10
71.33483613668018
 20
-141.4315049559616
 30
0.0
 10
71.09522974568105
 20
-141.4315049559616
 30
0.0
 10
71.09522974568105
 20
-141.4315049559616
 30
0.0
  0
HATCH
  5
8E
330
89
100
AcDbEntity
  8
_U+30EC_U+30A4_U+30E4_U+30FC 1
 62
     7
420
 16777215
100
AcDbHatch
 10
0.0
 20
0.0
 30
0.0
210
0.0
220
0.0
230
1.0
  2
SOLID
 70
     1
 71
     0
 91
        1
 92
        1
 93
        1
 72
     4
 94
        3
 73
     0
 74
     1
 95
       26
 96
       22
 40
0.0
 40
0.0
 40
0.0
 40
0.0
 40
1.0
 40
1.0
 40
1.0
 40
2.0
 40
2.0
 40
2.0
 40
3.0
 40
3.0
 40
3.0
 40
4.0
 40
4.0
 40
4.0
 40
5.0
 40
5.0
 40
5.0
 40
6.0
 40
6.0
 40
6.0
 40
7.0
 40
7.0
 40
7.0
 40
7.0
 10
71.09522974568105
 20
-141.4315049559616
 10
71.09522974568105
 20
-141.4315049559616
 10
71.09522974568105
 20
-140.327351852939
 10
71.09522974568105
 20
-140.327351852939
 10
71.09522974568105
 20
-140.327351852939
 10
70.74245196799147
 20
-140.327351852939
 10
70.74245196799147
 20
-140.327351852939
 10
70.74245196799147
 20
-140.327351852939
 10
70.74245196799147
 20
-140.1792127470733
 10
70.74245196799147
 20
-140.1792127470733
 10
71.09746905774647
 20
-140.1643988364867
 10
71.14725068750833
 20
-140.0014458200344
 10
71.17877331119837
 20
-139.8870686499241
 10
71.17877331119837
 20
-139.8870686499241
 10
71.33483613668018
 20
-139.8870686499241
 10
71.33483613668018
 20
-139.8870686499241
 10
71.33483613668018
 20
-139.8870686499241
 10
71.33483613668018
 20
-141.4315049559616
 10
71.33483613668018
 20
-141.4315049559616
 10
71.33483613668018
 20
-141.4315049559616
 10
71.09522974568105
 20
-141.4315049559616
 10
71.09522974568105
 20
-141.4315049559616
 97
        0
 97
        0
 75
     2
 76
     1
 98
        0
  0
SPLINE
  5
8F
330
89
100
AcDbEntity
  8
_U+30EC_U+30A4_U+30E4_U+30FC 1
370
     0
100
AcDbSpline
210
0.0
220
0.0
230
1.0
 70
    11
 71
     3
 72
    44
 73
    40
 74
     0
 42
0.0000000001
 43
0.0000000001
 12
1.0
 22
0.0
 32
0.0
 13
1.0
 23
0.0
 33
0.0
 40
0.0
 40
0.0
 40
0.0
 40
0.0
 40
1.0
 40
1.0
 40
1.0
 40
2.0
 40
2.0
 40
2.0
 40
3.0
 40
3.0
 40
3.0
 40
4.0
 40
4.0
 40
4.0
 40
5.0
 40
5.0
 40
5.0
 40
6.0
 40
6.0
 40
6.0
 40
7.0
 40
7.0
 40
7.0
 40
8.0
 40
8.0
 40
8.0
 40
9.0
 40
9.0
 40
9.0
 40
10.0
 40
10.0
 40
10.0
 40
11.0
 40
11.0
 40
11.0
 40
12.0
 40
12.0
 40
12.0
 40
13.0
 40
13.0
 40
13.0
 40
13.0
 10
72.95437552429613
 20
-141.4315049559616
 30
0.0
 10
72.92957083680233
 20
-141.3870632242019
 30
0.0
 10
72.90683320659969
 20
-141.3343532632775
 30
0.0
 10
72.90459389453427
 20
-141.1035318657658
 30
0.0
 10
72.90011527040345
 20
-140.8603081245072
 30
0.0
 10
72.83689776824912
 20
-140.7903726861566
 30
0.0
 10
72.64690075223758
 20
-140.7903726861566
 30
0.0
 10
72.64690075223758
 20
-140.7903726861566
 30
0.0
 10
72.21057940903069
 20
-140.7903726861566
 30
0.0
 10
72.21057940903069
 20
-140.7903726861566
 30
0.0
 10
72.21057940903069
 20
-140.7903726861566
 30
0.0
 10
72.21057940903069
 20
-141.4315049559616
 30
0.0
 10
72.21057940903069
 20
-141.4315049559616
 30
0.0
 10
72.21057940903069
 20
-141.4315049559616
 30
0.0
 10
71.95960420293024
 20
-141.4315049559616
 30
0.0
 10
71.95960420293024
 20
-141.4315049559616
 30
0.0
 10
71.95960420293024
 20
-141.4315049559616
 30
0.0
 10
71.95960420293024
 20
-139.8870686499241
 30
0.0
 10
71.95960420293024
 20
-139.8870686499241
 30
0.0
 10
71.95960420293024
 20
-139.8870686499241
 30
0.0
 10
72.68083494276729
 20
-139.8870686499241
 30
0.0
 10
72.68083494276729
 20
-139.8870686499241
 30
0.0
 10
73.00863577818882
 20
-139.8870686499241
 30
0.0
 10
73.18726397909901
 20
-140.0586344050895
 30
0.0
 10
73.18726397909901
 20
-140.3146049996436
 30
0.0
 10
73.18726397909901
 20
-140.3652479032768
 30
0.0
 10
73.17830673083738
 20
-140.4479301949227
 30
0.0
 10
73.13076441314092
 20
-140.5282009197291
 30
0.0
 10
73.06737465621232
 20
-140.6318982938351
 30
0.0
 10
72.99743921786175
 20
-140.650846319004
 30
0.0
 10
72.93181014886774
 20
-140.6677272868817
 30
0.0
 10
73.07874347131366
 20
-140.7101019613503
 30
0.0
 10
73.1510904765039
 20
-140.7586778076923
 30
0.0
 10
73.15556910063472
 20
-141.0739040445926
 30
0.0
 10
73.16004772476555
 20
-141.3446885497333
 30
0.0
 10
73.19863279420035
 20
-141.3763834281976
 30
0.0
 10
73.27097979939059
 20
-141.4315049559616
 30
0.0
 10
73.27097979939059
 20
-141.4315049559616
 30
0.0
 10
72.95437552429613
 20
-141.4315049559616
 30
0.0
 10
72.95437552429613
 20
-141.4315049559616
 30
0.0
  0
SPLINE
  5
90
330
89
100
AcDbEntity
  8
_U+30EC_U+30A4_U+30E4_U+30FC 1
370
     0
100
AcDbSpline
210
0.0
220
0.0
230
1.0
 70
    11
 71
     3
 72
    20
 73
    16
 74
     0
 42
0.0000000001
 43
0.0000000001
 12
1.0
 22
0.0
 32
0.0
 13
1.0
 23
0.0
 33
0.0
 40
0.0
 40
0.0
 40
0.0
 40
0.0
 40
1.0
 40
1.0
 40
1.0
 40
2.0
 40
2.0
 40
2.0
 40
3.0
 40
3.0
 40
3.0
 40
4.0
 40
4.0
 40
4.0
 40
5.0
 40
5.0
 40
5.0
 40
5.0
 10
72.68531356689812
 20
-140.0985975127184
 30
0.0
 10
72.68531356689812
 20
-140.0985975127184
 30
0.0
 10
72.21057940903069
 20
-140.0985975127184
 30
0.0
 10
72.21057940903069
 20
-140.0985975127184
 30
0.0
 10
72.21057940903069
 20
-140.0985975127184
 30
0.0
 10
72.21057940903069
 20
-140.5788438233622
 30
0.0
 10
72.21057940903069
 20
-140.5788438233622
 30
0.0
 10
72.21057940903069
 20
-140.5788438233622
 30
0.0
 10
72.6830742548327
 20
-140.5788438233622
 30
0.0
 10
72.6830742548327
 20
-140.5788438233622
 30
0.0
 10
72.78935545055266
 20
-140.5788438233622
 30
0.0
 10
72.93404946093315
 20
-140.5027072131382
 30
0.0
 10
72.93404946093315
 20
-140.3314859675213
 30
0.0
 10
72.93404946093315
 20
-140.2532823000061
 30
0.0
 10
72.89787595833803
 20
-140.0985975127184
 30
0.0
 10
72.68531356689812
 20
-140.0985975127184
 30
0.0
  0
HATCH
  5
91
330
89
100
AcDbEntity
  8
_U+30EC_U+30A4_U+30E4_U+30FC 1
 62
     7
420
 16777215
100
AcDbHatch
 10
0.0
 20
0.0
 30
0.0
210
0.0
220
0.0
230
1.0
  2
SOLID
 70
     1
 71
     0
 91
        2
 92
        1
 93
        1
 72
     4
 94
        3
 73
     0
 74
     1
 95
       44
 96
       40
 40
0.0
 40
0.0
 40
0.0
 40
0.0
 40
1.0
 40
1.0
 40
1.0
 40
2.0
 40
2.0
 40
2.0
 40
3.0
 40
3.0
 40
3.0
 40
4.0
 40
4.0
 40
4.0
 40
5.0
 40
5.0
 40
5.0
 40
6.0
 40
6.0
 40
6.0
 40
7.0
 40
7.0
 40
7.0
 40
8.0
 40
8.0
 40
8.0
 40
9.0
 40
9.0
 40
9.0
 40
10.0
 40
10.0
 40
10.0
 40
11.0
 40
11.0
 40
11.0
 40
12.0
 40
12.0
 40
12.0
 40
13.0
 40
13.0
 40
13.0
 40
13.0
 10
72.95437552429613
 20
-141.4315049559616
 10
72.92957083680233
 20
-141.3870632242019
 10
72.90683320659969
 20
-141.3343532632775
 10
72.90459389453427
 20
-141.1035318657658
 10
72.90011527040345
 20
-140.8603081245072
 10
72.83689776824912
 20
-140.7903726861566
 10
72.64690075223758
 20
-140.7903726861566
 10
72.64690075223758
 20
-140.7903726861566
 10
72.21057940903069
 20
-140.7903726861566
 10
72.21057940903069
 20
-140.7903726861566
 10
72.21057940903069
 20
-140.7903726861566
 10
72.21057940903069
 20
-141.4315049559616
 10
72.21057940903069
 20
-141.4315049559616
 10
72.21057940903069
 20
-141.4315049559616
 10
71.95960420293024
 20
-141.4315049559616
 10
71.95960420293024
 20
-141.4315049559616
 10
71.95960420293024
 20
-141.4315049559616
 10
71.95960420293024
 20
-139.8870686499241
 10
71.95960420293024
 20
-139.8870686499241
 10
71.95960420293024
 20
-139.8870686499241
 10
72.68083494276729
 20
-139.8870686499241
 10
72.68083494276729
 20
-139.8870686499241
 10
73.00863577818882
 20
-139.8870686499241
 10
73.18726397909901
 20
-140.0586344050895
 10
73.18726397909901
 20
-140.3146049996436
 10
73.18726397909901
 20
-140.3652479032768
 10
73.17830673083738
 20
-140.4479301949227
 10
73.13076441314092
 20
-140.5282009197291
 10
73.06737465621232
 20
-140.6318982938351
 10
72.99743921786175
 20
-140.650846319004
 10
72.93181014886774
 20
-140.6677272868817
 10
73.07874347131366
 20
-140.7101019613503
 10
73.1510904765039
 20
-140.7586778076923
 10
73.15556910063472
 20
-141.0739040445926
 10
73.16004772476555
 20
-141.3446885497333
 10
73.19863279420035
 20
-141.3763834281976
 10
73.27097979939059
 20
-141.4315049559616
 10
73.27097979939059
 20
-141.4315049559616
 10
72.95437552429613
 20
-141.4315049559616
 10
72.95437552429613
 20
-141.4315049559616
 97
        0
 97
        0
 92
        1
 93
        1
 72
     4
 94
        3
 73
     0
 74
     1
 95
       20
 96
       16
 40
0.0
 40
0.0
 40
0.0
 40
0.0
 40
1.0
 40
1.0
 40
1.0
 40
2.0
 40
2.0
 40
2.0
 40
3.0
 40
3.0
 40
3.0
 40
4.0
 40
4.0
 40
4.0
 40
5.0
 40
5.0
 40
5.0
 40
5.0
 10
72.68531356689812
 20
-140.0985975127184
 10
72.68531356689812
 20
-140.0985975127184
 10
72.21057940903069
 20
-140.0985975127184
 10
72.21057940903069
 20
-140.0985975127184
 10
72.21057940903069
 20
-140.0985975127184
 10
72.21057940903069
 20
-140.5788438233622
 10
72.21057940903069
 20
-140.5788438233622
 10
72.21057940903069
 20
-140.5788438233622
 10
72.6830742548327
 20
-140.5788438233622
 10
72.6830742548327
 20
-140.5788438233622
 10
72.78935545055266
 20
-140.5788438233622
 10
72.93404946093315
 20
-140.5027072131382
 10
72.93404946093315
 20
-140.3314859675213
 10
72.93404946093315
 20
-140.2532823000061
 10
72.89787595833803
 20
-140.0985975127184
 10
72.68531356689812
 20
-140.0985975127184
 97
        0
 97
        0
 75
     2
 76
     1
 98
        0
  0
ENDBLK
  5
8C
330
89
100
AcDbEntity
  8
0
100
AcDbBlockEnd
  0
BLOCK
  5
A0
330
9E
100
AcDbEntity
  8
0
100
AcDbBlockBegin
  2
block 4
 70
     0
 10
0.0
 20
0.0
 30
0.0
  3
block 4
  1

  0
SPLINE
  5
A2
330
9E
100
AcDbEntity
  8
_U+30EC_U+30A4_U+30E4_U+30FC 1
370
     0
100
AcDbSpline
210
0.0
220
0.0
230
1.0
 70
    11
 71
     3
 72
    44
 73
    40
 74
     0
 42
0.0000000001
 43
0.0000000001
 12
1.0
 22
0.0
 32
0.0
 13
1.0
 23
0.0
 33
0.0
 40
0.0
 40
0.0
 40
0.0
 40
0.0
 40
1.0
 40
1.0
 40
1.0
 40
2.0
 40
2.0
 40
2.0
 40
3.0
 40
3.0
 40
3.0
 40
4.0
 40
4.0
 40
4.0
 40
5.0
 40
5.0
 40
5.0
 40
6.0
 40
6.0
 40
6.0
 40
7.0
 40
7.0
 40
7.0
 40
8.0
 40
8.0
 40
8.0
 40
9.0
 40
9.0
 40
9.0
 40
10.0
 40
10.0
 40
10.0
 40
11.0
 40
11.0
 40
11.0
 40
12.0
 40
12.0
 40
12.0
 40
13.0
 40
13.0
 40
13.0
 40
13.0
 10
91.0585245540583
 20
-114.5792249605045
 30
0.0
 10
90.8256360992554
 20
-114.7378716076003
 30
0.0
 10
90.72607283973169
 20
-114.8119411605331
 30
0.0
 10
90.67439640745293
 20
-114.955601642268
 30
0.0
 10
90.67439640745293
 20
-114.955601642268
 30
0.0
 10
91.50587020281799
 20
-114.955601642268
 30
0.0
 10
91.50587020281799
 20
-114.955601642268
 30
0.0
 10
91.50587020281799
 20
-114.955601642268
 30
0.0
 10
91.50587020281799
 20
-115.1609293331889
 30
0.0
 10
91.50587020281799
 20
-115.1609293331889
 30
0.0
 10
91.50587020281799
 20
-115.1609293331889
 30
0.0
 10
90.40740150734607
 20
-115.1609293331889
 30
0.0
 10
90.40740150734607
 20
-115.1609293331889
 30
0.0
 10
90.44150795265004
 20
-114.80332842182
 30
0.0
 10
90.51144339100061
 20
-114.7251247543048
 30
0.0
 10
90.92278779193944
 20
-114.4267794852822
 30
0.0
 10
91.19632837346828
 20
-114.2279974757833
 30
0.0
 10
91.26660832136739
 20
-114.1603013494981
 30
0.0
 10
91.26660832136739
 20
-114.0228420396367
 30
0.0
 10
91.26660832136739
 20
-113.9043307549441
 30
0.0
 10
91.18978269204631
 20
-113.7732448717303
 30
0.0
 10
90.97928735789755
 20
-113.7732448717303
 30
0.0
 10
90.70126815223789
 20
-113.7732448717303
 30
0.0
 10
90.69231090397624
 20
-114.0037217596935
 30
0.0
 10
90.68783227984541
 20
-114.120165987095
 30
0.0
 10
90.68783227984541
 20
-114.120165987095
 30
0.0
 10
90.44805363407202
 20
-114.120165987095
 30
0.0
 10
90.44805363407202
 20
-114.120165987095
 30
0.0
 10
90.45735539188219
 20
-113.9932142184635
 30
0.0
 10
90.468379697435
 20
-113.8810763604186
 30
0.0
 10
90.55450708456624
 20
-113.762565075726
 30
0.0
 10
90.67198484061326
 20
-113.6018513713391
 30
0.0
 10
90.87076685011218
 20
-113.5679171808094
 30
0.0
 10
90.9951347971297
 20
-113.5679171808094
 30
0.0
 10
91.29141300886118
 20
-113.5679171808094
 30
0.0
 10
91.51276039378848
 20
-113.752057534496
 30
0.0
 10
91.51276039378848
 20
-114.0249090969278
 30
0.0
 10
91.51276039378848
 20
-114.2533189275999
 30
0.0
 10
91.38873695631949
 20
-114.3528821871236
 30
0.0
 10
91.0585245540583
 20
-114.5792249605045
 30
0.0
  0
HATCH
  5
A3
330
9E
100
AcDbEntity
  8
_U+30EC_U+30A4_U+30E4_U+30FC 1
 62
     7
420
 16777215
100
AcDbHatch
 10
0.0
 20
0.0
 30
0.0
210
0.0
220
0.0
230
1.0
  2
SOLID
 70
     1
 71
     0
 91
        1
 92
        1
 93
        1
 72
     4
 94
        3
 73
     0
 74
     1
 95
       44
 96
       40
 40
0.0
 40
0.0
 40
0.0
 40
0.0
 40
1.0
 40
1.0
 40
1.0
 40
2.0
 40
2.0
 40
2.0
 40
3.0
 40
3.0
 40
3.0
 40
4.0
 40
4.0
 40
4.0
 40
5.0
 40
5.0
 40
5.0
 40
6.0
 40
6.0
 40
6.0
 40
7.0
 40
7.0
 40
7.0
 40
8.0
 40
8.0
 40
8.0
 40
9.0
 40
9.0
 40
9.0
 40
10.0
 40
10.0
 40
10.0
 40
11.0
 40
11.0
 40
11.0
 40
12.0
 40
12.0
 40
12.0
 40
13.0
 40
13.0
 40
13.0
 40
13.0
 10
91.0585245540583
 20
-114.5792249605045
 10
90.8256360992554
 20
-114.7378716076003
 10
90.72607283973169
 20
-114.8119411605331
 10
90.67439640745293
 20
-114.955601642268
 10
90.67439640745293
 20
-114.955601642268
 10
91.50587020281799
 20
-114.955601642268
 10
91.50587020281799
 20
-114.955601642268
 10
91.50587020281799
 20
-114.955601642268
 10
91.50587020281799
 20
-115.1609293331889
 10
91.50587020281799
 20
-115.1609293331889
 10
91.50587020281799
 20
-115.1609293331889
 10
90.40740150734607
 20
-115.1609293331889
 10
90.40740150734607
 20
-115.1609293331889
 10
90.44150795265004
 20
-114.80332842182
 10
90.51144339100061
 20
-114.7251247543048
 10
90.92278779193944
 20
-114.4267794852822
 10
91.19632837346828
 20
-114.2279974757833
 10
91.26660832136739
 20
-114.1603013494981
 10
91.26660832136739
 20
-114.0228420396367
 10
91.26660832136739
 20
-113.9043307549441
 10
91.18978269204631
 20
-113.7732448717303
 10
90.97928735789755
 20
-113.7732448717303
 10
90.70126815223789
 20
-113.7732448717303
 10
90.69231090397624
 20
-114.0037217596935
 10
90.68783227984541
 20
-114.120165987095
 10
90.68783227984541
 20
-114.120165987095
 10
90.44805363407202
 20
-114.120165987095
 10
90.44805363407202
 20
-114.120165987095
 10
90.45735539188219
 20
-113.9932142184635
 10
90.468379697435
 20
-113.8810763604186
 10
90.55450708456624
 20
-113.762565075726
 10
90.67198484061326
 20
-113.6018513713391
 10
90.87076685011218
 20
-113.5679171808094
 10
90.9951347971297
 20
-113.5679171808094
 10
91.29141300886118
 20
-113.5679171808094
 10
91.51276039378848
 20
-113.752057534496
 10
91.51276039378848
 20
-114.0249090969278
 10
91.51276039378848
 20
-114.2533189275999
 10
91.38873695631949
 20
-114.3528821871236
 10
91.0585245540583
 20
-114.5792249605045
 97
        0
 97
        0
 75
     2
 76
     1
 98
        0
  0
POLYLINE
  5
A4
330
9E
100
AcDbEntity
  8
_U+30EC_U+30A4_U+30E4_U+30FC 1
370
     0
100
AcDb2dPolyline
 66
     1
 10
0.0
 20
0.0
 30
0.0
  0
VERTEX
  5
A5
330
A4
100
AcDbEntity
  8
_U+30EC_U+30A4_U+30E4_U+30FC 1
370
     0
100
AcDbVertex
100
AcDb2dVertex
 10
92.57178274595428
 20
-114.8140082178243
 30
0.0
  0
VERTEX
  5
A6
330
A4
100
AcDbEntity
  8
_U+30EC_U+30A4_U+30E4_U+30FC 1
370
     0
100
AcDbVertex
100
AcDb2dVertex
 10
92.57178274595428
 20
-115.1609293331889
 30
0.0
  0
VERTEX
  5
A7
330
A4
100
AcDbEntity
  8
_U+30EC_U+30A4_U+30E4_U+30FC 1
370
     0
100
AcDbVertex
100
AcDb2dVertex
 10
92.33889429115139
 20
-115.1609293331889
 30
0.0
  0
VERTEX
  5
A8
330
A4
100
AcDbEntity
  8
_U+30EC_U+30A4_U+30E4_U+30FC 1
370
     0
100
AcDbVertex
100
AcDb2dVertex
 10
92.33889429115139
 20
-114.8140082178243
 30
0.0
  0
VERTEX
  5
A9
330
A4
100
AcDbEntity
  8
_U+30EC_U+30A4_U+30E4_U+30FC 1
370
     0
100
AcDbVertex
100
AcDb2dVertex
 10
91.63816186945158
 20
-114.8140082178243
 30
0.0
  0
VERTEX
  5
AA
330
A4
100
AcDbEntity
  8
_U+30EC_U+30A4_U+30E4_U+30FC 1
370
     0
100
AcDbVertex
100
AcDb2dVertex
 10
91.63816186945158
 20
-114.5897325017345
 30
0.0
  0
VERTEX
  5
AB
330
A4
100
AcDbEntity
  8
_U+30EC_U+30A4_U+30E4_U+30FC 1
370
     0
100
AcDbVertex
100
AcDb2dVertex
 10
92.36369897864519
 20
-113.6166652819257
 30
0.0
  0
VERTEX
  5
AC
330
A4
100
AcDbEntity
  8
_U+30EC_U+30A4_U+30E4_U+30FC 1
370
     0
100
AcDbVertex
100
AcDb2dVertex
 10
92.57178274595428
 20
-113.6166652819257
 30
0.0
  0
VERTEX
  5
AD
330
A4
100
AcDbEntity
  8
_U+30EC_U+30A4_U+30E4_U+30FC 1
370
     0
100
AcDbVertex
100
AcDb2dVertex
 10
92.57178274595428
 20
-114.6150539535511
 30
0.0
  0
VERTEX
  5
AE
330
A4
100
AcDbEntity
  8
_U+30EC_U+30A4_U+30E4_U+30FC 1
370
     0
100
AcDbVertex
100
AcDb2dVertex
 10
92.79364689520438
 20
-114.6150539535511
 30
0.0
  0
VERTEX
  5
AF
330
A4
100
AcDbEntity
  8
_U+30EC_U+30A4_U+30E4_U+30FC 1
370
     0
100
AcDbVertex
100
AcDb2dVertex
 10
92.79364689520438
 20
-114.8140082178243
 30
0.0
  0
VERTEX
  5
B0
330
A4
100
AcDbEntity
  8
_U+30EC_U+30A4_U+30E4_U+30FC 1
370
     0
100
AcDbVertex
100
AcDb2dVertex
 10
92.57178274595428
 20
-114.8140082178243
 30
0.0
  0
SEQEND
  5
B1
330
A4
100
AcDbEntity
  8
_U+30EC_U+30A4_U+30E4_U+30FC 1
370
     0
  0
POLYLINE
  5
B2
330
9E
100
AcDbEntity
  8
_U+30EC_U+30A4_U+30E4_U+30FC 1
370
     0
100
AcDb2dPolyline
 66
     1
 10
0.0
 20
0.0
 30
0.0
  0
VERTEX
  5
B3
330
B2
100
AcDbEntity
  8
_U+30EC_U+30A4_U+30E4_U+30FC 1
370
     0
100
AcDbVertex
100
AcDb2dVertex
 10
92.33889429115139
 20
-113.9592800279338
 30
0.0
  0
VERTEX
  5
B4
330
B2
100
AcDbEntity
  8
_U+30EC_U+30A4_U+30E4_U+30FC 1
370
     0
100
AcDbVertex
100
AcDb2dVertex
 10
91.85037975134297
 20
-114.6150539535511
 30
0.0
  0
VERTEX
  5
B5
330
B2
100
AcDbEntity
  8
_U+30EC_U+30A4_U+30E4_U+30FC 1
370
     0
100
AcDbVertex
100
AcDb2dVertex
 10
92.33889429115139
 20
-114.6150539535511
 30
0.0
  0
VERTEX
  5
B6
330
B2
100
AcDbEntity
  8
_U+30EC_U+30A4_U+30E4_U+30FC 1
370
     0
100
AcDbVertex
100
AcDb2dVertex
 10
92.33889429115139
 20
-113.9592800279338
 30
0.0
  0
SEQEND
  5
B7
330
B2
100
AcDbEntity
  8
_U+30EC_U+30A4_U+30E4_U+30FC 1
370
     0
  0
HATCH
  5
B8
330
9E
100
AcDbEntity
  8
_U+30EC_U+30A4_U+30E4_U+30FC 1
 62
     7
420
 16777215
100
AcDbHatch
 10
0.0
 20
0.0
 30
0.0
210
0.0
220
0.0
230
1.0
  2
SOLID
 70
     1
 71
     0
 91
        2
 92
        1
 93
       11
 72
     1
 10
92.57178274595428
 20
-114.8140082178243
 11
92.57178274595428
 21
-115.1609293331889
 72
     1
 10
92.57178274595428
 20
-115.1609293331889
 11
92.33889429115139
 21
-115.1609293331889
 72
     1
 10
92.33889429115139
 20
-115.1609293331889
 11
92.33889429115139
 21
-114.8140082178243
 72
     1
 10
92.33889429115139
 20
-114.8140082178243
 11
91.63816186945158
 21
-114.8140082178243
 72
     1
 10
91.63816186945158
 20
-114.8140082178243
 11
91.63816186945158
 21
-114.5897325017345
 72
     1
 10
91.63816186945158
 20
-114.5897325017345
 11
92.36369897864519
 21
-113.6166652819257
 72
     1
 10
92.36369897864519
 20
-113.6166652819257
 11
92.57178274595428
 21
-113.6166652819257
 72
     1
 10
92.57178274595428
 20
-113.6166652819257
 11
92.57178274595428
 21
-114.6150539535511
 72
     1
 10
92.57178274595428
 20
-114.6150539535511
 11
92.79364689520438
 21
-114.6150539535511
 72
     1
 10
92.79364689520438
 20
-114.6150539535511
 11
92.79364689520438
 21
-114.8140082178243
 72
     1
 10
92.79364689520438
 20
-114.8140082178243
 11
92.57178274595428
 21
-114.8140082178243
 97
        0
 92
        1
 93
        3
 72
     1
 10
92.33889429115139
 20
-113.9592800279338
 11
91.85037975134297
 21
-114.6150539535511
 72
     1
 10
91.85037975134297
 20
-114.6150539535511
 11
92.33889429115139
 21
-114.6150539535511
 72
     1
 10
92.33889429115139
 20
-114.6150539535511
 11
92.33889429115139
 21
-113.9592800279338
 97
        0
 75
     2
 76
     1
 98
        0
  0
ENDBLK
  5
A1
330
9E
100
AcDbEntity
  8
0
100
AcDbBlockEnd
  0
BLOCK
  5
C3
330
C1
100
AcDbEntity
  8
0
100
AcDbBlockBegin
  2
block 5
 70
     0
 10
0.0
 20
0.0
 30
0.0
  3
block 5
  1

  0
SPLINE
  5
C5
330
C1
100
AcDbEntity
  8
_U+30EC_U+30A4_U+30E4_U+30FC 1
370
     0
100
AcDbSpline
210
0.0
220
0.0
230
1.0
 70
    11
 71
     3
 72
    26
 73
    22
 74
     0
 42
0.0000000001
 43
0.0000000001
 12
1.0
 22
0.0
 32
0.0
 13
1.0
 23
0.0
 33
0.0
 40
0.0
 40
0.0
 40
0.0
 40
0.0
 40
1.0
 40
1.0
 40
1.0
 40
2.0
 40
2.0
 40
2.0
 40
3.0
 40
3.0
 40
3.0
 40
4.0
 40
4.0
 40
4.0
 40
5.0
 40
5.0
 40
5.0
 40
6.0
 40
6.0
 40
6.0
 40
7.0
 40
7.0
 40
7.0
 40
7.0
 10
80.81573891208774
 20
-121.6611354947583
 30
0.0
 10
80.81573891208774
 20
-121.6611354947583
 30
0.0
 10
80.81573891208774
 20
-120.5568101369615
 30
0.0
 10
80.81573891208774
 20
-120.5568101369615
 30
0.0
 10
80.81573891208774
 20
-120.5568101369615
 30
0.0
 10
80.46296113439816
 20
-120.5568101369615
 30
0.0
 10
80.46296113439816
 20
-120.5568101369615
 30
0.0
 10
80.46296113439816
 20
-120.5568101369615
 30
0.0
 10
80.46296113439816
 20
-120.40884328587
 30
0.0
 10
80.46296113439816
 20
-120.40884328587
 30
0.0
 10
80.81797822415315
 20
-120.3940293752834
 30
0.0
 10
80.867759853915
 20
-120.2310763588311
 30
0.0
 10
80.89945473237931
 20
-120.1168714434951
 30
0.0
 10
80.89945473237931
 20
-120.1168714434951
 30
0.0
 10
81.05534530308687
 20
-120.1168714434951
 30
0.0
 10
81.05534530308687
 20
-120.1168714434951
 30
0.0
 10
81.05534530308687
 20
-120.1168714434951
 30
0.0
 10
81.05534530308687
 20
-121.6611354947583
 30
0.0
 10
81.05534530308687
 20
-121.6611354947583
 30
0.0
 10
81.05534530308687
 20
-121.6611354947583
 30
0.0
 10
80.81573891208774
 20
-121.6611354947583
 30
0.0
 10
80.81573891208774
 20
-121.6611354947583
 30
0.0
  0
HATCH
  5
C6
330
C1
100
AcDbEntity
  8
_U+30EC_U+30A4_U+30E4_U+30FC 1
 62
     7
420
 16777215
100
AcDbHatch
 10
0.0
 20
0.0
 30
0.0
210
0.0
220
0.0
230
1.0
  2
SOLID
 70
     1
 71
     0
 91
        1
 92
        1
 93
        1
 72
     4
 94
        3
 73
     0
 74
     1
 95
       26
 96
       22
 40
0.0
 40
0.0
 40
0.0
 40
0.0
 40
1.0
 40
1.0
 40
1.0
 40
2.0
 40
2.0
 40
2.0
 40
3.0
 40
3.0
 40
3.0
 40
4.0
 40
4.0
 40
4.0
 40
5.0
 40
5.0
 40
5.0
 40
6.0
 40
6.0
 40
6.0
 40
7.0
 40
7.0
 40
7.0
 40
7.0
 10
80.81573891208774
 20
-121.6611354947583
 10
80.81573891208774
 20
-121.6611354947583
 10
80.81573891208774
 20
-120.5568101369615
 10
80.81573891208774
 20
-120.5568101369615
 10
80.81573891208774
 20
-120.5568101369615
 10
80.46296113439816
 20
-120.5568101369615
 10
80.46296113439816
 20
-120.5568101369615
 10
80.46296113439816
 20
-120.5568101369615
 10
80.46296113439816
 20
-120.40884328587
 10
80.46296113439816
 20
-120.40884328587
 10
80.81797822415315
 20
-120.3940293752834
 10
80.867759853915
 20
-120.2310763588311
 10
80.89945473237931
 20
-120.1168714434951
 10
80.89945473237931
 20
-120.1168714434951
 10
81.05534530308687
 20
-120.1168714434951
 10
81.05534530308687
 20
-120.1168714434951
 10
81.05534530308687
 20
-120.1168714434951
 10
81.05534530308687
 20
-121.6611354947583
 10
81.05534530308687
 20
-121.6611354947583
 10
81.05534530308687
 20
-121.6611354947583
 10
80.81573891208774
 20
-121.6611354947583
 10
80.81573891208774
 20
-121.6611354947583
 97
        0
 97
        0
 75
     2
 76
     1
 98
        0
  0
ENDBLK
  5
C4
330
C1
100
AcDbEntity
  8
0
100
AcDbBlockEnd
  0
BLOCK
  5
D5
330
D3
100
AcDbEntity
  8
0
100
AcDbBlockBegin
  2
block 6
 70
     0
 10
0.0
 20
0.0
 30
0.0
  3
block 6
  1

  0
SPLINE
  5
D7
330
D3
100
AcDbEntity
  8
_U+30EC_U+30A4_U+30E4_U+30FC 1
370
     0
100
AcDbSpline
210
0.0
220
0.0
230
1.0
 70
    11
 71
     3
 72
    26
 73
    22
 74
     0
 42
0.0000000001
 43
0.0000000001
 12
1.0
 22
0.0
 32
0.0
 13
1.0
 23
0.0
 33
0.0
 40
0.0
 40
0.0
 40
0.0
 40
0.0
 40
1.0
 40
1.0
 40
1.0
 40
2.0
 40
2.0
 40
2.0
 40
3.0
 40
3.0
 40
3.0
 40
4.0
 40
4.0
 40
4.0
 40
5.0
 40
5.0
 40
5.0
 40
6.0
 40
6.0
 40
6.0
 40
7.0
 40
7.0
 40
7.0
 40
7.0
 10
73.99169377490486
 20
-129.7598659614837
 30
0.0
 10
73.99169377490486
 20
-129.7598659614837
 30
0.0
 10
72.88736841710802
 20
-129.7598659614837
 30
0.0
 10
72.88736841710802
 20
-129.7598659614837
 30
0.0
 10
72.88736841710802
 20
-129.7598659614837
 30
0.0
 10
72.88736841710802
 20
-130.1122992296247
 30
0.0
 10
72.88736841710802
 20
-130.1122992296247
 30
0.0
 10
72.88736841710802
 20
-130.1122992296247
 30
0.0
 10
72.73922931124228
 20
-130.1122992296247
 30
0.0
 10
72.73922931124228
 20
-130.1122992296247
 30
0.0
 10
72.72458765542997
 20
-129.757454394644
 30
0.0
 10
72.56163463897765
 20
-129.7078450196564
 30
0.0
 10
72.44742972364162
 20
-129.6761501411921
 30
0.0
 10
72.44742972364162
 20
-129.6761501411921
 30
0.0
 10
72.44742972364162
 20
-129.5200873157103
 30
0.0
 10
72.44742972364162
 20
-129.5200873157103
 30
0.0
 10
72.44742972364162
 20
-129.5200873157103
 30
0.0
 10
73.99169377490486
 20
-129.5200873157103
 30
0.0
 10
73.99169377490486
 20
-129.5200873157103
 30
0.0
 10
73.99169377490486
 20
-129.5200873157103
 30
0.0
 10
73.99169377490486
 20
-129.7598659614837
 30
0.0
 10
73.99169377490486
 20
-129.7598659614837
 30
0.0
  0
HATCH
  5
D8
330
D3
100
AcDbEntity
  8
_U+30EC_U+30A4_U+30E4_U+30FC 1
 62
     7
420
 16777215
100
AcDbHatch
 10
0.0
 20
0.0
 30
0.0
210
0.0
220
0.0
230
1.0
  2
SOLID
 70
     1
 71
     0
 91
        1
 92
        1
 93
        1
 72
     4
 94
        3
 73
     0
 74
     1
 95
       26
 96
       22
 40
0.0
 40
0.0
 40
0.0
 40
0.0
 40
1.0
 40
1.0
 40
1.0
 40
2.0
 40
2.0
 40
2.0
 40
3.0
 40
3.0
 40
3.0
 40
4.0
 40
4.0
 40
4.0
 40
5.0
 40
5.0
 40
5.0
 40
6.0
 40
6.0
 40
6.0
 40
7.0
 40
7.0
 40
7.0
 40
7.0
 10
73.99169377490486
 20
-129.7598659614837
 10
73.99169377490486
 20
-129.7598659614837
 10
72.88736841710802
 20
-129.7598659614837
 10
72.88736841710802
 20
-129.7598659614837
 10
72.88736841710802
 20
-129.7598659614837
 10
72.88736841710802
 20
-130.1122992296247
 10
72.88736841710802
 20
-130.1122992296247
 10
72.88736841710802
 20
-130.1122992296247
 10
72.73922931124228
 20
-130.1122992296247
 10
72.73922931124228
 20
-130.1122992296247
 10
72.72458765542997
 20
-129.757454394644
 10
72.56163463897765
 20
-129.7078450196564
 10
72.44742972364162
 20
-129.6761501411921
 10
72.44742972364162
 20
-129.6761501411921
 10
72.44742972364162
 20
-129.5200873157103
 10
72.44742972364162
 20
-129.5200873157103
 10
72.44742972364162
 20
-129.5200873157103
 10
73.99169377490486
 20
-129.5200873157103
 10
73.99169377490486
 20
-129.5200873157103
 10
73.99169377490486
 20
-129.5200873157103
 10
73.99169377490486
 20
-129.7598659614837
 10
73.99169377490486
 20
-129.7598659614837
 97
        0
 97
        0
 75
     2
 76
     1
 98
        0
  0
SPLINE
  5
D9
330
D3
100
AcDbEntity
  8
_U+30EC_U+30A4_U+30E4_U+30FC 1
370
     0
100
AcDbSpline
210
0.0
220
0.0
230
1.0
 70
    11
 71
     3
 72
    32
 73
    28
 74
     0
 42
0.0000000001
 43
0.0000000001
 12
1.0
 22
0.0
 32
0.0
 13
1.0
 23
0.0
 33
0.0
 40
0.0
 40
0.0
 40
0.0
 40
0.0
 40
1.0
 40
1.0
 40
1.0
 40
2.0
 40
2.0
 40
2.0
 40
3.0
 40
3.0
 40
3.0
 40
4.0
 40
4.0
 40
4.0
 40
5.0
 40
5.0
 40
5.0
 40
6.0
 40
6.0
 40
6.0
 40
7.0
 40
7.0
 40
7.0
 40
8.0
 40
8.0
 40
8.0
 40
9.0
 40
9.0
 40
9.0
 40
9.0
 10
74.04250893331229
 20
-128.4951714088484
 30
0.0
 10
74.04250893331229
 20
-128.6805175459549
 30
0.0
 10
73.97257349496172
 20
-128.9426893123824
 30
0.0
 10
73.64046629018364
 20
-128.9833414391083
 30
0.0
 10
73.64046629018364
 20
-128.9833414391083
 30
0.0
 10
73.64046629018364
 20
-128.7552761179848
 30
0.0
 10
73.64046629018364
 20
-128.7552761179848
 30
0.0
 10
73.69972193252994
 20
-128.7439073028835
 30
0.0
 10
73.84786103839568
 20
-128.7098008575795
 30
0.0
 10
73.84786103839568
 20
-128.4927598420088
 30
0.0
 10
73.84786103839568
 20
-128.1809787005936
 30
0.0
 10
73.51782089090874
 20
-128.1403265738677
 30
0.0
 10
73.31266545476211
 20
-128.1265461919267
 30
0.0
 10
73.39293617956844
 20
-128.2236978846107
 30
0.0
 10
73.45012476462358
 20
-128.296044889801
 30
0.0
 10
73.45012476462358
 20
-128.4906927847176
 30
0.0
 10
73.45012476462358
 20
-128.6829291127945
 30
0.0
 10
73.34436033322642
 20
-129.006079069311
 30
0.0
 10
72.93818357551545
 20
-129.006079069311
 30
0.0
 10
72.61865096925854
 20
-129.006079069311
 30
0.0
 10
72.39868162252533
 20
-128.7935166778711
 30
0.0
 10
72.39868162252533
 20
-128.4545192821225
 30
0.0
 10
72.39868162252533
 20
-127.9050265522251
 30
0.0
 10
72.95299748610203
 20
-127.8936577371238
 30
0.0
 10
73.16659340618752
 20
-127.8936577371238
 30
0.0
 10
73.39724254892499
 20
-127.8936577371238
 30
0.0
 10
74.04250893331229
 20
-127.9139838004868
 30
0.0
 10
74.04250893331229
 20
-128.4951714088484
 30
0.0
  0
SPLINE
  5
DA
330
D3
100
AcDbEntity
  8
_U+30EC_U+30A4_U+30E4_U+30FC 1
370
     0
100
AcDbSpline
210
0.0
220
0.0
230
1.0
 70
    11
 71
     3
 72
    17
 73
    13
 74
     0
 42
0.0000000001
 43
0.0000000001
 12
1.0
 22
0.0
 32
0.0
 13
1.0
 23
0.0
 33
0.0
 40
0.0
 40
0.0
 40
0.0
 40
0.0
 40
1.0
 40
1.0
 40
1.0
 40
2.0
 40
2.0
 40
2.0
 40
3.0
 40
3.0
 40
3.0
 40
4.0
 40
4.0
 40
4.0
 40
4.0
 10
72.5912624601508
 20
-128.4521077152828
 30
0.0
 10
72.5912624601508
 20
-128.57888722914
 30
0.0
 10
72.64827879043169
 20
-128.7663004235376
 30
0.0
 10
72.9338772061589
 20
-128.7663004235376
 30
0.0
 10
73.1602199795398
 20
-128.7663004235376
 30
0.0
 10
73.25547686970697
 20
-128.6171277890263
 30
0.0
 10
73.25547686970697
 20
-128.4724337786458
 30
0.0
 10
73.25547686970697
 20
-128.1920030061465
 30
0.0
 10
73.04601506420377
 20
-128.1513508794205
 30
0.0
 10
72.9297430915766
 20
-128.1513508794205
 30
0.0
 10
72.75404322182885
 20
-128.1513508794205
 30
0.0
 10
72.5912624601508
 20
-128.2533257057839
 30
0.0
 10
72.5912624601508
 20
-128.4521077152828
 30
0.0
  0
HATCH
  5
DB
330
D3
100
AcDbEntity
  8
_U+30EC_U+30A4_U+30E4_U+30FC 1
 62
     7
420
 16777215
100
AcDbHatch
 10
0.0
 20
0.0
 30
0.0
210
0.0
220
0.0
230
1.0
  2
SOLID
 70
     1
 71
     0
 91
        2
 92
        1
 93
        1
 72
     4
 94
        3
 73
     0
 74
     1
 95
       32
 96
       28
 40
0.0
 40
0.0
 40
0.0
 40
0.0
 40
1.0
 40
1.0
 40
1.0
 40
2.0
 40
2.0
 40
2.0
 40
3.0
 40
3.0
 40
3.0
 40
4.0
 40
4.0
 40
4.0
 40
5.0
 40
5.0
 40
5.0
 40
6.0
 40
6.0
 40
6.0
 40
7.0
 40
7.0
 40
7.0
 40
8.0
 40
8.0
 40
8.0
 40
9.0
 40
9.0
 40
9.0
 40
9.0
 10
74.04250893331229
 20
-128.4951714088484
 10
74.04250893331229
 20
-128.6805175459549
 10
73.97257349496172
 20
-128.9426893123824
 10
73.64046629018364
 20
-128.9833414391083
 10
73.64046629018364
 20
-128.9833414391083
 10
73.64046629018364
 20
-128.7552761179848
 10
73.64046629018364
 20
-128.7552761179848
 10
73.69972193252994
 20
-128.7439073028835
 10
73.84786103839568
 20
-128.7098008575795
 10
73.84786103839568
 20
-128.4927598420088
 10
73.84786103839568
 20
-128.1809787005936
 10
73.51782089090874
 20
-128.1403265738677
 10
73.31266545476211
 20
-128.1265461919267
 10
73.39293617956844
 20
-128.2236978846107
 10
73.45012476462358
 20
-128.296044889801
 10
73.45012476462358
 20
-128.4906927847176
 10
73.45012476462358
 20
-128.6829291127945
 10
73.34436033322642
 20
-129.006079069311
 10
72.93818357551545
 20
-129.006079069311
 10
72.61865096925854
 20
-129.006079069311
 10
72.39868162252533
 20
-128.7935166778711
 10
72.39868162252533
 20
-128.4545192821225
 10
72.39868162252533
 20
-127.9050265522251
 10
72.95299748610203
 20
-127.8936577371238
 10
73.16659340618752
 20
-127.8936577371238
 10
73.39724254892499
 20
-127.8936577371238
 10
74.04250893331229
 20
-127.9139838004868
 10
74.04250893331229
 20
-128.4951714088484
 97
        0
 97
        0
 92
        1
 93
        1
 72
     4
 94
        3
 73
     0
 74
     1
 95
       17
 96
       13
 40
0.0
 40
0.0
 40
0.0
 40
0.0
 40
1.0
 40
1.0
 40
1.0
 40
2.0
 40
2.0
 40
2.0
 40
3.0
 40
3.0
 40
3.0
 40
4.0
 40
4.0
 40
4.0
 40
4.0
 10
72.5912624601508
 20
-128.4521077152828
 10
72.5912624601508
 20
-128.57888722914
 10
72.64827879043169
 20
-128.7663004235376
 10
72.9338772061589
 20
-128.7663004235376
 10
73.1602199795398
 20
-128.7663004235376
 10
73.25547686970697
 20
-128.6171277890263
 10
73.25547686970697
 20
-128.4724337786458
 10
73.25547686970697
 20
-128.1920030061465
 10
73.04601506420377
 20
-128.1513508794205
 10
72.9297430915766
 20
-128.1513508794205
 10
72.75404322182885
 20
-128.1513508794205
 10
72.5912624601508
 20
-128.2533257057839
 10
72.5912624601508
 20
-128.4521077152828
 97
        0
 97
        0
 75
     2
 76
     1
 98
        0
  0
ENDBLK
  5
D6
330
D3
100
AcDbEntity
  8
0
100
AcDbBlockEnd
  0
BLOCK
  5
EA
330
E8
100
AcDbEntity
  8
0
100
AcDbBlockBegin
  2
block 7
 70
     0
 10
0.0
 20
0.0
 30
0.0
  3
block 7
  1

  0
SPLINE
  5
EC
330
E8
100
AcDbEntity
  8
_U+30EC_U+30A4_U+30E4_U+30FC 1
370
     0
100
AcDbSpline
210
0.0
220
0.0
230
1.0
 70
    11
 71
     3
 72
    26
 73
    22
 74
     0
 42
0.0000000001
 43
0.0000000001
 12
1.0
 22
0.0
 32
0.0
 13
1.0
 23
0.0
 33
0.0
 40
0.0
 40
0.0
 40
0.0
 40
0.0
 40
1.0
 40
1.0
 40
1.0
 40
2.0
 40
2.0
 40
2.0
 40
3.0
 40
3.0
 40
3.0
 40
4.0
 40
4.0
 40
4.0
 40
5.0
 40
5.0
 40
5.0
 40
6.0
 40
6.0
 40
6.0
 40
7.0
 40
7.0
 40
7.0
 40
7.0
 10
87.40689559446773
 20
-141.981686704956
 30
0.0
 10
87.40689559446773
 20
-141.981686704956
 30
0.0
 10
87.40689559446773
 20
-140.8775336019334
 30
0.0
 10
87.40689559446773
 20
-140.8775336019334
 30
0.0
 10
87.40689559446773
 20
-140.8775336019334
 30
0.0
 10
87.05446232632667
 20
-140.8775336019334
 30
0.0
 10
87.05446232632667
 20
-140.8775336019334
 30
0.0
 10
87.05446232632667
 20
-140.8775336019334
 30
0.0
 10
87.05446232632667
 20
-140.7293944960677
 30
0.0
 10
87.05446232632667
 20
-140.7293944960677
 30
0.0
 10
87.4093071613074
 20
-140.7145805854811
 30
0.0
 10
87.45891653629499
 20
-140.5516275690288
 30
0.0
 10
87.4906114147593
 20
-140.4372503989185
 30
0.0
 10
87.4906114147593
 20
-140.4372503989185
 30
0.0
 10
87.64667424024111
 20
-140.4372503989185
 30
0.0
 10
87.64667424024111
 20
-140.4372503989185
 30
0.0
 10
87.64667424024111
 20
-140.4372503989185
 30
0.0
 10
87.64667424024111
 20
-141.981686704956
 30
0.0
 10
87.64667424024111
 20
-141.981686704956
 30
0.0
 10
87.64667424024111
 20
-141.981686704956
 30
0.0
 10
87.40689559446773
 20
-141.981686704956
 30
0.0
 10
87.40689559446773
 20
-141.981686704956
 30
0.0
  0
HATCH
  5
ED
330
E8
100
AcDbEntity
  8
_U+30EC_U+30A4_U+30E4_U+30FC 1
 62
     7
420
 16777215
100
AcDbHatch
 10
0.0
 20
0.0
 30
0.0
210
0.0
220
0.0
230
1.0
  2
SOLID
 70
     1
 71
     0
 91
        1
 92
        1
 93
        1
 72
     4
 94
        3
 73
     0
 74
     1
 95
       26
 96
       22
 40
0.0
 40
0.0
 40
0.0
 40
0.0
 40
1.0
 40
1.0
 40
1.0
 40
2.0
 40
2.0
 40
2.0
 40
3.0
 40
3.0
 40
3.0
 40
4.0
 40
4.0
 40
4.0
 40
5.0
 40
5.0
 40
5.0
 40
6.0
 40
6.0
 40
6.0
 40
7.0
 40
7.0
 40
7.0
 40
7.0
 10
87.40689559446773
 20
-141.981686704956
 10
87.40689559446773
 20
-141.981686704956
 10
87.40689559446773
 20
-140.8775336019334
 10
87.40689559446773
 20
-140.8775336019334
 10
87.40689559446773
 20
-140.8775336019334
 10
87.05446232632667
 20
-140.8775336019334
 10
87.05446232632667
 20
-140.8775336019334
 10
87.05446232632667
 20
-140.8775336019334
 10
87.05446232632667
 20
-140.7293944960677
 10
87.05446232632667
 20
-140.7293944960677
 10
87.4093071613074
 20
-140.7145805854811
 10
87.45891653629499
 20
-140.5516275690288
 10
87.4906114147593
 20
-140.4372503989185
 10
87.4906114147593
 20
-140.4372503989185
 10
87.64667424024111
 20
-140.4372503989185
 10
87.64667424024111
 20
-140.4372503989185
 10
87.64667424024111
 20
-140.4372503989185
 10
87.64667424024111
 20
-141.981686704956
 10
87.64667424024111
 20
-141.981686704956
 10
87.64667424024111
 20
-141.981686704956
 10
87.40689559446773
 20
-141.981686704956
 10
87.40689559446773
 20
-141.981686704956
 97
        0
 97
        0
 75
     2
 76
     1
 98
        0
  0
SPLINE
  5
EE
330
E8
100
AcDbEntity
  8
_U+30EC_U+30A4_U+30E4_U+30FC 1
370
     0
100
AcDbSpline
210
0.0
220
0.0
230
1.0
 70
    11
 71
     3
 72
    32
 73
    28
 74
     0
 42
0.0000000001
 43
0.0000000001
 12
1.0
 22
0.0
 32
0.0
 13
1.0
 23
0.0
 33
0.0
 40
0.0
 40
0.0
 40
0.0
 40
0.0
 40
1.0
 40
1.0
 40
1.0
 40
2.0
 40
2.0
 40
2.0
 40
3.0
 40
3.0
 40
3.0
 40
4.0
 40
4.0
 40
4.0
 40
5.0
 40
5.0
 40
5.0
 40
6.0
 40
6.0
 40
6.0
 40
7.0
 40
7.0
 40
7.0
 40
8.0
 40
8.0
 40
8.0
 40
9.0
 40
9.0
 40
9.0
 40
9.0
 10
88.67159014710295
 20
-142.0323296085892
 30
0.0
 10
88.4862440099965
 20
-142.0323296085892
 30
0.0
 10
88.22407224356898
 20
-141.9627386797871
 30
0.0
 10
88.18342011684304
 20
-141.630631475009
 30
0.0
 10
88.18342011684304
 20
-141.630631475009
 30
0.0
 10
88.41148543796658
 20
-141.630631475009
 30
0.0
 10
88.41148543796658
 20
-141.630631475009
 30
0.0
 10
88.4228542530679
 20
-141.6898871173553
 30
0.0
 10
88.45696069837187
 20
-141.8376817136725
 30
0.0
 10
88.67400171394262
 20
-141.8376817136725
 30
0.0
 10
88.98578285535773
 20
-141.8376817136725
 30
0.0
 10
89.02643498208367
 20
-141.5079860757341
 30
0.0
 10
89.04021536402468
 20
-141.3026583848132
 30
0.0
 10
88.94306367134062
 20
-141.3829291096195
 30
0.0
 10
88.87071666615039
 20
-141.4401176946747
 30
0.0
 10
88.67606877123376
 20
-141.4401176946747
 30
0.0
 10
88.48383244315683
 20
-141.4401176946747
 30
0.0
 10
88.16068248664038
 20
-141.3343532632775
 30
0.0
 10
88.16068248664038
 20
-140.9281765055666
 30
0.0
 10
88.16068248664038
 20
-140.6088161540839
 30
0.0
 10
88.3732448780803
 20
-140.3886745525764
 30
0.0
 10
88.71224227382889
 20
-140.3886745525764
 30
0.0
 10
89.26173500372624
 20
-140.3886745525764
 30
0.0
 10
89.27310381882756
 20
-140.9429904161532
 30
0.0
 10
89.27310381882756
 20
-141.1565863362386
 30
0.0
 10
89.27310381882756
 20
-141.3870632242019
 30
0.0
 10
89.25277775546459
 20
-142.0323296085892
 30
0.0
 10
88.67159014710295
 20
-142.0323296085892
 30
0.0
  0
SPLINE
  5
EF
330
E8
100
AcDbEntity
  8
_U+30EC_U+30A4_U+30E4_U+30FC 1
370
     0
100
AcDbSpline
210
0.0
220
0.0
230
1.0
 70
    11
 71
     3
 72
    17
 73
    13
 74
     0
 42
0.0000000001
 43
0.0000000001
 12
1.0
 22
0.0
 32
0.0
 13
1.0
 23
0.0
 33
0.0
 40
0.0
 40
0.0
 40
0.0
 40
0.0
 40
1.0
 40
1.0
 40
1.0
 40
2.0
 40
2.0
 40
2.0
 40
3.0
 40
3.0
 40
3.0
 40
4.0
 40
4.0
 40
4.0
 40
4.0
 10
88.71465384066856
 20
-140.5812553902019
 30
0.0
 10
88.58787432681137
 20
-140.5812553902019
 30
0.0
 10
88.40046113241378
 20
-140.6384439752571
 30
0.0
 10
88.40046113241378
 20
-140.9240423909843
 30
0.0
 10
88.40046113241378
 20
-141.1503851643652
 30
0.0
 10
88.5496337669251
 20
-141.2454697997581
 30
0.0
 10
88.69432777730559
 20
-141.2454697997581
 30
0.0
 10
88.9744140402564
 20
-141.2454697997581
 30
0.0
 10
89.01541067653088
 20
-141.0360079942549
 30
0.0
 10
89.01541067653088
 20
-140.9195637668535
 30
0.0
 10
89.01541067653088
 20
-140.7442084066542
 30
0.0
 10
88.91343585016747
 20
-140.5812553902019
 30
0.0
 10
88.71465384066856
 20
-140.5812553902019
 30
0.0
  0
HATCH
  5
F0
330
E8
100
AcDbEntity
  8
_U+30EC_U+30A4_U+30E4_U+30FC 1
 62
     7
420
 16777215
100
AcDbHatch
 10
0.0
 20
0.0
 30
0.0
210
0.0
220
0.0
230
1.0
  2
SOLID
 70
     1
 71
     0
 91
        2
 92
        1
 93
        1
 72
     4
 94
        3
 73
     0
 74
     1
 95
       32
 96
       28
 40
0.0
 40
0.0
 40
0.0
 40
0.0
 40
1.0
 40
1.0
 40
1.0
 40
2.0
 40
2.0
 40
2.0
 40
3.0
 40
3.0
 40
3.0
 40
4.0
 40
4.0
 40
4.0
 40
5.0
 40
5.0
 40
5.0
 40
6.0
 40
6.0
 40
6.0
 40
7.0
 40
7.0
 40
7.0
 40
8.0
 40
8.0
 40
8.0
 40
9.0
 40
9.0
 40
9.0
 40
9.0
 10
88.67159014710295
 20
-142.0323296085892
 10
88.4862440099965
 20
-142.0323296085892
 10
88.22407224356898
 20
-141.9627386797871
 10
88.18342011684304
 20
-141.630631475009
 10
88.18342011684304
 20
-141.630631475009
 10
88.41148543796658
 20
-141.630631475009
 10
88.41148543796658
 20
-141.630631475009
 10
88.4228542530679
 20
-141.6898871173553
 10
88.45696069837187
 20
-141.8376817136725
 10
88.67400171394262
 20
-141.8376817136725
 10
88.98578285535773
 20
-141.8376817136725
 10
89.02643498208367
 20
-141.5079860757341
 10
89.04021536402468
 20
-141.3026583848132
 10
88.94306367134062
 20
-141.3829291096195
 10
88.87071666615039
 20
-141.4401176946747
 10
88.67606877123376
 20
-141.4401176946747
 10
88.48383244315683
 20
-141.4401176946747
 10
88.16068248664038
 20
-141.3343532632775
 10
88.16068248664038
 20
-140.9281765055666
 10
88.16068248664038
 20
-140.6088161540839
 10
88.3732448780803
 20
-140.3886745525764
 10
88.71224227382889
 20
-140.3886745525764
 10
89.26173500372624
 20
-140.3886745525764
 10
89.27310381882756
 20
-140.9429904161532
 10
89.27310381882756
 20
-141.1565863362386
 10
89.27310381882756
 20
-141.3870632242019
 10
89.25277775546459
 20
-142.0323296085892
 10
88.67159014710295
 20
-142.0323296085892
 97
        0
 97
        0
 92
        1
 93
        1
 72
     4
 94
        3
 73
     0
 74
     1
 95
       17
 96
       13
 40
0.0
 40
0.0
 40
0.0
 40
0.0
 40
1.0
 40
1.0
 40
1.0
 40
2.0
 40
2.0
 40
2.0
 40
3.0
 40
3.0
 40
3.0
 40
4.0
 40
4.0
 40
4.0
 40
4.0
 10
88.71465384066856
 20
-140.5812553902019
 10
88.58787432681137
 20
-140.5812553902019
 10
88.40046113241378
 20
-140.6384439752571
 10
88.40046113241378
 20
-140.9240423909843
 10
88.40046113241378
 20
-141.1503851643652
 10
88.5496337669251
 20
-141.2454697997581
 10
88.69432777730559
 20
-141.2454697997581
 10
88.9744140402564
 20
-141.2454697997581
 10
89.01541067653088
 20
-141.0360079942549
 10
89.01541067653088
 20
-140.9195637668535
 10
89.01541067653088
 20
-140.7442084066542
 10
88.91343585016747
 20
-140.5812553902019
 10
88.71465384066856
 20
-140.5812553902019
 97
        0
 97
        0
 75
     2
 76
     1
 98
        0
  0
ENDBLK
  5
EB
330
E8
100
AcDbEntity
  8
0
100
AcDbBlockEnd
  0
BLOCK
  5
FF
330
FD
100
AcDbEntity
  8
0
100
AcDbBlockBegin
  2
block 8
 70
     0
 10
0.0
 20
0.0
 30
0.0
  3
block 8
  1

  0
SPLINE
  5
101
330
FD
100
AcDbEntity
  8
_U+30EC_U+30A4_U+30E4_U+30FC 1
370
     0
100
AcDbSpline
210
0.0
220
0.0
230
1.0
 70
    11
 71
     3
 72
    26
 73
    22
 74
     0
 42
0.0000000001
 43
0.0000000001
 12
1.0
 22
0.0
 32
0.0
 13
1.0
 23
0.0
 33
0.0
 40
0.0
 40
0.0
 40
0.0
 40
0.0
 40
1.0
 40
1.0
 40
1.0
 40
2.0
 40
2.0
 40
2.0
 40
3.0
 40
3.0
 40
3.0
 40
4.0
 40
4.0
 40
4.0
 40
5.0
 40
5.0
 40
5.0
 40
6.0
 40
6.0
 40
6.0
 40
7.0
 40
7.0
 40
7.0
 40
7.0
 10
100.9919406214534
 20
-132.0901285477066
 30
0.0
 10
100.9919406214534
 20
-132.0901285477066
 30
0.0
 10
99.88778751843084
 20
-132.0901285477066
 30
0.0
 10
99.88778751843084
 20
-132.0901285477066
 30
0.0
 10
99.88778751843084
 20
-132.0901285477066
 30
0.0
 10
99.88778751843084
 20
-132.4425618158477
 30
0.0
 10
99.88778751843084
 20
-132.4425618158477
 30
0.0
 10
99.88778751843084
 20
-132.4425618158477
 30
0.0
 10
99.73964841256509
 20
-132.4425618158477
 30
0.0
 10
99.73964841256509
 20
-132.4425618158477
 30
0.0
 10
99.72483450197852
 20
-132.087716980867
 30
0.0
 10
99.5618814855262
 20
-132.0381076058794
 30
0.0
 10
99.44750431541591
 20
-132.0064127274151
 30
0.0
 10
99.44750431541591
 20
-132.0064127274151
 30
0.0
 10
99.44750431541591
 20
-131.8503499019332
 30
0.0
 10
99.44750431541591
 20
-131.8503499019332
 30
0.0
 10
99.44750431541591
 20
-131.8503499019332
 30
0.0
 10
100.9919406214534
 20
-131.8503499019332
 30
0.0
 10
100.9919406214534
 20
-131.8503499019332
 30
0.0
 10
100.9919406214534
 20
-131.8503499019332
 30
0.0
 10
100.9919406214534
 20
-132.0901285477066
 30
0.0
 10
100.9919406214534
 20
-132.0901285477066
 30
0.0
  0
HATCH
  5
102
330
FD
100
AcDbEntity
  8
_U+30EC_U+30A4_U+30E4_U+30FC 1
 62
     7
420
 16777215
100
AcDbHatch
 10
0.0
 20
0.0
 30
0.0
210
0.0
220
0.0
230
1.0
  2
SOLID
 70
     1
 71
     0
 91
        1
 92
        1
 93
        1
 72
     4
 94
        3
 73
     0
 74
     1
 95
       26
 96
       22
 40
0.0
 40
0.0
 40
0.0
 40
0.0
 40
1.0
 40
1.0
 40
1.0
 40
2.0
 40
2.0
 40
2.0
 40
3.0
 40
3.0
 40
3.0
 40
4.0
 40
4.0
 40
4.0
 40
5.0
 40
5.0
 40
5.0
 40
6.0
 40
6.0
 40
6.0
 40
7.0
 40
7.0
 40
7.0
 40
7.0
 10
100.9919406214534
 20
-132.0901285477066
 10
100.9919406214534
 20
-132.0901285477066
 10
99.88778751843084
 20
-132.0901285477066
 10
99.88778751843084
 20
-132.0901285477066
 10
99.88778751843084
 20
-132.0901285477066
 10
99.88778751843084
 20
-132.4425618158477
 10
99.88778751843084
 20
-132.4425618158477
 10
99.88778751843084
 20
-132.4425618158477
 10
99.73964841256509
 20
-132.4425618158477
 10
99.73964841256509
 20
-132.4425618158477
 10
99.72483450197852
 20
-132.087716980867
 10
99.5618814855262
 20
-132.0381076058794
 10
99.44750431541591
 20
-132.0064127274151
 10
99.44750431541591
 20
-132.0064127274151
 10
99.44750431541591
 20
-131.8503499019332
 10
99.44750431541591
 20
-131.8503499019332
 10
99.44750431541591
 20
-131.8503499019332
 10
100.9919406214534
 20
-131.8503499019332
 10
100.9919406214534
 20
-131.8503499019332
 10
100.9919406214534
 20
-131.8503499019332
 10
100.9919406214534
 20
-132.0901285477066
 10
100.9919406214534
 20
-132.0901285477066
 97
        0
 97
        0
 75
     2
 76
     1
 98
        0
  0
SPLINE
  5
103
330
FD
100
AcDbEntity
  8
_U+30EC_U+30A4_U+30E4_U+30FC 1
370
     0
100
AcDbSpline
210
0.0
220
0.0
230
1.0
 70
    11
 71
     3
 72
    62
 73
    58
 74
     0
 42
0.0000000001
 43
0.0000000001
 12
1.0
 22
0.0
 32
0.0
 13
1.0
 23
0.0
 33
0.0
 40
0.0
 40
0.0
 40
0.0
 40
0.0
 40
1.0
 40
1.0
 40
1.0
 40
2.0
 40
2.0
 40
2.0
 40
3.0
 40
3.0
 40
3.0
 40
4.0
 40
4.0
 40
4.0
 40
5.0
 40
5.0
 40
5.0
 40
6.0
 40
6.0
 40
6.0
 40
7.0
 40
7.0
 40
7.0
 40
8.0
 40
8.0
 40
8.0
 40
9.0
 40
9.0
 40
9.0
 40
10.0
 40
10.0
 40
10.0
 40
11.0
 40
11.0
 40
11.0
 40
12.0
 40
12.0
 40
12.0
 40
13.0
 40
13.0
 40
13.0
 40
14.0
 40
14.0
 40
14.0
 40
15.0
 40
15.0
 40
15.0
 40
16.0
 40
16.0
 40
16.0
 40
17.0
 40
17.0
 40
17.0
 40
18.0
 40
18.0
 40
18.0
 40
19.0
 40
19.0
 40
19.0
 40
19.0
 10
101.0425835250866
 20
-130.7892604924763
 30
0.0
 10
101.0425835250866
 20
-130.8908908092912
 30
0.0
 10
101.0215684426266
 20
-131.1237792640941
 30
0.0
 10
100.8355332864231
 20
-131.2571044593732
 30
0.0
 10
100.7232231736039
 20
-131.336341655534
 30
0.0
 10
100.6240044236287
 20
-131.3408202796648
 30
0.0
 10
100.5392550746916
 20
-131.3452989037956
 30
0.0
 10
100.5392550746916
 20
-131.3452989037956
 30
0.0
 10
100.5392550746916
 20
-131.1103433917016
 30
0.0
 10
100.5392550746916
 20
-131.1103433917016
 30
0.0
 10
100.6133246276245
 20
-131.1079318248619
 30
0.0
 10
100.84793563017
 20
-131.0965630097606
 30
0.0
 10
100.84793563017
 20
-130.7937391166071
 30
0.0
 10
100.84793563017
 20
-130.646633539387
 30
0.0
 10
100.7783447013679
 20
-130.4840250324832
 30
0.0
 10
100.5499348706959
 20
-130.4840250324832
 30
0.0
 10
100.4334906432944
 20
-130.4840250324832
 30
0.0
 10
100.3849147969524
 20
-130.5246771592091
 30
0.0
 10
100.3532199184881
 20
-130.5587836045131
 30
0.0
 10
100.2791503655552
 20
-130.6376762911253
 30
0.0
 10
100.2664035122598
 20
-130.7620442381428
 30
0.0
 10
100.2664035122598
 20
-130.8209553709406
 30
0.0
 10
100.2664035122598
 20
-130.8412814343036
 30
0.0
 10
100.2684705695509
 20
-130.8795219941898
 30
0.0
 10
100.2726046841332
 20
-130.909149815363
 30
0.0
 10
100.2726046841332
 20
-130.909149815363
 30
0.0
 10
100.0779567892166
 20
-130.909149815363
 30
0.0
 10
100.0779567892166
 20
-130.909149815363
 30
0.0
 10
100.0845024706386
 20
-130.868497688637
 30
0.0
 10
100.0865695279298
 20
-130.8230224282318
 30
0.0
 10
100.0865695279298
 20
-130.8164767468098
 30
0.0
 10
100.0865695279298
 20
-130.7461967989107
 30
0.0
 10
100.0652099359212
 20
-130.5336344074708
 30
0.0
 10
99.82853187608454
 20
-130.5336344074708
 30
0.0
 10
99.65076494904565
 20
-130.5336344074708
 30
0.0
 10
99.59564342128165
 20
-130.6738497937204
 30
0.0
 10
99.59564342128165
 20
-130.7913275497675
 30
0.0
 10
99.59564342128165
 20
-131.0741698891065
 30
0.0
 10
99.82853187608454
 20
-131.0831271373681
 30
0.0
 10
99.90018986217774
 20
-131.0876057614989
 30
0.0
 10
99.90018986217774
 20
-131.0876057614989
 30
0.0
 10
99.90018986217774
 20
-131.3046467770697
 30
0.0
 10
99.90018986217774
 20
-131.3046467770697
 30
0.0
 10
99.7754774056117
 20
-131.295689528808
 30
0.0
 10
99.39892846907388
 20
-131.2664062171834
 30
0.0
 10
99.39892846907388
 20
-130.777891677375
 30
0.0
 10
99.39892846907388
 20
-130.5381130316016
 30
0.0
 10
99.52605249247961
 20
-130.2804198893049
 30
0.0
 10
99.82198619466256
 20
-130.2804198893049
 30
0.0
 10
100.0083658604146
 20
-130.2804198893049
 30
0.0
 10
100.0907036425121
 20
-130.3823947156683
 30
0.0
 10
100.1520263421495
 20
-130.488503656614
 30
0.0
 10
100.1795871060315
 20
-130.4230468423943
 30
0.0
 10
100.2598578308378
 20
-130.2283989474776
 30
0.0
 10
100.5371880174004
 20
-130.2283989474776
 30
0.0
 10
100.875496394052
 20
-130.2283989474776
 30
0.0
 10
101.0425835250866
 20
-130.4929822807448
 30
0.0
 10
101.0425835250866
 20
-130.7892604924763
 30
0.0
  0
HATCH
  5
104
330
FD
100
AcDbEntity
  8
_U+30EC_U+30A4_U+30E4_U+30FC 1
 62
     7
420
 16777215
100
AcDbHatch
 10
0.0
 20
0.0
 30
0.0
210
0.0
220
0.0
230
1.0
  2
SOLID
 70
     1
 71
     0
 91
        1
 92
        1
 93
        1
 72
     4
 94
        3
 73
     0
 74
     1
 95
       62
 96
       58
 40
0.0
 40
0.0
 40
0.0
 40
0.0
 40
1.0
 40
1.0
 40
1.0
 40
2.0
 40
2.0
 40
2.0
 40
3.0
 40
3.0
 40
3.0
 40
4.0
 40
4.0
 40
4.0
 40
5.0
 40
5.0
 40
5.0
 40
6.0
 40
6.0
 40
6.0
 40
7.0
 40
7.0
 40
7.0
 40
8.0
 40
8.0
 40
8.0
 40
9.0
 40
9.0
 40
9.0
 40
10.0
 40
10.0
 40
10.0
 40
11.0
 40
11.0
 40
11.0
 40
12.0
 40
12.0
 40
12.0
 40
13.0
 40
13.0
 40
13.0
 40
14.0
 40
14.0
 40
14.0
 40
15.0
 40
15.0
 40
15.0
 40
16.0
 40
16.0
 40
16.0
 40
17.0
 40
17.0
 40
17.0
 40
18.0
 40
18.0
 40
18.0
 40
19.0
 40
19.0
 40
19.0
 40
19.0
 10
101.0425835250866
 20
-130.7892604924763
 10
101.0425835250866
 20
-130.8908908092912
 10
101.0215684426266
 20
-131.1237792640941
 10
100.8355332864231
 20
-131.2571044593732
 10
100.7232231736039
 20
-131.336341655534
 10
100.6240044236287
 20
-131.3408202796648
 10
100.5392550746916
 20
-131.3452989037956
 10
100.5392550746916
 20
-131.3452989037956
 10
100.5392550746916
 20
-131.1103433917016
 10
100.5392550746916
 20
-131.1103433917016
 10
100.6133246276245
 20
-131.1079318248619
 10
100.84793563017
 20
-131.0965630097606
 10
100.84793563017
 20
-130.7937391166071
 10
100.84793563017
 20
-130.646633539387
 10
100.7783447013679
 20
-130.4840250324832
 10
100.5499348706959
 20
-130.4840250324832
 10
100.4334906432944
 20
-130.4840250324832
 10
100.3849147969524
 20
-130.5246771592091
 10
100.3532199184881
 20
-130.5587836045131
 10
100.2791503655552
 20
-130.6376762911253
 10
100.2664035122598
 20
-130.7620442381428
 10
100.2664035122598
 20
-130.8209553709406
 10
100.2664035122598
 20
-130.8412814343036
 10
100.2684705695509
 20
-130.8795219941898
 10
100.2726046841332
 20
-130.909149815363
 10
100.2726046841332
 20
-130.909149815363
 10
100.0779567892166
 20
-130.909149815363
 10
100.0779567892166
 20
-130.909149815363
 10
100.0845024706386
 20
-130.868497688637
 10
100.0865695279298
 20
-130.8230224282318
 10
100.0865695279298
 20
-130.8164767468098
 10
100.0865695279298
 20
-130.7461967989107
 10
100.0652099359212
 20
-130.5336344074708
 10
99.82853187608454
 20
-130.5336344074708
 10
99.65076494904565
 20
-130.5336344074708
 10
99.59564342128165
 20
-130.6738497937204
 10
99.59564342128165
 20
-130.7913275497675
 10
99.59564342128165
 20
-131.0741698891065
 10
99.82853187608454
 20
-131.0831271373681
 10
99.90018986217774
 20
-131.0876057614989
 10
99.90018986217774
 20
-131.0876057614989
 10
99.90018986217774
 20
-131.3046467770697
 10
99.90018986217774
 20
-131.3046467770697
 10
99.7754774056117
 20
-131.295689528808
 10
99.39892846907388
 20
-131.2664062171834
 10
99.39892846907388
 20
-130.777891677375
 10
99.39892846907388
 20
-130.5381130316016
 10
99.52605249247961
 20
-130.2804198893049
 10
99.82198619466256
 20
-130.2804198893049
 10
100.0083658604146
 20
-130.2804198893049
 10
100.0907036425121
 20
-130.3823947156683
 10
100.1520263421495
 20
-130.488503656614
 10
100.1795871060315
 20
-130.4230468423943
 10
100.2598578308378
 20
-130.2283989474776
 10
100.5371880174004
 20
-130.2283989474776
 10
100.875496394052
 20
-130.2283989474776
 10
101.0425835250866
 20
-130.4929822807448
 10
101.0425835250866
 20
-130.7892604924763
 97
        0
 97
        0
 75
     2
 76
     1
 98
        0
  0
ENDBLK
  5
100
330
FD
100
AcDbEntity
  8
0
100
AcDbBlockEnd
  0
ENDSEC
  0
SECTION
  2
ENTITIES
  0
INSERT
  5
42
330
1F
100
AcDbEntity
  8
_U+30EC_U+30A4_U+30E4_U+30FC 1
100
AcDbBlockReference
  2
block 2
 10
0.0
 20
0.0
 30
0.0
  0
SPLINE
  5
46
330
1F
100
AcDbEntity
  8
_U+30EC_U+30A4_U+30E4_U+30FC 1
370
     0
100
AcDbSpline
210
0.0
220
0.0
230
1.0
 70
    11
 71
     3
 72
    77
 73
    73
 74
     0
 42
0.0000000001
 43
0.0000000001
 12
1.0
 22
0.0
 32
0.0
 13
1.0
 23
0.0
 33
0.0
 40
0.0
 40
0.0
 40
0.0
 40
0.0
 40
1.0
 40
1.0
 40
1.0
 40
2.0
 40
2.0
 40
2.0
 40
3.0
 40
3.0
 40
3.0
 40
4.0
 40
4.0
 40
4.0
 40
5.0
 40
5.0
 40
5.0
 40
6.0
 40
6.0
 40
6.0
 40
7.0
 40
7.0
 40
7.0
 40
8.0
 40
8.0
 40
8.0
 40
9.0
 40
9.0
 40
9.0
 40
10.0
 40
10.0
 40
10.0
 40
11.0
 40
11.0
 40
11.0
 40
12.0
 40
12.0
 40
12.0
 40
13.0
 40
13.0
 40
13.0
 40
14.0
 40
14.0
 40
14.0
 40
15.0
 40
15.0
 40
15.0
 40
16.0
 40
16.0
 40
16.0
 40
17.0
 40
17.0
 40
17.0
 40
18.0
 40
18.0
 40
18.0
 40
19.0
 40
19.0
 40
19.0
 40
20.0
 40
20.0
 40
20.0
 40
21.0
 40
21.0
 40
21.0
 40
22.0
 40
22.0
 40
22.0
 40
23.0
 40
23.0
 40
23.0
 40
24.0
 40
24.0
 40
24.0
 40
24.0
 10
102.8884476528748
 20
-124.8251249687937
 30
0.0
 10
102.8884476528748
 20
-124.8251249687937
 30
0.0
 10
98.10806194149926
 20
-124.8251249687937
 30
0.0
 10
98.10806194149926
 20
-124.8251249687937
 30
0.0
 10
98.1056277748947
 20
-124.8251249687937
 30
0.0
 10
98.10322888606701
 20
-124.8265008021266
 30
0.0
 10
98.10082999723932
 20
-124.8266771910155
 30
0.0
 10
98.09151666414358
 20
-124.8271710799043
 30
0.0
 10
98.0832616643542
 20
-124.8296052465705
 30
0.0
 10
98.07430110902725
 20
-124.8320041354588
 30
0.0
 10
98.06601083146096
 20
-124.8342266354583
 30
0.0
 10
98.0574055310414
 20
-124.8363080243467
 30
0.0
 10
98.0494655541053
 20
-124.8402591354567
 30
0.0
 10
98.04741944304638
 20
-124.8414585799008
 30
0.0
 10
98.04466777644991
 20
-124.8414585799008
 30
0.0
 10
98.04191610985345
 20
-124.8428696910115
 30
0.0
 10
98.04191610985345
 20
-124.8428696910115
 30
0.0
 10
97.55338945565013
 20
-125.1251624687186
 30
0.0
 10
97.55338945565013
 20
-125.1251624687186
 30
0.0
 10
97.55338945565013
 20
-125.1251624687186
 30
0.0
 10
79.58860491396997
 20
-125.1251624687186
 30
0.0
 10
79.58860491396997
 20
-125.1251624687186
 30
0.0
 10
79.51554463805611
 20
-125.1251624687186
 30
0.0
 10
79.45631325067835
 20
-125.1844291353706
 30
0.0
 10
79.45631325067835
 20
-125.2574541353522
 30
0.0
 10
79.45631325067835
 20
-125.2836655242346
 30
0.0
 10
79.46594408376598
 20
-125.3067371908956
 30
0.0
 10
79.47920852787202
 20
-125.327409968668
 30
0.0
 10
79.46594408376598
 20
-125.3480827464407
 30
0.0
 10
79.45631325067835
 20
-125.3711544131018
 30
0.0
 10
79.45631325067835
 20
-125.3973305242064
 30
0.0
 10
79.45631325067835
 20
-125.3973305242064
 30
0.0
 10
79.45631325067835
 20
-137.5781827433831
 30
0.0
 10
79.45631325067835
 20
-137.5781827433831
 30
0.0
 10
79.45631325067835
 20
-137.6512077433649
 30
0.0
 10
79.51554463805611
 20
-137.7104744100167
 30
0.0
 10
79.58860491396997
 20
-137.7104744100167
 30
0.0
 10
79.58860491396997
 20
-137.7104744100167
 30
0.0
 10
98.4435888773837
 20
-137.7104744100167
 30
0.0
 10
98.4435888773837
 20
-137.7104744100167
 30
0.0
 10
98.3791716568049
 20
-138.1262935765795
 30
0.0
 10
98.02191361036375
 20
-138.4463335764994
 30
0.0
 10
97.58852612142039
 20
-138.4463335764994
 30
0.0
 10
97.5561411222466
 20
-138.4463335764994
 30
0.0
 10
97.52721334520683
 20
-138.4594216320515
 30
0.0
 10
97.50378890136
 20
-138.4790713542691
 30
0.0
 10
97.48103473527384
 20
-138.4594216320515
 30
0.0
 10
97.45210695823407
 20
-138.4463335764994
 30
0.0
 10
97.41901640352272
 20
-138.4463335764994
 30
0.0
 10
97.41901640352272
 20
-138.4463335764994
 30
0.0
 10
79.58860491396997
 20
-138.4463335764994
 30
0.0
 10
79.58860491396997
 20
-138.4463335764994
 30
0.0
 10
79.11023825950745
 20
-138.4463335764994
 30
0.0
 10
78.72112438054569
 20
-138.0566905210414
 30
0.0
 10
78.72112438054569
 20
-137.5781827433831
 30
0.0
 10
78.72112438054569
 20
-137.5781827433831
 30
0.0
 10
78.72112438054569
 20
-120.7574913586994
 30
0.0
 10
78.72112438054569
 20
-120.7574913586994
 30
0.0
 10
78.72112438054569
 20
-120.3242802476966
 30
0.0
 10
79.0409879834964
 20
-119.9673396922305
 30
0.0
 10
79.45631325067835
 20
-119.9030988589132
 30
0.0
 10
79.45631325067835
 20
-119.9030988589132
 30
0.0
 10
79.45631325067835
 20
-124.25736441338
 30
0.0
 10
79.45631325067835
 20
-124.25736441338
 30
0.0
 10
79.45631325067835
 20
-124.3303894133619
 30
0.0
 10
79.51554463805611
 20
-124.3896560800136
 30
0.0
 10
79.58860491396997
 20
-124.3896560800136
 30
0.0
 10
79.58860491396997
 20
-124.3896560800136
 30
0.0
 10
103.4389926388292
 20
-124.3896560800136
 30
0.0
 10
103.4389926388292
 20
-124.3896560800136
 30
0.0
 10
103.3790583074884
 20
-124.6387171910625
 30
0.0
 10
103.1558179238314
 20
-124.8251249687937
 30
0.0
 10
102.8884476528748
 20
-124.8251249687937
 30
0.0
  0
POLYLINE
  5
47
330
1F
100
AcDbEntity
  8
_U+30EC_U+30A4_U+30E4_U+30FC 1
 62
     7
420
 16777215
370
    25
100
AcDb2dPolyline
 66
     1
 10
0.0
 20
0.0
 30
0.0
  0
VERTEX
  5
48
330
47
100
AcDbEntity
  8
_U+30EC_U+30A4_U+30E4_U+30FC 1
 62
     7
420
 16777215
370
    25
100
AcDbVertex
100
AcDb2dVertex
 10
79.58860491396997
 20
-137.5781827433831
 30
0.0
  0
VERTEX
  5
49
330
47
100
AcDbEntity
  8
_U+30EC_U+30A4_U+30E4_U+30FC 1
 62
     7
420
 16777215
370
    25
100
AcDbVertex
100
AcDb2dVertex
 10
98.58896859589697
 20
-137.5781827433831
 30
0.0
  0
SEQEND
  5
4A
330
47
100
AcDbEntity
  8
_U+30EC_U+30A4_U+30E4_U+30FC 1
 62
     7
420
 16777215
370
    25
  0
POLYLINE
  5
4B
330
1F
100
AcDbEntity
  8
_U+30EC_U+30A4_U+30E4_U+30FC 1
 62
     7
420
 16777215
370
    25
100
AcDb2dPolyline
 66
     1
 10
0.0
 20
0.0
 30
0.0
  0
VERTEX
  5
4C
330
4B
100
AcDbEntity
  8
_U+30EC_U+30A4_U+30E4_U+30FC 1
 62
     7
420
 16777215
370
    25
100
AcDbVertex
100
AcDb2dVertex
 10
79.58860491396997
 20
-125.2574541353522
 30
0.0
  0
VERTEX
  5
4D
330
4B
100
AcDbEntity
  8
_U+30EC_U+30A4_U+30E4_U+30FC 1
 62
     7
420
 16777215
370
    25
100
AcDbVertex
100
AcDb2dVertex
 10
97.58852612142039
 20
-125.2574541353522
 30
0.0
  0
SEQEND
  5
4E
330
4B
100
AcDbEntity
  8
_U+30EC_U+30A4_U+30E4_U+30FC 1
 62
     7
420
 16777215
370
    25
  0
POLYLINE
  5
4F
330
1F
100
AcDbEntity
  8
_U+30EC_U+30A4_U+30E4_U+30FC 1
 62
     7
420
 16777215
370
    25
100
AcDb2dPolyline
 66
     1
 10
0.0
 20
0.0
 30
0.0
  0
VERTEX
  5
50
330
4F
100
AcDbEntity
  8
_U+30EC_U+30A4_U+30E4_U+30FC 1
 62
     7
420
 16777215
370
    25
100
AcDbVertex
100
AcDb2dVertex
 10
79.58860491396997
 20
-138.578625243133
 30
0.0
  0
VERTEX
  5
51
330
4F
100
AcDbEntity
  8
_U+30EC_U+30A4_U+30E4_U+30FC 1
 62
     7
420
 16777215
370
    25
100
AcDbVertex
100
AcDb2dVertex
 10
97.41901640352272
 20
-138.578625243133
 30
0.0
  0
SEQEND
  5
52
330
4F
100
AcDbEntity
  8
_U+30EC_U+30A4_U+30E4_U+30FC 1
 62
     7
420
 16777215
370
    25
  0
POLYLINE
  5
53
330
1F
100
AcDbEntity
  8
_U+30EC_U+30A4_U+30E4_U+30FC 1
 62
     7
420
 16777215
370
    25
100
AcDb2dPolyline
 66
     1
 10
0.0
 20
0.0
 30
0.0
  0
VERTEX
  5
54
330
53
100
AcDbEntity
  8
_U+30EC_U+30A4_U+30E4_U+30FC 1
 62
     7
420
 16777215
370
    25
100
AcDbVertex
100
AcDb2dVertex
 10
78.58883271725406
 20
-120.5783508031889
 30
0.0
  0
VERTEX
  5
55
330
53
100
AcDbEntity
  8
_U+30EC_U+30A4_U+30E4_U+30FC 1
 62
     7
420
 16777215
370
    25
100
AcDbVertex
100
AcDb2dVertex
 10
78.58883271725406
 20
-137.5781827433831
 30
0.0
  0
SEQEND
  5
56
330
53
100
AcDbEntity
  8
_U+30EC_U+30A4_U+30E4_U+30FC 1
 62
     7
420
 16777215
370
    25
  0
POLYLINE
  5
57
330
1F
100
AcDbEntity
  8
_U+30EC_U+30A4_U+30E4_U+30FC 1
 62
     7
420
 16777215
370
    25
100
AcDb2dPolyline
 66
     1
 10
0.0
 20
0.0
 30
0.0
  0
VERTEX
  5
58
330
57
100
AcDbEntity
  8
_U+30EC_U+30A4_U+30E4_U+30FC 1
 62
     7
420
 16777215
370
    25
100
AcDbVertex
100
AcDb2dVertex
 10
79.58860491396997
 20
-119.7573663589494
 30
0.0
  0
VERTEX
  5
59
330
57
100
AcDbEntity
  8
_U+30EC_U+30A4_U+30E4_U+30FC 1
 62
     7
420
 16777215
370
    25
100
AcDbVertex
100
AcDb2dVertex
 10
79.58860491396997
 20
-124.25736441338
 30
0.0
  0
SEQEND
  5
5A
330
57
100
AcDbEntity
  8
_U+30EC_U+30A4_U+30E4_U+30FC 1
 62
     7
420
 16777215
370
    25
  0
POLYLINE
  5
5B
330
1F
100
AcDbEntity
  8
_U+30EC_U+30A4_U+30E4_U+30FC 1
 62
     7
420
 16777215
370
    25
100
AcDb2dPolyline
 66
     1
 10
0.0
 20
0.0
 30
0.0
  0
VERTEX
  5
5C
330
5B
100
AcDbEntity
  8
_U+30EC_U+30A4_U+30E4_U+30FC 1
 62
     7
420
 16777215
370
    25
100
AcDbVertex
100
AcDb2dVertex
 10
79.58860491396997
 20
-124.25736441338
 30
0.0
  0
VERTEX
  5
5D
330
5B
100
AcDbEntity
  8
_U+30EC_U+30A4_U+30E4_U+30FC 1
 62
     7
420
 16777215
370
    25
100
AcDbVertex
100
AcDb2dVertex
 10
103.5884998572372
 20
-124.25736441338
 30
0.0
  0
SEQEND
  5
5E
330
5B
100
AcDbEntity
  8
_U+30EC_U+30A4_U+30E4_U+30FC 1
 62
     7
420
 16777215
370
    25
  0
POLYLINE
  5
5F
330
1F
100
AcDbEntity
  8
_U+30EC_U+30A4_U+30E4_U+30FC 1
 62
     7
420
 16777215
370
    25
100
AcDb2dPolyline
 66
     1
 10
0.0
 20
0.0
 30
0.0
  0
VERTEX
  5
60
330
5F
100
AcDbEntity
  8
_U+30EC_U+30A4_U+30E4_U+30FC 1
 62
     7
420
 16777215
370
    25
100
AcDbVertex
100
AcDb2dVertex
 10
79.58860491396997
 20
-125.3973305242064
 30
0.0
  0
VERTEX
  5
61
330
5F
100
AcDbEntity
  8
_U+30EC_U+30A4_U+30E4_U+30FC 1
 62
     7
420
 16777215
370
    25
100
AcDbVertex
100
AcDb2dVertex
 10
79.58860491396997
 20
-137.5781827433831
 30
0.0
  0
SEQEND
  5
62
330
5F
100
AcDbEntity
  8
_U+30EC_U+30A4_U+30E4_U+30FC 1
 62
     7
420
 16777215
370
    25
  0
POLYLINE
  5
63
330
1F
100
AcDbEntity
  8
_U+30EC_U+30A4_U+30E4_U+30FC 1
 62
     7
420
 16777215
370
    25
100
AcDb2dPolyline
 66
     1
 10
0.0
 20
0.0
 30
0.0
  0
VERTEX
  5
64
330
63
100
AcDbEntity
  8
_U+30EC_U+30A4_U+30E4_U+30FC 1
 62
     7
420
 16777215
370
    25
100
AcDbVertex
100
AcDb2dVertex
 10
98.10806194149926
 20
-124.9574166354273
 30
0.0
  0
VERTEX
  5
65
330
63
100
AcDbEntity
  8
_U+30EC_U+30A4_U+30E4_U+30FC 1
 62
     7
420
 16777215
370
    25
100
AcDbVertex
100
AcDb2dVertex
 10
102.8884476528748
 20
-124.9574166354273
 30
0.0
  0
SEQEND
  5
66
330
63
100
AcDbEntity
  8
_U+30EC_U+30A4_U+30E4_U+30FC 1
 62
     7
420
 16777215
370
    25
  0
POLYLINE
  5
67
330
1F
100
AcDbEntity
  8
_U+30EC_U+30A4_U+30E4_U+30FC 1
 62
     7
420
 16777215
370
    25
100
AcDb2dPolyline
 66
     1
 10
0.0
 20
0.0
 30
0.0
  0
VERTEX
  5
68
330
67
100
AcDbEntity
  8
_U+30EC_U+30A4_U+30E4_U+30FC 1
 62
     7
420
 16777215
370
    25
100
AcDbVertex
100
AcDb2dVertex
 10
97.58852612142039
 20
-125.2574541353522
 30
0.0
  0
VERTEX
  5
69
330
67
100
AcDbEntity
  8
_U+30EC_U+30A4_U+30E4_U+30FC 1
 62
     7
420
 16777215
370
    25
100
AcDbVertex
100
AcDb2dVertex
 10
98.10806194149926
 20
-124.9574166354273
 30
0.0
  0
SEQEND
  5
6A
330
67
100
AcDbEntity
  8
_U+30EC_U+30A4_U+30E4_U+30FC 1
 62
     7
420
 16777215
370
    25
  0
POLYLINE
  5
6B
330
1F
100
AcDbEntity
  8
_U+30EC_U+30A4_U+30E4_U+30FC 1
 62
     7
420
 16777215
370
     9
100
AcDb2dPolyline
 66
     1
 10
0.0
 20
0.0
 30
0.0
  0
VERTEX
  5
6C
330
6B
100
AcDbEntity
  8
_U+30EC_U+30A4_U+30E4_U+30FC 1
 62
     7
420
 16777215
370
     9
100
AcDbVertex
100
AcDb2dVertex
 10
78.8816735431164
 20
-138.2854316320954
 30
0.0
  0
VERTEX
  5
6D
330
6B
100
AcDbEntity
  8
_U+30EC_U+30A4_U+30E4_U+30FC 1
 62
     7
420
 16777215
370
     9
100
AcDbVertex
100
AcDb2dVertex
 10
74.58907365262975
 20
-142.5783844087999
 30
0.0
  0
SEQEND
  5
6E
330
6B
100
AcDbEntity
  8
_U+30EC_U+30A4_U+30E4_U+30FC 1
 62
     7
420
 16777215
370
     9
  0
POLYLINE
  5
6F
330
1F
100
AcDbEntity
  8
_U+30EC_U+30A4_U+30E4_U+30FC 1
 62
     7
420
 16777215
370
     9
100
AcDb2dPolyline
 66
     1
 10
0.0
 20
0.0
 30
0.0
  0
VERTEX
  5
70
330
6F
100
AcDbEntity
  8
_U+30EC_U+30A4_U+30E4_U+30FC 1
 62
     7
420
 16777215
370
     9
100
AcDbVertex
100
AcDb2dVertex
 10
70.37641320454811
 20
-142.5783844087999
 30
0.0
  0
VERTEX
  5
71
330
6F
100
AcDbEntity
  8
_U+30EC_U+30A4_U+30E4_U+30FC 1
 62
     7
420
 16777215
370
     9
100
AcDbVertex
100
AcDb2dVertex
 10
74.58907365262975
 20
-142.5783844087999
 30
0.0
  0
SEQEND
  5
72
330
6F
100
AcDbEntity
  8
_U+30EC_U+30A4_U+30E4_U+30FC 1
 62
     7
420
 16777215
370
     9
  0
POLYLINE
  5
73
330
1F
100
AcDbEntity
  8
_U+30EC_U+30A4_U+30E4_U+30FC 1
 62
     7
420
 16777215
370
     9
100
AcDb2dPolyline
 66
     1
 10
0.0
 20
0.0
 30
0.0
  0
VERTEX
  5
74
330
73
100
AcDbEntity
  8
_U+30EC_U+30A4_U+30E4_U+30FC 1
 62
     7
420
 16777215
370
     9
100
AcDbVertex
100
AcDb2dVertex
 10
78.8816735431164
 20
-138.2854316320954
 30
0.0
  0
VERTEX
  5
75
330
73
100
AcDbEntity
  8
_U+30EC_U+30A4_U+30E4_U+30FC 1
 62
     7
420
 16777215
370
     9
100
AcDbVertex
100
AcDb2dVertex
 10
77.58285163180767
 20
-139.0354371874635
 30
0.0
  0
SEQEND
  5
76
330
73
100
AcDbEntity
  8
_U+30EC_U+30A4_U+30E4_U+30FC 1
 62
     7
420
 16777215
370
     9
  0
POLYLINE
  5
77
330
1F
100
AcDbEntity
  8
_U+30EC_U+30A4_U+30E4_U+30FC 1
 62
     7
420
 16777215
370
     9
100
AcDb2dPolyline
 66
     1
 10
0.0
 20
0.0
 30
0.0
  0
VERTEX
  5
78
330
77
100
AcDbEntity
  8
_U+30EC_U+30A4_U+30E4_U+30FC 1
 62
     7
420
 16777215
370
     9
100
AcDbVertex
100
AcDb2dVertex
 10
78.8816735431164
 20
-138.2854316320954
 30
0.0
  0
VERTEX
  5
79
330
77
100
AcDbEntity
  8
_U+30EC_U+30A4_U+30E4_U+30FC 1
 62
     7
420
 16777215
370
     9
100
AcDbVertex
100
AcDb2dVertex
 10
78.13202078446386
 20
-139.5846063539926
 30
0.0
  0
SEQEND
  5
7A
330
77
100
AcDbEntity
  8
_U+30EC_U+30A4_U+30E4_U+30FC 1
 62
     7
420
 16777215
370
     9
  0
SPLINE
  5
7B
330
1F
100
AcDbEntity
  8
_U+30EC_U+30A4_U+30E4_U+30FC 1
 62
     7
420
 16777215
370
    25
100
AcDbSpline
210
0.0
220
0.0
230
1.0
 70
     8
 71
     3
 72
     8
 73
     4
 74
     0
 42
0.0000000001
 43
0.0000000001
 12
1.0
 22
0.0
 32
0.0
 13
1.0
 23
0.0
 33
0.0
 40
0.0
 40
0.0
 40
0.0
 40
0.0
 40
1.0
 40
1.0
 40
1.0
 40
1.0
 10
78.58883271725406
 20
-137.5781827433831
 30
0.0
 10
78.58883271725406
 20
-138.1307738543559
 30
0.0
 10
79.036686091352
 20
-138.578625243133
 30
0.0
 10
79.58860491396997
 20
-138.578625243133
 30
0.0
  0
SPLINE
  5
7C
330
1F
100
AcDbEntity
  8
_U+30EC_U+30A4_U+30E4_U+30FC 1
 62
     7
420
 16777215
370
    25
100
AcDbSpline
210
0.0
220
0.0
230
1.0
 70
     8
 71
     3
 72
     8
 73
     4
 74
     0
 42
0.0000000001
 43
0.0000000001
 12
1.0
 22
0.0
 32
0.0
 13
1.0
 23
0.0
 33
0.0
 40
0.0
 40
0.0
 40
0.0
 40
0.0
 40
1.0
 40
1.0
 40
1.0
 40
1.0
 10
79.58860491396997
 20
-119.7573663589494
 30
0.0
 10
79.036686091352
 20
-119.7573663589494
 30
0.0
 10
78.58883271725406
 20
-120.2052530255043
 30
0.0
 10
78.58883271725406
 20
-120.7574913586994
 30
0.0
  0
SPLINE
  5
7D
330
1F
100
AcDbEntity
  8
_U+30EC_U+30A4_U+30E4_U+30FC 1
 62
     7
420
 16777215
370
    25
100
AcDbSpline
210
0.0
220
0.0
230
1.0
 70
     8
 71
     3
 72
     8
 73
     4
 74
     0
 42
0.0000000001
 43
0.0000000001
 12
1.0
 22
0.0
 32
0.0
 13
1.0
 23
0.0
 33
0.0
 40
0.0
 40
0.0
 40
0.0
 40
0.0
 40
1.0
 40
1.0
 40
1.0
 40
1.0
 10
97.58852612142039
 20
-138.578625243133
 30
0.0
 10
98.14111721843373
 20
-138.578625243133
 30
0.0
 10
98.58896859589697
 20
-138.1307738543559
 30
0.0
 10
98.58896859589697
 20
-137.5781827433831
 30
0.0
  0
SPLINE
  5
7E
330
1F
100
AcDbEntity
  8
_U+30EC_U+30A4_U+30E4_U+30FC 1
 62
     7
420
 16777215
370
    25
100
AcDbSpline
210
0.0
220
0.0
230
1.0
 70
     8
 71
     3
 72
     8
 73
     4
 74
     0
 42
0.0000000001
 43
0.0000000001
 12
1.0
 22
0.0
 32
0.0
 13
1.0
 23
0.0
 33
0.0
 40
0.0
 40
0.0
 40
0.0
 40
0.0
 40
1.0
 40
1.0
 40
1.0
 40
1.0
 10
102.8884476528748
 20
-124.9574166354273
 30
0.0
 10
103.27498886307
 20
-124.9574166354273
 30
0.0
 10
103.5884998572372
 20
-124.6439030243944
 30
0.0
 10
103.5884998572372
 20
-124.25736441338
 30
0.0
  0
SPLINE
  5
7F
330
1F
100
AcDbEntity
  8
_U+30EC_U+30A4_U+30E4_U+30FC 1
 62
     7
420
 16777215
370
     9
100
AcDbSpline
210
0.0
220
0.0
230
1.0
 70
    11
 71
     3
 72
    17
 73
    13
 74
     0
 42
0.0000000001
 43
0.0000000001
 12
1.0
 22
0.0
 32
0.0
 13
1.0
 23
0.0
 33
0.0
 40
0.0
 40
0.0
 40
0.0
 40
0.0
 40
1.0
 40
1.0
 40
1.0
 40
2.0
 40
2.0
 40
2.0
 40
3.0
 40
3.0
 40
3.0
 40
4.0
 40
4.0
 40
4.0
 40
4.0
 10
103.688406521355
 20
-115.7576071932829
 30
0.0
 10
103.688406521355
 20
-115.7025033044076
 30
0.0
 10
103.6436416407556
 20
-115.6577005266412
 30
0.0
 10
103.5884998572372
 20
-115.6577005266412
 30
0.0
 10
103.5333959697541
 20
-115.6577005266412
 30
0.0
 10
103.4885931931194
 20
-115.7025033044076
 30
0.0
 10
103.4885931931194
 20
-115.7576071932829
 30
0.0
 10
103.4885931931194
 20
-115.8127463599356
 30
0.0
 10
103.5333959697541
 20
-115.8575138599245
 30
0.0
 10
103.5884998572372
 20
-115.8575138599245
 30
0.0
 10
103.6436416407556
 20
-115.8575138599245
 30
0.0
 10
103.688406521355
 20
-115.8127463599356
 30
0.0
 10
103.688406521355
 20
-115.7576071932829
 30
0.0
  0
SPLINE
  5
80
330
1F
100
AcDbEntity
  8
_U+30EC_U+30A4_U+30E4_U+30FC 1
 62
     7
420
 16777215
370
     9
100
AcDbSpline
210
0.0
220
0.0
230
1.0
 70
    11
 71
     3
 72
    17
 73
    13
 74
     0
 42
0.0000000001
 43
0.0000000001
 12
1.0
 22
0.0
 32
0.0
 13
1.0
 23
0.0
 33
0.0
 40
0.0
 40
0.0
 40
0.0
 40
0.0
 40
1.0
 40
1.0
 40
1.0
 40
2.0
 40
2.0
 40
2.0
 40
3.0
 40
3.0
 40
3.0
 40
4.0
 40
4.0
 40
4.0
 40
4.0
 10
79.78841824220564
 20
-115.7576071932829
 30
0.0
 10
79.78841824220564
 20
-115.7025033044076
 30
0.0
 10
79.74361546557088
 20
-115.6577005266412
 30
0.0
 10
79.68851157808781
 20
-115.6577005266412
 30
0.0
 10
79.63337241282785
 20
-115.6577005266412
 30
0.0
 10
79.58860491396997
 20
-115.7025033044076
 30
0.0
 10
79.58860491396997
 20
-115.7576071932829
 30
0.0
 10
79.58860491396997
 20
-115.8127463599356
 30
0.0
 10
79.63337241282785
 20
-115.8575138599245
 30
0.0
 10
79.68851157808781
 20
-115.8575138599245
 30
0.0
 10
79.74361546557088
 20
-115.8575138599245
 30
0.0
 10
79.78841824220564
 20
-115.8127463599356
 30
0.0
 10
79.78841824220564
 20
-115.7576071932829
 30
0.0
  0
SPLINE
  5
81
330
1F
100
AcDbEntity
  8
_U+30EC_U+30A4_U+30E4_U+30FC 1
 62
     7
420
 16777215
370
     9
100
AcDbSpline
210
0.0
220
0.0
230
1.0
 70
    11
 71
     3
 72
    17
 73
    13
 74
     0
 42
0.0000000001
 43
0.0000000001
 12
1.0
 22
0.0
 32
0.0
 13
1.0
 23
0.0
 33
0.0
 40
0.0
 40
0.0
 40
0.0
 40
0.0
 40
1.0
 40
1.0
 40
1.0
 40
2.0
 40
2.0
 40
2.0
 40
3.0
 40
3.0
 40
3.0
 40
4.0
 40
4.0
 40
4.0
 40
4.0
 10
78.6887393813719
 20
-122.2574671916578
 30
0.0
 10
78.6887393813719
 20
-122.2023633027829
 30
0.0
 10
78.64393660473714
 20
-122.1575605250162
 30
0.0
 10
78.58883271725406
 20
-122.1575605250162
 30
0.0
 10
78.53369355199412
 20
-122.1575605250162
 30
0.0
 10
78.48892605313623
 20
-122.2023633027829
 30
0.0
 10
78.48892605313623
 20
-122.2574671916578
 30
0.0
 10
78.48892605313623
 20
-122.3129591360883
 30
0.0
 10
78.53369355199412
 20
-122.3577266360772
 30
0.0
 10
78.58883271725406
 20
-122.3577266360772
 30
0.0
 10
78.64393660473714
 20
-122.3577266360772
 30
0.0
 10
78.6887393813719
 20
-122.3129591360883
 30
0.0
 10
78.6887393813719
 20
-122.2574671916578
 30
0.0
  0
SPLINE
  5
82
330
1F
100
AcDbEntity
  8
_U+30EC_U+30A4_U+30E4_U+30FC 1
 62
     7
420
 16777215
370
     9
100
AcDbSpline
210
0.0
220
0.0
230
1.0
 70
    11
 71
     3
 72
    17
 73
    13
 74
     0
 42
0.0000000001
 43
0.0000000001
 12
1.0
 22
0.0
 32
0.0
 13
1.0
 23
0.0
 33
0.0
 40
0.0
 40
0.0
 40
0.0
 40
0.0
 40
1.0
 40
1.0
 40
1.0
 40
2.0
 40
2.0
 40
2.0
 40
3.0
 40
3.0
 40
3.0
 40
4.0
 40
4.0
 40
4.0
 40
4.0
 10
79.68851157808781
 20
-122.2574671916578
 30
0.0
 10
79.68851157808781
 20
-122.2023633027829
 30
0.0
 10
79.64370880145304
 20
-122.1575605250162
 30
0.0
 10
79.58860491396997
 20
-122.1575605250162
 30
0.0
 10
79.53346574871003
 20
-122.1575605250162
 30
0.0
 10
79.48869824985213
 20
-122.2023633027829
 30
0.0
 10
79.48869824985213
 20
-122.2574671916578
 30
0.0
 10
79.48869824985213
 20
-122.3129591360883
 30
0.0
 10
79.53346574871003
 20
-122.3577266360772
 30
0.0
 10
79.58860491396997
 20
-122.3577266360772
 30
0.0
 10
79.64370880145304
 20
-122.3577266360772
 30
0.0
 10
79.68851157808781
 20
-122.3129591360883
 30
0.0
 10
79.68851157808781
 20
-122.2574671916578
 30
0.0
  0
SPLINE
  5
83
330
1F
100
AcDbEntity
  8
_U+30EC_U+30A4_U+30E4_U+30FC 1
 62
     7
420
 16777215
370
     9
100
AcDbSpline
210
0.0
220
0.0
230
1.0
 70
    11
 71
     3
 72
    17
 73
    13
 74
     0
 42
0.0000000001
 43
0.0000000001
 12
1.0
 22
0.0
 32
0.0
 13
1.0
 23
0.0
 33
0.0
 40
0.0
 40
0.0
 40
0.0
 40
0.0
 40
1.0
 40
1.0
 40
1.0
 40
2.0
 40
2.0
 40
2.0
 40
3.0
 40
3.0
 40
3.0
 40
4.0
 40
4.0
 40
4.0
 40
4.0
 10
74.68898031674759
 20
-138.578625243133
 30
0.0
 10
74.68898031674759
 20
-138.5231685764803
 30
0.0
 10
74.64417754011282
 20
-138.4783657987136
 30
0.0
 10
74.58907365262975
 20
-138.4783657987136
 30
0.0
 10
74.53326420960913
 20
-138.4783657987136
 30
0.0
 10
74.48846143297436
 20
-138.5231685764803
 30
0.0
 10
74.48846143297436
 20
-138.578625243133
 30
0.0
 10
74.48846143297436
 20
-138.6337291320085
 30
0.0
 10
74.53326420960913
 20
-138.6785319097746
 30
0.0
 10
74.58907365262975
 20
-138.6785319097746
 30
0.0
 10
74.64417754011282
 20
-138.6785319097746
 30
0.0
 10
74.68898031674759
 20
-138.6337291320085
 30
0.0
 10
74.68898031674759
 20
-138.578625243133
 30
0.0
  0
SPLINE
  5
84
330
1F
100
AcDbEntity
  8
_U+30EC_U+30A4_U+30E4_U+30FC 1
 62
     7
420
 16777215
370
     9
100
AcDbSpline
210
0.0
220
0.0
230
1.0
 70
    11
 71
     3
 72
    17
 73
    13
 74
     0
 42
0.0000000001
 43
0.0000000001
 12
1.0
 22
0.0
 32
0.0
 13
1.0
 23
0.0
 33
0.0
 40
0.0
 40
0.0
 40
0.0
 40
0.0
 40
1.0
 40
1.0
 40
1.0
 40
2.0
 40
2.0
 40
2.0
 40
3.0
 40
3.0
 40
3.0
 40
4.0
 40
4.0
 40
4.0
 40
4.0
 10
74.68898031674759
 20
-119.5785785812166
 30
0.0
 10
74.68898031674759
 20
-119.5234394145636
 30
0.0
 10
74.64417754011282
 20
-119.4786719145747
 30
0.0
 10
74.58907365262975
 20
-119.4786719145747
 30
0.0
 10
74.53326420960913
 20
-119.4786719145747
 30
0.0
 10
74.48846143297436
 20
-119.5234394145636
 30
0.0
 10
74.48846143297436
 20
-119.5785785812166
 30
0.0
 10
74.48846143297436
 20
-119.6336824700915
 30
0.0
 10
74.53326420960913
 20
-119.6784852478583
 30
0.0
 10
74.58907365262975
 20
-119.6784852478583
 30
0.0
 10
74.64417754011282
 20
-119.6784852478583
 30
0.0
 10
74.68898031674759
 20
-119.6336824700915
 30
0.0
 10
74.68898031674759
 20
-119.5785785812166
 30
0.0
  0
SPLINE
  5
85
330
1F
100
AcDbEntity
  8
_U+30EC_U+30A4_U+30E4_U+30FC 1
 62
     7
420
 16777215
370
     9
100
AcDbSpline
210
0.0
220
0.0
230
1.0
 70
    11
 71
     3
 72
    17
 73
    13
 74
     0
 42
0.0000000001
 43
0.0000000001
 12
1.0
 22
0.0
 32
0.0
 13
1.0
 23
0.0
 33
0.0
 40
0.0
 40
0.0
 40
0.0
 40
0.0
 40
1.0
 40
1.0
 40
1.0
 40
2.0
 40
2.0
 40
2.0
 40
3.0
 40
3.0
 40
3.0
 40
4.0
 40
4.0
 40
4.0
 40
4.0
 10
97.68843278553823
 20
-142.5783844087999
 30
0.0
 10
97.68843278553823
 20
-142.5232452421468
 30
0.0
 10
97.64366528668035
 20
-142.4784777421582
 30
0.0
 10
97.58852612142039
 20
-142.4784777421582
 30
0.0
 10
97.53342223393732
 20
-142.4784777421582
 30
0.0
 10
97.48861945730256
 20
-142.5232452421468
 30
0.0
 10
97.48861945730256
 20
-142.5783844087999
 30
0.0
 10
97.48861945730256
 20
-142.6334882976748
 30
0.0
 10
97.53342223393732
 20
-142.6782910754415
 30
0.0
 10
97.58852612142039
 20
-142.6782910754415
 30
0.0
 10
97.64366528668035
 20
-142.6782910754415
 30
0.0
 10
97.68843278553823
 20
-142.6334882976748
 30
0.0
 10
97.68843278553823
 20
-142.5783844087999
 30
0.0
  0
SPLINE
  5
86
330
1F
100
AcDbEntity
  8
_U+30EC_U+30A4_U+30E4_U+30FC 1
 62
     7
420
 16777215
370
     9
100
AcDbSpline
210
0.0
220
0.0
230
1.0
 70
    11
 71
     3
 72
    17
 73
    13
 74
     0
 42
0.0000000001
 43
0.0000000001
 12
1.0
 22
0.0
 32
0.0
 13
1.0
 23
0.0
 33
0.0
 40
0.0
 40
0.0
 40
0.0
 40
0.0
 40
1.0
 40
1.0
 40
1.0
 40
2.0
 40
2.0
 40
2.0
 40
3.0
 40
3.0
 40
3.0
 40
4.0
 40
4.0
 40
4.0
 40
4.0
 10
78.6887393813719
 20
-142.5783844087999
 30
0.0
 10
78.6887393813719
 20
-142.5232452421468
 30
0.0
 10
78.64393660473714
 20
-142.4784777421582
 30
0.0
 10
78.58883271725406
 20
-142.4784777421582
 30
0.0
 10
78.53369355199412
 20
-142.4784777421582
 30
0.0
 10
78.48892605313623
 20
-142.5232452421468
 30
0.0
 10
78.48892605313623
 20
-142.5783844087999
 30
0.0
 10
78.48892605313623
 20
-142.6334882976748
 30
0.0
 10
78.53369355199412
 20
-142.6782910754415
 30
0.0
 10
78.58883271725406
 20
-142.6782910754415
 30
0.0
 10
78.64393660473714
 20
-142.6782910754415
 30
0.0
 10
78.6887393813719
 20
-142.6334882976748
 30
0.0
 10
78.6887393813719
 20
-142.5783844087999
 30
0.0
  0
SPLINE
  5
87
330
1F
100
AcDbEntity
  8
_U+30EC_U+30A4_U+30E4_U+30FC 1
 62
     7
420
 16777215
370
     9
100
AcDbSpline
210
0.0
220
0.0
230
1.0
 70
    11
 71
     3
 72
    17
 73
    13
 74
     0
 42
0.0000000001
 43
0.0000000001
 12
1.0
 22
0.0
 32
0.0
 13
1.0
 23
0.0
 33
0.0
 40
0.0
 40
0.0
 40
0.0
 40
0.0
 40
1.0
 40
1.0
 40
1.0
 40
2.0
 40
2.0
 40
2.0
 40
3.0
 40
3.0
 40
3.0
 40
4.0
 40
4.0
 40
4.0
 40
4.0
 10
101.6888999745779
 20
-125.2574541353522
 30
0.0
 10
101.6888999745779
 20
-125.2023502464773
 30
0.0
 10
101.6440971968112
 20
-125.1575474687105
 30
0.0
 10
101.5889907415823
 20
-125.1575474687105
 30
0.0
 10
101.5331460207848
 20
-125.1575474687105
 30
0.0
 10
101.4883785219269
 20
-125.2023502464773
 30
0.0
 10
101.4883785219269
 20
-125.2574541353522
 30
0.0
 10
101.4883785219269
 20
-125.312946079783
 30
0.0
 10
101.5331460207848
 20
-125.3577135797716
 30
0.0
 10
101.5889907415823
 20
-125.3577135797716
 30
0.0
 10
101.6440971968112
 20
-125.3577135797716
 30
0.0
 10
101.6888999745779
 20
-125.312946079783
 30
0.0
 10
101.6888999745779
 20
-125.2574541353522
 30
0.0
  0
SPLINE
  5
88
330
1F
100
AcDbEntity
  8
_U+30EC_U+30A4_U+30E4_U+30FC 1
 62
     7
420
 16777215
370
     9
100
AcDbSpline
210
0.0
220
0.0
230
1.0
 70
    11
 71
     3
 72
    17
 73
    13
 74
     0
 42
0.0000000001
 43
0.0000000001
 12
1.0
 22
0.0
 32
0.0
 13
1.0
 23
0.0
 33
0.0
 40
0.0
 40
0.0
 40
0.0
 40
0.0
 40
1.0
 40
1.0
 40
1.0
 40
2.0
 40
2.0
 40
2.0
 40
3.0
 40
3.0
 40
3.0
 40
4.0
 40
4.0
 40
4.0
 40
4.0
 10
101.6888999745779
 20
-137.5778299656053
 30
0.0
 10
101.6888999745779
 20
-137.5226907989529
 30
0.0
 10
101.6440971968112
 20
-137.4779232989637
 30
0.0
 10
101.5889907415823
 20
-137.4779232989637
 30
0.0
 10
101.5331460207848
 20
-137.4779232989637
 30
0.0
 10
101.4883785219269
 20
-137.5226907989529
 30
0.0
 10
101.4883785219269
 20
-137.5778299656053
 30
0.0
 10
101.4883785219269
 20
-137.6336394100358
 30
0.0
 10
101.5331460207848
 20
-137.678406910025
 30
0.0
 10
101.5889907415823
 20
-137.678406910025
 30
0.0
 10
101.6440971968112
 20
-137.678406910025
 30
0.0
 10
101.6888999745779
 20
-137.6336394100358
 30
0.0
 10
101.6888999745779
 20
-137.5778299656053
 30
0.0
  0
INSERT
  5
8A
330
1F
100
AcDbEntity
  8
_U+30EC_U+30A4_U+30E4_U+30FC 1
100
AcDbBlockReference
  2
block 3
 10
0.0
 20
0.0
 30
0.0
  0
POLYLINE
  5
92
330
1F
100
AcDbEntity
  8
_U+30EC_U+30A4_U+30E4_U+30FC 1
 62
     7
420
 16777215
370
     9
100
AcDb2dPolyline
 66
     1
 10
0.0
 20
0.0
 30
0.0
  0
VERTEX
  5
93
330
92
100
AcDbEntity
  8
_U+30EC_U+30A4_U+30E4_U+30FC 1
 62
     7
420
 16777215
370
     9
100
AcDbVertex
100
AcDb2dVertex
 10
79.58860491396997
 20
-115.7576071932829
 30
0.0
  0
VERTEX
  5
94
330
92
100
AcDbEntity
  8
_U+30EC_U+30A4_U+30E4_U+30FC 1
 62
     7
420
 16777215
370
     9
100
AcDbVertex
100
AcDb2dVertex
 10
103.5884998572372
 20
-115.7576071932829
 30
0.0
  0
SEQEND
  5
95
330
92
100
AcDbEntity
  8
_U+30EC_U+30A4_U+30E4_U+30FC 1
 62
     7
420
 16777215
370
     9
  0
POLYLINE
  5
96
330
1F
100
AcDbEntity
  8
_U+30EC_U+30A4_U+30E4_U+30FC 1
 62
     7
420
 16777215
370
     9
100
AcDb2dPolyline
 66
     1
 10
0.0
 20
0.0
 30
0.0
  0
VERTEX
  5
97
330
96
100
AcDbEntity
  8
_U+30EC_U+30A4_U+30E4_U+30FC 1
 62
     7
420
 16777215
370
     9
100
AcDbVertex
100
AcDb2dVertex
 10
79.68851157808781
 20
-118.2174208037791
 30
0.0
  0
VERTEX
  5
98
330
96
100
AcDbEntity
  8
_U+30EC_U+30A4_U+30E4_U+30FC 1
 62
     7
420
 16777215
370
     9
100
AcDbVertex
100
AcDb2dVertex
 10
79.68851157808781
 20
-114.7575174713107
 30
0.0
  0
SEQEND
  5
99
330
96
100
AcDbEntity
  8
_U+30EC_U+30A4_U+30E4_U+30FC 1
 62
     7
420
 16777215
370
     9
  0
POLYLINE
  5
9A
330
1F
100
AcDbEntity
  8
_U+30EC_U+30A4_U+30E4_U+30FC 1
 62
     7
420
 16777215
370
     9
100
AcDb2dPolyline
 66
     1
 10
0.0
 20
0.0
 30
0.0
  0
VERTEX
  5
9B
330
9A
100
AcDbEntity
  8
_U+30EC_U+30A4_U+30E4_U+30FC 1
 62
     7
420
 16777215
370
     9
100
AcDbVertex
100
AcDb2dVertex
 10
103.5884998572372
 20
-121.7176466362372
 30
0.0
  0
VERTEX
  5
9C
330
9A
100
AcDbEntity
  8
_U+30EC_U+30A4_U+30E4_U+30FC 1
 62
     7
420
 16777215
370
     9
100
AcDbVertex
100
AcDb2dVertex
 10
103.5884998572372
 20
-114.7575174713107
 30
0.0
  0
SEQEND
  5
9D
330
9A
100
AcDbEntity
  8
_U+30EC_U+30A4_U+30E4_U+30FC 1
 62
     7
420
 16777215
370
     9
  0
INSERT
  5
9F
330
1F
100
AcDbEntity
  8
_U+30EC_U+30A4_U+30E4_U+30FC 1
100
AcDbBlockReference
  2
block 4
 10
0.0
 20
0.0
 30
0.0
  0
POLYLINE
  5
B9
330
1F
100
AcDbEntity
  8
_U+30EC_U+30A4_U+30E4_U+30FC 1
 62
     7
420
 16777215
370
     9
100
AcDb2dPolyline
 66
     1
 10
0.0
 20
0.0
 30
0.0
  0
VERTEX
  5
BA
330
B9
100
AcDbEntity
  8
_U+30EC_U+30A4_U+30E4_U+30FC 1
 62
     7
420
 16777215
370
     9
100
AcDbVertex
100
AcDb2dVertex
 10
79.58860491396997
 20
-122.2574671916578
 30
0.0
  0
VERTEX
  5
BB
330
B9
100
AcDbEntity
  8
_U+30EC_U+30A4_U+30E4_U+30FC 1
 62
     7
420
 16777215
370
     9
100
AcDbVertex
100
AcDb2dVertex
 10
83.3589194236046
 20
-122.2574671916578
 30
0.0
  0
SEQEND
  5
BC
330
B9
100
AcDbEntity
  8
_U+30EC_U+30A4_U+30E4_U+30FC 1
 62
     7
420
 16777215
370
     9
  0
POLYLINE
  5
BD
330
1F
100
AcDbEntity
  8
_U+30EC_U+30A4_U+30E4_U+30FC 1
 62
     7
420
 16777215
370
     9
100
AcDb2dPolyline
 66
     1
 10
0.0
 20
0.0
 30
0.0
  0
VERTEX
  5
BE
330
BD
100
AcDbEntity
  8
_U+30EC_U+30A4_U+30E4_U+30FC 1
 62
     7
420
 16777215
370
     9
100
AcDbVertex
100
AcDb2dVertex
 10
77.58906052053815
 20
-122.2574671916578
 30
0.0
  0
VERTEX
  5
BF
330
BD
100
AcDbEntity
  8
_U+30EC_U+30A4_U+30E4_U+30FC 1
 62
     7
420
 16777215
370
     9
100
AcDbVertex
100
AcDb2dVertex
 10
79.58860491396997
 20
-122.2574671916578
 30
0.0
  0
SEQEND
  5
C0
330
BD
100
AcDbEntity
  8
_U+30EC_U+30A4_U+30E4_U+30FC 1
 62
     7
420
 16777215
370
     9
  0
INSERT
  5
C2
330
1F
100
AcDbEntity
  8
_U+30EC_U+30A4_U+30E4_U+30FC 1
100
AcDbBlockReference
  2
block 5
 10
0.0
 20
0.0
 30
0.0
  0
POLYLINE
  5
C7
330
1F
100
AcDbEntity
  8
_U+30EC_U+30A4_U+30E4_U+30FC 1
 62
     7
420
 16777215
370
     9
100
AcDb2dPolyline
 66
     1
 10
0.0
 20
0.0
 30
0.0
  0
VERTEX
  5
C8
330
C7
100
AcDbEntity
  8
_U+30EC_U+30A4_U+30E4_U+30FC 1
 62
     7
420
 16777215
370
     9
100
AcDbVertex
100
AcDb2dVertex
 10
74.58907365262975
 20
-138.578625243133
 30
0.0
  0
VERTEX
  5
C9
330
C7
100
AcDbEntity
  8
_U+30EC_U+30A4_U+30E4_U+30FC 1
 62
     7
420
 16777215
370
     9
100
AcDbVertex
100
AcDb2dVertex
 10
74.58907365262975
 20
-119.5785785812166
 30
0.0
  0
SEQEND
  5
CA
330
C7
100
AcDbEntity
  8
_U+30EC_U+30A4_U+30E4_U+30FC 1
 62
     7
420
 16777215
370
     9
  0
POLYLINE
  5
CB
330
1F
100
AcDbEntity
  8
_U+30EC_U+30A4_U+30E4_U+30FC 1
 62
     7
420
 16777215
370
     9
100
AcDb2dPolyline
 66
     1
 10
0.0
 20
0.0
 30
0.0
  0
VERTEX
  5
CC
330
CB
100
AcDbEntity
  8
_U+30EC_U+30A4_U+30E4_U+30FC 1
 62
     7
420
 16777215
370
     9
100
AcDbVertex
100
AcDb2dVertex
 10
77.04888720098579
 20
-138.578625243133
 30
0.0
  0
VERTEX
  5
CD
330
CB
100
AcDbEntity
  8
_U+30EC_U+30A4_U+30E4_U+30FC 1
 62
     7
420
 16777215
370
     9
100
AcDbVertex
100
AcDb2dVertex
 10
73.58863117815316
 20
-138.578625243133
 30
0.0
  0
SEQEND
  5
CE
330
CB
100
AcDbEntity
  8
_U+30EC_U+30A4_U+30E4_U+30FC 1
 62
     7
420
 16777215
370
     9
  0
POLYLINE
  5
CF
330
1F
100
AcDbEntity
  8
_U+30EC_U+30A4_U+30E4_U+30FC 1
 62
     7
420
 16777215
370
     9
100
AcDb2dPolyline
 66
     1
 10
0.0
 20
0.0
 30
0.0
  0
VERTEX
  5
D0
330
CF
100
AcDbEntity
  8
_U+30EC_U+30A4_U+30E4_U+30FC 1
 62
     7
420
 16777215
370
     9
100
AcDbVertex
100
AcDb2dVertex
 10
77.04888720098579
 20
-119.5785785812166
 30
0.0
  0
VERTEX
  5
D1
330
CF
100
AcDbEntity
  8
_U+30EC_U+30A4_U+30E4_U+30FC 1
 62
     7
420
 16777215
370
     9
100
AcDbVertex
100
AcDb2dVertex
 10
73.58863117815316
 20
-119.5785785812166
 30
0.0
  0
SEQEND
  5
D2
330
CF
100
AcDbEntity
  8
_U+30EC_U+30A4_U+30E4_U+30FC 1
 62
     7
420
 16777215
370
     9
  0
INSERT
  5
D4
330
1F
100
AcDbEntity
  8
_U+30EC_U+30A4_U+30E4_U+30FC 1
100
AcDbBlockReference
  2
block 6
 10
0.0
 20
0.0
 30
0.0
  0
POLYLINE
  5
DC
330
1F
100
AcDbEntity
  8
_U+30EC_U+30A4_U+30E4_U+30FC 1
 62
     7
420
 16777215
370
     9
100
AcDb2dPolyline
 66
     1
 10
0.0
 20
0.0
 30
0.0
  0
VERTEX
  5
DD
330
DC
100
AcDbEntity
  8
_U+30EC_U+30A4_U+30E4_U+30FC 1
 62
     7
420
 16777215
370
     9
100
AcDbVertex
100
AcDb2dVertex
 10
78.58883271725406
 20
-142.5783844087999
 30
0.0
  0
VERTEX
  5
DE
330
DC
100
AcDbEntity
  8
_U+30EC_U+30A4_U+30E4_U+30FC 1
 62
     7
420
 16777215
370
     9
100
AcDbVertex
100
AcDb2dVertex
 10
97.58852612142039
 20
-142.5783844087999
 30
0.0
  0
SEQEND
  5
DF
330
DC
100
AcDbEntity
  8
_U+30EC_U+30A4_U+30E4_U+30FC 1
 62
     7
420
 16777215
370
     9
  0
POLYLINE
  5
E0
330
1F
100
AcDbEntity
  8
_U+30EC_U+30A4_U+30E4_U+30FC 1
 62
     7
420
 16777215
370
     9
100
AcDb2dPolyline
 66
     1
 10
0.0
 20
0.0
 30
0.0
  0
VERTEX
  5
E1
330
E0
100
AcDbEntity
  8
_U+30EC_U+30A4_U+30E4_U+30FC 1
 62
     7
420
 16777215
370
     9
100
AcDbVertex
100
AcDb2dVertex
 10
78.58883271725406
 20
-140.1185707983036
 30
0.0
  0
VERTEX
  5
E2
330
E0
100
AcDbEntity
  8
_U+30EC_U+30A4_U+30E4_U+30FC 1
 62
     7
420
 16777215
370
     9
100
AcDbVertex
100
AcDb2dVertex
 10
78.58883271725406
 20
-143.578474130772
 30
0.0
  0
SEQEND
  5
E3
330
E0
100
AcDbEntity
  8
_U+30EC_U+30A4_U+30E4_U+30FC 1
 62
     7
420
 16777215
370
     9
  0
POLYLINE
  5
E4
330
1F
100
AcDbEntity
  8
_U+30EC_U+30A4_U+30E4_U+30FC 1
 62
     7
420
 16777215
370
     9
100
AcDb2dPolyline
 66
     1
 10
0.0
 20
0.0
 30
0.0
  0
VERTEX
  5
E5
330
E4
100
AcDbEntity
  8
_U+30EC_U+30A4_U+30E4_U+30FC 1
 62
     7
420
 16777215
370
     9
100
AcDbVertex
100
AcDb2dVertex
 10
97.58852612142039
 20
-140.1185707983036
 30
0.0
  0
VERTEX
  5
E6
330
E4
100
AcDbEntity
  8
_U+30EC_U+30A4_U+30E4_U+30FC 1
 62
     7
420
 16777215
370
     9
100
AcDbVertex
100
AcDb2dVertex
 10
97.58852612142039
 20
-143.578474130772
 30
0.0
  0
SEQEND
  5
E7
330
E4
100
AcDbEntity
  8
_U+30EC_U+30A4_U+30E4_U+30FC 1
 62
     7
420
 16777215
370
     9
  0
INSERT
  5
E9
330
1F
100
AcDbEntity
  8
_U+30EC_U+30A4_U+30E4_U+30FC 1
100
AcDbBlockReference
  2
block 7
 10
0.0
 20
0.0
 30
0.0
  0
POLYLINE
  5
F1
330
1F
100
AcDbEntity
  8
_U+30EC_U+30A4_U+30E4_U+30FC 1
 62
     7
420
 16777215
370
     9
100
AcDb2dPolyline
 66
     1
 10
0.0
 20
0.0
 30
0.0
  0
VERTEX
  5
F2
330
F1
100
AcDbEntity
  8
_U+30EC_U+30A4_U+30E4_U+30FC 1
 62
     7
420
 16777215
370
     9
100
AcDbVertex
100
AcDb2dVertex
 10
101.5889907415823
 20
-137.5781827433831
 30
0.0
  0
VERTEX
  5
F3
330
F1
100
AcDbEntity
  8
_U+30EC_U+30A4_U+30E4_U+30FC 1
 62
     7
420
 16777215
370
     9
100
AcDbVertex
100
AcDb2dVertex
 10
101.5889907415823
 20
-125.2395683020234
 30
0.0
  0
SEQEND
  5
F4
330
F1
100
AcDbEntity
  8
_U+30EC_U+30A4_U+30E4_U+30FC 1
 62
     7
420
 16777215
370
     9
  0
POLYLINE
  5
F5
330
1F
100
AcDbEntity
  8
_U+30EC_U+30A4_U+30E4_U+30FC 1
 62
     7
420
 16777215
370
     9
100
AcDb2dPolyline
 66
     1
 10
0.0
 20
0.0
 30
0.0
  0
VERTEX
  5
F6
330
F5
100
AcDbEntity
  8
_U+30EC_U+30A4_U+30E4_U+30FC 1
 62
     7
420
 16777215
370
     9
100
AcDbVertex
100
AcDb2dVertex
 10
100.1289493899421
 20
-137.5778299656053
 30
0.0
  0
VERTEX
  5
F7
330
F5
100
AcDbEntity
  8
_U+30EC_U+30A4_U+30E4_U+30FC 1
 62
     7
420
 16777215
370
     9
100
AcDbVertex
100
AcDb2dVertex
 10
102.5887276605213
 20
-137.5778299656053
 30
0.0
  0
SEQEND
  5
F8
330
F5
100
AcDbEntity
  8
_U+30EC_U+30A4_U+30E4_U+30FC 1
 62
     7
420
 16777215
370
     9
  0
POLYLINE
  5
F9
330
1F
100
AcDbEntity
  8
_U+30EC_U+30A4_U+30E4_U+30FC 1
 62
     7
420
 16777215
370
     9
100
AcDb2dPolyline
 66
     1
 10
0.0
 20
0.0
 30
0.0
  0
VERTEX
  5
FA
330
F9
100
AcDbEntity
  8
_U+30EC_U+30A4_U+30E4_U+30FC 1
 62
     7
420
 16777215
370
     9
100
AcDbVertex
100
AcDb2dVertex
 10
100.1289493899421
 20
-125.2574541353522
 30
0.0
  0
VERTEX
  5
FB
330
F9
100
AcDbEntity
  8
_U+30EC_U+30A4_U+30E4_U+30FC 1
 62
     7
420
 16777215
370
     9
100
AcDbVertex
100
AcDb2dVertex
 10
102.5887276605213
 20
-125.2574541353522
 30
0.0
  0
SEQEND
  5
FC
330
F9
100
AcDbEntity
  8
_U+30EC_U+30A4_U+30E4_U+30FC 1
 62
     7
420
 16777215
370
     9
  0
INSERT
  5
FE
330
1F
100
AcDbEntity
  8
_U+30EC_U+30A4_U+30E4_U+30FC 1
100
AcDbBlockReference
  2
block 8
 10
0.0
 20
0.0
 30
0.0
  0
ENDSEC
  0
SECTION
  2
OBJECTS
  0
DICTIONARY
  5
C
330
0
100
AcDbDictionary
281
     1
  3
ACAD_GROUP
350
D
  3
ACAD_LAYOUT
350
1A
  3
ACAD_MATERIAL
350
3B
  3
ACAD_MLEADERSTYLE
350
106
  3
ACAD_MLINESTYLE
350
17
  3
ACAD_PLOTSETTINGS
350
19
  3
ACAD_PLOTSTYLENAME
350
E
  3
ACAD_TABLESTYLE
350
105
  3
ACAD_VISUALSTYLE
350
2A
  0
SUN
  5
3F
330
29
100
AcDbSun
 90
        1
290
     0
 63
     7
421
 16777215
 40
1.0
291
     1
 91
  2455826
 92
 54000000
292
     0
 70
     2
 71
   256
280
     1
  0
DICTIONARY
  5
D
102
{ACAD_REACTORS
330
C
102
}
330
C
100
AcDbDictionary
281
     1
  0
DICTIONARY
  5
1A
102
{ACAD_REACTORS
330
C
102
}
330
C
100
AcDbDictionary
281
     1
  3
Layout1
350
1E
  3
Layout2
350
26
  3
Model
350
22
  0
DICTIONARY
  5
3B
102
{ACAD_REACTORS
330
C
102
}
330
C
100
AcDbDictionary
281
     1
  3
ByBlock
350
3D
  3
ByLayer
350
3C
  3
Global
350
3E
  0
DICTIONARY
  5
106
102
{ACAD_REACTORS
330
C
102
}
330
C
100
AcDbDictionary
281
     1
  0
DICTIONARY
  5
17
102
{ACAD_REACTORS
330
C
102
}
330
C
100
AcDbDictionary
281
     1
  3
Standard
350
18
  0
DICTIONARY
  5
19
102
{ACAD_REACTORS
330
C
102
}
330
C
100
AcDbDictionary
281
     1
  0
ACDBDICTIONARYWDFLT
  5
E
102
{ACAD_REACTORS
330
C
102
}
330
C
100
AcDbDictionary
281
     1
  3
Normal
350
F
100
AcDbDictionaryWithDefault
340
F
  0
DICTIONARY
  5
105
102
{ACAD_REACTORS
330
C
102
}
330
C
100
AcDbDictionary
281
     1
  0
DICTIONARY
  5
2A
102
{ACAD_REACTORS
330
C
102
}
330
C
100
AcDbDictionary
281
     1
  3
2dWireframe
350
2F
  3
3D Hidden
350
31
  3
3dWireframe
350
30
  3
Basic
350
32
  3
Brighten
350
36
  3
ColorChange
350
3A
  3
Conceptual
350
34
  3
Dim
350
35
  3
Facepattern
350
39
  3
Flat
350
2B
  3
FlatWithEdges
350
2C
  3
Gouraud
350
2D
  3
GouraudWithEdges
350
2E
  3
Linepattern
350
38
  3
Realistic
350
33
  3
Thicken
350
37
  0
LAYOUT
  5
1E
102
{ACAD_REACTORS
330
1A
102
}
330
1A
100
AcDbPlotSettings
  1

  2
none_device
  4

  6

 40
0.0
 41
0.0
 42
0.0
 43
0.0
 44
0.0
 45
0.0
 46
0.0
 47
0.0
 48
0.0
 49
0.0
140
0.0
141
0.0
142
1.0
143
1.0
 70
   688
 72
     0
 73
     0
 74
     5
  7

 75
    16
 76
     0
 77
     2
 78
   300
147
1.0
148
0.0
149
0.0
100
AcDbLayout
  1
Layout1
 70
     1
 71
     1
 10
0.0
 20
0.0
 11
12.0
 21
9.0
 12
0.0
 22
0.0
 32
0.0
 14
1.000000000000000E+20
 24
1.000000000000000E+20
 34
1.000000000000000E+20
 15
-1.000000000000000E+20
 25
-1.000000000000000E+20
 35
-1.000000000000000E+20
146
0.0
 13
0.0
 23
0.0
 33
0.0
 16
1.0
 26
0.0
 36
0.0
 17
0.0
 27
1.0
 37
0.0
 76
     0
330
1B
  0
LAYOUT
  5
26
102
{ACAD_REACTORS
330
1A
102
}
330
1A
100
AcDbPlotSettings
  1

  2
none_device
  4

  6

 40
0.0
 41
0.0
 42
0.0
 43
0.0
 44
0.0
 45
0.0
 46
0.0
 47
0.0
 48
0.0
 49
0.0
140
0.0
141
0.0
142
1.0
143
1.0
 70
   688
 72
     0
 73
     0
 74
     5
  7

 75
    16
 76
     0
 77
     2
 78
   300
147
1.0
148
0.0
149
0.0
100
AcDbLayout
  1
Layout2
 70
     1
 71
     2
 10
0.0
 20
0.0
 11
0.0
 21
0.0
 12
0.0
 22
0.0
 32
0.0
 14
0.0
 24
0.0
 34
0.0
 15
0.0
 25
0.0
 35
0.0
146
0.0
 13
0.0
 23
0.0
 33
0.0
 16
1.0
 26
0.0
 36
0.0
 17
0.0
 27
1.0
 37
0.0
 76
     0
330
23
  0
LAYOUT
  5
22
102
{ACAD_REACTORS
330
1A
102
}
330
1A
100
AcDbPlotSettings
  1

  2
none_device
  4

  6

 40
0.0
 41
0.0
 42
0.0
 43
0.0
 44
0.0
 45
0.0
 46
0.0
 47
0.0
 48
0.0
 49
0.0
140
0.0
141
0.0
142
1.0
143
1.0
 70
  1712
 72
     0
 73
     0
 74
     0
  7

 75
     0
 76
     0
 77
     2
 78
   300
147
1.0
148
0.0
149
0.0
100
AcDbLayout
  1
Model
 70
     1
 71
     0
 10
0.0
 20
0.0
 11
12.0
 21
9.0
 12
0.0
 22
0.0
 32
0.0
 14
1.000000000000000E+20
 24
1.000000000000000E+20
 34
1.000000000000000E+20
 15
-1.000000000000000E+20
 25
-1.000000000000000E+20
 35
-1.000000000000000E+20
146
0.0
 13
0.0
 23
0.0
 33
0.0
 16
1.0
 26
0.0
 36
0.0
 17
0.0
 27
1.0
 37
0.0
 76
     0
330
1F
331
29
  0
MATERIAL
  5
3D
102
{ACAD_REACTORS
330
3B
102
}
330
3B
100
AcDbMaterial
  1
ByBlock
 72
     1
 94
      127
  0
MATERIAL
  5
3C
102
{ACAD_REACTORS
330
3B
102
}
330
3B
100
AcDbMaterial
  1
ByLayer
 72
     1
 94
      127
  0
MATERIAL
  5
3E
102
{ACAD_REACTORS
330
3B
102
}
330
3B
100
AcDbMaterial
  1
Global
 72
     1
 94
      127
  0
MLINESTYLE
  5
18
102
{ACAD_REACTORS
330
17
102
}
330
17
100
AcDbMlineStyle
  2
Standard
 70
     0
  3

 62
   256
 51
90.0
 52
90.0
 71
     2
 49
0.5
 62
   256
  6
BYLAYER
 49
-0.5
 62
   256
  6
BYLAYER
  0
ACDBPLACEHOLDER
  5
F
102
{ACAD_REACTORS
330
E
102
}
330
E
  0
VISUALSTYLE
  5
2F
102
{ACAD_REACTORS
330
2A
102
}
330
2A
100
AcDbVisualStyle
  2
2dWireframe
 70
     4
177
     2
291
     0
 71
     0
176
     1
 72
     2
176
     1
 73
     0
176
     1
 90
        0
176
     1
 40
-0.6
176
     1
 41
-30.0
176
     1
 62
     5
 63
     7
421
 16777215
176
     1
 74
     1
176
     1
 91
        4
176
     1
 64
     7
176
     1
 65
   257
176
     1
 75
     1
176
     1
175
     1
176
     1
 42
1.0
176
     1
 92
        0
176
     1
 66
   257
176
     1
 43
1.0
176
     1
 76
     1
176
     1
 77
     6
176
     1
 78
     2
176
     1
 67
     7
176
     1
 79
     5
176
     1
170
     0
176
     1
171
     0
176
     1
290
     0
176
     1
 93
        1
176
     1
 44
0.0
176
     1
173
     0
176
     1
  0
VISUALSTYLE
  5
31
102
{ACAD_REACTORS
330
2A
102
}
330
2A
100
AcDbVisualStyle
  2
3D Hidden
 70
     6
177
     2
291
     0
 71
     1
176
     1
 72
     2
176
     1
 73
     2
176
     1
 90
        0
176
     1
 40
-0.6
176
     1
 41
-30.0
176
     1
 62
     5
 63
     7
421
 16777215
176
     1
 74
     2
176
     1
 91
        2
176
     1
 64
     7
176
     1
 65
   257
176
     1
 75
     2
176
     1
175
     1
176
     1
 42
40.0
176
     1
 92
        0
176
     1
 66
   257
176
     1
 43
1.0
176
     1
 76
     1
176
     1
 77
     6
176
     1
 78
     2
176
     1
 67
     7
176
     1
 79
     3
176
     1
170
     0
176
     1
171
     0
176
     1
290
     0
176
     1
 93
        1
176
     1
 44
0.0
176
     1
173
     0
176
     1
  0
VISUALSTYLE
  5
30
102
{ACAD_REACTORS
330
2A
102
}
330
2A
100
AcDbVisualStyle
  2
3dWireframe
 70
     5
177
     2
291
     0
 71
     0
176
     1
 72
     2
176
     1
 73
     0
176
     1
 90
        0
176
     1
 40
-0.6
176
     1
 41
-30.0
176
     1
 62
     5
 63
     7
421
 16777215
176
     1
 74
     1
176
     1
 91
        4
176
     1
 64
     7
176
     1
 65
   257
176
     1
 75
     1
176
     1
175
     1
176
     1
 42
1.0
176
     1
 92
        0
176
     1
 66
   257
176
     1
 43
1.0
176
     1
 76
     1
176
     1
 77
     6
176
     1
 78
     2
176
     1
 67
     7
176
     1
 79
     5
176
     1
170
     0
176
     1
171
     0
176
     1
290
     0
176
     1
 93
        1
176
     1
 44
0.0
176
     1
173
     0
176
     1
  0
VISUALSTYLE
  5
32
102
{ACAD_REACTORS
330
2A
102
}
330
2A
100
AcDbVisualStyle
  2
Basic
 70
     7
177
     2
291
     1
 71
     1
176
     1
 72
     0
176
     1
 73
     1
176
     1
 90
        0
176
     1
 40
-0.6
176
     1
 41
-30.0
176
     1
 62
     5
 63
     7
421
 16777215
176
     1
 74
     0
176
     1
 91
        4
176
     1
 64
     7
176
     1
 65
   257
176
     1
 75
     1
176
     1
175
     1
176
     1
 42
1.0
176
     1
 92
        8
176
     1
 66
     7
176
     1
 43
1.0
176
     1
 76
     1
176
     1
 77
     6
176
     1
 78
     2
176
     1
 67
     7
176
     1
 79
     5
176
     1
170
     0
176
     1
171
     0
176
     1
290
     0
176
     1
 93
        1
176
     1
 44
0.0
176
     1
173
     0
176
     1
  0
VISUALSTYLE
  5
36
102
{ACAD_REACTORS
330
2A
102
}
330
2A
100
AcDbVisualStyle
  2
Brighten
 70
    12
177
     2
291
     1
 71
     2
176
     1
 72
     2
176
     1
 73
     0
176
     1
 90
        0
176
     1
 40
-0.6
176
     1
 41
-30.0
176
     1
 62
     5
 63
     7
421
 16777215
176
     1
 74
     1
176
     1
 91
        4
176
     1
 64
     7
176
     1
 65
   257
176
     1
 75
     1
176
     1
175
     1
176
     1
 42
1.0
176
     1
 92
        8
176
     1
 66
     7
176
     1
 43
1.0
176
     1
 76
     1
176
     1
 77
     6
176
     1
 78
     2
176
     1
 67
     7
176
     1
 79
     5
176
     1
170
     0
176
     1
171
     0
176
     1
290
     0
176
     1
 93
        1
176
     1
 44
50.0
176
     1
173
     0
176
     1
  0
VISUALSTYLE
  5
3A
102
{ACAD_REACTORS
330
2A
102
}
330
2A
100
AcDbVisualStyle
  2
ColorChange
 70
    16
177
     2
291
     1
 71
     2
176
     1
 72
     2
176
     1
 73
     3
176
     1
 90
        0
176
     1
 40
-0.6
176
     1
 41
-30.0
176
     1
 62
     5
 63
     8
421
  8421504
176
     1
 74
     1
176
     1
 91
        4
176
     1
 64
     7
176
     1
 65
   257
176
     1
 75
     1
176
     1
175
     1
176
     1
 42
1.0
176
     1
 92
        8
176
     1
 66
     8
424
  8421504
176
     1
 43
1.0
176
     1
 76
     1
176
     1
 77
     6
176
     1
 78
     2
176
     1
 67
     7
176
     1
 79
     5
176
     1
170
     0
176
     1
171
     0
176
     1
290
     0
176
     1
 93
        1
176
     1
 44
0.0
176
     1
173
     0
176
     1
  0
VISUALSTYLE
  5
34
102
{ACAD_REACTORS
330
2A
102
}
330
2A
100
AcDbVisualStyle
  2
Conceptual
 70
     9
177
     2
291
     0
 71
     3
176
     1
 72
     2
176
     1
 73
     0
176
     1
 90
        0
176
     1
 40
-0.6
176
     1
 41
-30.0
176
     1
 62
     5
 63
     7
421
 16777215
176
     1
 74
     2
176
     1
 91
        2
176
     1
 64
     7
176
     1
 65
   257
176
     1
 75
     1
176
     1
175
     1
176
     1
 42
40.0
176
     1
 92
        8
176
     1
 66
     7
176
     1
 43
1.0
176
     1
 76
     1
176
     1
 77
     6
176
     1
 78
     2
176
     1
 67
     7
176
     1
 79
     3
176
     1
170
     0
176
     1
171
     0
176
     1
290
     0
176
     1
 93
        1
176
     1
 44
0.0
176
     1
173
     0
176
     1
  0
VISUALSTYLE
  5
35
102
{ACAD_REACTORS
330
2A
102
}
330
2A
100
AcDbVisualStyle
  2
Dim
 70
    11
177
     2
291
     1
 71
     2
176
     1
 72
     2
176
     1
 73
     0
176
     1
 90
        0
176
     1
 40
-0.6
176
     1
 41
-30.0
176
     1
 62
     5
 63
     7
421
 16777215
176
     1
 74
     1
176
     1
 91
        4
176
     1
 64
     7
176
     1
 65
   257
176
     1
 75
     1
176
     1
175
     1
176
     1
 42
1.0
176
     1
 92
        8
176
     1
 66
     7
176
     1
 43
1.0
176
     1
 76
     1
176
     1
 77
     6
176
     1
 78
     2
176
     1
 67
     7
176
     1
 79
     5
176
     1
170
     0
176
     1
171
     0
176
     1
290
     0
176
     1
 93
        1
176
     1
 44
-50.0
176
     1
173
     0
176
     1
  0
VISUALSTYLE
  5
39
102
{ACAD_REACTORS
330
2A
102
}
330
2A
100
AcDbVisualStyle
  2
Facepattern
 70
    15
177
     2
291
     1
 71
     2
176
     1
 72
     2
176
     1
 73
     0
176
     1
 90
        0
176
     1
 40
-0.6
176
     1
 41
-30.0
176
     1
 62
     5
 63
     7
421
 16777215
176
     1
 74
     1
176
     1
 91
        4
176
     1
 64
     7
176
     1
 65
   257
176
     1
 75
     1
176
     1
175
     1
176
     1
 42
1.0
176
     1
 92
        8
176
     1
 66
     7
176
     1
 43
1.0
176
     1
 76
     1
176
     1
 77
     6
176
     1
 78
     2
176
     1
 67
     7
176
     1
 79
     5
176
     1
170
     0
176
     1
171
     0
176
     1
290
     0
176
     1
 93
        1
176
     1
 44
0.0
176
     1
173
     0
176
     1
  0
VISUALSTYLE
  5
2B
102
{ACAD_REACTORS
330
2A
102
}
330
2A
100
AcDbVisualStyle
  2
Flat
 70
     0
177
     2
291
     1
 71
     2
176
     1
 72
     1
176
     1
 73
     1
176
     1
 90
        2
176
     1
 40
-0.6
176
     1
 41
30.0
176
     1
 62
     5
 63
     7
421
 16777215
176
     1
 74
     0
176
     1
 91
        4
176
     1
 64
     7
176
     1
 65
   257
176
     1
 75
     1
176
     1
175
     1
176
     1
 42
1.0
176
     1
 92
        8
176
     1
 66
     7
176
     1
 43
1.0
176
     1
 76
     1
176
     1
 77
     6
176
     1
 78
     2
176
     1
 67
     7
176
     1
 79
     5
176
     1
170
     0
176
     1
171
     0
176
     1
290
     0
176
     1
 93
       13
176
     1
 44
0.0
176
     1
173
     0
176
     1
  0
VISUALSTYLE
  5
2C
102
{ACAD_REACTORS
330
2A
102
}
330
2A
100
AcDbVisualStyle
  2
FlatWithEdges
 70
     1
177
     2
291
     1
 71
     2
176
     1
 72
     1
176
     1
 73
     1
176
     1
 90
        2
176
     1
 40
-0.6
176
     1
 41
30.0
176
     1
 62
     5
 63
     7
421
 16777215
176
     1
 74
     1
176
     1
 91
        4
176
     1
 64
     7
176
     1
 65
   257
176
     1
 75
     1
176
     1
175
     1
176
     1
 42
1.0
176
     1
 92
        0
176
     1
 66
   257
176
     1
 43
1.0
176
     1
 76
     1
176
     1
 77
     6
176
     1
 78
     2
176
     1
 67
     7
176
     1
 79
     5
176
     1
170
     0
176
     1
171
     0
176
     1
290
     0
176
     1
 93
       13
176
     1
 44
0.0
176
     1
173
     0
176
     1
  0
VISUALSTYLE
  5
2D
102
{ACAD_REACTORS
330
2A
102
}
330
2A
100
AcDbVisualStyle
  2
Gouraud
 70
     2
177
     2
291
     1
 71
     2
176
     1
 72
     2
176
     1
 73
     1
176
     1
 90
        2
176
     1
 40
-0.6
176
     1
 41
30.0
176
     1
 62
     5
 63
     7
421
 16777215
176
     1
 74
     0
176
     1
 91
        4
176
     1
 64
     7
176
     1
 65
   257
176
     1
 75
     1
176
     1
175
     1
176
     1
 42
1.0
176
     1
 92
        0
176
     1
 66
     7
176
     1
 43
1.0
176
     1
 76
     1
176
     1
 77
     6
176
     1
 78
     2
176
     1
 67
     7
176
     1
 79
     5
176
     1
170
     0
176
     1
171
     0
176
     1
290
     0
176
     1
 93
       13
176
     1
 44
0.0
176
     1
173
     0
176
     1
  0
VISUALSTYLE
  5
2E
102
{ACAD_REACTORS
330
2A
102
}
330
2A
100
AcDbVisualStyle
  2
GouraudWithEdges
 70
     3
177
     2
291
     1
 71
     2
176
     1
 72
     2
176
     1
 73
     1
176
     1
 90
        2
176
     1
 40
-0.6
176
     1
 41
30.0
176
     1
 62
     5
 63
     7
421
 16777215
176
     1
 74
     1
176
     1
 91
        4
176
     1
 64
     7
176
     1
 65
   257
176
     1
 75
     1
176
     1
175
     1
176
     1
 42
1.0
176
     1
 92
        0
176
     1
 66
   257
176
     1
 43
1.0
176
     1
 76
     1
176
     1
 77
     6
176
     1
 78
     2
176
     1
 67
     7
176
     1
 79
     5
176
     1
170
     0
176
     1
171
     0
176
     1
290
     0
176
     1
 93
       13
176
     1
 44
0.0
176
     1
173
     0
176
     1
  0
VISUALSTYLE
  5
38
102
{ACAD_REACTORS
330
2A
102
}
330
2A
100
AcDbVisualStyle
  2
Linepattern
 70
    14
177
     2
291
     1
 71
     2
176
     1
 72
     2
176
     1
 73
     0
176
     1
 90
        0
176
     1
 40
-0.6
176
     1
 41
-30.0
176
     1
 62
     5
 63
     7
421
 16777215
176
     1
 74
     1
176
     1
 91
        4
176
     1
 64
     7
176
     1
 65
   257
176
     1
 75
     7
176
     1
175
     7
176
     1
 42
1.0
176
     1
 92
        8
176
     1
 66
     7
176
     1
 43
1.0
176
     1
 76
     1
176
     1
 77
     6
176
     1
 78
     2
176
     1
 67
     7
176
     1
 79
     5
176
     1
170
     0
176
     1
171
     0
176
     1
290
     0
176
     1
 93
        1
176
     1
 44
0.0
176
     1
173
     0
176
     1
  0
VISUALSTYLE
  5
33
102
{ACAD_REACTORS
330
2A
102
}
330
2A
100
AcDbVisualStyle
  2
Realistic
 70
     8
177
     2
291
     0
 71
     2
176
     1
 72
     2
176
     1
 73
     0
176
     1
 90
        0
176
     1
 40
-0.6
176
     1
 41
-30.0
176
     1
 62
     5
 63
     7
421
 16777215
176
     1
 74
     1
176
     1
 91
        0
176
     1
 64
     7
176
     1
 65
   257
176
     1
 75
     1
176
     1
175
     1
176
     1
 42
1.0
176
     1
 92
        8
176
     1
 66
     8
424
  7895160
176
     1
 43
1.0
176
     1
 76
     1
176
     1
 77
     6
176
     1
 78
     2
176
     1
 67
     7
176
     1
 79
     5
176
     1
170
     0
176
     1
171
     0
176
     1
290
     0
176
     1
 93
       13
176
     1
 44
0.0
176
     1
173
     0
176
     1
  0
VISUALSTYLE
  5
37
102
{ACAD_REACTORS
330
2A
102
}
330
2A
100
AcDbVisualStyle
  2
Thicken
 70
    13
177
     2
291
     1
 71
     2
176
     1
 72
     2
176
     1
 73
     0
176
     1
 90
        0
176
     1
 40
-0.6
176
     1
 41
-30.0
176
     1
 62
     5
 63
     7
421
 16777215
176
     1
 74
     1
176
     1
 91
        4
176
     1
 64
     7
176
     1
 65
   257
176
     1
 75
     1
176
     1
175
     1
176
     1
 42
1.0
176
     1
 92
       12
176
     1
 66
     7
176
     1
 43
1.0
176
     1
 76
     1
176
     1
 77
     6
176
     1
 78
     2
176
     1
 67
     7
176
     1
 79
     5
176
     1
170
     0
176
     1
171
     0
176
     1
290
     0
176
     1
 93
        1
176
     1
 44
0.0
176
     1
173
     0
176
     1
  0
ENDSEC
  0
EOF
