  0
SECTION
  2
HEADER
  9
$ACADVER
  1
AC1024
  9
$ACADMAINTVER
 70
     6
  9
$DWGCODEPAGE
  3
UNDEFINED
  9
$INSBASE
 10
0.0
 20
0.0
 30
0.0
  9
$EXTMIN
 10
1.000000000000000E+20
 20
1.000000000000000E+20
 30
1.000000000000000E+20
  9
$EXTMAX
 10
-1.000000000000000E+20
 20
-1.000000000000000E+20
 30
-1.000000000000000E+20
  9
$LIMMIN
 10
0.0
 20
0.0
  9
$LIMMAX
 10
12.0
 20
9.0
  9
$ORTHOMODE
 70
     0
  9
$REGENMODE
 70
     1
  9
$FILLMODE
 70
     1
  9
$QTEXTMODE
 70
     0
  9
$MIRRTEXT
 70
     1
  9
$LTSCALE
 40
1.0
  9
$ATTMODE
 70
     1
  9
$TEXTSIZE
 40
0.2
  9
$TRACEWID
 40
0.05
  9
$TEXTSTYLE
  7
Standard
  9
$CLAYER
  8
0
  9
$CELTYPE
  6
ByLayer
  9
$CECOLOR
 62
   256
  9
$CELTSCALE
 40
1.0
  9
$DISPSILH
 70
     0
  9
$DIMSCALE
 40
1.0
  9
$DIMASZ
 40
0.18
  9
$DIMEXO
 40
0.0625
  9
$DIMDLI
 40
0.38
  9
$DIMRND
 40
0.0
  9
$DIMDLE
 40
0.0
  9
$DIMEXE
 40
0.18
  9
$DIMTP
 40
0.0
  9
$DIMTM
 40
0.0
  9
$DIMTXT
 40
0.18
  9
$DIMCEN
 40
0.09
  9
$DIMTSZ
 40
0.0
  9
$DIMTOL
 70
     0
  9
$DIMLIM
 70
     0
  9
$DIMTIH
 70
     1
  9
$DIMTOH
 70
     1
  9
$DIMSE1
 70
     0
  9
$DIMSE2
 70
     0
  9
$DIMTAD
 70
     0
  9
$DIMZIN
 70
     0
  9
$DIMBLK
  1

  9
$DIMASO
 70
     1
  9
$DIMSHO
 70
     1
  9
$DIMPOST
  1

  9
$DIMAPOST
  1

  9
$DIMALT
 70
     0
  9
$DIMALTD
 70
     2
  9
$DIMALTF
 40
25.4
  9
$DIMLFAC
 40
1.0
  9
$DIMTOFL
 70
     0
  9
$DIMTVP
 40
0.0
  9
$DIMTIX
 70
     0
  9
$DIMSOXD
 70
     0
  9
$DIMSAH
 70
     0
  9
$DIMBLK1
  1

  9
$DIMBLK2
  1

  9
$DIMSTYLE
  2
Standard
  9
$DIMCLRD
 70
     0
  9
$DIMCLRE
 70
     0
  9
$DIMCLRT
 70
     0
  9
$DIMTFAC
 40
1.0
  9
$DIMGAP
 40
0.09
  9
$DIMJUST
 70
     0
  9
$DIMSD1
 70
     0
  9
$DIMSD2
 70
     0
  9
$DIMTOLJ
 70
     1
  9
$DIMTZIN
 70
     0
  9
$DIMALTZ
 70
     0
  9
$DIMALTTZ
 70
     0
  9
$DIMUPT
 70
     0
  9
$DIMDEC
 70
     4
  9
$DIMTDEC
 70
     4
  9
$DIMALTU
 70
     2
  9
$DIMALTTD
 70
     2
  9
$DIMTXSTY
  7
Standard
  9
$DIMAUNIT
 70
     0
  9
$DIMADEC
 70
     0
  9
$DIMALTRND
 40
0.0
  9
$DIMAZIN
 70
     0
  9
$DIMDSEP
 70
    46
  9
$DIMATFIT
 70
     3
  9
$DIMFRAC
 70
     0
  9
$DIMLDRBLK
  1

  9
$DIMLUNIT
 70
     2
  9
$DIMLWD
 70
    -2
  9
$DIMLWE
 70
    -2
  9
$DIMTMOVE
 70
     0
  9
$DIMFXL
 40
1.0
  9
$DIMFXLON
 70
     0
  9
$DIMJOGANG
 40
0.7853981633974483
  9
$DIMTFILL
 70
     0
  9
$DIMTFILLCLR
 70
     0
  9
$DIMARCSYM
 70
     0
  9
$DIMLTYPE
  6

  9
$DIMLTEX1
  6

  9
$DIMLTEX2
  6

  9
$DIMTXTDIRECTION
 70
     0
  9
$LUNITS
 70
     2
  9
$LUPREC
 70
     4
  9
$SKETCHINC
 40
0.1
  9
$FILLETRAD
 40
0.5
  9
$AUNITS
 70
     0
  9
$AUPREC
 70
     0
  9
$MENU
  1
.
  9
$ELEVATION
 40
0.0
  9
$PELEVATION
 40
0.0
  9
$THICKNESS
 40
0.0
  9
$LIMCHECK
 70
     0
  9
$CHAMFERA
 40
0.5
  9
$CHAMFERB
 40
0.5
  9
$CHAMFERC
 40
1.0
  9
$CHAMFERD
 40
0.0
  9
$SKPOLY
 70
     0
  9
$TDCREATE
 40
2457917.594386563
  9
$TDUCREATE
 40
2457917.219386574
  9
$TDUPDATE
 40
2457917.594386563
  9
$TDUUPDATE
 40
2457917.219386574
  9
$TDINDWG
 40
0.0000000116
  9
$TDUSRTIMER
 40
0.0000000116
  9
$USRTIMER
 70
     1
  9
$ANGBASE
 50
0.0
  9
$ANGDIR
 70
     0
  9
$PDMODE
 70
     0
  9
$PDSIZE
 40
0.0
  9
$PLINEWID
 40
0.0
  9
$SPLFRAME
 70
     0
  9
$SPLINETYPE
 70
     6
  9
$SPLINESEGS
 70
     8
  9
$HANDSEED
  5
F9
  9
$SURFTAB1
 70
     6
  9
$SURFTAB2
 70
     6
  9
$SURFTYPE
 70
     6
  9
$SURFU
 70
     6
  9
$SURFV
 70
     6
  9
$UCSBASE
  2

  9
$UCSNAME
  2

  9
$UCSORG
 10
0.0
 20
0.0
 30
0.0
  9
$UCSXDIR
 10
1.0
 20
0.0
 30
0.0
  9
$UCSYDIR
 10
0.0
 20
1.0
 30
0.0
  9
$UCSORTHOREF
  2

  9
$UCSORTHOVIEW
 70
     0
  9
$UCSORGTOP
 10
0.0
 20
0.0
 30
0.0
  9
$UCSORGBOTTOM
 10
0.0
 20
0.0
 30
0.0
  9
$UCSORGLEFT
 10
0.0
 20
0.0
 30
0.0
  9
$UCSORGRIGHT
 10
0.0
 20
0.0
 30
0.0
  9
$UCSORGFRONT
 10
0.0
 20
0.0
 30
0.0
  9
$UCSORGBACK
 10
0.0
 20
0.0
 30
0.0
  9
$PUCSBASE
  2

  9
$PUCSNAME
  2

  9
$PUCSORG
 10
0.0
 20
0.0
 30
0.0
  9
$PUCSXDIR
 10
1.0
 20
0.0
 30
0.0
  9
$PUCSYDIR
 10
0.0
 20
1.0
 30
0.0
  9
$PUCSORTHOREF
  2

  9
$PUCSORTHOVIEW
 70
     0
  9
$PUCSORGTOP
 10
0.0
 20
0.0
 30
0.0
  9
$PUCSORGBOTTOM
 10
0.0
 20
0.0
 30
0.0
  9
$PUCSORGLEFT
 10
0.0
 20
0.0
 30
0.0
  9
$PUCSORGRIGHT
 10
0.0
 20
0.0
 30
0.0
  9
$PUCSORGFRONT
 10
0.0
 20
0.0
 30
0.0
  9
$PUCSORGBACK
 10
0.0
 20
0.0
 30
0.0
  9
$USERI1
 70
     0
  9
$USERI2
 70
     0
  9
$USERI3
 70
     0
  9
$USERI4
 70
     0
  9
$USERI5
 70
     0
  9
$USERR1
 40
0.0
  9
$USERR2
 40
0.0
  9
$USERR3
 40
0.0
  9
$USERR4
 40
0.0
  9
$USERR5
 40
0.0
  9
$WORLDVIEW
 70
     1
  9
$SHADEDGE
 70
     3
  9
$SHADEDIF
 70
    70
  9
$TILEMODE
 70
     1
  9
$MAXACTVP
 70
    64
  9
$PINSBASE
 10
0.0
 20
0.0
 30
0.0
  9
$PLIMCHECK
 70
     0
  9
$PEXTMIN
 10
1.000000000000000E+20
 20
1.000000000000000E+20
 30
1.000000000000000E+20
  9
$PEXTMAX
 10
-1.000000000000000E+20
 20
-1.000000000000000E+20
 30
-1.000000000000000E+20
  9
$PLIMMIN
 10
0.0
 20
0.0
  9
$PLIMMAX
 10
12.0
 20
9.0
  9
$UNITMODE
 70
     0
  9
$VISRETAIN
 70
     1
  9
$PLINEGEN
 70
     0
  9
$PSLTSCALE
 70
     1
  9
$TREEDEPTH
 70
  3020
  9
$CMLSTYLE
  2
Standard
  9
$CMLJUST
 70
     0
  9
$CMLSCALE
 40
1.0
  9
$PROXYGRAPHICS
 70
     1
  9
$MEASUREMENT
 70
     0
  9
$CELWEIGHT
370
    -1
  9
$ENDCAPS
280
     0
  9
$JOINSTYLE
280
     0
  9
$LWDISPLAY
290
     1
  9
$INSUNITS
 70
     1
  9
$HYPERLINKBASE
  1

  9
$STYLESHEET
  1

  9
$XEDIT
290
     1
  9
$CEPSNTYPE
380
     0
  9
$PSTYLEMODE
290
     1
  9
$FINGERPRINTGUID
  2
{CA0E81D0-BF54-BB77-A6B8-E808B3032D0C}
  9
$VERSIONGUID
  2
{FAEB1C32-E019-11D5-929B-00C0DF256EC4}
  9
$EXTNAMES
290
     1
  9
$PSVPSCALE
 40
0.0
  9
$OLESTARTUP
290
     0
  9
$SORTENTS
280
   127
  9
$INDEXCTL
280
     0
  9
$HIDETEXT
280
     1
  9
$XCLIPFRAME
280
     2
  9
$HALOGAP
280
     0
  9
$OBSCOLOR
 70
   257
  9
$OBSLTYPE
280
     0
  9
$INTERSECTIONDISPLAY
280
     0
  9
$INTERSECTIONCOLOR
 70
   257
  9
$DIMASSOC
280
     2
  9
$PROJECTNAME
  1

  9
$CAMERADISPLAY
290
     0
  9
$LENSLENGTH
 40
50.0
  9
$CAMERAHEIGHT
 40
0.0
  9
$STEPSPERSEC
 40
2.0
  9
$STEPSIZE
 40
6.0
  9
$3DDWFPREC
 40
2.0
  9
$PSOLWIDTH
 40
0.25
  9
$PSOLHEIGHT
 40
4.0
  9
$LOFTANG1
 40
1.570796326794897
  9
$LOFTANG2
 40
1.570796326794897
  9
$LOFTMAG1
 40
0.0
  9
$LOFTMAG2
 40
0.0
  9
$LOFTPARAM
 70
     7
  9
$LOFTNORMALS
280
     1
  9
$LATITUDE
 40
37.795
  9
$LONGITUDE
 40
-122.394
  9
$NORTHDIRECTION
 40
0.0
  9
$TIMEZONE
 70
 -8000
  9
$LIGHTGLYPHDISPLAY
280
     1
  9
$TILEMODELIGHTSYNCH
280
     1
  9
$CMATERIAL
347
3C
  9
$SOLIDHIST
280
     1
  9
$SHOWHIST
280
     1
  9
$DWFFRAME
280
     2
  9
$DGNFRAME
280
     2
  9
$REALWORLDSCALE
290
     1
  9
$INTERFERECOLOR
 62
   256
  9
$CSHADOW
280
     0
  9
$SHADOWPLANELOCATION
 40
0.0
  0
ENDSEC
  0
SECTION
  2
CLASSES
  0
CLASS
  1
ACDBDICTIONARYWDFLT
  2
AcDbDictionaryWithDefault
  3
ObjectDBX Classes
 90
        0
 91
        4
280
     0
281
     0
  0
CLASS
  1
VISUALSTYLE
  2
AcDbVisualStyle
  3
ObjectDBX Classes
 90
     4095
 91
        4
280
     0
281
     0
  0
CLASS
  1
MATERIAL
  2
AcDbMaterial
  3
ObjectDBX Classes
 90
     1153
 91
        4
280
     0
281
     0
  0
CLASS
  1
SUN
  2
AcDbSun
  3
SCENEOE
 90
     1024
 91
        4
280
     0
281
     0
  0
ENDSEC
  0
SECTION
  2
TABLES
  0
TABLE
  2
VPORT
  5
8
330
0
100
AcDbSymbolTable
 70
     1
  0
VPORT
  5
29
330
8
100
AcDbSymbolTableRecord
100
AcDbViewportTableRecord
  2
*Active
 70
     0
 10
0.0
 20
0.0
 11
1.0
 21
1.0
 12
0.0
 22
0.0
 13
0.0
 23
0.0
 14
0.5
 24
0.5
 15
0.5
 25
0.5
 16
0.0
 26
0.0
 36
1.0
 17
91.00082462281999
 27
-128.4993055234307
 37
0.0
 40
256.9986110468615
 41
0.7081814508812795
 42
50.0
 43
0.0
 44
0.0
 50
0.0
 51
0.0
 71
     0
 72
   100
 73
     1
 74
     3
 75
     0
 76
     0
 77
     0
 78
     0
281
     0
 65
     1
110
0.0
120
0.0
130
0.0
111
1.0
121
0.0
131
0.0
112
0.0
122
1.0
132
0.0
 79
     0
146
0.0
 60
     3
 61
     5
292
     1
282
     1
141
0.0
142
0.0
 63
   250
361
3F
  0
ENDTAB
  0
TABLE
  2
LTYPE
  5
5
330
0
100
AcDbSymbolTable
 70
     1
  0
LTYPE
  5
14
330
5
100
AcDbSymbolTableRecord
100
AcDbLinetypeTableRecord
  2
ByBlock
 70
     0
  3

 72
    65
 73
     0
 40
0.0
  0
LTYPE
  5
15
330
5
100
AcDbSymbolTableRecord
100
AcDbLinetypeTableRecord
  2
ByLayer
 70
     0
  3

 72
    65
 73
     0
 40
0.0
  0
LTYPE
  5
16
330
5
100
AcDbSymbolTableRecord
100
AcDbLinetypeTableRecord
  2
Continuous
 70
     0
  3
Solid line
 72
    65
 73
     0
 40
0.0
  0
ENDTAB
  0
TABLE
  2
LAYER
  5
2
330
0
100
AcDbSymbolTable
 70
     2
  0
LAYER
  5
10
330
2
100
AcDbSymbolTableRecord
100
AcDbLayerTableRecord
  2
0
 70
     0
 62
     7
  6
Continuous
370
    -3
390
F
347
3E
  0
LAYER
  5
40
330
2
100
AcDbSymbolTableRecord
100
AcDbLayerTableRecord
  2
_U+30EC_U+30A4_U+30E4_U+30FC 1
 70
     0
 62
     7
  6
Continuous
370
    -3
390
F
347
3E
  0
ENDTAB
  0
TABLE
  2
STYLE
  5
3
330
0
100
AcDbSymbolTable
 70
     1
  0
STYLE
  5
11
330
3
100
AcDbSymbolTableRecord
100
AcDbTextStyleTableRecord
  2
Standard
 70
     0
 40
0.0
 41
1.0
 50
0.0
 71
     0
 42
0.2
  3
txt
  4

  0
ENDTAB
  0
TABLE
  2
VIEW
  5
6
330
0
100
AcDbSymbolTable
 70
     0
  0
ENDTAB
  0
TABLE
  2
UCS
  5
7
330
0
100
AcDbSymbolTable
 70
     0
  0
ENDTAB
  0
TABLE
  2
APPID
  5
9
330
0
100
AcDbSymbolTable
 70
     1
  0
APPID
  5
12
330
9
100
AcDbSymbolTableRecord
100
AcDbRegAppTableRecord
  2
ACAD
 70
     0
  0
ENDTAB
  0
TABLE
  2
DIMSTYLE
  5
A
330
0
100
AcDbSymbolTable
 70
     1
100
AcDbDimStyleTable
  0
DIMSTYLE
105
27
330
A
100
AcDbSymbolTableRecord
100
AcDbDimStyleTableRecord
  2
Standard
 70
     0
178
     0
340
11
  0
ENDTAB
  0
TABLE
  2
BLOCK_RECORD
  5
1
330
0
100
AcDbSymbolTable
 70
     7
  0
BLOCK_RECORD
  5
1F
330
1
100
AcDbSymbolTableRecord
100
AcDbBlockTableRecord
  2
*Model_Space
340
22
 70
     0
280
     1
281
     0
  0
BLOCK_RECORD
  5
1B
330
1
100
AcDbSymbolTableRecord
100
AcDbBlockTableRecord
  2
*Paper_Space
340
1E
 70
     0
280
     1
281
     0
  0
BLOCK_RECORD
  5
23
330
1
100
AcDbSymbolTableRecord
100
AcDbBlockTableRecord
  2
*Paper_Space0
340
26
 70
     0
280
     1
281
     0
  0
BLOCK_RECORD
  5
85
330
1
100
AcDbSymbolTableRecord
100
AcDbBlockTableRecord
  2
block 2
340
0
102
{BLKREFS
331
86
102
}
 70
     0
280
     1
281
     0
  0
BLOCK_RECORD
  5
9A
330
1
100
AcDbSymbolTableRecord
100
AcDbBlockTableRecord
  2
block 3
340
0
102
{BLKREFS
331
9B
102
}
 70
     0
280
     1
281
     0
  0
BLOCK_RECORD
  5
AC
330
1
100
AcDbSymbolTableRecord
100
AcDbBlockTableRecord
  2
block 4
340
0
102
{BLKREFS
331
AD
102
}
 70
     0
280
     1
281
     0
  0
BLOCK_RECORD
  5
BE
330
1
100
AcDbSymbolTableRecord
100
AcDbBlockTableRecord
  2
block 5
340
0
102
{BLKREFS
331
BF
102
}
 70
     0
280
     1
281
     0
  0
BLOCK_RECORD
  5
D2
330
1
100
AcDbSymbolTableRecord
100
AcDbBlockTableRecord
  2
block 6
340
0
102
{BLKREFS
331
D3
102
}
 70
     0
280
     1
281
     0
  0
BLOCK_RECORD
  5
E6
330
1
100
AcDbSymbolTableRecord
100
AcDbBlockTableRecord
  2
block 7
340
0
102
{BLKREFS
331
E7
102
}
 70
     0
280
     1
281
     0
  0
ENDTAB
  0
ENDSEC
  0
SECTION
  2
BLOCKS
  0
BLOCK
  5
20
330
1F
100
AcDbEntity
  8
0
100
AcDbBlockBegin
  2
*Model_Space
 70
     0
 10
0.0
 20
0.0
 30
0.0
  3
*Model_Space
  1

  0
ENDBLK
  5
21
330
1F
100
AcDbEntity
  8
0
100
AcDbBlockEnd
  0
BLOCK
  5
1C
330
1B
100
AcDbEntity
 67
     1
  8
0
100
AcDbBlockBegin
  2
*Paper_Space
 70
     0
 10
0.0
 20
0.0
 30
0.0
  3
*Paper_Space
  1

  0
ENDBLK
  5
1D
330
1B
100
AcDbEntity
 67
     1
  8
0
100
AcDbBlockEnd
  0
BLOCK
  5
24
330
23
100
AcDbEntity
  8
0
100
AcDbBlockBegin
  2
*Paper_Space0
 70
     0
 10
0.0
 20
0.0
 30
0.0
  3
*Paper_Space0
  1

  0
ENDBLK
  5
25
330
23
100
AcDbEntity
  8
0
100
AcDbBlockEnd
  0
BLOCK
  5
87
330
85
100
AcDbEntity
  8
0
100
AcDbBlockBegin
  2
block 2
 70
     0
 10
0.0
 20
0.0
 30
0.0
  3
block 2
  1

  0
SPLINE
  5
89
330
85
100
AcDbEntity
  8
_U+30EC_U+30A4_U+30E4_U+30FC 1
370
     0
100
AcDbSpline
210
0.0
220
0.0
230
1.0
 70
    11
 71
     3
 72
    26
 73
    22
 74
     0
 42
0.0000000001
 43
0.0000000001
 12
1.0
 22
0.0
 32
0.0
 13
1.0
 23
0.0
 33
0.0
 40
0.0
 40
0.0
 40
0.0
 40
0.0
 40
1.0
 40
1.0
 40
1.0
 40
2.0
 40
2.0
 40
2.0
 40
3.0
 40
3.0
 40
3.0
 40
4.0
 40
4.0
 40
4.0
 40
5.0
 40
5.0
 40
5.0
 40
6.0
 40
6.0
 40
6.0
 40
7.0
 40
7.0
 40
7.0
 40
7.0
 10
78.0994533767425
 20
-138.6967881597703
 30
0.0
 10
78.0994533767425
 20
-138.6967881597703
 30
0.0
 10
78.0994533767425
 20
-137.5926350567477
 30
0.0
 10
78.0994533767425
 20
-137.5926350567477
 30
0.0
 10
78.0994533767425
 20
-137.5926350567477
 30
0.0
 10
77.74667559905292
 20
-137.5926350567477
 30
0.0
 10
77.74667559905292
 20
-137.5926350567477
 30
0.0
 10
77.74667559905292
 20
-137.5926350567477
 30
0.0
 10
77.74667559905292
 20
-137.4444959508819
 30
0.0
 10
77.74667559905292
 20
-137.4444959508819
 30
0.0
 10
78.10169268880792
 20
-137.4296820402954
 30
0.0
 10
78.15147431856977
 20
-137.2667290238431
 30
0.0
 10
78.1829969422598
 20
-137.1523518537327
 30
0.0
 10
78.1829969422598
 20
-137.1523518537327
 30
0.0
 10
78.33905976774163
 20
-137.1523518537327
 30
0.0
 10
78.33905976774163
 20
-137.1523518537327
 30
0.0
 10
78.33905976774163
 20
-137.1523518537327
 30
0.0
 10
78.33905976774163
 20
-138.6967881597703
 30
0.0
 10
78.33905976774163
 20
-138.6967881597703
 30
0.0
 10
78.33905976774163
 20
-138.6967881597703
 30
0.0
 10
78.0994533767425
 20
-138.6967881597703
 30
0.0
 10
78.0994533767425
 20
-138.6967881597703
 30
0.0
  0
HATCH
  5
8A
330
85
100
AcDbEntity
  8
_U+30EC_U+30A4_U+30E4_U+30FC 1
 62
     7
420
 16777215
100
AcDbHatch
 10
0.0
 20
0.0
 30
0.0
210
0.0
220
0.0
230
1.0
  2
SOLID
 70
     1
 71
     0
 91
        1
 92
        1
 93
        1
 72
     4
 94
        3
 73
     0
 74
     1
 95
       26
 96
       22
 40
0.0
 40
0.0
 40
0.0
 40
0.0
 40
1.0
 40
1.0
 40
1.0
 40
2.0
 40
2.0
 40
2.0
 40
3.0
 40
3.0
 40
3.0
 40
4.0
 40
4.0
 40
4.0
 40
5.0
 40
5.0
 40
5.0
 40
6.0
 40
6.0
 40
6.0
 40
7.0
 40
7.0
 40
7.0
 40
7.0
 10
78.0994533767425
 20
-138.6967881597703
 10
78.0994533767425
 20
-138.6967881597703
 10
78.0994533767425
 20
-137.5926350567477
 10
78.0994533767425
 20
-137.5926350567477
 10
78.0994533767425
 20
-137.5926350567477
 10
77.74667559905292
 20
-137.5926350567477
 10
77.74667559905292
 20
-137.5926350567477
 10
77.74667559905292
 20
-137.5926350567477
 10
77.74667559905292
 20
-137.4444959508819
 10
77.74667559905292
 20
-137.4444959508819
 10
78.10169268880792
 20
-137.4296820402954
 10
78.15147431856977
 20
-137.2667290238431
 10
78.1829969422598
 20
-137.1523518537327
 10
78.1829969422598
 20
-137.1523518537327
 10
78.33905976774163
 20
-137.1523518537327
 10
78.33905976774163
 20
-137.1523518537327
 10
78.33905976774163
 20
-137.1523518537327
 10
78.33905976774163
 20
-138.6967881597703
 10
78.33905976774163
 20
-138.6967881597703
 10
78.33905976774163
 20
-138.6967881597703
 10
78.0994533767425
 20
-138.6967881597703
 10
78.0994533767425
 20
-138.6967881597703
 97
        0
 97
        0
 75
     2
 76
     1
 98
        0
  0
SPLINE
  5
8B
330
85
100
AcDbEntity
  8
_U+30EC_U+30A4_U+30E4_U+30FC 1
370
     0
100
AcDbSpline
210
0.0
220
0.0
230
1.0
 70
    11
 71
     3
 72
    44
 73
    40
 74
     0
 42
0.0000000001
 43
0.0000000001
 12
1.0
 22
0.0
 32
0.0
 13
1.0
 23
0.0
 33
0.0
 40
0.0
 40
0.0
 40
0.0
 40
0.0
 40
1.0
 40
1.0
 40
1.0
 40
2.0
 40
2.0
 40
2.0
 40
3.0
 40
3.0
 40
3.0
 40
4.0
 40
4.0
 40
4.0
 40
5.0
 40
5.0
 40
5.0
 40
6.0
 40
6.0
 40
6.0
 40
7.0
 40
7.0
 40
7.0
 40
8.0
 40
8.0
 40
8.0
 40
9.0
 40
9.0
 40
9.0
 40
10.0
 40
10.0
 40
10.0
 40
11.0
 40
11.0
 40
11.0
 40
12.0
 40
12.0
 40
12.0
 40
13.0
 40
13.0
 40
13.0
 40
13.0
 10
79.95859915535758
 20
-138.6967881597703
 30
0.0
 10
79.93379446786378
 20
-138.6523464280105
 30
0.0
 10
79.91105683766114
 20
-138.5996364670862
 30
0.0
 10
79.90881752559572
 20
-138.3688150695745
 30
0.0
 10
79.9043389014649
 20
-138.1255913283158
 30
0.0
 10
79.84112139931055
 20
-138.0556558899653
 30
0.0
 10
79.65112438329903
 20
-138.0556558899653
 30
0.0
 10
79.65112438329903
 20
-138.0556558899653
 30
0.0
 10
79.21480304009214
 20
-138.0556558899653
 30
0.0
 10
79.21480304009214
 20
-138.0556558899653
 30
0.0
 10
79.21480304009214
 20
-138.0556558899653
 30
0.0
 10
79.21480304009214
 20
-138.6967881597703
 30
0.0
 10
79.21480304009214
 20
-138.6967881597703
 30
0.0
 10
79.21480304009214
 20
-138.6967881597703
 30
0.0
 10
78.96382783399169
 20
-138.6967881597703
 30
0.0
 10
78.96382783399169
 20
-138.6967881597703
 30
0.0
 10
78.96382783399169
 20
-138.6967881597703
 30
0.0
 10
78.96382783399169
 20
-137.1523518537327
 30
0.0
 10
78.96382783399169
 20
-137.1523518537327
 30
0.0
 10
78.96382783399169
 20
-137.1523518537327
 30
0.0
 10
79.68505857382874
 20
-137.1523518537327
 30
0.0
 10
79.68505857382874
 20
-137.1523518537327
 30
0.0
 10
80.01285940925027
 20
-137.1523518537327
 30
0.0
 10
80.19148761016046
 20
-137.3239176088982
 30
0.0
 10
80.19148761016046
 20
-137.5798882034523
 30
0.0
 10
80.19148761016046
 20
-137.6305311070854
 30
0.0
 10
80.18253036189881
 20
-137.7132133987314
 30
0.0
 10
80.13498804420237
 20
-137.7934841235378
 30
0.0
 10
80.07159828727377
 20
-137.8971814976438
 30
0.0
 10
80.0016628489232
 20
-137.9161295228126
 30
0.0
 10
79.93603377992919
 20
-137.9330104906904
 30
0.0
 10
80.0829671023751
 20
-137.9753851651589
 30
0.0
 10
80.15531410756535
 20
-138.023961011501
 30
0.0
 10
80.15979273169617
 20
-138.3391872484013
 30
0.0
 10
80.164271355827
 20
-138.609971753542
 30
0.0
 10
80.20285642526179
 20
-138.6416666320063
 30
0.0
 10
80.27520343045204
 20
-138.6967881597703
 30
0.0
 10
80.27520343045204
 20
-138.6967881597703
 30
0.0
 10
79.95859915535758
 20
-138.6967881597703
 30
0.0
 10
79.95859915535758
 20
-138.6967881597703
 30
0.0
  0
SPLINE
  5
8C
330
85
100
AcDbEntity
  8
_U+30EC_U+30A4_U+30E4_U+30FC 1
370
     0
100
AcDbSpline
210
0.0
220
0.0
230
1.0
 70
    11
 71
     3
 72
    20
 73
    16
 74
     0
 42
0.0000000001
 43
0.0000000001
 12
1.0
 22
0.0
 32
0.0
 13
1.0
 23
0.0
 33
0.0
 40
0.0
 40
0.0
 40
0.0
 40
0.0
 40
1.0
 40
1.0
 40
1.0
 40
2.0
 40
2.0
 40
2.0
 40
3.0
 40
3.0
 40
3.0
 40
4.0
 40
4.0
 40
4.0
 40
5.0
 40
5.0
 40
5.0
 40
5.0
 10
79.68953719795957
 20
-137.3638807165271
 30
0.0
 10
79.68953719795957
 20
-137.3638807165271
 30
0.0
 10
79.21480304009214
 20
-137.3638807165271
 30
0.0
 10
79.21480304009214
 20
-137.3638807165271
 30
0.0
 10
79.21480304009214
 20
-137.3638807165271
 30
0.0
 10
79.21480304009214
 20
-137.8441270271709
 30
0.0
 10
79.21480304009214
 20
-137.8441270271709
 30
0.0
 10
79.21480304009214
 20
-137.8441270271709
 30
0.0
 10
79.68729788589415
 20
-137.8441270271709
 30
0.0
 10
79.68729788589415
 20
-137.8441270271709
 30
0.0
 10
79.79357908161411
 20
-137.8441270271709
 30
0.0
 10
79.9382730919946
 20
-137.7679904169469
 30
0.0
 10
79.9382730919946
 20
-137.59676917133
 30
0.0
 10
79.9382730919946
 20
-137.5185655038148
 30
0.0
 10
79.90209958939948
 20
-137.3638807165271
 30
0.0
 10
79.68953719795957
 20
-137.3638807165271
 30
0.0
  0
HATCH
  5
8D
330
85
100
AcDbEntity
  8
_U+30EC_U+30A4_U+30E4_U+30FC 1
 62
     7
420
 16777215
100
AcDbHatch
 10
0.0
 20
0.0
 30
0.0
210
0.0
220
0.0
230
1.0
  2
SOLID
 70
     1
 71
     0
 91
        2
 92
        1
 93
        1
 72
     4
 94
        3
 73
     0
 74
     1
 95
       44
 96
       40
 40
0.0
 40
0.0
 40
0.0
 40
0.0
 40
1.0
 40
1.0
 40
1.0
 40
2.0
 40
2.0
 40
2.0
 40
3.0
 40
3.0
 40
3.0
 40
4.0
 40
4.0
 40
4.0
 40
5.0
 40
5.0
 40
5.0
 40
6.0
 40
6.0
 40
6.0
 40
7.0
 40
7.0
 40
7.0
 40
8.0
 40
8.0
 40
8.0
 40
9.0
 40
9.0
 40
9.0
 40
10.0
 40
10.0
 40
10.0
 40
11.0
 40
11.0
 40
11.0
 40
12.0
 40
12.0
 40
12.0
 40
13.0
 40
13.0
 40
13.0
 40
13.0
 10
79.95859915535758
 20
-138.6967881597703
 10
79.93379446786378
 20
-138.6523464280105
 10
79.91105683766114
 20
-138.5996364670862
 10
79.90881752559572
 20
-138.3688150695745
 10
79.9043389014649
 20
-138.1255913283158
 10
79.84112139931055
 20
-138.0556558899653
 10
79.65112438329903
 20
-138.0556558899653
 10
79.65112438329903
 20
-138.0556558899653
 10
79.21480304009214
 20
-138.0556558899653
 10
79.21480304009214
 20
-138.0556558899653
 10
79.21480304009214
 20
-138.0556558899653
 10
79.21480304009214
 20
-138.6967881597703
 10
79.21480304009214
 20
-138.6967881597703
 10
79.21480304009214
 20
-138.6967881597703
 10
78.96382783399169
 20
-138.6967881597703
 10
78.96382783399169
 20
-138.6967881597703
 10
78.96382783399169
 20
-138.6967881597703
 10
78.96382783399169
 20
-137.1523518537327
 10
78.96382783399169
 20
-137.1523518537327
 10
78.96382783399169
 20
-137.1523518537327
 10
79.68505857382874
 20
-137.1523518537327
 10
79.68505857382874
 20
-137.1523518537327
 10
80.01285940925027
 20
-137.1523518537327
 10
80.19148761016046
 20
-137.3239176088982
 10
80.19148761016046
 20
-137.5798882034523
 10
80.19148761016046
 20
-137.6305311070854
 10
80.18253036189881
 20
-137.7132133987314
 10
80.13498804420237
 20
-137.7934841235378
 10
80.07159828727377
 20
-137.8971814976438
 10
80.0016628489232
 20
-137.9161295228126
 10
79.93603377992919
 20
-137.9330104906904
 10
80.0829671023751
 20
-137.9753851651589
 10
80.15531410756535
 20
-138.023961011501
 10
80.15979273169617
 20
-138.3391872484013
 10
80.164271355827
 20
-138.609971753542
 10
80.20285642526179
 20
-138.6416666320063
 10
80.27520343045204
 20
-138.6967881597703
 10
80.27520343045204
 20
-138.6967881597703
 10
79.95859915535758
 20
-138.6967881597703
 10
79.95859915535758
 20
-138.6967881597703
 97
        0
 97
        0
 92
        1
 93
        1
 72
     4
 94
        3
 73
     0
 74
     1
 95
       20
 96
       16
 40
0.0
 40
0.0
 40
0.0
 40
0.0
 40
1.0
 40
1.0
 40
1.0
 40
2.0
 40
2.0
 40
2.0
 40
3.0
 40
3.0
 40
3.0
 40
4.0
 40
4.0
 40
4.0
 40
5.0
 40
5.0
 40
5.0
 40
5.0
 10
79.68953719795957
 20
-137.3638807165271
 10
79.68953719795957
 20
-137.3638807165271
 10
79.21480304009214
 20
-137.3638807165271
 10
79.21480304009214
 20
-137.3638807165271
 10
79.21480304009214
 20
-137.3638807165271
 10
79.21480304009214
 20
-137.8441270271709
 10
79.21480304009214
 20
-137.8441270271709
 10
79.21480304009214
 20
-137.8441270271709
 10
79.68729788589415
 20
-137.8441270271709
 10
79.68729788589415
 20
-137.8441270271709
 10
79.79357908161411
 20
-137.8441270271709
 10
79.9382730919946
 20
-137.7679904169469
 10
79.9382730919946
 20
-137.59676917133
 10
79.9382730919946
 20
-137.5185655038148
 10
79.90209958939948
 20
-137.3638807165271
 10
79.68953719795957
 20
-137.3638807165271
 97
        0
 97
        0
 75
     2
 76
     1
 98
        0
  0
ENDBLK
  5
88
330
85
100
AcDbEntity
  8
0
100
AcDbBlockEnd
  0
BLOCK
  5
9C
330
9A
100
AcDbEntity
  8
0
100
AcDbBlockBegin
  2
block 3
 70
     0
 10
0.0
 20
0.0
 30
0.0
  3
block 3
  1

  0
SPLINE
  5
9E
330
9A
100
AcDbEntity
  8
_U+30EC_U+30A4_U+30E4_U+30FC 1
370
     0
100
AcDbSpline
210
0.0
220
0.0
230
1.0
 70
    11
 71
     3
 72
    26
 73
    22
 74
     0
 42
0.0000000001
 43
0.0000000001
 12
1.0
 22
0.0
 32
0.0
 13
1.0
 23
0.0
 33
0.0
 40
0.0
 40
0.0
 40
0.0
 40
0.0
 40
1.0
 40
1.0
 40
1.0
 40
2.0
 40
2.0
 40
2.0
 40
3.0
 40
3.0
 40
3.0
 40
4.0
 40
4.0
 40
4.0
 40
5.0
 40
5.0
 40
5.0
 40
6.0
 40
6.0
 40
6.0
 40
7.0
 40
7.0
 40
7.0
 40
7.0
 10
94.91134708998744
 20
-118.2470458688757
 30
0.0
 10
94.91134708998744
 20
-118.2470458688757
 30
0.0
 10
94.91134708998744
 20
-117.1427205110789
 30
0.0
 10
94.91134708998744
 20
-117.1427205110789
 30
0.0
 10
94.91134708998744
 20
-117.1427205110789
 30
0.0
 10
94.55891382184639
 20
-117.1427205110789
 30
0.0
 10
94.55891382184639
 20
-117.1427205110789
 30
0.0
 10
94.55891382184639
 20
-117.1427205110789
 30
0.0
 10
94.55891382184639
 20
-116.9947536599874
 30
0.0
 10
94.55891382184639
 20
-116.9947536599874
 30
0.0
 10
94.91375865682711
 20
-116.9799397494009
 30
0.0
 10
94.96336803181472
 20
-116.8169867329485
 30
0.0
 10
94.99506291027902
 20
-116.7027818176125
 30
0.0
 10
94.99506291027902
 20
-116.7027818176125
 30
0.0
 10
95.15112573576083
 20
-116.7027818176125
 30
0.0
 10
95.15112573576083
 20
-116.7027818176125
 30
0.0
 10
95.15112573576083
 20
-116.7027818176125
 30
0.0
 10
95.15112573576083
 20
-118.2470458688757
 30
0.0
 10
95.15112573576083
 20
-118.2470458688757
 30
0.0
 10
95.15112573576083
 20
-118.2470458688757
 30
0.0
 10
94.91134708998744
 20
-118.2470458688757
 30
0.0
 10
94.91134708998744
 20
-118.2470458688757
 30
0.0
  0
HATCH
  5
9F
330
9A
100
AcDbEntity
  8
_U+30EC_U+30A4_U+30E4_U+30FC 1
 62
     7
420
 16777215
100
AcDbHatch
 10
0.0
 20
0.0
 30
0.0
210
0.0
220
0.0
230
1.0
  2
SOLID
 70
     1
 71
     0
 91
        1
 92
        1
 93
        1
 72
     4
 94
        3
 73
     0
 74
     1
 95
       26
 96
       22
 40
0.0
 40
0.0
 40
0.0
 40
0.0
 40
1.0
 40
1.0
 40
1.0
 40
2.0
 40
2.0
 40
2.0
 40
3.0
 40
3.0
 40
3.0
 40
4.0
 40
4.0
 40
4.0
 40
5.0
 40
5.0
 40
5.0
 40
6.0
 40
6.0
 40
6.0
 40
7.0
 40
7.0
 40
7.0
 40
7.0
 10
94.91134708998744
 20
-118.2470458688757
 10
94.91134708998744
 20
-118.2470458688757
 10
94.91134708998744
 20
-117.1427205110789
 10
94.91134708998744
 20
-117.1427205110789
 10
94.91134708998744
 20
-117.1427205110789
 10
94.55891382184639
 20
-117.1427205110789
 10
94.55891382184639
 20
-117.1427205110789
 10
94.55891382184639
 20
-117.1427205110789
 10
94.55891382184639
 20
-116.9947536599874
 10
94.55891382184639
 20
-116.9947536599874
 10
94.91375865682711
 20
-116.9799397494009
 10
94.96336803181472
 20
-116.8169867329485
 10
94.99506291027902
 20
-116.7027818176125
 10
94.99506291027902
 20
-116.7027818176125
 10
95.15112573576083
 20
-116.7027818176125
 10
95.15112573576083
 20
-116.7027818176125
 10
95.15112573576083
 20
-116.7027818176125
 10
95.15112573576083
 20
-118.2470458688757
 10
95.15112573576083
 20
-118.2470458688757
 10
95.15112573576083
 20
-118.2470458688757
 10
94.91134708998744
 20
-118.2470458688757
 10
94.91134708998744
 20
-118.2470458688757
 97
        0
 97
        0
 75
     2
 76
     1
 98
        0
  0
SPLINE
  5
A0
330
9A
100
AcDbEntity
  8
_U+30EC_U+30A4_U+30E4_U+30FC 1
370
     0
100
AcDbSpline
210
0.0
220
0.0
230
1.0
 70
    11
 71
     3
 72
    29
 73
    25
 74
     0
 42
0.0000000001
 43
0.0000000001
 12
1.0
 22
0.0
 32
0.0
 13
1.0
 23
0.0
 33
0.0
 40
0.0
 40
0.0
 40
0.0
 40
0.0
 40
1.0
 40
1.0
 40
1.0
 40
2.0
 40
2.0
 40
2.0
 40
3.0
 40
3.0
 40
3.0
 40
4.0
 40
4.0
 40
4.0
 40
5.0
 40
5.0
 40
5.0
 40
6.0
 40
6.0
 40
6.0
 40
7.0
 40
7.0
 40
7.0
 40
8.0
 40
8.0
 40
8.0
 40
8.0
 10
96.22117239347943
 20
-118.2976887725089
 30
0.0
 10
95.93626299684927
 20
-118.2976887725089
 30
0.0
 10
95.66513398216011
 20
-118.1602294626475
 30
0.0
 10
95.66513398216011
 20
-117.8112412899916
 30
0.0
 10
95.66513398216011
 20
-117.5552706954376
 30
0.0
 10
95.8167181835111
 20
-117.4600138052704
 30
0.0
 10
95.9297173154273
 20
-117.398691105633
 30
0.0
 10
95.79639212014813
 20
-117.3394354632867
 30
0.0
 10
95.71474335714771
 20
-117.2252305479506
 30
0.0
 10
95.71474335714771
 20
-117.0645168435637
 30
0.0
 10
95.71474335714771
 20
-116.7894259690665
 30
0.0
 10
95.92730574858763
 20
-116.6540337164962
 30
0.0
 10
96.22117239347943
 20
-116.6540337164962
 30
0.0
 10
96.52434079618142
 20
-116.6540337164962
 30
0.0
 10
96.72760142981116
 20
-116.7978664530054
 30
0.0
 10
96.72760142981116
 20
-117.0645168435637
 30
0.0
 10
96.72760142981116
 20
-117.2252305479506
 30
0.0
 10
96.64423011906811
 20
-117.3394354632867
 30
0.0
 10
96.51056041424042
 20
-117.398691105633
 30
0.0
 10
96.60564504963331
 20
-117.4495062640404
 30
0.0
 10
96.77514374750761
 20
-117.5447631542076
 30
0.0
 10
96.77514374750761
 20
-117.8071071754093
 30
0.0
 10
96.77514374750761
 20
-118.181589054656
 30
0.0
 10
96.47679847848497
 20
-118.2976887725089
 30
0.0
 10
96.22117239347943
 20
-118.2976887725089
 30
0.0
  0
SPLINE
  5
A1
330
9A
100
AcDbEntity
  8
_U+30EC_U+30A4_U+30E4_U+30FC 1
370
     0
100
AcDbSpline
210
0.0
220
0.0
230
1.0
 70
    11
 71
     3
 72
    17
 73
    13
 74
     0
 42
0.0000000001
 43
0.0000000001
 12
1.0
 22
0.0
 32
0.0
 13
1.0
 23
0.0
 33
0.0
 40
0.0
 40
0.0
 40
0.0
 40
0.0
 40
1.0
 40
1.0
 40
1.0
 40
2.0
 40
2.0
 40
2.0
 40
3.0
 40
3.0
 40
3.0
 40
4.0
 40
4.0
 40
4.0
 40
4.0
 10
96.22117239347943
 20
-117.5066948490956
 30
0.0
 10
96.06752113483729
 20
-117.5066948490956
 30
0.0
 10
95.9049126279335
 20
-117.5933390005496
 30
0.0
 10
95.9049126279335
 20
-117.7964273794051
 30
0.0
 10
95.9049126279335
 20
-118.001755070326
 30
0.0
 10
96.04030488050381
 20
-118.1030408775923
 30
0.0
 10
96.22117239347943
 20
-118.1030408775923
 30
0.0
 10
96.42029891252687
 20
-118.1030408775923
 30
0.0
 10
96.5377766685739
 20
-117.9803954783174
 30
0.0
 10
96.5377766685739
 20
-117.8028008060528
 30
0.0
 10
96.5377766685739
 20
-117.5805921472542
 30
0.0
 10
96.36379934656878
 20
-117.5066948490956
 30
0.0
 10
96.22117239347943
 20
-117.5066948490956
 30
0.0
  0
SPLINE
  5
A2
330
9A
100
AcDbEntity
  8
_U+30EC_U+30A4_U+30E4_U+30FC 1
370
     0
100
AcDbSpline
210
0.0
220
0.0
230
1.0
 70
    11
 71
     3
 72
    17
 73
    13
 74
     0
 42
0.0000000001
 43
0.0000000001
 12
1.0
 22
0.0
 32
0.0
 13
1.0
 23
0.0
 33
0.0
 40
0.0
 40
0.0
 40
0.0
 40
0.0
 40
1.0
 40
1.0
 40
1.0
 40
2.0
 40
2.0
 40
2.0
 40
3.0
 40
3.0
 40
3.0
 40
4.0
 40
4.0
 40
4.0
 40
4.0
 10
96.22117239347943
 20
-116.8466145541217
 30
0.0
 10
96.04512801418316
 20
-116.8466145541217
 30
0.0
 10
95.9545220029211
 20
-116.9416991895146
 30
0.0
 10
95.9545220029211
 20
-117.0770914420849
 30
0.0
 10
95.9545220029211
 20
-117.199909096134
 30
0.0
 10
96.03134763224217
 20
-117.3184203808267
 30
0.0
 10
96.22117239347943
 20
-117.3184203808267
 30
0.0
 10
96.41134166426522
 20
-117.3184203808267
 30
0.0
 10
96.4881672935863
 20
-117.199909096134
 30
0.0
 10
96.4881672935863
 20
-117.0770914420849
 30
0.0
 10
96.4881672935863
 20
-116.9416991895146
 30
0.0
 10
96.39549422503308
 20
-116.8466145541217
 30
0.0
 10
96.22117239347943
 20
-116.8466145541217
 30
0.0
  0
HATCH
  5
A3
330
9A
100
AcDbEntity
  8
_U+30EC_U+30A4_U+30E4_U+30FC 1
 62
     7
420
 16777215
100
AcDbHatch
 10
0.0
 20
0.0
 30
0.0
210
0.0
220
0.0
230
1.0
  2
SOLID
 70
     1
 71
     0
 91
        3
 92
        1
 93
        1
 72
     4
 94
        3
 73
     0
 74
     1
 95
       29
 96
       25
 40
0.0
 40
0.0
 40
0.0
 40
0.0
 40
1.0
 40
1.0
 40
1.0
 40
2.0
 40
2.0
 40
2.0
 40
3.0
 40
3.0
 40
3.0
 40
4.0
 40
4.0
 40
4.0
 40
5.0
 40
5.0
 40
5.0
 40
6.0
 40
6.0
 40
6.0
 40
7.0
 40
7.0
 40
7.0
 40
8.0
 40
8.0
 40
8.0
 40
8.0
 10
96.22117239347943
 20
-118.2976887725089
 10
95.93626299684927
 20
-118.2976887725089
 10
95.66513398216011
 20
-118.1602294626475
 10
95.66513398216011
 20
-117.8112412899916
 10
95.66513398216011
 20
-117.5552706954376
 10
95.8167181835111
 20
-117.4600138052704
 10
95.9297173154273
 20
-117.398691105633
 10
95.79639212014813
 20
-117.3394354632867
 10
95.71474335714771
 20
-117.2252305479506
 10
95.71474335714771
 20
-117.0645168435637
 10
95.71474335714771
 20
-116.7894259690665
 10
95.92730574858763
 20
-116.6540337164962
 10
96.22117239347943
 20
-116.6540337164962
 10
96.52434079618142
 20
-116.6540337164962
 10
96.72760142981116
 20
-116.7978664530054
 10
96.72760142981116
 20
-117.0645168435637
 10
96.72760142981116
 20
-117.2252305479506
 10
96.64423011906811
 20
-117.3394354632867
 10
96.51056041424042
 20
-117.398691105633
 10
96.60564504963331
 20
-117.4495062640404
 10
96.77514374750761
 20
-117.5447631542076
 10
96.77514374750761
 20
-117.8071071754093
 10
96.77514374750761
 20
-118.181589054656
 10
96.47679847848497
 20
-118.2976887725089
 10
96.22117239347943
 20
-118.2976887725089
 97
        0
 97
        0
 92
        1
 93
        1
 72
     4
 94
        3
 73
     0
 74
     1
 95
       17
 96
       13
 40
0.0
 40
0.0
 40
0.0
 40
0.0
 40
1.0
 40
1.0
 40
1.0
 40
2.0
 40
2.0
 40
2.0
 40
3.0
 40
3.0
 40
3.0
 40
4.0
 40
4.0
 40
4.0
 40
4.0
 10
96.22117239347943
 20
-117.5066948490956
 10
96.06752113483729
 20
-117.5066948490956
 10
95.9049126279335
 20
-117.5933390005496
 10
95.9049126279335
 20
-117.7964273794051
 10
95.9049126279335
 20
-118.001755070326
 10
96.04030488050381
 20
-118.1030408775923
 10
96.22117239347943
 20
-118.1030408775923
 10
96.42029891252687
 20
-118.1030408775923
 10
96.5377766685739
 20
-117.9803954783174
 10
96.5377766685739
 20
-117.8028008060528
 10
96.5377766685739
 20
-117.5805921472542
 10
96.36379934656878
 20
-117.5066948490956
 10
96.22117239347943
 20
-117.5066948490956
 97
        0
 97
        0
 92
        1
 93
        1
 72
     4
 94
        3
 73
     0
 74
     1
 95
       17
 96
       13
 40
0.0
 40
0.0
 40
0.0
 40
0.0
 40
1.0
 40
1.0
 40
1.0
 40
2.0
 40
2.0
 40
2.0
 40
3.0
 40
3.0
 40
3.0
 40
4.0
 40
4.0
 40
4.0
 40
4.0
 10
96.22117239347943
 20
-116.8466145541217
 10
96.04512801418316
 20
-116.8466145541217
 10
95.9545220029211
 20
-116.9416991895146
 10
95.9545220029211
 20
-117.0770914420849
 10
95.9545220029211
 20
-117.199909096134
 10
96.03134763224217
 20
-117.3184203808267
 10
96.22117239347943
 20
-117.3184203808267
 10
96.41134166426522
 20
-117.3184203808267
 10
96.4881672935863
 20
-117.199909096134
 10
96.4881672935863
 20
-117.0770914420849
 10
96.4881672935863
 20
-116.9416991895146
 10
96.39549422503308
 20
-116.8466145541217
 10
96.22117239347943
 20
-116.8466145541217
 97
        0
 97
        0
 75
     2
 76
     1
 98
        0
  0
ENDBLK
  5
9D
330
9A
100
AcDbEntity
  8
0
100
AcDbBlockEnd
  0
BLOCK
  5
AE
330
AC
100
AcDbEntity
  8
0
100
AcDbBlockBegin
  2
block 4
 70
     0
 10
0.0
 20
0.0
 30
0.0
  3
block 4
  1

  0
SPLINE
  5
B0
330
AC
100
AcDbEntity
  8
_U+30EC_U+30A4_U+30E4_U+30FC 1
370
     0
100
AcDbSpline
210
0.0
220
0.0
230
1.0
 70
    11
 71
     3
 72
    26
 73
    22
 74
     0
 42
0.0000000001
 43
0.0000000001
 12
1.0
 22
0.0
 32
0.0
 13
1.0
 23
0.0
 33
0.0
 40
0.0
 40
0.0
 40
0.0
 40
0.0
 40
1.0
 40
1.0
 40
1.0
 40
2.0
 40
2.0
 40
2.0
 40
3.0
 40
3.0
 40
3.0
 40
4.0
 40
4.0
 40
4.0
 40
5.0
 40
5.0
 40
5.0
 40
6.0
 40
6.0
 40
6.0
 40
7.0
 40
7.0
 40
7.0
 40
7.0
 10
87.81910126927787
 20
-124.7469075208966
 30
0.0
 10
87.81910126927787
 20
-124.7469075208966
 30
0.0
 10
87.81910126927787
 20
-123.6425821630998
 30
0.0
 10
87.81910126927787
 20
-123.6425821630998
 30
0.0
 10
87.81910126927787
 20
-123.6425821630998
 30
0.0
 10
87.46632349158828
 20
-123.6425821630998
 30
0.0
 10
87.46632349158828
 20
-123.6425821630998
 30
0.0
 10
87.46632349158828
 20
-123.6425821630998
 30
0.0
 10
87.46632349158828
 20
-123.4946153120083
 30
0.0
 10
87.46632349158828
 20
-123.4946153120083
 30
0.0
 10
87.82134058134328
 20
-123.4798014014217
 30
0.0
 10
87.87112221110515
 20
-123.3168483849694
 30
0.0
 10
87.90264483479518
 20
-123.2026434696334
 30
0.0
 10
87.90264483479518
 20
-123.2026434696334
 30
0.0
 10
88.058707660277
 20
-123.2026434696334
 30
0.0
 10
88.058707660277
 20
-123.2026434696334
 30
0.0
 10
88.058707660277
 20
-123.2026434696334
 30
0.0
 10
88.058707660277
 20
-124.7469075208966
 30
0.0
 10
88.058707660277
 20
-124.7469075208966
 30
0.0
 10
88.058707660277
 20
-124.7469075208966
 30
0.0
 10
87.81910126927787
 20
-124.7469075208966
 30
0.0
 10
87.81910126927787
 20
-124.7469075208966
 30
0.0
  0
HATCH
  5
B1
330
AC
100
AcDbEntity
  8
_U+30EC_U+30A4_U+30E4_U+30FC 1
 62
     7
420
 16777215
100
AcDbHatch
 10
0.0
 20
0.0
 30
0.0
210
0.0
220
0.0
230
1.0
  2
SOLID
 70
     1
 71
     0
 91
        1
 92
        1
 93
        1
 72
     4
 94
        3
 73
     0
 74
     1
 95
       26
 96
       22
 40
0.0
 40
0.0
 40
0.0
 40
0.0
 40
1.0
 40
1.0
 40
1.0
 40
2.0
 40
2.0
 40
2.0
 40
3.0
 40
3.0
 40
3.0
 40
4.0
 40
4.0
 40
4.0
 40
5.0
 40
5.0
 40
5.0
 40
6.0
 40
6.0
 40
6.0
 40
7.0
 40
7.0
 40
7.0
 40
7.0
 10
87.81910126927787
 20
-124.7469075208966
 10
87.81910126927787
 20
-124.7469075208966
 10
87.81910126927787
 20
-123.6425821630998
 10
87.81910126927787
 20
-123.6425821630998
 10
87.81910126927787
 20
-123.6425821630998
 10
87.46632349158828
 20
-123.6425821630998
 10
87.46632349158828
 20
-123.6425821630998
 10
87.46632349158828
 20
-123.6425821630998
 10
87.46632349158828
 20
-123.4946153120083
 10
87.46632349158828
 20
-123.4946153120083
 10
87.82134058134328
 20
-123.4798014014217
 10
87.87112221110515
 20
-123.3168483849694
 10
87.90264483479518
 20
-123.2026434696334
 10
87.90264483479518
 20
-123.2026434696334
 10
88.058707660277
 20
-123.2026434696334
 10
88.058707660277
 20
-123.2026434696334
 10
88.058707660277
 20
-123.2026434696334
 10
88.058707660277
 20
-124.7469075208966
 10
88.058707660277
 20
-124.7469075208966
 10
88.058707660277
 20
-124.7469075208966
 10
87.81910126927787
 20
-124.7469075208966
 10
87.81910126927787
 20
-124.7469075208966
 97
        0
 97
        0
 75
     2
 76
     1
 98
        0
  0
ENDBLK
  5
AF
330
AC
100
AcDbEntity
  8
0
100
AcDbBlockEnd
  0
BLOCK
  5
C0
330
BE
100
AcDbEntity
  8
0
100
AcDbBlockBegin
  2
block 5
 70
     0
 10
0.0
 20
0.0
 30
0.0
  3
block 5
  1

  0
SPLINE
  5
C2
330
BE
100
AcDbEntity
  8
_U+30EC_U+30A4_U+30E4_U+30FC 1
370
     0
100
AcDbSpline
210
0.0
220
0.0
230
1.0
 70
    11
 71
     3
 72
    26
 73
    22
 74
     0
 42
0.0000000001
 43
0.0000000001
 12
1.0
 22
0.0
 32
0.0
 13
1.0
 23
0.0
 33
0.0
 40
0.0
 40
0.0
 40
0.0
 40
0.0
 40
1.0
 40
1.0
 40
1.0
 40
2.0
 40
2.0
 40
2.0
 40
3.0
 40
3.0
 40
3.0
 40
4.0
 40
4.0
 40
4.0
 40
5.0
 40
5.0
 40
5.0
 40
6.0
 40
6.0
 40
6.0
 40
7.0
 40
7.0
 40
7.0
 40
7.0
 10
80.9959174059663
 20
-130.0196261610715
 30
0.0
 10
80.9959174059663
 20
-130.0196261610715
 30
0.0
 10
79.89159204816947
 20
-130.0196261610715
 30
0.0
 10
79.89159204816947
 20
-130.0196261610715
 30
0.0
 10
79.89159204816947
 20
-130.0196261610715
 30
0.0
 10
79.89159204816947
 20
-130.3720594292126
 30
0.0
 10
79.89159204816947
 20
-130.3720594292126
 30
0.0
 10
79.89159204816947
 20
-130.3720594292126
 30
0.0
 10
79.74345294230372
 20
-130.3720594292126
 30
0.0
 10
79.74345294230372
 20
-130.3720594292126
 30
0.0
 10
79.7288112864914
 20
-130.0172145942318
 30
0.0
 10
79.5658582700391
 20
-129.9676052192442
 30
0.0
 10
79.45165335470307
 20
-129.9359103407799
 30
0.0
 10
79.45165335470307
 20
-129.9359103407799
 30
0.0
 10
79.45165335470307
 20
-129.7798475152981
 30
0.0
 10
79.45165335470307
 20
-129.7798475152981
 30
0.0
 10
79.45165335470307
 20
-129.7798475152981
 30
0.0
 10
80.9959174059663
 20
-129.7798475152981
 30
0.0
 10
80.9959174059663
 20
-129.7798475152981
 30
0.0
 10
80.9959174059663
 20
-129.7798475152981
 30
0.0
 10
80.9959174059663
 20
-130.0196261610715
 30
0.0
 10
80.9959174059663
 20
-130.0196261610715
 30
0.0
  0
HATCH
  5
C3
330
BE
100
AcDbEntity
  8
_U+30EC_U+30A4_U+30E4_U+30FC 1
 62
     7
420
 16777215
100
AcDbHatch
 10
0.0
 20
0.0
 30
0.0
210
0.0
220
0.0
230
1.0
  2
SOLID
 70
     1
 71
     0
 91
        1
 92
        1
 93
        1
 72
     4
 94
        3
 73
     0
 74
     1
 95
       26
 96
       22
 40
0.0
 40
0.0
 40
0.0
 40
0.0
 40
1.0
 40
1.0
 40
1.0
 40
2.0
 40
2.0
 40
2.0
 40
3.0
 40
3.0
 40
3.0
 40
4.0
 40
4.0
 40
4.0
 40
5.0
 40
5.0
 40
5.0
 40
6.0
 40
6.0
 40
6.0
 40
7.0
 40
7.0
 40
7.0
 40
7.0
 10
80.9959174059663
 20
-130.0196261610715
 10
80.9959174059663
 20
-130.0196261610715
 10
79.89159204816947
 20
-130.0196261610715
 10
79.89159204816947
 20
-130.0196261610715
 10
79.89159204816947
 20
-130.0196261610715
 10
79.89159204816947
 20
-130.3720594292126
 10
79.89159204816947
 20
-130.3720594292126
 10
79.89159204816947
 20
-130.3720594292126
 10
79.74345294230372
 20
-130.3720594292126
 10
79.74345294230372
 20
-130.3720594292126
 10
79.7288112864914
 20
-130.0172145942318
 10
79.5658582700391
 20
-129.9676052192442
 10
79.45165335470307
 20
-129.9359103407799
 10
79.45165335470307
 20
-129.9359103407799
 10
79.45165335470307
 20
-129.7798475152981
 10
79.45165335470307
 20
-129.7798475152981
 10
79.45165335470307
 20
-129.7798475152981
 10
80.9959174059663
 20
-129.7798475152981
 10
80.9959174059663
 20
-129.7798475152981
 10
80.9959174059663
 20
-129.7798475152981
 10
80.9959174059663
 20
-130.0196261610715
 10
80.9959174059663
 20
-130.0196261610715
 97
        0
 97
        0
 75
     2
 76
     1
 98
        0
  0
SPLINE
  5
C4
330
BE
100
AcDbEntity
  8
_U+30EC_U+30A4_U+30E4_U+30FC 1
370
     0
100
AcDbSpline
210
0.0
220
0.0
230
1.0
 70
    11
 71
     3
 72
    62
 73
    58
 74
     0
 42
0.0000000001
 43
0.0000000001
 12
1.0
 22
0.0
 32
0.0
 13
1.0
 23
0.0
 33
0.0
 40
0.0
 40
0.0
 40
0.0
 40
0.0
 40
1.0
 40
1.0
 40
1.0
 40
2.0
 40
2.0
 40
2.0
 40
3.0
 40
3.0
 40
3.0
 40
4.0
 40
4.0
 40
4.0
 40
5.0
 40
5.0
 40
5.0
 40
6.0
 40
6.0
 40
6.0
 40
7.0
 40
7.0
 40
7.0
 40
8.0
 40
8.0
 40
8.0
 40
9.0
 40
9.0
 40
9.0
 40
10.0
 40
10.0
 40
10.0
 40
11.0
 40
11.0
 40
11.0
 40
12.0
 40
12.0
 40
12.0
 40
13.0
 40
13.0
 40
13.0
 40
14.0
 40
14.0
 40
14.0
 40
15.0
 40
15.0
 40
15.0
 40
16.0
 40
16.0
 40
16.0
 40
17.0
 40
17.0
 40
17.0
 40
18.0
 40
18.0
 40
18.0
 40
19.0
 40
19.0
 40
19.0
 40
19.0
 10
81.04673256437374
 20
-128.7187581058411
 30
0.0
 10
81.04673256437374
 20
-128.820388422656
 30
0.0
 10
81.02554522713945
 20
-129.0532768774589
 30
0.0
 10
80.8393378161617
 20
-129.1866020727381
 30
0.0
 10
80.72719995811681
 20
-129.2658392688988
 30
0.0
 10
80.62780895336736
 20
-129.2703178930296
 30
0.0
 10
80.54323185920447
 20
-129.2747965171605
 30
0.0
 10
80.54323185920447
 20
-129.2747965171605
 30
0.0
 10
80.54323185920447
 20
-129.0398410050664
 30
0.0
 10
80.54323185920447
 20
-129.0398410050664
 30
0.0
 10
80.61730141213735
 20
-129.0374294382268
 30
0.0
 10
80.85208466945713
 20
-129.0260606231254
 30
0.0
 10
80.85208466945713
 20
-128.723236729972
 30
0.0
 10
80.85208466945713
 20
-128.5761311527518
 30
0.0
 10
80.78232148588081
 20
-128.413522645848
 30
0.0
 10
80.55373940043448
 20
-128.413522645848
 30
0.0
 10
80.4374674278073
 20
-128.413522645848
 30
0.0
 10
80.38871932669102
 20
-128.454174772574
 30
0.0
 10
80.35702444822672
 20
-128.4882812178779
 30
0.0
 10
80.28295489529386
 20
-128.5671739044901
 30
0.0
 10
80.27038029677269
 20
-128.6915418515077
 30
0.0
 10
80.27038029677269
 20
-128.7504529843054
 30
0.0
 10
80.27038029677269
 20
-128.7707790476684
 30
0.0
 10
80.27244735406384
 20
-128.8090196075547
 30
0.0
 10
80.27658146864614
 20
-128.8386474287279
 30
0.0
 10
80.27658146864614
 20
-128.8386474287279
 30
0.0
 10
80.08210582850379
 20
-128.8386474287279
 30
0.0
 10
80.08210582850379
 20
-128.8386474287279
 30
0.0
 10
80.08830700037723
 20
-128.7979953020019
 30
0.0
 10
80.09054631244264
 20
-128.7525200415966
 30
0.0
 10
80.09054631244264
 20
-128.7459743601746
 30
0.0
 10
80.09054631244264
 20
-128.6756944122755
 30
0.0
 10
80.06935897520836
 20
-128.4631320208356
 30
0.0
 10
79.83233640582317
 20
-128.4631320208356
 30
0.0
 10
79.65474173355854
 20
-128.4631320208356
 30
0.0
 10
79.59962020579454
 20
-128.6033474070853
 30
0.0
 10
79.59962020579454
 20
-128.7208251631323
 30
0.0
 10
79.59962020579454
 20
-129.0036675024713
 30
0.0
 10
79.83233640582317
 20
-129.012624750733
 30
0.0
 10
79.9043389014649
 20
-129.0171033748638
 30
0.0
 10
79.9043389014649
 20
-129.0171033748638
 30
0.0
 10
79.9043389014649
 20
-129.2341443904345
 30
0.0
 10
79.9043389014649
 20
-129.2341443904345
 30
0.0
 10
79.77945419012458
 20
-129.2251871421729
 30
0.0
 10
79.40290525358678
 20
-129.1959038305482
 30
0.0
 10
79.40290525358678
 20
-128.7073892907398
 30
0.0
 10
79.40290525358678
 20
-128.4676106449664
 30
0.0
 10
79.52985702221824
 20
-128.2099175026698
 30
0.0
 10
79.82596297917546
 20
-128.2099175026698
 30
0.0
 10
80.01217039015322
 20
-128.2099175026698
 30
0.0
 10
80.09468042702494
 20
-128.3118923290332
 30
0.0
 10
80.1560031266624
 20
-128.4180012699788
 30
0.0
 10
80.18356389054439
 20
-128.3525444557591
 30
0.0
 10
80.26400687012497
 20
-128.1578965608425
 30
0.0
 10
80.54116480191333
 20
-128.1578965608425
 30
0.0
 10
80.87964543333912
 20
-128.1578965608425
 30
0.0
 10
81.04673256437374
 20
-128.4224798941097
 30
0.0
 10
81.04673256437374
 20
-128.7187581058411
 30
0.0
  0
HATCH
  5
C5
330
BE
100
AcDbEntity
  8
_U+30EC_U+30A4_U+30E4_U+30FC 1
 62
     7
420
 16777215
100
AcDbHatch
 10
0.0
 20
0.0
 30
0.0
210
0.0
220
0.0
230
1.0
  2
SOLID
 70
     1
 71
     0
 91
        1
 92
        1
 93
        1
 72
     4
 94
        3
 73
     0
 74
     1
 95
       62
 96
       58
 40
0.0
 40
0.0
 40
0.0
 40
0.0
 40
1.0
 40
1.0
 40
1.0
 40
2.0
 40
2.0
 40
2.0
 40
3.0
 40
3.0
 40
3.0
 40
4.0
 40
4.0
 40
4.0
 40
5.0
 40
5.0
 40
5.0
 40
6.0
 40
6.0
 40
6.0
 40
7.0
 40
7.0
 40
7.0
 40
8.0
 40
8.0
 40
8.0
 40
9.0
 40
9.0
 40
9.0
 40
10.0
 40
10.0
 40
10.0
 40
11.0
 40
11.0
 40
11.0
 40
12.0
 40
12.0
 40
12.0
 40
13.0
 40
13.0
 40
13.0
 40
14.0
 40
14.0
 40
14.0
 40
15.0
 40
15.0
 40
15.0
 40
16.0
 40
16.0
 40
16.0
 40
17.0
 40
17.0
 40
17.0
 40
18.0
 40
18.0
 40
18.0
 40
19.0
 40
19.0
 40
19.0
 40
19.0
 10
81.04673256437374
 20
-128.7187581058411
 10
81.04673256437374
 20
-128.820388422656
 10
81.02554522713945
 20
-129.0532768774589
 10
80.8393378161617
 20
-129.1866020727381
 10
80.72719995811681
 20
-129.2658392688988
 10
80.62780895336736
 20
-129.2703178930296
 10
80.54323185920447
 20
-129.2747965171605
 10
80.54323185920447
 20
-129.2747965171605
 10
80.54323185920447
 20
-129.0398410050664
 10
80.54323185920447
 20
-129.0398410050664
 10
80.61730141213735
 20
-129.0374294382268
 10
80.85208466945713
 20
-129.0260606231254
 10
80.85208466945713
 20
-128.723236729972
 10
80.85208466945713
 20
-128.5761311527518
 10
80.78232148588081
 20
-128.413522645848
 10
80.55373940043448
 20
-128.413522645848
 10
80.4374674278073
 20
-128.413522645848
 10
80.38871932669102
 20
-128.454174772574
 10
80.35702444822672
 20
-128.4882812178779
 10
80.28295489529386
 20
-128.5671739044901
 10
80.27038029677269
 20
-128.6915418515077
 10
80.27038029677269
 20
-128.7504529843054
 10
80.27038029677269
 20
-128.7707790476684
 10
80.27244735406384
 20
-128.8090196075547
 10
80.27658146864614
 20
-128.8386474287279
 10
80.27658146864614
 20
-128.8386474287279
 10
80.08210582850379
 20
-128.8386474287279
 10
80.08210582850379
 20
-128.8386474287279
 10
80.08830700037723
 20
-128.7979953020019
 10
80.09054631244264
 20
-128.7525200415966
 10
80.09054631244264
 20
-128.7459743601746
 10
80.09054631244264
 20
-128.6756944122755
 10
80.06935897520836
 20
-128.4631320208356
 10
79.83233640582317
 20
-128.4631320208356
 10
79.65474173355854
 20
-128.4631320208356
 10
79.59962020579454
 20
-128.6033474070853
 10
79.59962020579454
 20
-128.7208251631323
 10
79.59962020579454
 20
-129.0036675024713
 10
79.83233640582317
 20
-129.012624750733
 10
79.9043389014649
 20
-129.0171033748638
 10
79.9043389014649
 20
-129.0171033748638
 10
79.9043389014649
 20
-129.2341443904345
 10
79.9043389014649
 20
-129.2341443904345
 10
79.77945419012458
 20
-129.2251871421729
 10
79.40290525358678
 20
-129.1959038305482
 10
79.40290525358678
 20
-128.7073892907398
 10
79.40290525358678
 20
-128.4676106449664
 10
79.52985702221824
 20
-128.2099175026698
 10
79.82596297917546
 20
-128.2099175026698
 10
80.01217039015322
 20
-128.2099175026698
 10
80.09468042702494
 20
-128.3118923290332
 10
80.1560031266624
 20
-128.4180012699788
 10
80.18356389054439
 20
-128.3525444557591
 10
80.26400687012497
 20
-128.1578965608425
 10
80.54116480191333
 20
-128.1578965608425
 10
80.87964543333912
 20
-128.1578965608425
 10
81.04673256437374
 20
-128.4224798941097
 10
81.04673256437374
 20
-128.7187581058411
 97
        0
 97
        0
 75
     2
 76
     1
 98
        0
  0
ENDBLK
  5
C1
330
BE
100
AcDbEntity
  8
0
100
AcDbBlockEnd
  0
BLOCK
  5
D4
330
D2
100
AcDbEntity
  8
0
100
AcDbBlockBegin
  2
block 6
 70
     0
 10
0.0
 20
0.0
 30
0.0
  3
block 6
  1

  0
SPLINE
  5
D6
330
D2
100
AcDbEntity
  8
_U+30EC_U+30A4_U+30E4_U+30FC 1
370
     0
100
AcDbSpline
210
0.0
220
0.0
230
1.0
 70
    11
 71
     3
 72
    26
 73
    22
 74
     0
 42
0.0000000001
 43
0.0000000001
 12
1.0
 22
0.0
 32
0.0
 13
1.0
 23
0.0
 33
0.0
 40
0.0
 40
0.0
 40
0.0
 40
0.0
 40
1.0
 40
1.0
 40
1.0
 40
2.0
 40
2.0
 40
2.0
 40
3.0
 40
3.0
 40
3.0
 40
4.0
 40
4.0
 40
4.0
 40
5.0
 40
5.0
 40
5.0
 40
6.0
 40
6.0
 40
6.0
 40
7.0
 40
7.0
 40
7.0
 40
7.0
 10
91.41595321065296
 20
-139.2469699087646
 30
0.0
 10
91.41595321065296
 20
-139.2469699087646
 30
0.0
 10
91.41595321065296
 20
-138.1428168057421
 30
0.0
 10
91.41595321065296
 20
-138.1428168057421
 30
0.0
 10
91.41595321065296
 20
-138.1428168057421
 30
0.0
 10
91.06369219728616
 20
-138.1428168057421
 30
0.0
 10
91.06369219728616
 20
-138.1428168057421
 30
0.0
 10
91.06369219728616
 20
-138.1428168057421
 30
0.0
 10
91.06369219728616
 20
-137.9946776998763
 30
0.0
 10
91.06369219728616
 20
-137.9946776998763
 30
0.0
 10
91.41836477749264
 20
-137.9798637892898
 30
0.0
 10
91.46797415248024
 20
-137.8169107728374
 30
0.0
 10
91.49966903094453
 20
-137.7025336027272
 30
0.0
 10
91.49966903094453
 20
-137.7025336027272
 30
0.0
 10
91.65573185642634
 20
-137.7025336027272
 30
0.0
 10
91.65573185642634
 20
-137.7025336027272
 30
0.0
 10
91.65573185642634
 20
-137.7025336027272
 30
0.0
 10
91.65573185642634
 20
-139.2469699087646
 30
0.0
 10
91.65573185642634
 20
-139.2469699087646
 30
0.0
 10
91.65573185642634
 20
-139.2469699087646
 30
0.0
 10
91.41595321065296
 20
-139.2469699087646
 30
0.0
 10
91.41595321065296
 20
-139.2469699087646
 30
0.0
  0
HATCH
  5
D7
330
D2
100
AcDbEntity
  8
_U+30EC_U+30A4_U+30E4_U+30FC 1
 62
     7
420
 16777215
100
AcDbHatch
 10
0.0
 20
0.0
 30
0.0
210
0.0
220
0.0
230
1.0
  2
SOLID
 70
     1
 71
     0
 91
        1
 92
        1
 93
        1
 72
     4
 94
        3
 73
     0
 74
     1
 95
       26
 96
       22
 40
0.0
 40
0.0
 40
0.0
 40
0.0
 40
1.0
 40
1.0
 40
1.0
 40
2.0
 40
2.0
 40
2.0
 40
3.0
 40
3.0
 40
3.0
 40
4.0
 40
4.0
 40
4.0
 40
5.0
 40
5.0
 40
5.0
 40
6.0
 40
6.0
 40
6.0
 40
7.0
 40
7.0
 40
7.0
 40
7.0
 10
91.41595321065296
 20
-139.2469699087646
 10
91.41595321065296
 20
-139.2469699087646
 10
91.41595321065296
 20
-138.1428168057421
 10
91.41595321065296
 20
-138.1428168057421
 10
91.41595321065296
 20
-138.1428168057421
 10
91.06369219728616
 20
-138.1428168057421
 10
91.06369219728616
 20
-138.1428168057421
 10
91.06369219728616
 20
-138.1428168057421
 10
91.06369219728616
 20
-137.9946776998763
 10
91.06369219728616
 20
-137.9946776998763
 10
91.41836477749264
 20
-137.9798637892898
 10
91.46797415248024
 20
-137.8169107728374
 10
91.49966903094453
 20
-137.7025336027272
 10
91.49966903094453
 20
-137.7025336027272
 10
91.65573185642634
 20
-137.7025336027272
 10
91.65573185642634
 20
-137.7025336027272
 10
91.65573185642634
 20
-137.7025336027272
 10
91.65573185642634
 20
-139.2469699087646
 10
91.65573185642634
 20
-139.2469699087646
 10
91.65573185642634
 20
-139.2469699087646
 10
91.41595321065296
 20
-139.2469699087646
 10
91.41595321065296
 20
-139.2469699087646
 97
        0
 97
        0
 75
     2
 76
     1
 98
        0
  0
SPLINE
  5
D8
330
D2
100
AcDbEntity
  8
_U+30EC_U+30A4_U+30E4_U+30FC 1
370
     0
100
AcDbSpline
210
0.0
220
0.0
230
1.0
 70
    11
 71
     3
 72
    62
 73
    58
 74
     0
 42
0.0000000001
 43
0.0000000001
 12
1.0
 22
0.0
 32
0.0
 13
1.0
 23
0.0
 33
0.0
 40
0.0
 40
0.0
 40
0.0
 40
0.0
 40
1.0
 40
1.0
 40
1.0
 40
2.0
 40
2.0
 40
2.0
 40
3.0
 40
3.0
 40
3.0
 40
4.0
 40
4.0
 40
4.0
 40
5.0
 40
5.0
 40
5.0
 40
6.0
 40
6.0
 40
6.0
 40
7.0
 40
7.0
 40
7.0
 40
8.0
 40
8.0
 40
8.0
 40
9.0
 40
9.0
 40
9.0
 40
10.0
 40
10.0
 40
10.0
 40
11.0
 40
11.0
 40
11.0
 40
12.0
 40
12.0
 40
12.0
 40
13.0
 40
13.0
 40
13.0
 40
14.0
 40
14.0
 40
14.0
 40
15.0
 40
15.0
 40
15.0
 40
16.0
 40
16.0
 40
16.0
 40
17.0
 40
17.0
 40
17.0
 40
18.0
 40
18.0
 40
18.0
 40
19.0
 40
19.0
 40
19.0
 40
19.0
 10
92.7168212658833
 20
-139.2976128123978
 30
0.0
 10
92.61519094906843
 20
-139.2976128123978
 30
0.0
 10
92.38230249426555
 20
-139.2765977299378
 30
0.0
 10
92.24897729898638
 20
-139.0905625737343
 30
0.0
 10
92.16974010282563
 20
-138.9782524609152
 30
0.0
 10
92.1652614786948
 20
-138.87903371094
 30
0.0
 10
92.16078285456398
 20
-138.7942843620028
 30
0.0
 10
92.16078285456398
 20
-138.7942843620028
 30
0.0
 10
92.39573836665801
 20
-138.7942843620028
 30
0.0
 10
92.39573836665801
 20
-138.7942843620028
 30
0.0
 10
92.39814993349769
 20
-138.8683539149357
 30
0.0
 10
92.40951874859901
 20
-139.1029649174812
 30
0.0
 10
92.71234264175247
 20
-139.1029649174812
 30
0.0
 10
92.85944821897264
 20
-139.1029649174812
 30
0.0
 10
93.02205672587644
 20
-139.0333739886792
 30
0.0
 10
93.02205672587644
 20
-138.8049641580071
 30
0.0
 10
93.02205672587644
 20
-138.6885199306057
 30
0.0
 10
92.98140459915048
 20
-138.6399440842636
 30
0.0
 10
92.94764266339504
 20
-138.6082492057993
 30
0.0
 10
92.8684054672343
 20
-138.5341796528665
 30
0.0
 10
92.74403752021678
 20
-138.521432799571
 30
0.0
 10
92.685126387419
 20
-138.521432799571
 30
0.0
 10
92.66480032405603
 20
-138.521432799571
 30
0.0
 10
92.62655976416976
 20
-138.5234998568622
 30
0.0
 10
92.5969319429966
 20
-138.5276339714445
 30
0.0
 10
92.5969319429966
 20
-138.5276339714445
 30
0.0
 10
92.5969319429966
 20
-138.3329860765279
 30
0.0
 10
92.5969319429966
 20
-138.3329860765279
 30
0.0
 10
92.63758406972255
 20
-138.3395317579499
 30
0.0
 10
92.68305933012785
 20
-138.341598815241
 30
0.0
 10
92.68960501154983
 20
-138.341598815241
 30
0.0
 10
92.75988495944893
 20
-138.341598815241
 30
0.0
 10
92.97244735088884
 20
-138.3202392232324
 30
0.0
 10
92.97244735088884
 20
-138.0835611633958
 30
0.0
 10
92.97244735088884
 20
-137.9057942363569
 30
0.0
 10
92.83223196463916
 20
-137.8506727085929
 30
0.0
 10
92.71475420859215
 20
-137.8506727085929
 30
0.0
 10
92.43191186925314
 20
-137.8506727085929
 30
0.0
 10
92.42295462099149
 20
-138.0835611633958
 30
0.0
 10
92.41847599686066
 20
-138.155219149489
 30
0.0
 10
92.41847599686066
 20
-138.155219149489
 30
0.0
 10
92.20143498128992
 20
-138.155219149489
 30
0.0
 10
92.20143498128992
 20
-138.155219149489
 30
0.0
 10
92.21039222955157
 20
-138.0305066929229
 30
0.0
 10
92.2396755411762
 20
-137.6539577563851
 30
0.0
 10
92.72819008098462
 20
-137.6539577563851
 30
0.0
 10
92.96796872675802
 20
-137.6539577563851
 30
0.0
 10
93.2256618690547
 20
-137.7810817797908
 30
0.0
 10
93.2256618690547
 20
-138.0770154819738
 30
0.0
 10
93.2256618690547
 20
-138.2633951477258
 30
0.0
 10
93.1236870426913
 20
-138.3457329298233
 30
0.0
 10
93.01757810174561
 20
-138.4070556294607
 30
0.0
 10
93.08303491596536
 20
-138.4346163933427
 30
0.0
 10
93.27768281088197
 20
-138.5148871181491
 30
0.0
 10
93.27768281088197
 20
-138.7922173047117
 30
0.0
 10
93.27768281088197
 20
-139.1305256813632
 30
0.0
 10
93.01309947761479
 20
-139.2976128123978
 30
0.0
 10
92.7168212658833
 20
-139.2976128123978
 30
0.0
  0
HATCH
  5
D9
330
D2
100
AcDbEntity
  8
_U+30EC_U+30A4_U+30E4_U+30FC 1
 62
     7
420
 16777215
100
AcDbHatch
 10
0.0
 20
0.0
 30
0.0
210
0.0
220
0.0
230
1.0
  2
SOLID
 70
     1
 71
     0
 91
        1
 92
        1
 93
        1
 72
     4
 94
        3
 73
     0
 74
     1
 95
       62
 96
       58
 40
0.0
 40
0.0
 40
0.0
 40
0.0
 40
1.0
 40
1.0
 40
1.0
 40
2.0
 40
2.0
 40
2.0
 40
3.0
 40
3.0
 40
3.0
 40
4.0
 40
4.0
 40
4.0
 40
5.0
 40
5.0
 40
5.0
 40
6.0
 40
6.0
 40
6.0
 40
7.0
 40
7.0
 40
7.0
 40
8.0
 40
8.0
 40
8.0
 40
9.0
 40
9.0
 40
9.0
 40
10.0
 40
10.0
 40
10.0
 40
11.0
 40
11.0
 40
11.0
 40
12.0
 40
12.0
 40
12.0
 40
13.0
 40
13.0
 40
13.0
 40
14.0
 40
14.0
 40
14.0
 40
15.0
 40
15.0
 40
15.0
 40
16.0
 40
16.0
 40
16.0
 40
17.0
 40
17.0
 40
17.0
 40
18.0
 40
18.0
 40
18.0
 40
19.0
 40
19.0
 40
19.0
 40
19.0
 10
92.7168212658833
 20
-139.2976128123978
 10
92.61519094906843
 20
-139.2976128123978
 10
92.38230249426555
 20
-139.2765977299378
 10
92.24897729898638
 20
-139.0905625737343
 10
92.16974010282563
 20
-138.9782524609152
 10
92.1652614786948
 20
-138.87903371094
 10
92.16078285456398
 20
-138.7942843620028
 10
92.16078285456398
 20
-138.7942843620028
 10
92.39573836665801
 20
-138.7942843620028
 10
92.39573836665801
 20
-138.7942843620028
 10
92.39814993349769
 20
-138.8683539149357
 10
92.40951874859901
 20
-139.1029649174812
 10
92.71234264175247
 20
-139.1029649174812
 10
92.85944821897264
 20
-139.1029649174812
 10
93.02205672587644
 20
-139.0333739886792
 10
93.02205672587644
 20
-138.8049641580071
 10
93.02205672587644
 20
-138.6885199306057
 10
92.98140459915048
 20
-138.6399440842636
 10
92.94764266339504
 20
-138.6082492057993
 10
92.8684054672343
 20
-138.5341796528665
 10
92.74403752021678
 20
-138.521432799571
 10
92.685126387419
 20
-138.521432799571
 10
92.66480032405603
 20
-138.521432799571
 10
92.62655976416976
 20
-138.5234998568622
 10
92.5969319429966
 20
-138.5276339714445
 10
92.5969319429966
 20
-138.5276339714445
 10
92.5969319429966
 20
-138.3329860765279
 10
92.5969319429966
 20
-138.3329860765279
 10
92.63758406972255
 20
-138.3395317579499
 10
92.68305933012785
 20
-138.341598815241
 10
92.68960501154983
 20
-138.341598815241
 10
92.75988495944893
 20
-138.341598815241
 10
92.97244735088884
 20
-138.3202392232324
 10
92.97244735088884
 20
-138.0835611633958
 10
92.97244735088884
 20
-137.9057942363569
 10
92.83223196463916
 20
-137.8506727085929
 10
92.71475420859215
 20
-137.8506727085929
 10
92.43191186925314
 20
-137.8506727085929
 10
92.42295462099149
 20
-138.0835611633958
 10
92.41847599686066
 20
-138.155219149489
 10
92.41847599686066
 20
-138.155219149489
 10
92.20143498128992
 20
-138.155219149489
 10
92.20143498128992
 20
-138.155219149489
 10
92.21039222955157
 20
-138.0305066929229
 10
92.2396755411762
 20
-137.6539577563851
 10
92.72819008098462
 20
-137.6539577563851
 10
92.96796872675802
 20
-137.6539577563851
 10
93.2256618690547
 20
-137.7810817797908
 10
93.2256618690547
 20
-138.0770154819738
 10
93.2256618690547
 20
-138.2633951477258
 10
93.1236870426913
 20
-138.3457329298233
 10
93.01757810174561
 20
-138.4070556294607
 10
93.08303491596536
 20
-138.4346163933427
 10
93.27768281088197
 20
-138.5148871181491
 10
93.27768281088197
 20
-138.7922173047117
 10
93.27768281088197
 20
-139.1305256813632
 10
93.01309947761479
 20
-139.2976128123978
 10
92.7168212658833
 20
-139.2976128123978
 97
        0
 97
        0
 75
     2
 76
     1
 98
        0
  0
ENDBLK
  5
D5
330
D2
100
AcDbEntity
  8
0
100
AcDbBlockEnd
  0
BLOCK
  5
E8
330
E6
100
AcDbEntity
  8
0
100
AcDbBlockBegin
  2
block 7
 70
     0
 10
0.0
 20
0.0
 30
0.0
  3
block 7
  1

  0
SPLINE
  5
EA
330
E6
100
AcDbEntity
  8
_U+30EC_U+30A4_U+30E4_U+30FC 1
370
     0
100
AcDbSpline
210
0.0
220
0.0
230
1.0
 70
    11
 71
     3
 72
    32
 73
    28
 74
     0
 42
0.0000000001
 43
0.0000000001
 12
1.0
 22
0.0
 32
0.0
 13
1.0
 23
0.0
 33
0.0
 40
0.0
 40
0.0
 40
0.0
 40
0.0
 40
1.0
 40
1.0
 40
1.0
 40
2.0
 40
2.0
 40
2.0
 40
3.0
 40
3.0
 40
3.0
 40
4.0
 40
4.0
 40
4.0
 40
5.0
 40
5.0
 40
5.0
 40
6.0
 40
6.0
 40
6.0
 40
7.0
 40
7.0
 40
7.0
 40
8.0
 40
8.0
 40
8.0
 40
9.0
 40
9.0
 40
9.0
 40
9.0
 10
102.0468288590369
 20
-132.3633246196869
 30
0.0
 10
102.0468288590369
 20
-132.915228916424
 30
0.0
 10
101.4928575050087
 20
-132.9241861646856
 30
0.0
 10
101.2789170753747
 20
-132.9241861646856
 30
0.0
 10
101.0484401874115
 20
-132.9241861646856
 30
0.0
 10
100.4011067457331
 20
-132.9038601013227
 30
0.0
 10
100.4011067457331
 20
-132.322672492961
 30
0.0
 10
100.4011067457331
 20
-132.1373263558546
 30
0.0
 10
100.4710421840836
 20
-131.875154589427
 30
0.0
 10
100.8031493888617
 20
-131.8345024627011
 30
0.0
 10
100.8031493888617
 20
-131.8345024627011
 30
0.0
 10
100.8031493888617
 20
-132.0629122933732
 30
0.0
 10
100.8031493888617
 20
-132.0629122933732
 30
0.0
 10
100.7459608038066
 20
-132.073936598926
 30
0.0
 10
100.5978216979408
 20
-132.1080430442299
 30
0.0
 10
100.5978216979408
 20
-132.3250840598007
 30
0.0
 10
100.5978216979408
 20
-132.6372097107643
 30
0.0
 10
100.9257947881366
 20
-132.6799288947814
 30
0.0
 10
101.130777969509
 20
-132.6937092767224
 30
0.0
 10
101.0525743019938
 20
-132.5941460171987
 30
0.0
 10
100.9933186596475
 20
-132.5217990120084
 30
0.0
 10
100.9933186596475
 20
-132.3274956266403
 30
0.0
 10
100.9933186596475
 20
-132.1352592985634
 30
0.0
 10
101.1014946578844
 20
-131.8117648324985
 30
0.0
 10
101.5076714155953
 20
-131.8117648324985
 30
0.0
 10
101.827031767078
 20
-131.8117648324985
 30
0.0
 10
102.0468288590369
 20
-132.0243272239384
 30
0.0
 10
102.0468288590369
 20
-132.3633246196869
 30
0.0
  0
SPLINE
  5
EB
330
E6
100
AcDbEntity
  8
_U+30EC_U+30A4_U+30E4_U+30FC 1
370
     0
100
AcDbSpline
210
0.0
220
0.0
230
1.0
 70
    11
 71
     3
 72
    17
 73
    13
 74
     0
 42
0.0000000001
 43
0.0000000001
 12
1.0
 22
0.0
 32
0.0
 13
1.0
 23
0.0
 33
0.0
 40
0.0
 40
0.0
 40
0.0
 40
0.0
 40
1.0
 40
1.0
 40
1.0
 40
2.0
 40
2.0
 40
2.0
 40
3.0
 40
3.0
 40
3.0
 40
4.0
 40
4.0
 40
4.0
 40
4.0
 10
101.1879665545641
 20
-132.3454101231636
 30
0.0
 10
101.1879665545641
 20
-132.625840895663
 30
0.0
 10
101.3994954173585
 20
-132.6664930223889
 30
0.0
 10
101.5159396447599
 20
-132.6664930223889
 30
0.0
 10
101.6916395145077
 20
-132.6664930223889
 30
0.0
 10
101.85459253096
 20
-132.5648627055741
 30
0.0
 10
101.85459253096
 20
-132.3681477533663
 30
0.0
 10
101.85459253096
 20
-132.239301182218
 30
0.0
 10
101.7953368886137
 20
-132.0515434782718
 30
0.0
 10
101.5097384728865
 20
-132.0515434782718
 30
0.0
 10
101.2854627567967
 20
-132.0515434782718
 30
0.0
 10
101.1879665545641
 20
-132.2007161127832
 30
0.0
 10
101.1879665545641
 20
-132.3454101231636
 30
0.0
  0
HATCH
  5
EC
330
E6
100
AcDbEntity
  8
_U+30EC_U+30A4_U+30E4_U+30FC 1
 62
     7
420
 16777215
100
AcDbHatch
 10
0.0
 20
0.0
 30
0.0
210
0.0
220
0.0
230
1.0
  2
SOLID
 70
     1
 71
     0
 91
        2
 92
        1
 93
        1
 72
     4
 94
        3
 73
     0
 74
     1
 95
       32
 96
       28
 40
0.0
 40
0.0
 40
0.0
 40
0.0
 40
1.0
 40
1.0
 40
1.0
 40
2.0
 40
2.0
 40
2.0
 40
3.0
 40
3.0
 40
3.0
 40
4.0
 40
4.0
 40
4.0
 40
5.0
 40
5.0
 40
5.0
 40
6.0
 40
6.0
 40
6.0
 40
7.0
 40
7.0
 40
7.0
 40
8.0
 40
8.0
 40
8.0
 40
9.0
 40
9.0
 40
9.0
 40
9.0
 10
102.0468288590369
 20
-132.3633246196869
 10
102.0468288590369
 20
-132.915228916424
 10
101.4928575050087
 20
-132.9241861646856
 10
101.2789170753747
 20
-132.9241861646856
 10
101.0484401874115
 20
-132.9241861646856
 10
100.4011067457331
 20
-132.9038601013227
 10
100.4011067457331
 20
-132.322672492961
 10
100.4011067457331
 20
-132.1373263558546
 10
100.4710421840836
 20
-131.875154589427
 10
100.8031493888617
 20
-131.8345024627011
 10
100.8031493888617
 20
-131.8345024627011
 10
100.8031493888617
 20
-132.0629122933732
 10
100.8031493888617
 20
-132.0629122933732
 10
100.7459608038066
 20
-132.073936598926
 10
100.5978216979408
 20
-132.1080430442299
 10
100.5978216979408
 20
-132.3250840598007
 10
100.5978216979408
 20
-132.6372097107643
 10
100.9257947881366
 20
-132.6799288947814
 10
101.130777969509
 20
-132.6937092767224
 10
101.0525743019938
 20
-132.5941460171987
 10
100.9933186596475
 20
-132.5217990120084
 10
100.9933186596475
 20
-132.3274956266403
 10
100.9933186596475
 20
-132.1352592985634
 10
101.1014946578844
 20
-131.8117648324985
 10
101.5076714155953
 20
-131.8117648324985
 10
101.827031767078
 20
-131.8117648324985
 10
102.0468288590369
 20
-132.0243272239384
 10
102.0468288590369
 20
-132.3633246196869
 97
        0
 97
        0
 92
        1
 93
        1
 72
     4
 94
        3
 73
     0
 74
     1
 95
       17
 96
       13
 40
0.0
 40
0.0
 40
0.0
 40
0.0
 40
1.0
 40
1.0
 40
1.0
 40
2.0
 40
2.0
 40
2.0
 40
3.0
 40
3.0
 40
3.0
 40
4.0
 40
4.0
 40
4.0
 40
4.0
 10
101.1879665545641
 20
-132.3454101231636
 10
101.1879665545641
 20
-132.625840895663
 10
101.3994954173585
 20
-132.6664930223889
 10
101.5159396447599
 20
-132.6664930223889
 10
101.6916395145077
 20
-132.6664930223889
 10
101.85459253096
 20
-132.5648627055741
 10
101.85459253096
 20
-132.3681477533663
 10
101.85459253096
 20
-132.239301182218
 10
101.7953368886137
 20
-132.0515434782718
 10
101.5097384728865
 20
-132.0515434782718
 10
101.2854627567967
 20
-132.0515434782718
 10
101.1879665545641
 20
-132.2007161127832
 10
101.1879665545641
 20
-132.3454101231636
 97
        0
 97
        0
 75
     2
 76
     1
 98
        0
  0
POLYLINE
  5
ED
330
E6
100
AcDbEntity
  8
_U+30EC_U+30A4_U+30E4_U+30FC 1
370
     0
100
AcDb2dPolyline
 66
     1
 10
0.0
 20
0.0
 30
0.0
  0
VERTEX
  5
EE
330
ED
100
AcDbEntity
  8
_U+30EC_U+30A4_U+30E4_U+30FC 1
370
     0
100
AcDbVertex
100
AcDb2dVertex
 10
101.9961859554037
 20
-131.5805989254382
 30
0.0
  0
VERTEX
  5
EF
330
ED
100
AcDbEntity
  8
_U+30EC_U+30A4_U+30E4_U+30FC 1
370
     0
100
AcDbVertex
100
AcDb2dVertex
 10
101.744349475432
 20
-131.5805989254382
 30
0.0
  0
VERTEX
  5
F0
330
ED
100
AcDbEntity
  8
_U+30EC_U+30A4_U+30E4_U+30FC 1
370
     0
100
AcDbVertex
100
AcDb2dVertex
 10
101.744349475432
 20
-131.3115369680402
 30
0.0
  0
VERTEX
  5
F1
330
ED
100
AcDbEntity
  8
_U+30EC_U+30A4_U+30E4_U+30FC 1
370
     0
100
AcDbVertex
100
AcDb2dVertex
 10
101.9961859554037
 20
-131.3115369680402
 30
0.0
  0
VERTEX
  5
F2
330
ED
100
AcDbEntity
  8
_U+30EC_U+30A4_U+30E4_U+30FC 1
370
     0
100
AcDbVertex
100
AcDb2dVertex
 10
101.9961859554037
 20
-131.5805989254382
 30
0.0
  0
SEQEND
  5
F3
330
ED
100
AcDbEntity
  8
_U+30EC_U+30A4_U+30E4_U+30FC 1
370
     0
  0
HATCH
  5
F4
330
E6
100
AcDbEntity
  8
_U+30EC_U+30A4_U+30E4_U+30FC 1
 62
     7
420
 16777215
100
AcDbHatch
 10
0.0
 20
0.0
 30
0.0
210
0.0
220
0.0
230
1.0
  2
SOLID
 70
     1
 71
     0
 91
        1
 92
        1
 93
        4
 72
     1
 10
101.9961859554037
 20
-131.5805989254382
 11
101.744349475432
 21
-131.5805989254382
 72
     1
 10
101.744349475432
 20
-131.5805989254382
 11
101.744349475432
 21
-131.3115369680402
 72
     1
 10
101.744349475432
 20
-131.3115369680402
 11
101.9961859554037
 21
-131.3115369680402
 72
     1
 10
101.9961859554037
 20
-131.3115369680402
 11
101.9961859554037
 21
-131.5805989254382
 97
        0
 75
     2
 76
     1
 98
        0
  0
SPLINE
  5
F5
330
E6
100
AcDbEntity
  8
_U+30EC_U+30A4_U+30E4_U+30FC 1
370
     0
100
AcDbSpline
210
0.0
220
0.0
230
1.0
 70
    11
 71
     3
 72
    53
 73
    49
 74
     0
 42
0.0000000001
 43
0.0000000001
 12
1.0
 22
0.0
 32
0.0
 13
1.0
 23
0.0
 33
0.0
 40
0.0
 40
0.0
 40
0.0
 40
0.0
 40
1.0
 40
1.0
 40
1.0
 40
2.0
 40
2.0
 40
2.0
 40
3.0
 40
3.0
 40
3.0
 40
4.0
 40
4.0
 40
4.0
 40
5.0
 40
5.0
 40
5.0
 40
6.0
 40
6.0
 40
6.0
 40
7.0
 40
7.0
 40
7.0
 40
8.0
 40
8.0
 40
8.0
 40
9.0
 40
9.0
 40
9.0
 40
10.0
 40
10.0
 40
10.0
 40
11.0
 40
11.0
 40
11.0
 40
12.0
 40
12.0
 40
12.0
 40
13.0
 40
13.0
 40
13.0
 40
14.0
 40
14.0
 40
14.0
 40
15.0
 40
15.0
 40
15.0
 40
16.0
 40
16.0
 40
16.0
 40
16.0
 10
102.0468288590369
 20
-130.5446587130236
 30
0.0
 10
102.0468288590369
 20
-130.6283745333151
 30
0.0
 10
102.0299478911592
 20
-130.736550531552
 30
0.0
 10
101.9665581342306
 20
-130.8454155488859
 30
0.0
 10
101.8566595882511
 20
-131.0307616859923
 30
0.0
 10
101.7254014502631
 20
-131.0531548066464
 30
0.0
 10
101.6175699615748
 20
-131.0734808700094
 30
0.0
 10
101.6175699615748
 20
-131.0734808700094
 30
0.0
 10
101.6175699615748
 20
-130.8361137910757
 30
0.0
 10
101.6175699615748
 20
-130.8361137910757
 30
0.0
 10
101.8163519710737
 20
-130.7775471678264
 30
0.0
 10
101.8459797922468
 20
-130.6418104057076
 30
0.0
 10
101.8459797922468
 20
-130.5422471461839
 30
0.0
 10
101.8459797922468
 20
-130.3930745116726
 30
0.0
 10
101.7464165327231
 20
-130.2301214952203
 30
0.0
 10
101.5138725874688
 20
-130.2301214952203
 30
0.0
 10
101.2579019929147
 20
-130.2301214952203
 30
0.0
 10
101.1879665545641
 20
-130.4223578232972
 30
0.0
 10
101.1879665545641
 20
-130.5512043944455
 30
0.0
 10
101.1879665545641
 20
-130.5853108397495
 30
0.0
 10
101.1879665545641
 20
-130.736550531552
 30
0.0
 10
101.317157635261
 20
-130.8316351669449
 30
0.0
 10
101.317157635261
 20
-130.8316351669449
 30
0.0
 10
101.2982096100921
 20
-131.019392870891
 30
0.0
 10
101.2982096100921
 20
-131.019392870891
 30
0.0
 10
101.2982096100921
 20
-131.019392870891
 30
0.0
 10
100.4517496493662
 20
-130.8905462997427
 30
0.0
 10
100.4517496493662
 20
-130.8905462997427
 30
0.0
 10
100.4517496493662
 20
-130.8905462997427
 30
0.0
 10
100.4517496493662
 20
-130.0585557400548
 30
0.0
 10
100.4517496493662
 20
-130.0585557400548
 30
0.0
 10
100.4517496493662
 20
-130.0585557400548
 30
0.0
 10
100.6463975442828
 20
-130.0585557400548
 30
0.0
 10
100.6463975442828
 20
-130.0585557400548
 30
0.0
 10
100.6463975442828
 20
-130.0585557400548
 30
0.0
 10
100.6463975442828
 20
-130.716224468189
 30
0.0
 10
100.6463975442828
 20
-130.716224468189
 30
0.0
 10
100.6463975442828
 20
-130.716224468189
 30
0.0
 10
101.0694552698715
 20
-130.7865044160881
 30
0.0
 10
101.0694552698715
 20
-130.7865044160881
 30
0.0
 10
101.0356933341161
 20
-130.7210476018683
 30
0.0
 10
100.9953857169387
 20
-130.632853157446
 30
0.0
 10
100.9953857169387
 20
-130.5060736435888
 30
0.0
 10
100.9953857169387
 20
-130.2349446288996
 30
0.0
 10
101.1817653826907
 20
-129.9817301107337
 30
0.0
 10
101.4949245622999
 20
-129.9817301107337
 30
0.0
 10
101.8122178564914
 20
-129.9817301107337
 30
0.0
 10
102.0468288590369
 20
-130.2211642469586
 30
0.0
 10
102.0468288590369
 20
-130.5446587130236
 30
0.0
  0
HATCH
  5
F6
330
E6
100
AcDbEntity
  8
_U+30EC_U+30A4_U+30E4_U+30FC 1
 62
     7
420
 16777215
100
AcDbHatch
 10
0.0
 20
0.0
 30
0.0
210
0.0
220
0.0
230
1.0
  2
SOLID
 70
     1
 71
     0
 91
        1
 92
        1
 93
        1
 72
     4
 94
        3
 73
     0
 74
     1
 95
       53
 96
       49
 40
0.0
 40
0.0
 40
0.0
 40
0.0
 40
1.0
 40
1.0
 40
1.0
 40
2.0
 40
2.0
 40
2.0
 40
3.0
 40
3.0
 40
3.0
 40
4.0
 40
4.0
 40
4.0
 40
5.0
 40
5.0
 40
5.0
 40
6.0
 40
6.0
 40
6.0
 40
7.0
 40
7.0
 40
7.0
 40
8.0
 40
8.0
 40
8.0
 40
9.0
 40
9.0
 40
9.0
 40
10.0
 40
10.0
 40
10.0
 40
11.0
 40
11.0
 40
11.0
 40
12.0
 40
12.0
 40
12.0
 40
13.0
 40
13.0
 40
13.0
 40
14.0
 40
14.0
 40
14.0
 40
15.0
 40
15.0
 40
15.0
 40
16.0
 40
16.0
 40
16.0
 40
16.0
 10
102.0468288590369
 20
-130.5446587130236
 10
102.0468288590369
 20
-130.6283745333151
 10
102.0299478911592
 20
-130.736550531552
 10
101.9665581342306
 20
-130.8454155488859
 10
101.8566595882511
 20
-131.0307616859923
 10
101.7254014502631
 20
-131.0531548066464
 10
101.6175699615748
 20
-131.0734808700094
 10
101.6175699615748
 20
-131.0734808700094
 10
101.6175699615748
 20
-130.8361137910757
 10
101.6175699615748
 20
-130.8361137910757
 10
101.8163519710737
 20
-130.7775471678264
 10
101.8459797922468
 20
-130.6418104057076
 10
101.8459797922468
 20
-130.5422471461839
 10
101.8459797922468
 20
-130.3930745116726
 10
101.7464165327231
 20
-130.2301214952203
 10
101.5138725874688
 20
-130.2301214952203
 10
101.2579019929147
 20
-130.2301214952203
 10
101.1879665545641
 20
-130.4223578232972
 10
101.1879665545641
 20
-130.5512043944455
 10
101.1879665545641
 20
-130.5853108397495
 10
101.1879665545641
 20
-130.736550531552
 10
101.317157635261
 20
-130.8316351669449
 10
101.317157635261
 20
-130.8316351669449
 10
101.2982096100921
 20
-131.019392870891
 10
101.2982096100921
 20
-131.019392870891
 10
101.2982096100921
 20
-131.019392870891
 10
100.4517496493662
 20
-130.8905462997427
 10
100.4517496493662
 20
-130.8905462997427
 10
100.4517496493662
 20
-130.8905462997427
 10
100.4517496493662
 20
-130.0585557400548
 10
100.4517496493662
 20
-130.0585557400548
 10
100.4517496493662
 20
-130.0585557400548
 10
100.6463975442828
 20
-130.0585557400548
 10
100.6463975442828
 20
-130.0585557400548
 10
100.6463975442828
 20
-130.0585557400548
 10
100.6463975442828
 20
-130.716224468189
 10
100.6463975442828
 20
-130.716224468189
 10
100.6463975442828
 20
-130.716224468189
 10
101.0694552698715
 20
-130.7865044160881
 10
101.0694552698715
 20
-130.7865044160881
 10
101.0356933341161
 20
-130.7210476018683
 10
100.9953857169387
 20
-130.632853157446
 10
100.9953857169387
 20
-130.5060736435888
 10
100.9953857169387
 20
-130.2349446288996
 10
101.1817653826907
 20
-129.9817301107337
 10
101.4949245622999
 20
-129.9817301107337
 10
101.8122178564914
 20
-129.9817301107337
 10
102.0468288590369
 20
-130.2211642469586
 10
102.0468288590369
 20
-130.5446587130236
 97
        0
 97
        0
 75
     2
 76
     1
 98
        0
  0
ENDBLK
  5
E9
330
E6
100
AcDbEntity
  8
0
100
AcDbBlockEnd
  0
ENDSEC
  0
SECTION
  2
ENTITIES
  0
SPLINE
  5
41
330
1F
100
AcDbEntity
  8
_U+30EC_U+30A4_U+30E4_U+30FC 1
 62
   253
420
 11711154
370
     9
100
AcDbSpline
210
0.0
220
0.0
230
1.0
 70
    11
 71
     3
 72
    65
 73
    61
 74
     0
 42
0.0000000001
 43
0.0000000001
 12
1.0
 22
0.0
 32
0.0
 13
1.0
 23
0.0
 33
0.0
 40
0.0
 40
0.0
 40
0.0
 40
0.0
 40
1.0
 40
1.0
 40
1.0
 40
2.0
 40
2.0
 40
2.0
 40
3.0
 40
3.0
 40
3.0
 40
4.0
 40
4.0
 40
4.0
 40
5.0
 40
5.0
 40
5.0
 40
6.0
 40
6.0
 40
6.0
 40
7.0
 40
7.0
 40
7.0
 40
8.0
 40
8.0
 40
8.0
 40
9.0
 40
9.0
 40
9.0
 40
10.0
 40
10.0
 40
10.0
 40
11.0
 40
11.0
 40
11.0
 40
12.0
 40
12.0
 40
12.0
 40
13.0
 40
13.0
 40
13.0
 40
14.0
 40
14.0
 40
14.0
 40
15.0
 40
15.0
 40
15.0
 40
16.0
 40
16.0
 40
16.0
 40
17.0
 40
17.0
 40
17.0
 40
18.0
 40
18.0
 40
18.0
 40
19.0
 40
19.0
 40
19.0
 40
20.0
 40
20.0
 40
20.0
 40
20.0
 10
103.8927027518045
 20
-127.9108721902446
 30
0.0
 10
103.8927027518045
 20
-127.9108721902446
 30
0.0
 10
99.11196163810988
 20
-127.9108721902446
 30
0.0
 10
99.11196163810988
 20
-127.9108721902446
 30
0.0
 10
99.1095274715053
 20
-127.9108721902446
 30
0.0
 10
99.10712858267762
 20
-127.9122480235775
 30
0.0
 10
99.10472969384993
 20
-127.9124244124664
 30
0.0
 10
99.09576913852297
 20
-127.912953579133
 30
0.0
 10
99.08716386411724
 20
-127.915352468021
 30
0.0
 10
99.07820080563785
 20
-127.9177866346872
 30
0.0
 10
99.06991052807157
 20
-127.9200091346867
 30
0.0
 10
99.06130275051339
 20
-127.9220905235751
 30
0.0
 10
99.05340052849277
 20
-127.9260416346852
 30
0.0
 10
99.05131913965698
 20
-127.9272410791292
 30
0.0
 10
99.04856747306052
 20
-127.9272410791292
 30
0.0
 10
99.04581580646406
 20
-127.9286169124624
 30
0.0
 10
99.04581580646406
 20
-127.9286169124624
 30
0.0
 10
98.55729164202735
 20
-128.2105921901695
 30
0.0
 10
98.55729164202735
 20
-128.2105921901695
 30
0.0
 10
98.55729164202735
 20
-128.2105921901695
 30
0.0
 10
86.59265473528177
 20
-128.2105921901695
 30
0.0
 10
86.59265473528177
 20
-128.2105921901695
 30
0.0
 10
86.51959445936792
 20
-128.2105921901695
 30
0.0
 10
86.46036307199014
 20
-128.2698588568213
 30
0.0
 10
86.46036307199014
 20
-128.3428838568031
 30
0.0
 10
86.46036307199014
 20
-128.3428838568031
 30
0.0
 10
86.46036307199014
 20
-134.8430966329562
 30
0.0
 10
86.46036307199014
 20
-134.8430966329562
 30
0.0
 10
86.46036307199014
 20
-134.9161569107156
 30
0.0
 10
86.51959445936792
 20
-134.9753882995898
 30
0.0
 10
86.59265473528177
 20
-134.9753882995898
 30
0.0
 10
86.59265473528177
 20
-134.9753882995898
 30
0.0
 10
98.44704609951772
 20
-134.9753882995898
 30
0.0
 10
98.44704609951772
 20
-134.9753882995898
 30
0.0
 10
98.38262887893892
 20
-135.3908899661524
 30
0.0
 10
98.02537083249777
 20
-135.71128274385
 30
0.0
 10
97.59198334355442
 20
-135.71128274385
 30
0.0
 10
97.59198334355442
 20
-135.71128274385
 30
0.0
 10
86.59265473528177
 20
-135.71128274385
 30
0.0
 10
86.59265473528177
 20
-135.71128274385
 30
0.0
 10
86.11393530305048
 20
-135.71128274385
 30
0.0
 10
85.72446864631993
 20
-135.3219571883917
 30
0.0
 10
85.72446864631993
 20
-134.8430966329562
 30
0.0
 10
85.72446864631993
 20
-134.8430966329562
 30
0.0
 10
85.72446864631993
 20
-123.8429210801504
 30
0.0
 10
85.72446864631993
 20
-123.8429210801504
 30
0.0
 10
85.72446864631993
 20
-123.4098510802586
 30
0.0
 10
86.04472030481631
 20
-123.05294580257
 30
0.0
 10
86.46036307199014
 20
-122.9888813581416
 30
0.0
 10
86.46036307199014
 20
-122.9888813581416
 30
0.0
 10
86.46036307199014
 20
-127.3431469126088
 30
0.0
 10
86.46036307199014
 20
-127.3431469126088
 30
0.0
 10
86.46036307199014
 20
-127.4161719125903
 30
0.0
 10
86.51959445936792
 20
-127.4754385792424
 30
0.0
 10
86.59265473528177
 20
-127.4754385792424
 30
0.0
 10
86.59265473528177
 20
-127.4754385792424
 30
0.0
 10
104.4432451132086
 20
-127.4754385792424
 30
0.0
 10
104.4432451132086
 20
-127.4754385792424
 30
0.0
 10
104.3832728925164
 20
-127.7244996902912
 30
0.0
 10
104.1600351204339
 20
-127.9108721902446
 30
0.0
 10
103.8927027518045
 20
-127.9108721902446
 30
0.0
  0
HATCH
  5
42
330
1F
100
AcDbEntity
  8
_U+30EC_U+30A4_U+30E4_U+30FC 1
 62
   253
420
 11711154
100
AcDbHatch
 10
0.0
 20
0.0
 30
0.0
210
0.0
220
0.0
230
1.0
  2
SOLID
 70
     1
 71
     0
 91
        1
 92
        1
 93
        1
 72
     4
 94
        3
 73
     0
 74
     1
 95
       65
 96
       61
 40
0.0
 40
0.0
 40
0.0
 40
0.0
 40
1.0
 40
1.0
 40
1.0
 40
2.0
 40
2.0
 40
2.0
 40
3.0
 40
3.0
 40
3.0
 40
4.0
 40
4.0
 40
4.0
 40
5.0
 40
5.0
 40
5.0
 40
6.0
 40
6.0
 40
6.0
 40
7.0
 40
7.0
 40
7.0
 40
8.0
 40
8.0
 40
8.0
 40
9.0
 40
9.0
 40
9.0
 40
10.0
 40
10.0
 40
10.0
 40
11.0
 40
11.0
 40
11.0
 40
12.0
 40
12.0
 40
12.0
 40
13.0
 40
13.0
 40
13.0
 40
14.0
 40
14.0
 40
14.0
 40
15.0
 40
15.0
 40
15.0
 40
16.0
 40
16.0
 40
16.0
 40
17.0
 40
17.0
 40
17.0
 40
18.0
 40
18.0
 40
18.0
 40
19.0
 40
19.0
 40
19.0
 40
20.0
 40
20.0
 40
20.0
 40
20.0
 10
103.8927027518045
 20
-127.9108721902446
 10
103.8927027518045
 20
-127.9108721902446
 10
99.11196163810988
 20
-127.9108721902446
 10
99.11196163810988
 20
-127.9108721902446
 10
99.1095274715053
 20
-127.9108721902446
 10
99.10712858267762
 20
-127.9122480235775
 10
99.10472969384993
 20
-127.9124244124664
 10
99.09576913852297
 20
-127.912953579133
 10
99.08716386411724
 20
-127.915352468021
 10
99.07820080563785
 20
-127.9177866346872
 10
99.06991052807157
 20
-127.9200091346867
 10
99.06130275051339
 20
-127.9220905235751
 10
99.05340052849277
 20
-127.9260416346852
 10
99.05131913965698
 20
-127.9272410791292
 10
99.04856747306052
 20
-127.9272410791292
 10
99.04581580646406
 20
-127.9286169124624
 10
99.04581580646406
 20
-127.9286169124624
 10
98.55729164202735
 20
-128.2105921901695
 10
98.55729164202735
 20
-128.2105921901695
 10
98.55729164202735
 20
-128.2105921901695
 10
86.59265473528177
 20
-128.2105921901695
 10
86.59265473528177
 20
-128.2105921901695
 10
86.51959445936792
 20
-128.2105921901695
 10
86.46036307199014
 20
-128.2698588568213
 10
86.46036307199014
 20
-128.3428838568031
 10
86.46036307199014
 20
-128.3428838568031
 10
86.46036307199014
 20
-134.8430966329562
 10
86.46036307199014
 20
-134.8430966329562
 10
86.46036307199014
 20
-134.9161569107156
 10
86.51959445936792
 20
-134.9753882995898
 10
86.59265473528177
 20
-134.9753882995898
 10
86.59265473528177
 20
-134.9753882995898
 10
98.44704609951772
 20
-134.9753882995898
 10
98.44704609951772
 20
-134.9753882995898
 10
98.38262887893892
 20
-135.3908899661524
 10
98.02537083249777
 20
-135.71128274385
 10
97.59198334355442
 20
-135.71128274385
 10
97.59198334355442
 20
-135.71128274385
 10
86.59265473528177
 20
-135.71128274385
 10
86.59265473528177
 20
-135.71128274385
 10
86.11393530305048
 20
-135.71128274385
 10
85.72446864631993
 20
-135.3219571883917
 10
85.72446864631993
 20
-134.8430966329562
 10
85.72446864631993
 20
-134.8430966329562
 10
85.72446864631993
 20
-123.8429210801504
 10
85.72446864631993
 20
-123.8429210801504
 10
85.72446864631993
 20
-123.4098510802586
 10
86.04472030481631
 20
-123.05294580257
 10
86.46036307199014
 20
-122.9888813581416
 10
86.46036307199014
 20
-122.9888813581416
 10
86.46036307199014
 20
-127.3431469126088
 10
86.46036307199014
 20
-127.3431469126088
 10
86.46036307199014
 20
-127.4161719125903
 10
86.51959445936792
 20
-127.4754385792424
 10
86.59265473528177
 20
-127.4754385792424
 10
86.59265473528177
 20
-127.4754385792424
 10
104.4432451132086
 20
-127.4754385792424
 10
104.4432451132086
 20
-127.4754385792424
 10
104.3832728925164
 20
-127.7244996902912
 10
104.1600351204339
 20
-127.9108721902446
 10
103.8927027518045
 20
-127.9108721902446
 97
        0
 97
        0
 75
     2
 76
     1
 98
        0
  0
POLYLINE
  5
43
330
1F
100
AcDbEntity
  8
_U+30EC_U+30A4_U+30E4_U+30FC 1
 62
     7
420
 16777215
370
    25
100
AcDb2dPolyline
 66
     1
 10
0.0
 20
0.0
 30
0.0
  0
VERTEX
  5
44
330
43
100
AcDbEntity
  8
_U+30EC_U+30A4_U+30E4_U+30FC 1
 62
     7
420
 16777215
370
    25
100
AcDbVertex
100
AcDb2dVertex
 10
86.59265473528177
 20
-134.8430966329562
 30
0.0
  0
VERTEX
  5
45
330
43
100
AcDbEntity
  8
_U+30EC_U+30A4_U+30E4_U+30FC 1
 62
     7
420
 16777215
370
    25
100
AcDbVertex
100
AcDb2dVertex
 10
98.592425818031
 20
-134.8430966329562
 30
0.0
  0
SEQEND
  5
46
330
43
100
AcDbEntity
  8
_U+30EC_U+30A4_U+30E4_U+30FC 1
 62
     7
420
 16777215
370
    25
  0
POLYLINE
  5
47
330
1F
100
AcDbEntity
  8
_U+30EC_U+30A4_U+30E4_U+30FC 1
 62
     7
420
 16777215
370
    25
100
AcDb2dPolyline
 66
     1
 10
0.0
 20
0.0
 30
0.0
  0
VERTEX
  5
48
330
47
100
AcDbEntity
  8
_U+30EC_U+30A4_U+30E4_U+30FC 1
 62
     7
420
 16777215
370
    25
100
AcDbVertex
100
AcDb2dVertex
 10
86.59265473528177
 20
-128.3428838568031
 30
0.0
  0
VERTEX
  5
49
330
47
100
AcDbEntity
  8
_U+30EC_U+30A4_U+30E4_U+30FC 1
 62
     7
420
 16777215
370
    25
100
AcDbVertex
100
AcDb2dVertex
 10
98.592425818031
 20
-128.3428838568031
 30
0.0
  0
SEQEND
  5
4A
330
47
100
AcDbEntity
  8
_U+30EC_U+30A4_U+30E4_U+30FC 1
 62
     7
420
 16777215
370
    25
  0
POLYLINE
  5
4B
330
1F
100
AcDbEntity
  8
_U+30EC_U+30A4_U+30E4_U+30FC 1
 62
     7
420
 16777215
370
    25
100
AcDb2dPolyline
 66
     1
 10
0.0
 20
0.0
 30
0.0
  0
VERTEX
  5
4C
330
4B
100
AcDbEntity
  8
_U+30EC_U+30A4_U+30E4_U+30FC 1
 62
     7
420
 16777215
370
    25
100
AcDbVertex
100
AcDb2dVertex
 10
86.59265473528177
 20
-135.8435744104836
 30
0.0
  0
VERTEX
  5
4D
330
4B
100
AcDbEntity
  8
_U+30EC_U+30A4_U+30E4_U+30FC 1
 62
     7
420
 16777215
370
    25
100
AcDbVertex
100
AcDb2dVertex
 10
97.59198334355442
 20
-135.8435744104836
 30
0.0
  0
SEQEND
  5
4E
330
4B
100
AcDbEntity
  8
_U+30EC_U+30A4_U+30E4_U+30FC 1
 62
     7
420
 16777215
370
    25
  0
POLYLINE
  5
4F
330
1F
100
AcDbEntity
  8
_U+30EC_U+30A4_U+30E4_U+30FC 1
 62
     7
420
 16777215
370
    25
100
AcDb2dPolyline
 66
     1
 10
0.0
 20
0.0
 30
0.0
  0
VERTEX
  5
50
330
4F
100
AcDbEntity
  8
_U+30EC_U+30A4_U+30E4_U+30FC 1
 62
     7
420
 16777215
370
    25
100
AcDbVertex
100
AcDb2dVertex
 10
85.59217698302831
 20
-123.8429210801504
 30
0.0
  0
VERTEX
  5
51
330
4F
100
AcDbEntity
  8
_U+30EC_U+30A4_U+30E4_U+30FC 1
 62
     7
420
 16777215
370
    25
100
AcDbVertex
100
AcDb2dVertex
 10
85.59217698302831
 20
-134.8430966329562
 30
0.0
  0
SEQEND
  5
52
330
4F
100
AcDbEntity
  8
_U+30EC_U+30A4_U+30E4_U+30FC 1
 62
     7
420
 16777215
370
    25
  0
POLYLINE
  5
53
330
1F
100
AcDbEntity
  8
_U+30EC_U+30A4_U+30E4_U+30FC 1
 62
     7
420
 16777215
370
    25
100
AcDb2dPolyline
 66
     1
 10
0.0
 20
0.0
 30
0.0
  0
VERTEX
  5
54
330
53
100
AcDbEntity
  8
_U+30EC_U+30A4_U+30E4_U+30FC 1
 62
     7
420
 16777215
370
    25
100
AcDbVertex
100
AcDb2dVertex
 10
86.59265473528177
 20
-122.8431488581782
 30
0.0
  0
VERTEX
  5
55
330
53
100
AcDbEntity
  8
_U+30EC_U+30A4_U+30E4_U+30FC 1
 62
     7
420
 16777215
370
    25
100
AcDbVertex
100
AcDb2dVertex
 10
86.59265473528177
 20
-127.3431469126088
 30
0.0
  0
SEQEND
  5
56
330
53
100
AcDbEntity
  8
_U+30EC_U+30A4_U+30E4_U+30FC 1
 62
     7
420
 16777215
370
    25
  0
POLYLINE
  5
57
330
1F
100
AcDbEntity
  8
_U+30EC_U+30A4_U+30E4_U+30FC 1
 62
     7
420
 16777215
370
    25
100
AcDb2dPolyline
 66
     1
 10
0.0
 20
0.0
 30
0.0
  0
VERTEX
  5
58
330
57
100
AcDbEntity
  8
_U+30EC_U+30A4_U+30E4_U+30FC 1
 62
     7
420
 16777215
370
    25
100
AcDbVertex
100
AcDb2dVertex
 10
86.59265473528177
 20
-127.3431469126088
 30
0.0
  0
VERTEX
  5
59
330
57
100
AcDbEntity
  8
_U+30EC_U+30A4_U+30E4_U+30FC 1
 62
     7
420
 16777215
370
    25
100
AcDbVertex
100
AcDb2dVertex
 10
104.5927523316166
 20
-127.3431469126088
 30
0.0
  0
SEQEND
  5
5A
330
57
100
AcDbEntity
  8
_U+30EC_U+30A4_U+30E4_U+30FC 1
 62
     7
420
 16777215
370
    25
  0
POLYLINE
  5
5B
330
1F
100
AcDbEntity
  8
_U+30EC_U+30A4_U+30E4_U+30FC 1
 62
     7
420
 16777215
370
    25
100
AcDb2dPolyline
 66
     1
 10
0.0
 20
0.0
 30
0.0
  0
VERTEX
  5
5C
330
5B
100
AcDbEntity
  8
_U+30EC_U+30A4_U+30E4_U+30FC 1
 62
     7
420
 16777215
370
    25
100
AcDbVertex
100
AcDb2dVertex
 10
86.59265473528177
 20
-128.3428838568031
 30
0.0
  0
VERTEX
  5
5D
330
5B
100
AcDbEntity
  8
_U+30EC_U+30A4_U+30E4_U+30FC 1
 62
     7
420
 16777215
370
    25
100
AcDbVertex
100
AcDb2dVertex
 10
86.59265473528177
 20
-134.8430966329562
 30
0.0
  0
SEQEND
  5
5E
330
5B
100
AcDbEntity
  8
_U+30EC_U+30A4_U+30E4_U+30FC 1
 62
     7
420
 16777215
370
    25
  0
POLYLINE
  5
5F
330
1F
100
AcDbEntity
  8
_U+30EC_U+30A4_U+30E4_U+30FC 1
 62
     7
420
 16777215
370
    25
100
AcDb2dPolyline
 66
     1
 10
0.0
 20
0.0
 30
0.0
  0
VERTEX
  5
60
330
5F
100
AcDbEntity
  8
_U+30EC_U+30A4_U+30E4_U+30FC 1
 62
     7
420
 16777215
370
    25
100
AcDbVertex
100
AcDb2dVertex
 10
99.11196163810988
 20
-128.0431638568782
 30
0.0
  0
VERTEX
  5
61
330
5F
100
AcDbEntity
  8
_U+30EC_U+30A4_U+30E4_U+30FC 1
 62
     7
420
 16777215
370
    25
100
AcDbVertex
100
AcDb2dVertex
 10
103.8927027518045
 20
-128.0431638568782
 30
0.0
  0
SEQEND
  5
62
330
5F
100
AcDbEntity
  8
_U+30EC_U+30A4_U+30E4_U+30FC 1
 62
     7
420
 16777215
370
    25
  0
POLYLINE
  5
63
330
1F
100
AcDbEntity
  8
_U+30EC_U+30A4_U+30E4_U+30FC 1
 62
     7
420
 16777215
370
    25
100
AcDb2dPolyline
 66
     1
 10
0.0
 20
0.0
 30
0.0
  0
VERTEX
  5
64
330
63
100
AcDbEntity
  8
_U+30EC_U+30A4_U+30E4_U+30FC 1
 62
     7
420
 16777215
370
    25
100
AcDbVertex
100
AcDb2dVertex
 10
98.592425818031
 20
-128.3428838568031
 30
0.0
  0
VERTEX
  5
65
330
63
100
AcDbEntity
  8
_U+30EC_U+30A4_U+30E4_U+30FC 1
 62
     7
420
 16777215
370
    25
100
AcDbVertex
100
AcDb2dVertex
 10
99.11196163810988
 20
-128.0431638568782
 30
0.0
  0
SEQEND
  5
66
330
63
100
AcDbEntity
  8
_U+30EC_U+30A4_U+30E4_U+30FC 1
 62
     7
420
 16777215
370
    25
  0
POLYLINE
  5
67
330
1F
100
AcDbEntity
  8
_U+30EC_U+30A4_U+30E4_U+30FC 1
 62
     7
420
 16777215
370
     9
100
AcDb2dPolyline
 66
     1
 10
0.0
 20
0.0
 30
0.0
  0
VERTEX
  5
68
330
67
100
AcDbEntity
  8
_U+30EC_U+30A4_U+30E4_U+30FC 1
 62
     7
420
 16777215
370
     9
100
AcDbVertex
100
AcDb2dVertex
 10
85.88501780889065
 20
-135.5500280216682
 30
0.0
  0
VERTEX
  5
69
330
67
100
AcDbEntity
  8
_U+30EC_U+30A4_U+30E4_U+30FC 1
 62
     7
420
 16777215
370
     9
100
AcDbVertex
100
AcDb2dVertex
 10
81.592417918404
 20
-139.8433335761505
 30
0.0
  0
SEQEND
  5
6A
330
67
100
AcDbEntity
  8
_U+30EC_U+30A4_U+30E4_U+30FC 1
 62
     7
420
 16777215
370
     9
  0
POLYLINE
  5
6B
330
1F
100
AcDbEntity
  8
_U+30EC_U+30A4_U+30E4_U+30FC 1
 62
     7
420
 16777215
370
     9
100
AcDb2dPolyline
 66
     1
 10
0.0
 20
0.0
 30
0.0
  0
VERTEX
  5
6C
330
6B
100
AcDbEntity
  8
_U+30EC_U+30A4_U+30E4_U+30FC 1
 62
     7
420
 16777215
370
     9
100
AcDbVertex
100
AcDb2dVertex
 10
77.38046302585992
 20
-139.8433335761505
 30
0.0
  0
VERTEX
  5
6D
330
6B
100
AcDbEntity
  8
_U+30EC_U+30A4_U+30E4_U+30FC 1
 62
     7
420
 16777215
370
     9
100
AcDbVertex
100
AcDb2dVertex
 10
81.592417918404
 20
-139.8433335761505
 30
0.0
  0
SEQEND
  5
6E
330
6B
100
AcDbEntity
  8
_U+30EC_U+30A4_U+30E4_U+30FC 1
 62
     7
420
 16777215
370
     9
  0
POLYLINE
  5
6F
330
1F
100
AcDbEntity
  8
_U+30EC_U+30A4_U+30E4_U+30FC 1
 62
     7
420
 16777215
370
     9
100
AcDb2dPolyline
 66
     1
 10
0.0
 20
0.0
 30
0.0
  0
VERTEX
  5
70
330
6F
100
AcDbEntity
  8
_U+30EC_U+30A4_U+30E4_U+30FC 1
 62
     7
420
 16777215
370
     9
100
AcDbVertex
100
AcDb2dVertex
 10
85.88501780889065
 20
-135.5500280216682
 30
0.0
  0
VERTEX
  5
71
330
6F
100
AcDbEntity
  8
_U+30EC_U+30A4_U+30E4_U+30FC 1
 62
     7
420
 16777215
370
     9
100
AcDbVertex
100
AcDb2dVertex
 10
84.58623331218675
 20
-136.3003863548141
 30
0.0
  0
SEQEND
  5
72
330
6F
100
AcDbEntity
  8
_U+30EC_U+30A4_U+30E4_U+30FC 1
 62
     7
420
 16777215
370
     9
  0
POLYLINE
  5
73
330
1F
100
AcDbEntity
  8
_U+30EC_U+30A4_U+30E4_U+30FC 1
 62
     7
420
 16777215
370
     9
100
AcDb2dPolyline
 66
     1
 10
0.0
 20
0.0
 30
0.0
  0
VERTEX
  5
74
330
73
100
AcDbEntity
  8
_U+30EC_U+30A4_U+30E4_U+30FC 1
 62
     7
420
 16777215
370
     9
100
AcDbVertex
100
AcDb2dVertex
 10
85.88501780889065
 20
-135.5500280216682
 30
0.0
  0
VERTEX
  5
75
330
73
100
AcDbEntity
  8
_U+30EC_U+30A4_U+30E4_U+30FC 1
 62
     7
420
 16777215
370
     9
100
AcDbVertex
100
AcDb2dVertex
 10
85.13536505023811
 20
-136.8495202435657
 30
0.0
  0
SEQEND
  5
76
330
73
100
AcDbEntity
  8
_U+30EC_U+30A4_U+30E4_U+30FC 1
 62
     7
420
 16777215
370
     9
  0
SPLINE
  5
77
330
1F
100
AcDbEntity
  8
_U+30EC_U+30A4_U+30E4_U+30FC 1
 62
     7
420
 16777215
370
    25
100
AcDbSpline
210
0.0
220
0.0
230
1.0
 70
     8
 71
     3
 72
     8
 73
     4
 74
     0
 42
0.0000000001
 43
0.0000000001
 12
1.0
 22
0.0
 32
0.0
 13
1.0
 23
0.0
 33
0.0
 40
0.0
 40
0.0
 40
0.0
 40
0.0
 40
1.0
 40
1.0
 40
1.0
 40
1.0
 10
85.59217698302831
 20
-134.8430966329562
 30
0.0
 10
85.59217698302831
 20
-135.395687743929
 30
0.0
 10
86.04006363826844
 20
-135.8435744104836
 30
0.0
 10
86.59265473528177
 20
-135.8435744104836
 30
0.0
  0
SPLINE
  5
78
330
1F
100
AcDbEntity
  8
_U+30EC_U+30A4_U+30E4_U+30FC 1
 62
     7
420
 16777215
370
    25
100
AcDbSpline
210
0.0
220
0.0
230
1.0
 70
     8
 71
     3
 72
     8
 73
     4
 74
     0
 42
0.0000000001
 43
0.0000000001
 12
1.0
 22
0.0
 32
0.0
 13
1.0
 23
0.0
 33
0.0
 40
0.0
 40
0.0
 40
0.0
 40
0.0
 40
1.0
 40
1.0
 40
1.0
 40
1.0
 10
86.59265473528177
 20
-122.8431488581782
 30
0.0
 10
86.04006363826844
 20
-122.8431488581782
 30
0.0
 10
85.59217698302831
 20
-123.2910002469552
 30
0.0
 10
85.59217698302831
 20
-123.8429210801504
 30
0.0
  0
SPLINE
  5
79
330
1F
100
AcDbEntity
  8
_U+30EC_U+30A4_U+30E4_U+30FC 1
 62
     7
420
 16777215
370
    25
100
AcDbSpline
210
0.0
220
0.0
230
1.0
 70
     8
 71
     3
 72
     8
 73
     4
 74
     0
 42
0.0000000001
 43
0.0000000001
 12
1.0
 22
0.0
 32
0.0
 13
1.0
 23
0.0
 33
0.0
 40
0.0
 40
0.0
 40
0.0
 40
0.0
 40
1.0
 40
1.0
 40
1.0
 40
1.0
 10
97.59198334355442
 20
-135.8435744104836
 30
0.0
 10
98.14457444056775
 20
-135.8435744104836
 30
0.0
 10
98.592425818031
 20
-135.395687743929
 30
0.0
 10
98.592425818031
 20
-134.8430966329562
 30
0.0
  0
SPLINE
  5
7A
330
1F
100
AcDbEntity
  8
_U+30EC_U+30A4_U+30E4_U+30FC 1
 62
     7
420
 16777215
370
    25
100
AcDbSpline
210
0.0
220
0.0
230
1.0
 70
     8
 71
     3
 72
     8
 73
     4
 74
     0
 42
0.0000000001
 43
0.0000000001
 12
1.0
 22
0.0
 32
0.0
 13
1.0
 23
0.0
 33
0.0
 40
0.0
 40
0.0
 40
0.0
 40
0.0
 40
1.0
 40
1.0
 40
1.0
 40
1.0
 10
103.8927027518045
 20
-128.0431638568782
 30
0.0
 10
104.2792387285039
 20
-128.0431638568782
 30
0.0
 10
104.5927523316166
 20
-127.7296855236232
 30
0.0
 10
104.5927523316166
 20
-127.3431469126088
 30
0.0
  0
SPLINE
  5
7B
330
1F
100
AcDbEntity
  8
_U+30EC_U+30A4_U+30E4_U+30FC 1
 62
     7
420
 16777215
370
     9
100
AcDbSpline
210
0.0
220
0.0
230
1.0
 70
    11
 71
     3
 72
    17
 73
    13
 74
     0
 42
0.0000000001
 43
0.0000000001
 12
1.0
 22
0.0
 32
0.0
 13
1.0
 23
0.0
 33
0.0
 40
0.0
 40
0.0
 40
0.0
 40
0.0
 40
1.0
 40
1.0
 40
1.0
 40
2.0
 40
2.0
 40
2.0
 40
3.0
 40
3.0
 40
3.0
 40
4.0
 40
4.0
 40
4.0
 40
4.0
 10
104.6926589957344
 20
-118.8433896925113
 30
0.0
 10
104.6926589957344
 20
-118.7882858036364
 30
0.0
 10
104.6478562190997
 20
-118.7434830258696
 30
0.0
 10
104.5927523316166
 20
-118.7434830258696
 30
0.0
 10
104.5376131663566
 20
-118.7434830258696
 30
0.0
 10
104.4928456674987
 20
-118.7882858036364
 30
0.0
 10
104.4928456674987
 20
-118.8433896925113
 30
0.0
 10
104.4928456674987
 20
-118.8985288591644
 30
0.0
 10
104.5376131663566
 20
-118.9432963591529
 30
0.0
 10
104.5927523316166
 20
-118.9432963591529
 30
0.0
 10
104.6478562190997
 20
-118.9432963591529
 30
0.0
 10
104.6926589957344
 20
-118.8985288591644
 30
0.0
 10
104.6926589957344
 20
-118.8433896925113
 30
0.0
  0
SPLINE
  5
7C
330
1F
100
AcDbEntity
  8
_U+30EC_U+30A4_U+30E4_U+30FC 1
 62
     7
420
 16777215
370
     9
100
AcDbSpline
210
0.0
220
0.0
230
1.0
 70
    11
 71
     3
 72
    17
 73
    13
 74
     0
 42
0.0000000001
 43
0.0000000001
 12
1.0
 22
0.0
 32
0.0
 13
1.0
 23
0.0
 33
0.0
 40
0.0
 40
0.0
 40
0.0
 40
0.0
 40
1.0
 40
1.0
 40
1.0
 40
2.0
 40
2.0
 40
2.0
 40
3.0
 40
3.0
 40
3.0
 40
4.0
 40
4.0
 40
4.0
 40
4.0
 10
86.79246806351745
 20
-118.8433896925113
 30
0.0
 10
86.79246806351745
 20
-118.7882858036364
 30
0.0
 10
86.74766528688268
 20
-118.7434830258696
 30
0.0
 10
86.69256139939961
 20
-118.7434830258696
 30
0.0
 10
86.63742223413966
 20
-118.7434830258696
 30
0.0
 10
86.59265473528177
 20
-118.7882858036364
 30
0.0
 10
86.59265473528177
 20
-118.8433896925113
 30
0.0
 10
86.59265473528177
 20
-118.8985288591644
 30
0.0
 10
86.63742223413966
 20
-118.9432963591529
 30
0.0
 10
86.69256139939961
 20
-118.9432963591529
 30
0.0
 10
86.74766528688268
 20
-118.9432963591529
 30
0.0
 10
86.79246806351745
 20
-118.8985288591644
 30
0.0
 10
86.79246806351745
 20
-118.8433896925113
 30
0.0
  0
SPLINE
  5
7D
330
1F
100
AcDbEntity
  8
_U+30EC_U+30A4_U+30E4_U+30FC 1
 62
     7
420
 16777215
370
     9
100
AcDbSpline
210
0.0
220
0.0
230
1.0
 70
    11
 71
     3
 72
    17
 73
    13
 74
     0
 42
0.0000000001
 43
0.0000000001
 12
1.0
 22
0.0
 32
0.0
 13
1.0
 23
0.0
 33
0.0
 40
0.0
 40
0.0
 40
0.0
 40
0.0
 40
1.0
 40
1.0
 40
1.0
 40
2.0
 40
2.0
 40
2.0
 40
3.0
 40
3.0
 40
3.0
 40
4.0
 40
4.0
 40
4.0
 40
4.0
 10
85.69208364714615
 20
-125.3428969131088
 30
0.0
 10
85.69208364714615
 20
-125.2877930242336
 30
0.0
 10
85.64731614828825
 20
-125.2429902464672
 30
0.0
 10
85.59217698302831
 20
-125.2429902464672
 30
0.0
 10
85.53707309554524
 20
-125.2429902464672
 30
0.0
 10
85.49227031891047
 20
-125.2877930242336
 30
0.0
 10
85.49227031891047
 20
-125.3428969131088
 30
0.0
 10
85.49227031891047
 20
-125.3987063575392
 30
0.0
 10
85.53707309554524
 20
-125.443509135306
 30
0.0
 10
85.59217698302831
 20
-125.443509135306
 30
0.0
 10
85.64731614828825
 20
-125.443509135306
 30
0.0
 10
85.69208364714615
 20
-125.3987063575392
 30
0.0
 10
85.69208364714615
 20
-125.3428969131088
 30
0.0
  0
SPLINE
  5
7E
330
1F
100
AcDbEntity
  8
_U+30EC_U+30A4_U+30E4_U+30FC 1
 62
     7
420
 16777215
370
     9
100
AcDbSpline
210
0.0
220
0.0
230
1.0
 70
    11
 71
     3
 72
    17
 73
    13
 74
     0
 42
0.0000000001
 43
0.0000000001
 12
1.0
 22
0.0
 32
0.0
 13
1.0
 23
0.0
 33
0.0
 40
0.0
 40
0.0
 40
0.0
 40
0.0
 40
1.0
 40
1.0
 40
1.0
 40
2.0
 40
2.0
 40
2.0
 40
3.0
 40
3.0
 40
3.0
 40
4.0
 40
4.0
 40
4.0
 40
4.0
 10
86.69256139939961
 20
-125.3428969131088
 30
0.0
 10
86.69256139939961
 20
-125.2877930242336
 30
0.0
 10
86.64775862276484
 20
-125.2429902464672
 30
0.0
 10
86.59265473528177
 20
-125.2429902464672
 30
0.0
 10
86.53684529226115
 20
-125.2429902464672
 30
0.0
 10
86.49204251562638
 20
-125.2877930242336
 30
0.0
 10
86.49204251562638
 20
-125.3428969131088
 30
0.0
 10
86.49204251562638
 20
-125.3987063575392
 30
0.0
 10
86.53684529226115
 20
-125.443509135306
 30
0.0
 10
86.59265473528177
 20
-125.443509135306
 30
0.0
 10
86.64775862276484
 20
-125.443509135306
 30
0.0
 10
86.69256139939961
 20
-125.3987063575392
 30
0.0
 10
86.69256139939961
 20
-125.3428969131088
 30
0.0
  0
SPLINE
  5
7F
330
1F
100
AcDbEntity
  8
_U+30EC_U+30A4_U+30E4_U+30FC 1
 62
     7
420
 16777215
370
     9
100
AcDbSpline
210
0.0
220
0.0
230
1.0
 70
    11
 71
     3
 72
    17
 73
    13
 74
     0
 42
0.0000000001
 43
0.0000000001
 12
1.0
 22
0.0
 32
0.0
 13
1.0
 23
0.0
 33
0.0
 40
0.0
 40
0.0
 40
0.0
 40
0.0
 40
1.0
 40
1.0
 40
1.0
 40
2.0
 40
2.0
 40
2.0
 40
3.0
 40
3.0
 40
3.0
 40
4.0
 40
4.0
 40
4.0
 40
4.0
 10
81.69232458252183
 20
-135.8435744104836
 30
0.0
 10
81.69232458252183
 20
-135.7877649660531
 30
0.0
 10
81.64755708366395
 20
-135.7429621882864
 30
0.0
 10
81.592417918404
 20
-135.7429621882864
 30
0.0
 10
81.53731403092092
 20
-135.7429621882864
 30
0.0
 10
81.49251125428617
 20
-135.7877649660531
 30
0.0
 10
81.49251125428617
 20
-135.8435744104836
 30
0.0
 10
81.49251125428617
 20
-135.8986782993585
 30
0.0
 10
81.53731403092092
 20
-135.9434810771252
 30
0.0
 10
81.592417918404
 20
-135.9434810771252
 30
0.0
 10
81.64755708366395
 20
-135.9434810771252
 30
0.0
 10
81.69232458252183
 20
-135.8986782993585
 30
0.0
 10
81.69232458252183
 20
-135.8435744104836
 30
0.0
  0
SPLINE
  5
80
330
1F
100
AcDbEntity
  8
_U+30EC_U+30A4_U+30E4_U+30FC 1
 62
     7
420
 16777215
370
     9
100
AcDbSpline
210
0.0
220
0.0
230
1.0
 70
    11
 71
     3
 72
    17
 73
    13
 74
     0
 42
0.0000000001
 43
0.0000000001
 12
1.0
 22
0.0
 32
0.0
 13
1.0
 23
0.0
 33
0.0
 40
0.0
 40
0.0
 40
0.0
 40
0.0
 40
1.0
 40
1.0
 40
1.0
 40
2.0
 40
2.0
 40
2.0
 40
3.0
 40
3.0
 40
3.0
 40
4.0
 40
4.0
 40
4.0
 40
4.0
 10
81.69232458252183
 20
-122.8431488581782
 30
0.0
 10
81.69232458252183
 20
-122.7880096915251
 30
0.0
 10
81.64755708366395
 20
-122.7432421915365
 30
0.0
 10
81.592417918404
 20
-122.7432421915365
 30
0.0
 10
81.53731403092092
 20
-122.7432421915365
 30
0.0
 10
81.49251125428617
 20
-122.7880096915251
 30
0.0
 10
81.49251125428617
 20
-122.8431488581782
 30
0.0
 10
81.49251125428617
 20
-122.8982527470531
 30
0.0
 10
81.53731403092092
 20
-122.9430555248198
 30
0.0
 10
81.592417918404
 20
-122.9430555248198
 30
0.0
 10
81.64755708366395
 20
-122.9430555248198
 30
0.0
 10
81.69232458252183
 20
-122.8982527470531
 30
0.0
 10
81.69232458252183
 20
-122.8431488581782
 30
0.0
  0
SPLINE
  5
81
330
1F
100
AcDbEntity
  8
_U+30EC_U+30A4_U+30E4_U+30FC 1
 62
     7
420
 16777215
370
     9
100
AcDbSpline
210
0.0
220
0.0
230
1.0
 70
    11
 71
     3
 72
    17
 73
    13
 74
     0
 42
0.0000000001
 43
0.0000000001
 12
1.0
 22
0.0
 32
0.0
 13
1.0
 23
0.0
 33
0.0
 40
0.0
 40
0.0
 40
0.0
 40
0.0
 40
1.0
 40
1.0
 40
1.0
 40
2.0
 40
2.0
 40
2.0
 40
3.0
 40
3.0
 40
3.0
 40
4.0
 40
4.0
 40
4.0
 40
4.0
 10
98.69233248214883
 20
-139.8433335761505
 30
0.0
 10
98.69233248214883
 20
-139.7881944094974
 30
0.0
 10
98.64756498329095
 20
-139.7433916317307
 30
0.0
 10
98.592425818031
 20
-139.7433916317307
 30
0.0
 10
98.53732193054793
 20
-139.7433916317307
 30
0.0
 10
98.49251915391316
 20
-139.7881944094974
 30
0.0
 10
98.49251915391316
 20
-139.8433335761505
 30
0.0
 10
98.49251915391316
 20
-139.8984374650254
 30
0.0
 10
98.53732193054793
 20
-139.9432402427921
 30
0.0
 10
98.592425818031
 20
-139.9432402427921
 30
0.0
 10
98.64756498329095
 20
-139.9432402427921
 30
0.0
 10
98.69233248214883
 20
-139.8984374650254
 30
0.0
 10
98.69233248214883
 20
-139.8433335761505
 30
0.0
  0
SPLINE
  5
82
330
1F
100
AcDbEntity
  8
_U+30EC_U+30A4_U+30E4_U+30FC 1
 62
     7
420
 16777215
370
     9
100
AcDbSpline
210
0.0
220
0.0
230
1.0
 70
    11
 71
     3
 72
    17
 73
    13
 74
     0
 42
0.0000000001
 43
0.0000000001
 12
1.0
 22
0.0
 32
0.0
 13
1.0
 23
0.0
 33
0.0
 40
0.0
 40
0.0
 40
0.0
 40
0.0
 40
1.0
 40
1.0
 40
1.0
 40
2.0
 40
2.0
 40
2.0
 40
3.0
 40
3.0
 40
3.0
 40
4.0
 40
4.0
 40
4.0
 40
4.0
 10
85.69208364714615
 20
-139.8433335761505
 30
0.0
 10
85.69208364714615
 20
-139.7881944094974
 30
0.0
 10
85.64731614828825
 20
-139.7433916317307
 30
0.0
 10
85.59217698302831
 20
-139.7433916317307
 30
0.0
 10
85.53707309554524
 20
-139.7433916317307
 30
0.0
 10
85.49227031891047
 20
-139.7881944094974
 30
0.0
 10
85.49227031891047
 20
-139.8433335761505
 30
0.0
 10
85.49227031891047
 20
-139.8984374650254
 30
0.0
 10
85.53707309554524
 20
-139.9432402427921
 30
0.0
 10
85.59217698302831
 20
-139.9432402427921
 30
0.0
 10
85.64731614828825
 20
-139.9432402427921
 30
0.0
 10
85.69208364714615
 20
-139.8984374650254
 30
0.0
 10
85.69208364714615
 20
-139.8433335761505
 30
0.0
  0
SPLINE
  5
83
330
1F
100
AcDbEntity
  8
_U+30EC_U+30A4_U+30E4_U+30FC 1
 62
     7
420
 16777215
370
     9
100
AcDbSpline
210
0.0
220
0.0
230
1.0
 70
    11
 71
     3
 72
    17
 73
    13
 74
     0
 42
0.0000000001
 43
0.0000000001
 12
1.0
 22
0.0
 32
0.0
 13
1.0
 23
0.0
 33
0.0
 40
0.0
 40
0.0
 40
0.0
 40
0.0
 40
1.0
 40
1.0
 40
1.0
 40
2.0
 40
2.0
 40
2.0
 40
3.0
 40
3.0
 40
3.0
 40
4.0
 40
4.0
 40
4.0
 40
4.0
 10
102.6924443245419
 20
-128.3428838568031
 30
0.0
 10
102.6924443245419
 20
-128.2877799679282
 30
0.0
 10
102.6476415479072
 20
-128.2429771901615
 30
0.0
 10
102.5925376604241
 20
-128.2429771901615
 30
0.0
 10
102.5373984951641
 20
-128.2429771901615
 30
0.0
 10
102.4926309963062
 20
-128.2877799679282
 30
0.0
 10
102.4926309963062
 20
-128.3428838568031
 30
0.0
 10
102.4926309963062
 20
-128.3986933012336
 30
0.0
 10
102.5373984951641
 20
-128.4434960790003
 30
0.0
 10
102.5925376604241
 20
-128.4434960790003
 30
0.0
 10
102.6476415479072
 20
-128.4434960790003
 30
0.0
 10
102.6924443245419
 20
-128.3986933012336
 30
0.0
 10
102.6924443245419
 20
-128.3428838568031
 30
0.0
  0
SPLINE
  5
84
330
1F
100
AcDbEntity
  8
_U+30EC_U+30A4_U+30E4_U+30FC 1
 62
     7
420
 16777215
370
     9
100
AcDbSpline
210
0.0
220
0.0
230
1.0
 70
    11
 71
     3
 72
    17
 73
    13
 74
     0
 42
0.0000000001
 43
0.0000000001
 12
1.0
 22
0.0
 32
0.0
 13
1.0
 23
0.0
 33
0.0
 40
0.0
 40
0.0
 40
0.0
 40
0.0
 40
1.0
 40
1.0
 40
1.0
 40
2.0
 40
2.0
 40
2.0
 40
3.0
 40
3.0
 40
3.0
 40
4.0
 40
4.0
 40
4.0
 40
4.0
 10
102.6924443245419
 20
-134.8430966329562
 30
0.0
 10
102.6924443245419
 20
-134.7879927440806
 30
0.0
 10
102.6476415479072
 20
-134.7431899663139
 30
0.0
 10
102.5925376604241
 20
-134.7431899663139
 30
0.0
 10
102.5373984951641
 20
-134.7431899663139
 30
0.0
 10
102.4926309963062
 20
-134.7879927440806
 30
0.0
 10
102.4926309963062
 20
-134.8430966329562
 30
0.0
 10
102.4926309963062
 20
-134.8982357996086
 30
0.0
 10
102.5373984951641
 20
-134.9430032995978
 30
0.0
 10
102.5925376604241
 20
-134.9430032995978
 30
0.0
 10
102.6476415479072
 20
-134.9430032995978
 30
0.0
 10
102.6924443245419
 20
-134.8982357996086
 30
0.0
 10
102.6924443245419
 20
-134.8430966329562
 30
0.0
  0
INSERT
  5
86
330
1F
100
AcDbEntity
  8
_U+30EC_U+30A4_U+30E4_U+30FC 1
100
AcDbBlockReference
  2
block 2
 10
0.0
 20
0.0
 30
0.0
  0
POLYLINE
  5
8E
330
1F
100
AcDbEntity
  8
_U+30EC_U+30A4_U+30E4_U+30FC 1
 62
     7
420
 16777215
370
     9
100
AcDb2dPolyline
 66
     1
 10
0.0
 20
0.0
 30
0.0
  0
VERTEX
  5
8F
330
8E
100
AcDbEntity
  8
_U+30EC_U+30A4_U+30E4_U+30FC 1
 62
     7
420
 16777215
370
     9
100
AcDbVertex
100
AcDb2dVertex
 10
86.59265473528177
 20
-118.8433896925113
 30
0.0
  0
VERTEX
  5
90
330
8E
100
AcDbEntity
  8
_U+30EC_U+30A4_U+30E4_U+30FC 1
 62
     7
420
 16777215
370
     9
100
AcDbVertex
100
AcDb2dVertex
 10
104.5927523316166
 20
-118.8433896925113
 30
0.0
  0
SEQEND
  5
91
330
8E
100
AcDbEntity
  8
_U+30EC_U+30A4_U+30E4_U+30FC 1
 62
     7
420
 16777215
370
     9
  0
POLYLINE
  5
92
330
1F
100
AcDbEntity
  8
_U+30EC_U+30A4_U+30E4_U+30FC 1
 62
     7
420
 16777215
370
     9
100
AcDb2dPolyline
 66
     1
 10
0.0
 20
0.0
 30
0.0
  0
VERTEX
  5
93
330
92
100
AcDbEntity
  8
_U+30EC_U+30A4_U+30E4_U+30FC 1
 62
     7
420
 16777215
370
     9
100
AcDbVertex
100
AcDb2dVertex
 10
86.69256139939961
 20
-121.3032033030075
 30
0.0
  0
VERTEX
  5
94
330
92
100
AcDbEntity
  8
_U+30EC_U+30A4_U+30E4_U+30FC 1
 62
     7
420
 16777215
370
     9
100
AcDbVertex
100
AcDb2dVertex
 10
86.69256139939961
 20
-117.8429471927614
 30
0.0
  0
SEQEND
  5
95
330
92
100
AcDbEntity
  8
_U+30EC_U+30A4_U+30E4_U+30FC 1
 62
     7
420
 16777215
370
     9
  0
POLYLINE
  5
96
330
1F
100
AcDbEntity
  8
_U+30EC_U+30A4_U+30E4_U+30FC 1
 62
     7
420
 16777215
370
     9
100
AcDb2dPolyline
 66
     1
 10
0.0
 20
0.0
 30
0.0
  0
VERTEX
  5
97
330
96
100
AcDbEntity
  8
_U+30EC_U+30A4_U+30E4_U+30FC 1
 62
     7
420
 16777215
370
     9
100
AcDbVertex
100
AcDb2dVertex
 10
104.5927523316166
 20
-124.8033938576881
 30
0.0
  0
VERTEX
  5
98
330
96
100
AcDbEntity
  8
_U+30EC_U+30A4_U+30E4_U+30FC 1
 62
     7
420
 16777215
370
     9
100
AcDbVertex
100
AcDb2dVertex
 10
104.5927523316166
 20
-117.8429471927614
 30
0.0
  0
SEQEND
  5
99
330
96
100
AcDbEntity
  8
_U+30EC_U+30A4_U+30E4_U+30FC 1
 62
     7
420
 16777215
370
     9
  0
INSERT
  5
9B
330
1F
100
AcDbEntity
  8
_U+30EC_U+30A4_U+30E4_U+30FC 1
100
AcDbBlockReference
  2
block 3
 10
0.0
 20
0.0
 30
0.0
  0
POLYLINE
  5
A4
330
1F
100
AcDbEntity
  8
_U+30EC_U+30A4_U+30E4_U+30FC 1
 62
     7
420
 16777215
370
     9
100
AcDb2dPolyline
 66
     1
 10
0.0
 20
0.0
 30
0.0
  0
VERTEX
  5
A5
330
A4
100
AcDbEntity
  8
_U+30EC_U+30A4_U+30E4_U+30FC 1
 62
     7
420
 16777215
370
     9
100
AcDbVertex
100
AcDb2dVertex
 10
86.59265473528177
 20
-125.3428969131088
 30
0.0
  0
VERTEX
  5
A6
330
A4
100
AcDbEntity
  8
_U+30EC_U+30A4_U+30E4_U+30FC 1
 62
     7
420
 16777215
370
     9
100
AcDbVertex
100
AcDb2dVertex
 10
90.36296942185368
 20
-125.3428969131088
 30
0.0
  0
SEQEND
  5
A7
330
A4
100
AcDbEntity
  8
_U+30EC_U+30A4_U+30E4_U+30FC 1
 62
     7
420
 16777215
370
     9
  0
POLYLINE
  5
A8
330
1F
100
AcDbEntity
  8
_U+30EC_U+30A4_U+30E4_U+30FC 1
 62
     7
420
 16777215
370
     9
100
AcDb2dPolyline
 66
     1
 10
0.0
 20
0.0
 30
0.0
  0
VERTEX
  5
A9
330
A8
100
AcDbEntity
  8
_U+30EC_U+30A4_U+30E4_U+30FC 1
 62
     7
420
 16777215
370
     9
100
AcDbVertex
100
AcDb2dVertex
 10
84.59244006408927
 20
-125.3428969131088
 30
0.0
  0
VERTEX
  5
AA
330
A8
100
AcDbEntity
  8
_U+30EC_U+30A4_U+30E4_U+30FC 1
 62
     7
420
 16777215
370
     9
100
AcDbVertex
100
AcDb2dVertex
 10
86.59265473528177
 20
-125.3428969131088
 30
0.0
  0
SEQEND
  5
AB
330
A8
100
AcDbEntity
  8
_U+30EC_U+30A4_U+30E4_U+30FC 1
 62
     7
420
 16777215
370
     9
  0
INSERT
  5
AD
330
1F
100
AcDbEntity
  8
_U+30EC_U+30A4_U+30E4_U+30FC 1
100
AcDbBlockReference
  2
block 4
 10
0.0
 20
0.0
 30
0.0
  0
POLYLINE
  5
B2
330
1F
100
AcDbEntity
  8
_U+30EC_U+30A4_U+30E4_U+30FC 1
 62
     7
420
 16777215
370
     9
100
AcDb2dPolyline
 66
     1
 10
0.0
 20
0.0
 30
0.0
  0
VERTEX
  5
B3
330
B2
100
AcDbEntity
  8
_U+30EC_U+30A4_U+30E4_U+30FC 1
 62
     7
420
 16777215
370
     9
100
AcDbVertex
100
AcDb2dVertex
 10
81.592417918404
 20
-135.8435744104836
 30
0.0
  0
VERTEX
  5
B4
330
B2
100
AcDbEntity
  8
_U+30EC_U+30A4_U+30E4_U+30FC 1
 62
     7
420
 16777215
370
     9
100
AcDbVertex
100
AcDb2dVertex
 10
81.592417918404
 20
-122.8431488581782
 30
0.0
  0
SEQEND
  5
B5
330
B2
100
AcDbEntity
  8
_U+30EC_U+30A4_U+30E4_U+30FC 1
 62
     7
420
 16777215
370
     9
  0
POLYLINE
  5
B6
330
1F
100
AcDbEntity
  8
_U+30EC_U+30A4_U+30E4_U+30FC 1
 62
     7
420
 16777215
370
     9
100
AcDb2dPolyline
 66
     1
 10
0.0
 20
0.0
 30
0.0
  0
VERTEX
  5
B7
330
B6
100
AcDbEntity
  8
_U+30EC_U+30A4_U+30E4_U+30FC 1
 62
     7
420
 16777215
370
     9
100
AcDbVertex
100
AcDb2dVertex
 10
84.05223146676003
 20
-135.8435744104836
 30
0.0
  0
VERTEX
  5
B8
330
B6
100
AcDbEntity
  8
_U+30EC_U+30A4_U+30E4_U+30FC 1
 62
     7
420
 16777215
370
     9
100
AcDbVertex
100
AcDb2dVertex
 10
80.59268099946497
 20
-135.8435744104836
 30
0.0
  0
SEQEND
  5
B9
330
B6
100
AcDbEntity
  8
_U+30EC_U+30A4_U+30E4_U+30FC 1
 62
     7
420
 16777215
370
     9
  0
POLYLINE
  5
BA
330
1F
100
AcDbEntity
  8
_U+30EC_U+30A4_U+30E4_U+30FC 1
 62
     7
420
 16777215
370
     9
100
AcDb2dPolyline
 66
     1
 10
0.0
 20
0.0
 30
0.0
  0
VERTEX
  5
BB
330
BA
100
AcDbEntity
  8
_U+30EC_U+30A4_U+30E4_U+30FC 1
 62
     7
420
 16777215
370
     9
100
AcDbVertex
100
AcDb2dVertex
 10
84.05223146676003
 20
-122.8431488581782
 30
0.0
  0
VERTEX
  5
BC
330
BA
100
AcDbEntity
  8
_U+30EC_U+30A4_U+30E4_U+30FC 1
 62
     7
420
 16777215
370
     9
100
AcDbVertex
100
AcDb2dVertex
 10
80.59268099946497
 20
-122.8431488581782
 30
0.0
  0
SEQEND
  5
BD
330
BA
100
AcDbEntity
  8
_U+30EC_U+30A4_U+30E4_U+30FC 1
 62
     7
420
 16777215
370
     9
  0
INSERT
  5
BF
330
1F
100
AcDbEntity
  8
_U+30EC_U+30A4_U+30E4_U+30FC 1
100
AcDbBlockReference
  2
block 5
 10
0.0
 20
0.0
 30
0.0
  0
POLYLINE
  5
C6
330
1F
100
AcDbEntity
  8
_U+30EC_U+30A4_U+30E4_U+30FC 1
 62
     7
420
 16777215
370
     9
100
AcDb2dPolyline
 66
     1
 10
0.0
 20
0.0
 30
0.0
  0
VERTEX
  5
C7
330
C6
100
AcDbEntity
  8
_U+30EC_U+30A4_U+30E4_U+30FC 1
 62
     7
420
 16777215
370
     9
100
AcDbVertex
100
AcDb2dVertex
 10
85.59217698302831
 20
-139.8433335761505
 30
0.0
  0
VERTEX
  5
C8
330
C6
100
AcDbEntity
  8
_U+30EC_U+30A4_U+30E4_U+30FC 1
 62
     7
420
 16777215
370
     9
100
AcDbVertex
100
AcDb2dVertex
 10
98.592425818031
 20
-139.8433335761505
 30
0.0
  0
SEQEND
  5
C9
330
C6
100
AcDbEntity
  8
_U+30EC_U+30A4_U+30E4_U+30FC 1
 62
     7
420
 16777215
370
     9
  0
POLYLINE
  5
CA
330
1F
100
AcDbEntity
  8
_U+30EC_U+30A4_U+30E4_U+30FC 1
 62
     7
420
 16777215
370
     9
100
AcDb2dPolyline
 66
     1
 10
0.0
 20
0.0
 30
0.0
  0
VERTEX
  5
CB
330
CA
100
AcDbEntity
  8
_U+30EC_U+30A4_U+30E4_U+30FC 1
 62
     7
420
 16777215
370
     9
100
AcDbVertex
100
AcDb2dVertex
 10
85.59217698302831
 20
-137.3835199656542
 30
0.0
  0
VERTEX
  5
CC
330
CA
100
AcDbEntity
  8
_U+30EC_U+30A4_U+30E4_U+30FC 1
 62
     7
420
 16777215
370
     9
100
AcDbVertex
100
AcDb2dVertex
 10
85.59217698302831
 20
-140.8430705203449
 30
0.0
  0
SEQEND
  5
CD
330
CA
100
AcDbEntity
  8
_U+30EC_U+30A4_U+30E4_U+30FC 1
 62
     7
420
 16777215
370
     9
  0
POLYLINE
  5
CE
330
1F
100
AcDbEntity
  8
_U+30EC_U+30A4_U+30E4_U+30FC 1
 62
     7
420
 16777215
370
     9
100
AcDb2dPolyline
 66
     1
 10
0.0
 20
0.0
 30
0.0
  0
VERTEX
  5
CF
330
CE
100
AcDbEntity
  8
_U+30EC_U+30A4_U+30E4_U+30FC 1
 62
     7
420
 16777215
370
     9
100
AcDbVertex
100
AcDb2dVertex
 10
98.592425818031
 20
-137.3835199656542
 30
0.0
  0
VERTEX
  5
D0
330
CE
100
AcDbEntity
  8
_U+30EC_U+30A4_U+30E4_U+30FC 1
 62
     7
420
 16777215
370
     9
100
AcDbVertex
100
AcDb2dVertex
 10
98.592425818031
 20
-140.8430705203449
 30
0.0
  0
SEQEND
  5
D1
330
CE
100
AcDbEntity
  8
_U+30EC_U+30A4_U+30E4_U+30FC 1
 62
     7
420
 16777215
370
     9
  0
INSERT
  5
D3
330
1F
100
AcDbEntity
  8
_U+30EC_U+30A4_U+30E4_U+30FC 1
100
AcDbBlockReference
  2
block 6
 10
0.0
 20
0.0
 30
0.0
  0
POLYLINE
  5
DA
330
1F
100
AcDbEntity
  8
_U+30EC_U+30A4_U+30E4_U+30FC 1
 62
     7
420
 16777215
370
     9
100
AcDb2dPolyline
 66
     1
 10
0.0
 20
0.0
 30
0.0
  0
VERTEX
  5
DB
330
DA
100
AcDbEntity
  8
_U+30EC_U+30A4_U+30E4_U+30FC 1
 62
     7
420
 16777215
370
     9
100
AcDbVertex
100
AcDb2dVertex
 10
102.5925376604241
 20
-134.8430966329562
 30
0.0
  0
VERTEX
  5
DC
330
DA
100
AcDbEntity
  8
_U+30EC_U+30A4_U+30E4_U+30FC 1
 62
     7
420
 16777215
370
     9
100
AcDbVertex
100
AcDb2dVertex
 10
102.5925376604241
 20
-128.3428838568031
 30
0.0
  0
SEQEND
  5
DD
330
DA
100
AcDbEntity
  8
_U+30EC_U+30A4_U+30E4_U+30FC 1
 62
     7
420
 16777215
370
     9
  0
POLYLINE
  5
DE
330
1F
100
AcDbEntity
  8
_U+30EC_U+30A4_U+30E4_U+30FC 1
 62
     7
420
 16777215
370
     9
100
AcDb2dPolyline
 66
     1
 10
0.0
 20
0.0
 30
0.0
  0
VERTEX
  5
DF
330
DE
100
AcDbEntity
  8
_U+30EC_U+30A4_U+30E4_U+30FC 1
 62
     7
420
 16777215
370
     9
100
AcDbVertex
100
AcDb2dVertex
 10
101.132496308784
 20
-134.8430966329562
 30
0.0
  0
VERTEX
  5
E0
330
DE
100
AcDbEntity
  8
_U+30EC_U+30A4_U+30E4_U+30FC 1
 62
     7
420
 16777215
370
     9
100
AcDbVertex
100
AcDb2dVertex
 10
103.59230985714
 20
-134.8430966329562
 30
0.0
  0
SEQEND
  5
E1
330
DE
100
AcDbEntity
  8
_U+30EC_U+30A4_U+30E4_U+30FC 1
 62
     7
420
 16777215
370
     9
  0
POLYLINE
  5
E2
330
1F
100
AcDbEntity
  8
_U+30EC_U+30A4_U+30E4_U+30FC 1
 62
     7
420
 16777215
370
     9
100
AcDb2dPolyline
 66
     1
 10
0.0
 20
0.0
 30
0.0
  0
VERTEX
  5
E3
330
E2
100
AcDbEntity
  8
_U+30EC_U+30A4_U+30E4_U+30FC 1
 62
     7
420
 16777215
370
     9
100
AcDbVertex
100
AcDb2dVertex
 10
101.132496308784
 20
-128.3428838568031
 30
0.0
  0
VERTEX
  5
E4
330
E2
100
AcDbEntity
  8
_U+30EC_U+30A4_U+30E4_U+30FC 1
 62
     7
420
 16777215
370
     9
100
AcDbVertex
100
AcDb2dVertex
 10
103.59230985714
 20
-128.3428838568031
 30
0.0
  0
SEQEND
  5
E5
330
E2
100
AcDbEntity
  8
_U+30EC_U+30A4_U+30E4_U+30FC 1
 62
     7
420
 16777215
370
     9
  0
INSERT
  5
E7
330
1F
100
AcDbEntity
  8
_U+30EC_U+30A4_U+30E4_U+30FC 1
100
AcDbBlockReference
  2
block 7
 10
0.0
 20
0.0
 30
0.0
  0
ENDSEC
  0
SECTION
  2
OBJECTS
  0
DICTIONARY
  5
C
330
0
100
AcDbDictionary
281
     1
  3
ACAD_GROUP
350
D
  3
ACAD_LAYOUT
350
1A
  3
ACAD_MATERIAL
350
3B
  3
ACAD_MLEADERSTYLE
350
F8
  3
ACAD_MLINESTYLE
350
17
  3
ACAD_PLOTSETTINGS
350
19
  3
ACAD_PLOTSTYLENAME
350
E
  3
ACAD_TABLESTYLE
350
F7
  3
ACAD_VISUALSTYLE
350
2A
  0
SUN
  5
3F
330
29
100
AcDbSun
 90
        1
290
     0
 63
     7
421
 16777215
 40
1.0
291
     1
 91
  2455826
 92
 54000000
292
     0
 70
     2
 71
   256
280
     1
  0
DICTIONARY
  5
D
102
{ACAD_REACTORS
330
C
102
}
330
C
100
AcDbDictionary
281
     1
  0
DICTIONARY
  5
1A
102
{ACAD_REACTORS
330
C
102
}
330
C
100
AcDbDictionary
281
     1
  3
Layout1
350
1E
  3
Layout2
350
26
  3
Model
350
22
  0
DICTIONARY
  5
3B
102
{ACAD_REACTORS
330
C
102
}
330
C
100
AcDbDictionary
281
     1
  3
ByBlock
350
3D
  3
ByLayer
350
3C
  3
Global
350
3E
  0
DICTIONARY
  5
F8
102
{ACAD_REACTORS
330
C
102
}
330
C
100
AcDbDictionary
281
     1
  0
DICTIONARY
  5
17
102
{ACAD_REACTORS
330
C
102
}
330
C
100
AcDbDictionary
281
     1
  3
Standard
350
18
  0
DICTIONARY
  5
19
102
{ACAD_REACTORS
330
C
102
}
330
C
100
AcDbDictionary
281
     1
  0
ACDBDICTIONARYWDFLT
  5
E
102
{ACAD_REACTORS
330
C
102
}
330
C
100
AcDbDictionary
281
     1
  3
Normal
350
F
100
AcDbDictionaryWithDefault
340
F
  0
DICTIONARY
  5
F7
102
{ACAD_REACTORS
330
C
102
}
330
C
100
AcDbDictionary
281
     1
  0
DICTIONARY
  5
2A
102
{ACAD_REACTORS
330
C
102
}
330
C
100
AcDbDictionary
281
     1
  3
2dWireframe
350
2F
  3
3D Hidden
350
31
  3
3dWireframe
350
30
  3
Basic
350
32
  3
Brighten
350
36
  3
ColorChange
350
3A
  3
Conceptual
350
34
  3
Dim
350
35
  3
Facepattern
350
39
  3
Flat
350
2B
  3
FlatWithEdges
350
2C
  3
Gouraud
350
2D
  3
GouraudWithEdges
350
2E
  3
Linepattern
350
38
  3
Realistic
350
33
  3
Thicken
350
37
  0
LAYOUT
  5
1E
102
{ACAD_REACTORS
330
1A
102
}
330
1A
100
AcDbPlotSettings
  1

  2
none_device
  4

  6

 40
0.0
 41
0.0
 42
0.0
 43
0.0
 44
0.0
 45
0.0
 46
0.0
 47
0.0
 48
0.0
 49
0.0
140
0.0
141
0.0
142
1.0
143
1.0
 70
   688
 72
     0
 73
     0
 74
     5
  7

 75
    16
 76
     0
 77
     2
 78
   300
147
1.0
148
0.0
149
0.0
100
AcDbLayout
  1
Layout1
 70
     1
 71
     1
 10
0.0
 20
0.0
 11
12.0
 21
9.0
 12
0.0
 22
0.0
 32
0.0
 14
1.000000000000000E+20
 24
1.000000000000000E+20
 34
1.000000000000000E+20
 15
-1.000000000000000E+20
 25
-1.000000000000000E+20
 35
-1.000000000000000E+20
146
0.0
 13
0.0
 23
0.0
 33
0.0
 16
1.0
 26
0.0
 36
0.0
 17
0.0
 27
1.0
 37
0.0
 76
     0
330
1B
  0
LAYOUT
  5
26
102
{ACAD_REACTORS
330
1A
102
}
330
1A
100
AcDbPlotSettings
  1

  2
none_device
  4

  6

 40
0.0
 41
0.0
 42
0.0
 43
0.0
 44
0.0
 45
0.0
 46
0.0
 47
0.0
 48
0.0
 49
0.0
140
0.0
141
0.0
142
1.0
143
1.0
 70
   688
 72
     0
 73
     0
 74
     5
  7

 75
    16
 76
     0
 77
     2
 78
   300
147
1.0
148
0.0
149
0.0
100
AcDbLayout
  1
Layout2
 70
     1
 71
     2
 10
0.0
 20
0.0
 11
0.0
 21
0.0
 12
0.0
 22
0.0
 32
0.0
 14
0.0
 24
0.0
 34
0.0
 15
0.0
 25
0.0
 35
0.0
146
0.0
 13
0.0
 23
0.0
 33
0.0
 16
1.0
 26
0.0
 36
0.0
 17
0.0
 27
1.0
 37
0.0
 76
     0
330
23
  0
LAYOUT
  5
22
102
{ACAD_REACTORS
330
1A
102
}
330
1A
100
AcDbPlotSettings
  1

  2
none_device
  4

  6

 40
0.0
 41
0.0
 42
0.0
 43
0.0
 44
0.0
 45
0.0
 46
0.0
 47
0.0
 48
0.0
 49
0.0
140
0.0
141
0.0
142
1.0
143
1.0
 70
  1712
 72
     0
 73
     0
 74
     0
  7

 75
     0
 76
     0
 77
     2
 78
   300
147
1.0
148
0.0
149
0.0
100
AcDbLayout
  1
Model
 70
     1
 71
     0
 10
0.0
 20
0.0
 11
12.0
 21
9.0
 12
0.0
 22
0.0
 32
0.0
 14
1.000000000000000E+20
 24
1.000000000000000E+20
 34
1.000000000000000E+20
 15
-1.000000000000000E+20
 25
-1.000000000000000E+20
 35
-1.000000000000000E+20
146
0.0
 13
0.0
 23
0.0
 33
0.0
 16
1.0
 26
0.0
 36
0.0
 17
0.0
 27
1.0
 37
0.0
 76
     0
330
1F
331
29
  0
MATERIAL
  5
3D
102
{ACAD_REACTORS
330
3B
102
}
330
3B
100
AcDbMaterial
  1
ByBlock
 72
     1
 94
      127
  0
MATERIAL
  5
3C
102
{ACAD_REACTORS
330
3B
102
}
330
3B
100
AcDbMaterial
  1
ByLayer
 72
     1
 94
      127
  0
MATERIAL
  5
3E
102
{ACAD_REACTORS
330
3B
102
}
330
3B
100
AcDbMaterial
  1
Global
 72
     1
 94
      127
  0
MLINESTYLE
  5
18
102
{ACAD_REACTORS
330
17
102
}
330
17
100
AcDbMlineStyle
  2
Standard
 70
     0
  3

 62
   256
 51
90.0
 52
90.0
 71
     2
 49
0.5
 62
   256
  6
BYLAYER
 49
-0.5
 62
   256
  6
BYLAYER
  0
ACDBPLACEHOLDER
  5
F
102
{ACAD_REACTORS
330
E
102
}
330
E
  0
VISUALSTYLE
  5
2F
102
{ACAD_REACTORS
330
2A
102
}
330
2A
100
AcDbVisualStyle
  2
2dWireframe
 70
     4
177
     2
291
     0
 71
     0
176
     1
 72
     2
176
     1
 73
     0
176
     1
 90
        0
176
     1
 40
-0.6
176
     1
 41
-30.0
176
     1
 62
     5
 63
     7
421
 16777215
176
     1
 74
     1
176
     1
 91
        4
176
     1
 64
     7
176
     1
 65
   257
176
     1
 75
     1
176
     1
175
     1
176
     1
 42
1.0
176
     1
 92
        0
176
     1
 66
   257
176
     1
 43
1.0
176
     1
 76
     1
176
     1
 77
     6
176
     1
 78
     2
176
     1
 67
     7
176
     1
 79
     5
176
     1
170
     0
176
     1
171
     0
176
     1
290
     0
176
     1
 93
        1
176
     1
 44
0.0
176
     1
173
     0
176
     1
  0
VISUALSTYLE
  5
31
102
{ACAD_REACTORS
330
2A
102
}
330
2A
100
AcDbVisualStyle
  2
3D Hidden
 70
     6
177
     2
291
     0
 71
     1
176
     1
 72
     2
176
     1
 73
     2
176
     1
 90
        0
176
     1
 40
-0.6
176
     1
 41
-30.0
176
     1
 62
     5
 63
     7
421
 16777215
176
     1
 74
     2
176
     1
 91
        2
176
     1
 64
     7
176
     1
 65
   257
176
     1
 75
     2
176
     1
175
     1
176
     1
 42
40.0
176
     1
 92
        0
176
     1
 66
   257
176
     1
 43
1.0
176
     1
 76
     1
176
     1
 77
     6
176
     1
 78
     2
176
     1
 67
     7
176
     1
 79
     3
176
     1
170
     0
176
     1
171
     0
176
     1
290
     0
176
     1
 93
        1
176
     1
 44
0.0
176
     1
173
     0
176
     1
  0
VISUALSTYLE
  5
30
102
{ACAD_REACTORS
330
2A
102
}
330
2A
100
AcDbVisualStyle
  2
3dWireframe
 70
     5
177
     2
291
     0
 71
     0
176
     1
 72
     2
176
     1
 73
     0
176
     1
 90
        0
176
     1
 40
-0.6
176
     1
 41
-30.0
176
     1
 62
     5
 63
     7
421
 16777215
176
     1
 74
     1
176
     1
 91
        4
176
     1
 64
     7
176
     1
 65
   257
176
     1
 75
     1
176
     1
175
     1
176
     1
 42
1.0
176
     1
 92
        0
176
     1
 66
   257
176
     1
 43
1.0
176
     1
 76
     1
176
     1
 77
     6
176
     1
 78
     2
176
     1
 67
     7
176
     1
 79
     5
176
     1
170
     0
176
     1
171
     0
176
     1
290
     0
176
     1
 93
        1
176
     1
 44
0.0
176
     1
173
     0
176
     1
  0
VISUALSTYLE
  5
32
102
{ACAD_REACTORS
330
2A
102
}
330
2A
100
AcDbVisualStyle
  2
Basic
 70
     7
177
     2
291
     1
 71
     1
176
     1
 72
     0
176
     1
 73
     1
176
     1
 90
        0
176
     1
 40
-0.6
176
     1
 41
-30.0
176
     1
 62
     5
 63
     7
421
 16777215
176
     1
 74
     0
176
     1
 91
        4
176
     1
 64
     7
176
     1
 65
   257
176
     1
 75
     1
176
     1
175
     1
176
     1
 42
1.0
176
     1
 92
        8
176
     1
 66
     7
176
     1
 43
1.0
176
     1
 76
     1
176
     1
 77
     6
176
     1
 78
     2
176
     1
 67
     7
176
     1
 79
     5
176
     1
170
     0
176
     1
171
     0
176
     1
290
     0
176
     1
 93
        1
176
     1
 44
0.0
176
     1
173
     0
176
     1
  0
VISUALSTYLE
  5
36
102
{ACAD_REACTORS
330
2A
102
}
330
2A
100
AcDbVisualStyle
  2
Brighten
 70
    12
177
     2
291
     1
 71
     2
176
     1
 72
     2
176
     1
 73
     0
176
     1
 90
        0
176
     1
 40
-0.6
176
     1
 41
-30.0
176
     1
 62
     5
 63
     7
421
 16777215
176
     1
 74
     1
176
     1
 91
        4
176
     1
 64
     7
176
     1
 65
   257
176
     1
 75
     1
176
     1
175
     1
176
     1
 42
1.0
176
     1
 92
        8
176
     1
 66
     7
176
     1
 43
1.0
176
     1
 76
     1
176
     1
 77
     6
176
     1
 78
     2
176
     1
 67
     7
176
     1
 79
     5
176
     1
170
     0
176
     1
171
     0
176
     1
290
     0
176
     1
 93
        1
176
     1
 44
50.0
176
     1
173
     0
176
     1
  0
VISUALSTYLE
  5
3A
102
{ACAD_REACTORS
330
2A
102
}
330
2A
100
AcDbVisualStyle
  2
ColorChange
 70
    16
177
     2
291
     1
 71
     2
176
     1
 72
     2
176
     1
 73
     3
176
     1
 90
        0
176
     1
 40
-0.6
176
     1
 41
-30.0
176
     1
 62
     5
 63
     8
421
  8421504
176
     1
 74
     1
176
     1
 91
        4
176
     1
 64
     7
176
     1
 65
   257
176
     1
 75
     1
176
     1
175
     1
176
     1
 42
1.0
176
     1
 92
        8
176
     1
 66
     8
424
  8421504
176
     1
 43
1.0
176
     1
 76
     1
176
     1
 77
     6
176
     1
 78
     2
176
     1
 67
     7
176
     1
 79
     5
176
     1
170
     0
176
     1
171
     0
176
     1
290
     0
176
     1
 93
        1
176
     1
 44
0.0
176
     1
173
     0
176
     1
  0
VISUALSTYLE
  5
34
102
{ACAD_REACTORS
330
2A
102
}
330
2A
100
AcDbVisualStyle
  2
Conceptual
 70
     9
177
     2
291
     0
 71
     3
176
     1
 72
     2
176
     1
 73
     0
176
     1
 90
        0
176
     1
 40
-0.6
176
     1
 41
-30.0
176
     1
 62
     5
 63
     7
421
 16777215
176
     1
 74
     2
176
     1
 91
        2
176
     1
 64
     7
176
     1
 65
   257
176
     1
 75
     1
176
     1
175
     1
176
     1
 42
40.0
176
     1
 92
        8
176
     1
 66
     7
176
     1
 43
1.0
176
     1
 76
     1
176
     1
 77
     6
176
     1
 78
     2
176
     1
 67
     7
176
     1
 79
     3
176
     1
170
     0
176
     1
171
     0
176
     1
290
     0
176
     1
 93
        1
176
     1
 44
0.0
176
     1
173
     0
176
     1
  0
VISUALSTYLE
  5
35
102
{ACAD_REACTORS
330
2A
102
}
330
2A
100
AcDbVisualStyle
  2
Dim
 70
    11
177
     2
291
     1
 71
     2
176
     1
 72
     2
176
     1
 73
     0
176
     1
 90
        0
176
     1
 40
-0.6
176
     1
 41
-30.0
176
     1
 62
     5
 63
     7
421
 16777215
176
     1
 74
     1
176
     1
 91
        4
176
     1
 64
     7
176
     1
 65
   257
176
     1
 75
     1
176
     1
175
     1
176
     1
 42
1.0
176
     1
 92
        8
176
     1
 66
     7
176
     1
 43
1.0
176
     1
 76
     1
176
     1
 77
     6
176
     1
 78
     2
176
     1
 67
     7
176
     1
 79
     5
176
     1
170
     0
176
     1
171
     0
176
     1
290
     0
176
     1
 93
        1
176
     1
 44
-50.0
176
     1
173
     0
176
     1
  0
VISUALSTYLE
  5
39
102
{ACAD_REACTORS
330
2A
102
}
330
2A
100
AcDbVisualStyle
  2
Facepattern
 70
    15
177
     2
291
     1
 71
     2
176
     1
 72
     2
176
     1
 73
     0
176
     1
 90
        0
176
     1
 40
-0.6
176
     1
 41
-30.0
176
     1
 62
     5
 63
     7
421
 16777215
176
     1
 74
     1
176
     1
 91
        4
176
     1
 64
     7
176
     1
 65
   257
176
     1
 75
     1
176
     1
175
     1
176
     1
 42
1.0
176
     1
 92
        8
176
     1
 66
     7
176
     1
 43
1.0
176
     1
 76
     1
176
     1
 77
     6
176
     1
 78
     2
176
     1
 67
     7
176
     1
 79
     5
176
     1
170
     0
176
     1
171
     0
176
     1
290
     0
176
     1
 93
        1
176
     1
 44
0.0
176
     1
173
     0
176
     1
  0
VISUALSTYLE
  5
2B
102
{ACAD_REACTORS
330
2A
102
}
330
2A
100
AcDbVisualStyle
  2
Flat
 70
     0
177
     2
291
     1
 71
     2
176
     1
 72
     1
176
     1
 73
     1
176
     1
 90
        2
176
     1
 40
-0.6
176
     1
 41
30.0
176
     1
 62
     5
 63
     7
421
 16777215
176
     1
 74
     0
176
     1
 91
        4
176
     1
 64
     7
176
     1
 65
   257
176
     1
 75
     1
176
     1
175
     1
176
     1
 42
1.0
176
     1
 92
        8
176
     1
 66
     7
176
     1
 43
1.0
176
     1
 76
     1
176
     1
 77
     6
176
     1
 78
     2
176
     1
 67
     7
176
     1
 79
     5
176
     1
170
     0
176
     1
171
     0
176
     1
290
     0
176
     1
 93
       13
176
     1
 44
0.0
176
     1
173
     0
176
     1
  0
VISUALSTYLE
  5
2C
102
{ACAD_REACTORS
330
2A
102
}
330
2A
100
AcDbVisualStyle
  2
FlatWithEdges
 70
     1
177
     2
291
     1
 71
     2
176
     1
 72
     1
176
     1
 73
     1
176
     1
 90
        2
176
     1
 40
-0.6
176
     1
 41
30.0
176
     1
 62
     5
 63
     7
421
 16777215
176
     1
 74
     1
176
     1
 91
        4
176
     1
 64
     7
176
     1
 65
   257
176
     1
 75
     1
176
     1
175
     1
176
     1
 42
1.0
176
     1
 92
        0
176
     1
 66
   257
176
     1
 43
1.0
176
     1
 76
     1
176
     1
 77
     6
176
     1
 78
     2
176
     1
 67
     7
176
     1
 79
     5
176
     1
170
     0
176
     1
171
     0
176
     1
290
     0
176
     1
 93
       13
176
     1
 44
0.0
176
     1
173
     0
176
     1
  0
VISUALSTYLE
  5
2D
102
{ACAD_REACTORS
330
2A
102
}
330
2A
100
AcDbVisualStyle
  2
Gouraud
 70
     2
177
     2
291
     1
 71
     2
176
     1
 72
     2
176
     1
 73
     1
176
     1
 90
        2
176
     1
 40
-0.6
176
     1
 41
30.0
176
     1
 62
     5
 63
     7
421
 16777215
176
     1
 74
     0
176
     1
 91
        4
176
     1
 64
     7
176
     1
 65
   257
176
     1
 75
     1
176
     1
175
     1
176
     1
 42
1.0
176
     1
 92
        0
176
     1
 66
     7
176
     1
 43
1.0
176
     1
 76
     1
176
     1
 77
     6
176
     1
 78
     2
176
     1
 67
     7
176
     1
 79
     5
176
     1
170
     0
176
     1
171
     0
176
     1
290
     0
176
     1
 93
       13
176
     1
 44
0.0
176
     1
173
     0
176
     1
  0
VISUALSTYLE
  5
2E
102
{ACAD_REACTORS
330
2A
102
}
330
2A
100
AcDbVisualStyle
  2
GouraudWithEdges
 70
     3
177
     2
291
     1
 71
     2
176
     1
 72
     2
176
     1
 73
     1
176
     1
 90
        2
176
     1
 40
-0.6
176
     1
 41
30.0
176
     1
 62
     5
 63
     7
421
 16777215
176
     1
 74
     1
176
     1
 91
        4
176
     1
 64
     7
176
     1
 65
   257
176
     1
 75
     1
176
     1
175
     1
176
     1
 42
1.0
176
     1
 92
        0
176
     1
 66
   257
176
     1
 43
1.0
176
     1
 76
     1
176
     1
 77
     6
176
     1
 78
     2
176
     1
 67
     7
176
     1
 79
     5
176
     1
170
     0
176
     1
171
     0
176
     1
290
     0
176
     1
 93
       13
176
     1
 44
0.0
176
     1
173
     0
176
     1
  0
VISUALSTYLE
  5
38
102
{ACAD_REACTORS
330
2A
102
}
330
2A
100
AcDbVisualStyle
  2
Linepattern
 70
    14
177
     2
291
     1
 71
     2
176
     1
 72
     2
176
     1
 73
     0
176
     1
 90
        0
176
     1
 40
-0.6
176
     1
 41
-30.0
176
     1
 62
     5
 63
     7
421
 16777215
176
     1
 74
     1
176
     1
 91
        4
176
     1
 64
     7
176
     1
 65
   257
176
     1
 75
     7
176
     1
175
     7
176
     1
 42
1.0
176
     1
 92
        8
176
     1
 66
     7
176
     1
 43
1.0
176
     1
 76
     1
176
     1
 77
     6
176
     1
 78
     2
176
     1
 67
     7
176
     1
 79
     5
176
     1
170
     0
176
     1
171
     0
176
     1
290
     0
176
     1
 93
        1
176
     1
 44
0.0
176
     1
173
     0
176
     1
  0
VISUALSTYLE
  5
33
102
{ACAD_REACTORS
330
2A
102
}
330
2A
100
AcDbVisualStyle
  2
Realistic
 70
     8
177
     2
291
     0
 71
     2
176
     1
 72
     2
176
     1
 73
     0
176
     1
 90
        0
176
     1
 40
-0.6
176
     1
 41
-30.0
176
     1
 62
     5
 63
     7
421
 16777215
176
     1
 74
     1
176
     1
 91
        0
176
     1
 64
     7
176
     1
 65
   257
176
     1
 75
     1
176
     1
175
     1
176
     1
 42
1.0
176
     1
 92
        8
176
     1
 66
     8
424
  7895160
176
     1
 43
1.0
176
     1
 76
     1
176
     1
 77
     6
176
     1
 78
     2
176
     1
 67
     7
176
     1
 79
     5
176
     1
170
     0
176
     1
171
     0
176
     1
290
     0
176
     1
 93
       13
176
     1
 44
0.0
176
     1
173
     0
176
     1
  0
VISUALSTYLE
  5
37
102
{ACAD_REACTORS
330
2A
102
}
330
2A
100
AcDbVisualStyle
  2
Thicken
 70
    13
177
     2
291
     1
 71
     2
176
     1
 72
     2
176
     1
 73
     0
176
     1
 90
        0
176
     1
 40
-0.6
176
     1
 41
-30.0
176
     1
 62
     5
 63
     7
421
 16777215
176
     1
 74
     1
176
     1
 91
        4
176
     1
 64
     7
176
     1
 65
   257
176
     1
 75
     1
176
     1
175
     1
176
     1
 42
1.0
176
     1
 92
       12
176
     1
 66
     7
176
     1
 43
1.0
176
     1
 76
     1
176
     1
 77
     6
176
     1
 78
     2
176
     1
 67
     7
176
     1
 79
     5
176
     1
170
     0
176
     1
171
     0
176
     1
290
     0
176
     1
 93
        1
176
     1
 44
0.0
176
     1
173
     0
176
     1
  0
ENDSEC
  0
EOF
