  0
SECTION
  2
HEADER
  9
$ACADVER
  1
AC1024
  9
$ACADMAINTVER
 70
     6
  9
$DWGCODEPAGE
  3
UNDEFINED
  9
$INSBASE
 10
0.0
 20
0.0
 30
0.0
  9
$EXTMIN
 10
1.000000000000000E+20
 20
1.000000000000000E+20
 30
1.000000000000000E+20
  9
$EXTMAX
 10
-1.000000000000000E+20
 20
-1.000000000000000E+20
 30
-1.000000000000000E+20
  9
$LIMMIN
 10
0.0
 20
0.0
  9
$LIMMAX
 10
12.0
 20
9.0
  9
$ORTHOMODE
 70
     0
  9
$REGENMODE
 70
     1
  9
$FILLMODE
 70
     1
  9
$QTEXTMODE
 70
     0
  9
$MIRRTEXT
 70
     1
  9
$LTSCALE
 40
1.0
  9
$ATTMODE
 70
     1
  9
$TEXTSIZE
 40
0.2
  9
$TRACEWID
 40
0.05
  9
$TEXTSTYLE
  7
Standard
  9
$CLAYER
  8
0
  9
$CELTYPE
  6
ByLayer
  9
$CECOLOR
 62
   256
  9
$CELTSCALE
 40
1.0
  9
$DISPSILH
 70
     0
  9
$DIMSCALE
 40
1.0
  9
$DIMASZ
 40
0.18
  9
$DIMEXO
 40
0.0625
  9
$DIMDLI
 40
0.38
  9
$DIMRND
 40
0.0
  9
$DIMDLE
 40
0.0
  9
$DIMEXE
 40
0.18
  9
$DIMTP
 40
0.0
  9
$DIMTM
 40
0.0
  9
$DIMTXT
 40
0.18
  9
$DIMCEN
 40
0.09
  9
$DIMTSZ
 40
0.0
  9
$DIMTOL
 70
     0
  9
$DIMLIM
 70
     0
  9
$DIMTIH
 70
     1
  9
$DIMTOH
 70
     1
  9
$DIMSE1
 70
     0
  9
$DIMSE2
 70
     0
  9
$DIMTAD
 70
     0
  9
$DIMZIN
 70
     0
  9
$DIMBLK
  1

  9
$DIMASO
 70
     1
  9
$DIMSHO
 70
     1
  9
$DIMPOST
  1

  9
$DIMAPOST
  1

  9
$DIMALT
 70
     0
  9
$DIMALTD
 70
     2
  9
$DIMALTF
 40
25.4
  9
$DIMLFAC
 40
1.0
  9
$DIMTOFL
 70
     0
  9
$DIMTVP
 40
0.0
  9
$DIMTIX
 70
     0
  9
$DIMSOXD
 70
     0
  9
$DIMSAH
 70
     0
  9
$DIMBLK1
  1

  9
$DIMBLK2
  1

  9
$DIMSTYLE
  2
Standard
  9
$DIMCLRD
 70
     0
  9
$DIMCLRE
 70
     0
  9
$DIMCLRT
 70
     0
  9
$DIMTFAC
 40
1.0
  9
$DIMGAP
 40
0.09
  9
$DIMJUST
 70
     0
  9
$DIMSD1
 70
     0
  9
$DIMSD2
 70
     0
  9
$DIMTOLJ
 70
     1
  9
$DIMTZIN
 70
     0
  9
$DIMALTZ
 70
     0
  9
$DIMALTTZ
 70
     0
  9
$DIMUPT
 70
     0
  9
$DIMDEC
 70
     4
  9
$DIMTDEC
 70
     4
  9
$DIMALTU
 70
     2
  9
$DIMALTTD
 70
     2
  9
$DIMTXSTY
  7
Standard
  9
$DIMAUNIT
 70
     0
  9
$DIMADEC
 70
     0
  9
$DIMALTRND
 40
0.0
  9
$DIMAZIN
 70
     0
  9
$DIMDSEP
 70
    46
  9
$DIMATFIT
 70
     3
  9
$DIMFRAC
 70
     0
  9
$DIMLDRBLK
  1

  9
$DIMLUNIT
 70
     2
  9
$DIMLWD
 70
    -2
  9
$DIMLWE
 70
    -2
  9
$DIMTMOVE
 70
     0
  9
$DIMFXL
 40
1.0
  9
$DIMFXLON
 70
     0
  9
$DIMJOGANG
 40
0.7853981633974483
  9
$DIMTFILL
 70
     0
  9
$DIMTFILLCLR
 70
     0
  9
$DIMARCSYM
 70
     0
  9
$DIMLTYPE
  6

  9
$DIMLTEX1
  6

  9
$DIMLTEX2
  6

  9
$DIMTXTDIRECTION
 70
     0
  9
$LUNITS
 70
     2
  9
$LUPREC
 70
     4
  9
$SKETCHINC
 40
0.1
  9
$FILLETRAD
 40
0.5
  9
$AUNITS
 70
     0
  9
$AUPREC
 70
     0
  9
$MENU
  1
.
  9
$ELEVATION
 40
0.0
  9
$PELEVATION
 40
0.0
  9
$THICKNESS
 40
0.0
  9
$LIMCHECK
 70
     0
  9
$CHAMFERA
 40
0.5
  9
$CHAMFERB
 40
0.5
  9
$CHAMFERC
 40
1.0
  9
$CHAMFERD
 40
0.0
  9
$SKPOLY
 70
     0
  9
$TDCREATE
 40
2457917.594363414
  9
$TDUCREATE
 40
2457917.219363426
  9
$TDUPDATE
 40
2457917.594363414
  9
$TDUUPDATE
 40
2457917.219363426
  9
$TDINDWG
 40
0.0000000116
  9
$TDUSRTIMER
 40
0.0000000116
  9
$USRTIMER
 70
     1
  9
$ANGBASE
 50
0.0
  9
$ANGDIR
 70
     0
  9
$PDMODE
 70
     0
  9
$PDSIZE
 40
0.0
  9
$PLINEWID
 40
0.0
  9
$SPLFRAME
 70
     0
  9
$SPLINETYPE
 70
     6
  9
$SPLINESEGS
 70
     8
  9
$HANDSEED
  5
C3
  9
$SURFTAB1
 70
     6
  9
$SURFTAB2
 70
     6
  9
$SURFTYPE
 70
     6
  9
$SURFU
 70
     6
  9
$SURFV
 70
     6
  9
$UCSBASE
  2

  9
$UCSNAME
  2

  9
$UCSORG
 10
0.0
 20
0.0
 30
0.0
  9
$UCSXDIR
 10
1.0
 20
0.0
 30
0.0
  9
$UCSYDIR
 10
0.0
 20
1.0
 30
0.0
  9
$UCSORTHOREF
  2

  9
$UCSORTHOVIEW
 70
     0
  9
$UCSORGTOP
 10
0.0
 20
0.0
 30
0.0
  9
$UCSORGBOTTOM
 10
0.0
 20
0.0
 30
0.0
  9
$UCSORGLEFT
 10
0.0
 20
0.0
 30
0.0
  9
$UCSORGRIGHT
 10
0.0
 20
0.0
 30
0.0
  9
$UCSORGFRONT
 10
0.0
 20
0.0
 30
0.0
  9
$UCSORGBACK
 10
0.0
 20
0.0
 30
0.0
  9
$PUCSBASE
  2

  9
$PUCSNAME
  2

  9
$PUCSORG
 10
0.0
 20
0.0
 30
0.0
  9
$PUCSXDIR
 10
1.0
 20
0.0
 30
0.0
  9
$PUCSYDIR
 10
0.0
 20
1.0
 30
0.0
  9
$PUCSORTHOREF
  2

  9
$PUCSORTHOVIEW
 70
     0
  9
$PUCSORGTOP
 10
0.0
 20
0.0
 30
0.0
  9
$PUCSORGBOTTOM
 10
0.0
 20
0.0
 30
0.0
  9
$PUCSORGLEFT
 10
0.0
 20
0.0
 30
0.0
  9
$PUCSORGRIGHT
 10
0.0
 20
0.0
 30
0.0
  9
$PUCSORGFRONT
 10
0.0
 20
0.0
 30
0.0
  9
$PUCSORGBACK
 10
0.0
 20
0.0
 30
0.0
  9
$USERI1
 70
     0
  9
$USERI2
 70
     0
  9
$USERI3
 70
     0
  9
$USERI4
 70
     0
  9
$USERI5
 70
     0
  9
$USERR1
 40
0.0
  9
$USERR2
 40
0.0
  9
$USERR3
 40
0.0
  9
$USERR4
 40
0.0
  9
$USERR5
 40
0.0
  9
$WORLDVIEW
 70
     1
  9
$SHADEDGE
 70
     3
  9
$SHADEDIF
 70
    70
  9
$TILEMODE
 70
     1
  9
$MAXACTVP
 70
    64
  9
$PINSBASE
 10
0.0
 20
0.0
 30
0.0
  9
$PLIMCHECK
 70
     0
  9
$PEXTMIN
 10
1.000000000000000E+20
 20
1.000000000000000E+20
 30
1.000000000000000E+20
  9
$PEXTMAX
 10
-1.000000000000000E+20
 20
-1.000000000000000E+20
 30
-1.000000000000000E+20
  9
$PLIMMIN
 10
0.0
 20
0.0
  9
$PLIMMAX
 10
12.0
 20
9.0
  9
$UNITMODE
 70
     0
  9
$VISRETAIN
 70
     1
  9
$PLINEGEN
 70
     0
  9
$PSLTSCALE
 70
     1
  9
$TREEDEPTH
 70
  3020
  9
$CMLSTYLE
  2
Standard
  9
$CMLJUST
 70
     0
  9
$CMLSCALE
 40
1.0
  9
$PROXYGRAPHICS
 70
     1
  9
$MEASUREMENT
 70
     0
  9
$CELWEIGHT
370
    -1
  9
$ENDCAPS
280
     0
  9
$JOINSTYLE
280
     0
  9
$LWDISPLAY
290
     1
  9
$INSUNITS
 70
     1
  9
$HYPERLINKBASE
  1

  9
$STYLESHEET
  1

  9
$XEDIT
290
     1
  9
$CEPSNTYPE
380
     0
  9
$PSTYLEMODE
290
     1
  9
$FINGERPRINTGUID
  2
{1827F695-54E6-C3AB-86B8-715C06E00229}
  9
$VERSIONGUID
  2
{FAEB1C32-E019-11D5-929B-00C0DF256EC4}
  9
$EXTNAMES
290
     1
  9
$PSVPSCALE
 40
0.0
  9
$OLESTARTUP
290
     0
  9
$SORTENTS
280
   127
  9
$INDEXCTL
280
     0
  9
$HIDETEXT
280
     1
  9
$XCLIPFRAME
280
     2
  9
$HALOGAP
280
     0
  9
$OBSCOLOR
 70
   257
  9
$OBSLTYPE
280
     0
  9
$INTERSECTIONDISPLAY
280
     0
  9
$INTERSECTIONCOLOR
 70
   257
  9
$DIMASSOC
280
     2
  9
$PROJECTNAME
  1

  9
$CAMERADISPLAY
290
     0
  9
$LENSLENGTH
 40
50.0
  9
$CAMERAHEIGHT
 40
0.0
  9
$STEPSPERSEC
 40
2.0
  9
$STEPSIZE
 40
6.0
  9
$3DDWFPREC
 40
2.0
  9
$PSOLWIDTH
 40
0.25
  9
$PSOLHEIGHT
 40
4.0
  9
$LOFTANG1
 40
1.570796326794897
  9
$LOFTANG2
 40
1.570796326794897
  9
$LOFTMAG1
 40
0.0
  9
$LOFTMAG2
 40
0.0
  9
$LOFTPARAM
 70
     7
  9
$LOFTNORMALS
280
     1
  9
$LATITUDE
 40
37.795
  9
$LONGITUDE
 40
-122.394
  9
$NORTHDIRECTION
 40
0.0
  9
$TIMEZONE
 70
 -8000
  9
$LIGHTGLYPHDISPLAY
280
     1
  9
$TILEMODELIGHTSYNCH
280
     1
  9
$CMATERIAL
347
3C
  9
$SOLIDHIST
280
     1
  9
$SHOWHIST
280
     1
  9
$DWFFRAME
280
     2
  9
$DGNFRAME
280
     2
  9
$REALWORLDSCALE
290
     1
  9
$INTERFERECOLOR
 62
   256
  9
$CSHADOW
280
     0
  9
$SHADOWPLANELOCATION
 40
0.0
  0
ENDSEC
  0
SECTION
  2
CLASSES
  0
CLASS
  1
ACDBDICTIONARYWDFLT
  2
AcDbDictionaryWithDefault
  3
ObjectDBX Classes
 90
        0
 91
        4
280
     0
281
     0
  0
CLASS
  1
VISUALSTYLE
  2
AcDbVisualStyle
  3
ObjectDBX Classes
 90
     4095
 91
        4
280
     0
281
     0
  0
CLASS
  1
MATERIAL
  2
AcDbMaterial
  3
ObjectDBX Classes
 90
     1153
 91
        4
280
     0
281
     0
  0
CLASS
  1
SUN
  2
AcDbSun
  3
SCENEOE
 90
     1024
 91
        4
280
     0
281
     0
  0
ENDSEC
  0
SECTION
  2
TABLES
  0
TABLE
  2
VPORT
  5
8
330
0
100
AcDbSymbolTable
 70
     1
  0
VPORT
  5
29
330
8
100
AcDbSymbolTableRecord
100
AcDbViewportTableRecord
  2
*Active
 70
     0
 10
0.0
 20
0.0
 11
1.0
 21
1.0
 12
0.0
 22
0.0
 13
0.0
 23
0.0
 14
0.5
 24
0.5
 15
0.5
 25
0.5
 16
0.0
 26
0.0
 36
1.0
 17
91.00082462281999
 27
-128.4993055234307
 37
0.0
 40
256.9986110468615
 41
0.7081814508812795
 42
50.0
 43
0.0
 44
0.0
 50
0.0
 51
0.0
 71
     0
 72
   100
 73
     1
 74
     3
 75
     0
 76
     0
 77
     0
 78
     0
281
     0
 65
     1
110
0.0
120
0.0
130
0.0
111
1.0
121
0.0
131
0.0
112
0.0
122
1.0
132
0.0
 79
     0
146
0.0
 60
     3
 61
     5
292
     1
282
     1
141
0.0
142
0.0
 63
   250
361
3F
  0
ENDTAB
  0
TABLE
  2
LTYPE
  5
5
330
0
100
AcDbSymbolTable
 70
     1
  0
LTYPE
  5
14
330
5
100
AcDbSymbolTableRecord
100
AcDbLinetypeTableRecord
  2
ByBlock
 70
     0
  3

 72
    65
 73
     0
 40
0.0
  0
LTYPE
  5
15
330
5
100
AcDbSymbolTableRecord
100
AcDbLinetypeTableRecord
  2
ByLayer
 70
     0
  3

 72
    65
 73
     0
 40
0.0
  0
LTYPE
  5
16
330
5
100
AcDbSymbolTableRecord
100
AcDbLinetypeTableRecord
  2
Continuous
 70
     0
  3
Solid line
 72
    65
 73
     0
 40
0.0
  0
ENDTAB
  0
TABLE
  2
LAYER
  5
2
330
0
100
AcDbSymbolTable
 70
     2
  0
LAYER
  5
10
330
2
100
AcDbSymbolTableRecord
100
AcDbLayerTableRecord
  2
0
 70
     0
 62
     7
  6
Continuous
370
    -3
390
F
347
3E
  0
LAYER
  5
40
330
2
100
AcDbSymbolTableRecord
100
AcDbLayerTableRecord
  2
_U+30EC_U+30A4_U+30E4_U+30FC 1
 70
     0
 62
     7
  6
Continuous
370
    -3
390
F
347
3E
  0
ENDTAB
  0
TABLE
  2
STYLE
  5
3
330
0
100
AcDbSymbolTable
 70
     1
  0
STYLE
  5
11
330
3
100
AcDbSymbolTableRecord
100
AcDbTextStyleTableRecord
  2
Standard
 70
     0
 40
0.0
 41
1.0
 50
0.0
 71
     0
 42
0.2
  3
txt
  4

  0
ENDTAB
  0
TABLE
  2
VIEW
  5
6
330
0
100
AcDbSymbolTable
 70
     0
  0
ENDTAB
  0
TABLE
  2
UCS
  5
7
330
0
100
AcDbSymbolTable
 70
     0
  0
ENDTAB
  0
TABLE
  2
APPID
  5
9
330
0
100
AcDbSymbolTable
 70
     1
  0
APPID
  5
12
330
9
100
AcDbSymbolTableRecord
100
AcDbRegAppTableRecord
  2
ACAD
 70
     0
  0
ENDTAB
  0
TABLE
  2
DIMSTYLE
  5
A
330
0
100
AcDbSymbolTable
 70
     1
100
AcDbDimStyleTable
  0
DIMSTYLE
105
27
330
A
100
AcDbSymbolTableRecord
100
AcDbDimStyleTableRecord
  2
Standard
 70
     0
178
     0
340
11
  0
ENDTAB
  0
TABLE
  2
BLOCK_RECORD
  5
1
330
0
100
AcDbSymbolTable
 70
     6
  0
BLOCK_RECORD
  5
1F
330
1
100
AcDbSymbolTableRecord
100
AcDbBlockTableRecord
  2
*Model_Space
340
22
 70
     0
280
     1
281
     0
  0
BLOCK_RECORD
  5
1B
330
1
100
AcDbSymbolTableRecord
100
AcDbBlockTableRecord
  2
*Paper_Space
340
1E
 70
     0
280
     1
281
     0
  0
BLOCK_RECORD
  5
23
330
1
100
AcDbSymbolTableRecord
100
AcDbBlockTableRecord
  2
*Paper_Space0
340
26
 70
     0
280
     1
281
     0
  0
BLOCK_RECORD
  5
53
330
1
100
AcDbSymbolTableRecord
100
AcDbBlockTableRecord
  2
block 2
340
0
102
{BLKREFS
331
54
102
}
 70
     0
280
     1
281
     0
  0
BLOCK_RECORD
  5
95
330
1
100
AcDbSymbolTableRecord
100
AcDbBlockTableRecord
  2
block 3
340
0
102
{BLKREFS
331
96
102
}
 70
     0
280
     1
281
     0
  0
BLOCK_RECORD
  5
9E
330
1
100
AcDbSymbolTableRecord
100
AcDbBlockTableRecord
  2
block 4
340
0
102
{BLKREFS
331
9F
102
}
 70
     0
280
     1
281
     0
  0
BLOCK_RECORD
  5
AE
330
1
100
AcDbSymbolTableRecord
100
AcDbBlockTableRecord
  2
block 5
340
0
102
{BLKREFS
331
AF
102
}
 70
     0
280
     1
281
     0
  0
BLOCK_RECORD
  5
BB
330
1
100
AcDbSymbolTableRecord
100
AcDbBlockTableRecord
  2
block 6
340
0
102
{BLKREFS
331
BC
102
}
 70
     0
280
     1
281
     0
  0
ENDTAB
  0
ENDSEC
  0
SECTION
  2
BLOCKS
  0
BLOCK
  5
20
330
1F
100
AcDbEntity
  8
0
100
AcDbBlockBegin
  2
*Model_Space
 70
     0
 10
0.0
 20
0.0
 30
0.0
  3
*Model_Space
  1

  0
ENDBLK
  5
21
330
1F
100
AcDbEntity
  8
0
100
AcDbBlockEnd
  0
BLOCK
  5
1C
330
1B
100
AcDbEntity
 67
     1
  8
0
100
AcDbBlockBegin
  2
*Paper_Space
 70
     0
 10
0.0
 20
0.0
 30
0.0
  3
*Paper_Space
  1

  0
ENDBLK
  5
1D
330
1B
100
AcDbEntity
 67
     1
  8
0
100
AcDbBlockEnd
  0
BLOCK
  5
24
330
23
100
AcDbEntity
  8
0
100
AcDbBlockBegin
  2
*Paper_Space0
 70
     0
 10
0.0
 20
0.0
 30
0.0
  3
*Paper_Space0
  1

  0
ENDBLK
  5
25
330
23
100
AcDbEntity
  8
0
100
AcDbBlockEnd
  0
BLOCK
  5
55
330
53
100
AcDbEntity
  8
0
100
AcDbBlockBegin
  2
block 2
 70
     0
 10
0.0
 20
0.0
 30
0.0
  3
block 2
  1

  0
SPLINE
  5
57
330
53
100
AcDbEntity
  8
_U+30EC_U+30A4_U+30E4_U+30FC 1
370
     0
100
AcDbSpline
210
0.0
220
0.0
230
1.0
 70
    11
 71
     3
 72
    26
 73
    22
 74
     0
 42
0.0000000001
 43
0.0000000001
 12
1.0
 22
0.0
 32
0.0
 13
1.0
 23
0.0
 33
0.0
 40
0.0
 40
0.0
 40
0.0
 40
0.0
 40
1.0
 40
1.0
 40
1.0
 40
2.0
 40
2.0
 40
2.0
 40
3.0
 40
3.0
 40
3.0
 40
4.0
 40
4.0
 40
4.0
 40
5.0
 40
5.0
 40
5.0
 40
6.0
 40
6.0
 40
6.0
 40
7.0
 40
7.0
 40
7.0
 40
7.0
 10
79.87781166622847
 20
-136.2273437159432
 30
0.0
 10
79.87781166622847
 20
-136.2273437159432
 30
0.0
 10
79.87781166622847
 20
-135.1231906129206
 30
0.0
 10
79.87781166622847
 20
-135.1231906129206
 30
0.0
 10
79.87781166622847
 20
-135.1231906129206
 30
0.0
 10
79.54777151874153
 20
-135.1231906129206
 30
0.0
 10
79.54777151874153
 20
-135.1231906129206
 30
0.0
 10
79.54777151874153
 20
-135.1231906129206
 30
0.0
 10
79.54777151874153
 20
-134.9750515070548
 30
0.0
 10
79.54777151874153
 20
-134.9750515070548
 30
0.0
 10
79.87987872351962
 20
-134.9602375964683
 30
0.0
 10
79.92638751257049
 20
-134.797284580016
 30
0.0
 10
79.95601533374364
 20
-134.6829074099057
 30
0.0
 10
79.95601533374364
 20
-134.6829074099057
 30
0.0
 10
80.10208738231823
 20
-134.6829074099057
 30
0.0
 10
80.10208738231823
 20
-134.6829074099057
 30
0.0
 10
80.10208738231823
 20
-134.6829074099057
 30
0.0
 10
80.10208738231823
 20
-136.2273437159432
 30
0.0
 10
80.10208738231823
 20
-136.2273437159432
 30
0.0
 10
80.10208738231823
 20
-136.2273437159432
 30
0.0
 10
79.87781166622847
 20
-136.2273437159432
 30
0.0
 10
79.87781166622847
 20
-136.2273437159432
 30
0.0
  0
HATCH
  5
58
330
53
100
AcDbEntity
  8
_U+30EC_U+30A4_U+30E4_U+30FC 1
 62
     7
420
 16777215
100
AcDbHatch
 10
0.0
 20
0.0
 30
0.0
210
0.0
220
0.0
230
1.0
  2
SOLID
 70
     1
 71
     0
 91
        1
 92
        1
 93
        1
 72
     4
 94
        3
 73
     0
 74
     1
 95
       26
 96
       22
 40
0.0
 40
0.0
 40
0.0
 40
0.0
 40
1.0
 40
1.0
 40
1.0
 40
2.0
 40
2.0
 40
2.0
 40
3.0
 40
3.0
 40
3.0
 40
4.0
 40
4.0
 40
4.0
 40
5.0
 40
5.0
 40
5.0
 40
6.0
 40
6.0
 40
6.0
 40
7.0
 40
7.0
 40
7.0
 40
7.0
 10
79.87781166622847
 20
-136.2273437159432
 10
79.87781166622847
 20
-136.2273437159432
 10
79.87781166622847
 20
-135.1231906129206
 10
79.87781166622847
 20
-135.1231906129206
 10
79.87781166622847
 20
-135.1231906129206
 10
79.54777151874153
 20
-135.1231906129206
 10
79.54777151874153
 20
-135.1231906129206
 10
79.54777151874153
 20
-135.1231906129206
 10
79.54777151874153
 20
-134.9750515070548
 10
79.54777151874153
 20
-134.9750515070548
 10
79.87987872351962
 20
-134.9602375964683
 10
79.92638751257049
 20
-134.797284580016
 10
79.95601533374364
 20
-134.6829074099057
 10
79.95601533374364
 20
-134.6829074099057
 10
80.10208738231823
 20
-134.6829074099057
 10
80.10208738231823
 20
-134.6829074099057
 10
80.10208738231823
 20
-134.6829074099057
 10
80.10208738231823
 20
-136.2273437159432
 10
80.10208738231823
 20
-136.2273437159432
 10
80.10208738231823
 20
-136.2273437159432
 10
79.87781166622847
 20
-136.2273437159432
 10
79.87781166622847
 20
-136.2273437159432
 97
        0
 97
        0
 75
     2
 76
     1
 98
        0
  0
SPLINE
  5
59
330
53
100
AcDbEntity
  8
_U+30EC_U+30A4_U+30E4_U+30FC 1
370
     0
100
AcDbSpline
210
0.0
220
0.0
230
1.0
 70
    11
 71
     3
 72
    44
 73
    40
 74
     0
 42
0.0000000001
 43
0.0000000001
 12
1.0
 22
0.0
 32
0.0
 13
1.0
 23
0.0
 33
0.0
 40
0.0
 40
0.0
 40
0.0
 40
0.0
 40
1.0
 40
1.0
 40
1.0
 40
2.0
 40
2.0
 40
2.0
 40
3.0
 40
3.0
 40
3.0
 40
4.0
 40
4.0
 40
4.0
 40
5.0
 40
5.0
 40
5.0
 40
6.0
 40
6.0
 40
6.0
 40
7.0
 40
7.0
 40
7.0
 40
8.0
 40
8.0
 40
8.0
 40
9.0
 40
9.0
 40
9.0
 40
10.0
 40
10.0
 40
10.0
 40
11.0
 40
11.0
 40
11.0
 40
12.0
 40
12.0
 40
12.0
 40
13.0
 40
13.0
 40
13.0
 40
13.0
 10
81.61741263150537
 20
-136.2273437159432
 30
0.0
 10
81.59398598220568
 20
-136.1829019841834
 30
0.0
 10
81.57297089974566
 20
-136.1301920232591
 30
0.0
 10
81.57073158768024
 20
-135.8993706257474
 30
0.0
 10
81.56659747309794
 20
-135.6561468844887
 30
0.0
 10
81.50734183075164
 20
-135.5862114461382
 30
0.0
 10
81.32957490371275
 20
-135.5862114461382
 30
0.0
 10
81.32957490371275
 20
-135.5862114461382
 30
0.0
 10
80.92133108871064
 20
-135.5862114461382
 30
0.0
 10
80.92133108871064
 20
-135.5862114461382
 30
0.0
 10
80.92133108871064
 20
-135.5862114461382
 30
0.0
 10
80.92133108871064
 20
-136.2273437159432
 30
0.0
 10
80.92133108871064
 20
-136.2273437159432
 30
0.0
 10
80.92133108871064
 20
-136.2273437159432
 30
0.0
 10
80.68654783139087
 20
-136.2273437159432
 30
0.0
 10
80.68654783139087
 20
-136.2273437159432
 30
0.0
 10
80.68654783139087
 20
-136.2273437159432
 30
0.0
 10
80.68654783139087
 20
-134.6829074099057
 30
0.0
 10
80.68654783139087
 20
-134.6829074099057
 30
0.0
 10
80.68654783139087
 20
-134.6829074099057
 30
0.0
 10
81.36126978217705
 20
-134.6829074099057
 30
0.0
 10
81.36126978217705
 20
-134.6829074099057
 30
0.0
 10
81.66805553513855
 20
-134.6829074099057
 30
0.0
 10
81.83531492094743
 20
-134.8544731650711
 30
0.0
 10
81.83531492094743
 20
-135.1104437596252
 30
0.0
 10
81.83531492094743
 20
-135.1610866632583
 30
0.0
 10
81.8267021822343
 20
-135.2437689549043
 30
0.0
 10
81.78226045047458
 20
-135.3240396797107
 30
0.0
 10
81.72317706290254
 20
-135.4277370538167
 30
0.0
 10
81.65754799390854
 20
-135.4466850789856
 30
0.0
 10
81.5962252942711
 20
-135.4635660468633
 30
0.0
 10
81.73368460413255
 20
-135.5059407213319
 30
0.0
 10
81.80138073041772
 20
-135.5545165676739
 30
0.0
 10
81.80568709977427
 20
-135.8697428045742
 30
0.0
 10
81.80982121435657
 20
-136.1405273097149
 30
0.0
 10
81.84582246217744
 20
-136.1722221881792
 30
0.0
 10
81.9135185884626
 20
-136.2273437159432
 30
0.0
 10
81.9135185884626
 20
-136.2273437159432
 30
0.0
 10
81.61741263150537
 20
-136.2273437159432
 30
0.0
 10
81.61741263150537
 20
-136.2273437159432
 30
0.0
  0
SPLINE
  5
5A
330
53
100
AcDbEntity
  8
_U+30EC_U+30A4_U+30E4_U+30FC 1
370
     0
100
AcDbSpline
210
0.0
220
0.0
230
1.0
 70
    11
 71
     3
 72
    20
 73
    16
 74
     0
 42
0.0000000001
 43
0.0000000001
 12
1.0
 22
0.0
 32
0.0
 13
1.0
 23
0.0
 33
0.0
 40
0.0
 40
0.0
 40
0.0
 40
0.0
 40
1.0
 40
1.0
 40
1.0
 40
2.0
 40
2.0
 40
2.0
 40
3.0
 40
3.0
 40
3.0
 40
4.0
 40
4.0
 40
4.0
 40
5.0
 40
5.0
 40
5.0
 40
5.0
 10
81.36557615153362
 20
-134.8944362727
 30
0.0
 10
81.36557615153362
 20
-134.8944362727
 30
0.0
 10
80.92133108871064
 20
-134.8944362727
 30
0.0
 10
80.92133108871064
 20
-134.8944362727
 30
0.0
 10
80.92133108871064
 20
-134.8944362727
 30
0.0
 10
80.92133108871064
 20
-135.3746825833438
 30
0.0
 10
80.92133108871064
 20
-135.3746825833438
 30
0.0
 10
80.92133108871064
 20
-135.3746825833438
 30
0.0
 10
81.36350909424246
 20
-135.3746825833438
 30
0.0
 10
81.36350909424246
 20
-135.3746825833438
 30
0.0
 10
81.46290009899192
 20
-135.3746825833438
 30
0.0
 10
81.59829235156224
 20
-135.2985459731198
 30
0.0
 10
81.59829235156224
 20
-135.1273247275029
 30
0.0
 10
81.59829235156224
 20
-135.0491210599877
 30
0.0
 10
81.56453041580679
 20
-134.8944362727
 30
0.0
 10
81.36557615153362
 20
-134.8944362727
 30
0.0
  0
HATCH
  5
5B
330
53
100
AcDbEntity
  8
_U+30EC_U+30A4_U+30E4_U+30FC 1
 62
     7
420
 16777215
100
AcDbHatch
 10
0.0
 20
0.0
 30
0.0
210
0.0
220
0.0
230
1.0
  2
SOLID
 70
     1
 71
     0
 91
        2
 92
        1
 93
        1
 72
     4
 94
        3
 73
     0
 74
     1
 95
       44
 96
       40
 40
0.0
 40
0.0
 40
0.0
 40
0.0
 40
1.0
 40
1.0
 40
1.0
 40
2.0
 40
2.0
 40
2.0
 40
3.0
 40
3.0
 40
3.0
 40
4.0
 40
4.0
 40
4.0
 40
5.0
 40
5.0
 40
5.0
 40
6.0
 40
6.0
 40
6.0
 40
7.0
 40
7.0
 40
7.0
 40
8.0
 40
8.0
 40
8.0
 40
9.0
 40
9.0
 40
9.0
 40
10.0
 40
10.0
 40
10.0
 40
11.0
 40
11.0
 40
11.0
 40
12.0
 40
12.0
 40
12.0
 40
13.0
 40
13.0
 40
13.0
 40
13.0
 10
81.61741263150537
 20
-136.2273437159432
 10
81.59398598220568
 20
-136.1829019841834
 10
81.57297089974566
 20
-136.1301920232591
 10
81.57073158768024
 20
-135.8993706257474
 10
81.56659747309794
 20
-135.6561468844887
 10
81.50734183075164
 20
-135.5862114461382
 10
81.32957490371275
 20
-135.5862114461382
 10
81.32957490371275
 20
-135.5862114461382
 10
80.92133108871064
 20
-135.5862114461382
 10
80.92133108871064
 20
-135.5862114461382
 10
80.92133108871064
 20
-135.5862114461382
 10
80.92133108871064
 20
-136.2273437159432
 10
80.92133108871064
 20
-136.2273437159432
 10
80.92133108871064
 20
-136.2273437159432
 10
80.68654783139087
 20
-136.2273437159432
 10
80.68654783139087
 20
-136.2273437159432
 10
80.68654783139087
 20
-136.2273437159432
 10
80.68654783139087
 20
-134.6829074099057
 10
80.68654783139087
 20
-134.6829074099057
 10
80.68654783139087
 20
-134.6829074099057
 10
81.36126978217705
 20
-134.6829074099057
 10
81.36126978217705
 20
-134.6829074099057
 10
81.66805553513855
 20
-134.6829074099057
 10
81.83531492094743
 20
-134.8544731650711
 10
81.83531492094743
 20
-135.1104437596252
 10
81.83531492094743
 20
-135.1610866632583
 10
81.8267021822343
 20
-135.2437689549043
 10
81.78226045047458
 20
-135.3240396797107
 10
81.72317706290254
 20
-135.4277370538167
 10
81.65754799390854
 20
-135.4466850789856
 10
81.5962252942711
 20
-135.4635660468633
 10
81.73368460413255
 20
-135.5059407213319
 10
81.80138073041772
 20
-135.5545165676739
 10
81.80568709977427
 20
-135.8697428045742
 10
81.80982121435657
 20
-136.1405273097149
 10
81.84582246217744
 20
-136.1722221881792
 10
81.9135185884626
 20
-136.2273437159432
 10
81.9135185884626
 20
-136.2273437159432
 10
81.61741263150537
 20
-136.2273437159432
 10
81.61741263150537
 20
-136.2273437159432
 97
        0
 97
        0
 92
        1
 93
        1
 72
     4
 94
        3
 73
     0
 74
     1
 95
       20
 96
       16
 40
0.0
 40
0.0
 40
0.0
 40
0.0
 40
1.0
 40
1.0
 40
1.0
 40
2.0
 40
2.0
 40
2.0
 40
3.0
 40
3.0
 40
3.0
 40
4.0
 40
4.0
 40
4.0
 40
5.0
 40
5.0
 40
5.0
 40
5.0
 10
81.36557615153362
 20
-134.8944362727
 10
81.36557615153362
 20
-134.8944362727
 10
80.92133108871064
 20
-134.8944362727
 10
80.92133108871064
 20
-134.8944362727
 10
80.92133108871064
 20
-134.8944362727
 10
80.92133108871064
 20
-135.3746825833438
 10
80.92133108871064
 20
-135.3746825833438
 10
80.92133108871064
 20
-135.3746825833438
 10
81.36350909424246
 20
-135.3746825833438
 10
81.36350909424246
 20
-135.3746825833438
 10
81.46290009899192
 20
-135.3746825833438
 10
81.59829235156224
 20
-135.2985459731198
 10
81.59829235156224
 20
-135.1273247275029
 10
81.59829235156224
 20
-135.0491210599877
 10
81.56453041580679
 20
-134.8944362727
 10
81.36557615153362
 20
-134.8944362727
 97
        0
 97
        0
 75
     2
 76
     1
 98
        0
  0
ENDBLK
  5
56
330
53
100
AcDbEntity
  8
0
100
AcDbBlockEnd
  0
BLOCK
  5
97
330
95
100
AcDbEntity
  8
0
100
AcDbBlockBegin
  2
block 3
 70
     0
 10
0.0
 20
0.0
 30
0.0
  3
block 3
  1

  0
SPLINE
  5
99
330
95
100
AcDbEntity
  8
_U+30EC_U+30A4_U+30E4_U+30FC 1
370
     0
100
AcDbSpline
210
0.0
220
0.0
230
1.0
 70
    11
 71
     3
 72
    26
 73
    22
 74
     0
 42
0.0000000001
 43
0.0000000001
 12
1.0
 22
0.0
 32
0.0
 13
1.0
 23
0.0
 33
0.0
 40
0.0
 40
0.0
 40
0.0
 40
0.0
 40
1.0
 40
1.0
 40
1.0
 40
2.0
 40
2.0
 40
2.0
 40
3.0
 40
3.0
 40
3.0
 40
4.0
 40
4.0
 40
4.0
 40
5.0
 40
5.0
 40
5.0
 40
6.0
 40
6.0
 40
6.0
 40
7.0
 40
7.0
 40
7.0
 40
7.0
 10
91.77872176524977
 20
-136.7775254649376
 30
0.0
 10
91.77872176524977
 20
-136.7775254649376
 30
0.0
 10
91.77872176524977
 20
-135.673372361915
 30
0.0
 10
91.77872176524977
 20
-135.673372361915
 30
0.0
 10
91.77872176524977
 20
-135.673372361915
 30
0.0
 10
91.44868161776283
 20
-135.673372361915
 30
0.0
 10
91.44868161776283
 20
-135.673372361915
 30
0.0
 10
91.44868161776283
 20
-135.673372361915
 30
0.0
 10
91.44868161776283
 20
-135.5252332560493
 30
0.0
 10
91.44868161776283
 20
-135.5252332560493
 30
0.0
 10
91.78078882254091
 20
-135.5104193454627
 30
0.0
 10
91.82729761159179
 20
-135.3474663290104
 30
0.0
 10
91.85692543276494
 20
-135.2330891589001
 30
0.0
 10
91.85692543276494
 20
-135.2330891589001
 30
0.0
 10
92.00299748133953
 20
-135.2330891589001
 30
0.0
 10
92.00299748133953
 20
-135.2330891589001
 30
0.0
 10
92.00299748133953
 20
-135.2330891589001
 30
0.0
 10
92.00299748133953
 20
-136.7775254649376
 30
0.0
 10
92.00299748133953
 20
-136.7775254649376
 30
0.0
 10
92.00299748133953
 20
-136.7775254649376
 30
0.0
 10
91.77872176524977
 20
-136.7775254649376
 30
0.0
 10
91.77872176524977
 20
-136.7775254649376
 30
0.0
  0
HATCH
  5
9A
330
95
100
AcDbEntity
  8
_U+30EC_U+30A4_U+30E4_U+30FC 1
 62
   179
420
  2234388
100
AcDbHatch
 10
0.0
 20
0.0
 30
0.0
210
0.0
220
0.0
230
1.0
  2
SOLID
 70
     1
 71
     0
 91
        1
 92
        1
 93
        1
 72
     4
 94
        3
 73
     0
 74
     1
 95
       26
 96
       22
 40
0.0
 40
0.0
 40
0.0
 40
0.0
 40
1.0
 40
1.0
 40
1.0
 40
2.0
 40
2.0
 40
2.0
 40
3.0
 40
3.0
 40
3.0
 40
4.0
 40
4.0
 40
4.0
 40
5.0
 40
5.0
 40
5.0
 40
6.0
 40
6.0
 40
6.0
 40
7.0
 40
7.0
 40
7.0
 40
7.0
 10
91.77872176524977
 20
-136.7775254649376
 10
91.77872176524977
 20
-136.7775254649376
 10
91.77872176524977
 20
-135.673372361915
 10
91.77872176524977
 20
-135.673372361915
 10
91.77872176524977
 20
-135.673372361915
 10
91.44868161776283
 20
-135.673372361915
 10
91.44868161776283
 20
-135.673372361915
 10
91.44868161776283
 20
-135.673372361915
 10
91.44868161776283
 20
-135.5252332560493
 10
91.44868161776283
 20
-135.5252332560493
 10
91.78078882254091
 20
-135.5104193454627
 10
91.82729761159179
 20
-135.3474663290104
 10
91.85692543276494
 20
-135.2330891589001
 10
91.85692543276494
 20
-135.2330891589001
 10
92.00299748133953
 20
-135.2330891589001
 10
92.00299748133953
 20
-135.2330891589001
 10
92.00299748133953
 20
-135.2330891589001
 10
92.00299748133953
 20
-136.7775254649376
 10
92.00299748133953
 20
-136.7775254649376
 10
92.00299748133953
 20
-136.7775254649376
 10
91.77872176524977
 20
-136.7775254649376
 10
91.77872176524977
 20
-136.7775254649376
 97
        0
 97
        0
 75
     2
 76
     1
 98
        0
  0
SPLINE
  5
9B
330
95
100
AcDbEntity
  8
_U+30EC_U+30A4_U+30E4_U+30FC 1
370
     0
100
AcDbSpline
210
0.0
220
0.0
230
1.0
 70
    11
 71
     3
 72
    29
 73
    25
 74
     0
 42
0.0000000001
 43
0.0000000001
 12
1.0
 22
0.0
 32
0.0
 13
1.0
 23
0.0
 33
0.0
 40
0.0
 40
0.0
 40
0.0
 40
0.0
 40
1.0
 40
1.0
 40
1.0
 40
2.0
 40
2.0
 40
2.0
 40
3.0
 40
3.0
 40
3.0
 40
4.0
 40
4.0
 40
4.0
 40
5.0
 40
5.0
 40
5.0
 40
6.0
 40
6.0
 40
6.0
 40
7.0
 40
7.0
 40
7.0
 40
8.0
 40
8.0
 40
8.0
 40
8.0
 10
93.40205075789949
 20
-136.5997585378987
 30
0.0
 10
93.29387475966264
 20
-136.8092203434019
 30
0.0
 10
93.12058645675458
 20
-136.8281683685707
 30
0.0
 10
93.00414222935314
 20
-136.8281683685707
 30
0.0
 10
92.84325627019197
 20
-136.8281683685707
 30
0.0
 10
92.7016628457482
 20
-136.7816595795199
 30
0.0
 10
92.60657821035531
 20
-136.5997585378987
 30
0.0
 10
92.50288083624929
 20
-136.4051106429821
 30
0.0
 10
92.48393281108041
 20
-136.1684325831454
 30
0.0
 10
92.48393281108041
 20
-136.0054795666931
 30
0.0
 10
92.48393281108041
 20
-135.8614745754096
 30
0.0
 10
92.50081377895813
 20
-135.6096380954379
 30
0.0
 10
92.60657821035531
 20
-135.4108560859389
 30
0.0
 10
92.71440969904363
 20
-135.2079399618577
 30
0.0
 10
92.87529565820479
 20
-135.184513312558
 30
0.0
 10
93.00414222935314
 20
-135.184513312558
 30
0.0
 10
93.16296113122316
 20
-135.184513312558
 30
0.0
 10
93.30662161295807
 20
-135.2289550443178
 30
0.0
 10
93.40205075789949
 20
-135.4108560859389
 30
0.0
 10
93.50126950787468
 20
-135.6034369235644
 30
0.0
 10
93.52469615717439
 20
-135.8318467542365
 30
0.0
 10
93.52469615717439
 20
-136.0054795666931
 30
0.0
 10
93.52469615717439
 20
-136.17670081231
 30
0.0
 10
93.50333656516584
 20
-136.4071777002732
 30
0.0
 10
93.40205075789949
 20
-136.5997585378987
 30
0.0
  0
SPLINE
  5
9C
330
95
100
AcDbEntity
  8
_U+30EC_U+30A4_U+30E4_U+30FC 1
370
     0
100
AcDbSpline
210
0.0
220
0.0
230
1.0
 70
    11
 71
     3
 72
    17
 73
    13
 74
     0
 42
0.0000000001
 43
0.0000000001
 12
1.0
 22
0.0
 32
0.0
 13
1.0
 23
0.0
 33
0.0
 40
0.0
 40
0.0
 40
0.0
 40
0.0
 40
1.0
 40
1.0
 40
1.0
 40
2.0
 40
2.0
 40
2.0
 40
3.0
 40
3.0
 40
3.0
 40
4.0
 40
4.0
 40
4.0
 40
4.0
 10
93.00414222935314
 20
-135.3770941501835
 30
0.0
 10
92.75471731622105
 20
-135.3770941501835
 30
0.0
 10
92.70786401762165
 20
-135.6606255086196
 30
0.0
 10
92.70786401762165
 20
-136.0054795666931
 30
0.0
 10
92.70786401762165
 20
-136.3248399181757
 30
0.0
 10
92.74403752021678
 20
-136.6335204736541
 30
0.0
 10
93.00414222935314
 20
-136.6335204736541
 30
0.0
 10
93.2518445947426
 20
-136.6335204736541
 30
0.0
 10
93.30042044108463
 20
-136.3524006820577
 30
0.0
 10
93.30042044108463
 20
-136.0054795666931
 30
0.0
 10
93.30042044108463
 20
-135.6857747056619
 30
0.0
 10
93.26217988119835
 20
-135.3770941501835
 30
0.0
 10
93.00414222935314
 20
-135.3770941501835
 30
0.0
  0
HATCH
  5
9D
330
95
100
AcDbEntity
  8
_U+30EC_U+30A4_U+30E4_U+30FC 1
 62
   179
420
  2234388
100
AcDbHatch
 10
0.0
 20
0.0
 30
0.0
210
0.0
220
0.0
230
1.0
  2
SOLID
 70
     1
 71
     0
 91
        2
 92
        1
 93
        1
 72
     4
 94
        3
 73
     0
 74
     1
 95
       29
 96
       25
 40
0.0
 40
0.0
 40
0.0
 40
0.0
 40
1.0
 40
1.0
 40
1.0
 40
2.0
 40
2.0
 40
2.0
 40
3.0
 40
3.0
 40
3.0
 40
4.0
 40
4.0
 40
4.0
 40
5.0
 40
5.0
 40
5.0
 40
6.0
 40
6.0
 40
6.0
 40
7.0
 40
7.0
 40
7.0
 40
8.0
 40
8.0
 40
8.0
 40
8.0
 10
93.40205075789949
 20
-136.5997585378987
 10
93.29387475966264
 20
-136.8092203434019
 10
93.12058645675458
 20
-136.8281683685707
 10
93.00414222935314
 20
-136.8281683685707
 10
92.84325627019197
 20
-136.8281683685707
 10
92.7016628457482
 20
-136.7816595795199
 10
92.60657821035531
 20
-136.5997585378987
 10
92.50288083624929
 20
-136.4051106429821
 10
92.48393281108041
 20
-136.1684325831454
 10
92.48393281108041
 20
-136.0054795666931
 10
92.48393281108041
 20
-135.8614745754096
 10
92.50081377895813
 20
-135.6096380954379
 10
92.60657821035531
 20
-135.4108560859389
 10
92.71440969904363
 20
-135.2079399618577
 10
92.87529565820479
 20
-135.184513312558
 10
93.00414222935314
 20
-135.184513312558
 10
93.16296113122316
 20
-135.184513312558
 10
93.30662161295807
 20
-135.2289550443178
 10
93.40205075789949
 20
-135.4108560859389
 10
93.50126950787468
 20
-135.6034369235644
 10
93.52469615717439
 20
-135.8318467542365
 10
93.52469615717439
 20
-136.0054795666931
 10
93.52469615717439
 20
-136.17670081231
 10
93.50333656516584
 20
-136.4071777002732
 10
93.40205075789949
 20
-136.5997585378987
 97
        0
 97
        0
 92
        1
 93
        1
 72
     4
 94
        3
 73
     0
 74
     1
 95
       17
 96
       13
 40
0.0
 40
0.0
 40
0.0
 40
0.0
 40
1.0
 40
1.0
 40
1.0
 40
2.0
 40
2.0
 40
2.0
 40
3.0
 40
3.0
 40
3.0
 40
4.0
 40
4.0
 40
4.0
 40
4.0
 10
93.00414222935314
 20
-135.3770941501835
 10
92.75471731622105
 20
-135.3770941501835
 10
92.70786401762165
 20
-135.6606255086196
 10
92.70786401762165
 20
-136.0054795666931
 10
92.70786401762165
 20
-136.3248399181757
 10
92.74403752021678
 20
-136.6335204736541
 10
93.00414222935314
 20
-136.6335204736541
 10
93.2518445947426
 20
-136.6335204736541
 10
93.30042044108463
 20
-136.3524006820577
 10
93.30042044108463
 20
-136.0054795666931
 10
93.30042044108463
 20
-135.6857747056619
 10
93.26217988119835
 20
-135.3770941501835
 10
93.00414222935314
 20
-135.3770941501835
 97
        0
 97
        0
 75
     2
 76
     1
 98
        0
  0
ENDBLK
  5
98
330
95
100
AcDbEntity
  8
0
100
AcDbBlockEnd
  0
BLOCK
  5
A0
330
9E
100
AcDbEntity
  8
0
100
AcDbBlockBegin
  2
block 4
 70
     0
 10
0.0
 20
0.0
 30
0.0
  3
block 4
  1

  0
SPLINE
  5
A2
330
9E
100
AcDbEntity
  8
_U+30EC_U+30A4_U+30E4_U+30FC 1
370
     0
100
AcDbSpline
210
0.0
220
0.0
230
1.0
 70
    11
 71
     3
 72
    62
 73
    58
 74
     0
 42
0.0000000001
 43
0.0000000001
 12
1.0
 22
0.0
 32
0.0
 13
1.0
 23
0.0
 33
0.0
 40
0.0
 40
0.0
 40
0.0
 40
0.0
 40
1.0
 40
1.0
 40
1.0
 40
2.0
 40
2.0
 40
2.0
 40
3.0
 40
3.0
 40
3.0
 40
4.0
 40
4.0
 40
4.0
 40
5.0
 40
5.0
 40
5.0
 40
6.0
 40
6.0
 40
6.0
 40
7.0
 40
7.0
 40
7.0
 40
8.0
 40
8.0
 40
8.0
 40
9.0
 40
9.0
 40
9.0
 40
10.0
 40
10.0
 40
10.0
 40
11.0
 40
11.0
 40
11.0
 40
12.0
 40
12.0
 40
12.0
 40
13.0
 40
13.0
 40
13.0
 40
14.0
 40
14.0
 40
14.0
 40
15.0
 40
15.0
 40
15.0
 40
16.0
 40
16.0
 40
16.0
 40
17.0
 40
17.0
 40
17.0
 40
18.0
 40
18.0
 40
18.0
 40
19.0
 40
19.0
 40
19.0
 40
19.0
 10
99.86160479274294
 20
-131.4431396155767
 30
0.0
 10
99.86160479274294
 20
-131.5385687605181
 30
0.0
 10
99.84058971028291
 20
-131.7562987951859
 30
0.0
 10
99.65455455407943
 20
-131.8813557613005
 30
0.0
 10
99.54224444126028
 20
-131.9554253142334
 30
0.0
 10
99.44302569128509
 20
-131.9595594288157
 30
0.0
 10
99.35827634234793
 20
-131.963693543398
 30
0.0
 10
99.35827634234793
 20
-131.963693543398
 30
0.0
 10
99.35827634234793
 20
-131.7435519418905
 30
0.0
 10
99.35827634234793
 20
-131.7435519418905
 30
0.0
 10
99.4323458952808
 20
-131.7414848845993
 30
0.0
 10
99.66695689782632
 20
-131.7311495981436
 30
0.0
 10
99.66695689782632
 20
-131.4476182397075
 30
0.0
 10
99.66695689782632
 20
-131.3101589298461
 30
0.0
 10
99.59736596902428
 20
-131.1575411998495
 30
0.0
 10
99.3689561383522
 20
-131.1575411998495
 30
0.0
 10
99.25251191095076
 20
-131.1575411998495
 30
0.0
 10
99.20393606460874
 20
-131.1957817597358
 30
0.0
 10
99.17224118614445
 20
-131.2274766382001
 30
0.0
 10
99.09817163321158
 20
-131.301546191133
 30
0.0
 10
99.08542477991615
 20
-131.4179904185344
 30
0.0
 10
99.08542477991615
 20
-131.4727674367499
 30
0.0
 10
99.08542477991615
 20
-131.4920599714673
 30
0.0
 10
99.0874918372073
 20
-131.5278889645139
 30
0.0
 10
99.0916259517896
 20
-131.5554497283959
 30
0.0
 10
99.0916259517896
 20
-131.5554497283959
 30
0.0
 10
98.89697805687298
 20
-131.5554497283959
 30
0.0
 10
98.89697805687298
 20
-131.5554497283959
 30
0.0
 10
98.90352373829495
 20
-131.5172091685096
 30
0.0
 10
98.90559079558611
 20
-131.4751790035895
 30
0.0
 10
98.90559079558611
 20
-131.4686333221676
 30
0.0
 10
98.90559079558611
 20
-131.4031765079478
 30
0.0
 10
98.88423120357756
 20
-131.2043944984489
 30
0.0
 10
98.6475531437409
 20
-131.2043944984489
 30
0.0
 10
98.469786216702
 20
-131.2043944984489
 30
0.0
 10
98.414664688938
 20
-131.3353081268884
 30
0.0
 10
98.414664688938
 20
-131.4455511824164
 30
0.0
 10
98.414664688938
 20
-131.7097900061351
 30
0.0
 10
98.6475531437409
 20
-131.7184027448482
 30
0.0
 10
98.7192111298341
 20
-131.7225368594305
 30
0.0
 10
98.7192111298341
 20
-131.7225368594305
 30
0.0
 10
98.7192111298341
 20
-131.9257974930602
 30
0.0
 10
98.7192111298341
 20
-131.9257974930602
 30
0.0
 10
98.59449867326805
 20
-131.9171847543471
 30
0.0
 10
98.21794973673023
 20
-131.8896239904651
 30
0.0
 10
98.21794973673023
 20
-131.432804329121
 30
0.0
 10
98.21794973673023
 20
-131.2085286130312
 30
0.0
 10
98.34507376013596
 20
-130.9673719290637
 30
0.0
 10
98.64100746231892
 20
-130.9673719290637
 30
0.0
 10
98.82738712807094
 20
-130.9673719290637
 30
0.0
 10
98.9097249101684
 20
-131.0624565644566
 30
0.0
 10
98.97104760980585
 20
-131.1620198239803
 30
0.0
 10
98.99860837368786
 20
-131.1006971243429
 30
0.0
 10
99.07887909849417
 20
-130.9187960827217
 30
0.0
 10
99.35620928505679
 20
-130.9187960827217
 30
0.0
 10
99.69451766170832
 20
-130.9187960827217
 30
0.0
 10
99.86160479274294
 20
-131.1661539385626
 30
0.0
 10
99.86160479274294
 20
-131.4431396155767
 30
0.0
  0
HATCH
  5
A3
330
9E
100
AcDbEntity
  8
_U+30EC_U+30A4_U+30E4_U+30FC 1
 62
   179
420
  2234388
100
AcDbHatch
 10
0.0
 20
0.0
 30
0.0
210
0.0
220
0.0
230
1.0
  2
SOLID
 70
     1
 71
     0
 91
        1
 92
        1
 93
        1
 72
     4
 94
        3
 73
     0
 74
     1
 95
       62
 96
       58
 40
0.0
 40
0.0
 40
0.0
 40
0.0
 40
1.0
 40
1.0
 40
1.0
 40
2.0
 40
2.0
 40
2.0
 40
3.0
 40
3.0
 40
3.0
 40
4.0
 40
4.0
 40
4.0
 40
5.0
 40
5.0
 40
5.0
 40
6.0
 40
6.0
 40
6.0
 40
7.0
 40
7.0
 40
7.0
 40
8.0
 40
8.0
 40
8.0
 40
9.0
 40
9.0
 40
9.0
 40
10.0
 40
10.0
 40
10.0
 40
11.0
 40
11.0
 40
11.0
 40
12.0
 40
12.0
 40
12.0
 40
13.0
 40
13.0
 40
13.0
 40
14.0
 40
14.0
 40
14.0
 40
15.0
 40
15.0
 40
15.0
 40
16.0
 40
16.0
 40
16.0
 40
17.0
 40
17.0
 40
17.0
 40
18.0
 40
18.0
 40
18.0
 40
19.0
 40
19.0
 40
19.0
 40
19.0
 10
99.86160479274294
 20
-131.4431396155767
 10
99.86160479274294
 20
-131.5385687605181
 10
99.84058971028291
 20
-131.7562987951859
 10
99.65455455407943
 20
-131.8813557613005
 10
99.54224444126028
 20
-131.9554253142334
 10
99.44302569128509
 20
-131.9595594288157
 10
99.35827634234793
 20
-131.963693543398
 10
99.35827634234793
 20
-131.963693543398
 10
99.35827634234793
 20
-131.7435519418905
 10
99.35827634234793
 20
-131.7435519418905
 10
99.4323458952808
 20
-131.7414848845993
 10
99.66695689782632
 20
-131.7311495981436
 10
99.66695689782632
 20
-131.4476182397075
 10
99.66695689782632
 20
-131.3101589298461
 10
99.59736596902428
 20
-131.1575411998495
 10
99.3689561383522
 20
-131.1575411998495
 10
99.25251191095076
 20
-131.1575411998495
 10
99.20393606460874
 20
-131.1957817597358
 10
99.17224118614445
 20
-131.2274766382001
 10
99.09817163321158
 20
-131.301546191133
 10
99.08542477991615
 20
-131.4179904185344
 10
99.08542477991615
 20
-131.4727674367499
 10
99.08542477991615
 20
-131.4920599714673
 10
99.0874918372073
 20
-131.5278889645139
 10
99.0916259517896
 20
-131.5554497283959
 10
99.0916259517896
 20
-131.5554497283959
 10
98.89697805687298
 20
-131.5554497283959
 10
98.89697805687298
 20
-131.5554497283959
 10
98.90352373829495
 20
-131.5172091685096
 10
98.90559079558611
 20
-131.4751790035895
 10
98.90559079558611
 20
-131.4686333221676
 10
98.90559079558611
 20
-131.4031765079478
 10
98.88423120357756
 20
-131.2043944984489
 10
98.6475531437409
 20
-131.2043944984489
 10
98.469786216702
 20
-131.2043944984489
 10
98.414664688938
 20
-131.3353081268884
 10
98.414664688938
 20
-131.4455511824164
 10
98.414664688938
 20
-131.7097900061351
 10
98.6475531437409
 20
-131.7184027448482
 10
98.7192111298341
 20
-131.7225368594305
 10
98.7192111298341
 20
-131.7225368594305
 10
98.7192111298341
 20
-131.9257974930602
 10
98.7192111298341
 20
-131.9257974930602
 10
98.59449867326805
 20
-131.9171847543471
 10
98.21794973673023
 20
-131.8896239904651
 10
98.21794973673023
 20
-131.432804329121
 10
98.21794973673023
 20
-131.2085286130312
 10
98.34507376013596
 20
-130.9673719290637
 10
98.64100746231892
 20
-130.9673719290637
 10
98.82738712807094
 20
-130.9673719290637
 10
98.9097249101684
 20
-131.0624565644566
 10
98.97104760980585
 20
-131.1620198239803
 10
98.99860837368786
 20
-131.1006971243429
 10
99.07887909849417
 20
-130.9187960827217
 10
99.35620928505679
 20
-130.9187960827217
 10
99.69451766170832
 20
-130.9187960827217
 10
99.86160479274294
 20
-131.1661539385626
 10
99.86160479274294
 20
-131.4431396155767
 97
        0
 97
        0
 75
     2
 76
     1
 98
        0
  0
POLYLINE
  5
A4
330
9E
100
AcDbEntity
  8
_U+30EC_U+30A4_U+30E4_U+30FC 1
370
     0
100
AcDb2dPolyline
 66
     1
 10
0.0
 20
0.0
 30
0.0
  0
VERTEX
  5
A5
330
A4
100
AcDbEntity
  8
_U+30EC_U+30A4_U+30E4_U+30FC 1
370
     0
100
AcDbVertex
100
AcDb2dVertex
 10
99.81096188910976
 20
-130.6979654621172
 30
0.0
  0
VERTEX
  5
A6
330
A4
100
AcDbEntity
  8
_U+30EC_U+30A4_U+30E4_U+30FC 1
370
     0
100
AcDbVertex
100
AcDb2dVertex
 10
99.559125409138
 20
-130.6979654621172
 30
0.0
  0
VERTEX
  5
A7
330
A4
100
AcDbEntity
  8
_U+30EC_U+30A4_U+30E4_U+30FC 1
370
     0
100
AcDbVertex
100
AcDb2dVertex
 10
99.559125409138
 20
-130.4461289821454
 30
0.0
  0
VERTEX
  5
A8
330
A4
100
AcDbEntity
  8
_U+30EC_U+30A4_U+30E4_U+30FC 1
370
     0
100
AcDbVertex
100
AcDb2dVertex
 10
99.81096188910976
 20
-130.4461289821454
 30
0.0
  0
VERTEX
  5
A9
330
A4
100
AcDbEntity
  8
_U+30EC_U+30A4_U+30E4_U+30FC 1
370
     0
100
AcDbVertex
100
AcDb2dVertex
 10
99.81096188910976
 20
-130.6979654621172
 30
0.0
  0
SEQEND
  5
AA
330
A4
100
AcDbEntity
  8
_U+30EC_U+30A4_U+30E4_U+30FC 1
370
     0
  0
HATCH
  5
AB
330
9E
100
AcDbEntity
  8
_U+30EC_U+30A4_U+30E4_U+30FC 1
 62
   179
420
  2234388
100
AcDbHatch
 10
0.0
 20
0.0
 30
0.0
210
0.0
220
0.0
230
1.0
  2
SOLID
 70
     1
 71
     0
 91
        1
 92
        1
 93
        4
 72
     1
 10
99.81096188910976
 20
-130.6979654621172
 11
99.559125409138
 21
-130.6979654621172
 72
     1
 10
99.559125409138
 20
-130.6979654621172
 11
99.559125409138
 21
-130.4461289821454
 72
     1
 10
99.559125409138
 20
-130.4461289821454
 11
99.81096188910976
 21
-130.4461289821454
 72
     1
 10
99.81096188910976
 20
-130.4461289821454
 11
99.81096188910976
 21
-130.6979654621172
 97
        0
 75
     2
 76
     1
 98
        0
  0
SPLINE
  5
AC
330
9E
100
AcDbEntity
  8
_U+30EC_U+30A4_U+30E4_U+30FC 1
370
     0
100
AcDbSpline
210
0.0
220
0.0
230
1.0
 70
    11
 71
     3
 72
    53
 73
    49
 74
     0
 42
0.0000000001
 43
0.0000000001
 12
1.0
 22
0.0
 32
0.0
 13
1.0
 23
0.0
 33
0.0
 40
0.0
 40
0.0
 40
0.0
 40
0.0
 40
1.0
 40
1.0
 40
1.0
 40
2.0
 40
2.0
 40
2.0
 40
3.0
 40
3.0
 40
3.0
 40
4.0
 40
4.0
 40
4.0
 40
5.0
 40
5.0
 40
5.0
 40
6.0
 40
6.0
 40
6.0
 40
7.0
 40
7.0
 40
7.0
 40
8.0
 40
8.0
 40
8.0
 40
9.0
 40
9.0
 40
9.0
 40
10.0
 40
10.0
 40
10.0
 40
11.0
 40
11.0
 40
11.0
 40
12.0
 40
12.0
 40
12.0
 40
13.0
 40
13.0
 40
13.0
 40
14.0
 40
14.0
 40
14.0
 40
15.0
 40
15.0
 40
15.0
 40
16.0
 40
16.0
 40
16.0
 40
16.0
 10
99.86160479274294
 20
-129.7288601021164
 30
0.0
 10
99.86160479274294
 20
-129.8070637696316
 30
0.0
 10
99.84472382486521
 20
-129.9086940864464
 30
0.0
 10
99.78133406793661
 20
-130.0103244032613
 30
0.0
 10
99.67143552195715
 20
-130.1836127061694
 30
0.0
 10
99.54017738396912
 20
-130.2049722981779
 30
0.0
 10
99.4323458952808
 20
-130.2239203233468
 30
0.0
 10
99.4323458952808
 20
-130.2239203233468
 30
0.0
 10
99.4323458952808
 20
-130.0017116645482
 30
0.0
 10
99.4323458952808
 20
-130.0017116645482
 30
0.0
 10
99.63112790477972
 20
-129.9469346463327
 30
0.0
 10
99.66075572595287
 20
-129.819810622927
 30
0.0
 10
99.66075572595287
 20
-129.7267930448253
 30
0.0
 10
99.66075572595287
 20
-129.5872666776726
 30
0.0
 10
99.56119246642915
 20
-129.4349934572246
 30
0.0
 10
99.32864852117478
 20
-129.4349934572246
 30
0.0
 10
99.07267792662073
 20
-129.4349934572246
 30
0.0
 10
99.00274248827016
 20
-129.6148274415546
 30
0.0
 10
99.00274248827016
 20
-129.7354057835384
 30
0.0
 10
99.00274248827016
 20
-129.7671006620027
 30
0.0
 10
99.00274248827016
 20
-129.9086940864464
 30
0.0
 10
99.13193356896703
 20
-129.9975775499659
 30
0.0
 10
99.13193356896703
 20
-129.9975775499659
 30
0.0
 10
99.11298554379815
 20
-130.1732774197136
 30
0.0
 10
99.11298554379815
 20
-130.1732774197136
 30
0.0
 10
99.11298554379815
 20
-130.1732774197136
 30
0.0
 10
98.26652558307227
 20
-130.0526990777299
 30
0.0
 10
98.26652558307227
 20
-130.0526990777299
 30
0.0
 10
98.26652558307227
 20
-130.0526990777299
 30
0.0
 10
98.26652558307227
 20
-129.2741074980634
 30
0.0
 10
98.26652558307227
 20
-129.2741074980634
 30
0.0
 10
98.26652558307227
 20
-129.2741074980634
 30
0.0
 10
98.46117347798888
 20
-129.2741074980634
 30
0.0
 10
98.46117347798888
 20
-129.2741074980634
 30
0.0
 10
98.46117347798888
 20
-129.2741074980634
 30
0.0
 10
98.46117347798888
 20
-129.8897460612776
 30
0.0
 10
98.46117347798888
 20
-129.8897460612776
 30
0.0
 10
98.46117347798888
 20
-129.8897460612776
 30
0.0
 10
98.88423120357756
 20
-129.9552028754973
 30
0.0
 10
98.88423120357756
 20
-129.9552028754973
 30
0.0
 10
98.8504692678221
 20
-129.8938801758599
 30
0.0
 10
98.81016165064469
 20
-129.8115423937624
 30
0.0
 10
98.81016165064469
 20
-129.6930311090698
 30
0.0
 10
98.81016165064469
 20
-129.4391275718069
 30
0.0
 10
98.9965413163967
 20
-129.2021050024217
 30
0.0
 10
99.30970049600592
 20
-129.2021050024217
 30
0.0
 10
99.62699379019742
 20
-129.2021050024217
 30
0.0
 10
99.86160479274294
 20
-129.4263807185115
 30
0.0
 10
99.86160479274294
 20
-129.7288601021164
 30
0.0
  0
HATCH
  5
AD
330
9E
100
AcDbEntity
  8
_U+30EC_U+30A4_U+30E4_U+30FC 1
 62
   179
420
  2234388
100
AcDbHatch
 10
0.0
 20
0.0
 30
0.0
210
0.0
220
0.0
230
1.0
  2
SOLID
 70
     1
 71
     0
 91
        1
 92
        1
 93
        1
 72
     4
 94
        3
 73
     0
 74
     1
 95
       53
 96
       49
 40
0.0
 40
0.0
 40
0.0
 40
0.0
 40
1.0
 40
1.0
 40
1.0
 40
2.0
 40
2.0
 40
2.0
 40
3.0
 40
3.0
 40
3.0
 40
4.0
 40
4.0
 40
4.0
 40
5.0
 40
5.0
 40
5.0
 40
6.0
 40
6.0
 40
6.0
 40
7.0
 40
7.0
 40
7.0
 40
8.0
 40
8.0
 40
8.0
 40
9.0
 40
9.0
 40
9.0
 40
10.0
 40
10.0
 40
10.0
 40
11.0
 40
11.0
 40
11.0
 40
12.0
 40
12.0
 40
12.0
 40
13.0
 40
13.0
 40
13.0
 40
14.0
 40
14.0
 40
14.0
 40
15.0
 40
15.0
 40
15.0
 40
16.0
 40
16.0
 40
16.0
 40
16.0
 10
99.86160479274294
 20
-129.7288601021164
 10
99.86160479274294
 20
-129.8070637696316
 10
99.84472382486521
 20
-129.9086940864464
 10
99.78133406793661
 20
-130.0103244032613
 10
99.67143552195715
 20
-130.1836127061694
 10
99.54017738396912
 20
-130.2049722981779
 10
99.4323458952808
 20
-130.2239203233468
 10
99.4323458952808
 20
-130.2239203233468
 10
99.4323458952808
 20
-130.0017116645482
 10
99.4323458952808
 20
-130.0017116645482
 10
99.63112790477972
 20
-129.9469346463327
 10
99.66075572595287
 20
-129.819810622927
 10
99.66075572595287
 20
-129.7267930448253
 10
99.66075572595287
 20
-129.5872666776726
 10
99.56119246642915
 20
-129.4349934572246
 10
99.32864852117478
 20
-129.4349934572246
 10
99.07267792662073
 20
-129.4349934572246
 10
99.00274248827016
 20
-129.6148274415546
 10
99.00274248827016
 20
-129.7354057835384
 10
99.00274248827016
 20
-129.7671006620027
 10
99.00274248827016
 20
-129.9086940864464
 10
99.13193356896703
 20
-129.9975775499659
 10
99.13193356896703
 20
-129.9975775499659
 10
99.11298554379815
 20
-130.1732774197136
 10
99.11298554379815
 20
-130.1732774197136
 10
99.11298554379815
 20
-130.1732774197136
 10
98.26652558307227
 20
-130.0526990777299
 10
98.26652558307227
 20
-130.0526990777299
 10
98.26652558307227
 20
-130.0526990777299
 10
98.26652558307227
 20
-129.2741074980634
 10
98.26652558307227
 20
-129.2741074980634
 10
98.26652558307227
 20
-129.2741074980634
 10
98.46117347798888
 20
-129.2741074980634
 10
98.46117347798888
 20
-129.2741074980634
 10
98.46117347798888
 20
-129.2741074980634
 10
98.46117347798888
 20
-129.8897460612776
 10
98.46117347798888
 20
-129.8897460612776
 10
98.46117347798888
 20
-129.8897460612776
 10
98.88423120357756
 20
-129.9552028754973
 10
98.88423120357756
 20
-129.9552028754973
 10
98.8504692678221
 20
-129.8938801758599
 10
98.81016165064469
 20
-129.8115423937624
 10
98.81016165064469
 20
-129.6930311090698
 10
98.81016165064469
 20
-129.4391275718069
 10
98.9965413163967
 20
-129.2021050024217
 10
99.30970049600592
 20
-129.2021050024217
 10
99.62699379019742
 20
-129.2021050024217
 10
99.86160479274294
 20
-129.4263807185115
 10
99.86160479274294
 20
-129.7288601021164
 97
        0
 97
        0
 75
     2
 76
     1
 98
        0
  0
ENDBLK
  5
A1
330
9E
100
AcDbEntity
  8
0
100
AcDbBlockEnd
  0
BLOCK
  5
B0
330
AE
100
AcDbEntity
  8
0
100
AcDbBlockBegin
  2
block 5
 70
     0
 10
0.0
 20
0.0
 30
0.0
  3
block 5
  1

  0
SPLINE
  5
B2
330
AE
100
AcDbEntity
  8
_U+30EC_U+30A4_U+30E4_U+30FC 1
370
     0
100
AcDbSpline
210
0.0
220
0.0
230
1.0
 70
    11
 71
     3
 72
    26
 73
    22
 74
     0
 42
0.0000000001
 43
0.0000000001
 12
1.0
 22
0.0
 32
0.0
 13
1.0
 23
0.0
 33
0.0
 40
0.0
 40
0.0
 40
0.0
 40
0.0
 40
1.0
 40
1.0
 40
1.0
 40
2.0
 40
2.0
 40
2.0
 40
3.0
 40
3.0
 40
3.0
 40
4.0
 40
4.0
 40
4.0
 40
5.0
 40
5.0
 40
5.0
 40
6.0
 40
6.0
 40
6.0
 40
7.0
 40
7.0
 40
7.0
 40
7.0
 10
82.6652384233441
 20
-129.1428493600754
 30
0.0
 10
82.6652384233441
 20
-129.1428493600754
 30
0.0
 10
81.56091306554728
 20
-129.1428493600754
 30
0.0
 10
81.56091306554728
 20
-129.1428493600754
 30
0.0
 10
81.56091306554728
 20
-129.1428493600754
 30
0.0
 10
81.56091306554728
 20
-129.4728895075623
 30
0.0
 10
81.56091306554728
 20
-129.4728895075623
 30
0.0
 10
81.56091306554728
 20
-129.4728895075623
 30
0.0
 10
81.4129462144558
 20
-129.4728895075623
 30
0.0
 10
81.4129462144558
 20
-129.4728895075623
 30
0.0
 10
81.39813230386922
 20
-129.1407823027843
 30
0.0
 10
81.2351792874169
 20
-129.0942735137334
 30
0.0
 10
81.12097437208087
 20
-129.0646456925602
 30
0.0
 10
81.12097437208087
 20
-129.0646456925602
 30
0.0
 10
81.12097437208087
 20
-128.9185736439856
 30
0.0
 10
81.12097437208087
 20
-128.9185736439856
 30
0.0
 10
81.12097437208087
 20
-128.9185736439856
 30
0.0
 10
82.6652384233441
 20
-128.9185736439856
 30
0.0
 10
82.6652384233441
 20
-128.9185736439856
 30
0.0
 10
82.6652384233441
 20
-128.9185736439856
 30
0.0
 10
82.6652384233441
 20
-129.1428493600754
 30
0.0
 10
82.6652384233441
 20
-129.1428493600754
 30
0.0
  0
HATCH
  5
B3
330
AE
100
AcDbEntity
  8
_U+30EC_U+30A4_U+30E4_U+30FC 1
 62
   179
420
  2234388
100
AcDbHatch
 10
0.0
 20
0.0
 30
0.0
210
0.0
220
0.0
230
1.0
  2
SOLID
 70
     1
 71
     0
 91
        1
 92
        1
 93
        1
 72
     4
 94
        3
 73
     0
 74
     1
 95
       26
 96
       22
 40
0.0
 40
0.0
 40
0.0
 40
0.0
 40
1.0
 40
1.0
 40
1.0
 40
2.0
 40
2.0
 40
2.0
 40
3.0
 40
3.0
 40
3.0
 40
4.0
 40
4.0
 40
4.0
 40
5.0
 40
5.0
 40
5.0
 40
6.0
 40
6.0
 40
6.0
 40
7.0
 40
7.0
 40
7.0
 40
7.0
 10
82.6652384233441
 20
-129.1428493600754
 10
82.6652384233441
 20
-129.1428493600754
 10
81.56091306554728
 20
-129.1428493600754
 10
81.56091306554728
 20
-129.1428493600754
 10
81.56091306554728
 20
-129.1428493600754
 10
81.56091306554728
 20
-129.4728895075623
 10
81.56091306554728
 20
-129.4728895075623
 10
81.56091306554728
 20
-129.4728895075623
 10
81.4129462144558
 20
-129.4728895075623
 10
81.4129462144558
 20
-129.4728895075623
 10
81.39813230386922
 20
-129.1407823027843
 10
81.2351792874169
 20
-129.0942735137334
 10
81.12097437208087
 20
-129.0646456925602
 10
81.12097437208087
 20
-129.0646456925602
 10
81.12097437208087
 20
-128.9185736439856
 10
81.12097437208087
 20
-128.9185736439856
 10
81.12097437208087
 20
-128.9185736439856
 10
82.6652384233441
 20
-128.9185736439856
 10
82.6652384233441
 20
-128.9185736439856
 10
82.6652384233441
 20
-128.9185736439856
 10
82.6652384233441
 20
-129.1428493600754
 10
82.6652384233441
 20
-129.1428493600754
 97
        0
 97
        0
 75
     2
 76
     1
 98
        0
  0
SPLINE
  5
B4
330
AE
100
AcDbEntity
  8
_U+30EC_U+30A4_U+30E4_U+30FC 1
370
     0
100
AcDbSpline
210
0.0
220
0.0
230
1.0
 70
    11
 71
     3
 72
    29
 73
    25
 74
     0
 42
0.0000000001
 43
0.0000000001
 12
1.0
 22
0.0
 32
0.0
 13
1.0
 23
0.0
 33
0.0
 40
0.0
 40
0.0
 40
0.0
 40
0.0
 40
1.0
 40
1.0
 40
1.0
 40
2.0
 40
2.0
 40
2.0
 40
3.0
 40
3.0
 40
3.0
 40
4.0
 40
4.0
 40
4.0
 40
5.0
 40
5.0
 40
5.0
 40
6.0
 40
6.0
 40
6.0
 40
7.0
 40
7.0
 40
7.0
 40
8.0
 40
8.0
 40
8.0
 40
8.0
 10
82.48747149630522
 20
-127.5196926221999
 30
0.0
 10
82.69693330180841
 20
-127.6275241108883
 30
0.0
 10
82.71605358175155
 20
-127.8009846685706
 30
0.0
 10
82.71605358175155
 20
-127.917428895972
 30
0.0
 10
82.71605358175155
 20
-128.0781426003589
 30
0.0
 10
82.66954479270068
 20
-128.219908279577
 30
0.0
 10
82.48747149630522
 20
-128.3151651697441
 30
0.0
 10
82.2928236013886
 20
-128.4186902890759
 30
0.0
 10
82.05597328677767
 20
-128.437810569019
 30
0.0
 10
81.89302027032537
 20
-128.437810569019
 30
0.0
 10
81.74918753381618
 20
-128.437810569019
 30
0.0
 10
81.49752330861868
 20
-128.4209296011413
 30
0.0
 10
81.2985690443455
 20
-128.3151651697441
 30
0.0
 10
81.09548066549002
 20
-128.2071614262815
 30
0.0
 10
81.07222627096459
 20
-128.0464477218947
 30
0.0
 10
81.07222627096459
 20
-127.917428895972
 30
0.0
 10
81.07222627096459
 20
-127.7587822488763
 30
0.0
 10
81.11666800272431
 20
-127.6149495123671
 30
0.0
 10
81.2985690443455
 20
-127.5196926221999
 30
0.0
 10
81.49114988197097
 20
-127.4203016174505
 30
0.0
 10
81.71955971264303
 20
-127.3970472229251
 30
0.0
 10
81.89302027032537
 20
-127.3970472229251
 30
0.0
 10
82.06441377071654
 20
-127.3970472229251
 30
0.0
 10
82.29506291345402
 20
-127.4180623053851
 30
0.0
 10
82.48747149630522
 20
-127.5196926221999
 30
0.0
  0
SPLINE
  5
B5
330
AE
100
AcDbEntity
  8
_U+30EC_U+30A4_U+30E4_U+30FC 1
370
     0
100
AcDbSpline
210
0.0
220
0.0
230
1.0
 70
    11
 71
     3
 72
    17
 73
    13
 74
     0
 42
0.0000000001
 43
0.0000000001
 12
1.0
 22
0.0
 32
0.0
 13
1.0
 23
0.0
 33
0.0
 40
0.0
 40
0.0
 40
0.0
 40
0.0
 40
1.0
 40
1.0
 40
1.0
 40
2.0
 40
2.0
 40
2.0
 40
3.0
 40
3.0
 40
3.0
 40
4.0
 40
4.0
 40
4.0
 40
4.0
 10
81.26480710859005
 20
-127.917428895972
 30
0.0
 10
81.26480710859005
 20
-128.1670260638784
 30
0.0
 10
81.54833846702611
 20
-128.2135348529293
 30
0.0
 10
81.89302027032537
 20
-128.2135348529293
 30
0.0
 10
82.21255287658228
 20
-128.2135348529293
 30
0.0
 10
82.52140568683492
 20
-128.1775336051084
 30
0.0
 10
82.52140568683492
 20
-127.917428895972
 30
0.0
 10
82.52140568683492
 20
-127.6698987853568
 30
0.0
 10
82.23994138569002
 20
-127.6211506842405
 30
0.0
 10
81.89302027032537
 20
-127.6211506842405
 30
0.0
 10
81.5736599188427
 20
-127.6211506842405
 30
0.0
 10
81.26480710859005
 20
-127.6593912441268
 30
0.0
 10
81.26480710859005
 20
-127.917428895972
 30
0.0
  0
HATCH
  5
B6
330
AE
100
AcDbEntity
  8
_U+30EC_U+30A4_U+30E4_U+30FC 1
 62
   179
420
  2234388
100
AcDbHatch
 10
0.0
 20
0.0
 30
0.0
210
0.0
220
0.0
230
1.0
  2
SOLID
 70
     1
 71
     0
 91
        2
 92
        1
 93
        1
 72
     4
 94
        3
 73
     0
 74
     1
 95
       29
 96
       25
 40
0.0
 40
0.0
 40
0.0
 40
0.0
 40
1.0
 40
1.0
 40
1.0
 40
2.0
 40
2.0
 40
2.0
 40
3.0
 40
3.0
 40
3.0
 40
4.0
 40
4.0
 40
4.0
 40
5.0
 40
5.0
 40
5.0
 40
6.0
 40
6.0
 40
6.0
 40
7.0
 40
7.0
 40
7.0
 40
8.0
 40
8.0
 40
8.0
 40
8.0
 10
82.48747149630522
 20
-127.5196926221999
 10
82.69693330180841
 20
-127.6275241108883
 10
82.71605358175155
 20
-127.8009846685706
 10
82.71605358175155
 20
-127.917428895972
 10
82.71605358175155
 20
-128.0781426003589
 10
82.66954479270068
 20
-128.219908279577
 10
82.48747149630522
 20
-128.3151651697441
 10
82.2928236013886
 20
-128.4186902890759
 10
82.05597328677767
 20
-128.437810569019
 10
81.89302027032537
 20
-128.437810569019
 10
81.74918753381618
 20
-128.437810569019
 10
81.49752330861868
 20
-128.4209296011413
 10
81.2985690443455
 20
-128.3151651697441
 10
81.09548066549002
 20
-128.2071614262815
 10
81.07222627096459
 20
-128.0464477218947
 10
81.07222627096459
 20
-127.917428895972
 10
81.07222627096459
 20
-127.7587822488763
 10
81.11666800272431
 20
-127.6149495123671
 10
81.2985690443455
 20
-127.5196926221999
 10
81.49114988197097
 20
-127.4203016174505
 10
81.71955971264303
 20
-127.3970472229251
 10
81.89302027032537
 20
-127.3970472229251
 10
82.06441377071654
 20
-127.3970472229251
 10
82.29506291345402
 20
-127.4180623053851
 10
82.48747149630522
 20
-127.5196926221999
 97
        0
 97
        0
 92
        1
 93
        1
 72
     4
 94
        3
 73
     0
 74
     1
 95
       17
 96
       13
 40
0.0
 40
0.0
 40
0.0
 40
0.0
 40
1.0
 40
1.0
 40
1.0
 40
2.0
 40
2.0
 40
2.0
 40
3.0
 40
3.0
 40
3.0
 40
4.0
 40
4.0
 40
4.0
 40
4.0
 10
81.26480710859005
 20
-127.917428895972
 10
81.26480710859005
 20
-128.1670260638784
 10
81.54833846702611
 20
-128.2135348529293
 10
81.89302027032537
 20
-128.2135348529293
 10
82.21255287658228
 20
-128.2135348529293
 10
82.52140568683492
 20
-128.1775336051084
 10
82.52140568683492
 20
-127.917428895972
 10
82.52140568683492
 20
-127.6698987853568
 10
82.23994138569002
 20
-127.6211506842405
 10
81.89302027032537
 20
-127.6211506842405
 10
81.5736599188427
 20
-127.6211506842405
 10
81.26480710859005
 20
-127.6593912441268
 10
81.26480710859005
 20
-127.917428895972
 97
        0
 97
        0
 75
     2
 76
     1
 98
        0
  0
ENDBLK
  5
B1
330
AE
100
AcDbEntity
  8
0
100
AcDbBlockEnd
  0
BLOCK
  5
BD
330
BB
100
AcDbEntity
  8
0
100
AcDbBlockBegin
  2
block 6
 70
     0
 10
0.0
 20
0.0
 30
0.0
  3
block 6
  1

  0
SPLINE
  5
BF
330
BB
100
AcDbEntity
  8
_U+30EC_U+30A4_U+30E4_U+30FC 1
370
     0
100
AcDbSpline
210
0.0
220
0.0
230
1.0
 70
    11
 71
     3
 72
    26
 73
    22
 74
     0
 42
0.0000000001
 43
0.0000000001
 12
1.0
 22
0.0
 32
0.0
 13
1.0
 23
0.0
 33
0.0
 40
0.0
 40
0.0
 40
0.0
 40
0.0
 40
1.0
 40
1.0
 40
1.0
 40
2.0
 40
2.0
 40
2.0
 40
3.0
 40
3.0
 40
3.0
 40
4.0
 40
4.0
 40
4.0
 40
5.0
 40
5.0
 40
5.0
 40
6.0
 40
6.0
 40
6.0
 40
7.0
 40
7.0
 40
7.0
 40
7.0
 10
89.6417290357493
 20
-125.2796915376905
 30
0.0
 10
89.6417290357493
 20
-125.2796915376905
 30
0.0
 10
89.6417290357493
 20
-124.1753661798937
 30
0.0
 10
89.6417290357493
 20
-124.1753661798937
 30
0.0
 10
89.6417290357493
 20
-124.1753661798937
 30
0.0
 10
89.31168888826235
 20
-124.1753661798937
 30
0.0
 10
89.31168888826235
 20
-124.1753661798937
 30
0.0
 10
89.31168888826235
 20
-124.1753661798937
 30
0.0
 10
89.31168888826235
 20
-124.0272270740279
 30
0.0
 10
89.31168888826235
 20
-124.0272270740279
 30
0.0
 10
89.64379609304045
 20
-124.0125854182156
 30
0.0
 10
89.69030488209131
 20
-123.8496324017633
 30
0.0
 10
89.71993270326446
 20
-123.7354274864273
 30
0.0
 10
89.71993270326446
 20
-123.7354274864273
 30
0.0
 10
89.86600475183906
 20
-123.7354274864273
 30
0.0
 10
89.86600475183906
 20
-123.7354274864273
 30
0.0
 10
89.86600475183906
 20
-123.7354274864273
 30
0.0
 10
89.86600475183906
 20
-125.2796915376905
 30
0.0
 10
89.86600475183906
 20
-125.2796915376905
 30
0.0
 10
89.86600475183906
 20
-125.2796915376905
 30
0.0
 10
89.6417290357493
 20
-125.2796915376905
 30
0.0
 10
89.6417290357493
 20
-125.2796915376905
 30
0.0
  0
HATCH
  5
C0
330
BB
100
AcDbEntity
  8
_U+30EC_U+30A4_U+30E4_U+30FC 1
 62
     7
420
 16777215
100
AcDbHatch
 10
0.0
 20
0.0
 30
0.0
210
0.0
220
0.0
230
1.0
  2
SOLID
 70
     1
 71
     0
 91
        1
 92
        1
 93
        1
 72
     4
 94
        3
 73
     0
 74
     1
 95
       26
 96
       22
 40
0.0
 40
0.0
 40
0.0
 40
0.0
 40
1.0
 40
1.0
 40
1.0
 40
2.0
 40
2.0
 40
2.0
 40
3.0
 40
3.0
 40
3.0
 40
4.0
 40
4.0
 40
4.0
 40
5.0
 40
5.0
 40
5.0
 40
6.0
 40
6.0
 40
6.0
 40
7.0
 40
7.0
 40
7.0
 40
7.0
 10
89.6417290357493
 20
-125.2796915376905
 10
89.6417290357493
 20
-125.2796915376905
 10
89.6417290357493
 20
-124.1753661798937
 10
89.6417290357493
 20
-124.1753661798937
 10
89.6417290357493
 20
-124.1753661798937
 10
89.31168888826235
 20
-124.1753661798937
 10
89.31168888826235
 20
-124.1753661798937
 10
89.31168888826235
 20
-124.1753661798937
 10
89.31168888826235
 20
-124.0272270740279
 10
89.31168888826235
 20
-124.0272270740279
 10
89.64379609304045
 20
-124.0125854182156
 10
89.69030488209131
 20
-123.8496324017633
 10
89.71993270326446
 20
-123.7354274864273
 10
89.71993270326446
 20
-123.7354274864273
 10
89.86600475183906
 20
-123.7354274864273
 10
89.86600475183906
 20
-123.7354274864273
 10
89.86600475183906
 20
-123.7354274864273
 10
89.86600475183906
 20
-125.2796915376905
 10
89.86600475183906
 20
-125.2796915376905
 10
89.86600475183906
 20
-125.2796915376905
 10
89.6417290357493
 20
-125.2796915376905
 10
89.6417290357493
 20
-125.2796915376905
 97
        0
 97
        0
 75
     2
 76
     1
 98
        0
  0
ENDBLK
  5
BE
330
BB
100
AcDbEntity
  8
0
100
AcDbBlockEnd
  0
ENDSEC
  0
SECTION
  2
ENTITIES
  0
SPLINE
  5
41
330
1F
100
AcDbEntity
  8
_U+30EC_U+30A4_U+30E4_U+30FC 1
 62
    43
420
 13286281
370
     9
100
AcDbSpline
210
0.0
220
0.0
230
1.0
 70
    11
 71
     3
 72
    56
 73
    52
 74
     0
 42
0.0000000001
 43
0.0000000001
 12
1.0
 22
0.0
 32
0.0
 13
1.0
 23
0.0
 33
0.0
 40
0.0
 40
0.0
 40
0.0
 40
0.0
 40
1.0
 40
1.0
 40
1.0
 40
2.0
 40
2.0
 40
2.0
 40
3.0
 40
3.0
 40
3.0
 40
4.0
 40
4.0
 40
4.0
 40
5.0
 40
5.0
 40
5.0
 40
6.0
 40
6.0
 40
6.0
 40
7.0
 40
7.0
 40
7.0
 40
8.0
 40
8.0
 40
8.0
 40
9.0
 40
9.0
 40
9.0
 40
10.0
 40
10.0
 40
10.0
 40
11.0
 40
11.0
 40
11.0
 40
12.0
 40
12.0
 40
12.0
 40
13.0
 40
13.0
 40
13.0
 40
14.0
 40
14.0
 40
14.0
 40
15.0
 40
15.0
 40
15.0
 40
16.0
 40
16.0
 40
16.0
 40
17.0
 40
17.0
 40
17.0
 40
17.0
 10
101.7074887941147
 20
-128.4414146901119
 30
0.0
 10
101.7074887941147
 20
-128.4414146901119
 30
0.0
 10
97.92684000167817
 20
-128.4417674678897
 30
0.0
 10
97.92684000167817
 20
-128.4417674678897
 30
0.0
 10
97.90376833560012
 20
-128.4417674678897
 30
0.0
 10
97.88101664219661
 20
-128.4477999678882
 30
0.0
 10
97.86069417003236
 20
-128.4595121901074
 30
0.0
 10
97.86069417003236
 20
-128.4595121901074
 30
0.0
 10
97.37149723806837
 20
-128.7414874678146
 30
0.0
 10
97.37149723806837
 20
-128.7414874678146
 30
0.0
 10
97.37149723806837
 20
-128.7414874678146
 30
0.0
 10
88.4073435778741
 20
-128.7414874678146
 30
0.0
 10
88.4073435778741
 20
-128.7414874678146
 30
0.0
 10
88.33431857973711
 20
-128.7414874678146
 30
0.0
 10
88.27505191458246
 20
-128.8007541344663
 30
0.0
 10
88.27505191458246
 20
-128.8737791344481
 30
0.0
 10
88.27505191458246
 20
-128.8737791344481
 30
0.0
 10
88.27505191458246
 20
-132.3740049669062
 30
0.0
 10
88.27505191458246
 20
-132.3740049669062
 30
0.0
 10
88.27505191458246
 20
-132.4470299668881
 30
0.0
 10
88.33431857973711
 20
-132.5062966335398
 30
0.0
 10
88.4073435778741
 20
-132.5062966335398
 30
0.0
 10
88.4073435778741
 20
-132.5062966335398
 30
0.0
 10
97.2646761296825
 20
-132.5066494113176
 30
0.0
 10
97.2646761296825
 20
-132.5066494113176
 30
0.0
 10
97.20096446464125
 20
-132.9224685778804
 30
0.0
 10
96.84095475160363
 20
-133.2418383000229
 30
0.0
 10
96.40756726266028
 20
-133.2418383000229
 30
0.0
 10
96.40756726266028
 20
-133.2418383000229
 30
0.0
 10
88.4073435778741
 20
-133.2418383000229
 30
0.0
 10
88.4073435778741
 20
-133.2418383000229
 30
0.0
 10
87.92901220118846
 20
-133.2418383000229
 30
0.0
 10
87.53968886700406
 20
-132.8525127445646
 30
0.0
 10
87.53968886700406
 20
-132.374357744684
 30
0.0
 10
87.53968886700406
 20
-132.374357744684
 30
0.0
 10
87.53968886700406
 20
-124.3741338577953
 30
0.0
 10
87.53968886700406
 20
-124.3741338577953
 30
0.0
 10
87.53968886700406
 20
-123.9407463579036
 30
0.0
 10
87.85923275852423
 20
-123.5805602468826
 30
0.0
 10
88.27505191458246
 20
-123.5166721913431
 30
0.0
 10
88.27505191458246
 20
-123.5166721913431
 30
0.0
 10
88.27505191458246
 20
-127.873689412476
 30
0.0
 10
88.27505191458246
 20
-127.873689412476
 30
0.0
 10
88.27505191458246
 20
-127.9467144124579
 30
0.0
 10
88.33431857973711
 20
-128.0059810791096
 30
0.0
 10
88.4073435778741
 20
-128.0059810791096
 30
0.0
 10
88.4073435778741
 20
-128.0059810791096
 30
0.0
 10
102.2593743355905
 20
-128.0059810791096
 30
0.0
 10
102.2593743355905
 20
-128.0059810791096
 30
0.0
 10
102.1997901704439
 20
-128.2553949679363
 30
0.0
 10
101.9748237872944
 20
-128.4414146901119
 30
0.0
 10
101.7074887941147
 20
-128.4414146901119
 30
0.0
  0
HATCH
  5
42
330
1F
100
AcDbEntity
  8
_U+30EC_U+30A4_U+30E4_U+30FC 1
 62
    43
420
 13286281
100
AcDbHatch
 10
0.0
 20
0.0
 30
0.0
210
0.0
220
0.0
230
1.0
  2
SOLID
 70
     1
 71
     0
 91
        1
 92
        1
 93
        1
 72
     4
 94
        3
 73
     0
 74
     1
 95
       56
 96
       52
 40
0.0
 40
0.0
 40
0.0
 40
0.0
 40
1.0
 40
1.0
 40
1.0
 40
2.0
 40
2.0
 40
2.0
 40
3.0
 40
3.0
 40
3.0
 40
4.0
 40
4.0
 40
4.0
 40
5.0
 40
5.0
 40
5.0
 40
6.0
 40
6.0
 40
6.0
 40
7.0
 40
7.0
 40
7.0
 40
8.0
 40
8.0
 40
8.0
 40
9.0
 40
9.0
 40
9.0
 40
10.0
 40
10.0
 40
10.0
 40
11.0
 40
11.0
 40
11.0
 40
12.0
 40
12.0
 40
12.0
 40
13.0
 40
13.0
 40
13.0
 40
14.0
 40
14.0
 40
14.0
 40
15.0
 40
15.0
 40
15.0
 40
16.0
 40
16.0
 40
16.0
 40
17.0
 40
17.0
 40
17.0
 40
17.0
 10
101.7074887941147
 20
-128.4414146901119
 10
101.7074887941147
 20
-128.4414146901119
 10
97.92684000167817
 20
-128.4417674678897
 10
97.92684000167817
 20
-128.4417674678897
 10
97.90376833560012
 20
-128.4417674678897
 10
97.88101664219661
 20
-128.4477999678882
 10
97.86069417003236
 20
-128.4595121901074
 10
97.86069417003236
 20
-128.4595121901074
 10
97.37149723806837
 20
-128.7414874678146
 10
97.37149723806837
 20
-128.7414874678146
 10
97.37149723806837
 20
-128.7414874678146
 10
88.4073435778741
 20
-128.7414874678146
 10
88.4073435778741
 20
-128.7414874678146
 10
88.33431857973711
 20
-128.7414874678146
 10
88.27505191458246
 20
-128.8007541344663
 10
88.27505191458246
 20
-128.8737791344481
 10
88.27505191458246
 20
-128.8737791344481
 10
88.27505191458246
 20
-132.3740049669062
 10
88.27505191458246
 20
-132.3740049669062
 10
88.27505191458246
 20
-132.4470299668881
 10
88.33431857973711
 20
-132.5062966335398
 10
88.4073435778741
 20
-132.5062966335398
 10
88.4073435778741
 20
-132.5062966335398
 10
97.2646761296825
 20
-132.5066494113176
 10
97.2646761296825
 20
-132.5066494113176
 10
97.20096446464125
 20
-132.9224685778804
 10
96.84095475160363
 20
-133.2418383000229
 10
96.40756726266028
 20
-133.2418383000229
 10
96.40756726266028
 20
-133.2418383000229
 10
88.4073435778741
 20
-133.2418383000229
 10
88.4073435778741
 20
-133.2418383000229
 10
87.92901220118846
 20
-133.2418383000229
 10
87.53968886700406
 20
-132.8525127445646
 10
87.53968886700406
 20
-132.374357744684
 10
87.53968886700406
 20
-132.374357744684
 10
87.53968886700406
 20
-124.3741338577953
 10
87.53968886700406
 20
-124.3741338577953
 10
87.53968886700406
 20
-123.9407463579036
 10
87.85923275852423
 20
-123.5805602468826
 10
88.27505191458246
 20
-123.5166721913431
 10
88.27505191458246
 20
-123.5166721913431
 10
88.27505191458246
 20
-127.873689412476
 10
88.27505191458246
 20
-127.873689412476
 10
88.27505191458246
 20
-127.9467144124579
 10
88.33431857973711
 20
-128.0059810791096
 10
88.4073435778741
 20
-128.0059810791096
 10
88.4073435778741
 20
-128.0059810791096
 10
102.2593743355905
 20
-128.0059810791096
 10
102.2593743355905
 20
-128.0059810791096
 10
102.1997901704439
 20
-128.2553949679363
 10
101.9748237872944
 20
-128.4414146901119
 10
101.7074887941147
 20
-128.4414146901119
 97
        0
 97
        0
 75
     2
 76
     1
 98
        0
  0
POLYLINE
  5
43
330
1F
100
AcDbEntity
  8
_U+30EC_U+30A4_U+30E4_U+30FC 1
 62
     7
420
 16777215
370
     9
100
AcDb2dPolyline
 66
     1
 10
0.0
 20
0.0
 30
0.0
  0
VERTEX
  5
44
330
43
100
AcDbEntity
  8
_U+30EC_U+30A4_U+30E4_U+30FC 1
 62
     7
420
 16777215
370
     9
100
AcDbVertex
100
AcDb2dVertex
 10
87.70041220702053
 20
-133.0805835778411
 30
0.0
  0
VERTEX
  5
45
330
43
100
AcDbEntity
  8
_U+30EC_U+30A4_U+30E4_U+30FC 1
 62
     7
420
 16777215
370
     9
100
AcDbVertex
100
AcDb2dVertex
 10
83.40781231653388
 20
-137.3738891323234
 30
0.0
  0
SEQEND
  5
46
330
43
100
AcDbEntity
  8
_U+30EC_U+30A4_U+30E4_U+30FC 1
 62
     7
420
 16777215
370
     9
  0
POLYLINE
  5
47
330
1F
100
AcDbEntity
  8
_U+30EC_U+30A4_U+30E4_U+30FC 1
 62
     7
420
 16777215
370
     9
100
AcDb2dPolyline
 66
     1
 10
0.0
 20
0.0
 30
0.0
  0
VERTEX
  5
48
330
47
100
AcDbEntity
  8
_U+30EC_U+30A4_U+30E4_U+30FC 1
 62
     7
420
 16777215
370
     9
100
AcDbVertex
100
AcDb2dVertex
 10
79.19585742398979
 20
-137.3738891323234
 30
0.0
  0
VERTEX
  5
49
330
47
100
AcDbEntity
  8
_U+30EC_U+30A4_U+30E4_U+30FC 1
 62
     7
420
 16777215
370
     9
100
AcDbVertex
100
AcDb2dVertex
 10
83.40781231653388
 20
-137.3738891323234
 30
0.0
  0
SEQEND
  5
4A
330
47
100
AcDbEntity
  8
_U+30EC_U+30A4_U+30E4_U+30FC 1
 62
     7
420
 16777215
370
     9
  0
POLYLINE
  5
4B
330
1F
100
AcDbEntity
  8
_U+30EC_U+30A4_U+30E4_U+30FC 1
 62
     7
420
 16777215
370
     9
100
AcDb2dPolyline
 66
     1
 10
0.0
 20
0.0
 30
0.0
  0
VERTEX
  5
4C
330
4B
100
AcDbEntity
  8
_U+30EC_U+30A4_U+30E4_U+30FC 1
 62
     7
420
 16777215
370
     9
100
AcDbVertex
100
AcDb2dVertex
 10
87.70041220702053
 20
-133.0805835778411
 30
0.0
  0
VERTEX
  5
4D
330
4B
100
AcDbEntity
  8
_U+30EC_U+30A4_U+30E4_U+30FC 1
 62
     7
420
 16777215
370
     9
100
AcDbVertex
100
AcDb2dVertex
 10
86.40162775617726
 20
-133.830941910987
 30
0.0
  0
SEQEND
  5
4E
330
4B
100
AcDbEntity
  8
_U+30EC_U+30A4_U+30E4_U+30FC 1
 62
     7
420
 16777215
370
     9
  0
POLYLINE
  5
4F
330
1F
100
AcDbEntity
  8
_U+30EC_U+30A4_U+30E4_U+30FC 1
 62
     7
420
 16777215
370
     9
100
AcDb2dPolyline
 66
     1
 10
0.0
 20
0.0
 30
0.0
  0
VERTEX
  5
50
330
4F
100
AcDbEntity
  8
_U+30EC_U+30A4_U+30E4_U+30FC 1
 62
     7
420
 16777215
370
     9
100
AcDbVertex
100
AcDb2dVertex
 10
87.70041220702053
 20
-133.0805835778411
 30
0.0
  0
VERTEX
  5
51
330
4F
100
AcDbEntity
  8
_U+30EC_U+30A4_U+30E4_U+30FC 1
 62
     7
420
 16777215
370
     9
100
AcDbVertex
100
AcDb2dVertex
 10
86.95075944836799
 20
-134.3800757997386
 30
0.0
  0
SEQEND
  5
52
330
4F
100
AcDbEntity
  8
_U+30EC_U+30A4_U+30E4_U+30FC 1
 62
     7
420
 16777215
370
     9
  0
INSERT
  5
54
330
1F
100
AcDbEntity
  8
_U+30EC_U+30A4_U+30E4_U+30FC 1
100
AcDbBlockReference
  2
block 2
 10
0.0
 20
0.0
 30
0.0
  0
SPLINE
  5
5C
330
1F
100
AcDbEntity
  8
_U+30EC_U+30A4_U+30E4_U+30FC 1
 62
     7
420
 16777215
370
     9
100
AcDbSpline
210
0.0
220
0.0
230
1.0
 70
    11
 71
     3
 72
    17
 73
    13
 74
     0
 42
0.0000000001
 43
0.0000000001
 12
1.0
 22
0.0
 32
0.0
 13
1.0
 23
0.0
 33
0.0
 40
0.0
 40
0.0
 40
0.0
 40
0.0
 40
1.0
 40
1.0
 40
1.0
 40
2.0
 40
2.0
 40
2.0
 40
3.0
 40
3.0
 40
3.0
 40
4.0
 40
4.0
 40
4.0
 40
4.0
 10
102.4075409984771
 20
-119.3746377479341
 30
0.0
 10
102.4075409984771
 20
-119.3194985812813
 30
0.0
 10
102.3627382218423
 20
-119.2747310812924
 30
0.0
 10
102.3076343343592
 20
-119.2747310812924
 30
0.0
 10
102.2524951690993
 20
-119.2747310812924
 30
0.0
 10
102.2077276702414
 20
-119.3194985812813
 30
0.0
 10
102.2077276702414
 20
-119.3746377479341
 30
0.0
 10
102.2077276702414
 20
-119.4297416368093
 30
0.0
 10
102.2524951690993
 20
-119.4745444145757
 30
0.0
 10
102.3076343343592
 20
-119.4745444145757
 30
0.0
 10
102.3627382218423
 20
-119.4745444145757
 30
0.0
 10
102.4075409984771
 20
-119.4297416368093
 30
0.0
 10
102.4075409984771
 20
-119.3746377479341
 30
0.0
  0
SPLINE
  5
5D
330
1F
100
AcDbEntity
  8
_U+30EC_U+30A4_U+30E4_U+30FC 1
 62
     7
420
 16777215
370
     9
100
AcDbSpline
210
0.0
220
0.0
230
1.0
 70
    11
 71
     3
 72
    17
 73
    13
 74
     0
 42
0.0000000001
 43
0.0000000001
 12
1.0
 22
0.0
 32
0.0
 13
1.0
 23
0.0
 33
0.0
 40
0.0
 40
0.0
 40
0.0
 40
0.0
 40
1.0
 40
1.0
 40
1.0
 40
2.0
 40
2.0
 40
2.0
 40
3.0
 40
3.0
 40
3.0
 40
4.0
 40
4.0
 40
4.0
 40
4.0
 10
88.50707385310754
 20
-119.3746377479341
 30
0.0
 10
88.50707385310754
 20
-119.3194985812813
 30
0.0
 10
88.46230635424965
 20
-119.2747310812924
 30
0.0
 10
88.40716942234268
 20
-119.2747310812924
 30
0.0
 10
88.35206330150663
 20
-119.2747310812924
 30
0.0
 10
88.30726052487186
 20
-119.3194985812813
 30
0.0
 10
88.30726052487186
 20
-119.3746377479341
 30
0.0
 10
88.30726052487186
 20
-119.4297416368093
 30
0.0
 10
88.35206330150663
 20
-119.4745444145757
 30
0.0
 10
88.40716942234268
 20
-119.4745444145757
 30
0.0
 10
88.46230635424965
 20
-119.4745444145757
 30
0.0
 10
88.50707385310754
 20
-119.4297416368093
 30
0.0
 10
88.50707385310754
 20
-119.3746377479341
 30
0.0
  0
POLYLINE
  5
5E
330
1F
100
AcDbEntity
  8
_U+30EC_U+30A4_U+30E4_U+30FC 1
 62
     7
420
 16777215
370
     9
100
AcDb2dPolyline
 66
     1
 10
0.0
 20
0.0
 30
0.0
  0
VERTEX
  5
5F
330
5E
100
AcDbEntity
  8
_U+30EC_U+30A4_U+30E4_U+30FC 1
 62
     7
420
 16777215
370
     9
100
AcDbVertex
100
AcDb2dVertex
 10
88.30726052487186
 20
-119.3746377479341
 30
0.0
  0
VERTEX
  5
60
330
5E
100
AcDbEntity
  8
_U+30EC_U+30A4_U+30E4_U+30FC 1
 62
     7
420
 16777215
370
     9
100
AcDbVertex
100
AcDb2dVertex
 10
102.3076343343592
 20
-119.3746377479341
 30
0.0
  0
SEQEND
  5
61
330
5E
100
AcDbEntity
  8
_U+30EC_U+30A4_U+30E4_U+30FC 1
 62
     7
420
 16777215
370
     9
  0
POLYLINE
  5
62
330
1F
100
AcDbEntity
  8
_U+30EC_U+30A4_U+30E4_U+30FC 1
 62
     7
420
 16777215
370
     9
100
AcDb2dPolyline
 66
     1
 10
0.0
 20
0.0
 30
0.0
  0
VERTEX
  5
63
330
62
100
AcDbEntity
  8
_U+30EC_U+30A4_U+30E4_U+30FC 1
 62
     7
420
 16777215
370
     9
100
AcDbVertex
100
AcDb2dVertex
 10
88.40716942234268
 20
-121.8344160806525
 30
0.0
  0
VERTEX
  5
64
330
62
100
AcDbEntity
  8
_U+30EC_U+30A4_U+30E4_U+30FC 1
 62
     7
420
 16777215
370
     9
100
AcDbVertex
100
AcDb2dVertex
 10
88.40716942234268
 20
-118.3741599704066
 30
0.0
  0
SEQEND
  5
65
330
62
100
AcDbEntity
  8
_U+30EC_U+30A4_U+30E4_U+30FC 1
 62
     7
420
 16777215
370
     9
  0
POLYLINE
  5
66
330
1F
100
AcDbEntity
  8
_U+30EC_U+30A4_U+30E4_U+30FC 1
 62
     7
420
 16777215
370
     9
100
AcDb2dPolyline
 66
     1
 10
0.0
 20
0.0
 30
0.0
  0
VERTEX
  5
67
330
66
100
AcDbEntity
  8
_U+30EC_U+30A4_U+30E4_U+30FC 1
 62
     7
420
 16777215
370
     9
100
AcDbVertex
100
AcDb2dVertex
 10
102.3076343343592
 20
-125.3346419131108
 30
0.0
  0
VERTEX
  5
68
330
66
100
AcDbEntity
  8
_U+30EC_U+30A4_U+30E4_U+30FC 1
 62
     7
420
 16777215
370
     9
100
AcDbVertex
100
AcDb2dVertex
 10
102.3076343343592
 20
-118.3741599704066
 30
0.0
  0
SEQEND
  5
69
330
66
100
AcDbEntity
  8
_U+30EC_U+30A4_U+30E4_U+30FC 1
 62
     7
420
 16777215
370
     9
  0
SPLINE
  5
6A
330
1F
100
AcDbEntity
  8
_U+30EC_U+30A4_U+30E4_U+30FC 1
 62
     7
420
 16777215
370
     9
100
AcDbSpline
210
0.0
220
0.0
230
1.0
 70
    11
 71
     3
 72
    17
 73
    13
 74
     0
 42
0.0000000001
 43
0.0000000001
 12
1.0
 22
0.0
 32
0.0
 13
1.0
 23
0.0
 33
0.0
 40
0.0
 40
0.0
 40
0.0
 40
0.0
 40
1.0
 40
1.0
 40
1.0
 40
2.0
 40
2.0
 40
2.0
 40
3.0
 40
3.0
 40
3.0
 40
4.0
 40
4.0
 40
4.0
 40
4.0
 10
83.5077189806517
 20
-133.3748002444339
 30
0.0
 10
83.5077189806517
 20
-133.3189908000034
 30
0.0
 10
83.46295148179382
 20
-133.2742233000149
 30
0.0
 10
83.40781231653388
 20
-133.2742233000149
 30
0.0
 10
83.35270842905081
 20
-133.2742233000149
 30
0.0
 10
83.30790565241604
 20
-133.3189908000034
 30
0.0
 10
83.30790565241604
 20
-133.3748002444339
 30
0.0
 10
83.30790565241604
 20
-133.429939411087
 30
0.0
 10
83.35270842905081
 20
-133.4747069110755
 30
0.0
 10
83.40781231653388
 20
-133.4747069110755
 30
0.0
 10
83.46295148179382
 20
-133.4747069110755
 30
0.0
 10
83.5077189806517
 20
-133.429939411087
 30
0.0
 10
83.5077189806517
 20
-133.3748002444339
 30
0.0
  0
SPLINE
  5
6B
330
1F
100
AcDbEntity
  8
_U+30EC_U+30A4_U+30E4_U+30FC 1
 62
     7
420
 16777215
370
     9
100
AcDbSpline
210
0.0
220
0.0
230
1.0
 70
    11
 71
     3
 72
    17
 73
    13
 74
     0
 42
0.0000000001
 43
0.0000000001
 12
1.0
 22
0.0
 32
0.0
 13
1.0
 23
0.0
 33
0.0
 40
0.0
 40
0.0
 40
0.0
 40
0.0
 40
1.0
 40
1.0
 40
1.0
 40
2.0
 40
2.0
 40
2.0
 40
3.0
 40
3.0
 40
3.0
 40
4.0
 40
4.0
 40
4.0
 40
4.0
 10
83.5077189806517
 20
-123.3743969136009
 30
0.0
 10
83.5077189806517
 20
-123.3192577469479
 30
0.0
 10
83.46295148179382
 20
-123.2744902469593
 30
0.0
 10
83.40781231653388
 20
-123.2744902469593
 30
0.0
 10
83.35270842905081
 20
-123.2744902469593
 30
0.0
 10
83.30790565241604
 20
-123.3192577469479
 30
0.0
 10
83.30790565241604
 20
-123.3743969136009
 30
0.0
 10
83.30790565241604
 20
-123.4295008024759
 30
0.0
 10
83.35270842905081
 20
-123.4743035802426
 30
0.0
 10
83.40781231653388
 20
-123.4743035802426
 30
0.0
 10
83.46295148179382
 20
-123.4743035802426
 30
0.0
 10
83.5077189806517
 20
-123.4295008024759
 30
0.0
 10
83.5077189806517
 20
-123.3743969136009
 30
0.0
  0
POLYLINE
  5
6C
330
1F
100
AcDbEntity
  8
_U+30EC_U+30A4_U+30E4_U+30FC 1
 62
     7
420
 16777215
370
     9
100
AcDb2dPolyline
 66
     1
 10
0.0
 20
0.0
 30
0.0
  0
VERTEX
  5
6D
330
6C
100
AcDbEntity
  8
_U+30EC_U+30A4_U+30E4_U+30FC 1
 62
     7
420
 16777215
370
     9
100
AcDbVertex
100
AcDb2dVertex
 10
83.40781231653388
 20
-133.3748002444339
 30
0.0
  0
VERTEX
  5
6E
330
6C
100
AcDbEntity
  8
_U+30EC_U+30A4_U+30E4_U+30FC 1
 62
     7
420
 16777215
370
     9
100
AcDbVertex
100
AcDb2dVertex
 10
83.40781231653388
 20
-123.3743969136009
 30
0.0
  0
SEQEND
  5
6F
330
6C
100
AcDbEntity
  8
_U+30EC_U+30A4_U+30E4_U+30FC 1
 62
     7
420
 16777215
370
     9
  0
POLYLINE
  5
70
330
1F
100
AcDbEntity
  8
_U+30EC_U+30A4_U+30E4_U+30FC 1
 62
     7
420
 16777215
370
     9
100
AcDb2dPolyline
 66
     1
 10
0.0
 20
0.0
 30
0.0
  0
VERTEX
  5
71
330
70
100
AcDbEntity
  8
_U+30EC_U+30A4_U+30E4_U+30FC 1
 62
     7
420
 16777215
370
     9
100
AcDbVertex
100
AcDb2dVertex
 10
85.86762586488992
 20
-133.3748002444339
 30
0.0
  0
VERTEX
  5
72
330
70
100
AcDbEntity
  8
_U+30EC_U+30A4_U+30E4_U+30FC 1
 62
     7
420
 16777215
370
     9
100
AcDbVertex
100
AcDb2dVertex
 10
82.40807539759484
 20
-133.3748002444339
 30
0.0
  0
SEQEND
  5
73
330
70
100
AcDbEntity
  8
_U+30EC_U+30A4_U+30E4_U+30FC 1
 62
     7
420
 16777215
370
     9
  0
POLYLINE
  5
74
330
1F
100
AcDbEntity
  8
_U+30EC_U+30A4_U+30E4_U+30FC 1
 62
     7
420
 16777215
370
     9
100
AcDb2dPolyline
 66
     1
 10
0.0
 20
0.0
 30
0.0
  0
VERTEX
  5
75
330
74
100
AcDbEntity
  8
_U+30EC_U+30A4_U+30E4_U+30FC 1
 62
     7
420
 16777215
370
     9
100
AcDbVertex
100
AcDb2dVertex
 10
85.86762586488992
 20
-123.3743969136009
 30
0.0
  0
VERTEX
  5
76
330
74
100
AcDbEntity
  8
_U+30EC_U+30A4_U+30E4_U+30FC 1
 62
     7
420
 16777215
370
     9
100
AcDbVertex
100
AcDb2dVertex
 10
82.40807539759484
 20
-123.3743969136009
 30
0.0
  0
SEQEND
  5
77
330
74
100
AcDbEntity
  8
_U+30EC_U+30A4_U+30E4_U+30FC 1
 62
     7
420
 16777215
370
     9
  0
SPLINE
  5
78
330
1F
100
AcDbEntity
  8
_U+30EC_U+30A4_U+30E4_U+30FC 1
 62
     7
420
 16777215
370
     9
100
AcDbSpline
210
0.0
220
0.0
230
1.0
 70
    11
 71
     3
 72
    17
 73
    13
 74
     0
 42
0.0000000001
 43
0.0000000001
 12
1.0
 22
0.0
 32
0.0
 13
1.0
 23
0.0
 33
0.0
 40
0.0
 40
0.0
 40
0.0
 40
0.0
 40
1.0
 40
1.0
 40
1.0
 40
2.0
 40
2.0
 40
2.0
 40
3.0
 40
3.0
 40
3.0
 40
4.0
 40
4.0
 40
4.0
 40
4.0
 10
100.5071977136255
 20
-128.8734263566704
 30
0.0
 10
100.5071977136255
 20
-128.8183224677955
 30
0.0
 10
100.4624302147677
 20
-128.7735196900288
 30
0.0
 10
100.4072910495077
 20
-128.7735196900288
 30
0.0
 10
100.3521871620246
 20
-128.7735196900288
 30
0.0
 10
100.3073843853899
 20
-128.8183224677955
 30
0.0
 10
100.3073843853899
 20
-128.8734263566704
 30
0.0
 10
100.3073843853899
 20
-128.929271078879
 30
0.0
 10
100.3521871620246
 20
-128.9740385788675
 30
0.0
 10
100.4072910495077
 20
-128.9740385788675
 30
0.0
 10
100.4624302147677
 20
-128.9740385788675
 30
0.0
 10
100.5071977136255
 20
-128.929271078879
 30
0.0
 10
100.5071977136255
 20
-128.8734263566704
 30
0.0
  0
SPLINE
  5
79
330
1F
100
AcDbEntity
  8
_U+30EC_U+30A4_U+30E4_U+30FC 1
 62
     7
420
 16777215
370
     9
100
AcDbSpline
210
0.0
220
0.0
230
1.0
 70
    11
 71
     3
 72
    17
 73
    13
 74
     0
 42
0.0000000001
 43
0.0000000001
 12
1.0
 22
0.0
 32
0.0
 13
1.0
 23
0.0
 33
0.0
 40
0.0
 40
0.0
 40
0.0
 40
0.0
 40
1.0
 40
1.0
 40
1.0
 40
2.0
 40
2.0
 40
2.0
 40
3.0
 40
3.0
 40
3.0
 40
4.0
 40
4.0
 40
4.0
 40
4.0
 10
100.5071977136255
 20
-132.3736521891291
 30
0.0
 10
100.5071977136255
 20
-132.3185483002535
 30
0.0
 10
100.4624302147677
 20
-132.2737455224868
 30
0.0
 10
100.4072910495077
 20
-132.2737455224868
 30
0.0
 10
100.3521871620246
 20
-132.2737455224868
 30
0.0
 10
100.3073843853899
 20
-132.3185483002535
 30
0.0
 10
100.3073843853899
 20
-132.3736521891291
 30
0.0
 10
100.3073843853899
 20
-132.4287913557815
 30
0.0
 10
100.3521871620246
 20
-132.4735588557707
 30
0.0
 10
100.4072910495077
 20
-132.4735588557707
 30
0.0
 10
100.4624302147677
 20
-132.4735588557707
 30
0.0
 10
100.5071977136255
 20
-132.4287913557815
 30
0.0
 10
100.5071977136255
 20
-132.3736521891291
 30
0.0
  0
POLYLINE
  5
7A
330
1F
100
AcDbEntity
  8
_U+30EC_U+30A4_U+30E4_U+30FC 1
 62
     7
420
 16777215
370
     9
100
AcDb2dPolyline
 66
     1
 10
0.0
 20
0.0
 30
0.0
  0
VERTEX
  5
7B
330
7A
100
AcDbEntity
  8
_U+30EC_U+30A4_U+30E4_U+30FC 1
 62
     7
420
 16777215
370
     9
100
AcDbVertex
100
AcDb2dVertex
 10
100.4072910495077
 20
-132.3736521891291
 30
0.0
  0
VERTEX
  5
7C
330
7A
100
AcDbEntity
  8
_U+30EC_U+30A4_U+30E4_U+30FC 1
 62
     7
420
 16777215
370
     9
100
AcDbVertex
100
AcDb2dVertex
 10
100.4072910495077
 20
-128.8734263566704
 30
0.0
  0
SEQEND
  5
7D
330
7A
100
AcDbEntity
  8
_U+30EC_U+30A4_U+30E4_U+30FC 1
 62
     7
420
 16777215
370
     9
  0
POLYLINE
  5
7E
330
1F
100
AcDbEntity
  8
_U+30EC_U+30A4_U+30E4_U+30FC 1
 62
     7
420
 16777215
370
     9
100
AcDb2dPolyline
 66
     1
 10
0.0
 20
0.0
 30
0.0
  0
VERTEX
  5
7F
330
7E
100
AcDbEntity
  8
_U+30EC_U+30A4_U+30E4_U+30FC 1
 62
     7
420
 16777215
370
     9
100
AcDbVertex
100
AcDb2dVertex
 10
98.94728497564445
 20
-132.3736521891291
 30
0.0
  0
VERTEX
  5
80
330
7E
100
AcDbEntity
  8
_U+30EC_U+30A4_U+30E4_U+30FC 1
 62
     7
420
 16777215
370
     9
100
AcDbVertex
100
AcDb2dVertex
 10
101.4070632462236
 20
-132.3736521891291
 30
0.0
  0
SEQEND
  5
81
330
7E
100
AcDbEntity
  8
_U+30EC_U+30A4_U+30E4_U+30FC 1
 62
     7
420
 16777215
370
     9
  0
POLYLINE
  5
82
330
1F
100
AcDbEntity
  8
_U+30EC_U+30A4_U+30E4_U+30FC 1
 62
     7
420
 16777215
370
     9
100
AcDb2dPolyline
 66
     1
 10
0.0
 20
0.0
 30
0.0
  0
VERTEX
  5
83
330
82
100
AcDbEntity
  8
_U+30EC_U+30A4_U+30E4_U+30FC 1
 62
     7
420
 16777215
370
     9
100
AcDbVertex
100
AcDb2dVertex
 10
98.94728497564445
 20
-128.8734263566704
 30
0.0
  0
VERTEX
  5
84
330
82
100
AcDbEntity
  8
_U+30EC_U+30A4_U+30E4_U+30FC 1
 62
     7
420
 16777215
370
     9
100
AcDbVertex
100
AcDb2dVertex
 10
101.4070632462236
 20
-128.8734263566704
 30
0.0
  0
SEQEND
  5
85
330
82
100
AcDbEntity
  8
_U+30EC_U+30A4_U+30E4_U+30FC 1
 62
     7
420
 16777215
370
     9
  0
SPLINE
  5
86
330
1F
100
AcDbEntity
  8
_U+30EC_U+30A4_U+30E4_U+30FC 1
 62
     7
420
 16777215
370
    25
100
AcDbSpline
210
0.0
220
0.0
230
1.0
 70
    11
 71
     3
 72
    44
 73
    40
 74
     0
 42
0.0000000001
 43
0.0000000001
 12
1.0
 22
0.0
 32
0.0
 13
1.0
 23
0.0
 33
0.0
 40
0.0
 40
0.0
 40
0.0
 40
0.0
 40
1.0
 40
1.0
 40
1.0
 40
2.0
 40
2.0
 40
2.0
 40
3.0
 40
3.0
 40
3.0
 40
4.0
 40
4.0
 40
4.0
 40
5.0
 40
5.0
 40
5.0
 40
6.0
 40
6.0
 40
6.0
 40
7.0
 40
7.0
 40
7.0
 40
8.0
 40
8.0
 40
8.0
 40
9.0
 40
9.0
 40
9.0
 40
10.0
 40
10.0
 40
10.0
 40
11.0
 40
11.0
 40
11.0
 40
12.0
 40
12.0
 40
12.0
 40
13.0
 40
13.0
 40
13.0
 40
13.0
 10
88.4073435778741
 20
-127.873689412476
 30
0.0
 10
88.4073435778741
 20
-127.873689412476
 30
0.0
 10
88.4073435778741
 20
-123.3743969136009
 30
0.0
 10
88.4073435778741
 20
-123.3743969136009
 30
0.0
 10
87.85510525862954
 20
-123.3743969136009
 30
0.0
 10
87.40739720037045
 20
-123.8218955246002
 30
0.0
 10
87.40739720037045
 20
-124.3741338577953
 30
0.0
 10
87.40739720037045
 20
-124.3741338577953
 30
0.0
 10
87.40739720037045
 20
-132.374357744684
 30
0.0
 10
87.40739720037045
 20
-132.374357744684
 30
0.0
 10
87.40739720037045
 20
-132.9265960778797
 30
0.0
 10
87.85510525862954
 20
-133.3741299666565
 30
0.0
 10
88.4073435778741
 20
-133.3741299666565
 30
0.0
 10
88.4073435778741
 20
-133.3741299666565
 30
0.0
 10
96.40756726266028
 20
-133.3741299666565
 30
0.0
 10
96.40756726266028
 20
-133.3741299666565
 30
0.0
 10
96.95945280413605
 20
-133.3741299666565
 30
0.0
 10
97.4073041815993
 20
-132.9265960778797
 30
0.0
 10
97.4073041815993
 20
-132.374357744684
 30
0.0
 10
97.4073041815993
 20
-132.374357744684
 30
0.0
 10
88.4073435778741
 20
-132.3740049669062
 30
0.0
 10
88.4073435778741
 20
-132.3740049669062
 30
0.0
 10
88.4073435778741
 20
-132.3740049669062
 30
0.0
 10
88.4073435778741
 20
-128.8737791344481
 30
0.0
 10
88.4073435778741
 20
-128.8737791344481
 30
0.0
 10
88.4073435778741
 20
-128.8737791344481
 30
0.0
 10
97.4073041815993
 20
-128.8737791344481
 30
0.0
 10
97.4073041815993
 20
-128.8737791344481
 30
0.0
 10
97.4073041815993
 20
-128.8737791344481
 30
0.0
 10
97.92684000167817
 20
-128.5740591345233
 30
0.0
 10
97.92684000167817
 20
-128.5740591345233
 30
0.0
 10
97.92684000167817
 20
-128.5740591345233
 30
0.0
 10
101.7074887941147
 20
-128.5737063567455
 30
0.0
 10
101.7074887941147
 20
-128.5737063567455
 30
0.0
 10
102.0940273953644
 20
-128.5737063567455
 30
0.0
 10
102.4075409984771
 20
-128.2602280234904
 30
0.0
 10
102.4075409984771
 20
-127.873689412476
 30
0.0
 10
102.4075409984771
 20
-127.873689412476
 30
0.0
 10
88.4073435778741
 20
-127.873689412476
 30
0.0
 10
88.4073435778741
 20
-127.873689412476
 30
0.0
  0
SPLINE
  5
87
330
1F
100
AcDbEntity
  8
_U+30EC_U+30A4_U+30E4_U+30FC 1
 62
   179
420
  2234388
370
     9
100
AcDbSpline
210
0.0
220
0.0
230
1.0
 70
    11
 71
     3
 72
    17
 73
    13
 74
     0
 42
0.0000000001
 43
0.0000000001
 12
1.0
 22
0.0
 32
0.0
 13
1.0
 23
0.0
 33
0.0
 40
0.0
 40
0.0
 40
0.0
 40
0.0
 40
1.0
 40
1.0
 40
1.0
 40
2.0
 40
2.0
 40
2.0
 40
3.0
 40
3.0
 40
3.0
 40
4.0
 40
4.0
 40
4.0
 40
4.0
 10
87.50800721192918
 20
-137.3738891323234
 30
0.0
 10
87.50800721192918
 20
-137.3187499656703
 30
0.0
 10
87.46320443529443
 20
-137.2739471879036
 30
0.0
 10
87.40739720037045
 20
-137.2739471879036
 30
0.0
 10
87.35229110479072
 20
-137.2739471879036
 30
0.0
 10
87.30748832815596
 20
-137.3187499656703
 30
0.0
 10
87.30748832815596
 20
-137.3738891323234
 30
0.0
 10
87.30748832815596
 20
-137.4289930211983
 30
0.0
 10
87.35229110479072
 20
-137.473795798965
 30
0.0
 10
87.40739720037045
 20
-137.473795798965
 30
0.0
 10
87.46320443529443
 20
-137.473795798965
 30
0.0
 10
87.50800721192918
 20
-137.4289930211983
 30
0.0
 10
87.50800721192918
 20
-137.3738891323234
 30
0.0
  0
POLYLINE
  5
88
330
1F
100
AcDbEntity
  8
_U+30EC_U+30A4_U+30E4_U+30FC 1
 62
   179
420
  2234388
370
     9
100
AcDb2dPolyline
 66
     1
 10
0.0
 20
0.0
 30
0.0
  0
VERTEX
  5
89
330
88
100
AcDbEntity
  8
_U+30EC_U+30A4_U+30E4_U+30FC 1
 62
   179
420
  2234388
370
     9
100
AcDbVertex
100
AcDb2dVertex
 10
87.40739720037045
 20
-137.3738891323234
 30
0.0
  0
VERTEX
  5
8A
330
88
100
AcDbEntity
  8
_U+30EC_U+30A4_U+30E4_U+30FC 1
 62
   179
420
  2234388
370
     9
100
AcDbVertex
100
AcDb2dVertex
 10
97.4073041815993
 20
-137.3738891323234
 30
0.0
  0
SEQEND
  5
8B
330
88
100
AcDbEntity
  8
_U+30EC_U+30A4_U+30E4_U+30FC 1
 62
   179
420
  2234388
370
     9
  0
POLYLINE
  5
8C
330
1F
100
AcDbEntity
  8
_U+30EC_U+30A4_U+30E4_U+30FC 1
 62
   179
420
  2234388
370
     9
100
AcDb2dPolyline
 66
     1
 10
0.0
 20
0.0
 30
0.0
  0
VERTEX
  5
8D
330
8C
100
AcDbEntity
  8
_U+30EC_U+30A4_U+30E4_U+30FC 1
 62
   179
420
  2234388
370
     9
100
AcDbVertex
100
AcDb2dVertex
 10
87.40739720037045
 20
-134.913052466272
 30
0.0
  0
VERTEX
  5
8E
330
8C
100
AcDbEntity
  8
_U+30EC_U+30A4_U+30E4_U+30FC 1
 62
   179
420
  2234388
370
     9
100
AcDbVertex
100
AcDb2dVertex
 10
87.40739720037045
 20
-138.3736260765178
 30
0.0
  0
SEQEND
  5
8F
330
8C
100
AcDbEntity
  8
_U+30EC_U+30A4_U+30E4_U+30FC 1
 62
   179
420
  2234388
370
     9
  0
SPLINE
  5
90
330
1F
100
AcDbEntity
  8
_U+30EC_U+30A4_U+30E4_U+30FC 1
 62
   179
420
  2234388
370
     9
100
AcDbSpline
210
0.0
220
0.0
230
1.0
 70
    11
 71
     3
 72
    17
 73
    13
 74
     0
 42
0.0000000001
 43
0.0000000001
 12
1.0
 22
0.0
 32
0.0
 13
1.0
 23
0.0
 33
0.0
 40
0.0
 40
0.0
 40
0.0
 40
0.0
 40
1.0
 40
1.0
 40
1.0
 40
2.0
 40
2.0
 40
2.0
 40
3.0
 40
3.0
 40
3.0
 40
4.0
 40
4.0
 40
4.0
 40
4.0
 10
97.50791640125469
 20
-137.3738891323234
 30
0.0
 10
97.50791640125469
 20
-137.3187499656703
 30
0.0
 10
97.46311362461994
 20
-137.2739471879036
 30
0.0
 10
97.4073041815993
 20
-137.2739471879036
 30
0.0
 10
97.35220275344
 20
-137.2739471879036
 30
0.0
 10
97.30739997567328
 20
-137.3187499656703
 30
0.0
 10
97.30739997567328
 20
-137.3738891323234
 30
0.0
 10
97.30739997567328
 20
-137.4289930211983
 30
0.0
 10
97.35220275344
 20
-137.473795798965
 30
0.0
 10
97.4073041815993
 20
-137.473795798965
 30
0.0
 10
97.46311362461994
 20
-137.473795798965
 30
0.0
 10
97.50791640125469
 20
-137.4289930211983
 30
0.0
 10
97.50791640125469
 20
-137.3738891323234
 30
0.0
  0
POLYLINE
  5
91
330
1F
100
AcDbEntity
  8
_U+30EC_U+30A4_U+30E4_U+30FC 1
 62
   179
420
  2234388
370
     9
100
AcDb2dPolyline
 66
     1
 10
0.0
 20
0.0
 30
0.0
  0
VERTEX
  5
92
330
91
100
AcDbEntity
  8
_U+30EC_U+30A4_U+30E4_U+30FC 1
 62
   179
420
  2234388
370
     9
100
AcDbVertex
100
AcDb2dVertex
 10
97.4073041815993
 20
-134.913052466272
 30
0.0
  0
VERTEX
  5
93
330
91
100
AcDbEntity
  8
_U+30EC_U+30A4_U+30E4_U+30FC 1
 62
   179
420
  2234388
370
     9
100
AcDbVertex
100
AcDb2dVertex
 10
97.4073041815993
 20
-138.3736260765178
 30
0.0
  0
SEQEND
  5
94
330
91
100
AcDbEntity
  8
_U+30EC_U+30A4_U+30E4_U+30FC 1
 62
   179
420
  2234388
370
     9
  0
INSERT
  5
96
330
1F
100
AcDbEntity
  8
_U+30EC_U+30A4_U+30E4_U+30FC 1
100
AcDbBlockReference
  2
block 3
 10
0.0
 20
0.0
 30
0.0
  0
INSERT
  5
9F
330
1F
100
AcDbEntity
  8
_U+30EC_U+30A4_U+30E4_U+30FC 1
100
AcDbBlockReference
  2
block 4
 10
0.0
 20
0.0
 30
0.0
  0
INSERT
  5
AF
330
1F
100
AcDbEntity
  8
_U+30EC_U+30A4_U+30E4_U+30FC 1
100
AcDbBlockReference
  2
block 5
 10
0.0
 20
0.0
 30
0.0
  0
POLYLINE
  5
B7
330
1F
100
AcDbEntity
  8
_U+30EC_U+30A4_U+30E4_U+30FC 1
 62
     7
420
 16777215
370
     9
100
AcDb2dPolyline
 66
     1
 10
0.0
 20
0.0
 30
0.0
  0
VERTEX
  5
B8
330
B7
100
AcDbEntity
  8
_U+30EC_U+30A4_U+30E4_U+30FC 1
 62
     7
420
 16777215
370
     9
100
AcDbVertex
100
AcDb2dVertex
 10
86.4071289066816
 20
-125.8741449685316
 30
0.0
  0
VERTEX
  5
B9
330
B7
100
AcDbEntity
  8
_U+30EC_U+30A4_U+30E4_U+30FC 1
 62
     7
420
 16777215
370
     9
100
AcDbVertex
100
AcDb2dVertex
 10
92.17765831028866
 20
-125.8741449685316
 30
0.0
  0
SEQEND
  5
BA
330
B7
100
AcDbEntity
  8
_U+30EC_U+30A4_U+30E4_U+30FC 1
 62
     7
420
 16777215
370
     9
  0
INSERT
  5
BC
330
1F
100
AcDbEntity
  8
_U+30EC_U+30A4_U+30E4_U+30FC 1
100
AcDbBlockReference
  2
block 6
 10
0.0
 20
0.0
 30
0.0
  0
ENDSEC
  0
SECTION
  2
OBJECTS
  0
DICTIONARY
  5
C
330
0
100
AcDbDictionary
281
     1
  3
ACAD_GROUP
350
D
  3
ACAD_LAYOUT
350
1A
  3
ACAD_MATERIAL
350
3B
  3
ACAD_MLEADERSTYLE
350
C2
  3
ACAD_MLINESTYLE
350
17
  3
ACAD_PLOTSETTINGS
350
19
  3
ACAD_PLOTSTYLENAME
350
E
  3
ACAD_TABLESTYLE
350
C1
  3
ACAD_VISUALSTYLE
350
2A
  0
SUN
  5
3F
330
29
100
AcDbSun
 90
        1
290
     0
 63
     7
421
 16777215
 40
1.0
291
     1
 91
  2455826
 92
 54000000
292
     0
 70
     2
 71
   256
280
     1
  0
DICTIONARY
  5
D
102
{ACAD_REACTORS
330
C
102
}
330
C
100
AcDbDictionary
281
     1
  0
DICTIONARY
  5
1A
102
{ACAD_REACTORS
330
C
102
}
330
C
100
AcDbDictionary
281
     1
  3
Layout1
350
1E
  3
Layout2
350
26
  3
Model
350
22
  0
DICTIONARY
  5
3B
102
{ACAD_REACTORS
330
C
102
}
330
C
100
AcDbDictionary
281
     1
  3
ByBlock
350
3D
  3
ByLayer
350
3C
  3
Global
350
3E
  0
DICTIONARY
  5
C2
102
{ACAD_REACTORS
330
C
102
}
330
C
100
AcDbDictionary
281
     1
  0
DICTIONARY
  5
17
102
{ACAD_REACTORS
330
C
102
}
330
C
100
AcDbDictionary
281
     1
  3
Standard
350
18
  0
DICTIONARY
  5
19
102
{ACAD_REACTORS
330
C
102
}
330
C
100
AcDbDictionary
281
     1
  0
ACDBDICTIONARYWDFLT
  5
E
102
{ACAD_REACTORS
330
C
102
}
330
C
100
AcDbDictionary
281
     1
  3
Normal
350
F
100
AcDbDictionaryWithDefault
340
F
  0
DICTIONARY
  5
C1
102
{ACAD_REACTORS
330
C
102
}
330
C
100
AcDbDictionary
281
     1
  0
DICTIONARY
  5
2A
102
{ACAD_REACTORS
330
C
102
}
330
C
100
AcDbDictionary
281
     1
  3
2dWireframe
350
2F
  3
3D Hidden
350
31
  3
3dWireframe
350
30
  3
Basic
350
32
  3
Brighten
350
36
  3
ColorChange
350
3A
  3
Conceptual
350
34
  3
Dim
350
35
  3
Facepattern
350
39
  3
Flat
350
2B
  3
FlatWithEdges
350
2C
  3
Gouraud
350
2D
  3
GouraudWithEdges
350
2E
  3
Linepattern
350
38
  3
Realistic
350
33
  3
Thicken
350
37
  0
LAYOUT
  5
1E
102
{ACAD_REACTORS
330
1A
102
}
330
1A
100
AcDbPlotSettings
  1

  2
none_device
  4

  6

 40
0.0
 41
0.0
 42
0.0
 43
0.0
 44
0.0
 45
0.0
 46
0.0
 47
0.0
 48
0.0
 49
0.0
140
0.0
141
0.0
142
1.0
143
1.0
 70
   688
 72
     0
 73
     0
 74
     5
  7

 75
    16
 76
     0
 77
     2
 78
   300
147
1.0
148
0.0
149
0.0
100
AcDbLayout
  1
Layout1
 70
     1
 71
     1
 10
0.0
 20
0.0
 11
12.0
 21
9.0
 12
0.0
 22
0.0
 32
0.0
 14
1.000000000000000E+20
 24
1.000000000000000E+20
 34
1.000000000000000E+20
 15
-1.000000000000000E+20
 25
-1.000000000000000E+20
 35
-1.000000000000000E+20
146
0.0
 13
0.0
 23
0.0
 33
0.0
 16
1.0
 26
0.0
 36
0.0
 17
0.0
 27
1.0
 37
0.0
 76
     0
330
1B
  0
LAYOUT
  5
26
102
{ACAD_REACTORS
330
1A
102
}
330
1A
100
AcDbPlotSettings
  1

  2
none_device
  4

  6

 40
0.0
 41
0.0
 42
0.0
 43
0.0
 44
0.0
 45
0.0
 46
0.0
 47
0.0
 48
0.0
 49
0.0
140
0.0
141
0.0
142
1.0
143
1.0
 70
   688
 72
     0
 73
     0
 74
     5
  7

 75
    16
 76
     0
 77
     2
 78
   300
147
1.0
148
0.0
149
0.0
100
AcDbLayout
  1
Layout2
 70
     1
 71
     2
 10
0.0
 20
0.0
 11
0.0
 21
0.0
 12
0.0
 22
0.0
 32
0.0
 14
0.0
 24
0.0
 34
0.0
 15
0.0
 25
0.0
 35
0.0
146
0.0
 13
0.0
 23
0.0
 33
0.0
 16
1.0
 26
0.0
 36
0.0
 17
0.0
 27
1.0
 37
0.0
 76
     0
330
23
  0
LAYOUT
  5
22
102
{ACAD_REACTORS
330
1A
102
}
330
1A
100
AcDbPlotSettings
  1

  2
none_device
  4

  6

 40
0.0
 41
0.0
 42
0.0
 43
0.0
 44
0.0
 45
0.0
 46
0.0
 47
0.0
 48
0.0
 49
0.0
140
0.0
141
0.0
142
1.0
143
1.0
 70
  1712
 72
     0
 73
     0
 74
     0
  7

 75
     0
 76
     0
 77
     2
 78
   300
147
1.0
148
0.0
149
0.0
100
AcDbLayout
  1
Model
 70
     1
 71
     0
 10
0.0
 20
0.0
 11
12.0
 21
9.0
 12
0.0
 22
0.0
 32
0.0
 14
1.000000000000000E+20
 24
1.000000000000000E+20
 34
1.000000000000000E+20
 15
-1.000000000000000E+20
 25
-1.000000000000000E+20
 35
-1.000000000000000E+20
146
0.0
 13
0.0
 23
0.0
 33
0.0
 16
1.0
 26
0.0
 36
0.0
 17
0.0
 27
1.0
 37
0.0
 76
     0
330
1F
331
29
  0
MATERIAL
  5
3D
102
{ACAD_REACTORS
330
3B
102
}
330
3B
100
AcDbMaterial
  1
ByBlock
 72
     1
 94
      127
  0
MATERIAL
  5
3C
102
{ACAD_REACTORS
330
3B
102
}
330
3B
100
AcDbMaterial
  1
ByLayer
 72
     1
 94
      127
  0
MATERIAL
  5
3E
102
{ACAD_REACTORS
330
3B
102
}
330
3B
100
AcDbMaterial
  1
Global
 72
     1
 94
      127
  0
MLINESTYLE
  5
18
102
{ACAD_REACTORS
330
17
102
}
330
17
100
AcDbMlineStyle
  2
Standard
 70
     0
  3

 62
   256
 51
90.0
 52
90.0
 71
     2
 49
0.5
 62
   256
  6
BYLAYER
 49
-0.5
 62
   256
  6
BYLAYER
  0
ACDBPLACEHOLDER
  5
F
102
{ACAD_REACTORS
330
E
102
}
330
E
  0
VISUALSTYLE
  5
2F
102
{ACAD_REACTORS
330
2A
102
}
330
2A
100
AcDbVisualStyle
  2
2dWireframe
 70
     4
177
     2
291
     0
 71
     0
176
     1
 72
     2
176
     1
 73
     0
176
     1
 90
        0
176
     1
 40
-0.6
176
     1
 41
-30.0
176
     1
 62
     5
 63
     7
421
 16777215
176
     1
 74
     1
176
     1
 91
        4
176
     1
 64
     7
176
     1
 65
   257
176
     1
 75
     1
176
     1
175
     1
176
     1
 42
1.0
176
     1
 92
        0
176
     1
 66
   257
176
     1
 43
1.0
176
     1
 76
     1
176
     1
 77
     6
176
     1
 78
     2
176
     1
 67
     7
176
     1
 79
     5
176
     1
170
     0
176
     1
171
     0
176
     1
290
     0
176
     1
 93
        1
176
     1
 44
0.0
176
     1
173
     0
176
     1
  0
VISUALSTYLE
  5
31
102
{ACAD_REACTORS
330
2A
102
}
330
2A
100
AcDbVisualStyle
  2
3D Hidden
 70
     6
177
     2
291
     0
 71
     1
176
     1
 72
     2
176
     1
 73
     2
176
     1
 90
        0
176
     1
 40
-0.6
176
     1
 41
-30.0
176
     1
 62
     5
 63
     7
421
 16777215
176
     1
 74
     2
176
     1
 91
        2
176
     1
 64
     7
176
     1
 65
   257
176
     1
 75
     2
176
     1
175
     1
176
     1
 42
40.0
176
     1
 92
        0
176
     1
 66
   257
176
     1
 43
1.0
176
     1
 76
     1
176
     1
 77
     6
176
     1
 78
     2
176
     1
 67
     7
176
     1
 79
     3
176
     1
170
     0
176
     1
171
     0
176
     1
290
     0
176
     1
 93
        1
176
     1
 44
0.0
176
     1
173
     0
176
     1
  0
VISUALSTYLE
  5
30
102
{ACAD_REACTORS
330
2A
102
}
330
2A
100
AcDbVisualStyle
  2
3dWireframe
 70
     5
177
     2
291
     0
 71
     0
176
     1
 72
     2
176
     1
 73
     0
176
     1
 90
        0
176
     1
 40
-0.6
176
     1
 41
-30.0
176
     1
 62
     5
 63
     7
421
 16777215
176
     1
 74
     1
176
     1
 91
        4
176
     1
 64
     7
176
     1
 65
   257
176
     1
 75
     1
176
     1
175
     1
176
     1
 42
1.0
176
     1
 92
        0
176
     1
 66
   257
176
     1
 43
1.0
176
     1
 76
     1
176
     1
 77
     6
176
     1
 78
     2
176
     1
 67
     7
176
     1
 79
     5
176
     1
170
     0
176
     1
171
     0
176
     1
290
     0
176
     1
 93
        1
176
     1
 44
0.0
176
     1
173
     0
176
     1
  0
VISUALSTYLE
  5
32
102
{ACAD_REACTORS
330
2A
102
}
330
2A
100
AcDbVisualStyle
  2
Basic
 70
     7
177
     2
291
     1
 71
     1
176
     1
 72
     0
176
     1
 73
     1
176
     1
 90
        0
176
     1
 40
-0.6
176
     1
 41
-30.0
176
     1
 62
     5
 63
     7
421
 16777215
176
     1
 74
     0
176
     1
 91
        4
176
     1
 64
     7
176
     1
 65
   257
176
     1
 75
     1
176
     1
175
     1
176
     1
 42
1.0
176
     1
 92
        8
176
     1
 66
     7
176
     1
 43
1.0
176
     1
 76
     1
176
     1
 77
     6
176
     1
 78
     2
176
     1
 67
     7
176
     1
 79
     5
176
     1
170
     0
176
     1
171
     0
176
     1
290
     0
176
     1
 93
        1
176
     1
 44
0.0
176
     1
173
     0
176
     1
  0
VISUALSTYLE
  5
36
102
{ACAD_REACTORS
330
2A
102
}
330
2A
100
AcDbVisualStyle
  2
Brighten
 70
    12
177
     2
291
     1
 71
     2
176
     1
 72
     2
176
     1
 73
     0
176
     1
 90
        0
176
     1
 40
-0.6
176
     1
 41
-30.0
176
     1
 62
     5
 63
     7
421
 16777215
176
     1
 74
     1
176
     1
 91
        4
176
     1
 64
     7
176
     1
 65
   257
176
     1
 75
     1
176
     1
175
     1
176
     1
 42
1.0
176
     1
 92
        8
176
     1
 66
     7
176
     1
 43
1.0
176
     1
 76
     1
176
     1
 77
     6
176
     1
 78
     2
176
     1
 67
     7
176
     1
 79
     5
176
     1
170
     0
176
     1
171
     0
176
     1
290
     0
176
     1
 93
        1
176
     1
 44
50.0
176
     1
173
     0
176
     1
  0
VISUALSTYLE
  5
3A
102
{ACAD_REACTORS
330
2A
102
}
330
2A
100
AcDbVisualStyle
  2
ColorChange
 70
    16
177
     2
291
     1
 71
     2
176
     1
 72
     2
176
     1
 73
     3
176
     1
 90
        0
176
     1
 40
-0.6
176
     1
 41
-30.0
176
     1
 62
     5
 63
     8
421
  8421504
176
     1
 74
     1
176
     1
 91
        4
176
     1
 64
     7
176
     1
 65
   257
176
     1
 75
     1
176
     1
175
     1
176
     1
 42
1.0
176
     1
 92
        8
176
     1
 66
     8
424
  8421504
176
     1
 43
1.0
176
     1
 76
     1
176
     1
 77
     6
176
     1
 78
     2
176
     1
 67
     7
176
     1
 79
     5
176
     1
170
     0
176
     1
171
     0
176
     1
290
     0
176
     1
 93
        1
176
     1
 44
0.0
176
     1
173
     0
176
     1
  0
VISUALSTYLE
  5
34
102
{ACAD_REACTORS
330
2A
102
}
330
2A
100
AcDbVisualStyle
  2
Conceptual
 70
     9
177
     2
291
     0
 71
     3
176
     1
 72
     2
176
     1
 73
     0
176
     1
 90
        0
176
     1
 40
-0.6
176
     1
 41
-30.0
176
     1
 62
     5
 63
     7
421
 16777215
176
     1
 74
     2
176
     1
 91
        2
176
     1
 64
     7
176
     1
 65
   257
176
     1
 75
     1
176
     1
175
     1
176
     1
 42
40.0
176
     1
 92
        8
176
     1
 66
     7
176
     1
 43
1.0
176
     1
 76
     1
176
     1
 77
     6
176
     1
 78
     2
176
     1
 67
     7
176
     1
 79
     3
176
     1
170
     0
176
     1
171
     0
176
     1
290
     0
176
     1
 93
        1
176
     1
 44
0.0
176
     1
173
     0
176
     1
  0
VISUALSTYLE
  5
35
102
{ACAD_REACTORS
330
2A
102
}
330
2A
100
AcDbVisualStyle
  2
Dim
 70
    11
177
     2
291
     1
 71
     2
176
     1
 72
     2
176
     1
 73
     0
176
     1
 90
        0
176
     1
 40
-0.6
176
     1
 41
-30.0
176
     1
 62
     5
 63
     7
421
 16777215
176
     1
 74
     1
176
     1
 91
        4
176
     1
 64
     7
176
     1
 65
   257
176
     1
 75
     1
176
     1
175
     1
176
     1
 42
1.0
176
     1
 92
        8
176
     1
 66
     7
176
     1
 43
1.0
176
     1
 76
     1
176
     1
 77
     6
176
     1
 78
     2
176
     1
 67
     7
176
     1
 79
     5
176
     1
170
     0
176
     1
171
     0
176
     1
290
     0
176
     1
 93
        1
176
     1
 44
-50.0
176
     1
173
     0
176
     1
  0
VISUALSTYLE
  5
39
102
{ACAD_REACTORS
330
2A
102
}
330
2A
100
AcDbVisualStyle
  2
Facepattern
 70
    15
177
     2
291
     1
 71
     2
176
     1
 72
     2
176
     1
 73
     0
176
     1
 90
        0
176
     1
 40
-0.6
176
     1
 41
-30.0
176
     1
 62
     5
 63
     7
421
 16777215
176
     1
 74
     1
176
     1
 91
        4
176
     1
 64
     7
176
     1
 65
   257
176
     1
 75
     1
176
     1
175
     1
176
     1
 42
1.0
176
     1
 92
        8
176
     1
 66
     7
176
     1
 43
1.0
176
     1
 76
     1
176
     1
 77
     6
176
     1
 78
     2
176
     1
 67
     7
176
     1
 79
     5
176
     1
170
     0
176
     1
171
     0
176
     1
290
     0
176
     1
 93
        1
176
     1
 44
0.0
176
     1
173
     0
176
     1
  0
VISUALSTYLE
  5
2B
102
{ACAD_REACTORS
330
2A
102
}
330
2A
100
AcDbVisualStyle
  2
Flat
 70
     0
177
     2
291
     1
 71
     2
176
     1
 72
     1
176
     1
 73
     1
176
     1
 90
        2
176
     1
 40
-0.6
176
     1
 41
30.0
176
     1
 62
     5
 63
     7
421
 16777215
176
     1
 74
     0
176
     1
 91
        4
176
     1
 64
     7
176
     1
 65
   257
176
     1
 75
     1
176
     1
175
     1
176
     1
 42
1.0
176
     1
 92
        8
176
     1
 66
     7
176
     1
 43
1.0
176
     1
 76
     1
176
     1
 77
     6
176
     1
 78
     2
176
     1
 67
     7
176
     1
 79
     5
176
     1
170
     0
176
     1
171
     0
176
     1
290
     0
176
     1
 93
       13
176
     1
 44
0.0
176
     1
173
     0
176
     1
  0
VISUALSTYLE
  5
2C
102
{ACAD_REACTORS
330
2A
102
}
330
2A
100
AcDbVisualStyle
  2
FlatWithEdges
 70
     1
177
     2
291
     1
 71
     2
176
     1
 72
     1
176
     1
 73
     1
176
     1
 90
        2
176
     1
 40
-0.6
176
     1
 41
30.0
176
     1
 62
     5
 63
     7
421
 16777215
176
     1
 74
     1
176
     1
 91
        4
176
     1
 64
     7
176
     1
 65
   257
176
     1
 75
     1
176
     1
175
     1
176
     1
 42
1.0
176
     1
 92
        0
176
     1
 66
   257
176
     1
 43
1.0
176
     1
 76
     1
176
     1
 77
     6
176
     1
 78
     2
176
     1
 67
     7
176
     1
 79
     5
176
     1
170
     0
176
     1
171
     0
176
     1
290
     0
176
     1
 93
       13
176
     1
 44
0.0
176
     1
173
     0
176
     1
  0
VISUALSTYLE
  5
2D
102
{ACAD_REACTORS
330
2A
102
}
330
2A
100
AcDbVisualStyle
  2
Gouraud
 70
     2
177
     2
291
     1
 71
     2
176
     1
 72
     2
176
     1
 73
     1
176
     1
 90
        2
176
     1
 40
-0.6
176
     1
 41
30.0
176
     1
 62
     5
 63
     7
421
 16777215
176
     1
 74
     0
176
     1
 91
        4
176
     1
 64
     7
176
     1
 65
   257
176
     1
 75
     1
176
     1
175
     1
176
     1
 42
1.0
176
     1
 92
        0
176
     1
 66
     7
176
     1
 43
1.0
176
     1
 76
     1
176
     1
 77
     6
176
     1
 78
     2
176
     1
 67
     7
176
     1
 79
     5
176
     1
170
     0
176
     1
171
     0
176
     1
290
     0
176
     1
 93
       13
176
     1
 44
0.0
176
     1
173
     0
176
     1
  0
VISUALSTYLE
  5
2E
102
{ACAD_REACTORS
330
2A
102
}
330
2A
100
AcDbVisualStyle
  2
GouraudWithEdges
 70
     3
177
     2
291
     1
 71
     2
176
     1
 72
     2
176
     1
 73
     1
176
     1
 90
        2
176
     1
 40
-0.6
176
     1
 41
30.0
176
     1
 62
     5
 63
     7
421
 16777215
176
     1
 74
     1
176
     1
 91
        4
176
     1
 64
     7
176
     1
 65
   257
176
     1
 75
     1
176
     1
175
     1
176
     1
 42
1.0
176
     1
 92
        0
176
     1
 66
   257
176
     1
 43
1.0
176
     1
 76
     1
176
     1
 77
     6
176
     1
 78
     2
176
     1
 67
     7
176
     1
 79
     5
176
     1
170
     0
176
     1
171
     0
176
     1
290
     0
176
     1
 93
       13
176
     1
 44
0.0
176
     1
173
     0
176
     1
  0
VISUALSTYLE
  5
38
102
{ACAD_REACTORS
330
2A
102
}
330
2A
100
AcDbVisualStyle
  2
Linepattern
 70
    14
177
     2
291
     1
 71
     2
176
     1
 72
     2
176
     1
 73
     0
176
     1
 90
        0
176
     1
 40
-0.6
176
     1
 41
-30.0
176
     1
 62
     5
 63
     7
421
 16777215
176
     1
 74
     1
176
     1
 91
        4
176
     1
 64
     7
176
     1
 65
   257
176
     1
 75
     7
176
     1
175
     7
176
     1
 42
1.0
176
     1
 92
        8
176
     1
 66
     7
176
     1
 43
1.0
176
     1
 76
     1
176
     1
 77
     6
176
     1
 78
     2
176
     1
 67
     7
176
     1
 79
     5
176
     1
170
     0
176
     1
171
     0
176
     1
290
     0
176
     1
 93
        1
176
     1
 44
0.0
176
     1
173
     0
176
     1
  0
VISUALSTYLE
  5
33
102
{ACAD_REACTORS
330
2A
102
}
330
2A
100
AcDbVisualStyle
  2
Realistic
 70
     8
177
     2
291
     0
 71
     2
176
     1
 72
     2
176
     1
 73
     0
176
     1
 90
        0
176
     1
 40
-0.6
176
     1
 41
-30.0
176
     1
 62
     5
 63
     7
421
 16777215
176
     1
 74
     1
176
     1
 91
        0
176
     1
 64
     7
176
     1
 65
   257
176
     1
 75
     1
176
     1
175
     1
176
     1
 42
1.0
176
     1
 92
        8
176
     1
 66
     8
424
  7895160
176
     1
 43
1.0
176
     1
 76
     1
176
     1
 77
     6
176
     1
 78
     2
176
     1
 67
     7
176
     1
 79
     5
176
     1
170
     0
176
     1
171
     0
176
     1
290
     0
176
     1
 93
       13
176
     1
 44
0.0
176
     1
173
     0
176
     1
  0
VISUALSTYLE
  5
37
102
{ACAD_REACTORS
330
2A
102
}
330
2A
100
AcDbVisualStyle
  2
Thicken
 70
    13
177
     2
291
     1
 71
     2
176
     1
 72
     2
176
     1
 73
     0
176
     1
 90
        0
176
     1
 40
-0.6
176
     1
 41
-30.0
176
     1
 62
     5
 63
     7
421
 16777215
176
     1
 74
     1
176
     1
 91
        4
176
     1
 64
     7
176
     1
 65
   257
176
     1
 75
     1
176
     1
175
     1
176
     1
 42
1.0
176
     1
 92
       12
176
     1
 66
     7
176
     1
 43
1.0
176
     1
 76
     1
176
     1
 77
     6
176
     1
 78
     2
176
     1
 67
     7
176
     1
 79
     5
176
     1
170
     0
176
     1
171
     0
176
     1
290
     0
176
     1
 93
        1
176
     1
 44
0.0
176
     1
173
     0
176
     1
  0
ENDSEC
  0
EOF
